  0
SECTION
  2
HEADER
  9
$ACADVER
  1
AC1024
  9
$DWGCODEPAGE
  3
ANSI_1252
  9
$EXTMAX
 10
297.0
 20
210.0
 30
0.0
  9
$EXTMIN
 10
0.0
 20
0.0
 30
0.0
  9
$LIMMIN
 10
0.0
 20
0.0
  9
$LIMMAX
 10
297.0
 20
210.0
  9
$VIEWCTR
 10
148.5
 20
105.0
  9
$VIEWSIZE
 40
210.0
  9
$CLAYER
  8
0
  9
$LTSCALE
 40
16.335
  9
$CELTYPE
  6
BYLAYER
  9
$DIMSCALE
 40
1.0
  9
$DIMASZ
 40
3.0
  9
$DIMEXO
 40
0.5
  9
$DIMDLI
 40
11.286
  9
$DIMEXE
 40
1.5
  9
$DIMCEN
 40
2.673
  9
$DIMLFAC
 40
1.0
  9
$DIMBLK
  1
_FILLED
  9
$DIMALT
 70
0
  9
$DIMALTF
 40
0.0393700787
  9
$DIMTXT
 40
3.0
  9
$DIMTOL
 70
1
  9
$DIMLIM
 70
0
  9
$DIMTFAC
 40
1.0
  9
$DIMTP
 40
0.01
  9
$DIMTM
 40
0.01
  9
$DIMGAP
 40
0.625
  9
$DIMDSEP
 70
44
  9
$AUNITS
 70
0
  9
$PDMODE
 70
3
  9
$PDSIZE
 40
3.0
  9
$HANDSEED
  5
55C
  9
$TILEMODE
 70
1
  9
$MEASUREMENT
 70
1
  9
$INSUNITS
 70
4
  0
ENDSEC
  0
SECTION
  2
CLASSES
  0
CLASS
  1
ACDBDICTIONARYWDFLT
  2
AcDbDictionaryWithDefault
  3
AutoCAD 2000
 90
0
 91
1
280
0
281
0
  0
CLASS
  1
ACDBPLACEHOLDER
  2
AcDbPlaceHolder
  3
AutoCAD 2000
 90
0
 91
1
280
0
281
0
  0
CLASS
  1
LAYOUT
  2
AcDbLayout
  3
AutoCAD 2000
 90
0
 91
0
280
0
281
0
  0
ENDSEC
  0
SECTION
  2
TABLES
  0
TABLE
  2
VPORT
  5
8
100
AcDbSymbolTable
 70
2
  0
VPORT
  5
1F4
100
AcDbSymbolTableRecord
100
AcDbViewportTableRecord
  2
*ACTIVE
 70
0
 10
0.0
 20
0.0
 11
1.0
 21
1.0
 12
148.5
 22
105.0
 13
0.0
 23
0.0
 14
1.0
 24
1.0
 15
0.0
 25
0.0
 16
0.0
 26
0.0
 36
1.0
 17
0.0
 27
0.0
 37
0.0
 40
210.0
 41
1.4142857143
 42
50.0
 43
0.0
 44
0.0
 50
0.0
 51
0.0
 71
0
 72
100
 73
1
 74
1
 75
0
 76
0
 77
0
 78
0
  0
ENDTAB
  0
TABLE
  2
LTYPE
  5
5
100
AcDbSymbolTable
 70
6
  0
LTYPE
  5
14
100
AcDbSymbolTableRecord
100
AcDbLinetypeTableRecord
  2
BYBLOCK
 70
0
  3

 72
65
 73
0
 40
0.0
  0
LTYPE
  5
15
100
AcDbSymbolTableRecord
100
AcDbLinetypeTableRecord
  2
BYLAYER
 70
0
  3

 72
65
 73
0
 40
0.0
  0
LTYPE
  5
16
100
AcDbSymbolTableRecord
100
AcDbLinetypeTableRecord
  2
CONTINUOUS
 70
64
  3
Solid line
 72
65
 73
0
 40
0.0
  0
LTYPE
  5
1F5
100
AcDbSymbolTableRecord
100
AcDbLinetypeTableRecord
  2
CENTER
 70
64
  3
____ _ ____ _ ____ _ ____ _ ____ _ ____ _ ____
 72
65
 73
4
 40
0.6
 49
0.375
 74
0
 49
-0.075
 74
0
 49
0.075
 74
0
 49
-0.075
 74
0
  0
LTYPE
  5
1F6
100
AcDbSymbolTableRecord
100
AcDbLinetypeTableRecord
  2
HIDDEN
 70
64
  3
- - - - - - - - - - - - - - - - - - - -
 72
65
 73
2
 40
0.2
 49
0.1
 74
0
 49
-0.1
 74
0
  0
LTYPE
  5
1F7
100
AcDbSymbolTableRecord
100
AcDbLinetypeTableRecord
  2
PHANTOM
 70
64
  3
_____ _ _ _____ _ _ _____ _ _ _____
 72
65
 73
6
 40
0.8
 49
0.45
 74
0
 49
-0.05
 74
0
 49
0.1
 74
0
 49
-0.05
 74
0
 49
0.1
 74
0
 49
-0.05
 74
0
  0
LTYPE
  5
1F8
100
AcDbSymbolTableRecord
100
AcDbLinetypeTableRecord
  2
DOT
 70
64
  3
. . . . . . . . . . . . . . . . . . . .
 72
65
 73
2
 40
0.2
 49
0.1
 74
0
 49
-0.1
 74
0
  0
LTYPE
  5
1F9
100
AcDbSymbolTableRecord
100
AcDbLinetypeTableRecord
  2
DASHED
 70
64
  3
- - - - - - - - - - - - - - - - - - - -
 72
65
 73
2
 40
0.2
 49
0.1
 74
0
 49
-0.1
 74
0
  0
ENDTAB
  0
TABLE
  2
LAYER
  5
2
100
AcDbSymbolTable
 70
36
  0
LAYER
  5
10
100
AcDbSymbolTableRecord
100
AcDbLayerTableRecord
  2
0
 70
0
 62
7
  6
CONTINUOUS
370
-3
390
F
  0
LAYER
  5
1FA
100
AcDbSymbolTableRecord
100
AcDbLayerTableRecord
  2
DEFAULT_1
 70
0
 62
7
  6
CENTER
370
-3
390
F
  0
LAYER
  5
1FB
100
AcDbSymbolTableRecord
100
AcDbLayerTableRecord
  2
DEFAULT_2
 70
0
 62
7
  6
HIDDEN
370
-3
390
F
  0
LAYER
  5
1FC
100
AcDbSymbolTableRecord
100
AcDbLayerTableRecord
  2
DEFAULT_3
 70
0
 62
7
  6
PHANTOM
370
-3
390
F
  0
LAYER
  5
1FD
100
AcDbSymbolTableRecord
100
AcDbLayerTableRecord
  2
ASSI
 70
0
 62
7
  6
CONTINUOUS
370
-3
390
F
  0
LAYER
  5
1FE
100
AcDbSymbolTableRecord
100
AcDbLayerTableRecord
  2
COLOR9
 70
0
 62
7
  6
CONTINUOUS
370
-3
390
F
  0
LAYER
  5
1FF
100
AcDbSymbolTableRecord
100
AcDbLayerTableRecord
  2
COORDINATE
 70
0
 62
7
  6
CONTINUOUS
370
-3
390
F
  0
LAYER
  5
200
100
AcDbSymbolTableRecord
100
AcDbLayerTableRecord
  2
COORD_ORIGINE
 70
0
 62
7
  6
CONTINUOUS
370
-3
390
F
  0
LAYER
  5
201
100
AcDbSymbolTableRecord
100
AcDbLayerTableRecord
  2
COPY-PUBBLISH
 70
0
 62
7
  6
CONTINUOUS
370
-3
390
F
  0
LAYER
  5
202
100
AcDbSymbolTableRecord
100
AcDbLayerTableRecord
  2
COPY_PUBLISH
 70
0
 62
7
  6
CONTINUOUS
370
-3
390
F
  0
LAYER
  5
203
100
AcDbSymbolTableRecord
100
AcDbLayerTableRecord
  2
COSMETICHE
 70
0
 62
7
  6
CONTINUOUS
370
-3
390
F
  0
LAYER
  5
204
100
AcDbSymbolTableRecord
100
AcDbLayerTableRecord
  2
COSMETICI
 70
0
 62
7
  6
CONTINUOUS
370
-3
390
F
  0
LAYER
  5
205
100
AcDbSymbolTableRecord
100
AcDbLayerTableRecord
  2
CURVA_CENTRALE
 70
0
 62
7
  6
CONTINUOUS
370
-3
390
F
  0
LAYER
  5
206
100
AcDbSymbolTableRecord
100
AcDbLayerTableRecord
  2
CURVE
 70
0
 62
7
  6
CONTINUOUS
370
-3
390
F
  0
LAYER
  5
207
100
AcDbSymbolTableRecord
100
AcDbLayerTableRecord
  2
DRAFT
 70
0
 62
7
  6
CONTINUOUS
370
-3
390
F
  0
LAYER
  5
208
100
AcDbSymbolTableRecord
100
AcDbLayerTableRecord
  2
IMPORTED
 70
0
 62
7
  6
CONTINUOUS
370
-3
390
F
  0
LAYER
  5
209
100
AcDbSymbolTableRecord
100
AcDbLayerTableRecord
  2
IMPORT_IGES
 70
0
 62
7
  6
CONTINUOUS
370
-3
390
F
  0
LAYER
  5
20A
100
AcDbSymbolTableRecord
100
AcDbLayerTableRecord
  2
INTFCLR_2
 70
0
 62
7
  6
CONTINUOUS
370
-3
390
F
  0
LAYER
  5
20B
100
AcDbSymbolTableRecord
100
AcDbLayerTableRecord
  2
INTF_1
 70
0
 62
7
  6
CONTINUOUS
370
-3
390
F
  0
LAYER
  5
20C
100
AcDbSymbolTableRecord
100
AcDbLayerTableRecord
  2
INTF_11
 70
0
 62
7
  6
CONTINUOUS
370
-3
390
F
  0
LAYER
  5
20D
100
AcDbSymbolTableRecord
100
AcDbLayerTableRecord
  2
INTF_2
 70
0
 62
7
  6
CONTINUOUS
370
-3
390
F
  0
LAYER
  5
20E
100
AcDbSymbolTableRecord
100
AcDbLayerTableRecord
  2
INTF_4
 70
0
 62
7
  6
CONTINUOUS
370
-3
390
F
  0
LAYER
  5
20F
100
AcDbSymbolTableRecord
100
AcDbLayerTableRecord
  2
INTF_9
 70
0
 62
7
  6
CONTINUOUS
370
-3
390
F
  0
LAYER
  5
210
100
AcDbSymbolTableRecord
100
AcDbLayerTableRecord
  2
INTF_YELLOW
 70
0
 62
7
  6
CONTINUOUS
370
-3
390
F
  0
LAYER
  5
211
100
AcDbSymbolTableRecord
100
AcDbLayerTableRecord
  2
NOTE
 70
0
 62
7
  6
CONTINUOUS
370
-3
390
F
  0
LAYER
  5
212
100
AcDbSymbolTableRecord
100
AcDbLayerTableRecord
  2
PIANI
 70
0
 62
7
  6
CONTINUOUS
370
-3
390
F
  0
LAYER
  5
213
100
AcDbSymbolTableRecord
100
AcDbLayerTableRecord
  2
PIANI_ORIGINE
 70
0
 62
7
  6
CONTINUOUS
370
-3
390
F
  0
LAYER
  5
214
100
AcDbSymbolTableRecord
100
AcDbLayerTableRecord
  2
PIANI_RIFERIMENTO
 70
0
 62
7
  6
CONTINUOUS
370
-3
390
F
  0
LAYER
  5
215
100
AcDbSymbolTableRecord
100
AcDbLayerTableRecord
  2
PUNTI
 70
0
 62
7
  6
CONTINUOUS
370
-3
390
F
  0
LAYER
  5
216
100
AcDbSymbolTableRecord
100
AcDbLayerTableRecord
  2
RACCORDO
 70
0
 62
7
  6
CONTINUOUS
370
-3
390
F
  0
LAYER
  5
217
100
AcDbSymbolTableRecord
100
AcDbLayerTableRecord
  2
RGB__255__255__255__
 70
0
 62
7
  6
CONTINUOUS
370
-3
390
F
  0
LAYER
  5
218
100
AcDbSymbolTableRecord
100
AcDbLayerTableRecord
  2
RGB____0____0____0__
 70
0
 62
7
  6
CONTINUOUS
370
-3
390
F
  0
LAYER
  5
219
100
AcDbSymbolTableRecord
100
AcDbLayerTableRecord
  2
SIMBOLI
 70
0
 62
7
  6
CONTINUOUS
370
-3
390
F
  0
LAYER
  5
21A
100
AcDbSymbolTableRecord
100
AcDbLayerTableRecord
  2
SMUSSO
 70
0
 62
7
  6
CONTINUOUS
370
-3
390
F
  0
LAYER
  5
21B
100
AcDbSymbolTableRecord
100
AcDbLayerTableRecord
  2
SNAPLINE
 70
0
 62
7
  6
CONTINUOUS
370
-3
390
F
  0
LAYER
  5
21C
100
AcDbSymbolTableRecord
100
AcDbLayerTableRecord
  2
SUPERFICI
 70
0
 62
7
  6
CONTINUOUS
370
-3
390
F
  0
LAYER
  5
21D
100
AcDbSymbolTableRecord
100
AcDbLayerTableRecord
  2
TRASH
 70
0
 62
7
  6
CONTINUOUS
370
-3
390
F
  0
LAYER
  5
21E
100
AcDbSymbolTableRecord
100
AcDbLayerTableRecord
  2
XSEC_DATUMS
 70
0
 62
7
  6
CONTINUOUS
370
-3
390
F
  0
ENDTAB
  0
TABLE
  2
STYLE
  5
3
100
AcDbSymbolTable
 70
1
  0
STYLE
  5
11
100
AcDbSymbolTableRecord
100
AcDbTextStyleTableRecord
  2
STANDARD
 70
0
 40
0.0
 41
0.8
 50
0.0
 71
0
 42
0.2
  3
txt
  4

  0
STYLE
  5
21F
100
AcDbSymbolTableRecord
100
AcDbTextStyleTableRecord
  2
TEXTSTYLE_1
 70
0
 40
0.0
 41
0.8
 50
0.0
 71
0
 42
0.2
  3
gdt
  4

  0
ENDTAB
  0
TABLE
  2
VIEW
  5
6
100
AcDbSymbolTable
 70
0
  0
ENDTAB
  0
TABLE
  2
UCS
  5
7
100
AcDbSymbolTable
 70
0
  0
ENDTAB
  0
TABLE
  2
APPID
  5
9
100
AcDbSymbolTable
 70
1
  0
APPID
  5
220
100
AcDbSymbolTableRecord
100
AcDbRegAppTableRecord
  2
ACAD
 70
0
  0
ENDTAB
  0
TABLE
  2
BLOCK_RECORD
  5
1
100
AcDbSymbolTable
 70
0
  0
BLOCK_RECORD
  5
221
100
AcDbSymbolTableRecord
100
AcDbBlockTableRecord
  2
*Model_Space
  0
BLOCK_RECORD
  5
222
100
AcDbSymbolTableRecord
100
AcDbBlockTableRecord
  2
*Paper_Space
  0
BLOCK_RECORD
  5
223
100
AcDbSymbolTableRecord
100
AcDbBlockTableRecord
  2
_FILLED
  0
ENDTAB
  0
TABLE
  2
DIMSTYLE
  5
A
100
AcDbSymbolTable
 70
1
100
AcDbDimStyleTable
 71
0
  0
DIMSTYLE
105
224
100
AcDbSymbolTableRecord
100
AcDbDimStyleTableRecord
  2
STANDARD
 70
0
  3

  4

 40
1.0
 41
3.0
 42
0.5
 43
0.38
 44
1.5
 45
0.0
 46
0.0
 47
0.01
 48
0.01
140
3.0
141
0.09
142
0.0
143
25.4
144
1.0
145
0.0
146
1.0
147
0.625
 71
1
 72
0
 73
0
 74
0
 75
0
 76
0
 77
1
 78
8
 79
2
170
0
171
1
172
0
173
0
174
0
175
0
176
0
177
0
178
0
270
2
179
2
271
2
272
2
273
2
274
2
275
0
280
0
281
0
282
0
283
1
284
8
285
0
286
0
287
3
288
0
340
11
278
44
341
223
342
223
343
223
344
223
  0
ENDTAB
  0
ENDSEC
  0
SECTION
  2
BLOCKS
  0
BLOCK
  5
20
100
AcDbEntity
  8
0
100
AcDbBlockBegin
  2
*Model_Space
 70
0
 10
0.0
 20
0.0
 30
0.0
  3
*Model_Space
  1

  0
ENDBLK
  5
21
100
AcDbEntity
  8
0
100
AcDbBlockEnd
  0
BLOCK
  5
1C
100
AcDbEntity
  8
0
100
AcDbBlockBegin
  2
*Paper_Space
 70
0
 10
0.0
 20
0.0
 30
0.0
  3
*Paper_Space
  1

  0
ENDBLK
  5
1D
100
AcDbEntity
  8
0
100
AcDbBlockEnd
  0
BLOCK
  5
225
100
AcDbEntity
  8
0
100
AcDbBlockBegin
  2
_FILLED
 70
64
 10
0.0
 20
0.0
  3
_FILLED
  1

  0
SOLID
  5
226
100
AcDbEntity
  8
0
  6
BYBLOCK
 62
0
100
AcDbTrace
 10
0.0
 20
0.0
 11
-1.0
 21
0.3166666667
 12
-1.0
 22
-0.3166666667
 13
-1.0
 23
-0.3166666667
  0
ENDBLK
  5
227
100
AcDbEntity
  8
0
  6
BYBLOCK
 62
0
100
AcDbBlockEnd
  0
ENDSEC
  0
SECTION
  2
ENTITIES
  0
LWPOLYLINE
  5
228
100
AcDbEntity
  8
RACCORDO
100
AcDbPolyline
 62
250
  6
CONTINUOUS
 90
3
 70
0
 10
-78.8005172607
 20
116.3733662754
 10
-78.7163116017
 20
116.4355714282
 10
-78.6311845507
 20
116.4896058441
  0
LWPOLYLINE
  5
229
100
AcDbEntity
  8
RACCORDO
100
AcDbPolyline
 62
250
  6
CONTINUOUS
 90
7
 70
0
 10
-79.7643749311
 20
79.3178705927
 10
-79.7594035826
 20
79.2853284321
 10
-79.7462154037
 20
79.2525597452
 10
-79.7250592984
 20
79.2211468725
 10
-79.6962853144
 20
79.1916095695
 10
-79.6603695444
 20
79.1644365587
 10
-79.6179062485
 20
79.1400774432
  0
LWPOLYLINE
  5
22A
100
AcDbEntity
  8
RACCORDO
100
AcDbPolyline
 62
7
  6
CONTINUOUS
 90
13
 70
0
 10
-79.7643544115
 20
79.3178830303
 10
-79.7637739939
 20
79.302791887
 10
-79.754137977
 20
79.1866173368
 10
-79.7356504434
 20
79.0754406005
 10
-79.7083405255
 20
78.9693079417
 10
-79.6724634727
 20
78.8689901056
 10
-79.6288572617
 20
78.7760729416
 10
-79.5784919983
 20
78.691452179
 10
-79.5217316422
 20
78.6147048576
 10
-79.4588414614
 20
78.5455911754
 10
-79.3905642711
 20
78.4845424979
 10
-79.3176092554
 20
78.4318331422
 10
-79.2362058642
 20
78.3853557818
  0
LWPOLYLINE
  5
22B
100
AcDbEntity
  8
RACCORDO
100
AcDbPolyline
 62
250
  6
CONTINUOUS
 90
10
 70
0
 10
-79.6179062543
 20
79.1400774836
 10
-79.7328365589
 20
83.0329587306
 10
-79.8190429034
 20
86.9421292628
 10
-79.876517902
 20
90.8672626856
 10
-79.9052566306
 20
94.8080312208
 10
-79.9052566305
 20
98.7641059836
 10
-79.8765179018
 20
102.7351570125
 10
-79.8190429033
 20
106.7208529638
 10
-79.7328365589
 20
110.7208611356
 10
-79.6179062546
 20
114.7348477471
  0
LWPOLYLINE
  5
22C
100
AcDbEntity
  8
RACCORDO
100
AcDbPolyline
 62
250
  6
CONTINUOUS
 90
8
 70
0
 10
-79.7643709366
 20
114.9095742008
 10
-79.7643770002
 20
114.9029382081
 10
-79.759372435
 20
114.8724259034
 10
-79.7461825443
 20
114.8422653796
 10
-79.7250255494
 20
114.8129556309
 10
-79.6962514839
 20
114.7849815755
 10
-79.6603364029
 20
114.7588060323
 10
-79.6178745064
 20
114.734862065
  0
LWPOLYLINE
  5
22D
100
AcDbEntity
  8
RACCORDO
100
AcDbPolyline
 62
7
  6
CONTINUOUS
 90
10
 70
0
 10
-79.7643933474
 20
114.9097463229
 10
-79.8773848518
 20
110.9725829956
 10
-79.9645433318
 20
106.9497160398
 10
-80.0226438372
 20
102.9412784264
 10
-80.0516786502
 20
98.9476537041
 10
-80.0516460745
 20
94.9691591833
 10
-80.0225455473
 20
91.0060874481
 10
-79.9643776944
 20
87.058755049
 10
-79.8771491596
 20
83.1275384729
 10
-79.7643749311
 20
79.3178705927
  0
LWPOLYLINE
  5
22E
100
AcDbEntity
  8
RACCORDO
100
AcDbPolyline
 62
250
  6
CONTINUOUS
 90
17
 70
0
 10
-79.6179062545
 20
114.7348477471
 10
-79.6108947371
 20
114.8446999067
 10
-79.5969168251
 20
114.9570806589
 10
-79.576068125
 20
115.0712344295
 10
-79.5484954235
 20
115.1863958445
 10
-79.5143833811
 20
115.3017896115
 10
-79.4739531123
 20
115.4166357213
 10
-79.4274833463
 20
115.5301647175
 10
-79.3752901707
 20
115.6416137677
 10
-79.3177124183
 20
115.7502264954
 10
-79.2551461197
 20
115.8552760629
 10
-79.1880179584
 20
115.956057701
 10
-79.1167638724
 20
116.0518843673
 10
-79.0418731213
 20
116.1421155709
 10
-78.9638575938
 20
116.2261474132
 10
-78.8832245145
 20
116.3034043975
 10
-78.8005172607
 20
116.3733662754
  0
LWPOLYLINE
  5
22F
100
AcDbEntity
  8
RACCORDO
100
AcDbPolyline
 62
7
  6
CONTINUOUS
 90
17
 70
0
 10
-78.8673997107
 20
116.4966659081
 10
-78.9634513742
 20
116.4342785706
 10
-79.0527243892
 20
116.3660296853
 10
-79.1381588058
 20
116.2905203922
 10
-79.2195592309
 20
116.2082422731
 10
-79.2965821796
 20
116.1198256863
 10
-79.3690176159
 20
116.0256738529
 10
-79.4366036734
 20
115.9262641482
 10
-79.4988091111
 20
115.8224848948
 10
-79.555332495
 20
115.7148376109
 10
-79.6058989616
 20
115.6038502212
 10
-79.6500367901
 20
115.4905358786
 10
-79.6874629712
 20
115.3754381575
 10
-79.717930668
 20
115.2590540496
 10
-79.7410906454
 20
115.1422474721
 10
-79.7566495121
 20
115.0255751365
 10
-79.7643709366
 20
114.9095742008
  0
LINE
  5
230
100
AcDbEntity
  8
RACCORDO
100
AcDbLine
 62
7
  6
CONTINUOUS
 10
-78.8676489024
 20
116.4965445757
 11
-77.3807617469
 21
117.3779745397
  0
LINE
  5
231
100
AcDbEntity
  8
RACCORDO
100
AcDbLine
 62
250
  6
CONTINUOUS
 10
-78.6311845507
 20
116.4896058441
 11
-77.1457131646
 21
117.370196537
  0
LINE
  5
232
100
AcDbEntity
  8
ASSI
100
AcDbLine
 62
7
  6
CONTINUOUS
 10
-74.639880987
 20
119.1041808638
 11
-73.667211126
 21
119.6713364825
  0
LINE
  5
233
100
AcDbEntity
  8
0
100
AcDbLine
 62
250
  6
CONTINUOUS
 10
-74.4059782119
 20
119.0957334291
 11
-73.4333083509
 21
119.6628890478
  0
LWPOLYLINE
  5
234
100
AcDbEntity
  8
ASSI
100
AcDbPolyline
 62
7
  6
CONTINUOUS
 90
14
 70
0
 10
-73.6672097867
 20
119.6713339592
 10
-73.6603256742
 20
119.6751601601
 10
-73.6442251902
 20
119.6827009338
 10
-73.627359751
 20
119.6887382432
 10
-73.6098988487
 20
119.6932121671
 10
-73.5918366177
 20
119.6961071651
 10
-73.5731789236
 20
119.6974387777
 10
-73.5541128555
 20
119.6971937057
 10
-73.5346343473
 20
119.6953563031
 10
-73.5147474652
 20
119.691942216
 10
-73.4946514957
 20
119.686985083
 10
-73.474412868
 20
119.6804961171
 10
-73.4539651531
 20
119.6724641054
 10
-73.4333083509
 20
119.6628890478
  0
LWPOLYLINE
  5
235
100
AcDbEntity
  8
0
100
AcDbPolyline
 62
7
  6
CONTINUOUS
 90
10
 70
0
 10
-74.639868105
 20
119.1041565367
 10
-74.6330356718
 20
119.1079355484
 10
-74.6084667943
 20
119.1187502952
 10
-74.5825626932
 20
119.1260577964
 10
-74.5552937724
 20
119.1297794411
 10
-74.5266896281
 20
119.1299938401
 10
-74.4973918417
 20
119.1266968525
 10
-74.4676142738
 20
119.1198870979
 10
-74.4371430638
 20
119.1095659568
 10
-74.4059782119
 20
119.0957334291
  0
LWPOLYLINE
  5
236
100
AcDbEntity
  8
RACCORDO
100
AcDbPolyline
 62
250
  6
CONTINUOUS
 90
7
 70
0
 10
-78.867411174
 20
116.4966852561
 10
-78.847977744
 20
116.5066371107
 10
-78.8098974023
 20
116.5186954349
 10
-78.7684485095
 20
116.5230289873
 10
-78.7243390334
 20
116.5195637481
 10
-78.6783223849
 20
116.5083589057
 10
-78.6311845507
 20
116.4896058441
  0
LWPOLYLINE
  5
237
100
AcDbEntity
  8
RACCORDO
100
AcDbPolyline
 62
7
  6
CONTINUOUS
 90
8
 70
0
 10
-77.3807217104
 20
117.377899762
 10
-77.3532790522
 20
117.3913693409
 10
-77.3223724442
 20
117.400426211
 10
-77.2892104911
 20
117.4045456142
 10
-77.2548571873
 20
117.4035955485
 10
-77.2196671972
 20
117.3975320134
 10
-77.1832858564
 20
117.3863990096
 10
-77.1457131646
 20
117.370196537
  0
LWPOLYLINE
  5
238
100
AcDbEntity
  8
0
100
AcDbPolyline
 62
7
  6
CONTINUOUS
 90
11
 70
0
 10
-74.7592624778
 20
118.8391646685
 10
-74.75782932
 20
118.8767219696
 10
-74.7538104748
 20
118.9121282932
 10
-74.7472059421
 20
118.9453836392
 10
-74.7379254543
 20
118.9767062174
 10
-74.7260592791
 20
119.005877818
 10
-74.711878219
 20
119.0322438124
 10
-74.6953302523
 20
119.0557398796
 10
-74.6764674008
 20
119.0764303406
 10
-74.6557165323
 20
119.0938535293
 10
-74.639868105
 20
119.1041565367
  0
LINE
  5
239
100
AcDbEntity
  8
0
100
AcDbLine
 62
250
  6
CONTINUOUS
 10
-73.8613757721
 20
115.7280278407
 11
-73.8474717271
 21
115.7363824205
  0
LINE
  5
23A
100
AcDbEntity
  8
0
100
AcDbLine
 62
7
  6
CONTINUOUS
 10
-74.1218135069
 20
115.8582467081
 11
-73.5371138245
 21
116.1737056008
  0
LINE
  5
23B
100
AcDbEntity
  8
0
100
AcDbLine
 62
250
  6
CONTINUOUS
 10
-73.8474717286
 20
115.7363824213
 11
-73.0795935314
 21
116.1506703251
  0
LINE
  5
23C
100
AcDbEntity
  8
DRAFT
100
AcDbLine
 62
7
  6
CONTINUOUS
 10
-70.0248029207
 20
117.634031356
 11
-69.0535215322
 21
118.1484162655
  0
LINE
  5
23D
100
AcDbEntity
  8
DRAFT
100
AcDbLine
 62
7
  6
CONTINUOUS
 10
-70.5631166884
 20
117.4408240916
 11
-69.5745430728
 21
117.9614153888
  0
LINE
  5
23E
100
AcDbEntity
  8
DRAFT
100
AcDbLine
 62
7
  6
CONTINUOUS
 10
-69.6967662319
 20
117.7361332972
 11
-68.711925789
 21
118.254825711
  0
LINE
  5
23F
100
AcDbEntity
  8
DRAFT
100
AcDbLine
 62
7
  6
CONTINUOUS
 10
-70.8569507235
 20
117.3212196849
 11
-70.0749385853
 21
117.7299706467
  0
LINE
  5
240
100
AcDbEntity
  8
DRAFT
100
AcDbLine
 62
7
  6
CONTINUOUS
 10
-70.0749385853
 20
117.7299706467
 11
-69.8267946422
 21
117.8596321934
  0
LWPOLYLINE
  5
241
100
AcDbEntity
  8
DRAFT
100
AcDbPolyline
 62
7
  6
CONTINUOUS
 90
21
 70
0
 10
-70.1540884015
 20
117.2916689882
 10
-70.1615454161
 20
117.287929226
 10
-70.1794997594
 20
117.2804536603
 10
-70.1982424015
 20
117.2747459964
 10
-70.2177645849
 20
117.2707870105
 10
-70.2378526101
 20
117.2686205262
 10
-70.2585131378
 20
117.2682665441
 10
-70.2797395072
 20
117.2697050637
 10
-70.3012980362
 20
117.2729199082
 10
-70.3231914161
 20
117.2779304502
 10
-70.3454169556
 20
117.2847173172
 10
-70.3677328987
 20
117.293206215
 10
-70.3901406703
 20
117.3034158348
 10
-70.4126388454
 20
117.3153274855
 10
-70.4349813938
 20
117.3288107994
 10
-70.4571662969
 20
117.34388272
 10
-70.4791955733
 20
117.3605263039
 10
-70.5008292481
 20
117.3785603528
 10
-70.5219873297
 20
117.3979244674
 10
-70.5427498098
 20
117.418679047
 10
-70.5631166884
 20
117.4408240916
  0
LINE
  5
242
100
AcDbEntity
  8
0
100
AcDbLine
 62
7
  6
CONTINUOUS
 10
-73.5162859847
 20
116.1841210067
 11
-73.5371148613
 21
116.1737050414
  0
LINE
  5
243
100
AcDbEntity
  8
DRAFT
100
AcDbLine
 62
7
  6
CONTINUOUS
 10
-68.711925789
 20
118.254825711
 11
-65.8688949342
 21
119.6012712897
  0
LINE
  5
244
100
AcDbEntity
  8
DRAFT
100
AcDbLine
 62
7
  6
CONTINUOUS
 10
-69.5745430728
 20
117.9614153888
 11
-66.7414506609
 21
119.3027023232
  0
LINE
  5
245
100
AcDbEntity
  8
DRAFT
100
AcDbLine
 62
7
  6
CONTINUOUS
 10
-69.8390046072
 20
117.8657371759
 11
-67.4017494092
 21
119.0178277162
  0
LINE
  5
246
100
AcDbEntity
  8
RACCORDO
100
AcDbLine
 62
7
  6
CONTINUOUS
 10
-64.1203153694
 20
120.5395073444
 11
-66.7410207546
 21
119.3017920578
  0
LINE
  5
247
100
AcDbEntity
  8
RACCORDO
100
AcDbLine
 62
250
  6
CONTINUOUS
 10
-65.8612559221
 20
119.5974517837
 11
-63.9006208653
 21
120.5234248766
  0
LINE
  5
248
100
AcDbEntity
  8
DRAFT
100
AcDbLine
 62
7
  6
CONTINUOUS
 10
-69.0535215322
 20
118.1484162655
 11
-66.1724911712
 21
119.5069087046
  0
LINE
  5
249
100
AcDbEntity
  8
0
100
AcDbLine
 62
7
  6
CONTINUOUS
 10
-73.5162842801
 20
116.1841219261
 11
-73.1565595921
 21
116.3502547079
  0
LINE
  5
24A
100
AcDbEntity
  8
0
100
AcDbLine
 62
250
  6
CONTINUOUS
 10
-73.0795935314
 20
116.1506703251
 11
-72.7198688434
 21
116.3168031068
  0
LINE
  5
24B
100
AcDbEntity
  8
RACCORDO
100
AcDbLine
 62
250
  6
CONTINUOUS
 10
-64.1203153694
 20
120.5395073444
 11
-64.1103895213
 21
120.5438541813
  0
LWPOLYLINE
  5
24C
100
AcDbEntity
  8
RACCORDO
100
AcDbPolyline
 62
250
  6
CONTINUOUS
 90
9
 70
0
 10
-63.9006208546
 20
120.5234248712
 10
-63.870216349
 20
120.5363698415
 10
-63.8400733277
 20
120.545984861
 10
-63.8104160653
 20
120.5521951399
 10
-63.7814636736
 20
120.5549511554
 10
-63.7534343612
 20
120.5542284041
 10
-63.726543111
 20
120.5500299883
 10
-63.7009906589
 20
120.5423858164
 10
-63.6831844143
 20
120.534606536
  0
LWPOLYLINE
  5
24D
100
AcDbEntity
  8
DRAFT
100
AcDbPolyline
 62
7
  6
CONTINUOUS
 90
10
 70
0
 10
-70.8569507235
 20
117.3212196849
 10
-70.8245015487
 20
117.3349367059
 10
-70.7920025078
 20
117.3485468583
 10
-70.7594536008
 20
117.3620501421
 10
-70.72685469
 20
117.3754466134
 10
-70.694205913
 20
117.3887362162
 10
-70.6615076831
 20
117.4019187822
 10
-70.6287601378
 20
117.4149942554
 10
-70.5959631396
 20
117.4279626919
 10
-70.5631166884
 20
117.4408240916
  0
LINE
  5
24E
100
AcDbEntity
  8
DRAFT
100
AcDbLine
 62
7
  6
CONTINUOUS
 10
-69.8267946422
 20
117.8596321934
 11
-69.7709938556
 21
117.8828004927
  0
LWPOLYLINE
  5
24F
100
AcDbEntity
  8
0
100
AcDbPolyline
 62
7
  6
CONTINUOUS
 90
9
 70
0
 10
-73.156512647
 20
116.3501579812
 10
-73.1252452262
 20
116.3629514901
 10
-73.0733942408
 20
116.3775601887
 10
-73.01880431
 20
116.3849938853
 10
-72.9615362603
 20
116.3854114907
 10
-72.9028797253
 20
116.3788022873
 10
-72.8432645832
 20
116.3651627026
 10
-72.7822609559
 20
116.3444963091
 10
-72.7198688434
 20
116.3168031068
  0
LINE
  5
250
100
AcDbEntity
  8
DRAFT
100
AcDbLine
 62
7
  6
CONTINUOUS
 10
-69.7709938556
 20
117.8828004927
 11
-69.7150467098
 21
117.9056548485
  0
LWPOLYLINE
  5
251
100
AcDbEntity
  8
RACCORDO
100
AcDbPolyline
 62
7
  6
CONTINUOUS
 90
6
 70
0
 10
-66.7414506609
 20
119.3027023232
 10
-66.8914815224
 20
119.2426403677
 10
-67.0404399074
 20
119.1803407566
 10
-67.1883258161
 20
119.1158034899
 10
-67.3351522697
 20
119.0490223982
 10
-67.4017492213
 20
119.0178273326
  0
LINE
  5
252
100
AcDbEntity
  8
DRAFT
100
AcDbLine
 62
7
  6
CONTINUOUS
 10
-69.7150467098
 20
117.9056548485
 11
-69.6589538973
 21
117.9281949781
  0
LWPOLYLINE
  5
253
100
AcDbEntity
  8
DRAFT
100
AcDbPolyline
 62
7
  6
CONTINUOUS
 90
3
 70
0
 10
-69.6589538973
 20
117.9281949781
 10
-69.6027161124
 20
117.9504206023
 10
-69.5745430728
 20
117.9614153888
  0
LWPOLYLINE
  5
254
100
AcDbEntity
  8
RACCORDO
100
AcDbPolyline
 62
250
  6
CONTINUOUS
 90
9
 70
0
 10
-64.1103895213
 20
120.5438541813
 10
-64.0870202617
 20
120.5516056222
 10
-64.0625133615
 20
120.5564268625
 10
-64.0370235128
 20
120.5582874697
 10
-64.0107116125
 20
120.5571756991
 10
-63.9837437465
 20
120.5530985686
 10
-63.9562901411
 20
120.5460818137
 10
-63.9285240889
 20
120.5361697255
 10
-63.9006208546
 20
120.5234248712
  0
LWPOLYLINE
  5
255
100
AcDbEntity
  8
DRAFT
100
AcDbPolyline
 62
7
  6
CONTINUOUS
 90
10
 70
0
 10
-66.1724911712
 20
119.5069087046
 10
-66.1389416661
 20
119.5178233179
 10
-66.1053462024
 20
119.5286304938
 10
-66.0717047799
 20
119.5393302323
 10
-66.0380172572
 20
119.5499225774
 10
-66.0042837758
 20
119.5604074851
 10
-65.9705047603
 20
119.5707848233
 10
-65.9366803523
 20
119.5810545482
 10
-65.9028104103
 20
119.5912167037
 10
-65.8688949342
 20
119.6012712897
  0
LWPOLYLINE
  5
256
100
AcDbEntity
  8
0
100
AcDbPolyline
 62
250
  6
CONTINUOUS
 90
8
 70
0
 10
-45.8112612995
 20
67.6511911655
 10
-45.8013912104
 20
67.6508280368
 10
-45.7626455652
 20
67.6519139722
 10
-45.7245044333
 20
67.6554915449
 10
-45.6876060185
 20
67.6615008923
 10
-45.6525677304
 20
67.6698414621
 10
-45.6199758539
 20
67.6803736939
 10
-45.5903757386
 20
67.6929213552
  0
LWPOLYLINE
  5
257
100
AcDbEntity
  8
RACCORDO
100
AcDbPolyline
 62
7
  6
CONTINUOUS
 90
11
 70
0
 10
-48.7202290177
 20
63.1273692651
 10
-48.6994616958
 20
63.1172722441
 10
-48.6191967568
 20
63.0841510824
 10
-48.5344902044
 20
63.0584678253
 10
-48.4460393815
 20
63.0408297611
 10
-48.3548407115
 20
63.0317090036
 10
-48.2615106502
 20
63.0313201643
 10
-48.1666598461
 20
63.0398162924
 10
-48.071150129
 20
63.0572435207
 10
-47.9755358983
 20
63.08355639
 10
-47.8838617038
 20
63.1171440634
  0
LINE
  5
258
100
AcDbEntity
  8
RACCORDO
100
AcDbLine
 62
250
  6
CONTINUOUS
 10
-79.6179062543
 20
79.1400774836
 11
-49.1144078538
 21
63.8883282833
  0
LINE
  5
259
100
AcDbEntity
  8
RACCORDO
100
AcDbLine
 62
7
  6
CONTINUOUS
 10
-48.7186753444
 20
63.1265670565
 11
-79.2360733218
 21
78.3852661774
  0
LWPOLYLINE
  5
25A
100
AcDbEntity
  8
RACCORDO
100
AcDbPolyline
 62
250
  6
CONTINUOUS
 90
12
 70
0
 10
-79.2360733218
 20
78.3852661774
 10
-79.2551464785
 20
78.395296492
 10
-79.3177128181
 20
78.4355597419
 10
-79.3752904524
 20
78.4845550578
 10
-79.4274834256
 20
78.5419479267
 10
-79.4739530392
 20
78.6073578581
 10
-79.514383272
 20
78.6803423479
 10
-79.5484953385
 20
78.7604064156
 10
-79.5760680712
 20
78.8470154808
 10
-79.596916788
 20
78.9395870203
 10
-79.6108947186
 20
79.0374943432
 10
-79.6179062543
 20
79.1400774836
  0
LINE
  5
25B
100
AcDbEntity
  8
0
100
AcDbLine
 62
7
  6
CONTINUOUS
 10
-74.7592624778
 20
118.8391646685
 11
-74.7592624778
 21
117.9069747013
  0
LINE
  5
25C
100
AcDbEntity
  8
0
100
AcDbLine
 62
7
  6
CONTINUOUS
 10
-74.4118803846
 20
116.0032801469
 11
-74.4118803846
 21
117.7332836547
  0
LINE
  5
25D
100
AcDbEntity
  8
DRAFT
100
AcDbLine
 62
7
  6
CONTINUOUS
 10
-73.2562625309
 20
116.3042085867
 11
-73.2562625309
 21
117.1554747279
  0
LINE
  5
25E
100
AcDbEntity
  8
0
100
AcDbLine
 62
7
  6
CONTINUOUS
 10
-68.2489351029
 20
112.9218075061
 11
-68.240879308
 21
112.933086211
  0
LWPOLYLINE
  5
25F
100
AcDbEntity
  8
0
100
AcDbPolyline
 62
7
  6
CONTINUOUS
 90
7
 70
0
 10
-68.240879308
 20
112.933086211
 10
-68.2332995887
 20
112.9416781695
 10
-68.2247346708
 20
112.9498917142
 10
-68.2151845543
 20
112.9577268451
 10
-68.2046492392
 20
112.9651835622
 10
-68.1931287256
 20
112.9722618656
 10
-68.1861803824
 20
112.9760957621
  0
LINE
  5
260
100
AcDbEntity
  8
0
100
AcDbLine
 62
7
  6
CONTINUOUS
 10
-67.0337228565
 20
113.1277349876
 11
-67.2631164966
 21
113.0026634479
  0
LINE
  5
261
100
AcDbEntity
  8
0
100
AcDbLine
 62
7
  6
CONTINUOUS
 10
-67.2631164966
 20
113.0026634479
 11
-67.4936494902
 21
112.8771854005
  0
LINE
  5
262
100
AcDbEntity
  8
0
100
AcDbLine
 62
7
  6
CONTINUOUS
 10
-67.4936494902
 20
112.8771854005
 11
-67.7253003307
 21
112.7513004139
  0
LWPOLYLINE
  5
263
100
AcDbEntity
  8
RACCORDO
100
AcDbPolyline
 62
7
  6
CONTINUOUS
 90
10
 70
0
 10
-63.5344816359
 20
118.9374350547
 10
-63.5368504368
 20
118.9361827297
 10
-63.5381015897
 20
118.9344158053
 10
-63.5378538566
 20
118.9321789457
 10
-63.5360501394
 20
118.9294474185
 10
-63.5327475363
 20
118.9262459562
 10
-63.5279304754
 20
118.9226236103
 10
-63.5215937662
 20
118.9185967312
 10
-63.5137425992
 20
118.9141489685
 10
-63.5043769744
 20
118.9092803221
  0
LINE
  5
264
100
AcDbEntity
  8
0
100
AcDbLine
 62
7
  6
CONTINUOUS
 10
-68.186180289
 20
112.9760957163
 11
-68.1841243721
 21
112.9771810113
  0
LINE
  5
265
100
AcDbEntity
  8
0
100
AcDbLine
 62
7
  6
CONTINUOUS
 10
-68.1841243721
 20
112.9771810113
 11
-68.1819732178
 21
112.978301691
  0
LINE
  5
266
100
AcDbEntity
  8
DRAFT
100
AcDbLine
 62
7
  6
CONTINUOUS
 10
-64.0878367686
 20
114.9316685656
 11
-63.0927782241
 21
115.4452519285
  0
LINE
  5
267
100
AcDbEntity
  8
DRAFT
100
AcDbLine
 62
7
  6
CONTINUOUS
 10
-67.9933309596
 20
116.0345801186
 11
-69.2570485509
 21
115.3845676891
  0
LINE
  5
268
100
AcDbEntity
  8
0
100
AcDbLine
 62
7
  6
CONTINUOUS
 10
-68.1819732178
 20
112.978301691
 11
-68.1798159014
 21
112.9794104181
  0
LINE
  5
269
100
AcDbEntity
  8
0
100
AcDbLine
 62
7
  6
CONTINUOUS
 10
-68.1798159014
 20
112.9794104181
 11
-68.1776524605
 21
112.9805071735
  0
LINE
  5
26A
100
AcDbEntity
  8
0
100
AcDbLine
 62
7
  6
CONTINUOUS
 10
-68.1776524605
 20
112.9805071735
 11
-67.9840076819
 21
113.0773314421
  0
LINE
  5
26B
100
AcDbEntity
  8
0
100
AcDbLine
 62
7
  6
CONTINUOUS
 10
-67.9840079996
 20
113.077331608
 11
-67.698093046
 21
113.2201517149
  0
LINE
  5
26C
100
AcDbEntity
  8
0
100
AcDbLine
 62
7
  6
CONTINUOUS
 10
-67.698093046
 20
113.2201517149
 11
-67.4579869252
 21
113.339867022
  0
LINE
  5
26D
100
AcDbEntity
  8
RACCORDO
100
AcDbLine
 62
250
  6
CONTINUOUS
 10
-69.2570485509
 20
116.4932602134
 11
-69.0769978812
 21
116.5764135794
  0
LWPOLYLINE
  5
26E
100
AcDbEntity
  8
RACCORDO
100
AcDbPolyline
 62
7
  6
CONTINUOUS
 90
8
 70
0
 10
-69.2029833614
 20
116.602422093
 10
-69.1987656995
 20
116.6042246604
 10
-69.1863883018
 20
116.6078475769
 10
-69.1731067311
 20
116.6094948295
 10
-69.1593491706
 20
116.6091129458
 10
-69.1452583481
 20
116.606684102
 10
-69.1306915358
 20
116.6022261219
 10
-69.1156487338
 20
116.5957390057
  0
LWPOLYLINE
  5
26F
100
AcDbEntity
  8
RACCORDO
100
AcDbPolyline
 62
7
  6
CONTINUOUS
 90
9
 70
0
 10
-64.0029991254
 20
118.7734035429
 10
-64.0051729152
 20
118.7726109972
 10
-64.016774344
 20
118.7669485623
 10
-64.027427689
 20
118.7593026986
 10
-64.0368057965
 20
118.7499480847
 10
-64.0448650145
 20
118.7388361118
 10
-64.0516489951
 20
118.7260153887
 10
-64.0569615412
 20
118.7119064206
 10
-64.0606176562
 20
118.6971326507
  0
LINE
  5
270
100
AcDbEntity
  8
RACCORDO
100
AcDbLine
 62
7
  6
CONTINUOUS
 10
-63.9863589019
 20
118.7792346099
 11
-63.5344862702
 21
118.9374369214
  0
LINE
  5
271
100
AcDbEntity
  8
RACCORDO
100
AcDbLine
 62
250
  6
CONTINUOUS
 10
-63.9202713669
 20
118.7636741278
 11
-63.5043769744
 21
118.9092803221
  0
LWPOLYLINE
  5
272
100
AcDbEntity
  8
DRAFT
100
AcDbPolyline
 62
7
  6
CONTINUOUS
 90
10
 70
0
 10
-69.0535215322
 20
118.1484162655
 10
-69.0157987247
 20
118.1607825233
 10
-68.978017381
 20
118.1730131829
 10
-68.9401777012
 20
118.1851081798
 10
-68.9022798852
 20
118.19706745
 10
-68.8643241335
 20
118.2088909301
 10
-68.8263106469
 20
118.2205785577
 10
-68.7882396263
 20
118.232130271
 10
-68.7501112732
 20
118.2435460089
 10
-68.711925789
 20
118.254825711
  0
LWPOLYLINE
  5
273
100
AcDbEntity
  8
DRAFT
100
AcDbPolyline
 62
7
  6
CONTINUOUS
 90
10
 70
0
 10
-70.0248029207
 20
117.634031356
 10
-69.9885683707
 20
117.6458772119
 10
-69.9522801944
 20
117.6575978104
 10
-69.9159383919
 20
117.6691931515
 10
-69.8795427851
 20
117.6806632906
 10
-69.8430935519
 20
117.6920081724
 10
-69.8065912266
 20
117.7032276306
 10
-69.7700359872
 20
117.7143216098
 10
-69.7334276556
 20
117.7252901653
 10
-69.6967662319
 20
117.7361332972
  0
LWPOLYLINE
  5
274
100
AcDbEntity
  8
0
100
AcDbPolyline
 62
250
  6
CONTINUOUS
 90
7
 70
0
 10
-45.2480927388
 20
71.6258035416
 10
-45.2955902418
 20
71.6272264099
 10
-45.342379166
 20
71.630837488
 10
-45.3880527449
 20
71.6365670348
 10
-45.4322263899
 20
71.6443275912
 10
-45.4745404817
 20
71.6540155258
 10
-45.5146627711
 20
71.6655126669
  0
LWPOLYLINE
  5
275
100
AcDbEntity
  8
0
100
AcDbPolyline
 62
7
  6
CONTINUOUS
 90
9
 70
0
 10
-43.4687222119
 20
64.9562494506
 10
-43.4375572864
 20
64.9424168989
 10
-43.4070860144
 20
64.9320957471
 10
-43.3773083959
 20
64.9252859952
 10
-43.3480105686
 20
64.921989028
 10
-43.3194063947
 20
64.9222034606
 10
-43.2921374613
 20
64.9259251391
 10
-43.2662333695
 20
64.9332326748
 10
-43.2567263842
 20
64.9369352401
  0
LINE
  5
276
100
AcDbEntity
  8
DRAFT
100
AcDbLine
 62
7
  6
CONTINUOUS
 10
-45.8112612995
 20
66.1275189944
 11
-43.4687222119
 21
64.9562494506
  0
LINE
  5
277
100
AcDbEntity
  8
0
100
AcDbLine
 62
7
  6
CONTINUOUS
 10
-44.6184378929
 20
66.8965081518
 11
-43.115437946
 21
66.1450081784
  0
LINE
  5
278
100
AcDbEntity
  8
0
100
AcDbLine
 62
7
  6
CONTINUOUS
 10
-44.2648845023
 20
67.0732848471
 11
-42.755713258
 21
66.318699225
  0
LWPOLYLINE
  5
279
100
AcDbEntity
  8
DRAFT
100
AcDbPolyline
 62
7
  6
CONTINUOUS
 90
18
 70
0
 10
-70.0248029207
 20
117.634031356
 10
-70.0225633037
 20
117.605291358
 10
-70.0216748491
 20
117.5773540865
 10
-70.022137557
 20
117.5502195415
 10
-70.023962131
 20
117.5238150054
 10
-70.0271378675
 20
117.4982131958
 10
-70.0316326552
 20
117.4736322655
 10
-70.0374620394
 20
117.4500560689
 10
-70.0446104749
 20
117.4275007516
 10
-70.0529992155
 20
117.4062329034
 10
-70.0626411897
 20
117.3862736451
 10
-70.073523469
 20
117.3676018559
 10
-70.085528521
 20
117.3504207635
 10
-70.0986691029
 20
117.3347459489
 10
-70.1129324576
 20
117.320561831
 10
-70.128162781
 20
117.3080248947
 10
-70.1443706142
 20
117.2971534696
 10
-70.1540884015
 20
117.2916689882
  0
LINE
  5
27A
100
AcDbEntity
  8
DRAFT
100
AcDbLine
 62
7
  6
CONTINUOUS
 10
-69.2570485509
 20
116.4932602134
 11
-69.2570485509
 21
115.3845676891
  0
LWPOLYLINE
  5
27B
100
AcDbEntity
  8
RACCORDO
100
AcDbPolyline
 62
7
  6
CONTINUOUS
 90
10
 70
0
 10
-69.2570485509
 20
116.4932602134
 10
-69.2562040606
 20
116.5112615709
 10
-69.2538971077
 20
116.5279487312
 10
-69.2501276923
 20
116.5433216942
 10
-69.2448229916
 20
116.5575188552
 10
-69.2380558283
 20
116.570401819
 10
-69.2300446707
 20
116.5815553999
 10
-69.2207490676
 20
116.5909232966
 10
-69.2102094701
 20
116.5985618105
 10
-69.2029833614
 20
116.602422093
  0
LINE
  5
27C
100
AcDbEntity
  8
RACCORDO
100
AcDbLine
 62
250
  6
CONTINUOUS
 10
-59.532202952
 20
116.9231933109
 11
-59.8234153408
 21
116.7152461147
  0
LINE
  5
27D
100
AcDbEntity
  8
RACCORDO
100
AcDbLine
 62
250
  6
CONTINUOUS
 10
-59.1868420822
 20
116.8222567695
 11
-59.6798123321
 21
116.4702395296
  0
LINE
  5
27E
100
AcDbEntity
  8
DRAFT
100
AcDbLine
 62
7
  6
CONTINUOUS
 10
-59.6798123321
 20
115.7774192066
 11
-58.3392823138
 21
116.6998640898
  0
LINE
  5
27F
100
AcDbEntity
  8
DRAFT
100
AcDbLine
 62
7
  6
CONTINUOUS
 10
-59.6798123321
 20
115.7774192066
 11
-59.7020432019
 21
115.7646736409
  0
LINE
  5
280
100
AcDbEntity
  8
DRAFT
100
AcDbLine
 62
7
  6
CONTINUOUS
 10
-63.2214863121
 20
113.7700089035
 11
-62.2301609404
 21
114.2892243226
  0
LINE
  5
281
100
AcDbEntity
  8
DRAFT
100
AcDbLine
 62
7
  6
CONTINUOUS
 10
-62.751182481
 20
114.9972467399
 11
-62.1402470694
 21
115.30818184
  0
LWPOLYLINE
  5
282
100
AcDbEntity
  8
DRAFT
100
AcDbPolyline
 62
7
  6
CONTINUOUS
 90
3
 70
0
 10
-62.1402470694
 20
115.30818184
 10
-61.5259094574
 20
115.6206330442
 10
-61.2174641971
 20
115.7774274321
  0
LINE
  5
283
100
AcDbEntity
  8
DRAFT
100
AcDbLine
 62
7
  6
CONTINUOUS
 10
-61.2174641971
 20
115.7774274321
 11
-60.5980768115
 21
116.0921372452
  0
LINE
  5
284
100
AcDbEntity
  8
DRAFT
100
AcDbLine
 62
7
  6
CONTINUOUS
 10
-60.5980768115
 20
116.0921372452
 11
-59.9753585925
 21
116.4083424152
  0
LWPOLYLINE
  5
285
100
AcDbEntity
  8
0
100
AcDbPolyline
 62
7
  6
CONTINUOUS
 90
7
 70
0
 10
-67.7253003307
 20
112.7513004139
 10
-67.7381583324
 20
112.7447762923
 10
-67.7517777661
 20
112.738747223
 10
-67.7661586319
 20
112.7332132058
 10
-67.7813009296
 20
112.7281742409
 10
-67.7972046594
 20
112.7236303282
 10
-67.8138698213
 20
112.7195814676
  0
LINE
  5
286
100
AcDbEntity
  8
DRAFT
100
AcDbLine
 62
7
  6
CONTINUOUS
 10
-63.7598000798
 20
114.5015299356
 11
-63.0864822959
 21
114.8325145563
  0
LINE
  5
287
100
AcDbEntity
  8
DRAFT
100
AcDbLine
 62
7
  6
CONTINUOUS
 10
-63.0864822959
 20
114.8325145563
 11
-62.751182481
 21
114.9972467399
  0
LINE
  5
288
100
AcDbEntity
  8
DRAFT
100
AcDbLine
 62
7
  6
CONTINUOUS
 10
-55.417297471
 20
116.4016630644
 11
-52.551477798
 21
117.7952453688
  0
LINE
  5
289
100
AcDbEntity
  8
DRAFT
100
AcDbLine
 62
7
  6
CONTINUOUS
 10
-63.0927782241
 20
115.4452519285
 11
-60.2789548295
 21
116.8063012374
  0
LINE
  5
28A
100
AcDbEntity
  8
DRAFT
100
AcDbLine
 62
7
  6
CONTINUOUS
 10
-60.0394881362
 20
115.3330643981
 11
-59.4063991028
 21
115.6351765441
  0
LINE
  5
28B
100
AcDbEntity
  8
DRAFT
100
AcDbLine
 62
7
  6
CONTINUOUS
 10
-60.9831699171
 20
114.8830977766
 11
-60.0394881362
 21
115.3330643981
  0
LWPOLYLINE
  5
28C
100
AcDbEntity
  8
DRAFT
100
AcDbPolyline
 62
7
  6
CONTINUOUS
 90
3
 70
0
 10
-62.2301609404
 20
114.2892243226
 10
-61.919624081
 20
114.4370369785
 10
-60.9831699171
 20
114.8830977766
  0
LWPOLYLINE
  5
28D
100
AcDbEntity
  8
RACCORDO
100
AcDbPolyline
 62
7
  6
CONTINUOUS
 90
10
 70
0
 10
-52.551800794
 20
117.7950882692
 10
-52.502040288
 20
117.8185806474
 10
-52.3157317185
 20
117.8944792966
 10
-52.1228102019
 20
117.9546369368
 10
-51.9239090037
 20
117.998889907
 10
-51.7197803813
 20
118.027108594
 10
-51.5112921432
 20
118.0392433277
 10
-51.2989415431
 20
118.0353372596
 10
-51.0828238922
 20
118.0153830901
 10
-50.9690038996
 20
117.9966791204
  0
LINE
  5
28E
100
AcDbEntity
  8
RACCORDO
100
AcDbLine
 62
7
  6
CONTINUOUS
 10
-54.9397171625
 20
116.1628721507
 11
-50.265697938
 21
118.3214891202
  0
LINE
  5
28F
100
AcDbEntity
  8
RACCORDO
100
AcDbLine
 62
250
  6
CONTINUOUS
 10
-50.0498882255
 20
118.3035922671
 11
-54.942143982
 21
116.0441864349
  0
LINE
  5
290
100
AcDbEntity
  8
0
100
AcDbLine
 62
7
  6
CONTINUOUS
 10
-55.0842038199
 20
115.7446876426
 11
-56.314964122
 21
115.176281749
  0
LINE
  5
291
100
AcDbEntity
  8
RACCORDO
100
AcDbLine
 62
250
  6
CONTINUOUS
 10
-52.4740887981
 20
117.8309613009
 11
-52.551477798
 21
117.7952453688
  0
LINE
  5
292
100
AcDbEntity
  8
0
100
AcDbLine
 62
7
  6
CONTINUOUS
 10
-58.6962910894
 20
114.1092751576
 11
-56.314964122
 21
115.1329804789
  0
LINE
  5
293
100
AcDbEntity
  8
0
100
AcDbLine
 62
7
  6
CONTINUOUS
 10
-62.7147803468
 20
113.0505043411
 11
-61.6729497986
 21
113.4968852828
  0
LWPOLYLINE
  5
294
100
AcDbEntity
  8
RACCORDO
100
AcDbPolyline
 62
250
  6
CONTINUOUS
 90
9
 70
0
 10
-50.0498882255
 20
118.3035922671
 10
-50.0198846691
 20
118.3163875537
 10
-49.990040184
 20
118.3259662407
 10
-49.960575826
 20
118.3322244472
 10
-49.9316947564
 20
118.3350821786
 10
-49.9036385065
 20
118.3344776569
 10
-49.8766784308
 20
118.3303913262
 10
-49.8510216015
 20
118.322839021
 10
-49.8324517852
 20
118.3147739319
  0
LINE
  5
295
100
AcDbEntity
  8
0
100
AcDbLine
 62
250
  6
CONTINUOUS
 10
-68.1765684698
 20
112.9810510482
 11
-68.1544369993
 21
112.9904002683
  0
LINE
  5
296
100
AcDbEntity
  8
RACCORDO
100
AcDbLine
 62
250
  6
CONTINUOUS
 10
-50.265697938
 20
118.3214891202
 11
-50.2501909238
 21
118.3278218867
  0
LINE
  5
297
100
AcDbEntity
  8
RACCORDO
100
AcDbLine
 62
250
  6
CONTINUOUS
 10
-52.3046252342
 20
117.8965534177
 11
-52.4740887981
 21
117.8309613009
  0
LINE
  5
298
100
AcDbEntity
  8
0
100
AcDbLine
 62
7
  6
CONTINUOUS
 10
-61.6729497986
 20
113.4968852828
 11
-61.0072627972
 21
113.7476231867
  0
LINE
  5
299
100
AcDbEntity
  8
0
100
AcDbLine
 62
7
  6
CONTINUOUS
 10
-61.0072627972
 20
113.7476231867
 11
-60.3439845969
 21
113.9972520244
  0
LWPOLYLINE
  5
29A
100
AcDbEntity
  8
0
100
AcDbPolyline
 62
7
  6
CONTINUOUS
 90
3
 70
0
 10
-60.3439845969
 20
113.9972520244
 10
-59.683112057
 20
114.2457732166
 10
-59.3535729367
 20
114.3696206956
  0
LINE
  5
29B
100
AcDbEntity
  8
0
100
AcDbLine
 62
7
  6
CONTINUOUS
 10
-59.3535729367
 20
114.3696206956
 11
-58.6962910894
 21
114.6164884721
  0
LWPOLYLINE
  5
29C
100
AcDbEntity
  8
0
100
AcDbPolyline
 62
7
  6
CONTINUOUS
 90
16
 70
0
 10
-67.4579869252
 20
113.339867022
 10
-67.4325711455
 20
113.3483702917
 10
-67.4062003191
 20
113.3534470185
 10
-67.3788744458
 20
113.3550972022
 10
-67.3503831549
 20
113.3532787711
 10
-67.3209368172
 20
113.348033797
 10
-67.2911665452
 20
113.3394884953
 10
-67.2610667537
 20
113.32757696
 10
-67.230643028
 20
113.3123650971
 10
-67.2005432365
 20
113.294176841
 10
-67.1707729645
 20
113.2729518707
 10
-67.1413266268
 20
113.2487505071
 10
-67.1128353359
 20
113.2220776473
 10
-67.0855094626
 20
113.1931015903
 10
-67.0591386361
 20
113.161654037
 10
-67.0337228565
 20
113.1277349876
  0
LWPOLYLINE
  5
29D
100
AcDbEntity
  8
0
100
AcDbPolyline
 62
7
  6
CONTINUOUS
 90
7
 70
0
 10
-45.4480638034
 20
71.5533418331
 10
-45.4164652817
 20
71.5452378002
 10
-45.3768936501
 20
71.5372511772
 10
-45.3367739321
 20
71.5313914635
 10
-45.2965398959
 20
71.5276362133
 10
-45.2565185415
 20
71.5259172594
 10
-45.0934348004
 20
71.5241389777
  0
LWPOLYLINE
  5
29E
100
AcDbEntity
  8
0
100
AcDbPolyline
 62
7
  6
CONTINUOUS
 90
11
 70
0
 10
-45.4480549812
 20
71.5533627905
 10
-45.4558163397
 20
71.5559667408
 10
-45.4675520544
 20
71.5617775099
 10
-45.4782334798
 20
71.5695114796
 10
-45.4876216042
 20
71.5788988459
 10
-45.4956978418
 20
71.5899938755
 10
-45.5024807783
 20
71.6027423017
 10
-45.5077871601
 20
71.616711521
 10
-45.5115559024
 20
71.6317573318
 10
-45.5138480899
 20
71.6480239357
 10
-45.5146637225
 20
71.6655113324
  0
LINE
  5
29F
100
AcDbEntity
  8
DRAFT
100
AcDbLine
 62
7
  6
CONTINUOUS
 10
-44.2648845023
 20
69.383812429
 11
-43.8533253342
 21
69.178032845
  0
LINE
  5
2A0
100
AcDbEntity
  8
DRAFT
100
AcDbLine
 62
7
  6
CONTINUOUS
 10
-64.5275544496
 20
113.0198206385
 11
-64.5275544496
 21
114.1285131628
  0
LWPOLYLINE
  5
2A1
100
AcDbEntity
  8
DRAFT
100
AcDbPolyline
 62
7
  6
CONTINUOUS
 90
25
 70
0
 10
-62.751182481
 20
114.9972467399
 10
-62.7549112619
 20
114.9593028978
 10
-62.7556160289
 20
114.919420731
 10
-62.7532510542
 20
114.8779238767
 10
-62.7477716201
 20
114.834999281
 10
-62.7391896675
 20
114.7911655063
 10
-62.7276852915
 20
114.7472892312
 10
-62.7135384702
 20
114.7040933286
 10
-62.6968489519
 20
114.6616084247
 10
-62.6775617416
 20
114.6196788816
 10
-62.6556700754
 20
114.5784447144
 10
-62.6314335618
 20
114.5385337359
 10
-62.6051752205
 20
114.5005188759
 10
-62.577126622
 20
114.4647353844
 10
-62.5475351246
 20
114.4314988334
 10
-62.5168265952
 20
114.4012539644
 10
-62.4854717714
 20
114.3743654402
 10
-62.4535784295
 20
114.350830513
 10
-62.4210294672
 20
114.3305709555
 10
-62.3878440872
 20
114.3137177854
 10
-62.3545651213
 20
114.3006662561
 10
-62.3218501094
 20
114.2916879613
 10
-62.2900966171
 20
114.2868208219
 10
-62.2594500877
 20
114.2860147687
 10
-62.2301609404
 20
114.2892243226
  0
LINE
  5
2A2
100
AcDbEntity
  8
RACCORDO
100
AcDbLine
 62
7
  6
CONTINUOUS
 10
-55.4833667999
 20
112.0738723719
 11
-55.4901090419
 21
112.0697334074
  0
LWPOLYLINE
  5
2A3
100
AcDbEntity
  8
RACCORDO
100
AcDbPolyline
 62
250
  6
CONTINUOUS
 90
7
 70
0
 10
-60.7481488439
 20
110.5643271977
 10
-60.7687682922
 20
110.5519375663
 10
-60.7865385999
 20
110.5388410213
 10
-60.801459767
 20
110.5250375625
 10
-60.8136387633
 20
110.5103597231
 10
-60.822968619
 20
110.49497497
 10
-60.8291284248
 20
110.4793857036
  0
LWPOLYLINE
  5
2A4
100
AcDbEntity
  8
RACCORDO
100
AcDbPolyline
 62
250
  6
CONTINUOUS
 90
3
 70
0
 10
-60.7444789382
 20
110.349606612
 10
-60.7627107504
 20
110.338651632
 10
-60.7630492544
 20
110.3383933123
  0
LWPOLYLINE
  5
2A5
100
AcDbEntity
  8
RACCORDO
100
AcDbPolyline
 62
7
  6
CONTINUOUS
 90
8
 70
0
 10
-52.3778716847
 20
114.8082054527
 10
-52.3905553597
 20
114.8008605822
 10
-52.4026356836
 20
114.7899292035
 10
-52.4130247273
 20
114.7760807896
 10
-52.421204284
 20
114.760005428
 10
-52.427001618
 20
114.7419331481
 10
-52.430589465
 20
114.7216339205
 10
-52.431967825
 20
114.6991077453
  0
LWPOLYLINE
  5
2A6
100
AcDbEntity
  8
RACCORDO
100
AcDbPolyline
 62
7
  6
CONTINUOUS
 90
7
 70
0
 10
-60.8406151329
 20
110.5683995849
 10
-60.8494811476
 20
110.5634998803
 10
-60.8826347147
 20
110.5428104905
 10
-60.9128827499
 20
110.5199142591
 10
-60.9401079641
 20
110.4948563546
 10
-60.9640184648
 20
110.4678649576
 10
-60.9792110869
 20
110.4464742286
  0
LINE
  5
2A7
100
AcDbEntity
  8
RACCORDO
100
AcDbLine
 62
7
  6
CONTINUOUS
 10
-56.8930150467
 20
113.7114046952
 11
-56.9693267131
 21
113.6702328004
  0
LINE
  5
2A8
100
AcDbEntity
  8
RACCORDO
100
AcDbLine
 62
250
  6
CONTINUOUS
 10
-56.7100069295
 20
113.7021905849
 11
-56.7843334709
 21
113.6620897106
  0
LINE
  5
2A9
100
AcDbEntity
  8
RACCORDO
100
AcDbLine
 62
7
  6
CONTINUOUS
 10
-57.3363097758
 20
112.4590682423
 11
-60.8406454258
 21
110.5683987637
  0
LINE
  5
2AA
100
AcDbEntity
  8
RACCORDO
100
AcDbLine
 62
250
  6
CONTINUOUS
 10
-57.3856298818
 20
112.3784806455
 11
-60.7481488439
 21
110.5643271977
  0
LINE
  5
2AB
100
AcDbEntity
  8
RACCORDO
100
AcDbLine
 62
7
  6
CONTINUOUS
 10
-59.0462281757
 20
110.1511247881
 11
-55.4901798294
 21
112.0696944527
  0
LINE
  5
2AC
100
AcDbEntity
  8
RACCORDO
100
AcDbLine
 62
250
  6
CONTINUOUS
 10
-58.9537315546
 20
110.1470532432
 11
-55.381717251
 21
112.0742352796
  0
LINE
  5
2AD
100
AcDbEntity
  8
RACCORDO
100
AcDbLine
 62
250
  6
CONTINUOUS
 10
-55.4837217935
 20
112.0729372506
 11
-55.4901675303
 21
112.0697010673
  0
LINE
  5
2AE
100
AcDbEntity
  8
RACCORDO
100
AcDbLine
 62
7
  6
CONTINUOUS
 10
-56.8846829495
 20
113.715571376
 11
-56.89301438
 21
113.7114050549
  0
LINE
  5
2AF
100
AcDbEntity
  8
0
100
AcDbLine
 62
7
  6
CONTINUOUS
 10
-48.1007199109
 20
118.3815157246
 11
-49.0333276408
 21
117.9152118597
  0
LINE
  5
2B0
100
AcDbEntity
  8
ASSI
100
AcDbLine
 62
7
  6
CONTINUOUS
 10
-46.1421035198
 20
118.2092966901
 11
-45.5965704213
 21
118.4820632394
  0
LINE
  5
2B1
100
AcDbEntity
  8
ASSI
100
AcDbLine
 62
250
  6
CONTINUOUS
 10
-45.7144534037
 20
117.9317050075
 11
-44.72450391
 21
118.4266797543
  0
LINE
  5
2B2
100
AcDbEntity
  8
ASSI
100
AcDbLine
 62
7
  6
CONTINUOUS
 10
-44.1537883614
 20
118.14132198
 11
-33.9537083121
 21
123.2413620047
  0
LINE
  5
2B3
100
AcDbEntity
  8
0
100
AcDbLine
 62
7
  6
CONTINUOUS
 10
-47.7430353404
 20
117.1501658245
 11
-52.8208765546
 21
114.6315191479
  0
LINE
  5
2B4
100
AcDbEntity
  8
DRAFT
100
AcDbLine
 62
7
  6
CONTINUOUS
 10
-50.4584854769
 20
115.4201543842
 11
-48.4438621803
 21
116.4194223914
  0
LINE
  5
2B5
100
AcDbEntity
  8
DRAFT
100
AcDbLine
 62
7
  6
CONTINUOUS
 10
-47.4017159006
 20
116.5985560638
 11
-48.2432815124
 21
116.1811333162
  0
LINE
  5
2B6
100
AcDbEntity
  8
RACCORDO
100
AcDbLine
 62
250
  6
CONTINUOUS
 10
-49.5712107084
 20
114.3192276251
 11
-50.4520472985
 21
113.8823261828
  0
LWPOLYLINE
  5
2B7
100
AcDbEntity
  8
ASSI
100
AcDbPolyline
 62
7
  6
CONTINUOUS
 90
12
 70
0
 10
-45.5965401771
 20
118.4820027544
 10
-45.5637740273
 20
118.4973999938
 10
-45.4905564945
 20
118.5251004323
 10
-45.414026064
 20
118.5450720123
 10
-45.3342246367
 20
118.5574124869
 10
-45.2521701077
 20
118.5619644489
 10
-45.167833615
 20
118.558628129
 10
-45.0812440206
 20
118.5475032967
 10
-44.9935058049
 20
118.5287318529
 10
-44.9049871279
 20
118.5023610981
 10
-44.8153198296
 20
118.4683437319
 10
-44.72450391
 20
118.4266797543
  0
LINE
  5
2B8
100
AcDbEntity
  8
RACCORDO
100
AcDbLine
 62
7
  6
CONTINUOUS
 10
-55.6213109182
 20
114.2990384251
 11
-56.8846832289
 21
113.7155712253
  0
LINE
  5
2B9
100
AcDbEntity
  8
RACCORDO
100
AcDbLine
 62
250
  6
CONTINUOUS
 10
-55.5235268637
 20
114.2501463979
 11
-56.7100069295
 21
113.7021905849
  0
LINE
  5
2BA
100
AcDbEntity
  8
RACCORDO
100
AcDbLine
 62
7
  6
CONTINUOUS
 10
-52.3779061576
 20
114.8082768577
 11
-51.4647585558
 21
115.2299986809
  0
LINE
  5
2BB
100
AcDbEntity
  8
RACCORDO
100
AcDbLine
 62
250
  6
CONTINUOUS
 10
-52.2905680079
 20
114.8015865375
 11
-51.3784350174
 21
115.2228397796
  0
LINE
  5
2BC
100
AcDbEntity
  8
RACCORDO
100
AcDbLine
 62
250
  6
CONTINUOUS
 10
-56.9512419599
 20
113.6785046881
 11
-56.9692237241
 21
113.6702883138
  0
LINE
  5
2BD
100
AcDbEntity
  8
DRAFT
100
AcDbLine
 62
7
  6
CONTINUOUS
 10
-54.4472221514
 20
113.7119940417
 11
-54.3384408624
 21
113.761590695
  0
LINE
  5
2BE
100
AcDbEntity
  8
RACCORDO
100
AcDbLine
 62
250
  6
CONTINUOUS
 10
-51.3784350162
 20
115.222839779
 11
-51.3666972473
 21
115.2281833335
  0
LWPOLYLINE
  5
2BF
100
AcDbEntity
  8
RACCORDO
100
AcDbPolyline
 62
250
  6
CONTINUOUS
 90
13
 70
0
 10
-51.3666972473
 20
115.2281833335
 10
-51.3549931612
 20
115.2332801137
 10
-51.3433257841
 20
115.2381303696
 10
-51.3317100962
 20
115.2427297591
 10
-51.3201369993
 20
115.2470838449
 10
-51.3085734915
 20
115.2512056483
 10
-51.2970098189
 20
115.2550976876
 10
-51.2854618964
 20
115.2587536476
 10
-51.2739353793
 20
115.2621713392
 10
-51.2624350505
 20
115.2653489664
 10
-51.2509622388
 20
115.2682857848
 10
-51.2395174296
 20
115.2709812533
 10
-51.2281028594
 20
115.2734342504
  0
LWPOLYLINE
  5
2C0
100
AcDbEntity
  8
DRAFT
100
AcDbPolyline
 62
7
  6
CONTINUOUS
 90
12
 70
0
 10
-45.0877443145
 20
115.8225203116
 10
-45.0643366105
 20
115.832392643
 10
-45.0412443835
 20
115.8403449684
 10
-45.0184676336
 20
115.8463772878
 10
-44.9959139243
 20
115.8504987648
 10
-44.9736756921
 20
115.8527002357
 10
-44.9520302456
 20
115.8529542103
 10
-44.9309849781
 20
115.8512363198
 10
-44.9105324962
 20
115.847570933
 10
-44.8909279287
 20
115.8420036654
 10
-44.8721818827
 20
115.834510708
 10
-44.8665198203
 20
115.8317899804
  0
LINE
  5
2C1
100
AcDbEntity
  8
RACCORDO
100
AcDbLine
 62
250
  6
CONTINUOUS
 10
-57.3519095108
 20
112.3907079041
 11
-57.3856319283
 21
112.3784822197
  0
LWPOLYLINE
  5
2C2
100
AcDbEntity
  8
RACCORDO
100
AcDbPolyline
 62
250
  6
CONTINUOUS
 90
6
 70
0
 10
-51.4647579729
 20
115.2299989501
 10
-51.448219214
 20
115.2354160215
 10
-51.4317798411
 20
115.237071197
 10
-51.4144702852
 20
115.2354998707
 10
-51.396586603
 20
115.230728918
 10
-51.3784346707
 20
115.2228399397
  0
LINE
  5
2C3
100
AcDbEntity
  8
DRAFT
100
AcDbLine
 62
7
  6
CONTINUOUS
 10
-55.749297072
 20
113.2218356562
 11
-54.2035138659
 21
113.6941271968
  0
LINE
  5
2C4
100
AcDbEntity
  8
RACCORDO
100
AcDbLine
 62
250
  6
CONTINUOUS
 10
-56.9261025891
 20
113.6857251985
 11
-56.9512419599
 21
113.6785046881
  0
LINE
  5
2C5
100
AcDbEntity
  8
0
100
AcDbLine
 62
250
  6
CONTINUOUS
 10
-45.2480927388
 20
76.0205758002
 11
-44.8918437674
 21
76.0243837457
  0
LINE
  5
2C6
100
AcDbEntity
  8
0
100
AcDbLine
 62
250
  6
CONTINUOUS
 10
-45.2505608818
 20
76.2925204295
 11
-44.8943119103
 21
76.296328375
  0
LWPOLYLINE
  5
2C7
100
AcDbEntity
  8
0
100
AcDbPolyline
 62
250
  6
CONTINUOUS
 90
10
 70
0
 10
-44.8918437674
 20
76.0243837457
 10
-44.8748037759
 20
76.0241686324
 10
-44.8578878948
 20
76.024683434
 10
-44.8412193307
 20
76.0259244009
 10
-44.8249194887
 20
76.0278824945
 10
-44.8091070884
 20
76.0305434532
 10
-44.7938972992
 20
76.0338878958
 10
-44.7794009011
 20
76.0378914632
 10
-44.7657234785
 20
76.0425249955
 10
-44.7529646507
 20
76.0477547444
  0
LWPOLYLINE
  5
2C8
100
AcDbEntity
  8
0
100
AcDbPolyline
 62
250
  6
CONTINUOUS
 90
7
 70
0
 10
-45.3659413229
 20
76.3030713705
 10
-45.3476540701
 20
76.2997132611
 10
-45.328989689
 20
76.2969949993
 10
-45.3099481796
 20
76.2949165853
 10
-45.2905295419
 20
76.293478019
 10
-45.270733776
 20
76.2926793004
 10
-45.2505608818
 20
76.2925204295
  0
LWPOLYLINE
  5
2C9
100
AcDbEntity
  8
0
100
AcDbPolyline
 62
250
  6
CONTINUOUS
 90
7
 70
0
 10
-45.5146627512
 20
76.0578531726
 10
-45.474321387
 20
76.0465274619
 10
-45.4318608391
 20
76.0371211653
 10
-45.3876281131
 20
76.0297407602
 10
-45.3419930749
 20
76.02447697
 10
-45.2953456514
 20
76.0214034845
 10
-45.2480927388
 20
76.0205758002
  0
LINE
  5
2CA
100
AcDbEntity
  8
0
100
AcDbLine
 62
7
  6
CONTINUOUS
 10
-62.7147803468
 20
113.0505043411
 11
-62.7147803468
 21
111.3142588585
  0
LWPOLYLINE
  5
2CB
100
AcDbEntity
  8
RACCORDO
100
AcDbPolyline
 62
250
  6
CONTINUOUS
 90
10
 70
0
 10
-60.8291284248
 20
110.4793857036
 10
-60.832007903
 20
110.4635904058
 10
-60.8317173314
 20
110.4475905947
 10
-60.8282666341
 20
110.4318932259
 10
-60.8215384051
 20
110.4164994181
 10
-60.8116500503
 20
110.4014080526
 10
-60.7989637121
 20
110.3871227293
 10
-60.7836001043
 20
110.3738113147
 10
-60.765438513
 20
110.3613059422
 10
-60.7444789382
 20
110.349606612
  0
LINE
  5
2CC
100
AcDbEntity
  8
RACCORDO
100
AcDbLine
 62
250
  6
CONTINUOUS
 10
-55.4530213251
 20
112.1069323512
 11
-55.4635819856
 21
112.0924485743
  0
LWPOLYLINE
  5
2CD
100
AcDbEntity
  8
RACCORDO
100
AcDbPolyline
 62
250
  6
CONTINUOUS
 90
10
 70
0
 10
-55.4842259917
 20
112.387772143
 10
-55.4975028684
 20
112.3697851556
 10
-55.509312589
 20
112.3501479145
 10
-55.5196551535
 20
112.3288604195
 10
-55.5285845986
 20
112.3057996983
 10
-55.5360468875
 20
112.2810887233
 10
-55.5418799105
 20
112.2550964117
 10
-55.5460296308
 20
112.2279457359
 10
-55.548550085
 20
112.1995137234
 10
-55.5494412732
 20
112.1698003743
  0
LINE
  5
2CE
100
AcDbEntity
  8
RACCORDO
100
AcDbLine
 62
7
  6
CONTINUOUS
 10
-55.4635819856
 20
112.0924485743
 11
-55.4637960332
 21
112.0921851664
  0
LWPOLYLINE
  5
2CF
100
AcDbEntity
  8
RACCORDO
100
AcDbPolyline
 62
7
  6
CONTINUOUS
 90
4
 70
0
 10
-55.4635905143
 20
112.0924552851
 10
-55.4648717048
 20
112.0909014985
 10
-55.474183029
 20
112.0811875692
 10
-55.4833667999
 20
112.0738723719
  0
LINE
  5
2D0
100
AcDbEntity
  8
DRAFT
100
AcDbLine
 62
7
  6
CONTINUOUS
 10
-51.333450065
 20
112.2590952963
 11
-52.2259084152
 21
111.4601413277
  0
LINE
  5
2D1
100
AcDbEntity
  8
DRAFT
100
AcDbLine
 62
7
  6
CONTINUOUS
 10
-51.294458553
 20
112.2395995403
 11
-52.2259084152
 21
111.4601413277
  0
LWPOLYLINE
  5
2D2
100
AcDbEntity
  8
RACCORDO
100
AcDbPolyline
 62
7
  6
CONTINUOUS
 90
3
 70
0
 10
-53.1654485738
 20
110.6783654786
 10
-53.148507659
 20
110.6902370716
 10
-53.1328709951
 20
110.7016416641
  0
LWPOLYLINE
  5
2D3
100
AcDbEntity
  8
RACCORDO
100
AcDbPolyline
 62
7
  6
CONTINUOUS
 90
4
 70
0
 10
-53.2453024982
 20
110.6248339019
 10
-53.2236422399
 20
110.6390028201
 10
-53.2030745131
 20
110.6528173171
 10
-53.1654485738
 20
110.6783654786
  0
LWPOLYLINE
  5
2D4
100
AcDbEntity
  8
RACCORDO
100
AcDbPolyline
 62
7
  6
CONTINUOUS
 90
3
 70
0
 10
-53.31581952
 20
110.5798949806
 10
-53.2914089285
 20
110.5951400437
 10
-53.2453024982
 20
110.6248339019
  0
LWPOLYLINE
  5
2D5
100
AcDbEntity
  8
RACCORDO
100
AcDbPolyline
 62
250
  6
CONTINUOUS
 90
13
 70
0
 10
-57.3702702366
 20
109.3553225842
 10
-57.3885020492
 20
109.344367604
 10
-57.4063874959
 20
109.330718834
 10
-57.4236273051
 20
109.3146046549
 10
-57.4399330084
 20
109.2962947001
 10
-57.4550317674
 20
109.2760953446
 10
-57.4686709394
 20
109.2543445777
 10
-57.4806223044
 20
109.2314063484
 10
-57.4906858838
 20
109.2076644749
 10
-57.4986932869
 20
109.1835162226
 10
-57.5045105283
 20
109.1593656567
 10
-57.50804027
 20
109.1356168811
 10
-57.5092234498
 20
109.1126672768
  0
LWPOLYLINE
  5
2D6
100
AcDbEntity
  8
RACCORDO
100
AcDbPolyline
 62
250
  6
CONTINUOUS
 90
3
 70
0
 10
-55.579522853
 20
107.7671285694
 10
-55.597752749
 20
107.7561749042
 10
-55.5980930593
 20
107.7559152148
  0
LWPOLYLINE
  5
2D7
100
AcDbEntity
  8
RACCORDO
100
AcDbPolyline
 62
7
  6
CONTINUOUS
 90
3
 70
0
 10
-53.3931337942
 20
110.5328266555
 10
-53.3667010323
 20
110.548533438
 10
-53.31581952
 20
110.5798949806
  0
LWPOLYLINE
  5
2D8
100
AcDbEntity
  8
RACCORDO
100
AcDbPolyline
 62
7
  6
CONTINUOUS
 90
3
 70
0
 10
-53.4742942428
 20
110.485980955
 10
-53.4470229839
 20
110.5012029216
 10
-53.3931337942
 20
110.5328266555
  0
LWPOLYLINE
  5
2D9
100
AcDbEntity
  8
RACCORDO
100
AcDbPolyline
 62
7
  6
CONTINUOUS
 90
3
 70
0
 10
-53.5534005406
 20
110.4437085658
 10
-53.5280528939
 20
110.4574408593
 10
-53.4742942428
 20
110.485980955
  0
LINE
  5
2DA
100
AcDbEntity
  8
0
100
AcDbLine
 62
7
  6
CONTINUOUS
 10
-49.6963869227
 20
111.515017284
 11
-49.3974996654
 21
111.6742482505
  0
LINE
  5
2DB
100
AcDbEntity
  8
0
100
AcDbLine
 62
7
  6
CONTINUOUS
 10
-54.2218516379
 20
109.7713362024
 11
-55.159920077
 21
109.2730742062
  0
LINE
  5
2DC
100
AcDbEntity
  8
DRAFT
100
AcDbLine
 62
7
  6
CONTINUOUS
 10
-54.114900344
 20
109.6790800677
 11
-53.1436189555
 21
110.1934649772
  0
LINE
  5
2DD
100
AcDbEntity
  8
RACCORDO
100
AcDbLine
 62
7
  6
CONTINUOUS
 10
-57.2403125254
 20
108.5860189151
 11
-57.2490666776
 21
108.5814020239
  0
LINE
  5
2DE
100
AcDbEntity
  8
DRAFT
100
AcDbLine
 62
7
  6
CONTINUOUS
 10
-54.6532141117
 20
109.4858728033
 11
-53.6646404961
 21
110.0064641004
  0
LINE
  5
2DF
100
AcDbEntity
  8
DRAFT
100
AcDbLine
 62
7
  6
CONTINUOUS
 10
-53.7868636552
 20
109.7811820089
 11
-52.8020232123
 21
110.2998744227
  0
LINE
  5
2E0
100
AcDbEntity
  8
RACCORDO
100
AcDbLine
 62
250
  6
CONTINUOUS
 10
-57.3702702366
 20
109.3553225842
 11
-53.6713427661
 21
111.2190480371
  0
LINE
  5
2E1
100
AcDbEntity
  8
RACCORDO
100
AcDbLine
 62
250
  6
CONTINUOUS
 10
-57.2288704195
 20
109.1114439749
 11
-53.5534005406
 21
110.9633429173
  0
LINE
  5
2E2
100
AcDbEntity
  8
RACCORDO
100
AcDbLine
 62
7
  6
CONTINUOUS
 10
-53.5534005406
 20
110.4437085658
 11
-57.2403125254
 21
108.5860189151
  0
LWPOLYLINE
  5
2E3
100
AcDbEntity
  8
DRAFT
100
AcDbPolyline
 62
7
  6
CONTINUOUS
 90
21
 70
0
 10
-54.2441858248
 20
109.3367176998
 10
-54.2516428394
 20
109.3329779376
 10
-54.2695971827
 20
109.3255023719
 10
-54.2883398248
 20
109.3197947081
 10
-54.3078620082
 20
109.3158357221
 10
-54.3279500334
 20
109.3136692379
 10
-54.3486105611
 20
109.3133152557
 10
-54.3698369305
 20
109.3147537753
 10
-54.3913954595
 20
109.3179686199
 10
-54.4132888394
 20
109.3229791619
 10
-54.4355143789
 20
109.3297660288
 10
-54.457830322
 20
109.3382549266
 10
-54.4802380936
 20
109.3484645464
 10
-54.5027362687
 20
109.3603761971
 10
-54.5250788171
 20
109.373859511
 10
-54.5472637202
 20
109.3889314317
 10
-54.5692929966
 20
109.4055750155
 10
-54.5909266714
 20
109.4236090644
 10
-54.612084753
 20
109.442973179
 10
-54.6328472331
 20
109.4637277586
 10
-54.6532141117
 20
109.4858728033
  0
LINE
  5
2E4
100
AcDbEntity
  8
ASSI
100
AcDbLine
 62
250
  6
CONTINUOUS
 10
-44.1319091432
 20
116.1066820473
 11
-43.9466864507
 21
116.1992933936
  0
LINE
  5
2E5
100
AcDbEntity
  8
ASSI
100
AcDbLine
 62
250
  6
CONTINUOUS
 10
-43.0981583133
 20
116.6235574623
 11
-42.1082088197
 21
117.1185322091
  0
LINE
  5
2E6
100
AcDbEntity
  8
ASSI
100
AcDbLine
 62
7
  6
CONTINUOUS
 10
-41.9317903333
 20
117.0162530166
 11
-31.9152137693
 21
122.0245412986
  0
LINE
  5
2E7
100
AcDbEntity
  8
ASSI
100
AcDbLine
 62
7
  6
CONTINUOUS
 10
-41.6390859591
 20
116.7823780908
 11
-31.5685825835
 21
121.8176297786
  0
LINE
  5
2E8
100
AcDbEntity
  8
ASSI
100
AcDbLine
 62
7
  6
CONTINUOUS
 10
-40.7445676466
 20
114.9935692695
 11
-29.5300880407
 21
120.6008090725
  0
LINE
  5
2E9
100
AcDbEntity
  8
RACCORDO
100
AcDbLine
 62
7
  6
CONTINUOUS
 10
-43.051895591
 20
114.9244958348
 11
-41.6758745195
 21
115.609783795
  0
LINE
  5
2EA
100
AcDbEntity
  8
SMUSSO
100
AcDbLine
 62
7
  6
CONTINUOUS
 10
-42.2870617869
 20
113.9818056991
 11
-40.6957389277
 21
114.7743185601
  0
LINE
  5
2EB
100
AcDbEntity
  8
RACCORDO
100
AcDbLine
 62
250
  6
CONTINUOUS
 10
-49.4298105566
 20
114.0753491818
 11
-50.3106474814
 21
113.6384475735
  0
LINE
  5
2EC
100
AcDbEntity
  8
0
100
AcDbLine
 62
7
  6
CONTINUOUS
 10
-48.2089682571
 20
112.3070698612
 11
-49.3974996654
 21
111.7175495207
  0
LINE
  5
2ED
100
AcDbEntity
  8
0
100
AcDbLine
 62
7
  6
CONTINUOUS
 10
-48.1469241298
 20
112.2945429355
 11
-49.3974996654
 21
111.6742482505
  0
LINE
  5
2EE
100
AcDbEntity
  8
RACCORDO
100
AcDbLine
 62
250
  6
CONTINUOUS
 10
-47.505287897
 20
112.3257583924
 11
-42.7808914294
 21
114.6690938691
  0
LINE
  5
2EF
100
AcDbEntity
  8
RACCORDO
100
AcDbLine
 62
250
  6
CONTINUOUS
 10
-46.5967255582
 20
111.991377108
 11
-42.4273918867
 21
114.0593973457
  0
LINE
  5
2F0
100
AcDbEntity
  8
0
100
AcDbLine
 62
250
  6
CONTINUOUS
 10
-57.9887300623
 20
108.9512337163
 11
-57.9013482818
 21
108.9942934718
  0
LINE
  5
2F1
100
AcDbEntity
  8
0
100
AcDbLine
 62
250
  6
CONTINUOUS
 10
-57.6728456286
 20
108.7932914994
 11
-57.6350131628
 21
108.8119344788
  0
LINE
  5
2F2
100
AcDbEntity
  8
0
100
AcDbLine
 62
7
  6
CONTINUOUS
 10
-58.4406515238
 20
109.2639450928
 11
-58.5286454835
 21
109.2211914269
  0
LINE
  5
2F3
100
AcDbEntity
  8
0
100
AcDbLine
 62
250
  6
CONTINUOUS
 10
-58.3908057699
 20
109.2390222158
 11
-58.4787997296
 21
109.1962685499
  0
LINE
  5
2F4
100
AcDbEntity
  8
DRAFT
100
AcDbLine
 62
7
  6
CONTINUOUS
 10
-52.8020232123
 20
110.2998744227
 11
-49.9589923575
 21
111.6463200014
  0
LINE
  5
2F5
100
AcDbEntity
  8
DRAFT
100
AcDbLine
 62
7
  6
CONTINUOUS
 10
-53.6646404961
 20
110.0064641004
 11
-50.8315480842
 21
111.3477510348
  0
LINE
  5
2F6
100
AcDbEntity
  8
DRAFT
100
AcDbLine
 62
7
  6
CONTINUOUS
 10
-52.2877239088
 20
110.6866653312
 11
-51.4918468325
 21
111.0628764279
  0
LINE
  5
2F7
100
AcDbEntity
  8
0
100
AcDbLine
 62
7
  6
CONTINUOUS
 10
-52.287723906
 20
110.6866653883
 11
-54.2218516379
 21
109.7713362024
  0
LINE
  5
2F8
100
AcDbEntity
  8
RACCORDO
100
AcDbLine
 62
250
  6
CONTINUOUS
 10
-44.1970162318
 20
115.4970561552
 11
-42.7846510993
 21
116.164172085
  0
LINE
  5
2F9
100
AcDbEntity
  8
RACCORDO
100
AcDbLine
 62
7
  6
CONTINUOUS
 10
-44.3203155005
 20
115.5587057895
 11
-43.0010901016
 21
116.1818280013
  0
LINE
  5
2FA
100
AcDbEntity
  8
DRAFT
100
AcDbLine
 62
7
  6
CONTINUOUS
 10
-53.1436189555
 20
110.1934649772
 11
-50.2625885945
 21
111.5519574162
  0
LWPOLYLINE
  5
2FB
100
AcDbEntity
  8
0
100
AcDbPolyline
 62
7
  6
CONTINUOUS
 90
10
 70
0
 10
-51.4918468236
 20
111.0628764098
 10
-51.4639735432
 20
111.0760020177
 10
-51.3859847947
 20
111.1121976753
 10
-51.3076898518
 20
111.1477579489
 10
-51.2290865678
 20
111.1826837827
 10
-51.1501770895
 20
111.2169742325
 10
-51.070967858
 20
111.2506264659
 10
-50.99146102
 20
111.2836395387
 10
-50.9116544288
 20
111.316014395
 10
-50.8315480842
 20
111.3477510348
  0
LINE
  5
2FC
100
AcDbEntity
  8
0
100
AcDbLine
 62
7
  6
CONTINUOUS
 10
-45.0877443145
 20
115.8225203116
 11
-50.3460028205
 21
113.3940822808
  0
LINE
  5
2FD
100
AcDbEntity
  8
RACCORDO
100
AcDbLine
 62
250
  6
CONTINUOUS
 10
-53.3471459742
 20
108.5383089251
 11
-53.1670953045
 21
108.621462291
  0
LWPOLYLINE
  5
2FE
100
AcDbEntity
  8
0
100
AcDbPolyline
 62
7
  6
CONTINUOUS
 90
10
 70
0
 10
-54.2218516379
 20
109.7713362024
 10
-54.1606734457
 20
109.7990117531
 10
-54.0993095107
 20
109.8263007014
 10
-54.0377607731
 20
109.8532026292
 10
-53.9760281758
 20
109.8797171244
 10
-53.9141126646
 20
109.9058437807
 10
-53.8520151883
 20
109.9315821978
 10
-53.7897366982
 20
109.9569319814
 10
-53.7272781485
 20
109.9818927431
 10
-53.6646404961
 20
110.0064641004
  0
LWPOLYLINE
  5
2FF
100
AcDbEntity
  8
RACCORDO
100
AcDbPolyline
 62
250
  6
CONTINUOUS
 90
8
 70
0
 10
-42.7846510993
 20
116.164172085
 10
-42.7392499534
 20
116.1838847957
 10
-42.6944301698
 20
116.1989697579
 10
-42.6504643975
 20
116.2094096665
 10
-42.6077005703
 20
116.2152099634
 10
-42.5662898509
 20
116.216441763
 10
-42.526211705
 20
116.2131431446
 10
-42.487436201
 20
116.2052525289
  0
LWPOLYLINE
  5
300
100
AcDbEntity
  8
RACCORDO
100
AcDbPolyline
 62
250
  6
CONTINUOUS
 90
8
 70
0
 10
-43.0010901016
 20
116.1818280013
 10
-42.9893803586
 20
116.1868539005
 10
-42.9587158697
 20
116.1958420276
 10
-42.9261783522
 20
116.199723204
 10
-42.8921242392
 20
116.1984548793
 10
-42.85692657
 20
116.1920509206
 10
-42.8209709002
 20
116.1805814513
 10
-42.7846510992
 20
116.164172085
  0
LWPOLYLINE
  5
301
100
AcDbEntity
  8
RACCORDO
100
AcDbPolyline
 62
7
  6
CONTINUOUS
 90
8
 70
0
 10
-53.2930807848
 20
108.6474708046
 10
-53.2888631228
 20
108.6492733721
 10
-53.2764857251
 20
108.6528962886
 10
-53.2632041544
 20
108.6545435411
 10
-53.2494465939
 20
108.6541616575
 10
-53.2353557714
 20
108.6517328136
 10
-53.2207889591
 20
108.6472748336
 10
-53.2057461571
 20
108.6407877173
  0
LWPOLYLINE
  5
302
100
AcDbEntity
  8
0
100
AcDbPolyline
 62
7
  6
CONTINUOUS
 90
10
 70
0
 10
-54.6532141117
 20
109.4858728033
 10
-54.7101163843
 20
109.4635117085
 10
-54.7668685664
 20
109.4408296817
 10
-54.8234706578
 20
109.4178267228
 10
-54.8799230744
 20
109.3945026539
 10
-54.9362254005
 20
109.370857653
 10
-54.9923763885
 20
109.3468922543
 10
-55.0483756227
 20
109.322606636
 10
-55.1042235188
 20
109.29800062
 10
-55.159920077
 20
109.2730742062
  0
LWPOLYLINE
  5
303
100
AcDbEntity
  8
RACCORDO
100
AcDbPolyline
 62
250
  6
CONTINUOUS
 90
13
 70
0
 10
-53.1980781753
 20
111.2447063054
 10
-53.2220700944
 20
111.2356185112
 10
-53.2491823411
 20
111.2249224961
 10
-53.2789652781
 20
111.212795629
 10
-53.3109249777
 20
111.1994390087
 10
-53.3445314109
 20
111.1850741249
 10
-53.3792272385
 20
111.1699391858
 10
-53.4144370556
 20
111.1542851728
 10
-53.4495769346
 20
111.1383716789
 10
-53.4840641074
 20
111.1224625992
 10
-53.51732663
 20
111.1068217545
 10
-53.5488128673
 20
111.091708516
 10
-53.5780006428
 20
111.0773735061
  0
LWPOLYLINE
  5
304
100
AcDbEntity
  8
RACCORDO
100
AcDbPolyline
 62
7
  6
CONTINUOUS
 90
9
 70
0
 10
-48.0930965487
 20
110.8184522546
 10
-48.0952703385
 20
110.8176597089
 10
-48.1068717674
 20
110.8119972739
 10
-48.1175251123
 20
110.8043514102
 10
-48.1269032198
 20
110.7949967964
 10
-48.1349624378
 20
110.7838848234
 10
-48.1417464184
 20
110.7710641004
 10
-48.1470589645
 20
110.7569551322
 10
-48.1507150795
 20
110.7421813623
  0
LINE
  5
305
100
AcDbEntity
  8
RACCORDO
100
AcDbLine
 62
7
  6
CONTINUOUS
 10
-48.0764563252
 20
110.8242833215
 11
-47.6245836935
 21
110.982485633
  0
LINE
  5
306
100
AcDbEntity
  8
RACCORDO
100
AcDbLine
 62
250
  6
CONTINUOUS
 10
-48.0103687902
 20
110.8087228394
 11
-47.5944743977
 21
110.9543290338
  0
LWPOLYLINE
  5
307
100
AcDbEntity
  8
DRAFT
100
AcDbPolyline
 62
7
  6
CONTINUOUS
 90
10
 70
0
 10
-53.1436189555
 20
110.1934649772
 10
-53.105896148
 20
110.2058312349
 10
-53.0681148044
 20
110.2180618946
 10
-53.0302751245
 20
110.2301568915
 10
-52.9923773085
 20
110.2421161616
 10
-52.9544215569
 20
110.2539396418
 10
-52.9164080702
 20
110.2656272694
 10
-52.8783370496
 20
110.2771789827
 10
-52.8402086965
 20
110.2885947206
 10
-52.8020232123
 20
110.2998744227
  0
LWPOLYLINE
  5
308
100
AcDbEntity
  8
DRAFT
100
AcDbPolyline
 62
7
  6
CONTINUOUS
 90
10
 70
0
 10
-54.114900344
 20
109.6790800677
 10
-54.078665794
 20
109.6909259235
 10
-54.0423776178
 20
109.702646522
 10
-54.0060358152
 20
109.7142418631
 10
-53.9696402084
 20
109.7257120023
 10
-53.9331909752
 20
109.7370568841
 10
-53.8966886499
 20
109.7482763423
 10
-53.8601334105
 20
109.7593703214
 10
-53.8235250789
 20
109.770338877
 10
-53.7868636552
 20
109.7811820089
  0
LWPOLYLINE
  5
309
100
AcDbEntity
  8
DRAFT
100
AcDbPolyline
 62
7
  6
CONTINUOUS
 90
10
 70
0
 10
-50.2625885945
 20
111.5519574162
 10
-50.2290390894
 20
111.5628720295
 10
-50.1954436257
 20
111.5736792055
 10
-50.1618022032
 20
111.584378944
 10
-50.1281146805
 20
111.594971289
 10
-50.0943811991
 20
111.6054561967
 10
-50.0606021836
 20
111.615833535
 10
-50.0267777756
 20
111.6261032598
 10
-49.9929078336
 20
111.6362654153
 10
-49.9589923575
 20
111.6463200014
  0
LINE
  5
30A
100
AcDbEntity
  8
0
100
AcDbLine
 62
7
  6
CONTINUOUS
 10
-44.5516146112
 20
76.4688352639
 11
-44.7952145882
 21
76.5906352524
  0
LWPOLYLINE
  5
30B
100
AcDbEntity
  8
0
100
AcDbPolyline
 62
7
  6
CONTINUOUS
 90
13
 70
0
 10
-44.5516146112
 20
76.4688352639
 10
-44.5323155443
 20
76.4574312695
 10
-44.5139800065
 20
76.4437174766
 10
-44.4966079978
 20
76.4276938851
 10
-44.479929557
 20
76.408999507
 10
-44.4642146454
 20
76.3879953304
 10
-44.4502731465
 20
76.3657643191
 10
-44.4381979195
 20
76.3422422397
 10
-44.4278961053
 20
76.3174933256
 10
-44.4198990107
 20
76.2927932415
 10
-44.414383738
 20
76.2685672088
 10
-44.4111731849
 20
76.2443900061
 10
-44.4102673515
 20
76.2202616333
  0
LWPOLYLINE
  5
30C
100
AcDbEntity
  8
RACCORDO
100
AcDbPolyline
 62
250
  6
CONTINUOUS
 90
7
 70
0
 10
-59.0920807966
 20
109.656458641
 10
-59.0922656035
 20
109.6590310936
 10
-59.0924166798
 20
109.6616213553
 10
-59.092534074
 20
109.6642287604
 10
-59.0926178424
 20
109.6668526415
 10
-59.0926680495
 20
109.6694923301
 10
-59.0926847678
 20
109.6721471563
  0
LWPOLYLINE
  5
30D
100
AcDbEntity
  8
RACCORDO
100
AcDbPolyline
 62
7
  6
CONTINUOUS
 90
16
 70
0
 10
-59.6798123321
 20
116.4702395296
 10
-59.6806451757
 20
116.488905908
 10
-59.6829494538
 20
116.5077554759
 10
-59.6867251664
 20
116.5267882332
 10
-59.6920377125
 20
116.5462097474
 10
-59.6988216931
 20
116.5658144511
 10
-59.7068809112
 20
116.584985642
 10
-59.7162590187
 20
116.6037183634
 10
-59.7269123636
 20
116.6220175721
 10
-59.7385137924
 20
116.6392814359
 10
-59.7511010125
 20
116.6554824033
 10
-59.7646363165
 20
116.6706480259
 10
-59.7786794289
 20
116.6842591261
 10
-59.7930835911
 20
116.6961426447
 10
-59.8079955618
 20
116.7064716409
 10
-59.8234153408
 20
116.7152461147
  0
LWPOLYLINE
  5
30E
100
AcDbEntity
  8
RACCORDO
100
AcDbPolyline
 62
250
  6
CONTINUOUS
 90
7
 70
0
 10
-57.5092234498
 20
108.8804164973
 10
-57.5092067315
 20
108.8777616711
 10
-57.5091565244
 20
108.8751219826
 10
-57.509072756
 20
108.8724981015
 10
-57.5089553618
 20
108.8698906964
 10
-57.5088042855
 20
108.8673004346
 10
-57.5086194786
 20
108.864727982
  0
LINE
  5
30F
100
AcDbEntity
  8
DRAFT
100
AcDbLine
 62
7
  6
CONTINUOUS
 10
-59.6798123321
 20
116.4702395296
 11
-59.6798123321
 21
115.7774192066
  0
LINE
  5
310
100
AcDbEntity
  8
RACCORDO
100
AcDbLine
 62
7
  6
CONTINUOUS
 10
-59.1512634116
 20
109.9751086139
 11
-59.1512634116
 21
109.5325003909
  0
LINE
  5
311
100
AcDbEntity
  8
RACCORDO
100
AcDbLine
 62
7
  6
CONTINUOUS
 10
-59.1004600459
 20
109.676261355
 11
-59.1004600459
 21
109.6156838544
  0
LINE
  5
312
100
AcDbEntity
  8
RACCORDO
100
AcDbLine
 62
250
  6
CONTINUOUS
 10
-59.0926847678
 20
109.9043979358
 11
-59.0926847678
 21
109.6721471563
  0
LINE
  5
313
100
AcDbEntity
  8
0
100
AcDbLine
 62
7
  6
CONTINUOUS
 10
-58.6962910894
 20
114.6164884721
 11
-58.6962910894
 21
114.1092751576
  0
LINE
  5
314
100
AcDbEntity
  8
RACCORDO
100
AcDbLine
 62
7
  6
CONTINUOUS
 10
-57.6350131628
 20
108.8611259123
 11
-57.6350131628
 21
108.7743752665
  0
LINE
  5
315
100
AcDbEntity
  8
RACCORDO
100
AcDbLine
 62
250
  6
CONTINUOUS
 10
-57.5092234498
 20
108.8804164973
 11
-57.5092234498
 21
109.1126672768
  0
LWPOLYLINE
  5
316
100
AcDbEntity
  8
RACCORDO
100
AcDbPolyline
 62
7
  6
CONTINUOUS
 90
3
 70
0
 10
-57.5009950525
 20
108.8765288583
 10
-57.5009950525
 20
108.8159513576
 10
-57.5003682324
 20
108.7769733476
  0
LINE
  5
317
100
AcDbEntity
  8
RACCORDO
100
AcDbLine
 62
250
  6
CONTINUOUS
 10
-57.2288704195
 20
108.5918023526
 11
-57.2288704195
 21
109.1114439749
  0
LINE
  5
318
100
AcDbEntity
  8
RACCORDO
100
AcDbLine
 62
7
  6
CONTINUOUS
 10
-57.1793971849
 20
112.7219963356
 11
-57.1793971849
 21
113.318200452
  0
LINE
  5
319
100
AcDbEntity
  8
RACCORDO
100
AcDbLine
 62
250
  6
CONTINUOUS
 10
-57.062264429
 20
112.6663383811
 11
-57.0622398974
 21
113.1767790958
  0
LWPOLYLINE
  5
31A
100
AcDbEntity
  8
RACCORDO
100
AcDbPolyline
 62
7
  6
CONTINUOUS
 90
6
 70
0
 10
-59.1004600459
 20
109.6156838544
 10
-59.1010172724
 20
109.5772978676
 10
-59.1004600459
 20
109.5582290216
 10
-59.098772664
 20
109.5389857909
 10
-59.096197903
 20
109.5197168352
 10
-59.0926847678
 20
109.500447018
  0
LWPOLYLINE
  5
31B
100
AcDbEntity
  8
DRAFT
100
AcDbPolyline
 62
7
  6
CONTINUOUS
 90
22
 70
0
 10
-59.9753585925
 20
116.4083424152
 10
-59.9765452326
 20
116.3595188893
 10
-59.973864906
 20
116.3096822196
 10
-59.9673176128
 20
116.258832406
 10
-59.9567207288
 20
116.2063357193
 10
-59.9422568781
 20
116.1528258888
 10
-59.9244739334
 20
116.1002041022
 10
-59.9034034799
 20
116.0487790104
 10
-59.8790139323
 20
115.9982419626
 10
-59.8517584078
 20
115.9495681934
 10
-59.8213506414
 20
115.9024885449
 10
-59.788076898
 20
115.8572721751
 10
-59.7532490896
 20
115.8157017926
 10
-59.7170617128
 20
115.7781613246
 10
-59.6793202711
 20
115.7442668438
 10
-59.6407531865
 20
115.7146492778
 10
-59.6011243746
 20
115.6892539136
 10
-59.56066992
 20
115.6681354642
 10
-59.5208264979
 20
115.6520889958
 10
-59.4820730003
 20
115.6413795308
 10
-59.4439305352
 20
115.6357420469
 10
-59.4063991028
 20
115.6351765441
  0
LWPOLYLINE
  5
31C
100
AcDbEntity
  8
RACCORDO
100
AcDbPolyline
 62
7
  6
CONTINUOUS
 90
16
 70
0
 10
-57.1793942128
 20
112.7219919667
 10
-57.179757924
 20
112.7072724461
 10
-57.1816467826
 20
112.6854070627
 10
-57.1851945901
 20
112.6634507508
 10
-57.1904482959
 20
112.6415263632
 10
-57.1974225222
 20
112.6198341895
 10
-57.2061252337
 20
112.5985245106
 10
-57.2165572502
 20
112.5777383096
 10
-57.2286824868
 20
112.5576604847
 10
-57.2424661318
 20
112.5384385733
 10
-57.2578590329
 20
112.5202214543
 10
-57.2747673773
 20
112.5031851306
 10
-57.2931132973
 20
112.487461867
 10
-57.3127953183
 20
112.473188774
 10
-57.3336471804
 20
112.4605228163
 10
-57.3363326087
 20
112.4590562203
  0
LWPOLYLINE
  5
31D
100
AcDbEntity
  8
RACCORDO
100
AcDbPolyline
 62
7
  6
CONTINUOUS
 90
5
 70
0
 10
-57.5003682324
 20
108.7769733476
 10
-57.5009950525
 20
108.7584965249
 10
-57.5028614155
 20
108.7410301667
 10
-57.5056207905
 20
108.7244282789
 10
-57.5092234498
 20
108.708716359
  0
LWPOLYLINE
  5
31E
100
AcDbEntity
  8
RACCORDO
100
AcDbPolyline
 62
250
  6
CONTINUOUS
 90
16
 70
0
 10
-57.0622398974
 20
113.1767790958
 10
-57.0607246656
 20
113.2133455506
 10
-57.0561952048
 20
113.2510354531
 10
-57.048700045
 20
113.289444982
 10
-57.0383194917
 20
113.3281626058
 10
-57.0251647654
 20
113.366773492
 10
-57.0093768097
 20
113.4048639518
 10
-56.9911247817
 20
113.4420258722
 10
-56.9706042393
 20
113.4778610891
 10
-56.9480350458
 20
113.5119856528
 10
-56.9236590145
 20
113.5440339425
 10
-56.8977373177
 20
113.5736625828
 10
-56.8705476883
 20
113.6005541234
 10
-56.8423814445
 20
113.6244204402
 10
-56.813540368
 20
113.6450058219
 10
-56.7843334709
 20
113.6620897106
  0
LWPOLYLINE
  5
31F
100
AcDbEntity
  8
RACCORDO
100
AcDbPolyline
 62
250
  6
CONTINUOUS
 90
13
 70
0
 10
-59.0926847678
 20
109.9043979358
 10
-59.0915521769
 20
109.9268410113
 10
-59.0881418299
 20
109.9502176299
 10
-59.0824634196
 20
109.9741602676
 10
-59.074546203
 20
109.9983319931
 10
-59.0644903406
 20
110.0222713212
 10
-59.0525110619
 20
110.0454119154
 10
-59.0388411248
 20
110.0673168757
 10
-59.0236885638
 20
110.0876639644
 10
-59.0073156368
 20
110.1061020664
 10
-58.9900022773
 20
110.1223193432
 10
-58.9720396837
 20
110.1360462488
 10
-58.9537315546
 20
110.1470532432
  0
LWPOLYLINE
  5
320
100
AcDbEntity
  8
RACCORDO
100
AcDbPolyline
 62
250
  6
CONTINUOUS
 90
13
 70
0
 10
-57.0622398974
 20
112.6663261153
 10
-57.0640146411
 20
112.6319019678
 10
-57.0693091836
 20
112.5962790381
 10
-57.0780349455
 20
112.5600533831
 10
-57.0900459306
 20
112.5238311558
 10
-57.1051411764
 20
112.4882184395
 10
-57.1230681224
 20
112.4538111084
 10
-57.1435268217
 20
112.4211848889
 10
-57.1661749537
 20
112.3908857237
 10
-57.1906335633
 20
112.363420614
 10
-57.2164933977
 20
112.3392491444
 10
-57.2433217534
 20
112.3187757914
 10
-57.2706697173
 20
112.3023431542
  0
LINE
  5
321
100
AcDbEntity
  8
RACCORDO
100
AcDbLine
 62
250
  6
CONTINUOUS
 10
-57.1279323486
 20
112.7100015844
 11
-57.1302105165
 21
112.6759141531
  0
LWPOLYLINE
  5
322
100
AcDbEntity
  8
RACCORDO
100
AcDbPolyline
 62
7
  6
CONTINUOUS
 90
7
 70
0
 10
-57.5009950525
 20
108.8765288583
 10
-57.501240825
 20
108.8735666815
 10
-57.5019017421
 20
108.8710002926
 10
-57.5029751881
 20
108.8688309008
 10
-57.5044568867
 20
108.8670604663
 10
-57.5063408765
 20
108.8656916874
 10
-57.5086194786
 20
108.864727982
  0
LWPOLYLINE
  5
323
100
AcDbEntity
  8
RACCORDO
100
AcDbPolyline
 62
7
  6
CONTINUOUS
 90
10
 70
0
 10
-54.9397505272
 20
116.1628887904
 10
-54.9397683875
 20
116.1627364192
 10
-54.939826833
 20
116.1602287568
 10
-54.9400091468
 20
116.1545655068
 10
-54.9402238933
 20
116.145503741
 10
-54.9404158684
 20
116.1328796096
 10
-54.9408136203
 20
116.1166157478
 10
-54.9414017446
 20
116.0965448609
 10
-54.9419085393
 20
116.0724522916
 10
-54.942143982
 20
116.0441864349
  0
LWPOLYLINE
  5
324
100
AcDbEntity
  8
RACCORDO
100
AcDbPolyline
 62
250
  6
CONTINUOUS
 90
11
 70
0
 10
-57.1302105165
 20
112.6759141531
 10
-57.1368280961
 20
112.6411649683
 10
-57.1476742673
 20
112.6063359609
 10
-57.1625673959
 20
112.5720103985
 10
-57.181258075
 20
112.5387631181
 10
-57.2034333018
 20
112.507150899
 10
-57.2287217196
 20
112.4777031389
 10
-57.2566998362
 20
112.4509129885
 10
-57.2868991163
 20
112.4272290923
 10
-57.3188138277
 20
112.407048076
 10
-57.3519095108
 20
112.3907079041
  0
LWPOLYLINE
  5
325
100
AcDbEntity
  8
RACCORDO
100
AcDbPolyline
 62
250
  6
CONTINUOUS
 90
10
 70
0
 10
-55.1831697815
 20
112.3549099681
 10
-55.1939483523
 20
112.3160582709
 10
-55.2083966471
 20
112.2775165763
 10
-55.2262372729
 20
112.2400236324
 10
-55.2471278299
 20
112.204297979
 10
-55.2706676014
 20
112.1710240188
 10
-55.2964052894
 20
112.1408389548
 10
-55.3238475013
 20
112.114320807
 10
-55.3524681781
 20
112.0919773084
 10
-55.3817188175
 20
112.0742360629
  0
LWPOLYLINE
  5
326
100
AcDbEntity
  8
RACCORDO
100
AcDbPolyline
 62
250
  6
CONTINUOUS
 90
10
 70
0
 10
-53.47279373
 20
111.4997219424
 10
-53.4835688026
 20
111.460875927
 10
-53.4980134754
 20
111.4223382549
 10
-53.5158509192
 20
111.3848474923
 10
-53.5367392832
 20
111.3491221417
 10
-53.5602782464
 20
111.315846872
 10
-53.5860166897
 20
111.2856593964
 10
-53.6134613411
 20
111.2591382516
 10
-53.6420862299
 20
111.2367917096
 10
-53.6713427661
 20
111.2190480371
  0
LWPOLYLINE
  5
327
100
AcDbEntity
  8
RACCORDO
100
AcDbPolyline
 62
7
  6
CONTINUOUS
 90
5
 70
0
 10
-55.4569763014
 20
112.102407638
 10
-55.4568328184
 20
112.1028010366
 10
-55.4578403191
 20
112.1008210983
 10
-55.4612722653
 20
112.0954788255
 10
-55.4637960332
 20
112.0921851664
  0
LWPOLYLINE
  5
328
100
AcDbEntity
  8
RACCORDO
100
AcDbPolyline
 62
250
  6
CONTINUOUS
 90
10
 70
0
 10
-42.4273918867
 20
114.0593973457
 10
-42.3987940919
 20
114.0755435291
 10
-42.3730859884
 20
114.0928620469
 10
-42.3504589095
 20
114.1112240056
 10
-42.3310812576
 20
114.1304927459
 10
-42.3150972514
 20
114.1505248599
 10
-42.3026258522
 20
114.171171258
 10
-42.2937598788
 20
114.1922782789
 10
-42.2885653163
 20
114.2136888332
 10
-42.2870617869
 20
114.2330619384
  0
LWPOLYLINE
  5
329
100
AcDbEntity
  8
RACCORDO
100
AcDbPolyline
 62
7
  6
CONTINUOUS
 90
10
 70
0
 10
-47.6245790592
 20
110.9824837664
 10
-47.6269478601
 20
110.9812314413
 10
-47.628199013
 20
110.9794645169
 10
-47.6279512799
 20
110.9772276573
 10
-47.6261475627
 20
110.9744961302
 10
-47.6228449596
 20
110.9712946679
 10
-47.6180278987
 20
110.967672322
 10
-47.6116911895
 20
110.9636454429
 10
-47.6038400225
 20
110.9591976802
 10
-47.5944743977
 20
110.9543290338
  0
LINE
  5
32A
100
AcDbEntity
  8
0
100
AcDbLine
 62
7
  6
CONTINUOUS
 10
-52.2762777123
 20
105.021144428
 11
-52.2742217954
 21
105.0222297229
  0
LINE
  5
32B
100
AcDbEntity
  8
0
100
AcDbLine
 62
7
  6
CONTINUOUS
 10
-52.2742217954
 20
105.0222297229
 11
-52.2720706411
 21
105.0233504026
  0
LINE
  5
32C
100
AcDbEntity
  8
DRAFT
100
AcDbLine
 62
7
  6
CONTINUOUS
 10
-48.1779341919
 20
106.9767172773
 11
-47.1828756474
 21
107.4903006402
  0
LINE
  5
32D
100
AcDbEntity
  8
DRAFT
100
AcDbLine
 62
7
  6
CONTINUOUS
 10
-52.0834283829
 20
108.0796288303
 11
-53.3471459742
 21
107.4296164008
  0
LINE
  5
32E
100
AcDbEntity
  8
0
100
AcDbLine
 62
7
  6
CONTINUOUS
 10
-52.2720706411
 20
105.0233504026
 11
-52.2699133248
 21
105.0244591298
  0
LINE
  5
32F
100
AcDbEntity
  8
0
100
AcDbLine
 62
7
  6
CONTINUOUS
 10
-52.2699133248
 20
105.0244591298
 11
-52.2677498838
 21
105.0255558851
  0
LINE
  5
330
100
AcDbEntity
  8
RACCORDO
100
AcDbLine
 62
7
  6
CONTINUOUS
 10
-41.3653714532
 20
112.0615624352
 11
-42.2870617869
 21
111.6007172684
  0
LINE
  5
331
100
AcDbEntity
  8
RACCORDO
100
AcDbLine
 62
7
  6
CONTINUOUS
 10
-40.5168407455
 20
111.6372996516
 11
-41.6292409914
 21
111.0810995287
  0
LINE
  5
332
100
AcDbEntity
  8
0
100
AcDbLine
 62
7
  6
CONTINUOUS
 10
-52.2677498838
 20
105.0255558851
 11
-51.948690087
 21
105.1850615743
  0
LINE
  5
333
100
AcDbEntity
  8
0
100
AcDbLine
 62
7
  6
CONTINUOUS
 10
-51.948690087
 20
105.1850615743
 11
-51.7080693023
 21
105.305171096
  0
LINE
  5
334
100
AcDbEntity
  8
0
100
AcDbLine
 62
7
  6
CONTINUOUS
 10
-51.7080693023
 20
105.305171096
 11
-51.5480843485
 21
105.3849157336
  0
LINE
  5
335
100
AcDbEntity
  8
DRAFT
100
AcDbLine
 62
7
  6
CONTINUOUS
 10
-40.6957389277
 20
114.3754334551
 11
-42.2870617869
 21
113.582920594
  0
LINE
  5
336
100
AcDbEntity
  8
DRAFT
100
AcDbLine
 62
7
  6
CONTINUOUS
 10
-47.1828756474
 20
107.4903006402
 11
-44.3690522528
 21
108.851349949
  0
LINE
  5
337
100
AcDbEntity
  8
RACCORDO
100
AcDbLine
 62
7
  6
CONTINUOUS
 10
-36.8738159225
 20
113.2087544965
 11
-40.6022216476
 21
111.4163125855
  0
LWPOLYLINE
  5
338
100
AcDbEntity
  8
RACCORDO
100
AcDbPolyline
 62
7
  6
CONTINUOUS
 90
10
 70
0
 10
-36.8738159225
 20
113.2087544965
 10
-36.8290530094
 20
113.2291126626
 10
-36.7870161728
 20
113.2457637464
 10
-36.7477054126
 20
113.2587077478
 10
-36.7108621069
 20
113.2680813996
 10
-36.6767448775
 20
113.2737479691
 10
-36.6461295912
 20
113.2752972579
 10
-36.6189618436
 20
113.2727166624
 10
-36.5952960389
 20
113.2660187862
 10
-36.5896476214
 20
113.2634656229
  0
LWPOLYLINE
  5
339
100
AcDbEntity
  8
RACCORDO
100
AcDbPolyline
 62
7
  6
CONTINUOUS
 90
10
 70
0
 10
-40.5168696414
 20
111.6372852037
 10
-40.5054731771
 20
111.6424538589
 10
-40.4942527747
 20
111.6465057553
 10
-40.4832084339
 20
111.6494408928
 10
-40.472245175
 20
111.6512594242
 10
-40.4614579779
 20
111.6519611966
 10
-40.4511317824
 20
111.6515457523
 10
-40.4413615687
 20
111.6500129384
 10
-40.4320523567
 20
111.6473629077
 10
-40.4232041464
 20
111.6435956601
  0
LWPOLYLINE
  5
33A
100
AcDbEntity
  8
SMUSSO
100
AcDbPolyline
 62
7
  6
CONTINUOUS
 90
11
 70
0
 10
-40.6022216476
 20
111.4163125855
 10
-40.753449946
 20
111.3480246122
 10
-40.9118919423
 20
111.2848501677
 10
-41.0775476365
 20
111.226789252
 10
-41.2511852812
 20
111.173630089
 10
-41.4320366238
 20
111.1255844548
 10
-41.6177969061
 20
111.0832876774
 10
-41.8083871089
 20
111.0468461703
 10
-42.0038862515
 20
111.0161535199
 10
-42.2022266338
 20
110.9915258141
 10
-42.2870617869
 20
110.9837255863
  0
LWPOLYLINE
  5
33B
100
AcDbEntity
  8
RACCORDO
100
AcDbPolyline
 62
250
  6
CONTINUOUS
 90
10
 70
0
 10
-35.7650393426
 20
112.6543662066
 10
-35.7192976435
 20
112.6747485002
 10
-35.6743132065
 20
112.6902510914
 10
-35.6303675511
 20
112.700907959
 10
-35.5878659051
 20
112.706775801
 10
-35.5468954636
 20
112.7079966301
 10
-35.5072675531
 20
112.7046380373
 10
-35.4688997212
 20
112.6966243525
 10
-35.4323924267
 20
112.6840091724
 10
-35.4148746214
 20
112.6759803148
  0
LINE
  5
33C
100
AcDbEntity
  8
0
100
AcDbLine
 62
250
  6
CONTINUOUS
 10
-52.2666658931
 20
105.0260997598
 11
-52.2445344226
 21
105.0354489799
  0
LWPOLYLINE
  5
33D
100
AcDbEntity
  8
0
100
AcDbPolyline
 62
7
  6
CONTINUOUS
 90
16
 70
0
 10
-51.5480843485
 20
105.3849157336
 10
-51.5226685688
 20
105.3934190034
 10
-51.4962977424
 20
105.3984957301
 10
-51.4689718691
 20
105.4001459139
 10
-51.4404805782
 20
105.3983274828
 10
-51.4110342405
 20
105.3930825086
 10
-51.3812639685
 20
105.384537207
 10
-51.351164177
 20
105.3726256716
 10
-51.3207404513
 20
105.3574138088
 10
-51.2906406598
 20
105.3392255526
 10
-51.2608703878
 20
105.3180005823
 10
-51.2314240501
 20
105.2937992187
 10
-51.2029327592
 20
105.2671263589
 10
-51.1756068859
 20
105.2381503019
 10
-51.1492360594
 20
105.2067027487
 10
-51.1238202798
 20
105.1727836993
  0
LWPOLYLINE
  5
33E
100
AcDbEntity
  8
ASSI
100
AcDbPolyline
 62
7
  6
CONTINUOUS
 90
10
 70
0
 10
-23.6485682852
 20
89.8902393732
 10
-23.6608578063
 20
89.8878017899
 10
-23.6752133357
 20
89.8854198554
 10
-23.6916554036
 20
89.8831543235
 10
-23.710196326
 20
89.8810875411
 10
-23.7305230926
 20
89.8794010778
 10
-23.7527385961
 20
89.8781397515
 10
-23.7767532964
 20
89.8773836865
 10
-23.8019391246
 20
89.877300875
 10
-23.8281914802
 20
89.8778921063
  0
LWPOLYLINE
  5
33F
100
AcDbEntity
  8
RACCORDO
100
AcDbPolyline
 62
250
  6
CONTINUOUS
 90
7
 70
0
 10
-59.1512634116
 20
109.9751086139
 10
-59.1493572997
 20
109.9613353471
 10
-59.1441441596
 20
109.9486651977
 10
-59.1357036059
 20
109.9364375177
 10
-59.1241768718
 20
109.9248569092
 10
-59.1097568304
 20
109.9141171469
 10
-59.0926847678
 20
109.9043979358
  0
LWPOLYLINE
  5
340
100
AcDbEntity
  8
RACCORDO
100
AcDbPolyline
 62
250
  6
CONTINUOUS
 90
13
 70
0
 10
-57.2288704195
 20
109.1114439749
 10
-57.2303974897
 20
109.1345996482
 10
-57.234295848
 20
109.1586035682
 10
-57.2405002242
 20
109.183042043
 10
-57.2489065931
 20
109.2074963023
 10
-57.2593708764
 20
109.2315405552
 10
-57.271708899
 20
109.2547500763
 10
-57.2857372406
 20
109.2767675378
 10
-57.3011885198
 20
109.2971624488
 10
-57.3176827116
 20
109.3154682025
 10
-57.3348786985
 20
109.3313807311
 10
-57.3525081185
 20
109.3447220267
 10
-57.3702702366
 20
109.3553225842
  0
LWPOLYLINE
  5
341
100
AcDbEntity
  8
RACCORDO
100
AcDbPolyline
 62
250
  6
CONTINUOUS
 90
9
 70
0
 10
-57.1793971849
 20
113.318200452
 10
-57.178548305
 20
113.3051775552
 10
-57.1736690479
 20
113.284474727
 10
-57.1645525774
 20
113.2642205399
 10
-57.1513345975
 20
113.2446094181
 10
-57.1342321065
 20
113.2258801151
 10
-57.1135002162
 20
113.2082286778
 10
-57.0894022108
 20
113.1918112872
 10
-57.0622398974
 20
113.1767790958
  0
LWPOLYLINE
  5
342
100
AcDbEntity
  8
RACCORDO
100
AcDbPolyline
 62
250
  6
CONTINUOUS
 90
10
 70
0
 10
-53.5534006701
 20
110.9633428522
 10
-53.553479938
 20
110.9754964448
 10
-53.5542442613
 20
110.9879177482
 10
-53.5556888304
 20
111.0005495635
 10
-53.5578049912
 20
111.0133363075
 10
-53.5605828928
 20
111.0262159891
 10
-53.5640104907
 20
111.0391203575
 10
-53.5680706519
 20
111.0519864861
 10
-53.5727422844
 20
111.0647571848
 10
-53.5780023251
 20
111.0773728953
  0
LINE
  5
343
100
AcDbEntity
  8
0
100
AcDbLine
 62
7
  6
CONTINUOUS
 10
-56.314964122
 20
113.9786863887
 11
-56.314964122
 21
115.176281749
  0
LINE
  5
344
100
AcDbEntity
  8
RACCORDO
100
AcDbLine
 62
250
  6
CONTINUOUS
 10
-55.5494412732
 20
112.1698003743
 11
-55.5494412732
 21
112.0377215442
  0
LINE
  5
345
100
AcDbEntity
  8
0
100
AcDbLine
 62
7
  6
CONTINUOUS
 10
-55.159920077
 20
109.2730742062
 11
-55.159920077
 21
107.5368287236
  0
LINE
  5
346
100
AcDbEntity
  8
DRAFT
100
AcDbLine
 62
7
  6
CONTINUOUS
 10
-54.4472221514
 20
113.8159813395
 11
-54.4472221514
 21
113.7119940417
  0
LINE
  5
347
100
AcDbEntity
  8
RACCORDO
100
AcDbLine
 62
250
  6
CONTINUOUS
 10
-53.5534005406
 20
110.4437085658
 11
-53.5534005406
 21
110.9633429173
  0
LWPOLYLINE
  5
348
100
AcDbEntity
  8
RACCORDO
100
AcDbPolyline
 62
7
  6
CONTINUOUS
 90
10
 70
0
 10
-53.3471459742
 20
108.5383089251
 10
-53.3463014839
 20
108.5563102826
 10
-53.343994531
 20
108.5729974428
 10
-53.3402251156
 20
108.5883704059
 10
-53.3349204149
 20
108.6025675668
 10
-53.3281532516
 20
108.6154505306
 10
-53.320142094
 20
108.6266041116
 10
-53.3108464909
 20
108.6359720082
 10
-53.3003068934
 20
108.6436105221
 10
-53.2930807848
 20
108.6474708046
  0
LINE
  5
349
100
AcDbEntity
  8
0
100
AcDbLine
 62
7
  6
CONTINUOUS
 10
-52.3390325262
 20
104.9668562177
 11
-52.3309767313
 21
104.9781349226
  0
LWPOLYLINE
  5
34A
100
AcDbEntity
  8
0
100
AcDbPolyline
 62
7
  6
CONTINUOUS
 90
7
 70
0
 10
-52.3309767313
 20
104.9781349226
 10
-52.323397012
 20
104.9867268811
 10
-52.3148320941
 20
104.9949404258
 10
-52.3052819776
 20
105.0027755567
 10
-52.2947466625
 20
105.0102322739
 10
-52.2832261489
 20
105.0173105772
 10
-52.2762778057
 20
105.0211444738
  0
LINE
  5
34B
100
AcDbEntity
  8
RACCORDO
100
AcDbLine
 62
250
  6
CONTINUOUS
 10
-43.6223003753
 20
108.9682420226
 11
-43.9135127641
 21
108.7602948264
  0
LINE
  5
34C
100
AcDbEntity
  8
RACCORDO
100
AcDbLine
 62
250
  6
CONTINUOUS
 10
-43.2769395055
 20
108.8673054812
 11
-43.7699097554
 21
108.5152882413
  0
LINE
  5
34D
100
AcDbEntity
  8
DRAFT
100
AcDbLine
 62
7
  6
CONTINUOUS
 10
-43.7699097554
 20
107.8224679183
 11
-42.4293797371
 21
108.7449128015
  0
LINE
  5
34E
100
AcDbEntity
  8
DRAFT
100
AcDbLine
 62
7
  6
CONTINUOUS
 10
-46.0680067943
 20
105.9802382695
 11
-47.0177497003
 21
105.4016191733
  0
LINE
  5
34F
100
AcDbEntity
  8
DRAFT
100
AcDbLine
 62
7
  6
CONTINUOUS
 10
-43.7699097554
 20
107.8224679183
 11
-43.7921406252
 21
107.8097223525
  0
LINE
  5
350
100
AcDbEntity
  8
0
100
AcDbLine
 62
7
  6
CONTINUOUS
 10
-51.1238202798
 20
105.1727836993
 11
-51.3532139199
 21
105.0477121595
  0
LINE
  5
351
100
AcDbEntity
  8
0
100
AcDbLine
 62
7
  6
CONTINUOUS
 10
-51.3532139199
 20
105.0477121595
 11
-51.5837469135
 21
104.9222341121
  0
LINE
  5
352
100
AcDbEntity
  8
0
100
AcDbLine
 62
7
  6
CONTINUOUS
 10
-51.5837469135
 20
104.9222341121
 11
-51.815397754
 21
104.7963491255
  0
LINE
  5
353
100
AcDbEntity
  8
DRAFT
100
AcDbLine
 62
7
  6
CONTINUOUS
 10
-47.3115837354
 20
105.8150576151
 11
-46.3202583637
 21
106.3342730342
  0
LINE
  5
354
100
AcDbEntity
  8
DRAFT
100
AcDbLine
 62
7
  6
CONTINUOUS
 10
-46.8412799043
 20
107.0422954516
 11
-46.2303444927
 21
107.3532305517
  0
LINE
  5
355
100
AcDbEntity
  8
DRAFT
100
AcDbLine
 62
7
  6
CONTINUOUS
 10
-46.2303444927
 20
107.3532305517
 11
-45.6160068807
 21
107.6656817559
  0
LINE
  5
356
100
AcDbEntity
  8
DRAFT
100
AcDbLine
 62
7
  6
CONTINUOUS
 10
-45.6160068807
 20
107.6656817559
 11
-44.6881742348
 21
108.1371859569
  0
LINE
  5
357
100
AcDbEntity
  8
DRAFT
100
AcDbLine
 62
7
  6
CONTINUOUS
 10
-44.6881742348
 20
108.1371859569
 11
-44.0654560158
 21
108.4533911269
  0
LWPOLYLINE
  5
358
100
AcDbEntity
  8
0
100
AcDbPolyline
 62
7
  6
CONTINUOUS
 90
7
 70
0
 10
-51.815397754
 20
104.7963491255
 10
-51.8282557557
 20
104.789825004
 10
-51.8418751894
 20
104.7837959346
 10
-51.8562560552
 20
104.7782619175
 10
-51.8713983529
 20
104.7732229526
 10
-51.8873020827
 20
104.7686790398
 10
-51.9039672446
 20
104.7646301793
  0
LINE
  5
359
100
AcDbEntity
  8
RACCORDO
100
AcDbLine
 62
250
  6
CONTINUOUS
 10
-41.8022924255
 20
109.5941605416
 11
-35.7650393426
 21
112.6543662066
  0
LINE
  5
35A
100
AcDbEntity
  8
RACCORDO
100
AcDbLine
 62
250
  6
CONTINUOUS
 10
-41.0187372547
 20
109.2023829562
 11
-35.4084547386
 21
112.0461627518
  0
LINE
  5
35B
100
AcDbEntity
  8
DRAFT
100
AcDbLine
 62
7
  6
CONTINUOUS
 10
-47.8498975031
 20
106.5465786472
 11
-47.0647122344
 21
106.93253046
  0
LINE
  5
35C
100
AcDbEntity
  8
DRAFT
100
AcDbLine
 62
7
  6
CONTINUOUS
 10
-47.0647122344
 20
106.93253046
 11
-46.8412799043
 21
107.0422954516
  0
LINE
  5
35D
100
AcDbEntity
  8
RACCORDO
100
AcDbLine
 62
250
  6
CONTINUOUS
 10
-38.5468110105
 20
107.8465199492
 11
-42.3493264974
 21
106.0021406741
  0
LINE
  5
35E
100
AcDbEntity
  8
DRAFT
100
AcDbLine
 62
7
  6
CONTINUOUS
 10
-44.7595000277
 20
107.0777086753
 11
-43.4964965261
 21
107.6802252558
  0
LINE
  5
35F
100
AcDbEntity
  8
DRAFT
100
AcDbLine
 62
7
  6
CONTINUOUS
 10
-45.6983780611
 20
106.6303349906
 11
-44.7595000277
 21
107.0777086753
  0
LINE
  5
360
100
AcDbEntity
  8
DRAFT
100
AcDbLine
 62
7
  6
CONTINUOUS
 10
-46.3202583637
 20
106.3342730342
 11
-45.6983780611
 21
106.6303349906
  0
LWPOLYLINE
  5
361
100
AcDbEntity
  8
RACCORDO
100
AcDbPolyline
 62
250
  6
CONTINUOUS
 90
22
 70
0
 10
-35.4084547386
 20
112.0461627518
 10
-35.3913286439
 20
112.0538593097
 10
-35.3746794655
 20
112.0597694267
 10
-35.3585072034
 20
112.063893103
 10
-35.3427738404
 20
112.066208095
 10
-35.3275173937
 20
112.0667366461
 10
-35.3128519153
 20
112.065545487
 10
-35.2986805965
 20
112.0625677913
 10
-35.285100246
 20
112.0578703852
 10
-35.2725153426
 20
112.0517204784
 10
-35.2610094257
 20
112.0440080214
 10
-35.2504989558
 20
112.0348430635
 10
-35.2411377936
 20
112.0248229623
 10
-35.2330661901
 20
112.0141386791
 10
-35.2261438943
 20
112.0025992525
 10
-35.2201040142
 20
111.9902291561
 10
-35.2148582276
 20
111.9772318355
 10
-35.2104948566
 20
111.9634038451
 10
-35.2070119758
 20
111.9481593212
 10
-35.2044089431
 20
111.9313029759
 10
-35.2026864005
 20
111.913030097
 10
-35.201844348
 20
111.8933406846
  0
LWPOLYLINE
  5
362
100
AcDbEntity
  8
DRAFT
100
AcDbPolyline
 62
7
  6
CONTINUOUS
 90
18
 70
0
 10
-54.114900344
 20
109.6790800677
 10
-54.112660727
 20
109.6503400697
 10
-54.1117722724
 20
109.6224027981
 10
-54.1122349803
 20
109.5952682531
 10
-54.1140595543
 20
109.568863717
 10
-54.1172352908
 20
109.5432619074
 10
-54.1217300786
 20
109.5186809771
 10
-54.1275594627
 20
109.4951047805
 10
-54.1347078982
 20
109.4725494632
 10
-54.1430966388
 20
109.451281615
 10
-54.152738613
 20
109.4313223567
 10
-54.1636208923
 20
109.4126505676
 10
-54.1756259443
 20
109.3954694752
 10
-54.1887665263
 20
109.3797946605
 10
-54.2030298809
 20
109.3656105426
 10
-54.2182602043
 20
109.3530736064
 10
-54.2344680375
 20
109.3422021812
 10
-54.2441858248
 20
109.3367176998
  0
LWPOLYLINE
  5
363
100
AcDbEntity
  8
RACCORDO
100
AcDbPolyline
 62
250
  6
CONTINUOUS
 90
19
 70
0
 10
-48.4169759319
 20
63.9014093492
 10
-48.4120349839
 20
63.8326369669
 10
-48.4024007608
 20
63.7675744743
 10
-48.3880732625
 20
63.7062218713
 10
-48.3688938574
 20
63.6481650186
 10
-48.3450211772
 20
63.5938180555
 10
-48.3169311171
 20
63.5444234
 10
-48.2845324257
 20
63.5001258094
 10
-48.2479163545
 20
63.4607805263
 10
-48.2078325535
 20
63.4271956967
 10
-48.164213598
 20
63.3994985178
 10
-48.1171269126
 20
63.3775617923
 10
-48.0675244221
 20
63.3618120744
 10
-48.0153174781
 20
63.3523894435
 10
-47.9605947289
 20
63.3491538201
 10
-47.9045740441
 20
63.352111521
 10
-47.8476613802
 20
63.3612646517
 10
-47.7894507806
 20
63.3766111066
 10
-47.7299422455
 20
63.3981508857
  0
LWPOLYLINE
  5
364
100
AcDbEntity
  8
RACCORDO
100
AcDbPolyline
 62
250
  6
CONTINUOUS
 90
12
 70
0
 10
-49.1144078538
 20
63.8883282833
 10
-49.1071388282
 20
63.785616398
 10
-49.0926654037
 20
63.6874613281
 10
-49.071083189
 20
63.5945230397
 10
-49.0425308907
 20
63.5074241917
 10
-49.0072012547
 20
63.4267513392
 10
-48.9653396397
 20
63.3530511584
 10
-48.9172204689
 20
63.2868164483
 10
-48.8631641258
 20
63.2284918945
 10
-48.803546589
 20
63.1784766274
 10
-48.7387602235
 20
63.1371033645
 10
-48.7200923465
 20
63.1272779738
  0
LWPOLYLINE
  5
365
100
AcDbEntity
  8
RACCORDO
100
AcDbPolyline
 62
250
  6
CONTINUOUS
 90
10
 70
0
 10
-53.1328709951
 20
110.9615152352
 10
-53.1337469212
 20
110.9919272971
 10
-53.1362432837
 20
111.0227154919
 10
-53.1403600825
 20
111.0538798197
 10
-53.1461344939
 20
111.0855707358
 10
-53.1535293417
 20
111.1176377848
 10
-53.1624330967
 20
111.1496296009
 10
-53.1728085828
 20
111.1813957287
 10
-53.1846929761
 20
111.2130866236
 10
-53.1980862767
 20
111.2447022854
  0
LINE
  5
366
100
AcDbEntity
  8
DRAFT
100
AcDbLine
 62
7
  6
CONTINUOUS
 10
-53.3471459742
 20
108.5383089251
 11
-53.3471459742
 21
107.4296164008
  0
LINE
  5
367
100
AcDbEntity
  8
RACCORDO
100
AcDbLine
 62
250
  6
CONTINUOUS
 10
-53.1328709951
 20
110.7016416641
 11
-53.1328709951
 21
110.9615152352
  0
LINE
  5
368
100
AcDbEntity
  8
RACCORDO
100
AcDbLine
 62
7
  6
CONTINUOUS
 10
-52.431967825
 20
114.4370647831
 11
-52.431967825
 21
114.6991077453
  0
LINE
  5
369
100
AcDbEntity
  8
DRAFT
100
AcDbLine
 62
7
  6
CONTINUOUS
 10
-51.265241636
 20
112.121003784
 11
-51.265241636
 21
112.2249910818
  0
LINE
  5
36A
100
AcDbEntity
  8
RACCORDO
100
AcDbLine
 62
7
  6
CONTINUOUS
 10
-50.3106474814
 20
113.4104105481
 11
-50.3106474814
 21
113.6384475735
  0
LWPOLYLINE
  5
36B
100
AcDbEntity
  8
RACCORDO
100
AcDbPolyline
 62
250
  6
CONTINUOUS
 90
13
 70
0
 10
-49.2956562395
 20
114.1213078527
 10
-49.2922005942
 20
114.1460968038
 10
-49.2912512405
 20
114.1716458049
 10
-49.292824329
 20
114.1975202125
 10
-49.296893098
 20
114.2232798474
 10
-49.3033883291
 20
114.2484864825
 10
-49.3121995244
 20
114.2727112989
 10
-49.3231767865
 20
114.2955421801
 10
-49.3361333686
 20
114.3165907239
 10
-49.3508488513
 20
114.3354988491
 10
-49.3670728927
 20
114.3519448878
 10
-49.3845294867
 20
114.3656490575
 10
-49.4029216592
 20
114.3763782207
  0
LWPOLYLINE
  5
36C
100
AcDbEntity
  8
0
100
AcDbPolyline
 62
250
  6
CONTINUOUS
 90
4
 70
0
 10
-46.3558353604
 20
101.9204234517
 10
-46.3515507131
 20
101.9244283438
 10
-46.324722543
 20
101.9449014987
 10
-46.297374824
 20
101.961333969
  0
LWPOLYLINE
  5
36D
100
AcDbEntity
  8
RACCORDO
100
AcDbPolyline
 62
250
  6
CONTINUOUS
 90
19
 70
0
 10
-48.0926230882
 20
101.2203251129
 10
-48.1808085638
 20
101.1678199093
 10
-48.2679995537
 20
101.1071074219
 10
-48.3536190449
 20
101.0386016627
 10
-48.4371097258
 20
100.9627734792
 10
-48.5179097612
 20
100.8801338909
 10
-48.5954565533
 20
100.7912307078
 10
-48.6692358289
 20
100.6966666362
 10
-48.7387607127
 20
100.5970833595
 10
-48.8035470471
 20
100.4931438098
 10
-48.8631644071
 20
100.3855508859
 10
-48.9172205034
 20
100.2750332961
 10
-48.9653395074
 20
100.1623289188
 10
-49.007201107
 20
100.0481984745
 10
-49.0425307976
 20
99.9334135316
 10
-49.0710831427
 20
99.8187419384
 10
-49.0926653746
 20
99.7049549337
 10
-49.1071388139
 20
99.5928219451
 10
-49.1144078541
 20
99.4830985469
  0
LWPOLYLINE
  5
36E
100
AcDbEntity
  8
RACCORDO
100
AcDbPolyline
 62
250
  6
CONTINUOUS
 90
19
 70
0
 10
-47.7299422455
 20
100.6158140245
 10
-47.7894809725
 20
100.5808652798
 10
-47.8477230121
 20
100.5409461792
 10
-47.9046683642
 20
100.4960567227
 10
-47.960725495
 20
100.4458077552
 10
-48.0154859382
 20
100.3905884317
 10
-48.0677242962
 20
100.3315662176
 10
-48.1173541527
 20
100.2686743728
 10
-48.164461924
 20
100.2019796374
 10
-48.2080814605
 20
100.1328496963
 10
-48.2481319758
 20
100.0612438159
 10
-48.2846942564
 20
99.9872027298
 10
-48.3170445126
 20
99.9122163246
 10
-48.3450996301
 20
99.8362197858
 10
-48.3689427231
 20
99.7592779278
 10
-48.3880993445
 20
99.6830750809
 10
-48.4024113453
 20
99.6081726884
 10
-48.4120368744
 20
99.5340093069
 10
-48.4169759319
 20
99.4605849365
  0
LINE
  5
36F
100
AcDbEntity
  8
0
100
AcDbLine
 62
250
  6
CONTINUOUS
 10
-43.4687222119
 20
103.6271054291
 11
-42.4614930856
 21
104.1769814151
  0
LINE
  5
370
100
AcDbEntity
  8
0
100
AcDbLine
 62
250
  6
CONTINUOUS
 10
-43.115437946
 20
103.0172524026
 11
-42.1082088197
 21
103.5671283886
  0
LINE
  5
371
100
AcDbEntity
  8
RACCORDO
100
AcDbLine
 62
250
  6
CONTINUOUS
 10
-46.5272628649
 20
102.0609713871
 11
-48.0926230882
 21
101.2203251129
  0
LINE
  5
372
100
AcDbEntity
  8
RACCORDO
100
AcDbLine
 62
250
  6
CONTINUOUS
 10
-46.1740728115
 20
101.4513634549
 11
-47.7299422455
 21
100.6158140245
  0
LINE
  5
373
100
AcDbEntity
  8
0
100
AcDbLine
 62
250
  6
CONTINUOUS
 10
-46.297374824
 20
101.961333969
 11
-45.5022136736
 21
102.3619803961
  0
LINE
  5
374
100
AcDbEntity
  8
0
100
AcDbLine
 62
250
  6
CONTINUOUS
 10
-45.5903757386
 20
100.7419409224
 11
-44.7952145882
 21
101.1425873495
  0
LINE
  5
375
100
AcDbEntity
  8
ASSI
100
AcDbLine
 62
7
  6
CONTINUOUS
 10
-34.9450889092
 20
108.8892663697
 11
-21.8188723247
 21
115.4523746264
  0
LINE
  5
376
100
AcDbEntity
  8
ASSI
100
AcDbLine
 62
7
  6
CONTINUOUS
 10
-31.4479137293
 20
108.4017859751
 11
-20.3511099856
 21
113.9501878169
  0
LINE
  5
377
100
AcDbEntity
  8
ASSI
100
AcDbLine
 62
7
  6
CONTINUOUS
 10
-31.0541945262
 20
108.2184167281
 11
-20.1015265253
 21
113.6947506989
  0
LINE
  5
378
100
AcDbEntity
  8
0
100
AcDbLine
 62
7
  6
CONTINUOUS
 10
-29.3623902095
 20
109.0123508739
 11
-31.0048775151
 21
108.1911072211
  0
LINE
  5
379
100
AcDbEntity
  8
0
100
AcDbLine
 62
250
  6
CONTINUOUS
 10
-45.5022136736
 20
102.3619803961
 11
-45.1548315804
 21
102.5342844753
  0
LINE
  5
37A
100
AcDbEntity
  8
0
100
AcDbLine
 62
250
  6
CONTINUOUS
 10
-44.7952145882
 20
101.1425873495
 11
-44.447832495
 21
101.3148914287
  0
LINE
  5
37B
100
AcDbEntity
  8
DRAFT
100
AcDbLine
 62
7
  6
CONTINUOUS
 10
-37.4869581703
 20
106.6395910342
 11
-33.8131480966
 21
108.4260805181
  0
LWPOLYLINE
  5
37C
100
AcDbEntity
  8
RACCORDO
100
AcDbPolyline
 62
250
  6
CONTINUOUS
 90
12
 70
0
 10
-42.1851795005
 20
105.7479616051
 10
-38.2857247648
 20
107.6385842667
 10
-38.2584803429
 20
107.6510071426
 10
-38.2334277518
 20
107.6616399494
 10
-38.2107534461
 20
107.6704035521
 10
-38.1906261797
 20
107.6772327275
 10
-38.1731957503
 20
107.6820766492
 10
-38.1585918844
 20
107.6848992663
 10
-38.1469232714
 20
107.6856795714
 10
-38.1382767554
 20
107.6844117569
 10
-38.1327166882
 20
107.6811052588
 10
-38.131717344
 20
107.679814241
  0
LINE
  5
37D
100
AcDbEntity
  8
0
100
AcDbLine
 62
7
  6
CONTINUOUS
 10
-43.115437946
 20
102.0850624354
 11
-42.755713258
 21
102.258753482
  0
LWPOLYLINE
  5
37E
100
AcDbEntity
  8
ASSI
100
AcDbPolyline
 62
7
  6
CONTINUOUS
 90
12
 70
0
 10
-26.8582104757
 20
109.1128379037
 10
-26.8254443258
 20
109.1282351431
 10
-26.752226793
 20
109.1559355816
 10
-26.6756963626
 20
109.1759071616
 10
-26.5958949353
 20
109.1882476361
 10
-26.5138404062
 20
109.1927995982
 10
-26.4295039136
 20
109.1894632783
 10
-26.3429143192
 20
109.1783384459
 10
-26.2551761034
 20
109.1595670022
 10
-26.1666574265
 20
109.1331962474
 10
-26.0769901282
 20
109.0991788812
 10
-25.9861742086
 20
109.0575149036
  0
LWPOLYLINE
  5
37F
100
AcDbEntity
  8
RACCORDO
100
AcDbPolyline
 62
7
  6
CONTINUOUS
 90
58
 70
0
 10
-33.8131480966
 20
108.4260805181
 10
-33.6351691395
 20
108.5037420077
 10
-33.4495239095
 20
108.5671674601
 10
-33.2567383327
 20
108.6158646111
 10
-33.0573069876
 20
108.6494060458
 10
-32.8518681011
 20
108.667398229
 10
-32.6411743192
 20
108.6695283679
 10
-32.4254908543
 20
108.6555377566
 10
-32.2056988368
 20
108.6252293156
 10
-31.9834760666
 20
108.578730173
 10
-31.7598569716
 20
108.5163085696
 10
-31.5349798211
 20
108.4380438589
 10
-31.3091896697
 20
108.3440155993
 10
-31.0826159672
 20
108.2341552234
 10
-30.8562995416
 20
108.1088315291
 10
-30.6319702723
 20
107.9690165117
 10
-30.4105498041
 20
107.8154390514
 10
-30.1922691575
 20
107.6484007966
 10
-29.9778263017
 20
107.4685420734
 10
-29.7677654187
 20
107.2764253458
 10
-29.5626678376
 20
107.0726776589
 10
-29.3632860571
 20
106.8581596205
 10
-29.1702596767
 20
106.6337047463
 10
-28.9839717188
 20
106.3998963091
 10
-28.8047853219
 20
106.1572854556
 10
-28.6331437097
 20
105.9065326123
 10
-28.4695692122
 20
105.6484527136
 10
-28.3145377294
 20
105.3838525339
 10
-28.1685070326
 20
105.1135720686
 10
-28.031850496
 20
104.838352613
 10
-27.904896081
 20
104.5588721649
 10
-27.7879907126
 20
104.2758734588
 10
-27.6815137797
 20
103.9902371601
 10
-27.5858096779
 20
103.7028499737
 10
-27.501194365
 20
103.4146280043
 10
-27.4279004204
 20
103.1263043917
 10
-27.366122724
 20
102.838477814
 10
-27.3160696099
 20
102.551767454
 10
-27.2780033075
 20
102.2671960567
 10
-27.2521376973
 20
101.9859261336
 10
-27.2385927339
 20
101.7088163313
 10
-27.2374536551
 20
101.4365697454
 10
-27.2487838317
 20
101.1700399271
 10
-27.2726645417
 20
100.9095579494
 10
-27.3091000583
 20
100.6562729691
 10
-27.3578095931
 20
100.4120829909
 10
-27.4184345429
 20
100.1780531546
 10
-27.4908389429
 20
99.9541697797
 10
-27.5749299404
 20
99.7405805324
 10
-27.6707027905
 20
99.5374312956
 10
-27.7777615169
 20
99.3457033203
 10
-27.8952936251
 20
99.1666921801
 10
-28.0226488356
 20
99.001003051
 10
-28.1594976875
 20
98.8487146266
 10
-28.3052753873
 20
98.7101761555
 10
-28.4593725044
 20
98.5856901992
 10
-28.6211658247
 20
98.4754888217
 10
-28.7899883838
 20
98.3797610924
  0
LWPOLYLINE
  5
380
100
AcDbEntity
  8
RACCORDO
100
AcDbPolyline
 62
250
  6
CONTINUOUS
 90
13
 70
0
 10
-48.4169759319
 20
99.4605849365
 10
-48.4663401703
 20
99.4422990951
 10
-48.520582368
 20
99.4273163107
 10
-48.578805037
 20
99.4158844877
 10
-48.6400448282
 20
99.4081927762
 10
-48.7032884717
 20
99.4043684429
 10
-48.7674895418
 20
99.4044747649
 10
-48.8315857714
 20
99.4085099832
 10
-48.8945166279
 20
99.4164073312
 10
-48.9552408612
 20
99.4280361397
 10
-49.0127537316
 20
99.4432039994
 10
-49.0661036344
 20
99.4616599435
 10
-49.1144078454
 20
99.4830986013
  0
LINE
  5
381
100
AcDbEntity
  8
0
100
AcDbLine
 62
7
  6
CONTINUOUS
 10
-45.8112612995
 20
100.5030958358
 11
-46.1740728115
 21
100.3688319038
  0
LWPOLYLINE
  5
382
100
AcDbEntity
  8
RACCORDO
100
AcDbPolyline
 62
7
  6
CONTINUOUS
 90
25
 70
0
 10
-35.201844348
 20
94.1202958583
 10
-35.1803598911
 20
94.1225953831
 10
-35.1594890415
 20
94.1245414741
 10
-35.1392317994
 20
94.1261341311
 10
-35.1195949599
 20
94.1273792309
 10
-35.1005717277
 20
94.1282708968
 10
-35.0821417173
 20
94.1287914993
 10
-35.0642982396
 20
94.128946251
 10
-35.0470479835
 20
94.1287299394
 10
-35.0303906305
 20
94.1281092974
 10
-35.0143263319
 20
94.1270938508
 10
-34.9988549364
 20
94.1256740737
 10
-34.9839756704
 20
94.1237881219
 10
-34.9697084345
 20
94.1214712129
 10
-34.9560333281
 20
94.1186881293
 10
-34.9428898763
 20
94.1152713743
 10
-34.9301393057
 20
94.1112079337
 10
-34.9179203898
 20
94.1065108217
 10
-34.906588974
 20
94.1010515851
 10
-34.8961682945
 20
94.0948460192
 10
-34.8866351151
 20
94.0878783286
 10
-34.8782755731
 20
94.079972674
 10
-34.8711850475
 20
94.0710704422
 10
-34.8652681592
 20
94.0612302464
 10
-34.8641161159
 20
94.0586124412
  0
LINE
  5
383
100
AcDbEntity
  8
0
100
AcDbLine
 62
250
  6
CONTINUOUS
 10
-44.8918437674
 20
92.4066052869
 11
-45.2480927388
 21
92.4104132324
  0
LWPOLYLINE
  5
384
100
AcDbEntity
  8
0
100
AcDbPolyline
 62
250
  6
CONTINUOUS
 90
7
 70
0
 10
-45.2480927388
 20
92.4104132324
 10
-45.2955902418
 20
92.4118361008
 10
-45.342379166
 20
92.4154471788
 10
-45.3880527449
 20
92.4211767256
 10
-45.4322263899
 20
92.4289372821
 10
-45.4745404817
 20
92.4386252166
 10
-45.5146627711
 20
92.4501223578
  0
LWPOLYLINE
  5
385
100
AcDbEntity
  8
0
100
AcDbPolyline
 62
7
  6
CONTINUOUS
 90
7
 70
0
 10
-45.4480638034
 20
92.3379515239
 10
-45.4164652817
 20
92.3298474911
 10
-45.3768936501
 20
92.321860868
 10
-45.3367739321
 20
92.3160011544
 10
-45.2965398959
 20
92.3122459041
 10
-45.2565185415
 20
92.3105269503
 10
-44.8939814454
 20
92.3066167114
  0
LWPOLYLINE
  5
386
100
AcDbEntity
  8
0
100
AcDbPolyline
 62
7
  6
CONTINUOUS
 90
11
 70
0
 10
-45.4480549812
 20
92.3379724812
 10
-45.4558163337
 20
92.3405764292
 10
-45.46755205
 20
92.3463871986
 10
-45.4782334775
 20
92.354121169
 10
-45.4876216035
 20
92.3635085359
 10
-45.4956978416
 20
92.3746035655
 10
-45.5024807781
 20
92.3873519916
 10
-45.5077871598
 20
92.4013212107
 10
-45.5115559022
 20
92.4163670218
 10
-45.5138480898
 20
92.432633626
 10
-45.5146637225
 20
92.4501210233
  0
LWPOLYLINE
  5
387
100
AcDbEntity
  8
0
100
AcDbPolyline
 62
7
  6
CONTINUOUS
 90
10
 70
0
 10
-62.7147803468
 20
113.0505043411
 10
-62.770476905
 20
113.131127313
 10
-62.8263248011
 20
113.2115812252
 10
-62.8823240353
 20
113.2918660777
 10
-62.9384750233
 20
113.3719824644
 10
-62.9947773494
 20
113.4519297914
 10
-63.051229766
 20
113.5317062769
 10
-63.1078318574
 20
113.6113113272
 10
-63.1645840395
 20
113.690745536
 10
-63.2214863121
 20
113.7700089035
  0
LWPOLYLINE
  5
388
100
AcDbEntity
  8
RACCORDO
100
AcDbPolyline
 62
250
  6
CONTINUOUS
 90
16
 70
0
 10
-57.3856315559
 20
112.3784797422
 10
-57.3872396341
 20
112.3842857175
 10
-57.3881795491
 20
112.3901217392
 10
-57.3884354241
 20
112.3959699861
 10
-57.3880000361
 20
112.4018198172
 10
-57.3868460052
 20
112.4076457563
 10
-57.3849275242
 20
112.4134170304
 10
-57.3822177894
 20
112.4191232062
 10
-57.3787100742
 20
112.4247641103
 10
-57.3743900558
 20
112.4303341007
 10
-57.3692362646
 20
112.435831007
 10
-57.3632362104
 20
112.4412504849
 10
-57.3563885482
 20
112.4465837485
 10
-57.3486780944
 20
112.4518273178
 10
-57.3400857952
 20
112.4569828655
 10
-57.3363284852
 20
112.4590581478
  0
LWPOLYLINE
  5
389
100
AcDbEntity
  8
RACCORDO
100
AcDbPolyline
 62
250
  6
CONTINUOUS
 90
13
 70
0
 10
-47.7299422455
 20
100.6158140245
 10
-47.7353558359
 20
100.6725791673
 10
-47.7465552828
 20
100.7314724935
 10
-47.7633494538
 20
100.7914881897
 10
-47.785451653
 20
100.8516012337
 10
-47.8124845084
 20
100.9107848889
 10
-47.8439864089
 20
100.9680282425
 10
-47.8794194304
 20
101.0223535448
 10
-47.9181784122
 20
101.0728327359
 10
-47.9596012512
 20
101.1186033344
 10
-48.0029803843
 20
101.1588834039
 10
-48.0475749041
 20
101.1929848667
 10
-48.0926230808
 20
101.2203251168
  0
LWPOLYLINE
  5
38A
100
AcDbEntity
  8
RACCORDO
100
AcDbPolyline
 62
7
  6
CONTINUOUS
 90
13
 70
0
 10
-50.3106474814
 20
113.6384475735
 10
-50.3120258414
 20
113.6623521087
 10
-50.3156136884
 20
113.6862391833
 10
-50.3214110225
 20
113.7101087973
 10
-50.3295905791
 20
113.7343637155
 10
-50.3399796228
 20
113.758601173
 10
-50.3520599467
 20
113.7816128757
 10
-50.365917151
 20
113.8033367796
 10
-50.3814656356
 20
113.8238349287
 10
-50.3979303934
 20
113.8420851598
 10
-50.4150530886
 20
113.857746752
 10
-50.433092057
 20
113.8711604264
 10
-50.4520472985
 20
113.8823261828
  0
LWPOLYLINE
  5
38B
100
AcDbEntity
  8
RACCORDO
100
AcDbPolyline
 62
250
  6
CONTINUOUS
 90
13
 70
0
 10
-49.4298105566
 20
114.0753491818
 10
-49.4307245137
 20
114.0987070497
 10
-49.4340835063
 20
114.1228535323
 10
-49.4398300834
 20
114.1473756365
 10
-49.4478659575
 20
114.1718539448
 10
-49.4580536857
 20
114.1958697886
 10
-49.4702190208
 20
114.2190124095
 10
-49.4841538912
 20
114.2408859841
 10
-49.4996199595
 20
114.2611163943
 10
-49.5163526996
 20
114.2793576263
 10
-49.5340659205
 20
114.2952976884
 10
-49.5524566615
 20
114.3086639473
 10
-49.5712103737
 20
114.3192277912
  0
LWPOLYLINE
  5
38C
100
AcDbEntity
  8
DRAFT
100
AcDbPolyline
 62
7
  6
CONTINUOUS
 90
15
 70
0
 10
-47.4017159006
 20
116.8939423858
 10
-47.4024686064
 20
116.9217536457
 10
-47.4046448576
 20
116.9484788084
 10
-47.4082446541
 20
116.974117874
 10
-47.4132949509
 20
116.9987688676
 10
-47.4197687931
 20
117.0223337641
 10
-47.4275853158
 20
117.0445184882
 10
-47.4367613525
 20
117.0653057047
 10
-47.4472800696
 20
117.0847127489
 10
-47.459010102
 20
117.1024975509
 10
-47.4719666252
 20
117.118639756
 10
-47.4861344636
 20
117.1331597189
 10
-47.5013367252
 20
117.1458764337
 10
-47.517586329
 20
117.1567672874
 10
-47.5294013287
 20
117.1632307369
  0
LINE
  5
38D
100
AcDbEntity
  8
0
100
AcDbLine
 62
7
  6
CONTINUOUS
 10
-49.3974996654
 20
111.7175495207
 11
-49.3974996654
 21
111.6742482505
  0
LINE
  5
38E
100
AcDbEntity
  8
DRAFT
100
AcDbLine
 62
7
  6
CONTINUOUS
 10
-48.6176518729
 20
105.0648693501
 11
-48.6176518729
 21
106.1735618744
  0
LINE
  5
38F
100
AcDbEntity
  8
DRAFT
100
AcDbLine
 62
7
  6
CONTINUOUS
 10
-48.4438621803
 20
116.4194223914
 11
-48.4438621803
 21
116.2814236502
  0
LINE
  5
390
100
AcDbEntity
  8
DRAFT
100
AcDbLine
 62
7
  6
CONTINUOUS
 10
-47.4017159006
 20
116.8939423858
 11
-47.4017159006
 21
116.5985560638
  0
LWPOLYLINE
  5
391
100
AcDbEntity
  8
RACCORDO
100
AcDbPolyline
 62
250
  6
CONTINUOUS
 90
10
 70
0
 10
-49.114407854
 20
99.4830985468
 10
-49.2355132187
 20
95.4721994655
 10
-49.3263508584
 20
91.4745069413
 10
-49.386913387
 20
87.4903547551
 10
-49.4171958806
 20
83.5200756087
 10
-49.4171958805
 20
79.5640008458
 10
-49.3869133867
 20
75.6224604279
 10
-49.326350858
 20
71.6957832401
 10
-49.2355132184
 20
67.7842970604
 10
-49.1144078538
 20
63.8883282833
  0
LWPOLYLINE
  5
392
100
AcDbEntity
  8
RACCORDO
100
AcDbPolyline
 62
250
  6
CONTINUOUS
 90
10
 70
0
 10
-48.4169759319
 20
99.4605849365
 10
-48.5379713475
 20
95.4531580726
 10
-48.6287179233
 20
91.4595831976
 10
-48.6892156592
 20
87.4798603114
 10
-48.719464574
 20
83.5136562811
 10
-48.7194646491
 20
79.5613042396
 10
-48.689215828
 20
75.6238035857
 10
-48.628718092
 20
71.7014874525
 10
-48.53797146
 20
67.794022707
 10
-48.4169759319
 20
63.9014093492
  0
LWPOLYLINE
  5
393
100
AcDbEntity
  8
DRAFT
100
AcDbPolyline
 62
7
  6
CONTINUOUS
 90
25
 70
0
 10
-46.8412799043
 20
107.0422954516
 10
-46.8450086852
 20
107.0043516095
 10
-46.8457134522
 20
106.9644694426
 10
-46.8433484775
 20
106.9229725883
 10
-46.8378690434
 20
106.8800479926
 10
-46.8292870908
 20
106.8362142179
 10
-46.8177827148
 20
106.7923379429
 10
-46.8036358935
 20
106.7491420403
 10
-46.7869463752
 20
106.7066571363
 10
-46.7676591649
 20
106.6647275933
 10
-46.7457674987
 20
106.623493426
 10
-46.7215309851
 20
106.5835824476
 10
-46.6952726438
 20
106.5455675875
 10
-46.6672240453
 20
106.5097840961
 10
-46.6376325479
 20
106.4765475451
 10
-46.6069240185
 20
106.446302676
 10
-46.5755691947
 20
106.4194141518
 10
-46.5436758528
 20
106.3958792247
 10
-46.5111268905
 20
106.3756196671
 10
-46.4779415105
 20
106.3587664971
 10
-46.4446625446
 20
106.3457149678
 10
-46.4119475327
 20
106.3367366729
 10
-46.3801940404
 20
106.3318695335
 10
-46.349547511
 20
106.3310634804
 10
-46.3202583637
 20
106.3342730342
  0
LWPOLYLINE
  5
394
100
AcDbEntity
  8
RACCORDO
100
AcDbPolyline
 62
250
  6
CONTINUOUS
 90
9
 70
0
 10
-35.5018863953
 20
102.2305913418
 10
-35.4679091391
 20
102.2501115861
 10
-35.4381496198
 20
102.2712833869
 10
-35.4129266838
 20
102.2938798964
 10
-35.3925105676
 20
102.3176590055
 10
-35.3771200092
 20
102.3423659305
 10
-35.3669198995
 20
102.3677359416
 10
-35.3620195093
 20
102.3934972126
 10
-35.361556571
 20
102.4039934606
  0
LINE
  5
395
100
AcDbEntity
  8
RACCORDO
100
AcDbLine
 62
250
  6
CONTINUOUS
 10
-35.6494293923
 20
102.8337822278
 11
-42.1082088197
 21
99.5352310762
  0
LINE
  5
396
100
AcDbEntity
  8
RACCORDO
100
AcDbLine
 62
250
  6
CONTINUOUS
 10
-35.5018863953
 20
102.2305913418
 11
-42.1082088197
 21
98.8590446396
  0
LINE
  5
397
100
AcDbEntity
  8
0
100
AcDbLine
 62
250
  6
CONTINUOUS
 10
-43.8533253342
 20
99.4154197281
 11
-44.447832495
 21
99.1140717216
  0
LINE
  5
398
100
AcDbEntity
  8
0
100
AcDbLine
 62
250
  6
CONTINUOUS
 10
-45.0937652654
 20
97.0788061088
 11
-44.6499679111
 21
97.3026216046
  0
LINE
  5
399
100
AcDbEntity
  8
0
100
AcDbLine
 62
250
  6
CONTINUOUS
 10
-44.9524180057
 20
96.8396750781
 11
-44.5086206514
 21
97.063490574
  0
LINE
  5
39A
100
AcDbEntity
  8
0
100
AcDbLine
 62
7
  6
CONTINUOUS
 10
-45.3659413229
 20
97.0876810613
 11
-44.7952145882
 21
97.3752449432
  0
LWPOLYLINE
  5
39B
100
AcDbEntity
  8
RACCORDO
100
AcDbPolyline
 62
250
  6
CONTINUOUS
 90
10
 70
0
 10
-35.6494293924
 20
102.8337822278
 10
-35.6149240354
 20
102.8511424606
 10
-35.5838515853
 20
102.8669459989
 10
-35.5565449619
 20
102.8810235186
 10
-35.5332967362
 20
102.893224189
 10
-35.514355997
 20
102.9034172884
 10
-35.4999256811
 20
102.9114936048
 10
-35.4901603989
 20
102.9173666064
 10
-35.485164778
 20
102.9209733684
 10
-35.4844946499
 20
102.922067649
  0
LINE
  5
39C
100
AcDbEntity
  8
ASSI
100
AcDbLine
 62
7
  6
CONTINUOUS
 10
-27.4037738184
 20
108.8401318394
 11
-26.8582407198
 21
109.1128983887
  0
LINE
  5
39D
100
AcDbEntity
  8
ASSI
100
AcDbLine
 62
250
  6
CONTINUOUS
 10
-26.9761237023
 20
108.5625401568
 11
-25.9861742086
 21
109.0575149036
  0
LINE
  5
39E
100
AcDbEntity
  8
ASSI
100
AcDbLine
 62
7
  6
CONTINUOUS
 10
-25.4450182016
 20
108.7869369001
 11
-18.6337641862
 21
112.1925638894
  0
LINE
  5
39F
100
AcDbEntity
  8
ASSI
100
AcDbLine
 62
7
  6
CONTINUOUS
 10
-25.41545866
 20
108.7721571293
 11
-18.6143612184
 21
112.1727058501
  0
LINE
  5
3A0
100
AcDbEntity
  8
ASSI
100
AcDbLine
 62
250
  6
CONTINUOUS
 10
-25.3935794418
 20
106.7375171966
 11
-25.2083567493
 21
106.8301285429
  0
LINE
  5
3A1
100
AcDbEntity
  8
ASSI
100
AcDbLine
 62
250
  6
CONTINUOUS
 10
-24.3598286119
 20
107.2543926116
 11
-23.3698791182
 21
107.7493673584
  0
LINE
  5
3A2
100
AcDbEntity
  8
ASSI
100
AcDbLine
 62
7
  6
CONTINUOUS
 10
-23.1934606319
 20
107.6470881658
 11
-17.1465988803
 21
110.6705190416
  0
LINE
  5
3A3
100
AcDbEntity
  8
DRAFT
100
AcDbLine
 62
7
  6
CONTINUOUS
 10
-44.2648845023
 20
100.7028115222
 11
-44.447832495
 21
100.6132929082
  0
LWPOLYLINE
  5
3A4
100
AcDbEntity
  8
ASSI
100
AcDbPolyline
 62
7
  6
CONTINUOUS
 90
6
 70
0
 10
-23.6531285161
 20
103.7464935074
 10
-23.6426015481
 20
103.7499421823
 10
-23.6342158752
 20
103.7524123158
 10
-23.628007162
 20
103.7539724701
 10
-23.6240159869
 20
103.7546949735
 10
-23.6223074231
 20
103.7546821537
  0
LWPOLYLINE
  5
3A5
100
AcDbEntity
  8
DRAFT
100
AcDbPolyline
 62
7
  6
CONTINUOUS
 90
3
 70
0
 10
-69.5745430728
 20
117.9614153888
 10
-69.5452539255
 20
117.9289166877
 10
-69.5180301613
 20
117.9024089523
  0
LINE
  5
3A6
100
AcDbEntity
  8
DRAFT
100
AcDbLine
 62
7
  6
CONTINUOUS
 10
-63.0927782241
 20
115.4452519285
 11
-63.0164643868
 21
115.3462426513
  0
LINE
  5
3A7
100
AcDbEntity
  8
DRAFT
100
AcDbLine
 62
7
  6
CONTINUOUS
 10
-64.0878367686
 20
114.9316685656
 11
-64.0145670133
 21
114.8365871228
  0
LWPOLYLINE
  5
3A8
100
AcDbEntity
  8
RACCORDO
100
AcDbPolyline
 62
7
  6
CONTINUOUS
 90
7
 70
0
 10
-59.0920807966
 20
109.656458641
 10
-59.0945599245
 20
109.6596808912
 10
-59.0965988811
 20
109.6629383997
 10
-59.0982039854
 20
109.6662276148
 10
-59.0993802803
 20
109.6695457483
 10
-59.1001314998
 20
109.6728907616
 10
-59.1004600459
 20
109.676261355
  0
LINE
  5
3A9
100
AcDbEntity
  8
DRAFT
100
AcDbLine
 62
7
  6
CONTINUOUS
 10
-64.0145670133
 20
114.8365871228
 11
-63.9415094486
 21
114.7412161208
  0
LINE
  5
3AA
100
AcDbEntity
  8
DRAFT
100
AcDbLine
 62
7
  6
CONTINUOUS
 10
-63.0164643868
 20
115.3462426513
 11
-62.9403798796
 21
115.2469188031
  0
LINE
  5
3AB
100
AcDbEntity
  8
DRAFT
100
AcDbLine
 62
7
  6
CONTINUOUS
 10
-63.9415094486
 20
114.7412161208
 11
-63.8686646086
 21
114.6455562598
  0
LINE
  5
3AC
100
AcDbEntity
  8
DRAFT
100
AcDbLine
 62
7
  6
CONTINUOUS
 10
-62.9403798796
 20
115.2469188031
 11
-62.864526312
 21
115.1472824852
  0
LWPOLYLINE
  5
3AD
100
AcDbEntity
  8
DRAFT
100
AcDbPolyline
 62
7
  6
CONTINUOUS
 90
3
 70
0
 10
-63.8686646086
 20
114.6455562598
 10
-63.7960346298
 20
114.5496103414
 10
-63.7598000798
 20
114.5015299356
  0
LWPOLYLINE
  5
3AE
100
AcDbEntity
  8
DRAFT
100
AcDbPolyline
 62
7
  6
CONTINUOUS
 90
3
 70
0
 10
-62.864526312
 20
115.1472824852
 10
-62.7889052885
 20
115.0473358052
 10
-62.751182481
 20
114.9972467399
  0
LWPOLYLINE
  5
3AF
100
AcDbEntity
  8
0
100
AcDbPolyline
 62
7
  6
CONTINUOUS
 90
10
 70
0
 10
-62.2301609404
 20
114.2892243226
 10
-62.167523288
 20
114.2020153129
 10
-62.1050647383
 20
114.1145960015
 10
-62.0427862482
 20
114.0269677278
 10
-61.9806887718
 20
113.9391318343
 10
-61.9187732607
 20
113.8510896669
 10
-61.8570406634
 20
113.7628425744
 10
-61.7954919258
 20
113.6743919089
 10
-61.7341279908
 20
113.5857390256
 10
-61.6729497986
 20
113.4968852828
  0
LWPOLYLINE
  5
3B0
100
AcDbEntity
  8
RACCORDO
100
AcDbPolyline
 62
250
  6
CONTINUOUS
 90
10
 70
0
 10
-53.5780023251
 20
111.0773728953
 10
-53.5849943365
 20
111.0953427214
 10
-53.5926531634
 20
111.1134682912
 10
-53.6009569532
 20
111.1315350303
 10
-53.6094422934
 20
111.1495160949
 10
-53.6184587514
 20
111.1669555196
 10
-53.629168538
 20
111.1829687126
 10
-53.6418683966
 20
111.1970724911
 10
-53.6559871167
 20
111.2091925311
 10
-53.6713427661
 20
111.2190480371
  0
LWPOLYLINE
  5
3B1
100
AcDbEntity
  8
0
100
AcDbPolyline
 62
250
  6
CONTINUOUS
 90
13
 70
0
 10
-44.9524180057
 20
96.8396750781
 10
-44.9543634093
 20
96.8624585723
 10
-44.9585621275
 20
96.8859938715
 10
-44.9649514509
 20
96.9098953618
 10
-44.9734355824
 20
96.9337780221
 10
-44.9838781936
 20
96.9572379666
 10
-44.9960977351
 20
96.9798612805
 10
-45.0098854248
 20
97.001265391
 10
-45.0250174171
 20
97.0211063122
 10
-45.0412457118
 20
97.0390592652
 10
-45.0583030178
 20
97.0548279681
 10
-45.0759065547
 20
97.068150447
 10
-45.0937652654
 20
97.0788061088
  0
LWPOLYLINE
  5
3B2
100
AcDbEntity
  8
0
100
AcDbPolyline
 62
250
  6
CONTINUOUS
 90
13
 70
0
 10
-44.7529646507
 20
76.0477547444
 10
-44.7540162987
 20
76.0709068991
 10
-44.7574953465
 20
76.0950263873
 10
-44.7633485955
 20
76.1196908438
 10
-44.7714841597
 20
76.14447559
 10
-44.7817635476
 20
76.1689316696
 10
-44.7939957104
 20
76.192595883
 10
-44.8079568264
 20
76.2150389897
 10
-44.8234040793
 20
76.2358739456
 10
-44.840065745
 20
76.2547341399
 10
-44.8576475025
 20
76.2712854136
 10
-44.8758370514
 20
76.2852328205
 10
-44.8943119103
 20
76.296328375
  0
LINE
  5
3B3
100
AcDbEntity
  8
0
100
AcDbLine
 62
250
  6
CONTINUOUS
 10
-44.8918437674
 20
92.4066052869
 11
-45.0912971224
 21
96.8068614795
  0
LINE
  5
3B4
100
AcDbEntity
  8
0
100
AcDbLine
 62
250
  6
CONTINUOUS
 10
-44.7529646507
 20
92.4394188856
 11
-44.9524180057
 21
96.8396750781
  0
LWPOLYLINE
  5
3B5
100
AcDbEntity
  8
RACCORDO
100
AcDbPolyline
 62
7
  6
CONTINUOUS
 90
16
 70
0
 10
-43.7699097554
 20
108.5152882413
 10
-43.770742599
 20
108.5339546197
 10
-43.7730468771
 20
108.5528041875
 10
-43.7768225897
 20
108.5718369448
 10
-43.7821351358
 20
108.5912584591
 10
-43.7889191164
 20
108.6108631628
 10
-43.7969783345
 20
108.6300343537
 10
-43.806356442
 20
108.6487670751
 10
-43.8170097869
 20
108.6670662837
 10
-43.8286112157
 20
108.6843301475
 10
-43.8411984358
 20
108.700531115
 10
-43.8547337398
 20
108.7156967376
 10
-43.8687768522
 20
108.7293078378
 10
-43.8831810144
 20
108.7411913564
 10
-43.8980929851
 20
108.7515203526
 10
-43.9135127641
 20
108.7602948264
  0
LWPOLYLINE
  5
3B6
100
AcDbEntity
  8
0
100
AcDbPolyline
 62
250
  6
CONTINUOUS
 90
22
 70
0
 10
-45.5903757386
 20
100.7419409224
 10
-45.59261862
 20
100.8075125605
 10
-45.5987875506
 20
100.8746999967
 10
-45.608844698
 20
100.9431292021
 10
-45.6227285723
 20
101.0124200396
 10
-45.6403610962
 20
101.0821854514
 10
-45.661648128
 20
101.1520336242
 10
-45.686469872
 20
101.221574757
 10
-45.7146848913
 20
101.2904211705
 10
-45.7461376357
 20
101.3581865488
 10
-45.7806523757
 20
101.4244914969
 10
-45.8180347444
 20
101.4889666348
 10
-45.85807633
 20
101.5512525159
 10
-45.9005551438
 20
101.6110004631
 10
-45.9452331747
 20
101.6678762794
 10
-45.9918583018
 20
101.7215630572
 10
-46.0401723584
 20
101.7717591877
 10
-46.0899062514
 20
101.8181837462
 10
-46.1407779198
 20
101.8605796541
 10
-46.1925034924
 20
101.8987096525
 10
-46.2447988334
 20
101.9323577276
 10
-46.297374824
 20
101.961333969
  0
LWPOLYLINE
  5
3B7
100
AcDbEntity
  8
0
100
AcDbPolyline
 62
250
  6
CONTINUOUS
 90
13
 70
0
 10
-46.0109052841
 20
100.7437758753
 10
-46.0123128332
 20
100.7899335024
 10
-46.0164147196
 20
100.8367646638
 10
-46.0232109433
 20
100.8842693592
 10
-46.0327687886
 20
100.9327437449
 10
-46.0450209712
 20
100.9818916646
 10
-46.0597656382
 20
101.0308246505
 10
-46.0770435283
 20
101.0795153837
 10
-46.0968139027
 20
101.127991183
 10
-46.1187526921
 20
101.1754455362
 10
-46.1428986641
 20
101.2218644766
 10
-46.1692130512
 20
101.2672619709
 10
-46.1740728115
 20
101.274819844
  0
LINE
  5
3B8
100
AcDbEntity
  8
0
100
AcDbLine
 62
7
  6
CONTINUOUS
 10
-44.5086206514
 20
97.063490574
 11
-44.4102673515
 21
92.5975316048
  0
LINE
  5
3B9
100
AcDbEntity
  8
0
100
AcDbLine
 62
250
  6
CONTINUOUS
 10
-45.2498273078
 20
76.1711373125
 11
-45.2480927388
 21
76.0205758002
  0
LINE
  5
3BA
100
AcDbEntity
  8
0
100
AcDbLine
 62
250
  6
CONTINUOUS
 10
-45.2498273078
 20
96.9557470033
 11
-45.2480927388
 21
96.805185491
  0
LINE
  5
3BB
100
AcDbEntity
  8
0
100
AcDbLine
 62
250
  6
CONTINUOUS
 10
-45.093030734
 20
96.9573173469
 11
-45.0912971224
 21
96.8068614795
  0
LINE
  5
3BC
100
AcDbEntity
  8
0
100
AcDbLine
 62
250
  6
CONTINUOUS
 10
-44.8935777229
 20
76.1748775009
 11
-44.8918437674
 21
76.0243837457
  0
LINE
  5
3BD
100
AcDbEntity
  8
0
100
AcDbLine
 62
250
  6
CONTINUOUS
 10
-45.2504702672
 20
76.2605225938
 11
-45.2498273078
 21
76.1711373125
  0
LINE
  5
3BE
100
AcDbEntity
  8
0
100
AcDbLine
 62
250
  6
CONTINUOUS
 10
-45.2504702672
 20
97.0451322847
 11
-45.2498273078
 21
96.9557470033
  0
LINE
  5
3BF
100
AcDbEntity
  8
0
100
AcDbLine
 62
250
  6
CONTINUOUS
 10
-45.0936745094
 20
97.0467777872
 11
-45.093030734
 21
96.9573173469
  0
LINE
  5
3C0
100
AcDbEntity
  8
0
100
AcDbLine
 62
250
  6
CONTINUOUS
 10
-44.8942212142
 20
76.2643129389
 11
-44.8935777229
 21
76.1748775009
  0
LINE
  5
3C1
100
AcDbEntity
  8
0
100
AcDbLine
 62
250
  6
CONTINUOUS
 10
-45.2505608818
 20
76.2925204295
 11
-45.2504702672
 21
76.2605225938
  0
LINE
  5
3C2
100
AcDbEntity
  8
0
100
AcDbLine
 62
250
  6
CONTINUOUS
 10
-45.2505608818
 20
97.0771301203
 11
-45.2504702672
 21
97.0451322847
  0
LINE
  5
3C3
100
AcDbEntity
  8
0
100
AcDbLine
 62
250
  6
CONTINUOUS
 10
-45.0937652654
 20
97.0788061088
 11
-45.0936745094
 21
97.0467777872
  0
LINE
  5
3C4
100
AcDbEntity
  8
0
100
AcDbLine
 62
250
  6
CONTINUOUS
 10
-44.8943119103
 20
76.296328375
 11
-44.8942212142
 21
76.2643129389
  0
LINE
  5
3C5
100
AcDbEntity
  8
0
100
AcDbLine
 62
7
  6
CONTINUOUS
 10
-46.1740728115
 20
101.4513634549
 11
-46.1740728115
 21
100.3688319038
  0
LINE
  5
3C6
100
AcDbEntity
  8
0
100
AcDbLine
 62
7
  6
CONTINUOUS
 10
-46.1740728115
 20
64.0390664187
 11
-46.1740728115
 21
65.1215979697
  0
LINE
  5
3C7
100
AcDbEntity
  8
0
100
AcDbLine
 62
250
  6
CONTINUOUS
 10
-46.0109052841
 20
100.6029178281
 11
-46.0109052841
 21
100.7437758753
  0
LINE
  5
3C8
100
AcDbEntity
  8
0
100
AcDbLine
 62
7
  6
CONTINUOUS
 10
-45.8112612995
 20
100.5030958358
 11
-45.8112612995
 21
65.3316293069
  0
LINE
  5
3C9
100
AcDbEntity
  8
0
100
AcDbLine
 62
250
  6
CONTINUOUS
 10
-45.5903757386
 20
67.6929213552
 11
-45.5903757386
 21
100.7419409224
  0
LINE
  5
3CA
100
AcDbEntity
  8
0
100
AcDbLine
 62
7
  6
CONTINUOUS
 10
-45.5146637184
 20
96.8424652218
 11
-45.5146637225
 21
92.4501210233
  0
LINE
  5
3CB
100
AcDbEntity
  8
0
100
AcDbLine
 62
7
  6
CONTINUOUS
 10
-45.5146637184
 20
76.057855531
 11
-45.5146637225
 21
71.6655113324
  0
LINE
  5
3CC
100
AcDbEntity
  8
0
100
AcDbLine
 62
250
  6
CONTINUOUS
 10
-45.2480927388
 20
96.805185491
 11
-45.2480927388
 21
92.4104132324
  0
LINE
  5
3CD
100
AcDbEntity
  8
0
100
AcDbLine
 62
250
  6
CONTINUOUS
 10
-45.2480927388
 20
76.0205758002
 11
-45.2480927388
 21
71.6258035416
  0
LINE
  5
3CE
100
AcDbEntity
  8
0
100
AcDbLine
 62
7
  6
CONTINUOUS
 10
-44.7952145882
 20
71.6406636387
 11
-44.7952145882
 21
68.0601531252
  0
LINE
  5
3CF
100
AcDbEntity
  8
0
100
AcDbLine
 62
7
  6
CONTINUOUS
 10
-44.7952145882
 20
76.5906352524
 11
-44.7952145882
 21
92.3250037011
  0
LINE
  5
3D0
100
AcDbEntity
  8
0
100
AcDbLine
 62
7
  6
CONTINUOUS
 10
-44.7952145882
 20
97.3752449432
 11
-44.7952145882
 21
101.1425873495
  0
LINE
  5
3D1
100
AcDbEntity
  8
DRAFT
100
AcDbLine
 62
7
  6
CONTINUOUS
 10
-44.6184378929
 20
102.8365624088
 11
-44.6184378929
 21
101.9636758578
  0
LINE
  5
3D2
100
AcDbEntity
  8
DRAFT
100
AcDbLine
 62
7
  6
CONTINUOUS
 10
-44.6184378929
 20
67.7693946947
 11
-44.6184378929
 21
66.8965081518
  0
LINE
  5
3D3
100
AcDbEntity
  8
0
100
AcDbLine
 62
7
  6
CONTINUOUS
 10
-44.447832495
 20
68.247573734
 11
-44.447832495
 21
70.4483934411
  0
LINE
  5
3D4
100
AcDbEntity
  8
0
100
AcDbLine
 62
7
  6
CONTINUOUS
 10
-44.447832495
 20
99.1140717216
 11
-44.447832495
 21
101.3148914287
  0
LINE
  5
3D5
100
AcDbEntity
  8
DRAFT
100
AcDbLine
 62
7
  6
CONTINUOUS
 10
-44.2648845023
 20
102.6597857136
 11
-44.2648845023
 21
100.7028115222
  0
LINE
  5
3D6
100
AcDbEntity
  8
DRAFT
100
AcDbLine
 62
7
  6
CONTINUOUS
 10
-44.2648845023
 20
69.383812429
 11
-44.2648845023
 21
67.0732848471
  0
LINE
  5
3D7
100
AcDbEntity
  8
DRAFT
100
AcDbLine
 62
7
  6
CONTINUOUS
 10
-43.8533253342
 20
69.178032845
 11
-43.8533253342
 21
100.4970319382
  0
LINE
  5
3D8
100
AcDbEntity
  8
DRAFT
100
AcDbLine
 62
7
  6
CONTINUOUS
 10
-43.7699097554
 20
108.5152882413
 11
-43.7699097554
 21
107.8224679183
  0
LINE
  5
3D9
100
AcDbEntity
  8
0
100
AcDbLine
 62
7
  6
CONTINUOUS
 10
-43.115437946
 20
65.2128182112
 11
-43.115437946
 21
66.1450081784
  0
LINE
  5
3DA
100
AcDbEntity
  8
0
100
AcDbLine
 62
7
  6
CONTINUOUS
 10
-43.115437946
 20
102.0850624354
 11
-43.115437946
 21
103.0172524026
  0
LINE
  5
3DB
100
AcDbEntity
  8
0
100
AcDbLine
 62
7
  6
CONTINUOUS
 10
-42.755713258
 20
66.318699225
 11
-42.755713258
 21
102.258753482
  0
LINE
  5
3DC
100
AcDbEntity
  8
0
100
AcDbLine
 62
250
  6
CONTINUOUS
 10
-45.249030386
 20
92.3521205165
 11
-45.248092736
 21
92.4104132323
  0
LINE
  5
3DD
100
AcDbEntity
  8
0
100
AcDbLine
 62
250
  6
CONTINUOUS
 10
-44.8918437674
 20
92.4066052869
 11
-44.8927813165
 21
92.3483160211
  0
LINE
  5
3DE
100
AcDbEntity
  8
0
100
AcDbLine
 62
250
  6
CONTINUOUS
 10
-45.249030386
 20
71.5675108256
 11
-45.248092736
 21
71.6258035415
  0
LINE
  5
3DF
100
AcDbEntity
  8
0
100
AcDbLine
 62
250
  6
CONTINUOUS
 10
-45.0912971224
 20
71.6241275532
 11
-45.0922346715
 21
71.5658382873
  0
LINE
  5
3E0
100
AcDbEntity
  8
0
100
AcDbLine
 62
7
  6
CONTINUOUS
 10
-44.4102673515
 20
76.2202616333
 11
-44.5086206514
 21
71.852655964
  0
LWPOLYLINE
  5
3E1
100
AcDbEntity
  8
0
100
AcDbPolyline
 62
250
  6
CONTINUOUS
 90
5
 70
0
 10
-44.8927813165
 20
92.3483160211
 10
-44.8933363027
 20
92.322233357
 10
-44.8935783379
 20
92.3137524768
 10
-44.893791158
 20
92.3085197885
 10
-44.8939814454
 20
92.3066167114
  0
LWPOLYLINE
  5
3E2
100
AcDbEntity
  8
0
100
AcDbPolyline
 62
250
  6
CONTINUOUS
 90
5
 70
0
 10
-45.0922346715
 20
71.5658382873
 10
-45.0927896577
 20
71.5397556232
 10
-45.0930316929
 20
71.531274743
 10
-45.0932445131
 20
71.5260420547
 10
-45.0934348004
 20
71.5241389777
  0
LWPOLYLINE
  5
3E3
100
AcDbEntity
  8
DRAFT
100
AcDbPolyline
 62
7
  6
CONTINUOUS
 90
22
 70
0
 10
-44.0654560158
 20
108.4533911269
 10
-44.0666426559
 20
108.404567601
 10
-44.0639623293
 20
108.3547309312
 10
-44.0574150361
 20
108.3038811176
 10
-44.0468181521
 20
108.251384431
 10
-44.0323543014
 20
108.1978746004
 10
-44.0145713567
 20
108.1452528138
 10
-43.9935009032
 20
108.0938277221
 10
-43.9691113556
 20
108.0432906742
 10
-43.9418558311
 20
107.994616905
 10
-43.9114480647
 20
107.9475372566
 10
-43.8781743213
 20
107.9023208868
 10
-43.8433465129
 20
107.8607505043
 10
-43.8071591361
 20
107.8232100362
 10
-43.7694176944
 20
107.7893155555
 10
-43.7308506098
 20
107.7596979895
 10
-43.6912217979
 20
107.7343026253
 10
-43.6507673433
 20
107.7131841758
 10
-43.6109239212
 20
107.6971377075
 10
-43.5721704236
 20
107.6864282425
 10
-43.5340279585
 20
107.6807907586
 10
-43.4964965261
 20
107.6802252558
  0
LWPOLYLINE
  5
3E4
100
AcDbEntity
  8
0
100
AcDbPolyline
 62
7
  6
CONTINUOUS
 90
11
 70
0
 10
-44.447832495
 20
68.247573734
 10
-44.450692563
 20
68.1725893298
 10
-44.4587231546
 20
68.1018907245
 10
-44.4719242698
 20
68.0354779183
 10
-44.4904743242
 20
67.972913624
 10
-44.5141949021
 20
67.9146351287
 10
-44.5425507572
 20
67.8619542935
 10
-44.5756468083
 20
67.8149980786
 10
-44.6133781365
 20
67.7736395238
 10
-44.6548947384
 20
67.7388096096
 10
-44.6973481208
 20
67.7122161793
  0
LWPOLYLINE
  5
3E5
100
AcDbEntity
  8
0
100
AcDbPolyline
 62
7
  6
CONTINUOUS
 90
8
 70
0
 10
-44.4102673515
 20
92.5975316048
 10
-44.4111731849
 20
92.5743090654
 10
-44.414383738
 20
92.5533424158
 10
-44.4198990107
 20
92.5346316558
 10
-44.4278961053
 20
92.5179286662
 10
-44.4381979195
 20
92.5034815664
 10
-44.4502731465
 20
92.492034714
 10
-44.4643421322
 20
92.4836871061
  0
LWPOLYLINE
  5
3E6
100
AcDbEntity
  8
0
100
AcDbPolyline
 62
7
  6
CONTINUOUS
 90
16
 70
0
 10
-45.5146637184
 20
96.8424652218
 10
-45.5138480196
 20
96.8607404401
 10
-45.5115557842
 20
96.8792207267
 10
-45.5077870122
 20
96.8979060815
 10
-45.5024806249
 20
96.9169996924
 10
-45.495697701
 20
96.9362983716
 10
-45.4876214764
 20
96.9551925557
 10
-45.4782333605
 20
96.9736459296
 10
-45.4675519438
 20
96.9916948084
 10
-45.4558162338
 20
97.0088385742
 10
-45.4430243627
 20
97.0250589283
 10
-45.4291781983
 20
97.0403741695
 10
-45.4145223511
 20
97.0543385755
 10
-45.3991383579
 20
97.0668035725
 10
-45.3829446818
 20
97.0779177344
 10
-45.3659413229
 20
97.0876810613
  0
LWPOLYLINE
  5
3E7
100
AcDbEntity
  8
0
100
AcDbPolyline
 62
7
  6
CONTINUOUS
 90
16
 70
0
 10
-45.5146637184
 20
76.057855531
 10
-45.5138480196
 20
76.0761307496
 10
-45.5115557841
 20
76.0946110365
 10
-45.507787012
 20
76.1132963915
 10
-45.5024806247
 20
76.1323900023
 10
-45.4956977009
 20
76.1516886814
 10
-45.487621476
 20
76.1705828658
 10
-45.4782333591
 20
76.189036241
 10
-45.467551941
 20
76.2070851215
 10
-45.45581623
 20
76.2242288885
 10
-45.4430243583
 20
76.2404492427
 10
-45.4291781936
 20
76.2557644833
 10
-45.4145223467
 20
76.2697288886
 10
-45.3991383544
 20
76.2821938846
 10
-45.3829446798
 20
76.2933080452
 10
-45.3659413229
 20
76.3030713705
  0
LINE
  5
3E8
100
AcDbEntity
  8
0
100
AcDbLine
 62
250
  6
CONTINUOUS
 10
-45.0912971224
 20
71.6241275532
 11
-44.8918437674
 21
76.0243837457
  0
LINE
  5
3E9
100
AcDbEntity
  8
0
100
AcDbLine
 62
250
  6
CONTINUOUS
 10
-44.9524180057
 20
71.6474985519
 11
-44.7529646507
 21
76.0477547444
  0
LWPOLYLINE
  5
3EA
100
AcDbEntity
  8
RACCORDO
100
AcDbPolyline
 62
7
  6
CONTINUOUS
 90
10
 70
0
 10
-46.1740728115
 20
64.0390664187
 10
-46.1761886049
 20
63.9940013447
 10
-46.181958108
 20
63.9522338156
 10
-46.1913813208
 20
63.9137638312
 10
-46.2046416329
 20
63.878247563
 10
-46.2215556546
 20
63.8460288396
 10
-46.2415732168
 20
63.8181391467
 10
-46.2647936617
 20
63.7947195005
 10
-46.291117647
 20
63.7756288847
 10
-46.3164165836
 20
63.7627937947
  0
LWPOLYLINE
  5
3EB
100
AcDbEntity
  8
RACCORDO
100
AcDbPolyline
 62
250
  6
CONTINUOUS
 90
9
 70
0
 10
-47.7299422455
 20
63.3981508857
 10
-47.7353562021
 20
63.342132303
 10
-47.7465564009
 20
63.2901679817
 10
-47.7633515372
 20
63.2431454979
 10
-47.7854547417
 20
63.2018680184
 10
-47.812488481
 20
63.1670405827
 10
-47.843991006
 20
63.1392580601
 10
-47.8794242379
 20
63.11899499
 10
-47.883677703
 20
63.1171829934
  0
LWPOLYLINE
  5
3EC
100
AcDbEntity
  8
0
100
AcDbPolyline
 62
250
  6
CONTINUOUS
 90
5
 70
0
 10
-45.2502304584
 20
92.3104246574
 10
-45.2500402372
 20
92.3123266159
 10
-45.2498274295
 20
92.3175582299
 10
-45.2495853969
 20
92.3260382592
 10
-45.249030386
 20
92.3521205165
  0
LWPOLYLINE
  5
3ED
100
AcDbEntity
  8
0
100
AcDbPolyline
 62
250
  6
CONTINUOUS
 90
5
 70
0
 10
-45.2502304584
 20
71.5258149665
 10
-45.2500402372
 20
71.5277169251
 10
-45.2498274295
 20
71.5329485391
 10
-45.2495853969
 20
71.5414285684
 10
-45.249030386
 20
71.5675108256
  0
LWPOLYLINE
  5
3EE
100
AcDbEntity
  8
ASSI
100
AcDbPolyline
 62
7
  6
CONTINUOUS
 90
6
 70
0
 10
-24.200823879
 20
103.4649791626
 10
-24.1645855433
 20
103.4834347998
 10
-24.1288884308
 20
103.5021939453
 10
-24.0944088906
 20
103.5207591169
 10
-24.0612052987
 20
103.5389569744
 10
-23.9980722177
 20
103.5740216566
  0
LINE
  5
3EF
100
AcDbEntity
  8
ASSI
100
AcDbLine
 62
7
  6
CONTINUOUS
 10
-22.9007562577
 20
107.4132132401
 11
-16.8970165591
 21
110.4150830894
  0
LINE
  5
3F0
100
AcDbEntity
  8
ASSI
100
AcDbLine
 62
7
  6
CONTINUOUS
 10
-23.9980722177
 20
106.0020362586
 11
-23.6531285161
 21
106.1745081094
  0
LINE
  5
3F1
100
AcDbEntity
  8
ASSI
100
AcDbLine
 62
7
  6
CONTINUOUS
 10
-22.0062379452
 20
105.6244044188
 11
-15.7278912262
 21
108.7635777783
  0
LINE
  5
3F2
100
AcDbEntity
  8
ASSI
100
AcDbLine
 62
7
  6
CONTINUOUS
 10
-23.9980722177
 20
103.5740216566
 11
-23.6531285161
 21
103.7464935074
  0
LINE
  5
3F3
100
AcDbEntity
  8
ASSI
100
AcDbLine
 62
7
  6
CONTINUOUS
 10
-24.6133335308
 20
103.2587243367
 11
-24.2008233902
 21
103.464979407
  0
LINE
  5
3F4
100
AcDbEntity
  8
ASSI
100
AcDbLine
 62
7
  6
CONTINUOUS
 10
-23.6232289485
 20
103.7537766278
 11
-22.497812607
 21
104.3164847986
  0
LWPOLYLINE
  5
3F5
100
AcDbEntity
  8
ASSI
100
AcDbPolyline
 62
7
  6
CONTINUOUS
 90
5
 70
0
 10
-23.6232291799
 20
103.7537765121
 10
-23.6257568363
 20
103.7527224496
 10
-23.6310499124
 20
103.7509940599
 10
-23.638624417
 20
103.7489475729
 10
-23.6485682852
 20
103.7466458338
  0
LWPOLYLINE
  5
3F6
100
AcDbEntity
  8
ASSI
100
AcDbPolyline
 62
7
  6
CONTINUOUS
 90
10
 70
0
 10
-23.6485682852
 20
103.7466458338
 10
-23.6608578063
 20
103.7442082504
 10
-23.6752133357
 20
103.741826316
 10
-23.6916554036
 20
103.739560784
 10
-23.710196326
 20
103.7374940017
 10
-23.7305230926
 20
103.7358075384
 10
-23.7527385961
 20
103.734546212
 10
-23.7767532964
 20
103.7337901471
 10
-23.8019391246
 20
103.7337073356
 10
-23.8281914802
 20
103.7342985669
  0
LWPOLYLINE
  5
3F7
100
AcDbEntity
  8
0
100
AcDbPolyline
 62
250
  6
CONTINUOUS
 90
10
 70
0
 10
-45.0912971224
 20
96.8068614795
 10
-45.0742571309
 20
96.8078049408
 10
-45.0573412499
 20
96.8094698786
 10
-45.0406726858
 20
96.8118441662
 10
-45.0243728438
 20
96.8149105106
 10
-45.0085604435
 20
96.8186465781
 10
-44.9933506542
 20
96.8230251572
 10
-44.9788542562
 20
96.8280143565
 10
-44.9651768336
 20
96.8335778373
 10
-44.9524180057
 20
96.8396750781
  0
LINE
  5
3F8
100
AcDbEntity
  8
0
100
AcDbLine
 62
250
  6
CONTINUOUS
 10
-45.2480927388
 20
96.805185491
 11
-45.0912971224
 21
96.8068614795
  0
LINE
  5
3F9
100
AcDbEntity
  8
0
100
AcDbLine
 62
250
  6
CONTINUOUS
 10
-45.2505608818
 20
97.0771301203
 11
-45.0937652654
 21
97.0788061088
  0
LWPOLYLINE
  5
3FA
100
AcDbEntity
  8
0
100
AcDbPolyline
 62
250
  6
CONTINUOUS
 90
7
 70
0
 10
-45.3659413229
 20
97.0876810613
 10
-45.3476540701
 20
97.0843229519
 10
-45.328989689
 20
97.0816046902
 10
-45.3099481796
 20
97.0795262762
 10
-45.2905295419
 20
97.0780877098
 10
-45.270733776
 20
97.0772889912
 10
-45.2505608818
 20
97.0771301203
  0
LWPOLYLINE
  5
3FB
100
AcDbEntity
  8
ASSI
100
AcDbPolyline
 62
7
  6
CONTINUOUS
 90
5
 70
0
 10
-23.9980722177
 20
92.145629798
 10
-24.039717284
 20
92.1558268245
 10
-24.081026887
 20
92.1690175832
 10
-24.1220559807
 20
92.1851470986
 10
-24.1589719006
 20
92.2024114989
  0
LWPOLYLINE
  5
3FC
100
AcDbEntity
  8
0
100
AcDbPolyline
 62
250
  6
CONTINUOUS
 90
7
 70
0
 10
-45.5146627512
 20
96.8424628634
 10
-45.474321387
 20
96.8311371527
 10
-45.4318608391
 20
96.8217308561
 10
-45.3876281131
 20
96.814350451
 10
-45.3419930749
 20
96.8090866608
 10
-45.2953456514
 20
96.8060131753
 10
-45.2480927388
 20
96.805185491
  0
LINE
  5
3FD
100
AcDbEntity
  8
RACCORDO
100
AcDbLine
 62
250
  6
CONTINUOUS
 10
-79.6179062546
 20
114.7348477471
 11
-49.114407854
 21
99.4830985468
  0
LINE
  5
3FE
100
AcDbEntity
  8
0
100
AcDbLine
 62
7
  6
CONTINUOUS
 10
-44.6499679111
 20
97.3026216046
 11
-44.7952145882
 21
97.3752449432
  0
LINE
  5
3FF
100
AcDbEntity
  8
RACCORDO
100
AcDbLine
 62
250
  6
CONTINUOUS
 10
-78.6311845507
 20
116.4896058441
 11
-48.0926230882
 21
101.2203251129
  0
LWPOLYLINE
  5
400
100
AcDbEntity
  8
0
100
AcDbPolyline
 62
7
  6
CONTINUOUS
 90
13
 70
0
 10
-44.6499679111
 20
97.3026216046
 10
-44.6313557789
 20
97.2916921164
 10
-44.6136141793
 20
97.2785764674
 10
-44.5967431124
 20
97.2632746577
 10
-44.5804956287
 20
97.2454654303
 10
-44.5651186777
 20
97.2254700423
 10
-44.5513531076
 20
97.2042522642
 10
-44.5392777097
 20
97.1817523299
 10
-44.5288136926
 20
97.1580300057
 10
-44.5204655308
 20
97.134228361
 10
-44.5144013824
 20
97.1107284191
 10
-44.5104530892
 20
97.0871491567
 10
-44.5086206514
 20
97.063490574
  0
LWPOLYLINE
  5
401
100
AcDbEntity
  8
DRAFT
100
AcDbPolyline
 62
7
  6
CONTINUOUS
 90
3
 70
0
 10
-66.7414506609
 20
119.3027023232
 10
-66.7039192285
 20
119.2657363935
 10
-66.6967954485
 20
119.2596655134
  0
LINE
  5
402
100
AcDbEntity
  8
DRAFT
100
AcDbLine
 62
7
  6
CONTINUOUS
 10
-60.2789548295
 20
116.8063012374
 11
-60.2111694114
 21
116.7182990777
  0
LINE
  5
403
100
AcDbEntity
  8
DRAFT
100
AcDbLine
 62
7
  6
CONTINUOUS
 10
-60.2111694114
 20
116.7182990777
 11
-60.1435659879
 21
116.6300485911
  0
LINE
  5
404
100
AcDbEntity
  8
DRAFT
100
AcDbLine
 62
7
  6
CONTINUOUS
 10
-60.1435659879
 20
116.6300485911
 11
-60.0761449838
 21
116.5415503343
  0
LWPOLYLINE
  5
405
100
AcDbEntity
  8
DRAFT
100
AcDbPolyline
 62
7
  6
CONTINUOUS
 90
3
 70
0
 10
-60.0761449838
 20
116.5415503343
 10
-60.0089080976
 20
116.4528065336
 10
-59.9753585925
 20
116.4083424152
  0
LWPOLYLINE
  5
406
100
AcDbEntity
  8
0
100
AcDbPolyline
 62
7
  6
CONTINUOUS
 90
10
 70
0
 10
-59.4063991028
 20
115.6351765441
 10
-59.3262927582
 20
115.5233335597
 10
-59.246486167
 20
115.4111521122
 10
-59.166979329
 20
115.2986322015
 10
-59.0877700974
 20
115.1857707365
 10
-59.0088606192
 20
115.0725708084
 10
-58.9302573351
 20
114.9590416905
 10
-58.8519623923
 20
114.8451864741
 10
-58.7739736437
 20
114.7310020679
 10
-58.6962910894
 20
114.6164884721
  0
LWPOLYLINE
  5
407
100
AcDbEntity
  8
RACCORDO
100
AcDbPolyline
 62
250
  6
CONTINUOUS
 90
10
 70
0
 10
-53.1980862767
 20
111.2447022854
 10
-53.2187494935
 20
111.274674959
 10
-53.2415756887
 20
111.3048016376
 10
-53.2667668752
 20
111.3349551507
 10
-53.2946772559
 20
111.365504334
 10
-53.3252806768
 20
111.3959148338
 10
-53.3582702318
 20
111.4247210917
 10
-53.3936897009
 20
111.451404905
 10
-53.4318348158
 20
111.4764095508
 10
-53.47279373
 20
111.4997219424
  0
LWPOLYLINE
  5
408
100
AcDbEntity
  8
RACCORDO
100
AcDbPolyline
 62
250
  6
CONTINUOUS
 90
10
 70
0
 10
-55.4842398201
 20
112.3877652249
 10
-55.4637644053
 20
112.3564462237
 10
-55.4471466848
 20
112.3238873249
 10
-55.4346622855
 20
112.29062856
 10
-55.426518277
 20
112.2572215695
 10
-55.4228497393
 20
112.2242204506
 10
-55.4237175213
 20
112.1921725677
 10
-55.4291072304
 20
112.1616094759
 10
-55.4389294701
 20
112.1330381056
 10
-55.4530213251
 20
112.1069323512
  0
LINE
  5
409
100
AcDbEntity
  8
ASSI
100
AcDbLine
 62
7
  6
CONTINUOUS
 10
-40.7412012933
 20
114.9668558813
 11
-40.7340889086
 21
114.8748568774
  0
LINE
  5
40A
100
AcDbEntity
  8
RACCORDO
100
AcDbLine
 62
250
  6
CONTINUOUS
 10
-42.4273918867
 20
109.9067102722
 11
-42.4273918867
 21
114.0593973457
  0
LINE
  5
40B
100
AcDbEntity
  8
RACCORDO
100
AcDbLine
 62
7
  6
CONTINUOUS
 10
-42.2870617869
 20
109.8365452223
 11
-42.2870617869
 21
114.2330619384
  0
LINE
  5
40C
100
AcDbEntity
  8
RACCORDO
100
AcDbLine
 62
7
  6
CONTINUOUS
 10
-42.1082088197
 20
65.6356120862
 11
-42.1082088197
 21
103.5671283886
  0
LINE
  5
40D
100
AcDbEntity
  8
SMUSSO
100
AcDbLine
 62
7
  6
CONTINUOUS
 10
-40.6957389277
 20
114.7743185601
 11
-40.6957389277
 21
114.3754334551
  0
LWPOLYLINE
  5
40E
100
AcDbEntity
  8
ASSI
100
AcDbPolyline
 62
7
  6
CONTINUOUS
 90
17
 70
0
 10
-42.1082088197
 20
65.6356120862
 10
-42.1088253989
 20
65.6105518822
 10
-42.1106180106
 20
65.5863385373
 10
-42.1135866546
 20
65.5629720517
 10
-42.1177497375
 20
65.5403795581
 10
-42.1230888528
 20
65.5186339237
 10
-42.1295487811
 20
65.4979537498
 10
-42.1371407994
 20
65.4783500212
 10
-42.1458536308
 20
65.4598117531
 10
-42.155598225
 20
65.4425245922
 10
-42.1663848597
 20
65.4265013081
 10
-42.1782032571
 20
65.4117291311
 10
-42.1909335344
 20
65.3983553993
 10
-42.2045847054
 20
65.386394219
 10
-42.2191477562
 20
65.3758314839
 10
-42.2344757623
 20
65.3667722132
 10
-42.2494778478
 20
65.3596877776
  0
LWPOLYLINE
  5
40F
100
AcDbEntity
  8
0
100
AcDbPolyline
 62
7
  6
CONTINUOUS
 90
8
 70
0
 10
-44.5086206514
 20
71.852655964
 10
-44.5104530892
 20
71.8308298191
 10
-44.5144013824
 20
71.8111988498
 10
-44.5204655308
 20
71.7937630563
 10
-44.5288136926
 20
71.7783095735
 10
-44.5392777097
 20
71.7650512663
 10
-44.5513531076
 20
71.75462673
 10
-44.5626338056
 20
71.7482524548
  0
LWPOLYLINE
  5
410
100
AcDbEntity
  8
0
100
AcDbPolyline
 62
250
  6
CONTINUOUS
 90
8
 70
0
 10
-44.8080531712
 20
92.3250037011
 10
-44.7942366666
 20
92.3332856725
 10
-44.7819445094
 20
92.3447563507
 10
-44.77160979
 20
92.3591149713
 10
-44.7634245108
 20
92.3760898969
 10
-44.7575308593
 20
92.3953668995
 10
-44.7540253411
 20
92.4166034991
 10
-44.7529646507
 20
92.4394188856
  0
LWPOLYLINE
  5
411
100
AcDbEntity
  8
0
100
AcDbPolyline
 62
7
  6
CONTINUOUS
 90
20
 70
0
 10
-25.6505250542
 20
101.5886205684
 10
-25.5847694555
 20
101.6234677942
 10
-25.4815137064
 20
101.6868346123
 10
-25.3826046185
 20
101.7585184664
 10
-25.2887118452
 20
101.8380340289
 10
-25.1998694256
 20
101.9254344434
 10
-25.1160433205
 20
102.0206665662
 10
-25.0378010654
 20
102.1230856386
 10
-24.9651805508
 20
102.2327404291
 10
-24.8981438862
 20
102.3495821692
 10
-24.8371449361
 20
102.4728197946
 10
-24.7822246707
 20
102.6024967058
 10
-24.7333421198
 20
102.7385695023
 10
-24.6908282374
 20
102.880116918
 10
-24.6547262394
 20
103.027176102
 10
-24.6249929099
 20
103.1797099051
 10
-24.6018295552
 20
103.3366856139
 10
-24.5853032774
 20
103.4977589904
 10
-24.5753469744
 20
103.6632742725
 10
-24.5719606462
 20
103.8332314603
  0
LWPOLYLINE
  5
412
100
AcDbEntity
  8
RACCORDO
100
AcDbPolyline
 62
250
  6
CONTINUOUS
 90
67
 70
0
 10
-28.7899883838
 20
98.3797610924
 10
-28.7461600691
 20
98.4029392726
 10
-28.5904754049
 20
98.4965098947
 10
-28.442399704
 20
98.6036725862
 10
-28.3023590996
 20
98.7241084138
 10
-28.170719932
 20
98.8574911823
 10
-28.0478404046
 20
99.0034513836
 10
-27.9340621552
 20
99.1615765131
 10
-27.8296953202
 20
99.3314283234
 10
-27.7350169673
 20
99.5125536277
 10
-27.650287884
 20
99.7044575979
 10
-27.575747513
 20
99.9066024703
 10
-27.5116030948
 20
100.1184299295
 10
-27.4580329152
 20
100.3393573194
 10
-27.415188161
 20
100.5687684474
 10
-27.3831902349
 20
100.8060158123
 10
-27.3621276743
 20
101.0504394133
 10
-27.3520584086
 20
101.3013616135
 10
-27.3530098038
 20
101.5580768838
 10
-27.3649772188
 20
101.8198641874
 10
-27.3879258231
 20
102.0860038428
 10
-27.4217925898
 20
102.3557715104
 10
-27.4664827183
 20
102.6284125433
 10
-27.5218731323
 20
102.9031764628
 10
-27.5878190628
 20
103.17933445
 10
-27.6641478274
 20
103.4561416534
 10
-27.7506468248
 20
103.7328083011
 10
-27.8470686594
 20
104.0085356529
 10
-27.9531587338
 20
104.2825887881
 10
-28.0686124819
 20
104.5541746968
 10
-28.1930516229
 20
104.8224185133
 10
-28.3260899754
 20
105.0865242588
 10
-28.4673733387
 20
105.3458228658
 10
-28.6165288995
 20
105.5996501261
 10
-28.7730639004
 20
105.847194165
 10
-28.9366075646
 20
106.0878940317
 10
-29.1069768806
 20
106.3214520796
 10
-29.2838108334
 20
106.5472952254
 10
-29.4665616625
 20
106.764648336
 10
-29.6547696979
 20
106.9728990046
 10
-29.848294252
 20
107.1717816999
 10
-30.0462635924
 20
107.3602931282
 10
-30.2470341271
 20
107.5369224553
 10
-30.4502824682
 20
107.7015257828
 10
-30.6551396805
 20
107.8535374354
 10
-30.8590273414
 20
107.9914037434
 10
-31.0612556802
 20
108.1152108771
 10
-31.2613334926
 20
108.2251997489
 10
-31.4569709814
 20
108.3207979879
 10
-31.6474705045
 20
108.4025168144
 10
-31.8326596487
 20
108.4711154221
 10
-32.0111390086
 20
108.5269629722
 10
-32.1823871924
 20
108.5708772797
 10
-32.3464915063
 20
108.6038378934
 10
-32.5030871527
 20
108.6267036085
 10
-32.6518111894
 20
108.6403754577
 10
-32.7929617237
 20
108.6458111732
 10
-32.9272202763
 20
108.6438686957
 10
-33.0543956699
 20
108.6353312021
 10
-33.1748011204
 20
108.6209417105
 10
-33.2898256014
 20
108.6011623711
 10
-33.3994308395
 20
108.5765237388
 10
-33.5037807784
 20
108.5475074227
 10
-33.6044357449
 20
108.5140651717
 10
-33.7014740914
 20
108.4764277341
 10
-33.7948337379
 20
108.434877416
 10
-33.8131480966
 20
108.4260805181
  0
LINE
  5
413
100
AcDbEntity
  8
DRAFT
100
AcDbLine
 62
7
  6
CONTINUOUS
 10
-35.3615562955
 20
95.0027947313
 11
-28.7899883838
 21
98.3797610924
  0
LINE
  5
414
100
AcDbEntity
  8
0
100
AcDbLine
 62
7
  6
CONTINUOUS
 10
-25.6505173668
 20
101.5886051886
 11
-27.2931286803
 21
100.7672995319
  0
LINE
  5
415
100
AcDbEntity
  8
DRAFT
100
AcDbLine
 62
7
  6
CONTINUOUS
 10
-35.3615562955
 20
93.8167187037
 11
-33.8131480966
 21
94.5696740575
  0
LWPOLYLINE
  5
416
100
AcDbEntity
  8
0
100
AcDbPolyline
 62
250
  6
CONTINUOUS
 90
10
 70
0
 10
-44.7529646507
 20
92.4394188856
 10
-44.7657669395
 20
92.4333024797
 10
-44.7794932104
 20
92.4277236078
 10
-44.7940427741
 20
92.4227231294
 10
-44.8093254365
 20
92.4183333502
 10
-44.8252138877
 20
92.4145920845
 10
-44.8415387198
 20
92.4115354073
 10
-44.8581588009
 20
92.4091812
 10
-44.8749680233
 20
92.4075361654
 10
-44.8918437674
 20
92.4066052869
  0
LINE
  5
417
100
AcDbEntity
  8
0
100
AcDbLine
 62
250
  6
CONTINUOUS
 10
-44.4102673515
 20
92.5975316048
 11
-44.7529646507
 21
92.4394188856
  0
LINE
  5
418
100
AcDbEntity
  8
0
100
AcDbLine
 62
7
  6
CONTINUOUS
 10
-44.4643014761
 20
92.4836028945
 11
-44.8080562758
 21
92.3250022686
  0
LWPOLYLINE
  5
419
100
AcDbEntity
  8
RACCORDO
100
AcDbPolyline
 62
7
  6
CONTINUOUS
 90
58
 70
0
 10
-33.8131480966
 20
94.5696740575
 10
-33.6351691395
 20
94.6473355471
 10
-33.4495239095
 20
94.7107609995
 10
-33.2567383327
 20
94.7594581505
 10
-33.0573069876
 20
94.7929995852
 10
-32.8518681011
 20
94.8109917684
 10
-32.6411743192
 20
94.8131219073
 10
-32.4254908543
 20
94.799131296
 10
-32.2056988368
 20
94.768822855
 10
-31.9834760666
 20
94.7223237125
 10
-31.7598569716
 20
94.659902109
 10
-31.5349798211
 20
94.5816373984
 10
-31.3091896697
 20
94.4876091388
 10
-31.0826159672
 20
94.3777487628
 10
-30.8562995416
 20
94.2524250686
 10
-30.6319702723
 20
94.1126100512
 10
-30.4105498041
 20
93.9590325908
 10
-30.1922691575
 20
93.791994336
 10
-29.9778263017
 20
93.6121356129
 10
-29.7677654187
 20
93.4200188853
 10
-29.5626678376
 20
93.2162711983
 10
-29.3632860571
 20
93.0017531599
 10
-29.1702596767
 20
92.7772982857
 10
-28.9839717188
 20
92.5434898486
 10
-28.8047853219
 20
92.3008789951
 10
-28.6331437097
 20
92.0501261518
 10
-28.4695692122
 20
91.7920462531
 10
-28.3145377294
 20
91.5274460734
 10
-28.1685070326
 20
91.257165608
 10
-28.031850496
 20
90.9819461525
 10
-27.904896081
 20
90.7024657043
 10
-27.7879907126
 20
90.4194669982
 10
-27.6815137797
 20
90.1338306995
 10
-27.5858096779
 20
89.8464435132
 10
-27.501194365
 20
89.5582215437
 10
-27.4279004204
 20
89.2698979311
 10
-27.366122724
 20
88.9820713534
 10
-27.3160696099
 20
88.6953609934
 10
-27.2780033075
 20
88.4107895961
 10
-27.2521376973
 20
88.129519673
 10
-27.2385927339
 20
87.8524098707
 10
-27.2374536551
 20
87.5801632849
 10
-27.2487838317
 20
87.3136334666
 10
-27.2726645417
 20
87.0531514889
 10
-27.3091000583
 20
86.7998665086
 10
-27.3578095931
 20
86.5556765304
 10
-27.4184345429
 20
86.321646694
 10
-27.4908389429
 20
86.0977633191
 10
-27.5749299404
 20
85.8841740718
 10
-27.6707027905
 20
85.6810248351
 10
-27.7777615169
 20
85.4892968597
 10
-27.8952936251
 20
85.3102857196
 10
-28.0226488356
 20
85.1445965905
 10
-28.1594976875
 20
84.9923081661
 10
-28.3052753873
 20
84.853769695
 10
-28.4593725044
 20
84.7292837387
 10
-28.6211658247
 20
84.6190823611
 10
-28.7899883838
 20
84.5233546319
  0
LWPOLYLINE
  5
41A
100
AcDbEntity
  8
0
100
AcDbPolyline
 62
250
  6
CONTINUOUS
 90
13
 70
0
 10
-46.0109052841
 20
100.7437758753
 10
-45.9817488297
 20
100.7309722815
 10
-45.9495306736
 20
100.7201574677
 10
-45.914789814
 20
100.7115124322
 10
-45.8781074641
 20
100.7051818735
 10
-45.8400973771
 20
100.7012717752
 10
-45.801395583
 20
100.6998476207
 10
-45.7626496474
 20
100.7009332892
 10
-45.7245079204
 20
100.7045106637
 10
-45.6876087329
 20
100.7105199151
 10
-45.6525695745
 20
100.7188605119
 10
-45.6199767675
 20
100.7293929196
 10
-45.5903757386
 20
100.7419409206
  0
LWPOLYLINE
  5
41B
100
AcDbEntity
  8
RACCORDO
100
AcDbPolyline
 62
250
  6
CONTINUOUS
 90
13
 70
0
 10
-57.5092234498
 20
109.1126672768
 10
-57.4902285428
 20
109.1043024142
 10
-57.4691235349
 20
109.0971602573
 10
-57.4462142442
 20
109.0913840222
 10
-57.4217930864
 20
109.0870906599
 10
-57.3962961331
 20
109.0843980457
 10
-57.3703131584
 20
109.083385837
 10
-57.3443386246
 20
109.0840685072
 10
-57.3187587424
 20
109.0864311271
 10
-57.2940153876
 20
109.0904323767
 10
-57.2705288264
 20
109.0960024556
 10
-57.2486914595
 20
109.1030463658
 10
-57.2288704195
 20
109.1114439749
  0
LWPOLYLINE
  5
41C
100
AcDbEntity
  8
0
100
AcDbPolyline
 62
7
  6
CONTINUOUS
 90
9
 70
0
 10
-73.0795935314
 20
116.1506703251
 10
-73.1412141868
 20
116.1781958676
 10
-73.2023749846
 20
116.1989133317
 10
-73.2626037337
 20
116.2126693887
 10
-73.3214315673
 20
116.219365539
 10
-73.3784105663
 20
116.2189520387
 10
-73.4331170592
 20
116.2114277941
 10
-73.4851345534
 20
116.1968504772
 10
-73.5162859847
 20
116.1841210067
  0
LWPOLYLINE
  5
41D
100
AcDbEntity
  8
RACCORDO
100
AcDbPolyline
 62
250
  6
CONTINUOUS
 90
16
 70
0
 10
-55.579522853
 20
107.7671285694
 10
-55.5561752438
 20
107.7566743076
 10
-55.5313078555
 20
107.7476651902
 10
-55.504920688
 20
107.7401012172
 10
-55.4766825086
 20
107.7339242817
 10
-55.44692455
 20
107.7291924906
 10
-55.4166405105
 20
107.7260801642
 10
-55.3858306571
 20
107.7246472575
 10
-55.3544947227
 20
107.7248338156
 10
-55.3236256045
 20
107.7266342935
 10
-55.2932285838
 20
107.7301049523
 10
-55.2632983791
 20
107.735189531
 10
-55.2348120439
 20
107.7417137009
 10
-55.2080952624
 20
107.7496193525
 10
-55.1828223503
 20
107.7589645953
 10
-55.1589933075
 20
107.7697494294
  0
LWPOLYLINE
  5
41E
100
AcDbEntity
  8
0
100
AcDbPolyline
 62
250
  6
CONTINUOUS
 90
4
 70
0
 10
-73.8474717286
 20
115.7363824213
 10
-73.9005699618
 20
115.7602433331
 10
-73.9533550139
 20
115.7791355746
 10
-73.9751231412
 20
115.7849015253
  0
LWPOLYLINE
  5
41F
100
AcDbEntity
  8
RACCORDO
100
AcDbPolyline
 62
250
  6
CONTINUOUS
 90
6
 70
0
 10
-57.5009950525
 20
108.8765288583
 10
-57.5023968172
 20
108.8771605269
 10
-57.5037865997
 20
108.8777987804
 10
-57.5051642764
 20
108.8784435618
 10
-57.5065297244
 20
108.8790948139
 10
-57.5078828224
 20
108.8797524786
  0
LINE
  5
420
100
AcDbEntity
  8
0
100
AcDbLine
 62
7
  6
CONTINUOUS
 10
-45.8112612995
 20
100.5030958358
 11
-46.1740728115
 21
100.6845015918
  0
LINE
  5
421
100
AcDbEntity
  8
DRAFT
100
AcDbLine
 62
7
  6
CONTINUOUS
 10
-43.8533253342
 20
100.4970319382
 11
-44.2648845023
 21
100.7028115222
  0
LINE
  5
422
100
AcDbEntity
  8
RACCORDO
100
AcDbLine
 62
7
  6
CONTINUOUS
 10
-46.5272628649
 20
102.0609713871
 11
-77.1457131646
 21
117.370196537
  0
LINE
  5
423
100
AcDbEntity
  8
0
100
AcDbLine
 62
250
  6
CONTINUOUS
 10
-73.8474717286
 20
115.7363824213
 11
-68.240879308
 21
112.933086211
  0
LINE
  5
424
100
AcDbEntity
  8
0
100
AcDbLine
 62
250
  6
CONTINUOUS
 10
-67.8138698213
 20
112.7195814676
 11
-52.3309767313
 21
104.9781349226
  0
LINE
  5
425
100
AcDbEntity
  8
0
100
AcDbLine
 62
250
  6
CONTINUOUS
 10
-51.9039672446
 20
104.7646301793
 11
-46.297374824
 21
101.961333969
  0
LINE
  5
426
100
AcDbEntity
  8
0
100
AcDbLine
 62
7
  6
CONTINUOUS
 10
-45.5022136736
 20
102.3619803961
 11
-51.1238202798
 21
105.1727836993
  0
LINE
  5
427
100
AcDbEntity
  8
0
100
AcDbLine
 62
7
  6
CONTINUOUS
 10
-51.5480843485
 20
105.3849157336
 11
-67.0337228565
 21
113.1277349876
  0
LINE
  5
428
100
AcDbEntity
  8
0
100
AcDbLine
 62
7
  6
CONTINUOUS
 10
-67.4579869252
 20
113.339867022
 11
-73.0795935314
 21
116.1506703251
  0
LINE
  5
429
100
AcDbEntity
  8
0
100
AcDbLine
 62
7
  6
CONTINUOUS
 10
-45.1548315804
 20
102.5342844753
 11
-72.7198688434
 21
116.3168031068
  0
LINE
  5
42A
100
AcDbEntity
  8
RACCORDO
100
AcDbLine
 62
250
  6
CONTINUOUS
 10
-60.7444789382
 20
110.349606612
 11
-59.1512634116
 21
109.5529988487
  0
LINE
  5
42B
100
AcDbEntity
  8
RACCORDO
100
AcDbLine
 62
250
  6
CONTINUOUS
 10
-57.2288704195
 20
108.5918023526
 11
-55.579522853
 21
107.7671285694
  0
LINE
  5
42C
100
AcDbEntity
  8
RACCORDO
100
AcDbLine
 62
7
  6
CONTINUOUS
 10
-57.6211215665
 20
108.8541801142
 11
-58.8768293769
 21
109.4820340193
  0
LINE
  5
42D
100
AcDbEntity
  8
RACCORDO
100
AcDbLine
 62
250
  6
CONTINUOUS
 10
-57.5078828224
 20
108.8797524786
 11
-59.0926847678
 21
109.6721471563
  0
LINE
  5
42E
100
AcDbEntity
  8
RACCORDO
100
AcDbLine
 62
250
  6
CONTINUOUS
 10
-57.5092234498
 20
109.1126672768
 11
-59.0926847678
 21
109.9043979358
  0
LINE
  5
42F
100
AcDbEntity
  8
ASSI
100
AcDbLine
 62
7
  6
CONTINUOUS
 10
-25.5511253483
 20
93.1451063818
 11
-25.2083567493
 21
92.9737220823
  0
LINE
  5
430
100
AcDbEntity
  8
0
100
AcDbLine
 62
7
  6
CONTINUOUS
 10
-43.115437946
 20
102.0850624354
 11
-44.6184378929
 21
102.8365624088
  0
LINE
  5
431
100
AcDbEntity
  8
0
100
AcDbLine
 62
7
  6
CONTINUOUS
 10
-73.2562625309
 20
117.1554747279
 11
-74.7592624778
 21
117.9069747013
  0
LINE
  5
432
100
AcDbEntity
  8
RACCORDO
100
AcDbLine
 62
250
  6
CONTINUOUS
 10
-57.3702702366
 20
109.3553225842
 11
-58.9537315546
 21
110.1470532432
  0
LINE
  5
433
100
AcDbEntity
  8
DRAFT
100
AcDbLine
 62
7
  6
CONTINUOUS
 10
-69.2570485509
 20
115.3845676891
 11
-64.5275544496
 21
113.0198206385
  0
LINE
  5
434
100
AcDbEntity
  8
DRAFT
100
AcDbLine
 62
7
  6
CONTINUOUS
 10
-53.3471459742
 20
107.4296164008
 11
-48.6176518729
 21
105.0648693501
  0
LINE
  5
435
100
AcDbEntity
  8
ASSI
100
AcDbLine
 62
7
  6
CONTINUOUS
 10
-26.9443469352
 20
94.6902453127
 11
-24.3598286119
 21
93.397986151
  0
LWPOLYLINE
  5
436
100
AcDbEntity
  8
RACCORDO
100
AcDbPolyline
 62
250
  6
CONTINUOUS
 90
7
 70
0
 10
-59.0926847678
 20
109.6721471563
 10
-59.0940128053
 20
109.67281747
 10
-59.0953281346
 20
109.673494019
 10
-59.0966306388
 20
109.674176743
 10
-59.0979202017
 20
109.6748655814
 10
-59.0991967086
 20
109.6755604726
 10
-59.1004600459
 20
109.676261355
  0
LWPOLYLINE
  5
437
100
AcDbEntity
  8
RACCORDO
100
AcDbPolyline
 62
7
  6
CONTINUOUS
 90
8
 70
0
 10
-58.8768298454
 20
109.4820342576
 10
-58.8925473614
 20
109.4902246446
 10
-58.926913308
 20
109.5104558802
 10
-58.9610033775
 20
109.5336937293
 10
-58.9947724388
 20
109.5600045715
 10
-59.0280274502
 20
109.5893790692
 10
-59.0605234548
 20
109.6215996071
 10
-59.0920807966
 20
109.656458641
  0
LWPOLYLINE
  5
438
100
AcDbEntity
  8
ASSI
100
AcDbPolyline
 62
7
  6
CONTINUOUS
 90
11
 70
0
 10
-24.1589719006
 20
92.2024114989
 10
-24.2038145931
 20
92.2265680628
 10
-24.2440473351
 20
92.2504988371
 10
-24.2836004102
 20
92.276119218
 10
-24.3226485952
 20
92.3034412817
 10
-24.3611630845
 20
92.3317423807
 10
-24.399056976
 20
92.3608649329
 10
-24.436437763
 20
92.390867423
 10
-24.4735432673
 20
92.4213756985
 10
-24.5104610038
 20
92.4523878427
 10
-24.5471090242
 20
92.4838018594
  0
LWPOLYLINE
  5
439
100
AcDbEntity
  8
0
100
AcDbPolyline
 62
7
  6
CONTINUOUS
 90
19
 70
0
 10
-45.5022136736
 20
102.3619803961
 10
-45.4405930182
 20
102.3278646401
 10
-45.3794322204
 20
102.2874259998
 10
-45.3192034712
 20
102.2409692575
 10
-45.2603756376
 20
102.1888435773
 10
-45.2033966387
 20
102.131445247
 10
-45.1486901458
 20
102.0692143374
 10
-45.0966726516
 20
102.0026238382
 10
-45.0477452603
 20
101.9321780066
 10
-45.0022767651
 20
101.8584136027
 10
-44.9606106038
 20
101.7818929547
 10
-44.9230661645
 20
101.70319694
 10
-44.8899316983
 20
101.6229220322
 10
-44.8614541898
 20
101.5416817619
 10
-44.8378496932
 20
101.4600941217
 10
-44.8193061669
 20
101.3787739456
 10
-44.805964143
 20
101.2983398743
 10
-44.7979153531
 20
101.2194096334
 10
-44.7952145882
 20
101.1425873495
  0
LWPOLYLINE
  5
43A
100
AcDbEntity
  8
0
100
AcDbPolyline
 62
7
  6
CONTINUOUS
 90
19
 70
0
 10
-45.1548315804
 20
102.5342844753
 10
-45.0924394528
 20
102.4995855579
 10
-45.031435808
 20
102.4592483096
 10
-44.971820646
 20
102.4132727304
 10
-44.9131640857
 20
102.3612253663
 10
-44.8558960082
 20
102.3035396714
 10
-44.801306057
 20
102.2415160078
 10
-44.7494550618
 20
102.1750562913
 10
-44.700282193
 20
102.1042586062
 10
-44.6548946054
 20
102.0307175671
 10
-44.6133780186
 20
101.9543710523
 10
-44.5756467131
 20
101.8752811835
 10
-44.5425506844
 20
101.7952289408
 10
-44.5141948507
 20
101.7141922862
 10
-44.4904742939
 20
101.6321932575
 10
-44.4719242558
 20
101.5510789481
 10
-44.4587231502
 20
101.4714650558
 10
-44.4506925633
 20
101.3927358826
 10
-44.447832495
 20
101.3148914287
  0
LWPOLYLINE
  5
43B
100
AcDbEntity
  8
RACCORDO
100
AcDbPolyline
 62
7
  6
CONTINUOUS
 90
16
 70
0
 10
-46.5272628649
 20
102.0609713871
 10
-46.4896901732
 20
102.039601168
 10
-46.4533088323
 20
102.014352831
 10
-46.4181188423
 20
101.985226376
 10
-46.3837655384
 20
101.9518231378
 10
-46.3506035854
 20
101.9145417816
 10
-46.3196969773
 20
101.8745783034
 10
-46.291117647
 20
101.8318458244
 10
-46.2647936617
 20
101.7864312233
 10
-46.2415732168
 20
101.7397911322
 10
-46.2215556546
 20
101.691883877
 10
-46.2046416329
 20
101.6427511319
 10
-46.1913813208
 20
101.5939745516
 10
-46.181958108
 20
101.5460813545
 10
-46.1761886049
 20
101.4985443223
 10
-46.1740728115
 20
101.4513634549
  0
LWPOLYLINE
  5
43C
100
AcDbEntity
  8
RACCORDO
100
AcDbPolyline
 62
7
  6
CONTINUOUS
 90
16
 70
0
 10
-64.6689542667
 20
114.3723917721
 10
-64.6539114581
 20
114.3638360826
 10
-64.6393446393
 20
114.3537272445
 10
-64.6252538101
 20
114.3420652577
 10
-64.6114962417
 20
114.3286895685
 10
-64.598214663
 20
114.3137607307
 10
-64.5858372609
 20
114.2977604054
 10
-64.5743934912
 20
114.2806537783
 10
-64.5638538981
 20
114.2624756638
 10
-64.5545583006
 20
114.2438121657
 10
-64.5465471503
 20
114.2246474362
 10
-64.5397799957
 20
114.2049973233
 10
-64.5344753018
 20
114.1854954747
 10
-64.5307058903
 20
114.1663531064
 10
-64.5283989396
 20
114.1473590024
 10
-64.5275544496
 20
114.1285131628
  0
LWPOLYLINE
  5
43D
100
AcDbEntity
  8
RACCORDO
100
AcDbPolyline
 62
250
  6
CONTINUOUS
 90
15
 70
0
 10
-57.1279325894
 20
112.7100015166
 10
-57.1345874241
 20
112.7158340933
 10
-57.1409233999
 20
112.7209075208
 10
-57.1469064295
 20
112.7252201022
 10
-57.152515581
 20
112.7287863388
 10
-57.1576985751
 20
112.7315858338
 10
-57.1623856123
 20
112.7335607274
 10
-57.1665443182
 20
112.7346791774
 10
-57.1701623796
 20
112.7349561955
 10
-57.1732143572
 20
112.7344006408
 10
-57.1756785204
 20
112.7329963113
 10
-57.177535399
 20
112.7307381948
 10
-57.1787652102
 20
112.727650679
 10
-57.1793485662
 20
112.7237210786
 10
-57.1793971849
 20
112.7219952938
  0
LWPOLYLINE
  5
43E
100
AcDbEntity
  8
DRAFT
100
AcDbPolyline
 62
7
  6
CONTINUOUS
 90
3
 70
0
 10
-53.6646404961
 20
110.0064641004
 10
-53.6353513488
 20
109.9739653993
 10
-53.6081275846
 20
109.9474576639
  0
LINE
  5
43F
100
AcDbEntity
  8
DRAFT
100
AcDbLine
 62
7
  6
CONTINUOUS
 10
-47.1828756474
 20
107.4903006402
 11
-47.1065618101
 21
107.391291363
  0
LINE
  5
440
100
AcDbEntity
  8
DRAFT
100
AcDbLine
 62
7
  6
CONTINUOUS
 10
-48.1779341919
 20
106.9767172773
 11
-48.1046644366
 21
106.8816358345
  0
LINE
  5
441
100
AcDbEntity
  8
DRAFT
100
AcDbLine
 62
7
  6
CONTINUOUS
 10
-48.1046644366
 20
106.8816358345
 11
-48.0316068719
 21
106.7862648324
  0
LINE
  5
442
100
AcDbEntity
  8
DRAFT
100
AcDbLine
 62
7
  6
CONTINUOUS
 10
-47.1065618101
 20
107.391291363
 11
-47.0304773029
 21
107.2919675148
  0
LINE
  5
443
100
AcDbEntity
  8
DRAFT
100
AcDbLine
 62
7
  6
CONTINUOUS
 10
-48.0316068719
 20
106.7862648324
 11
-47.9587620319
 21
106.6906049715
  0
LINE
  5
444
100
AcDbEntity
  8
DRAFT
100
AcDbLine
 62
7
  6
CONTINUOUS
 10
-47.0304773029
 20
107.2919675148
 11
-46.9546237353
 21
107.1923311969
  0
LWPOLYLINE
  5
445
100
AcDbEntity
  8
DRAFT
100
AcDbPolyline
 62
7
  6
CONTINUOUS
 90
3
 70
0
 10
-47.9587620319
 20
106.6906049715
 10
-47.8861320531
 20
106.5946590531
 10
-47.8498975031
 20
106.5465786472
  0
LWPOLYLINE
  5
446
100
AcDbEntity
  8
DRAFT
100
AcDbPolyline
 62
7
  6
CONTINUOUS
 90
3
 70
0
 10
-46.9546237353
 20
107.1923311969
 10
-46.8790027118
 20
107.0923845169
 10
-46.8412799043
 20
107.0422954516
  0
LINE
  5
447
100
AcDbEntity
  8
DRAFT
100
AcDbLine
 62
7
  6
CONTINUOUS
 10
-46.3202583637
 20
106.3342730342
 11
-46.2639483536
 21
106.255894756
  0
LINE
  5
448
100
AcDbEntity
  8
DRAFT
100
AcDbLine
 62
7
  6
CONTINUOUS
 10
-47.3115837354
 20
105.8150576151
 11
-47.245940286
 21
105.7235843295
  0
LINE
  5
449
100
AcDbEntity
  8
DRAFT
100
AcDbLine
 62
7
  6
CONTINUOUS
 10
-46.2639483536
 20
106.255894756
 11
-46.207782968
 21
106.1773464588
  0
LINE
  5
44A
100
AcDbEntity
  8
DRAFT
100
AcDbLine
 62
7
  6
CONTINUOUS
 10
-47.245940286
 20
105.7235843295
 11
-47.1804945108
 21
105.6318805151
  0
LINE
  5
44B
100
AcDbEntity
  8
DRAFT
100
AcDbLine
 62
7
  6
CONTINUOUS
 10
-46.207782968
 20
106.1773464588
 11
-46.1517629021
 21
106.0986291152
  0
LINE
  5
44C
100
AcDbEntity
  8
DRAFT
100
AcDbLine
 62
7
  6
CONTINUOUS
 10
-47.1804945108
 20
105.6318805151
 11
-47.115246823
 21
105.5399467532
  0
LWPOLYLINE
  5
44D
100
AcDbEntity
  8
DRAFT
100
AcDbPolyline
 62
7
  6
CONTINUOUS
 90
3
 70
0
 10
-46.1517629021
 20
106.0986291152
 10
-46.0958888495
 20
106.0197436994
 10
-46.0680067943
 20
105.9802382695
  0
LWPOLYLINE
  5
44E
100
AcDbEntity
  8
DRAFT
100
AcDbPolyline
 62
7
  6
CONTINUOUS
 90
3
 70
0
 10
-47.115246823
 20
105.5399467532
 10
-47.0501988751
 20
105.4477853691
 10
-47.0177497003
 20
105.4016191733
  0
LWPOLYLINE
  5
44F
100
AcDbEntity
  8
RACCORDO
100
AcDbPolyline
 62
250
  6
CONTINUOUS
 90
9
 70
0
 10
-35.0615142482
 20
112.0670052766
 10
-35.0619775336
 20
112.0562457372
 10
-35.0668780817
 20
112.0304845196
 10
-35.0770783136
 20
112.0051145965
 10
-35.0924689408
 20
111.9804077892
 10
-35.1128850634
 20
111.9566288139
 10
-35.1381079368
 20
111.9340324459
 10
-35.1678673154
 20
111.9128607896
 10
-35.201844348
 20
111.8933406846
  0
LINE
  5
450
100
AcDbEntity
  8
0
100
AcDbLine
 62
7
  6
CONTINUOUS
 10
-29.3623902095
 20
95.1559444134
 11
-31.0048775151
 21
94.3347007605
  0
LINE
  5
451
100
AcDbEntity
  8
ASSI
100
AcDbLine
 62
7
  6
CONTINUOUS
 10
-27.4037738184
 20
94.9837253788
 11
-26.8582407198
 21
95.2564919281
  0
LINE
  5
452
100
AcDbEntity
  8
ASSI
100
AcDbLine
 62
250
  6
CONTINUOUS
 10
-26.9761237023
 20
94.7061336962
 11
-25.9861742086
 21
95.2011084431
  0
LINE
  5
453
100
AcDbEntity
  8
ASSI
100
AcDbLine
 62
7
  6
CONTINUOUS
 10
-25.41545866
 20
94.9157506687
 11
-11.6525333967
 21
101.7972133004
  0
LWPOLYLINE
  5
454
100
AcDbEntity
  8
ASSI
100
AcDbPolyline
 62
7
  6
CONTINUOUS
 90
12
 70
0
 10
-26.8582104757
 20
95.2564314431
 10
-26.8254443258
 20
95.2718286825
 10
-26.752226793
 20
95.299529121
 10
-26.6756963626
 20
95.319500701
 10
-26.5958949353
 20
95.3318411756
 10
-26.5138404062
 20
95.3363931376
 10
-26.4295039136
 20
95.3330568178
 10
-26.3429143192
 20
95.3219319854
 10
-26.2551761034
 20
95.3031605416
 10
-26.1666574265
 20
95.2767897868
 10
-26.0769901282
 20
95.2427724206
 10
-25.9861742086
 20
95.2011084431
  0
LWPOLYLINE
  5
455
100
AcDbEntity
  8
0
100
AcDbPolyline
 62
250
  6
CONTINUOUS
 90
15
 70
0
 10
-52.2445344226
 20
105.0354489799
 10
-52.2165965332
 20
105.0429175722
 10
-52.1871496951
 20
105.0463513026
 10
-52.1564499553
 20
105.0457203139
 10
-52.1247642554
 20
105.0410300927
 10
-52.0923681098
 20
105.0323214216
 10
-52.0595432106
 20
105.0196700245
 10
-52.0265749781
 20
105.0031859081
 10
-51.9937500791
 20
104.983012406
 10
-51.9613539338
 20
104.9593249316
 10
-51.9296682343
 20
104.932329453
 10
-51.8989684949
 20
104.9022607022
 10
-51.8695216571
 20
104.8693801339
 10
-51.8415837679
 20
104.8339736524
 10
-51.815397754
 20
104.7963491255
  0
LINE
  5
456
100
AcDbEntity
  8
0
100
AcDbLine
 62
7
  6
CONTINUOUS
 10
-51.9039672446
 20
104.7646301793
 11
-51.9241387696
 21
104.7594093395
  0
LWPOLYLINE
  5
457
100
AcDbEntity
  8
DRAFT
100
AcDbPolyline
 62
7
  6
CONTINUOUS
 90
37
 70
0
 10
-47.3115837354
 20
105.8150576151
 10
-47.3319505637
 20
105.8132796185
 10
-47.3527125608
 20
105.8132874582
 10
-47.3738697266
 20
105.8150811343
 10
-47.3955019122
 20
105.8186802522
 10
-47.4175292665
 20
105.8240652065
 10
-47.4397122361
 20
105.8311771806
 10
-47.4620528112
 20
105.840034993
 10
-47.4845490015
 20
105.8506198251
 10
-47.5069552836
 20
105.8628164049
 10
-47.5292703363
 20
105.8766419531
 10
-47.5514954807
 20
105.8920792489
 10
-47.5733891559
 20
105.9089613575
 10
-47.5949488628
 20
105.9273051188
 10
-47.6161771005
 20
105.9470936929
 10
-47.636839806
 20
105.9681096251
 10
-47.6569303626
 20
105.9903664203
 10
-47.6764553871
 20
106.0138505735
 10
-47.6952006667
 20
106.0383041158
 10
-47.7131573791
 20
106.0637375939
 10
-47.7303343466
 20
106.0901404611
 10
-47.7465438231
 20
106.1172231078
 10
-47.7617751424
 20
106.144993258
 10
-47.7760389706
 20
106.1734431878
 10
-47.7891795595
 20
106.2022601166
 10
-47.8011840388
 20
106.231446612
 10
-47.8120652788
 20
106.2610001064
 10
-47.821706143
 20
106.2906001165
 10
-47.8300937421
 20
106.3202547011
 10
-47.8372409654
 20
106.3499558013
 10
-47.8430693442
 20
106.379358757
 10
-47.8475634424
 20
106.4084319217
 10
-47.8507386961
 20
106.4372069418
 10
-47.852562945
 20
106.4654340965
 10
-47.8530254692
 20
106.4930301455
 10
-47.8521369885
 20
106.5200783291
 10
-47.8498975031
 20
106.5465786472
  0
LWPOLYLINE
  5
458
100
AcDbEntity
  8
RACCORDO
100
AcDbPolyline
 62
250
  6
CONTINUOUS
 90
7
 70
0
 10
-58.9537315546
 20
110.1470532432
 10
-58.9725633406
 20
110.1546667501
 10
-58.9910329736
 20
110.1591842345
 10
-59.0088212708
 20
110.1605250481
 10
-59.0256223766
 20
110.1586628758
 10
-59.0411427138
 20
110.1536268017
 10
-59.0462281757
 20
110.1511247881
  0
LWPOLYLINE
  5
459
100
AcDbEntity
  8
RACCORDO
100
AcDbPolyline
 62
250
  6
CONTINUOUS
 90
7
 70
0
 10
-60.7481488439
 20
110.5643271977
 10
-60.7669008777
 20
110.5719147498
 10
-60.7852903395
 20
110.5764322428
 10
-60.8030027217
 20
110.5778022666
 10
-60.8197350651
 20
110.5760012339
 10
-60.8352011571
 20
110.5710597892
 10
-60.8406216269
 20
110.5684115983
  0
LWPOLYLINE
  5
45A
100
AcDbEntity
  8
RACCORDO
100
AcDbPolyline
 62
250
  6
CONTINUOUS
 90
13
 70
0
 10
-53.1328709951
 20
110.9615152352
 10
-53.1620285958
 20
110.9743192696
 10
-53.1942478511
 20
110.9851342945
 10
-53.2289896488
 20
110.9937793445
 10
-53.2656726672
 20
111.0001097635
 10
-53.3036831023
 20
111.0040196253
 10
-53.3423849386
 20
111.005443506
 10
-53.3811305916
 20
111.0043575785
 10
-53.4192717409
 20
111.0007800119
 10
-53.4561701788
 20
110.9947706674
 10
-53.491208493
 20
110.9864300969
 10
-53.5238003976
 20
110.9758978597
 10
-53.5534005406
 20
110.9633501881
  0
LINE
  5
45B
100
AcDbEntity
  8
DRAFT
100
AcDbLine
 62
7
  6
CONTINUOUS
 10
-43.4687222119
 20
103.6271054291
 11
-47.0177497003
 21
105.4016191733
  0
LINE
  5
45C
100
AcDbEntity
  8
DRAFT
100
AcDbLine
 62
7
  6
CONTINUOUS
 10
-70.8569507235
 20
117.3212196849
 11
-74.4059782119
 21
119.0957334291
  0
LINE
  5
45D
100
AcDbEntity
  8
RACCORDO
100
AcDbLine
 62
7
  6
CONTINUOUS
 10
-48.75905169
 20
106.4174404838
 11
-53.2057461571
 21
108.6407877173
  0
LINE
  5
45E
100
AcDbEntity
  8
RACCORDO
100
AcDbLine
 62
7
  6
CONTINUOUS
 10
-64.6689542667
 20
114.3723917721
 11
-69.1156487338
 21
116.5957390057
  0
LINE
  5
45F
100
AcDbEntity
  8
ASSI
100
AcDbLine
 62
7
  6
CONTINUOUS
 10
-25.9861742086
 20
95.2011084431
 11
-23.3698791182
 21
93.8929608979
  0
LINE
  5
460
100
AcDbEntity
  8
DRAFT
100
AcDbLine
 62
7
  6
CONTINUOUS
 10
-69.6967662319
 20
117.7361332972
 11
-64.0878367686
 21
114.9316685656
  0
LINE
  5
461
100
AcDbEntity
  8
DRAFT
100
AcDbLine
 62
7
  6
CONTINUOUS
 10
-53.7868636552
 20
109.7811820089
 11
-48.1779341919
 21
106.9767172773
  0
LINE
  5
462
100
AcDbEntity
  8
DRAFT
100
AcDbLine
 62
7
  6
CONTINUOUS
 10
-73.4333083509
 20
119.6628890478
 11
-69.8267946422
 21
117.8596321934
  0
LINE
  5
463
100
AcDbEntity
  8
DRAFT
100
AcDbLine
 62
7
  6
CONTINUOUS
 10
-46.0680067943
 20
105.9802382695
 11
-42.4614930856
 21
104.1769814151
  0
LINE
  5
464
100
AcDbEntity
  8
RACCORDO
100
AcDbLine
 62
250
  6
CONTINUOUS
 10
-53.5534005406
 20
110.4437085658
 11
-53.1878541578
 21
110.2609353744
  0
LINE
  5
465
100
AcDbEntity
  8
RACCORDO
100
AcDbLine
 62
250
  6
CONTINUOUS
 10
-56.122774086
 20
111.7283953385
 11
-57.2706697173
 21
112.3023431542
  0
LINE
  5
466
100
AcDbEntity
  8
DRAFT
100
AcDbLine
 62
7
  6
CONTINUOUS
 10
-68.711925789
 20
118.254825711
 11
-63.0927782241
 21
115.4452519285
  0
LINE
  5
467
100
AcDbEntity
  8
DRAFT
100
AcDbLine
 62
7
  6
CONTINUOUS
 10
-52.8020232123
 20
110.2998744227
 11
-47.1828756474
 21
107.4903006402
  0
LINE
  5
468
100
AcDbEntity
  8
RACCORDO
100
AcDbLine
 62
250
  6
CONTINUOUS
 10
-53.1328709951
 20
110.7016416641
 11
-52.7067073003
 21
110.4885598168
  0
LINE
  5
469
100
AcDbEntity
  8
RACCORDO
100
AcDbLine
 62
250
  6
CONTINUOUS
 10
-55.6723772238
 20
111.9713947785
 11
-57.062264429
 21
112.6663383811
  0
LINE
  5
46A
100
AcDbEntity
  8
RACCORDO
100
AcDbLine
 62
250
  6
CONTINUOUS
 10
-53.6713427661
 20
111.2190480371
 11
-55.381717251
 21
112.0742352796
  0
LINE
  5
46B
100
AcDbEntity
  8
RACCORDO
100
AcDbLine
 62
250
  6
CONTINUOUS
 10
-57.0622398974
 20
113.1767790958
 11
-55.4842259917
 21
112.387772143
  0
LINE
  5
46C
100
AcDbEntity
  8
RACCORDO
100
AcDbLine
 62
250
  6
CONTINUOUS
 10
-53.1980862767
 20
111.2447022854
 11
-52.1819813675
 21
110.7366498309
  0
LINE
  5
46D
100
AcDbEntity
  8
RACCORDO
100
AcDbLine
 62
250
  6
CONTINUOUS
 10
-53.47279373
 20
111.4997219424
 11
-55.1831697815
 21
112.3549099681
  0
LINE
  5
46E
100
AcDbEntity
  8
RACCORDO
100
AcDbLine
 62
250
  6
CONTINUOUS
 10
-56.7843334709
 20
113.6620897106
 11
-51.5401968236
 21
111.0400213869
  0
LWPOLYLINE
  5
46F
100
AcDbEntity
  8
ASSI
100
AcDbPolyline
 62
7
  6
CONTINUOUS
 90
28
 70
0
 10
-24.3598286119
 20
93.397986151
 10
-24.3152561704
 20
93.3748826856
 10
-24.2706373752
 20
93.3499036801
 10
-24.226019924
 20
93.323055249
 10
-24.1813108192
 20
93.2943308904
 10
-24.1367021071
 20
93.2637509395
 10
-24.0926672604
 20
93.231390497
 10
-24.049206749
 20
93.1972997554
 10
-24.0064136109
 20
93.1615096859
 10
-23.9648899358
 20
93.1241206708
 10
-23.9246832775
 20
93.0852519322
 10
-23.8858177475
 20
93.0449262427
 10
-23.8488465608
 20
93.003138353
 10
-23.8137438275
 20
92.9599456638
 10
-23.7805848741
 20
92.9154479071
 10
-23.7500569117
 20
92.8697335353
 10
-23.7221255594
 20
92.8228991683
 10
-23.6968367342
 20
92.7750309905
 10
-23.6749714549
 20
92.7262357794
 10
-23.6564287117
 20
92.6761230417
 10
-23.6412869192
 20
92.6252633138
 10
-23.6305155284
 20
92.5752943662
 10
-23.6243873967
 20
92.5264115882
 10
-23.6224509264
 20
92.4787071498
 10
-23.6244862867
 20
92.433755052
 10
-23.6303275388
 20
92.3921753269
 10
-23.6399073364
 20
92.3535943105
 10
-23.6531285161
 20
92.3181016488
  0
LWPOLYLINE
  5
470
100
AcDbEntity
  8
RACCORDO
100
AcDbPolyline
 62
250
  6
CONTINUOUS
 90
7
 70
0
 10
-57.2706697173
 20
112.3023431542
 10
-57.2927174187
 20
112.3138990438
 10
-57.3136100505
 20
112.3259084103
 10
-57.3333476127
 20
112.3383712538
 10
-57.3519301053
 20
112.3512875741
 10
-57.3693575283
 20
112.3646573714
 10
-57.3856298818
 20
112.3784806455
  0
LWPOLYLINE
  5
471
100
AcDbEntity
  8
RACCORDO
100
AcDbPolyline
 62
250
  6
CONTINUOUS
 90
7
 70
0
 10
-57.0622644279
 20
112.666338444
 10
-57.0748055548
 20
112.6729124896
 10
-57.086739972
 20
112.679786964
 10
-57.0980428045
 20
112.6869478942
 10
-57.1086904605
 20
112.6943807507
 10
-57.1186606815
 20
112.7020704761
 10
-57.1279325894
 20
112.7100015166
  0
LWPOLYLINE
  5
472
100
AcDbEntity
  8
ASSI
100
AcDbPolyline
 62
7
  6
CONTINUOUS
 90
28
 70
0
 10
-42.4614930856
 20
104.1769814151
 10
-42.4408362825
 20
104.1658996701
 10
-42.4203885666
 20
104.1534839662
 10
-42.4001499377
 20
104.1397343034
 10
-42.3800539669
 20
104.1245954656
 10
-42.3601670832
 20
104.1081226689
 10
-42.3406885738
 20
104.0904815617
 10
-42.3216225048
 20
104.071660564
 10
-42.30296481
 20
104.0516712558
 10
-42.2849025785
 20
104.0307140255
 10
-42.2674416761
 20
104.0087791981
 10
-42.2505762369
 20
103.9858764487
 10
-42.2344757532
 20
103.9622351904
 10
-42.2191477475
 20
103.937847913
 10
-42.2045846972
 20
103.9127221267
 10
-42.1909335268
 20
103.8871097753
 10
-42.1782032502
 20
103.8610057662
 10
-42.1663848535
 20
103.834415192
 10
-42.1555982196
 20
103.8076052737
 10
-42.1458536263
 20
103.7805735196
 10
-42.1371407959
 20
103.7533224215
 10
-42.1295487785
 20
103.7261266762
 10
-42.1230888509
 20
103.698986576
 10
-42.1177497364
 20
103.6719018285
 10
-42.1135866541
 20
103.645146254
 10
-42.1106180104
 20
103.6188111259
 10
-42.1088253989
 20
103.5928051707
 10
-42.1082088197
 20
103.5671283886
  0
LWPOLYLINE
  5
473
100
AcDbEntity
  8
ASSI
100
AcDbPolyline
 62
7
  6
CONTINUOUS
 90
39
 70
0
 10
-23.3698791182
 20
93.8929608979
 10
-23.2790631986
 20
93.8438089559
 10
-23.1893959004
 20
93.7881590238
 10
-23.1008772234
 20
93.7260111016
 10
-23.0131390077
 20
93.6570443296
 10
-22.9265494132
 20
93.5815795676
 10
-22.8422129206
 20
93.5005793948
 10
-22.7601583915
 20
93.4139729037
 10
-22.6803569643
 20
93.3218310019
 10
-22.6038265338
 20
93.2253289914
 10
-22.530609001
 20
93.1244110201
 10
-22.460662465
 20
93.0191329401
 10
-22.3948791182
 20
92.9108376101
 10
-22.3333122904
 20
92.7994863796
 10
-22.2759086518
 20
92.6851178991
 10
-22.2234004059
 20
92.5691909783
 10
-22.1758502617
 20
92.451685654
 10
-22.1331955101
 20
92.3326218894
 10
-22.0959802275
 20
92.2135183845
 10
-22.0642740923
 20
92.09437463
 10
-22.038007426
 20
91.9751911352
 10
-22.017515269
 20
91.8574881269
 10
-22.0028715918
 20
91.7412845701
 10
-21.994002424
 20
91.6265614998
 10
-21.9910208949
 20
91.5147822488
 10
-21.994002424
 20
91.405984527
 10
-22.0028715918
 20
91.3001306245
 10
-22.017515269
 20
91.1985707448
 10
-22.038007426
 20
91.1013598935
 10
-22.0642740923
 20
91.008443065
 10
-22.0959802275
 20
90.9210054457
 10
-22.1331955101
 20
90.8391172234
 10
-22.1758502617
 20
90.7627082104
 10
-22.2234004059
 20
90.6927530303
 10
-22.2759086518
 20
90.6293343555
 10
-22.3333122904
 20
90.5723695135
 10
-22.3948791182
 20
90.5225851109
 10
-22.460662465
 20
90.4800731276
 10
-22.4978428512
 20
90.460138823
  0
LWPOLYLINE
  5
474
100
AcDbEntity
  8
0
100
AcDbPolyline
 62
7
  6
CONTINUOUS
 90
19
 70
0
 10
-43.4687222119
 20
103.6271054291
 10
-43.4375572864
 20
103.6097730553
 10
-43.4070860144
 20
103.5896229351
 10
-43.3773083959
 20
103.5666550684
 10
-43.3480105686
 20
103.5406542083
 10
-43.3194063947
 20
103.5118356018
 10
-43.2921374613
 20
103.48084499
 10
-43.2662333695
 20
103.4476333624
 10
-43.2416645182
 20
103.4122497296
 10
-43.2189836913
 20
103.3754868635
 10
-43.1982328658
 20
103.3373128502
 10
-43.1793700647
 20
103.2977596037
 10
-43.1628221412
 20
103.2577156386
 10
-43.1486411126
 20
103.2171686592
 10
-43.1367749614
 20
103.1761309613
 10
-43.1274944891
 20
103.1355279464
 10
-43.1208899626
 20
103.095668082
 10
-43.1168711149
 20
103.0562429007
 10
-43.115437946
 20
103.0172524026
  0
LWPOLYLINE
  5
475
100
AcDbEntity
  8
RACCORDO
100
AcDbPolyline
 62
7
  6
CONTINUOUS
 90
16
 70
0
 10
-48.75905169
 20
106.4174404838
 10
-48.7440088814
 20
106.4088847943
 10
-48.7294420626
 20
106.3987759562
 10
-48.7153512334
 20
106.3871139694
 10
-48.701593665
 20
106.3737382802
 10
-48.6883120863
 20
106.3588094424
 10
-48.6759346842
 20
106.3428091171
 10
-48.6644909145
 20
106.32570249
 10
-48.6539513214
 20
106.3075243754
 10
-48.6446557239
 20
106.2888608774
 10
-48.6366445736
 20
106.2696961479
 10
-48.629877419
 20
106.2500460349
 10
-48.6245727251
 20
106.2305441863
 10
-48.6208033136
 20
106.211401818
 10
-48.6184963629
 20
106.1924077141
 10
-48.6176518729
 20
106.1735618744
  0
LWPOLYLINE
  5
476
100
AcDbEntity
  8
RACCORDO
100
AcDbPolyline
 62
250
  6
CONTINUOUS
 90
6
 70
0
 10
-55.5494412732
 20
112.1698003743
 10
-55.5238331794
 20
112.1552215575
 10
-55.5022031174
 20
112.1391119139
 10
-55.4849130161
 20
112.1217410011
 10
-55.4722521856
 20
112.1033994812
 10
-55.466437696
 20
112.0892677966
  0
LWPOLYLINE
  5
477
100
AcDbEntity
  8
DRAFT
100
AcDbPolyline
 62
7
  6
CONTINUOUS
 90
3
 70
0
 10
-50.8315480842
 20
111.3477510348
 10
-50.7940166518
 20
111.3107851052
 10
-50.7868928718
 20
111.304714225
  0
LINE
  5
478
100
AcDbEntity
  8
DRAFT
100
AcDbLine
 62
7
  6
CONTINUOUS
 10
-44.3690522528
 20
108.851349949
 11
-44.3012668347
 21
108.7633477894
  0
LINE
  5
479
100
AcDbEntity
  8
DRAFT
100
AcDbLine
 62
7
  6
CONTINUOUS
 10
-44.3012668347
 20
108.7633477894
 11
-44.2336634112
 21
108.6750973028
  0
LINE
  5
47A
100
AcDbEntity
  8
DRAFT
100
AcDbLine
 62
7
  6
CONTINUOUS
 10
-44.2336634112
 20
108.6750973028
 11
-44.1662424071
 21
108.5865990459
  0
LWPOLYLINE
  5
47B
100
AcDbEntity
  8
DRAFT
100
AcDbPolyline
 62
7
  6
CONTINUOUS
 90
3
 70
0
 10
-44.1662424071
 20
108.5865990459
 10
-44.0990055209
 20
108.4978552453
 10
-44.0654560158
 20
108.4533911269
  0
LWPOLYLINE
  5
47C
100
AcDbEntity
  8
RACCORDO
100
AcDbPolyline
 62
7
  6
CONTINUOUS
 90
10
 70
0
 10
-42.1851795005
 20
105.7479616051
 10
-42.3264742942
 20
105.9671455655
 10
-42.4688806285
 20
106.1852219191
 10
-42.6123985033
 20
106.4021906662
 10
-42.75704094
 20
106.6180709974
 10
-42.9027949173
 20
106.8328437219
 10
-43.0496213709
 20
107.0464512673
 10
-43.1975072796
 20
107.2588744427
 10
-43.3464656646
 20
107.4701324388
 10
-43.4964965261
 20
107.6802252558
  0
LWPOLYLINE
  5
47D
100
AcDbEntity
  8
ASSI
100
AcDbPolyline
 62
7
  6
CONTINUOUS
 90
3
 70
0
 10
-40.7763371274
 20
115.2007624465
 10
-40.7558449705
 20
115.0830594382
 10
-40.7412012933
 20
114.9668558813
  0
LWPOLYLINE
  5
47E
100
AcDbEntity
  8
RACCORDO
100
AcDbPolyline
 62
7
  6
CONTINUOUS
 90
13
 70
0
 10
-35.0615142747
 20
112.0670867339
 10
-35.0641011609
 20
112.1316337363
 10
-35.0724134163
 20
112.1983626855
 10
-35.0864497323
 20
112.2632022915
 10
-35.106174129
 20
112.325766088
 10
-35.1313787667
 20
112.3853765931
 10
-35.1617678598
 20
112.4414761263
 10
-35.1970758498
 20
112.4937402372
 10
-35.2368686526
 20
112.5416689283
 10
-35.2806088722
 20
112.5848314906
 10
-35.3277541441
 20
112.6229478328
 10
-35.3776887937
 20
112.6557742001
 10
-35.4148125899
 20
112.6759457131
  0
LWPOLYLINE
  5
47F
100
AcDbEntity
  8
RACCORDO
100
AcDbPolyline
 62
7
  6
CONTINUOUS
 90
8
 70
0
 10
-35.361556571
 20
102.4039934605
 10
-35.3639531086
 20
102.4750308269
 10
-35.3716568368
 20
102.5507369323
 10
-35.3845478571
 20
102.6265580382
 10
-35.4024584858
 20
102.7020017049
 10
-35.4249242689
 20
102.7757998117
 10
-35.4515027228
 20
102.8473841692
 10
-35.4844965202
 20
102.9220714567
  0
LWPOLYLINE
  5
480
100
AcDbEntity
  8
RACCORDO
100
AcDbPolyline
 62
250
  6
CONTINUOUS
 90
10
 70
0
 10
-35.5018863953
 20
102.2305913418
 10
-35.5033424291
 20
102.289255254
 10
-35.5080776726
 20
102.3502632506
 10
-35.5162380576
 20
102.413393714
 10
-35.5278493847
 20
102.4778684291
 10
-35.5430725118
 20
102.5439162794
 10
-35.5624745532
 20
102.6127995659
 10
-35.5865548467
 20
102.6846662305
 10
-35.6154614555
 20
102.7585168262
 10
-35.6494293923
 20
102.8337822278
  0
LINE
  5
481
100
AcDbEntity
  8
RACCORDO
100
AcDbLine
 62
250
  6
CONTINUOUS
 10
-35.5018863953
 20
73.8131962661
 11
-35.5018863953
 21
102.2305913418
  0
LINE
  5
482
100
AcDbEntity
  8
RACCORDO
100
AcDbLine
 62
7
  6
CONTINUOUS
 10
-35.3615562955
 20
73.9868608587
 11
-35.3615562955
 21
102.4042559212
  0
LINE
  5
483
100
AcDbEntity
  8
RACCORDO
100
AcDbLine
 62
250
  6
CONTINUOUS
 10
-35.201844348
 20
111.8933406846
 11
-35.201844348
 21
107.7507894171
  0
LINE
  5
484
100
AcDbEntity
  8
RACCORDO
100
AcDbLine
 62
250
  6
CONTINUOUS
 10
-35.201844348
 20
95.0848667544
 11
-35.201844348
 21
94.1202958583
  0
LINE
  5
485
100
AcDbEntity
  8
RACCORDO
100
AcDbLine
 62
7
  6
CONTINUOUS
 10
-35.0615142747
 20
112.0670867339
 11
-35.0615142482
 21
107.8190287225
  0
LINE
  5
486
100
AcDbEntity
  8
RACCORDO
100
AcDbLine
 62
7
  6
CONTINUOUS
 10
-35.0615142482
 20
95.1569789251
 11
-35.0615142482
 21
94.8097119561
  0
LWPOLYLINE
  5
487
100
AcDbEntity
  8
RACCORDO
100
AcDbPolyline
 62
7
  6
CONTINUOUS
 90
43
 70
0
 10
-35.0615142482
 20
94.8097119105
 10
-35.0616465204
 20
94.7835290363
 10
-35.0620598021
 20
94.7564649266
 10
-35.0627369151
 20
94.7299361029
 10
-35.0636615167
 20
94.7039237382
 10
-35.0648160802
 20
94.6784515772
 10
-35.0661850329
 20
94.6535442289
 10
-35.0677524891
 20
94.6292048056
 10
-35.0695028701
 20
94.6054331041
 10
-35.0714226332
 20
94.5822483703
 10
-35.0734971323
 20
94.5596551971
 10
-35.0757124934
 20
94.5376503139
 10
-35.0780580367
 20
94.5162409217
 10
-35.0805196123
 20
94.4954393158
 10
-35.0830860362
 20
94.4752333345
 10
-35.0857536822
 20
94.4555934928
 10
-35.0885103709
 20
94.4365304585
 10
-35.0913475962
 20
94.4180331127
 10
-35.0942712068
 20
94.4000396646
 10
-35.0972729326
 20
94.3825497781
 10
-35.1003460276
 20
94.3655634018
 10
-35.1035032506
 20
94.3490198628
 10
-35.1067402982
 20
94.3329086119
 10
-35.1100517619
 20
94.3172402855
 10
-35.1134530374
 20
94.3019868088
 10
-35.1169391002
 20
94.2871445812
 10
-35.1205092311
 20
94.2727178675
 10
-35.1241896957
 20
94.2586914335
 10
-35.1279689649
 20
94.2450749076
 10
-35.1318572135
 20
94.2318603696
 10
-35.1359207517
 20
94.2190083948
 10
-35.1401851902
 20
94.2064200261
 10
-35.1446351914
 20
94.1941997361
 10
-35.1492810915
 20
94.1826150378
 10
-35.1541111181
 20
94.1716627018
 10
-35.1591460087
 20
94.1613518831
 10
-35.1644492209
 20
94.1519704667
 10
-35.1700721216
 20
94.1434611242
 10
-35.1759828635
 20
94.1358923207
 10
-35.1821193008
 20
94.1297405939
 10
-35.1884610887
 20
94.1251665342
 10
-35.1950349505
 20
94.1220169239
 10
-35.201844348
 20
94.1202958583
  0
LWPOLYLINE
  5
488
100
AcDbEntity
  8
ASSI
100
AcDbPolyline
 62
7
  6
CONTINUOUS
 90
3
 70
0
 10
-23.6223074231
 20
103.7546821537
 10
-23.6228352563
 20
103.7539859497
 10
-23.6232291799
 20
103.7537765121
  0
LINE
  5
489
100
AcDbEntity
  8
ASSI
100
AcDbLine
 62
250
  6
CONTINUOUS
 10
-25.3935794418
 20
92.8811107361
 11
-25.2083567493
 21
92.9737220823
  0
LINE
  5
48A
100
AcDbEntity
  8
ASSI
100
AcDbLine
 62
250
  6
CONTINUOUS
 10
-24.3598286119
 20
93.397986151
 11
-23.3698791182
 21
93.8929608979
  0
LINE
  5
48B
100
AcDbEntity
  8
ASSI
100
AcDbLine
 62
7
  6
CONTINUOUS
 10
-23.1934606319
 20
93.7906817053
 11
-11.0890385857
 21
99.8428927284
  0
LINE
  5
48C
100
AcDbEntity
  8
ASSI
100
AcDbLine
 62
7
  6
CONTINUOUS
 10
-22.9007562577
 20
93.5568067795
 11
-10.9932203873
 21
99.5105747147
  0
LINE
  5
48D
100
AcDbEntity
  8
ASSI
100
AcDbLine
 62
7
  6
CONTINUOUS
 10
-23.9980722177
 20
92.145629798
 11
-23.6531285161
 21
92.3181016488
  0
LWPOLYLINE
  5
48E
100
AcDbEntity
  8
ASSI
100
AcDbPolyline
 62
7
  6
CONTINUOUS
 90
6
 70
0
 10
-23.6531285161
 20
89.8900870469
 10
-23.6426015481
 20
89.8935357218
 10
-23.6342158752
 20
89.8960058553
 10
-23.628007162
 20
89.8975660095
 10
-23.6240159869
 20
89.898288513
 10
-23.6223074231
 20
89.8982756932
  0
LINE
  5
48F
100
AcDbEntity
  8
RACCORDO
100
AcDbLine
 62
7
  6
CONTINUOUS
 10
-43.2769395055
 20
108.8673054812
 11
-42.4293797371
 21
108.7449128015
  0
LWPOLYLINE
  5
490
100
AcDbEntity
  8
RACCORDO
100
AcDbPolyline
 62
7
  6
CONTINUOUS
 90
16
 70
0
 10
-47.449937319
 20
110.9538043879
 10
-47.4690590783
 20
110.9585085769
 10
-47.4870966452
 20
110.9628011208
 10
-47.5040500197
 20
110.9666820197
 10
-47.5199033471
 20
110.9701418836
 10
-47.5346724821
 20
110.9731901025
 10
-47.5484049888
 20
110.9758548455
 10
-47.5611210199
 20
110.9781444006
 10
-47.5728004227
 20
110.9800504798
 10
-47.5834303038
 20
110.9815763881
 10
-47.593034482
 20
110.9827306821
 10
-47.6015891385
 20
110.9835048053
 10
-47.6090099224
 20
110.9838763929
 10
-47.6153280991
 20
110.9838520743
 10
-47.6205124032
 20
110.98342522
 10
-47.6245790592
 20
110.9824837664
  0
LINE
  5
491
100
AcDbEntity
  8
RACCORDO
100
AcDbLine
 62
7
  6
CONTINUOUS
 10
-47.449937319
 20
110.9538043879
 11
-46.2394965251
 21
110.6499711955
  0
LWPOLYLINE
  5
492
100
AcDbEntity
  8
RACCORDO
100
AcDbPolyline
 62
250
  6
CONTINUOUS
 90
5
 70
0
 10
-56.8137373518
 20
113.6744855586
 10
-56.8429311809
 20
113.6831795849
 10
-56.871597465
 20
113.6880201966
 10
-56.8994340325
 20
113.6888939427
 10
-56.9261025891
 20
113.6857251985
  0
LWPOLYLINE
  5
493
100
AcDbEntity
  8
RACCORDO
100
AcDbPolyline
 62
250
  6
CONTINUOUS
 90
9
 70
0
 10
-55.3817171321
 20
112.0742353437
 10
-55.3942684428
 20
112.0795061808
 10
-55.4071187573
 20
112.08310764
 10
-55.4201855492
 20
112.0850605816
 10
-55.4335984932
 20
112.0853019442
 10
-55.4470849908
 20
112.0839611211
 10
-55.4599791298
 20
112.081388462
 10
-55.4721792943
 20
112.0776896026
 10
-55.4837217935
 20
112.0729372506
  0
LINE
  5
494
100
AcDbEntity
  8
RACCORDO
100
AcDbLine
 62
250
  6
CONTINUOUS
 10
-56.7843334709
 20
113.6620897106
 11
-56.8137373518
 21
113.6744855586
  0
LWPOLYLINE
  5
495
100
AcDbEntity
  8
RACCORDO
100
AcDbPolyline
 62
7
  6
CONTINUOUS
 90
7
 70
0
 10
-48.0103687902
 20
110.8087228394
 10
-48.0257885692
 20
110.8153681446
 10
-48.0407005398
 20
110.8199511191
 10
-48.055104702
 20
110.8224717627
 10
-48.0691478144
 20
110.8229037749
 10
-48.0826831184
 20
110.8212734563
 10
-48.0930965487
 20
110.8184522546
  0
LWPOLYLINE
  5
496
100
AcDbEntity
  8
RACCORDO
100
AcDbPolyline
 62
7
  6
CONTINUOUS
 90
7
 70
0
 10
-63.9202713669
 20
118.7636741278
 10
-63.9356911459
 20
118.770319433
 10
-63.9506031165
 20
118.7749024074
 10
-63.9650072787
 20
118.7774230511
 10
-63.9790503911
 20
118.7778550632
 10
-63.9925856951
 20
118.7762247446
 10
-64.0029991254
 20
118.7734035429
  0
LWPOLYLINE
  5
497
100
AcDbEntity
  8
RACCORDO
100
AcDbPolyline
 62
7
  6
CONTINUOUS
 90
8
 70
0
 10
-56.7100069295
 20
113.7021905849
 10
-56.7393499735
 20
113.7150003111
 10
-56.7685038516
 20
113.7239549096
 10
-56.7971400306
 20
113.7289109521
 10
-56.8250291807
 20
113.7297631022
 10
-56.8517354737
 20
113.7264263561
 10
-56.87667654
 20
113.7189912823
 10
-56.8846829495
 20
113.715571376
  0
LWPOLYLINE
  5
498
100
AcDbEntity
  8
RACCORDO
100
AcDbPolyline
 62
250
  6
CONTINUOUS
 90
9
 70
0
 10
-38.3294002426
 20
107.8577144477
 10
-38.3469405558
 20
107.8653901899
 10
-38.3725110397
 20
107.8730747554
 10
-38.3994304236
 20
107.8773060084
 10
-38.427494938
 20
107.8780518603
 10
-38.4564856721
 20
107.8753086435
 10
-38.4861823041
 20
107.8691014221
 10
-38.5163658294
 20
107.8594800851
 10
-38.5468110244
 20
107.8465199561
  0
LWPOLYLINE
  5
499
100
AcDbEntity
  8
RACCORDO
100
AcDbPolyline
 62
250
  6
CONTINUOUS
 90
13
 70
0
 10
-55.1831697815
 20
112.3549099681
 10
-55.2141698762
 20
112.3690299156
 10
-55.244604244
 20
112.3808875403
 10
-55.2744413611
 20
112.390486996
 10
-55.303876776
 20
112.3977560504
 10
-55.3325888015
 20
112.4027889924
 10
-55.3597690616
 20
112.4058431956
 10
-55.3851447682
 20
112.4069054991
 10
-55.4088367341
 20
112.4060404869
 10
-55.4306674492
 20
112.4036206161
 10
-55.450542627
 20
112.3997937848
 10
-55.4684212265
 20
112.3944929978
 10
-55.4842259917
 20
112.387772143
  0
LWPOLYLINE
  5
49A
100
AcDbEntity
  8
RACCORDO
100
AcDbPolyline
 62
7
  6
CONTINUOUS
 90
25
 70
0
 10
-43.6223003753
 20
108.9682420226
 10
-43.6116657967
 20
108.9631105673
 10
-43.6002489669
 20
108.9579243316
 10
-43.5880498859
 20
108.9526833156
 10
-43.5749443744
 20
108.9473443753
 10
-43.5610566117
 20
108.9419506547
 10
-43.5467591361
 20
108.9366315854
 10
-43.5320829841
 20
108.9314065025
 10
-43.5169971192
 20
108.9262560709
 10
-43.5017809703
 20
108.9212517177
 10
-43.4864804938
 20
108.9164092654
 10
-43.4710497333
 20
108.9117128914
 10
-43.4556302478
 20
108.9071865556
 10
-43.440252249
 20
108.9028363606
 10
-43.4248855253
 20
108.8986562038
 10
-43.4095810007
 20
108.8946517366
 10
-43.3943377515
 20
108.8908191441
 10
-43.3791567015
 20
108.8871622414
 10
-43.3640915469
 20
108.8836981245
 10
-43.3491343461
 20
108.8804210345
 10
-43.3342930407
 20
108.8773367304
 10
-43.3196451518
 20
108.8744795857
 10
-43.3052165199
 20
108.8718610582
 10
-43.2909813044
 20
108.86946969
 10
-43.2769395055
 20
108.8673054812
  0
LWPOLYLINE
  5
49B
100
AcDbEntity
  8
RACCORDO
100
AcDbPolyline
 62
7
  6
CONTINUOUS
 90
25
 70
0
 10
-59.532202952
 20
116.9231933109
 10
-59.5215683734
 20
116.9180618556
 10
-59.5101515436
 20
116.9128756199
 10
-59.4979524626
 20
116.9076346039
 10
-59.4848469511
 20
116.9022956636
 10
-59.4709591884
 20
116.896901943
 10
-59.4566617128
 20
116.8915828738
 10
-59.4419855608
 20
116.8863577908
 10
-59.4268996959
 20
116.8812073592
 10
-59.411683547
 20
116.876203006
 10
-59.3963830705
 20
116.8713605537
 10
-59.38095231
 20
116.8666641798
 10
-59.3655328245
 20
116.8621378439
 10
-59.3501548257
 20
116.857787649
 10
-59.334788102
 20
116.8536074921
 10
-59.3194835774
 20
116.8496030249
 10
-59.3042403282
 20
116.8457704325
 10
-59.2890592782
 20
116.8421135297
 10
-59.2739941236
 20
116.8386494129
 10
-59.2590369228
 20
116.8353723229
 10
-59.2441956174
 20
116.8322880188
 10
-59.2295477285
 20
116.829430874
 10
-59.2151190966
 20
116.8268123465
 10
-59.2008838811
 20
116.8244209783
 10
-59.1868420822
 20
116.8222567695
  0
LINE
  5
49C
100
AcDbEntity
  8
RACCORDO
100
AcDbLine
 62
7
  6
CONTINUOUS
 10
-56.7100069295
 20
113.7021905849
 11
-55.749297072
 21
113.2218356562
  0
LINE
  5
49D
100
AcDbEntity
  8
RACCORDO
100
AcDbLine
 62
7
  6
CONTINUOUS
 10
-51.4606836059
 20
111.0775289231
 11
-52.2259084152
 21
111.4601413277
  0
LINE
  5
49E
100
AcDbEntity
  8
DRAFT
100
AcDbLine
 62
7
  6
CONTINUOUS
 10
-59.7503383475
 20
115.8126822143
 11
-59.6798123321
 21
115.7774192066
  0
LINE
  5
49F
100
AcDbEntity
  8
DRAFT
100
AcDbLine
 62
7
  6
CONTINUOUS
 10
-43.8404357708
 20
107.8577309259
 11
-43.7699097554
 21
107.8224679183
  0
LINE
  5
4A0
100
AcDbEntity
  8
0
100
AcDbLine
 62
7
  6
CONTINUOUS
 10
-50.180254413
 20
111.5785101725
 11
-51.265241636
 21
112.121003784
  0
LINE
  5
4A1
100
AcDbEntity
  8
0
100
AcDbLine
 62
7
  6
CONTINUOUS
 10
-54.4472221514
 20
113.7119940417
 11
-56.314964122
 21
114.645865027
  0
LINE
  5
4A2
100
AcDbEntity
  8
DRAFT
100
AcDbLine
 62
7
  6
CONTINUOUS
 10
-51.265241636
 20
112.2249910818
 11
-54.4472221514
 21
113.8159813395
  0
LINE
  5
4A3
100
AcDbEntity
  8
DRAFT
100
AcDbLine
 62
7
  6
CONTINUOUS
 10
-65.8688949342
 20
119.6012712897
 11
-60.2789548295
 21
116.8063012374
  0
LINE
  5
4A4
100
AcDbEntity
  8
DRAFT
100
AcDbLine
 62
7
  6
CONTINUOUS
 10
-49.9589923575
 20
111.6463200014
 11
-44.3690522528
 21
108.851349949
  0
LINE
  5
4A5
100
AcDbEntity
  8
RACCORDO
100
AcDbLine
 62
7
  6
CONTINUOUS
 10
-63.9202713669
 20
118.7636741278
 11
-59.8234153408
 21
116.7152461147
  0
LINE
  5
4A6
100
AcDbEntity
  8
RACCORDO
100
AcDbLine
 62
7
  6
CONTINUOUS
 10
-48.0103687902
 20
110.8087228394
 11
-43.9135127641
 21
108.7602948264
  0
LINE
  5
4A7
100
AcDbEntity
  8
0
100
AcDbLine
 62
7
  6
CONTINUOUS
 10
-56.314964122
 20
115.176281749
 11
-49.3974996654
 21
111.7175495207
  0
LINE
  5
4A8
100
AcDbEntity
  8
RACCORDO
100
AcDbLine
 62
7
  6
CONTINUOUS
 10
-47.5944743977
 20
110.9543290338
 11
-43.6223003753
 21
108.9682420226
  0
LINE
  5
4A9
100
AcDbEntity
  8
RACCORDO
100
AcDbLine
 62
7
  6
CONTINUOUS
 10
-59.532202952
 20
116.9231933109
 11
-63.5043769744
 21
118.9092803221
  0
LINE
  5
4AA
100
AcDbEntity
  8
DRAFT
100
AcDbLine
 62
7
  6
CONTINUOUS
 10
-62.1493991018
 20
118.6049224839
 11
-58.3392823138
 21
116.6998640898
  0
LINE
  5
4AB
100
AcDbEntity
  8
DRAFT
100
AcDbLine
 62
7
  6
CONTINUOUS
 10
-46.2394965251
 20
110.6499711955
 11
-42.4293797371
 21
108.7449128015
  0
LINE
  5
4AC
100
AcDbEntity
  8
0
100
AcDbLine
 62
7
  6
CONTINUOUS
 10
-55.0842038199
 20
115.7446876426
 11
-48.2089682571
 21
112.3070698612
  0
LINE
  5
4AD
100
AcDbEntity
  8
0
100
AcDbLine
 62
7
  6
CONTINUOUS
 10
-48.1469241298
 20
112.2945429355
 11
-55.0199552453
 21
115.7310584932
  0
LINE
  5
4AE
100
AcDbEntity
  8
RACCORDO
100
AcDbLine
 62
250
  6
CONTINUOUS
 10
-63.9006208653
 20
120.5234248766
 11
-54.942143982
 21
116.0441864349
  0
LINE
  5
4AF
100
AcDbEntity
  8
RACCORDO
100
AcDbLine
 62
250
  6
CONTINUOUS
 10
-47.505287897
 20
112.3257583924
 11
-38.5468110105
 21
107.8465199492
  0
LINE
  5
4B0
100
AcDbEntity
  8
RACCORDO
100
AcDbLine
 62
7
  6
CONTINUOUS
 10
-50.4520472985
 20
113.8823261828
 11
-52.2905680079
 21
114.8015865375
  0
LINE
  5
4B1
100
AcDbEntity
  8
RACCORDO
100
AcDbLine
 62
7
  6
CONTINUOUS
 10
-63.6831844143
 20
120.534606536
 11
-54.939715595
 21
116.1628721264
  0
LINE
  5
4B2
100
AcDbEntity
  8
RACCORDO
100
AcDbLine
 62
7
  6
CONTINUOUS
 10
-47.0728434034
 20
112.2294360306
 11
-38.3293745841
 21
107.8577016209
  0
LWPOLYLINE
  5
4B3
100
AcDbEntity
  8
RACCORDO
100
AcDbPolyline
 62
250
  6
CONTINUOUS
 90
10
 70
0
 10
-38.5468110244
 20
107.8465199561
 10
-38.5187089845
 20
107.8310006774
 10
-38.4906638012
 20
107.8130500957
 10
-38.4629481449
 20
107.7927007678
 10
-38.4357593646
 20
107.7697748705
 10
-38.4094271317
 20
107.7444329182
 10
-38.3841785299
 20
107.7172594467
 10
-38.359993814
 20
107.6884176142
 10
-38.3368860218
 20
107.6575613018
 10
-38.3149582503
 20
107.6244637792
  0
LWPOLYLINE
  5
4B4
100
AcDbEntity
  8
ASSI
100
AcDbPolyline
 62
7
  6
CONTINUOUS
 90
19
 70
0
 10
-24.5471090242
 20
92.4838018594
 10
-24.6194395189
 20
92.5462646842
 10
-24.655095425
 20
92.5772472532
 10
-24.6904800435
 20
92.6077180748
 10
-24.725529129
 20
92.6375980777
 10
-24.760264995
 20
92.6669298156
 10
-24.7948706556
 20
92.6955641109
 10
-24.8293265025
 20
92.7234602891
 10
-24.8636093325
 20
92.7506274445
 10
-24.897896754
 20
92.7769910699
 10
-24.9321890913
 20
92.8025287601
 10
-24.9664441727
 20
92.8272287044
 10
-25.0007765401
 20
92.8510290228
 10
-25.035177725
 20
92.8739030534
 10
-25.0696138426
 20
92.8958438478
 10
-25.1041615437
 20
92.9168159771
 10
-25.1388320956
 20
92.9367947991
 10
-25.1735711375
 20
92.9557691163
 10
-25.2083567493
 20
92.9737220823
  0
LWPOLYLINE
  5
4B5
100
AcDbEntity
  8
0
100
AcDbPolyline
 62
7
  6
CONTINUOUS
 90
31
 70
0
 10
-44.3230991569
 20
116.4249687863
 10
-44.4307310624
 20
116.5875940369
 10
-44.5427096292
 20
116.7462489126
 10
-44.6582767185
 20
116.8998592578
 10
-44.777456681
 20
117.048390842
 10
-44.900225166
 20
117.1918778956
 10
-45.0257509829
 20
117.3293489553
 10
-45.154052842
 20
117.4607631983
 10
-45.285112033
 20
117.5861614473
 10
-45.4180412337
 20
117.7046947071
 10
-45.5528531336
 20
117.8163163939
 10
-45.6895350432
 20
117.9210730916
 10
-45.8271615727
 20
118.0182555561
 10
-45.9657391318
 20
118.1078123911
 10
-46.1052613107
 20
118.1897949931
 10
-46.2447834896
 20
118.2636483077
 10
-46.3843056685
 20
118.329317172
 10
-46.5238278474
 20
118.3868567489
 10
-46.6624054065
 20
118.435877473
 10
-46.800031936
 20
118.4763215379
 10
-46.9367138456
 20
118.50824675
 10
-47.0715257455
 20
118.531436963
 10
-47.2044549462
 20
118.545832904
 10
-47.3355141372
 20
118.5514938459
 10
-47.4638159963
 20
118.548381462
 10
-47.5893418132
 20
118.5364362192
 10
-47.7121102982
 20
118.5157176505
 10
-47.8312902607
 20
118.4863660289
 10
-47.94685735
 20
118.448322773
 10
-48.0588359168
 20
118.401646464
 10
-48.1007122235
 20
118.3815003449
  0
LWPOLYLINE
  5
4B6
100
AcDbEntity
  8
RACCORDO
100
AcDbPolyline
 62
7
  6
CONTINUOUS
 90
10
 70
0
 10
-38.131717344
 20
107.6798142409
 10
-37.8107998905
 20
107.1702085068
 10
-37.4962452507
 20
106.6552691329
 10
-37.1882007307
 20
106.1352399978
 10
-36.886811519
 20
105.6103687358
 10
-36.5922180413
 20
105.0809021517
 10
-36.3045561365
 20
104.5470860635
 10
-36.0239603341
 20
104.0091711975
 10
-35.7505635576
 20
103.4674131267
 10
-35.4844946499
 20
102.922067649
  0
LWPOLYLINE
  5
4B7
100
AcDbEntity
  8
0
100
AcDbPolyline
 62
7
  6
CONTINUOUS
 90
4
 70
0
 10
-44.0270415466
 20
115.9143449414
 10
-44.12093432
 20
116.0877532772
 10
-44.2198434078
 20
116.2583462192
 10
-44.3230991569
 20
116.4249687863
  0
LINE
  5
4B8
100
AcDbEntity
  8
0
100
AcDbLine
 62
7
  6
CONTINUOUS
 10
-43.9386438807
 20
115.7389843957
 11
-44.0270415466
 21
115.9143449414
  0
LWPOLYLINE
  5
4B9
100
AcDbEntity
  8
RACCORDO
100
AcDbPolyline
 62
250
  6
CONTINUOUS
 90
10
 70
0
 10
-35.6494293923
 20
102.8337822278
 10
-35.933991756
 20
103.4164244802
 10
-36.222120128
 20
103.985788333
 10
-36.5132761524
 20
104.5417741001
 10
-36.8062974094
 20
105.0831442886
 10
-37.1012905745
 20
105.6110373793
 10
-37.3997802094
 20
106.1288678144
 10
-37.7021062473
 20
106.6376767026
 10
-38.0072753994
 20
107.13622994
 10
-38.3149583095
 20
107.6244638718
  0
LWPOLYLINE
  5
4BA
100
AcDbEntity
  8
RACCORDO
100
AcDbPolyline
 62
7
  6
CONTINUOUS
 90
11
 70
0
 10
-40.7963009698
 20
115.0379520286
 10
-40.8305505178
 20
115.1187107038
 10
-40.8682862175
 20
115.1945032685
 10
-40.9095080689
 20
115.2653297226
 10
-40.9547885664
 20
115.3316311404
 10
-41.0035552156
 20
115.3929664477
 10
-41.0540905334
 20
115.4480124217
 10
-41.1063209072
 20
115.4964229329
 10
-41.1603199496
 20
115.5385441108
 10
-41.2145910149
 20
115.5740911213
 10
-41.2542814722
 20
115.5957825484
  0
LINE
  5
4BB
100
AcDbEntity
  8
RACCORDO
100
AcDbLine
 62
7
  6
CONTINUOUS
 10
-40.7963009698
 20
115.0379520286
 11
-40.6957389277
 21
114.7743185601
  0
LWPOLYLINE
  5
4BC
100
AcDbEntity
  8
RACCORDO
100
AcDbPolyline
 62
250
  6
CONTINUOUS
 90
9
 70
0
 10
-34.5635288729
 20
95.4128813038
 10
-34.5511574987
 20
95.3746025523
 10
-34.5032611422
 20
95.2029650545
 10
-34.4630535027
 20
95.031771046
 10
-34.4306941811
 20
94.8617000663
 10
-34.4063116249
 20
94.6934271973
 10
-34.3900026184
 20
94.5276203835
 10
-34.3818318988
 20
94.3649377804
 10
-34.381831899
 20
94.2931361821
  0
LWPOLYLINE
  5
4BD
100
AcDbEntity
  8
RACCORDO
100
AcDbPolyline
 62
7
  6
CONTINUOUS
 90
8
 70
0
 10
-34.4724593049
 20
95.4596797044
 10
-34.4240222529
 20
95.2873521652
 10
-34.3832446643
 20
95.1136968589
 10
-34.3506457274
 20
94.9403652434
 10
-34.3264688781
 20
94.7681848604
 10
-34.3109155402
 20
94.5981573783
 10
-34.3040883264
 20
94.4308582985
 10
-34.305307953
 20
94.3303480199
  0
LWPOLYLINE
  5
4BE
100
AcDbEntity
  8
RACCORDO
100
AcDbPolyline
 62
250
  6
CONTINUOUS
 90
6
 70
0
 10
-35.5531095623
 20
73.5145510836
 10
-35.535984748
 20
73.5636381576
 10
-35.5217859483
 20
73.6178789047
 10
-35.5109572622
 20
73.6777822411
 10
-35.5041485582
 20
73.7429250489
 10
-35.5018863953
 20
73.8131962661
  0
LWPOLYLINE
  5
4BF
100
AcDbEntity
  8
0
100
AcDbPolyline
 62
7
  6
CONTINUOUS
 90
20
 70
0
 10
-25.6505250542
 20
87.7322141078
 10
-25.5847694555
 20
87.7670613337
 10
-25.4815137064
 20
87.8304281517
 10
-25.3826046185
 20
87.9021120059
 10
-25.2887118452
 20
87.9816275684
 10
-25.1998694256
 20
88.0690279828
 10
-25.1160433205
 20
88.1642601057
 10
-25.0378010654
 20
88.2666791781
 10
-24.9651805508
 20
88.3763339686
 10
-24.8981438862
 20
88.4931757087
 10
-24.8371449361
 20
88.616413334
 10
-24.7822246707
 20
88.7460902453
 10
-24.7333421198
 20
88.8821630418
 10
-24.6908282374
 20
89.0237104574
 10
-24.6547262394
 20
89.1707696414
 10
-24.6249929099
 20
89.3233034446
 10
-24.6018295552
 20
89.4802791533
 10
-24.5853032774
 20
89.6413525299
 10
-24.5753469744
 20
89.806867812
 10
-24.5719606462
 20
89.9768249997
  0
LWPOLYLINE
  5
4C0
100
AcDbEntity
  8
ASSI
100
AcDbPolyline
 62
7
  6
CONTINUOUS
 90
6
 70
0
 10
-24.200823879
 20
89.608572702
 10
-24.1645855433
 20
89.6270283393
 10
-24.1288884308
 20
89.6457874848
 10
-24.0944088906
 20
89.6643526564
 10
-24.0612052987
 20
89.6825505139
 10
-23.9980722177
 20
89.7176151961
  0
LINE
  5
4C1
100
AcDbEntity
  8
ASSI
100
AcDbLine
 62
7
  6
CONTINUOUS
 10
-22.0062379452
 20
91.7679979582
 11
-10.4297255763
 21
97.5562541427
  0
LINE
  5
4C2
100
AcDbEntity
  8
ASSI
100
AcDbLine
 62
7
  6
CONTINUOUS
 10
-23.9980722177
 20
89.7176151961
 11
-23.6531285161
 21
89.8900870469
  0
LINE
  5
4C3
100
AcDbEntity
  8
ASSI
100
AcDbLine
 62
7
  6
CONTINUOUS
 10
-24.6133335308
 20
89.4023178761
 11
-24.2008233902
 21
89.6085729464
  0
LINE
  5
4C4
100
AcDbEntity
  8
ASSI
100
AcDbLine
 62
7
  6
CONTINUOUS
 10
-23.6232289485
 20
89.8973701673
 11
-22.497812607
 21
90.460078338
  0
LINE
  5
4C5
100
AcDbEntity
  8
0
100
AcDbLine
 62
7
  6
CONTINUOUS
 10
-25.6505173668
 20
87.7321987281
 11
-27.2931286803
 21
86.9108930713
  0
LWPOLYLINE
  5
4C6
100
AcDbEntity
  8
ASSI
100
AcDbPolyline
 62
7
  6
CONTINUOUS
 90
5
 70
0
 10
-23.6232291799
 20
89.8973700516
 10
-23.6257568363
 20
89.8963159891
 10
-23.6310499124
 20
89.8945875993
 10
-23.638624417
 20
89.8925411124
 10
-23.6485682852
 20
89.8902393732
  0
LWPOLYLINE
  5
4C7
100
AcDbEntity
  8
RACCORDO
100
AcDbPolyline
 62
7
  6
CONTINUOUS
 90
8
 70
0
 10
-57.5086194786
 20
108.864727982
 10
-57.5345330654
 20
108.8586044124
 10
-57.5570516211
 20
108.8538911546
 10
-57.5763548016
 20
108.8507957529
 10
-57.5927073195
 20
108.8495457003
 10
-57.6062824609
 20
108.8501404567
 10
-57.61706609
 20
108.8524840089
 10
-57.6210794265
 20
108.8541590482
  0
LWPOLYLINE
  5
4C8
100
AcDbEntity
  8
RACCORDO
100
AcDbPolyline
 62
250
  6
CONTINUOUS
 90
16
 70
0
 10
-49.2956562395
 20
114.1213078527
 10
-49.3044532756
 20
114.1195944872
 10
-49.3132744453
 20
114.117686602
 10
-49.3221197485
 20
114.1155841972
 10
-49.3309908953
 20
114.1132864118
 10
-49.3398861757
 20
114.1107941068
 10
-49.3488004592
 20
114.1081098647
 10
-49.3577350761
 20
114.1052331324
 10
-49.3666886961
 20
114.102164463
 10
-49.3756521985
 20
114.0989080978
 10
-49.3846155783
 20
114.095468695
 10
-49.3935888406
 20
114.0918415965
 10
-49.4025928801
 20
114.0880170692
 10
-49.4116346617
 20
114.0839918688
 10
-49.4207072205
 20
114.0797692397
 10
-49.4298105566
 20
114.0753491818
  0
LINE
  5
4C9
100
AcDbEntity
  8
RACCORDO
100
AcDbLine
 62
250
  6
CONTINUOUS
 10
-48.4248574816
 20
114.2813308629
 11
-49.2956562395
 21
114.1213078527
  0
LWPOLYLINE
  5
4CA
100
AcDbEntity
  8
DRAFT
100
AcDbPolyline
 62
7
  6
CONTINUOUS
 90
23
 70
0
 10
-42.2870617869
 20
113.0017669894
 10
-42.284958376
 20
113.0017901876
 10
-42.1048136952
 20
112.9978761934
 10
-41.9246693454
 20
112.9881360543
 10
-41.7468235387
 20
112.9726941611
 10
-41.5713060619
 20
112.9514775167
 10
-41.3980871282
 20
112.9245591182
 10
-41.2293755897
 20
112.8922823479
 10
-41.0652289832
 20
112.8545785536
 10
-40.905589772
 20
112.8115163876
 10
-40.7524941974
 20
112.7636451884
 10
-40.6060261873
 20
112.7109034028
 10
-40.466101814
 20
112.653352584
 10
-40.3345055356
 20
112.5917267299
 10
-40.2113439793
 20
112.5259736667
 10
-40.0965105181
 20
112.4561455682
 10
-39.9914697288
 20
112.3831329541
 10
-39.8963469544
 20
112.3068949788
 10
-39.811016852
 20
112.227472488
 10
-39.7365679696
 20
112.1458785378
 10
-39.6731397163
 20
112.0620854122
 10
-39.6205926831
 20
111.9761208273
 10
-39.5868406396
 20
111.9044599622
  0
LWPOLYLINE
  5
4CB
100
AcDbEntity
  8
DRAFT
100
AcDbPolyline
 62
7
  6
CONTINUOUS
 90
18
 70
0
 10
-42.2870617869
 20
112.5807506759
 10
-42.2590643516
 20
112.5805778997
 10
-42.1572942738
 20
112.5780563055
 10
-42.0546827461
 20
112.5737048559
 10
-41.9512779411
 20
112.5674549546
 10
-41.8465714232
 20
112.5590251281
 10
-41.7400041031
 20
112.5483778537
 10
-41.6321350702
 20
112.535550654
 10
-41.5241331567
 20
112.5203746227
 10
-41.4157408129
 20
112.5027225709
 10
-41.3072155886
 20
112.4827216874
 10
-41.2004989653
 20
112.4605846321
 10
-41.0957035908
 20
112.4362047279
 10
-40.9927168174
 20
112.4096886518
 10
-40.8931421834
 20
112.3815690952
 10
-40.7975142017
 20
112.3520236218
 10
-40.7052983595
 20
112.3208746679
 10
-40.6164946567
 20
112.2881222335
  0
LWPOLYLINE
  5
4CC
100
AcDbEntity
  8
RACCORDO
100
AcDbPolyline
 62
7
  6
CONTINUOUS
 90
10
 70
0
 10
-47.505287897
 20
112.3257583924
 10
-47.4441735092
 20
112.3235842572
 10
-47.3852097966
 20
112.3184480261
 10
-47.328586773
 20
112.3105012858
 10
-47.2744191949
 20
112.2998801975
 10
-47.2228794034
 20
112.2868305138
 10
-47.1742096721
 20
112.2716650007
 10
-47.1286538546
 20
112.2546417973
 10
-47.0861147528
 20
112.2359094813
 10
-47.0728349995
 20
112.229431828
  0
LWPOLYLINE
  5
4CD
100
AcDbEntity
  8
RACCORDO
100
AcDbPolyline
 62
250
  6
CONTINUOUS
 90
18
 70
0
 10
-42.2870617869
 20
112.220917728
 10
-42.2284768409
 20
112.2167395994
 10
-42.1549381144
 20
112.2104383938
 10
-42.0846715808
 20
112.20335236
 10
-42.0176441492
 20
112.1954407191
 10
-41.9534694051
 20
112.1870123249
 10
-41.8921616582
 20
112.1781016844
 10
-41.8337065988
 20
112.1686742906
 10
-41.7776748823
 20
112.1589354768
 10
-41.7240702988
 20
112.148913955
 10
-41.6728890581
 20
112.1385810133
 10
-41.6236904458
 20
112.1280558486
 10
-41.5764713009
 20
112.1173613094
 10
-41.5312347843
 20
112.1064745473
 10
-41.4875496644
 20
112.0954462136
 10
-41.4452721974
 20
112.0842931923
 10
-41.4045461269
 20
112.0729985995
 10
-41.3653714532
 20
112.0615624352
  0
LINE
  5
4CE
100
AcDbEntity
  8
0
100
AcDbLine
 62
7
  6
CONTINUOUS
 10
-48.2089682571
 20
112.3070698612
 11
-48.1469241298
 21
112.2945429355
  0
LINE
  5
4CF
100
AcDbEntity
  8
0
100
AcDbLine
 62
7
  6
CONTINUOUS
 10
-55.0842038199
 20
115.7446876426
 11
-55.0199552453
 21
115.7310584932
  0
LWPOLYLINE
  5
4D0
100
AcDbEntity
  8
ASSI
100
AcDbPolyline
 62
7
  6
CONTINUOUS
 90
5
 70
0
 10
-23.9980722177
 20
106.0020362586
 10
-24.039717284
 20
106.0122332851
 10
-24.081026887
 20
106.0254240438
 10
-24.1220559807
 20
106.0415535591
 10
-24.1589719006
 20
106.0588179594
  0
LWPOLYLINE
  5
4D1
100
AcDbEntity
  8
RACCORDO
100
AcDbPolyline
 62
7
  6
CONTINUOUS
 90
16
 70
0
 10
-63.3598398957
 20
118.9087556763
 10
-63.378961655
 20
118.9134598653
 10
-63.3969992219
 20
118.9177524092
 10
-63.4139525964
 20
118.921633308
 10
-63.4298059238
 20
118.925093172
 10
-63.4445750588
 20
118.9281413909
 10
-63.4583075655
 20
118.9308061339
 10
-63.4710235966
 20
118.933095689
 10
-63.4827029994
 20
118.9350017681
 10
-63.4933328804
 20
118.9365276764
 10
-63.5029370587
 20
118.9376819705
 10
-63.5114917152
 20
118.9384560937
 10
-63.5189124991
 20
118.9388276812
 10
-63.5252306758
 20
118.9388033626
 10
-63.5304149799
 20
118.9383765084
 10
-63.5344816359
 20
118.9374350547
  0
LINE
  5
4D2
100
AcDbEntity
  8
RACCORDO
100
AcDbLine
 62
7
  6
CONTINUOUS
 10
-63.3598398957
 20
118.9087556763
 11
-62.1493991018
 21
118.6049224839
  0
LWPOLYLINE
  5
4D3
100
AcDbEntity
  8
RACCORDO
100
AcDbPolyline
 62
7
  6
CONTINUOUS
 90
9
 70
0
 10
-41.2837729655
 20
112.0726775094
 10
-41.2898897061
 20
112.0742770071
 10
-41.2996599198
 20
112.075809821
 10
-41.3099861153
 20
112.0762252654
 10
-41.3207733124
 20
112.0755234929
 10
-41.3317365714
 20
112.0737049615
 10
-41.3427809121
 20
112.070769824
 10
-41.3540013146
 20
112.0667179276
 10
-41.3653977788
 20
112.0615492724
  0
LWPOLYLINE
  5
4D4
100
AcDbEntity
  8
RACCORDO
100
AcDbPolyline
 62
7
  6
CONTINUOUS
 90
10
 70
0
 10
-41.2837831018
 20
112.072653557
 10
-41.3924984484
 20
112.1039394027
 10
-41.5073534913
 20
112.1332930798
 10
-41.6246149153
 20
112.1596201499
 10
-41.7439880801
 20
112.1828822417
 10
-41.8652084517
 20
112.2030527945
 10
-41.9880378212
 20
112.2201120698
 10
-42.1121866186
 20
112.2340359113
 10
-42.2373700817
 20
112.2448065803
 10
-42.2870617869
 20
112.24780724
  0
LWPOLYLINE
  5
4D5
100
AcDbEntity
  8
RACCORDO
100
AcDbPolyline
 62
7
  6
CONTINUOUS
 90
6
 70
0
 10
-52.2905680079
 20
114.8015865375
 10
-52.3095232495
 20
114.8093760226
 10
-52.3275622178
 20
114.8140013167
 10
-52.3446849131
 20
114.8154624196
 10
-52.3611496708
 20
114.8136769463
 10
-52.3778716847
 20
114.8082054527
  0
LWPOLYLINE
  5
4D6
100
AcDbEntity
  8
RACCORDO
100
AcDbPolyline
 62
7
  6
CONTINUOUS
 90
3
 70
0
 10
-41.2717322838
 20
112.0678597288
 10
-41.2805804941
 20
112.0716269764
 10
-41.2837729655
 20
112.0726775094
  0
LWPOLYLINE
  5
4D7
100
AcDbEntity
  8
DRAFT
100
AcDbPolyline
 62
7
  6
CONTINUOUS
 90
10
 70
0
 10
-40.4925015587
 20
112.2257930057
 10
-40.4563959342
 20
112.2100852785
 10
-40.4208613293
 20
112.1940767899
 10
-40.3858977442
 20
112.1777675398
 10
-40.3514950109
 20
112.1611524444
 10
-40.3176632973
 20
112.1442365876
 10
-40.2844331066
 20
112.127035221
 10
-40.2518146064
 20
112.1095534284
 10
-40.2197976291
 20
112.091786126
 10
-40.1883821747
 20
112.0737333138
  0
LINE
  5
4D8
100
AcDbEntity
  8
DRAFT
100
AcDbLine
 62
7
  6
CONTINUOUS
 10
-40.0884239848
 20
112.0240868976
 11
-40.1883821747
 21
112.0737333138
  0
LINE
  5
4D9
100
AcDbEntity
  8
RACCORDO
100
AcDbLine
 62
250
  6
CONTINUOUS
 10
-51.3784350174
 20
115.2228397796
 11
-49.5712107084
 21
114.3192276251
  0
LINE
  5
4DA
100
AcDbEntity
  8
RACCORDO
100
AcDbLine
 62
250
  6
CONTINUOUS
 10
-51.2053794113
 20
115.2776070967
 11
-49.4029216592
 21
114.3763782207
  0
LINE
  5
4DB
100
AcDbEntity
  8
RACCORDO
100
AcDbLine
 62
7
  6
CONTINUOUS
 10
-47.188327894
 20
114.8524012037
 11
-48.8075177855
 21
115.6619961494
  0
LINE
  5
4DC
100
AcDbEntity
  8
DRAFT
100
AcDbLine
 62
7
  6
CONTINUOUS
 10
-40.0055305565
 20
111.9666476521
 11
-40.7320718622
 21
112.3299183049
  0
LINE
  5
4DD
100
AcDbEntity
  8
DRAFT
100
AcDbLine
 62
7
  6
CONTINUOUS
 10
-40.4925015587
 20
112.2257930057
 11
-40.1883821747
 21
112.0737333138
  0
LINE
  5
4DE
100
AcDbEntity
  8
RACCORDO
100
AcDbLine
 62
7
  6
CONTINUOUS
 10
-46.3552776787
 20
115.2371313994
 11
-48.5824141077
 21
116.3506996139
  0
LINE
  5
4DF
100
AcDbEntity
  8
DRAFT
100
AcDbLine
 62
7
  6
CONTINUOUS
 10
-45.4838109767
 20
115.6396036018
 11
-47.4017159006
 21
116.5985560638
  0
LINE
  5
4E0
100
AcDbEntity
  8
RACCORDO
100
AcDbLine
 62
7
  6
CONTINUOUS
 10
-40.4232041464
 20
111.6435956601
 11
-40.2793966346
 21
111.5715116506
  0
LINE
  5
4E1
100
AcDbEntity
  8
DRAFT
100
AcDbLine
 62
7
  6
CONTINUOUS
 10
-40.6164946567
 20
112.2881222335
 11
-40.4925015587
 21
112.2257930057
  0
LWPOLYLINE
  5
4E2
100
AcDbEntity
  8
RACCORDO
100
AcDbPolyline
 62
7
  6
CONTINUOUS
 90
6
 70
0
 10
-40.8398589004
 20
111.8500091297
 10
-40.9298661298
 20
111.8957477615
 10
-41.0180527578
 20
111.9404025645
 10
-41.1044332012
 20
111.9839721146
 10
-41.1889930432
 20
112.0264578361
 10
-41.2717322838
 20
112.0678597288
  0
LINE
  5
4E3
100
AcDbEntity
  8
RACCORDO
100
AcDbLine
 62
7
  6
CONTINUOUS
 10
-40.6542384691
 20
111.7552946224
 11
-40.8398589004
 21
111.8500091297
  0
LINE
  5
4E4
100
AcDbEntity
  8
RACCORDO
100
AcDbLine
 62
7
  6
CONTINUOUS
 10
-40.4611482136
 20
111.6562633151
 11
-40.6542384691
 21
111.7552946224
  0
LWPOLYLINE
  5
4E5
100
AcDbEntity
  8
RACCORDO
100
AcDbPolyline
 62
250
  6
CONTINUOUS
 90
19
 70
0
 10
-42.7808914294
 20
114.6690938691
 10
-42.7494841641
 20
114.6522378375
 10
-42.7183596392
 20
114.6321711799
 10
-42.687756263
 20
114.6090460302
 10
-42.6579021863
 20
114.5830320521
 10
-42.6290333365
 20
114.5543320194
 10
-42.6013892397
 20
114.5231859738
 10
-42.5751933789
 20
114.4898545876
 10
-42.5506282553
 20
114.4545794269
 10
-42.5278576073
 20
114.4175958603
 10
-42.50703928
 20
114.3791471974
 10
-42.4883581909
 20
114.3395606416
 10
-42.4719892348
 20
114.2992148365
 10
-42.4580473263
 20
114.25842007
 10
-42.4466288136
 20
114.217489931
 10
-42.4378244611
 20
114.1768155483
 10
-42.4316774889
 20
114.1367275862
 10
-42.4282004046
 20
114.0974938112
 10
-42.4273918867
 20
114.0593973457
  0
LINE
  5
4E6
100
AcDbEntity
  8
RACCORDO
100
AcDbLine
 62
7
  6
CONTINUOUS
 10
-40.453389785
 20
111.651676843
 11
-40.4611482136
 21
111.6562633151
  0
LWPOLYLINE
  5
4E7
100
AcDbEntity
  8
DRAFT
100
AcDbPolyline
 62
7
  6
CONTINUOUS
 90
6
 70
0
 10
-40.0884239848
 20
112.0240868976
 10
-40.0234280806
 20
111.9799395286
 10
-39.9617837318
 20
111.9341583875
 10
-39.9034909384
 20
111.8867434743
 10
-39.8481984919
 20
111.8374294921
 10
-39.8080939631
 20
111.7980917826
  0
LWPOLYLINE
  5
4E8
100
AcDbEntity
  8
ASSI
100
AcDbPolyline
 62
7
  6
CONTINUOUS
 90
13
 70
0
 10
-43.5404985459
 20
115.9270441893
 10
-43.567656204
 20
115.9490316003
 10
-43.6019390339
 20
115.9761987558
 10
-43.6362264554
 20
116.0025623812
 10
-43.6705187927
 20
116.0281000713
 10
-43.7047738741
 20
116.0528000157
 10
-43.7391062416
 20
116.0766003341
 10
-43.7735074264
 20
116.0994743647
 10
-43.807943544
 20
116.121415159
 10
-43.8424912451
 20
116.1423872883
 10
-43.8771617971
 20
116.1623661104
 10
-43.911900839
 20
116.1813404276
 10
-43.9466864507
 20
116.1992933936
  0
LWPOLYLINE
  5
4E9
100
AcDbEntity
  8
RACCORDO
100
AcDbPolyline
 62
250
  6
CONTINUOUS
 90
6
 70
0
 10
-40.4232041464
 20
111.6435956601
 10
-40.398681156
 20
111.6230912817
 10
-40.3743153944
 20
111.6018130173
 10
-40.3501786442
 20
111.57975074
 10
-40.3264137592
 20
111.5569624197
 10
-40.3210053918
 20
111.5515081194
  0
LWPOLYLINE
  5
4EA
100
AcDbEntity
  8
RACCORDO
100
AcDbPolyline
 62
250
  6
CONTINUOUS
 90
7
 70
0
 10
-40.5168407455
 20
111.6372996516
 10
-40.4939803161
 20
111.6177209182
 10
-40.4714027778
 20
111.5973678716
 10
-40.4491081306
 20
111.576240512
 10
-40.4270626323
 20
111.5544106251
 10
-40.4053000251
 20
111.5318064251
 10
-40.3921572172
 20
111.5173016722
  0
LWPOLYLINE
  5
4EB
100
AcDbEntity
  8
RACCORDO
100
AcDbPolyline
 62
7
  6
CONTINUOUS
 90
8
 70
0
 10
-35.0615142482
 20
109.0685188695
 10
-35.0182330174
 20
109.0056181323
 10
-34.9204152317
 20
108.8500174685
 10
-34.8287311023
 20
108.6900050211
 10
-34.743480706
 20
108.5261541025
 10
-34.6649759502
 20
108.359090941
 10
-34.5935165377
 20
108.189463582
 10
-34.5483214051
 20
108.0685826186
  0
LWPOLYLINE
  5
4EC
100
AcDbEntity
  8
0
100
AcDbPolyline
 62
7
  6
CONTINUOUS
 90
31
 70
0
 10
-25.5847694555
 20
93.1993974751
 10
-25.692401361
 20
93.3620227256
 10
-25.8043799278
 20
93.5206776013
 10
-25.9199470171
 20
93.6742879466
 10
-26.0391269796
 20
93.8228195307
 10
-26.1618954646
 20
93.9663065844
 10
-26.2874212815
 20
94.1037776441
 10
-26.4157231406
 20
94.235191887
 10
-26.5467823315
 20
94.360590136
 10
-26.6797115322
 20
94.4791233959
 10
-26.8145234321
 20
94.5907450827
 10
-26.9512053418
 20
94.6955017803
 10
-27.0888318712
 20
94.7926842449
 10
-27.2274094304
 20
94.8822410799
 10
-27.3669316093
 20
94.9642236818
 10
-27.5064537882
 20
95.0380769964
 10
-27.645975967
 20
95.1037458607
 10
-27.7854981459
 20
95.1612854376
 10
-27.9240757051
 20
95.2103061618
 10
-28.0617022345
 20
95.2507502266
 10
-28.1983841442
 20
95.2826754387
 10
-28.3331960441
 20
95.3058656518
 10
-28.4661252448
 20
95.3202615927
 10
-28.5971844357
 20
95.3259225346
 10
-28.7254862949
 20
95.3228101508
 10
-28.8510121117
 20
95.3108649079
 10
-28.9737805967
 20
95.2901463393
 10
-29.0929605592
 20
95.2607947176
 10
-29.2085276485
 20
95.2227514617
 10
-29.3205062153
 20
95.1760751528
 10
-29.3623825221
 20
95.1559290336
  0
LWPOLYLINE
  5
4ED
100
AcDbEntity
  8
RACCORDO
100
AcDbPolyline
 62
250
  6
CONTINUOUS
 90
7
 70
0
 10
-35.0615142482
 20
108.8819928213
 10
-34.9873204622
 20
108.7599681098
 10
-34.8982931778
 20
108.5998497947
 10
-34.8153865654
 20
108.4361550597
 10
-34.7389297155
 20
108.2695336764
 10
-34.6692261169
 20
108.100647034
 10
-34.6408899932
 20
108.0235686397
  0
LWPOLYLINE
  5
4EE
100
AcDbEntity
  8
0
100
AcDbPolyline
 62
7
  6
CONTINUOUS
 90
4
 70
0
 10
-25.2887118452
 20
92.6887736301
 10
-25.3826046185
 20
92.8621819659
 10
-25.4815137064
 20
93.0327749079
 10
-25.5847694555
 20
93.1993974751
  0
LINE
  5
4EF
100
AcDbEntity
  8
RACCORDO
100
AcDbLine
 62
250
  6
CONTINUOUS
 10
-35.5731988486
 20
73.4694361428
 11
-35.5531095623
 21
73.5145510836
  0
LWPOLYLINE
  5
4F0
100
AcDbEntity
  8
RACCORDO
100
AcDbPolyline
 62
250
  6
CONTINUOUS
 90
67
 70
0
 10
-28.7899883838
 20
84.5233546319
 10
-28.7461600691
 20
84.546532812
 10
-28.5904754049
 20
84.6401034342
 10
-28.442399704
 20
84.7472661257
 10
-28.3023590996
 20
84.8677019533
 10
-28.170719932
 20
85.0010847218
 10
-28.0478404046
 20
85.1470449231
 10
-27.9340621552
 20
85.3051700525
 10
-27.8296953202
 20
85.4750218629
 10
-27.7350169673
 20
85.6561471671
 10
-27.650287884
 20
85.8480511373
 10
-27.575747513
 20
86.0501960098
 10
-27.5116030948
 20
86.262023469
 10
-27.4580329152
 20
86.4829508589
 10
-27.415188161
 20
86.7123619868
 10
-27.3831902349
 20
86.9496093517
 10
-27.3621276743
 20
87.1940329528
 10
-27.3520584086
 20
87.444955153
 10
-27.3530098038
 20
87.7016704232
 10
-27.3649772188
 20
87.9634577269
 10
-27.3879258231
 20
88.2295973822
 10
-27.4217925898
 20
88.4993650498
 10
-27.4664827183
 20
88.7720060827
 10
-27.5218731323
 20
89.0467700022
 10
-27.5878190629
 20
89.3229279895
 10
-27.6641478274
 20
89.5997351929
 10
-27.7506468248
 20
89.8764018406
 10
-27.8470686594
 20
90.1521291924
 10
-27.9531587338
 20
90.4261823275
 10
-28.0686124819
 20
90.6977682363
 10
-28.193051623
 20
90.9660120528
 10
-28.3260899754
 20
91.2301177983
 10
-28.4673733387
 20
91.4894164053
 10
-28.6165288995
 20
91.7432436656
 10
-28.7730639004
 20
91.9907877045
 10
-28.9366075646
 20
92.2314875712
 10
-29.1069768806
 20
92.4650456191
 10
-29.2838108334
 20
92.6908887649
 10
-29.4665616625
 20
92.9082418755
 10
-29.6547696979
 20
93.1164925441
 10
-29.848294252
 20
93.3153752394
 10
-30.0462635924
 20
93.5038866677
 10
-30.2470341272
 20
93.6805159948
 10
-30.4502824682
 20
93.8451193223
 10
-30.6551396805
 20
93.9971309749
 10
-30.8590273414
 20
94.1349972828
 10
-31.0612556802
 20
94.2588044165
 10
-31.2613334927
 20
94.3687932883
 10
-31.4569709814
 20
94.4643915273
 10
-31.6474705046
 20
94.5461103538
 10
-31.8326596487
 20
94.6147089615
 10
-32.0111390086
 20
94.6705565116
 10
-32.1823871925
 20
94.7144708191
 10
-32.3464915063
 20
94.7474314329
 10
-32.5030871527
 20
94.770297148
 10
-32.6518111894
 20
94.7839689971
 10
-32.7929617238
 20
94.7894047127
 10
-32.9272202763
 20
94.7874622352
 10
-33.0543956699
 20
94.7789247416
 10
-33.1748011204
 20
94.7645352499
 10
-33.2898256014
 20
94.7447559105
 10
-33.3994308395
 20
94.7201172782
 10
-33.5037807785
 20
94.6911009622
 10
-33.6044357449
 20
94.6576587112
 10
-33.7014740915
 20
94.6200212736
 10
-33.7948337379
 20
94.5784709555
 10
-33.8131480966
 20
94.5696740575
  0
LINE
  5
4F1
100
AcDbEntity
  8
DRAFT
100
AcDbLine
 62
7
  6
CONTINUOUS
 10
-35.3615562955
 20
81.1463882707
 11
-28.7899883838
 21
84.5233546319
  0
LINE
  5
4F2
100
AcDbEntity
  8
0
100
AcDbLine
 62
7
  6
CONTINUOUS
 10
-45.3659413229
 20
76.3030713705
 11
-44.7952145882
 21
76.5906352524
  0
LINE
  5
4F3
100
AcDbEntity
  8
0
100
AcDbLine
 62
250
  6
CONTINUOUS
 10
-44.8943119103
 20
76.296328375
 11
-44.5516146112
 21
76.4688352639
  0
LINE
  5
4F4
100
AcDbEntity
  8
0
100
AcDbLine
 62
250
  6
CONTINUOUS
 10
-44.7529646507
 20
76.0477547444
 11
-44.4102673515
 21
76.2202616333
  0
LWPOLYLINE
  5
4F5
100
AcDbEntity
  8
0
100
AcDbPolyline
 62
250
  6
CONTINUOUS
 90
15
 70
0
 10
-68.1544369993
 20
112.9904002683
 10
-68.1264991099
 20
112.9978688606
 10
-68.0970522718
 20
113.0013025909
 10
-68.066352532
 20
113.0006716023
 10
-68.0346668321
 20
112.9959813811
 10
-68.0022706865
 20
112.98727271
 10
-67.9694457873
 20
112.9746213128
 10
-67.9364775548
 20
112.9581371965
 10
-67.9036526558
 20
112.9379636943
 10
-67.8712565105
 20
112.9142762199
 10
-67.839570811
 20
112.8872807413
 10
-67.8088710716
 20
112.8572119905
 10
-67.7794242338
 20
112.8243314222
 10
-67.7514863446
 20
112.7889249408
 10
-67.7253003307
 20
112.7513004139
  0
LINE
  5
4F6
100
AcDbEntity
  8
0
100
AcDbLine
 62
7
  6
CONTINUOUS
 10
-67.8138698213
 20
112.7195814676
 11
-67.8340413463
 21
112.7143606278
  0
LINE
  5
4F7
100
AcDbEntity
  8
RACCORDO
100
AcDbLine
 62
250
  6
CONTINUOUS
 10
-51.2281028594
 20
115.2734342504
 11
-51.2167224866
 21
115.2756432661
  0
LWPOLYLINE
  5
4F8
100
AcDbEntity
  8
RACCORDO
100
AcDbPolyline
 62
250
  6
CONTINUOUS
 90
16
 70
0
 10
-49.4029216592
 20
114.3763782207
 10
-49.413952165
 20
114.3742581053
 10
-49.4250191113
 20
114.3718923763
 10
-49.4361193984
 20
114.3692822377
 10
-49.4472490067
 20
114.3664291687
 10
-49.4584057607
 20
114.3633343215
 10
-49.469589358
 20
114.3599983285
 10
-49.4807984227
 20
114.3564219108
 10
-49.4920282189
 20
114.3526068876
 10
-49.5032734158
 20
114.3485556105
 10
-49.5145184542
 20
114.3442745724
 10
-49.5257727325
 20
114.3397610773
 10
-49.5370685091
 20
114.3350017321
 10
-49.5484146349
 20
114.3299908505
 10
-49.5597963771
 20
114.3247328984
 10
-49.5712107096
 20
114.3192276257
  0
LINE
  5
4F9
100
AcDbEntity
  8
RACCORDO
100
AcDbLine
 62
250
  6
CONTINUOUS
 10
-47.436672176
 20
114.7377075844
 11
-49.4029216592
 21
114.3763782207
  0
LINE
  5
4FA
100
AcDbEntity
  8
RACCORDO
100
AcDbLine
 62
250
  6
CONTINUOUS
 10
-51.2167224866
 20
115.2756432661
 11
-51.2053794113
 21
115.2776070967
  0
LWPOLYLINE
  5
4FB
100
AcDbEntity
  8
RACCORDO
100
AcDbPolyline
 62
7
  6
CONTINUOUS
 90
8
 70
0
 10
-51.273657531
 20
115.2894782771
 10
-51.2794141274
 20
115.2885287383
 10
-51.3145440406
 20
115.2815895031
 10
-51.349928688
 20
115.2726275709
 10
-51.3855065398
 20
115.2616344791
 10
-51.4212101861
 20
115.2486071036
 10
-51.4569821155
 20
115.2335419523
 10
-51.4647579725
 20
115.2299989494
  0
LINE
  5
4FC
100
AcDbEntity
  8
RACCORDO
100
AcDbLine
 62
250
  6
CONTINUOUS
 10
-51.2053794113
 20
115.2776070967
 11
-48.8075177855
 21
115.6619961494
  0
LINE
  5
4FD
100
AcDbEntity
  8
RACCORDO
100
AcDbLine
 62
7
  6
CONTINUOUS
 10
-51.2736387656
 20
115.289481289
 11
-48.939650641
 21
115.6636311042
  0
LWPOLYLINE
  5
4FE
100
AcDbEntity
  8
RACCORDO
100
AcDbPolyline
 62
7
  6
CONTINUOUS
 90
13
 70
0
 10
-48.9396495415
 20
115.6636295436
 10
-48.927964036
 20
115.6654154907
 10
-48.9151648261
 20
115.6671596766
 10
-48.9026157727
 20
115.6685864436
 10
-48.890288584
 20
115.6697178412
 10
-48.8782115517
 20
115.67053182
 10
-48.8664815214
 20
115.6709027056
 10
-48.8549850075
 20
115.6708469606
 10
-48.8438354955
 20
115.6703481224
 10
-48.8334702872
 20
115.6692311285
 10
-48.8240351497
 20
115.6674376246
 10
-48.8153843158
 20
115.6650259649
 10
-48.8075177855
 20
115.6619961494
  0
LWPOLYLINE
  5
4FF
100
AcDbEntity
  8
RACCORDO
100
AcDbPolyline
 62
250
  6
CONTINUOUS
 90
5
 70
0
 10
-51.2736387656
 20
115.289481289
 10
-51.2612353262
 20
115.2906920868
 10
-51.2425196522
 20
115.2896682677
 10
-51.2237948307
 20
115.2852817295
 10
-51.2053794113
 20
115.2776070967
  0
LWPOLYLINE
  5
500
100
AcDbEntity
  8
DRAFT
100
AcDbPolyline
 62
7
  6
CONTINUOUS
 90
37
 70
0
 10
-63.2214863121
 20
113.7700089035
 10
-63.2418531404
 20
113.7682309068
 10
-63.2626151375
 20
113.7682387466
 10
-63.2837723032
 20
113.7700324226
 10
-63.3054044888
 20
113.7736315406
 10
-63.3274318432
 20
113.7790164949
 10
-63.3496148128
 20
113.7861284689
 10
-63.3719553879
 20
113.7949862813
 10
-63.3944515782
 20
113.8055711135
 10
-63.4168578603
 20
113.8177676932
 10
-63.439172913
 20
113.8315932414
 10
-63.4613980574
 20
113.8470305373
 10
-63.4832917326
 20
113.8639126459
 10
-63.5048514395
 20
113.8822564072
 10
-63.5260796772
 20
113.9020449813
 10
-63.5467423827
 20
113.9230609135
 10
-63.5668329393
 20
113.9453177086
 10
-63.5863579638
 20
113.9688018619
 10
-63.6051032434
 20
113.9932554042
 10
-63.6230599558
 20
114.0186888823
 10
-63.6402369233
 20
114.0450917494
 10
-63.6564463998
 20
114.0721743962
 10
-63.6716777191
 20
114.0999445463
 10
-63.6859415472
 20
114.1283944762
 10
-63.6990821362
 20
114.157211405
 10
-63.7110866155
 20
114.1863979004
 10
-63.7219678555
 20
114.2159513948
 10
-63.7316087197
 20
114.2455514048
 10
-63.7399963188
 20
114.2752059894
 10
-63.7471435421
 20
114.3049070896
 10
-63.7529719209
 20
114.3343100453
 10
-63.7574660191
 20
114.36338321
 10
-63.7606412728
 20
114.3921582301
 10
-63.7624655217
 20
114.4203853849
 10
-63.7629280459
 20
114.4479814339
 10
-63.7620395652
 20
114.4750296174
 10
-63.7598000798
 20
114.5015299356
  0
LINE
  5
501
100
AcDbEntity
  8
RACCORDO
100
AcDbLine
 62
7
  6
CONTINUOUS
 10
-59.1868420822
 20
116.8222567695
 11
-58.3392823138
 21
116.6998640898
  0
LWPOLYLINE
  5
502
100
AcDbEntity
  8
RACCORDO
100
AcDbPolyline
 62
250
  6
CONTINUOUS
 90
8
 70
0
 10
-51.0408147711
 20
117.9635144802
 10
-51.1761281118
 20
117.9873730835
 10
-51.3751094736
 20
118.0085233678
 10
-51.570358344
 20
118.015140253
 10
-51.7613209063
 20
118.0072276005
 10
-51.9476738595
 20
117.9848005318
 10
-52.1289735556
 20
117.9478799229
 10
-52.3046252342
 20
117.8965534177
  0
LINE
  5
503
100
AcDbEntity
  8
RACCORDO
100
AcDbLine
 62
250
  6
CONTINUOUS
 10
-42.487436201
 20
116.2052525289
 11
-42.4505005321
 21
116.1928174166
  0
LWPOLYLINE
  5
504
100
AcDbEntity
  8
RACCORDO
100
AcDbPolyline
 62
250
  6
CONTINUOUS
 90
9
 70
0
 10
-42.5635161608
 20
114.6803061058
 10
-42.5806623625
 20
114.6878280261
 10
-42.6062277294
 20
114.6955657385
 10
-42.6331729067
 20
114.6998490632
 10
-42.6612847431
 20
114.7006357737
 10
-42.6903350437
 20
114.6979176937
 10
-42.72009924
 20
114.6917185003
 10
-42.7503602833
 20
114.6820859996
 10
-42.7808914294
 20
114.6690938691
  0
LWPOLYLINE
  5
505
100
AcDbEntity
  8
RACCORDO
100
AcDbPolyline
 62
7
  6
CONTINUOUS
 90
11
 70
0
 10
-42.4286998258
 20
116.1828895615
 10
-42.4761676165
 20
116.2042467333
 10
-42.532910813
 20
116.2238181999
 10
-42.5918999915
 20
116.2379415006
 10
-42.6525672427
 20
116.2463393725
 10
-42.7143554314
 20
116.2488350209
 10
-42.7767488668
 20
116.2453331443
 10
-42.8391283596
 20
116.2358074949
 10
-42.9009172284
 20
116.2203293944
 10
-42.9616580344
 20
116.1990427125
 10
-43.0010901016
 20
116.1818280013
  0
LWPOLYLINE
  5
506
100
AcDbEntity
  8
DRAFT
100
AcDbPolyline
 62
7
  6
CONTINUOUS
 90
12
 70
0
 10
-47.5294013287
 20
117.1632307369
 10
-47.534870356
 20
117.165854893
 10
-47.5529731581
 20
117.1730260833
 10
-47.5719049659
 20
117.1782568747
 10
-47.5916555488
 20
117.1815712509
 10
-47.6119785665
 20
117.182927995
 10
-47.632881157
 20
117.1823026251
 10
-47.6543561823
 20
117.1797196233
 10
-47.6761358888
 20
117.1752112193
 10
-47.6981310249
 20
117.1687881565
 10
-47.7204308421
 20
117.1604396916
 10
-47.7430353404
 20
117.1501658245
  0
LWPOLYLINE
  5
507
100
AcDbEntity
  8
RACCORDO
100
AcDbPolyline
 62
7
  6
CONTINUOUS
 90
10
 70
0
 10
-41.2542814722
 20
115.5957825484
 10
-41.2689886413
 20
115.6028650874
 10
-41.3236582907
 20
115.6250648859
 10
-41.3775397027
 20
115.6410023137
 10
-41.4305120553
 20
115.650631558
 10
-41.4826961706
 20
115.6539984315
 10
-41.533394254
 20
115.6515521685
 10
-41.5823737076
 20
115.6434425138
 10
-41.6298671294
 20
115.6295197226
 10
-41.6758745195
 20
115.609783795
  0
LINE
  5
508
100
AcDbEntity
  8
DRAFT
100
AcDbLine
 62
250
  6
CONTINUOUS
 10
-42.7808914294
 20
114.6690938691
 11
-45.0877443145
 21
115.8225203116
  0
LINE
  5
509
100
AcDbEntity
  8
DRAFT
100
AcDbLine
 62
250
  6
CONTINUOUS
 10
-47.7430353404
 20
117.1501658245
 11
-50.0498882255
 21
118.3035922671
  0
LINE
  5
50A
100
AcDbEntity
  8
RACCORDO
100
AcDbLine
 62
7
  6
CONTINUOUS
 10
-42.5634549891
 20
114.6802755339
 11
-44.866512507
 21
115.8318042928
  0
LINE
  5
50B
100
AcDbEntity
  8
RACCORDO
100
AcDbLine
 62
7
  6
CONTINUOUS
 10
-47.5293942673
 20
117.1632451729
 11
-49.8324517852
 21
118.3147739319
  0
LINE
  5
50C
100
AcDbEntity
  8
DRAFT
100
AcDbLine
 62
7
  6
CONTINUOUS
 10
-37.6327048685
 20
112.8439164255
 11
-40.6957389277
 21
114.3754334551
  0
LINE
  5
50D
100
AcDbEntity
  8
ASSI
100
AcDbLine
 62
7
  6
CONTINUOUS
 10
-44.2894550498
 20
116.3706776931
 11
-43.9466864507
 21
116.1992933936
  0
LINE
  5
50E
100
AcDbEntity
  8
ASSI
100
AcDbLine
 62
7
  6
CONTINUOUS
 10
-25.5511253483
 20
107.0015128424
 11
-25.2083567493
 21
106.8301285429
  0
LINE
  5
50F
100
AcDbEntity
  8
RACCORDO
100
AcDbLine
 62
250
  6
CONTINUOUS
 10
-42.7846510993
 20
116.164172085
 11
-41.6758745195
 21
115.609783795
  0
LINE
  5
510
100
AcDbEntity
  8
RACCORDO
100
AcDbLine
 62
250
  6
CONTINUOUS
 10
-36.8738159225
 20
113.2087544965
 11
-35.7650393426
 21
112.6543662066
  0
LINE
  5
511
100
AcDbEntity
  8
RACCORDO
100
AcDbLine
 62
7
  6
CONTINUOUS
 10
-42.4295065686
 20
116.1832965941
 11
-41.2543024884
 21
115.595694554
  0
LINE
  5
512
100
AcDbEntity
  8
RACCORDO
100
AcDbLine
 62
7
  6
CONTINUOUS
 10
-36.5897191486
 20
113.2634028841
 11
-35.4145151138
 21
112.6758008667
  0
LINE
  5
513
100
AcDbEntity
  8
ASSI
100
AcDbLine
 62
7
  6
CONTINUOUS
 10
-45.6826766366
 20
117.9158166239
 11
-43.0981583133
 21
116.6235574623
  0
LINE
  5
514
100
AcDbEntity
  8
ASSI
100
AcDbLine
 62
7
  6
CONTINUOUS
 10
-26.9443469352
 20
108.5466517732
 11
-24.3598286119
 21
107.2543926116
  0
LINE
  5
515
100
AcDbEntity
  8
ASSI
100
AcDbLine
 62
7
  6
CONTINUOUS
 10
-44.72450391
 20
118.4266797543
 11
-42.1082088197
 21
117.1185322091
  0
LINE
  5
516
100
AcDbEntity
  8
ASSI
100
AcDbLine
 62
7
  6
CONTINUOUS
 10
-25.9861742086
 20
109.0575149036
 11
-23.3698791182
 21
107.7493673584
  0
LWPOLYLINE
  5
517
100
AcDbEntity
  8
ASSI
100
AcDbPolyline
 62
7
  6
CONTINUOUS
 90
13
 70
0
 10
-43.0981583133
 20
116.6235574623
 10
-43.0535858719
 20
116.6004539969
 10
-43.0089670766
 20
116.5754749913
 10
-42.9643496255
 20
116.5486265603
 10
-42.9196405207
 20
116.5199022017
 10
-42.8750318085
 20
116.4893222508
 10
-42.8309969618
 20
116.4569618083
 10
-42.7875364504
 20
116.4228710667
 10
-42.7447433123
 20
116.3870809972
 10
-42.7032196372
 20
116.349691982
 10
-42.6630129789
 20
116.3108232435
 10
-42.624147449
 20
116.270497554
 10
-42.5958246351
 20
116.2384847699
  0
LWPOLYLINE
  5
518
100
AcDbEntity
  8
ASSI
100
AcDbPolyline
 62
7
  6
CONTINUOUS
 90
28
 70
0
 10
-24.3598286119
 20
107.2543926116
 10
-24.3152561704
 20
107.2312891461
 10
-24.2706373752
 20
107.2063101406
 10
-24.226019924
 20
107.1794617095
 10
-24.1813108192
 20
107.1507373509
 10
-24.1367021071
 20
107.1201574001
 10
-24.0926672604
 20
107.0877969575
 10
-24.049206749
 20
107.053706216
 10
-24.0064136109
 20
107.0179161465
 10
-23.9648899358
 20
106.9805271313
 10
-23.9246832775
 20
106.9416583927
 10
-23.8858177475
 20
106.9013327032
 10
-23.8488465608
 20
106.8595448136
 10
-23.8137438275
 20
106.8163521243
 10
-23.7805848741
 20
106.7718543677
 10
-23.7500569117
 20
106.7261399959
 10
-23.7221255594
 20
106.6793056289
 10
-23.6968367342
 20
106.6314374511
 10
-23.6749714549
 20
106.5826422399
 10
-23.6564287117
 20
106.5325295023
 10
-23.6412869192
 20
106.4816697743
 10
-23.6305155284
 20
106.4317008268
 10
-23.6243873967
 20
106.3828180487
 10
-23.6224509264
 20
106.3351136104
 10
-23.6244862867
 20
106.2901615125
 10
-23.6303275388
 20
106.2485817875
 10
-23.6399073364
 20
106.2100007711
 10
-23.6531285161
 20
106.1745081094
  0
LWPOLYLINE
  5
519
100
AcDbEntity
  8
ASSI
100
AcDbPolyline
 62
7
  6
CONTINUOUS
 90
11
 70
0
 10
-24.1589719006
 20
106.0588179594
 10
-24.2038145931
 20
106.0829745234
 10
-24.2440473351
 20
106.1069052977
 10
-24.2836004102
 20
106.1325256786
 10
-24.3226485952
 20
106.1598477423
 10
-24.3611630845
 20
106.1881488412
 10
-24.399056976
 20
106.2172713934
 10
-24.436437763
 20
106.2472738835
 10
-24.4735432673
 20
106.2777821591
 10
-24.5104610038
 20
106.3087943032
 10
-24.5471090242
 20
106.3402083199
  0
LWPOLYLINE
  5
51A
100
AcDbEntity
  8
ASSI
100
AcDbPolyline
 62
7
  6
CONTINUOUS
 90
21
 70
0
 10
-42.1082088197
 20
117.1185322091
 10
-42.0173929001
 20
117.0693802671
 10
-41.9277256018
 20
117.0137303351
 10
-41.8392069249
 20
116.9515824129
 10
-41.7514687091
 20
116.8826156409
 10
-41.6648791147
 20
116.8071508788
 10
-41.580542622
 20
116.7261507061
 10
-41.498488093
 20
116.639544215
 10
-41.4186866657
 20
116.5474023131
 10
-41.3421562352
 20
116.4509003027
 10
-41.2689387024
 20
116.3499823314
 10
-41.1989921664
 20
116.2447042514
 10
-41.1332088197
 20
116.1364089214
 10
-41.0716419918
 20
116.0250576909
 10
-41.0142383532
 20
115.9106892103
 10
-40.9617301073
 20
115.7947622896
 10
-40.9141799631
 20
115.6772569653
 10
-40.8715252116
 20
115.5581932007
 10
-40.8343099289
 20
115.4390896957
 10
-40.8026037937
 20
115.3199459413
 10
-40.7763371274
 20
115.2007624465
  0
LWPOLYLINE
  5
51B
100
AcDbEntity
  8
ASSI
100
AcDbPolyline
 62
7
  6
CONTINUOUS
 90
39
 70
0
 10
-23.3698791182
 20
107.7493673584
 10
-23.2790631986
 20
107.7002154164
 10
-23.1893959004
 20
107.6445654843
 10
-23.1008772234
 20
107.5824175622
 10
-23.0131390077
 20
107.5134507902
 10
-22.9265494132
 20
107.4379860281
 10
-22.8422129206
 20
107.3569858553
 10
-22.7601583915
 20
107.2703793642
 10
-22.6803569643
 20
107.1782374624
 10
-22.6038265338
 20
107.0817354519
 10
-22.530609001
 20
106.9808174806
 10
-22.460662465
 20
106.8755394007
 10
-22.3948791182
 20
106.7672440706
 10
-22.3333122904
 20
106.6558928402
 10
-22.2759086518
 20
106.5415243596
 10
-22.2234004059
 20
106.4255974389
 10
-22.1758502617
 20
106.3080921145
 10
-22.1331955101
 20
106.18902835
 10
-22.0959802275
 20
106.069924845
 10
-22.0642740923
 20
105.9507810906
 10
-22.038007426
 20
105.8315975957
 10
-22.017515269
 20
105.7138945875
 10
-22.0028715918
 20
105.5976910306
 10
-21.994002424
 20
105.4829679603
 10
-21.9910208949
 20
105.3711887094
 10
-21.994002424
 20
105.2623909876
 10
-22.0028715918
 20
105.1565370851
 10
-22.017515269
 20
105.0549772054
 10
-22.038007426
 20
104.9577663541
 10
-22.0642740923
 20
104.8648495255
 10
-22.0959802275
 20
104.7774119063
 10
-22.1331955101
 20
104.695523684
 10
-22.1758502617
 20
104.619114671
 10
-22.2234004059
 20
104.5491594909
 10
-22.2759086518
 20
104.485740816
 10
-22.3333122904
 20
104.4287759741
 10
-22.3948791182
 20
104.3789915714
 10
-22.460662465
 20
104.3364795882
 10
-22.4978428512
 20
104.3165452836
  0
LWPOLYLINE
  5
51C
100
AcDbEntity
  8
RACCORDO
100
AcDbPolyline
 62
250
  6
CONTINUOUS
 90
16
 70
0
 10
-35.7650393426
 20
112.6543662066
 10
-35.7274637334
 20
112.6338278888
 10
-35.6903335887
 20
112.6087545029
 10
-35.6540556411
 20
112.5794207287
 10
-35.6190272799
 20
112.5461479086
 10
-35.5856322148
 20
112.5093005414
 10
-35.5542362698
 20
112.4692822948
 10
-35.5251833517
 20
112.4265315555
 10
-35.4987916947
 20
112.3815166328
 10
-35.4753503864
 20
112.3347306499
 10
-35.455116186
 20
112.2866861163
 10
-35.4383107162
 20
112.2379093156
 10
-35.4251180418
 20
112.1889345539
 10
-35.41568265
 20
112.1402982975
 10
-35.4101078691
 20
112.0925332962
 10
-35.4084547386
 20
112.0461627518
  0
LWPOLYLINE
  5
51D
100
AcDbEntity
  8
0
100
AcDbPolyline
 62
7
  6
CONTINUOUS
 90
16
 70
0
 10
-24.5719606462
 20
89.9768249997
 10
-24.5753469744
 20
90.1501685157
 10
-24.5853032774
 20
90.3256401008
 10
-24.6018295552
 20
90.5032397552
 10
-24.6249929099
 20
90.6833788186
 10
-24.6547262394
 20
90.8656459512
 10
-24.6908282374
 20
91.0488071332
 10
-24.7333421198
 20
91.2328684313
 10
-24.7822246707
 20
91.4178237787
 10
-24.8371449361
 20
91.6024209553
 10
-24.8981438862
 20
91.7866575308
 10
-24.9651805508
 20
91.9705359355
 10
-25.0378010654
 20
92.1528112406
 10
-25.1160433205
 20
92.3334725681
 10
-25.1998694256
 20
92.512530796
 10
-25.2887118452
 20
92.6887736301
  0
LWPOLYLINE
  5
51E
100
AcDbEntity
  8
0
100
AcDbPolyline
 62
7
  6
CONTINUOUS
 90
16
 70
0
 10
-24.5719606462
 20
103.8332314603
 10
-24.5753469744
 20
104.0065749763
 10
-24.5853032774
 20
104.1820465614
 10
-24.6018295552
 20
104.3596462157
 10
-24.6249929099
 20
104.5397852792
 10
-24.6547262394
 20
104.7220524118
 10
-24.6908282374
 20
104.9052135937
 10
-24.7333421198
 20
105.0892748918
 10
-24.7822246707
 20
105.2742302392
 10
-24.8371449361
 20
105.4588274159
 10
-24.8981438862
 20
105.6430639913
 10
-24.9651805508
 20
105.826942396
 10
-25.0378010654
 20
106.0092177012
 10
-25.1160433205
 20
106.1898790287
 10
-25.1998694256
 20
106.3689372566
 10
-25.2887118452
 20
106.5451800907
  0
LWPOLYLINE
  5
51F
100
AcDbEntity
  8
ASSI
100
AcDbPolyline
 62
7
  6
CONTINUOUS
 90
3
 70
0
 10
-23.6223074231
 20
89.8982756932
 10
-23.6228352563
 20
89.8975794891
 10
-23.6232291799
 20
89.8973700516
  0
LWPOLYLINE
  5
520
100
AcDbEntity
  8
RACCORDO
100
AcDbPolyline
 62
250
  6
CONTINUOUS
 90
4
 70
0
 10
-35.6494293923
 20
73.3575483771
 10
-35.6216962176
 20
73.3907334272
 10
-35.5961988531
 20
73.4280282321
 10
-35.5731988486
 20
73.4694361428
  0
LWPOLYLINE
  5
521
100
AcDbEntity
  8
RACCORDO
100
AcDbPolyline
 62
7
  6
CONTINUOUS
 90
11
 70
0
 10
-35.5674569684
 20
73.420405847
 10
-35.5278946653
 20
73.4672502605
 10
-35.4944723941
 20
73.5141220304
 10
-35.4641722812
 20
73.5645284293
 10
-35.4373623869
 20
73.6181759811
 10
-35.4142661316
 20
73.6749402752
 10
-35.3951212096
 20
73.7345836773
 10
-35.3801672816
 20
73.7967037848
 10
-35.3695301446
 20
73.8610821871
 10
-35.3632970448
 20
73.9275845226
 10
-35.3615562959
 20
73.9868502202
  0
LINE
  5
522
100
AcDbEntity
  8
RACCORDO
100
AcDbLine
 62
7
  6
CONTINUOUS
 10
-35.5676503637
 20
73.4201957904
 11
-35.5674569684
 21
73.4204058471
  0
LWPOLYLINE
  5
523
100
AcDbEntity
  8
RACCORDO
100
AcDbPolyline
 62
7
  6
CONTINUOUS
 90
10
 70
0
 10
-35.5676503637
 20
73.4201957904
 10
-35.8434714969
 20
73.1307267469
 10
-36.1268083454
 20
72.8527216577
 10
-36.4175000351
 20
72.5863004605
 10
-36.7153566996
 20
72.3315976008
 10
-37.020233026
 20
72.0886983848
 10
-37.3320331211
 20
71.8576493397
 10
-37.6506102866
 20
71.638537806
 10
-37.9757622758
 20
71.4314814042
 10
-38.3073082604
 20
71.2365716877
  0
LWPOLYLINE
  5
524
100
AcDbEntity
  8
0
100
AcDbPolyline
 62
250
  6
CONTINUOUS
 90
12
 70
0
 10
-45.8112612995
 20
67.1754043786
 10
-45.7806529837
 20
67.1975875472
 10
-45.7461382029
 20
67.2294373294
 10
-45.714685462
 20
67.2658657795
 10
-45.6864704529
 20
67.3066693735
 10
-45.661648669
 20
67.3516211084
 10
-45.6403615624
 20
67.4004684234
 10
-45.6227289474
 20
67.4529380506
 10
-45.608844953
 20
67.5087391682
 10
-45.5987876772
 20
67.5675599179
 10
-45.5926186515
 20
67.6290690721
 10
-45.5903757386
 20
67.6929213552
  0
LWPOLYLINE
  5
525
100
AcDbEntity
  8
0
100
AcDbPolyline
 62
7
  6
CONTINUOUS
 90
11
 70
0
 10
-45.0446944508
 20
67.5247233941
 10
-45.0022767651
 20
67.551389049
 10
-44.9606129264
 20
67.586244697
 10
-44.9230704764
 20
67.6273972671
 10
-44.8899316983
 20
67.6745355527
 10
-44.8614543619
 20
67.7272984005
 10
-44.8378556964
 20
67.7852844597
 10
-44.8193061669
 20
67.8480581079
 10
-44.8059481932
 20
67.9151421803
 10
-44.79789471
 20
67.9860212847
 10
-44.7952145882
 20
68.0601531252
  0
LWPOLYLINE
  5
526
100
AcDbEntity
  8
RACCORDO
100
AcDbPolyline
 62
250
  6
CONTINUOUS
 90
4
 70
0
 10
-35.6494293924
 20
73.3575483772
 10
-35.6149238163
 20
73.3787002054
 10
-35.5838512173
 20
73.403927114
 10
-35.5676503637
 20
73.4201957904
  0
LWPOLYLINE
  5
527
100
AcDbEntity
  8
RACCORDO
100
AcDbPolyline
 62
250
  6
CONTINUOUS
 90
9
 70
0
 10
-35.5018863953
 20
73.8131962661
 10
-35.4679093626
 20
73.8327163711
 10
-35.438149984
 20
73.8538880274
 10
-35.4129271106
 20
73.8764843955
 10
-35.392510988
 20
73.9002633709
 10
-35.3771203608
 20
73.9249701784
 10
-35.366920129
 20
73.9503401016
 10
-35.3620195808
 20
73.9761013194
 10
-35.3615562959
 20
73.9868502202
  0
LWPOLYLINE
  5
528
100
AcDbEntity
  8
0
100
AcDbPolyline
 62
250
  6
CONTINUOUS
 90
8
 70
0
 10
-45.0073695601
 20
71.542589226
 10
-44.9963208292
 20
71.548887667
 10
-44.9840508341
 20
71.5593231843
 10
-44.9735610384
 20
71.5724996962
 10
-44.9650317263
 20
71.5881886378
 10
-44.9586028658
 20
71.6061220089
 10
-44.9543759913
 20
71.62600261
 10
-44.9524180057
 20
71.6474985519
  0
LINE
  5
529
100
AcDbEntity
  8
0
100
AcDbLine
 62
250
  6
CONTINUOUS
 10
-44.447832495
 20
70.4483934411
 11
-43.8533253342
 21
70.7626756214
  0
LINE
  5
52A
100
AcDbEntity
  8
0
100
AcDbLine
 62
7
  6
CONTINUOUS
 10
-44.447832495
 20
69.9641568439
 11
-43.8533253342
 21
70.2784390242
  0
LINE
  5
52B
100
AcDbEntity
  8
RACCORDO
100
AcDbLine
 62
250
  6
CONTINUOUS
 10
-35.5018863953
 20
73.8131962661
 11
-42.1082088197
 21
70.3436958351
  0
LINE
  5
52C
100
AcDbEntity
  8
DRAFT
100
AcDbLine
 62
7
  6
CONTINUOUS
 10
-44.2648845023
 20
69.383812429
 11
-44.447832495
 21
69.2903830504
  0
LINE
  5
52D
100
AcDbEntity
  8
0
100
AcDbLine
 62
250
  6
CONTINUOUS
 10
-44.5086206514
 20
71.852655964
 11
-44.9524180057
 21
71.6474985519
  0
LINE
  5
52E
100
AcDbEntity
  8
0
100
AcDbLine
 62
7
  6
CONTINUOUS
 10
-44.5626053778
 20
71.7481935804
 11
-45.0073749378
 21
71.5425867397
  0
LWPOLYLINE
  5
52F
100
AcDbEntity
  8
0
100
AcDbPolyline
 62
250
  6
CONTINUOUS
 90
10
 70
0
 10
-44.9524180057
 20
71.6474985519
 10
-44.9652093597
 20
71.6422566704
 10
-44.978923373
 20
71.6376140925
 10
-44.9934596318
 20
71.6336047694
 10
-45.008724123
 20
71.6302556193
 10
-45.0245936536
 20
71.6275946134
 10
-45.040912307
 20
71.6256450363
 10
-45.0575445224
 20
71.6244166686
 10
-45.0743803837
 20
71.6239113713
 10
-45.2480927388
 20
71.6258035416
  0
LWPOLYLINE
  5
530
100
AcDbEntity
  8
RACCORDO
100
AcDbPolyline
 62
250
  6
CONTINUOUS
 90
8
 70
0
 10
-50.2501909238
 20
118.3278218867
 10
-50.2243495833
 20
118.3350324716
 10
-50.1972279429
 20
118.3386866901
 10
-50.1690323348
 20
118.3387567421
 10
-50.1399772615
 20
118.3352420946
 10
-50.1102837639
 20
118.3281694859
 10
-50.0801777398
 20
118.317592722
 10
-50.0498882255
 20
118.3035922671
  0
LWPOLYLINE
  5
531
100
AcDbEntity
  8
ASSI
100
AcDbPolyline
 62
7
  6
CONTINUOUS
 90
19
 70
0
 10
-24.5471090242
 20
106.3402083199
 10
-24.6194395189
 20
106.4026711447
 10
-24.655095425
 20
106.4336537138
 10
-24.6904800435
 20
106.4641245353
 10
-24.725529129
 20
106.4940045382
 10
-24.760264995
 20
106.5233362762
 10
-24.7948706556
 20
106.5519705714
 10
-24.8293265025
 20
106.5798667496
 10
-24.8636093325
 20
106.607033905
 10
-24.897896754
 20
106.6333975305
 10
-24.9321890913
 20
106.6589352206
 10
-24.9664441727
 20
106.683635165
 10
-25.0007765401
 20
106.7074354833
 10
-25.035177725
 20
106.7303095139
 10
-25.0696138426
 20
106.7522503083
 10
-25.1041615437
 20
106.7732224376
 10
-25.1388320956
 20
106.7932012596
 10
-25.1735711375
 20
106.8121755768
 10
-25.2083567493
 20
106.8301285429
  0
LWPOLYLINE
  5
532
100
AcDbEntity
  8
0
100
AcDbPolyline
 62
7
  6
CONTINUOUS
 90
31
 70
0
 10
-25.5847694555
 20
107.0558039356
 10
-25.692401361
 20
107.2184291862
 10
-25.8043799278
 20
107.3770840619
 10
-25.9199470171
 20
107.5306944071
 10
-26.0391269796
 20
107.6792259912
 10
-26.1618954646
 20
107.8227130449
 10
-26.2874212815
 20
107.9601841046
 10
-26.4157231406
 20
108.0915983476
 10
-26.5467823315
 20
108.2169965966
 10
-26.6797115322
 20
108.3355298564
 10
-26.8145234321
 20
108.4471515432
 10
-26.9512053418
 20
108.5519082408
 10
-27.0888318712
 20
108.6490907054
 10
-27.2274094304
 20
108.7386475404
 10
-27.3669316093
 20
108.8206301424
 10
-27.5064537882
 20
108.894483457
 10
-27.645975967
 20
108.9601523213
 10
-27.7854981459
 20
109.0176918982
 10
-27.9240757051
 20
109.0667126223
 10
-28.0617022345
 20
109.1071566872
 10
-28.1983841442
 20
109.1390818993
 10
-28.3331960441
 20
109.1622721123
 10
-28.4661252448
 20
109.1766680532
 10
-28.5971844357
 20
109.1823289952
 10
-28.7254862949
 20
109.1792166113
 10
-28.8510121117
 20
109.1672713685
 10
-28.9737805967
 20
109.1465527998
 10
-29.0929605592
 20
109.1172011782
 10
-29.2085276485
 20
109.0791579222
 10
-29.3205062153
 20
109.0324816133
 10
-29.3623825221
 20
109.0123354941
  0
LWPOLYLINE
  5
533
100
AcDbEntity
  8
0
100
AcDbPolyline
 62
7
  6
CONTINUOUS
 90
4
 70
0
 10
-25.2887118452
 20
106.5451800907
 10
-25.3826046185
 20
106.7185884265
 10
-25.4815137064
 20
106.8891813685
 10
-25.5847694555
 20
107.0558039356
  0
LWPOLYLINE
  5
534
100
AcDbEntity
  8
RACCORDO
100
AcDbPolyline
 62
250
  6
CONTINUOUS
 90
9
 70
0
 10
-38.021876423
 20
71.404057776
 10
-37.7276478699
 20
71.5895782563
 10
-37.4327568687
 20
71.7895424229
 10
-37.1389752412
 20
72.0035794973
 10
-36.8455086738
 20
72.233133069
 10
-36.5492804534
 20
72.4819328612
 10
-36.2499630537
 20
72.7520905506
 10
-35.9496957219
 20
73.0436225613
 10
-35.6494293923
 20
73.3575483771
  0
LINE
  5
535
100
AcDbEntity
  8
RACCORDO
100
AcDbLine
 62
250
  6
CONTINUOUS
 10
-38.3149582108
 20
71.2323957059
 11
-38.021876423
 21
71.404057776
  0
LINE
  5
536
100
AcDbEntity
  8
0
100
AcDbLine
 62
7
  6
CONTINUOUS
 10
-45.8112612995
 20
65.3316293069
 11
-46.1740728115
 21
65.1215979697
  0
LINE
  5
537
100
AcDbEntity
  8
RACCORDO
100
AcDbLine
 62
250
  6
CONTINUOUS
 10
-38.3073199349
 20
71.2365651021
 11
-38.3194958292
 21
71.2299175666
  0
LINE
  5
538
100
AcDbEntity
  8
0
100
AcDbLine
 62
250
  6
CONTINUOUS
 10
-44.7952145882
 20
68.0601531252
 11
-44.447832495
 21
68.247573734
  0
LINE
  5
539
100
AcDbEntity
  8
0
100
AcDbLine
 62
7
  6
CONTINUOUS
 10
-45.0446933804
 20
67.5247238883
 11
-44.6973112872
 21
67.7121444971
  0
LINE
  5
53A
100
AcDbEntity
  8
RACCORDO
100
AcDbLine
 62
250
  6
CONTINUOUS
 10
-38.3194958292
 20
71.2299175666
 11
-38.3149582108
 21
71.2323957059
  0
LINE
  5
53B
100
AcDbEntity
  8
RACCORDO
100
AcDbLine
 62
7
  6
CONTINUOUS
 10
-42.1082088197
 20
69.2291800627
 11
-38.3194958292
 21
71.2299175666
  0
LINE
  5
53C
100
AcDbEntity
  8
RACCORDO
100
AcDbLine
 62
250
  6
CONTINUOUS
 10
-35.6494293923
 20
73.3575483771
 11
-42.1082088197
 21
69.9660322998
  0
LINE
  5
53D
100
AcDbEntity
  8
0
100
AcDbLine
 62
7
  6
CONTINUOUS
 10
-45.0655246819
 20
67.5143067516
 11
-45.0446944508
 21
67.5247233941
  0
LINE
  5
53E
100
AcDbEntity
  8
0
100
AcDbLine
 62
7
  6
CONTINUOUS
 10
-44.6184378929
 20
66.8965081518
 11
-44.2648845023
 21
67.0732848471
  0
LINE
  5
53F
100
AcDbEntity
  8
0
100
AcDbLine
 62
7
  6
CONTINUOUS
 10
-43.115437946
 20
66.1450081784
 11
-42.755713258
 21
66.318699225
  0
LWPOLYLINE
  5
540
100
AcDbEntity
  8
RACCORDO
100
AcDbPolyline
 62
250
  6
CONTINUOUS
 90
13
 70
0
 10
-48.4169759323
 20
63.9014093494
 10
-48.4663398433
 20
63.878555068
 10
-48.5205811339
 20
63.8590793811
 10
-48.5788023852
 20
63.8433045129
 10
-48.64004033
 20
63.8314914579
 10
-48.7032817901
 20
63.8238356623
 10
-48.7674804392
 20
63.8204637906
 10
-48.8315741145
 20
63.8214316306
 10
-48.8945023899
 20
63.8267231693
 10
-48.9552241205
 20
63.8362508572
 10
-49.0127346691
 20
63.8498570591
 10
-49.0660825267
 20
63.8673166613
 10
-49.1143850563
 20
63.8883407958
  0
LINE
  5
541
100
AcDbEntity
  8
0
100
AcDbLine
 62
250
  6
CONTINUOUS
 10
-45.5903757386
 20
67.6929213552
 11
-44.7952145882
 21
68.0601531252
  0
LINE
  5
542
100
AcDbEntity
  8
0
100
AcDbLine
 62
7
  6
CONTINUOUS
 10
-45.8112612995
 20
67.1699008687
 11
-45.0655229249
 21
67.514307563
  0
LWPOLYLINE
  5
543
100
AcDbEntity
  8
0
100
AcDbPolyline
 62
7
  6
CONTINUOUS
 90
12
 70
0
 10
-43.2567263842
 20
64.9369352401
 10
-43.2416645182
 20
64.9440474564
 10
-43.2189836913
 20
64.9581294955
 10
-43.1982328658
 20
64.9755526834
 10
-43.1793700647
 20
64.9962431288
 10
-43.1628221412
 20
65.0197391704
 10
-43.1486411126
 20
65.0461051211
 10
-43.1367749614
 20
65.0752766679
 10
-43.1274944891
 20
65.1065992104
 10
-43.1208899626
 20
65.1398545484
 10
-43.1168711149
 20
65.175260882
 10
-43.115437946
 20
65.2128182112
  0
LINE
  5
544
100
AcDbEntity
  8
0
100
AcDbLine
 62
250
  6
CONTINUOUS
 10
-42.1082088197
 20
65.6356120862
 11
-43.115437946
 21
65.2128182112
  0
LINE
  5
545
100
AcDbEntity
  8
ASSI
100
AcDbLine
 62
7
  6
CONTINUOUS
 10
-42.2494745734
 20
65.3596807966
 11
-43.2567036997
 21
64.9368869216
  0
LINE
  5
546
100
AcDbEntity
  8
RACCORDO
100
AcDbLine
 62
250
  6
CONTINUOUS
 10
-47.7299422455
 20
63.3981508857
 11
-46.1740728115
 21
64.0390664187
  0
LINE
  5
547
100
AcDbEntity
  8
RACCORDO
100
AcDbLine
 62
7
  6
CONTINUOUS
 10
-46.3164155477
 20
63.7627915756
 11
-47.8838487837
 21
63.1171126152
  0
LINE
  5
548
100
AcDbEntity
  8
0
100
AcDbLine
 62
7
  6
CONTINUOUS
 10
-29.5300880407
 20
120.6008090725
 11
-31.5685825835
 21
121.8176297786
  0
LINE
  5
549
100
AcDbEntity
  8
0
100
AcDbLine
 62
7
  6
CONTINUOUS
 10
-31.9152137693
 20
122.0245412986
 11
-33.9537083121
 21
123.2413620047
  0
LINE
  5
54A
100
AcDbEntity
  8
0
100
AcDbLine
 62
7
  6
CONTINUOUS
 10
-16.5022579399
 20
110.0110659166
 11
-16.8970165591
 21
110.4150830894
  0
LINE
  5
54B
100
AcDbEntity
  8
0
100
AcDbLine
 62
7
  6
CONTINUOUS
 10
-17.1465988803
 20
110.6705190416
 11
-18.6143612184
 21
112.1727058501
  0
LINE
  5
54C
100
AcDbEntity
  8
0
100
AcDbLine
 62
7
  6
CONTINUOUS
 10
-18.6337641862
 20
112.1925638894
 11
-20.1015265253
 21
113.6947506989
  0
LINE
  5
54D
100
AcDbEntity
  8
0
100
AcDbLine
 62
7
  6
CONTINUOUS
 10
-20.3511099856
 20
113.9501878169
 11
-21.8188723247
 21
115.4523746264
  0
LINE
  5
54E
100
AcDbEntity
  8
0
100
AcDbLine
 62
7
  6
CONTINUOUS
 10
-15.7278912262
 20
108.7635777783
 11
-16.5022579399
 21
110.0110659166
  0
LINE
  5
54F
100
AcDbEntity
  8
0
100
AcDbLine
 62
7
  6
CONTINUOUS
 10
-10.4297255763
 20
97.5562541427
 11
-10.9932203873
 21
99.5105747147
  0
LINE
  5
550
100
AcDbEntity
  8
0
100
AcDbLine
 62
7
  6
CONTINUOUS
 10
-11.0890385857
 20
99.8428927284
 11
-11.6525333967
 21
101.7972133004
  0
ARC
  5
551
100
AcDbEntity
  8
RACCORDO
100
AcDbCircle
 62
7
  6
CONTINUOUS
 10
-63.906791212
 20
120.0873929405
 40
0.5
100
AcDbArc
 50
63.3951601018
 51
115.2803840991
  0
ARC
  5
552
100
AcDbEntity
  8
RACCORDO
100
AcDbCircle
 62
7
  6
CONTINUOUS
 10
-38.5529813819
 20
107.4104880254
 40
0.5
100
AcDbArc
 50
32.5919510261
 51
63.4382359934
  0
ARC
  5
553
100
AcDbEntity
  8
RACCORDO
100
AcDbCircle
 62
7
  6
CONTINUOUS
 10
-38.5529813819
 20
71.6720538541
 40
0.5
100
AcDbArc
 50
297.8378633684
 51
299.4291053494
  0
ARC
  5
554
100
AcDbEntity
  8
RACCORDO
100
AcDbCircle
 62
7
  6
CONTINUOUS
 10
-50.0560585829
 20
117.8675603364
 40
0.5
100
AcDbArc
 50
63.4336255396
 51
114.7890578208
  0
ARC
  5
555
100
AcDbEntity
  8
RACCORDO
100
AcDbCircle
 62
7
  6
CONTINUOUS
 10
-42.7870617869
 20
114.2330619384
 40
0.5
100
AcDbArc
 50
0.0
 51
63.4427852563
  0
ARC
  5
556
100
AcDbEntity
  8
RACCORDO
100
AcDbCircle
 62
7
  6
CONTINUOUS
 10
-56.7793971849
 20
113.318200452
 40
0.4
100
AcDbArc
 50
118.3311209283
 51
179.9902498429
  0
ARC
  5
557
100
AcDbEntity
  8
RACCORDO
100
AcDbCircle
 62
7
  6
CONTINUOUS
 10
-58.9512634116
 20
109.9751086139
 40
0.2
100
AcDbArc
 50
118.3490262388
 51
180.0
  0
ARC
  5
558
100
AcDbEntity
  8
0
100
AcDbCircle
 62
7
  6
CONTINUOUS
 10
-45.0912971224
 20
71.7241275532
 40
0.2
100
AcDbArc
 50
269.3875886999
 51
294.811723152
  0
ARC
  5
559
100
AcDbEntity
  8
0
100
AcDbCircle
 62
7
  6
CONTINUOUS
 10
-44.8918437674
 20
92.5066052869
 40
0.2
100
AcDbArc
 50
269.3875886999
 51
294.7685024343
  0
ENDSEC
  0
SECTION
  2
OBJECTS
  0
DICTIONARY
  5
C
100
AcDbDictionary
280
0
281
1
  3
ACAD_GROUP
350
D
  3
ACAD_MLINESTYLE
350
17
  3
ACAD_LAYOUT
350
1A
  3
ACAD_PLOTSETTINGS
350
19
  3
ACAD_PLOTSTYLENAME
350
E
  0
DICTIONARY
  5
D
102
{ACAD_REACTORS
330
C
102
}
100
AcDbDictionary
280
0
281
1
  0
ACDBDICTIONARYWDFLT
  5
E
102
{ACAD_REACTORS
330
C
102
}
100
AcDbDictionary
281
1
  3
Normal
350
F
100
AcDbDictionaryWithDefault
340
F
  0
DICTIONARY
  5
17
102
{ACAD_REACTORS
330
C
102
}
100
AcDbDictionary
280
0
281
1
  3
Standard
350
18
  0
DICTIONARY
  5
19
102
{ACAD_REACTORS
330
C
102
}
100
AcDbDictionary
281
1
  0
DICTIONARY
  5
1A
102
{ACAD_REACTORS
330
C
102
}
100
AcDbDictionary
281
1
  3
Model
350
55A
  3
Layout1
350
55B
  0
ACDBPLACEHOLDER
  5
F
102
{ACAD_REACTORS
330
E
102
}
  0
MLINESTYLE
  5
18
102
{ACAD_REACTORS
330
17
102
}
100
AcDbMlineStyle
  2
STANDARD
 70
0
  3

 62
256
 51
90.0
 52
90.0
 71
2
 49
0.5
 62
256
  6
BYLAYER
 49
-0.5
 62
256
  6
BYLAYER
  0
LAYOUT
  5
55A
102
{ACAD_REACTORS
330
1A
102
}
100
AcDbPlotSettings
  1

  2
none_device
  4
ISO_A4_(297.00_x_210.00_MM)
  6

 40
0.0
 41
0.0
 42
0.0
 43
0.0
 44
297.0
 45
210.0
 46
0.0
 47
0.0
 48
0.0
 49
0.0
140
0.0
141
0.0
142
1.0
143
1.0
 70
1024
 72
1
 73
0
 74
0
  7

 75
0
147
1.0
148
0.0
149
0.0
100
AcDbLayout
  1
Model
 70
0
 71
0
 10
0.0
 20
0.0
 11
297.0
 21
210.0
 12
0.0
 22
0.0
 32
0.0
 14
0.0
 24
0.0
 34
0.0
 15
0.0
 25
0.0
 35
0.0
146
0.0
 13
0.0
 23
0.0
 33
0.0
 16
1.0
 26
0.0
 36
0.0
 17
0.0
 27
1.0
 37
0.0
 76
0
330
221
345
0
346
0
  0
LAYOUT
  5
55B
102
{ACAD_REACTORS
330
1A
102
}
100
AcDbPlotSettings
  1

  2
none_device
  4
ISO_A4_(297.00_x_210.00_MM)
  6

 40
0.0
 41
0.0
 42
0.0
 43
0.0
 44
297.0
 45
210.0
 46
0.0
 47
0.0
 48
0.0
 49
0.0
140
0.0
141
0.0
142
1.0
143
1.0
 70
0
 72
1
 73
0
 74
0
  7

 75
0
147
1.0
148
0.0
149
0.0
100
AcDbLayout
  1
Layout1
 70
0
 71
1
 10
0.0
 20
0.0
 11
297.0
 21
210.0
 12
0.0
 22
0.0
 32
0.0
 14
0.0
 24
0.0
 34
0.0
 15
0.0
 25
0.0
 35
0.0
146
0.0
 13
0.0
 23
0.0
 33
0.0
 16
1.0
 26
0.0
 36
0.0
 17
0.0
 27
1.0
 37
0.0
 76
0
330
222
345
0
346
0
  0
ENDSEC
  0
EOF
