  0
SECTION
  2
HEADER
  9
$ACADVER
  1
AC1024
  9
$DWGCODEPAGE
  3
ANSI_1252
  9
$EXTMAX
 10
297.0
 20
210.0
 30
0.0
  9
$EXTMIN
 10
0.0
 20
0.0
 30
0.0
  9
$LIMMIN
 10
0.0
 20
0.0
  9
$LIMMAX
 10
297.0
 20
210.0
  9
$VIEWCTR
 10
148.5
 20
105.0
  9
$VIEWSIZE
 40
210.0
  9
$CLAYER
  8
0
  9
$LTSCALE
 40
16.335
  9
$CELTYPE
  6
BYLAYER
  9
$DIMSCALE
 40
1.0
  9
$DIMASZ
 40
3.0
  9
$DIMEXO
 40
0.5
  9
$DIMDLI
 40
11.286
  9
$DIMEXE
 40
1.5
  9
$DIMCEN
 40
2.673
  9
$DIMLFAC
 40
1.0
  9
$DIMBLK
  1
_FILLED
  9
$DIMALT
 70
0
  9
$DIMALTF
 40
0.0393700787
  9
$DIMTXT
 40
3.0
  9
$DIMTOL
 70
1
  9
$DIMLIM
 70
0
  9
$DIMTFAC
 40
1.0
  9
$DIMTP
 40
0.01
  9
$DIMTM
 40
0.01
  9
$DIMGAP
 40
0.625
  9
$DIMDSEP
 70
44
  9
$AUNITS
 70
0
  9
$PDMODE
 70
3
  9
$PDSIZE
 40
3.0
  9
$HANDSEED
  5
458
  9
$TILEMODE
 70
1
  9
$MEASUREMENT
 70
1
  9
$INSUNITS
 70
4
  0
ENDSEC
  0
SECTION
  2
CLASSES
  0
CLASS
  1
ACDBDICTIONARYWDFLT
  2
AcDbDictionaryWithDefault
  3
AutoCAD 2000
 90
0
 91
1
280
0
281
0
  0
CLASS
  1
ACDBPLACEHOLDER
  2
AcDbPlaceHolder
  3
AutoCAD 2000
 90
0
 91
1
280
0
281
0
  0
CLASS
  1
LAYOUT
  2
AcDbLayout
  3
AutoCAD 2000
 90
0
 91
0
280
0
281
0
  0
ENDSEC
  0
SECTION
  2
TABLES
  0
TABLE
  2
VPORT
  5
8
100
AcDbSymbolTable
 70
2
  0
VPORT
  5
1F4
100
AcDbSymbolTableRecord
100
AcDbViewportTableRecord
  2
*ACTIVE
 70
0
 10
0.0
 20
0.0
 11
1.0
 21
1.0
 12
148.5
 22
105.0
 13
0.0
 23
0.0
 14
1.0
 24
1.0
 15
0.0
 25
0.0
 16
0.0
 26
0.0
 36
1.0
 17
0.0
 27
0.0
 37
0.0
 40
210.0
 41
1.4142857143
 42
50.0
 43
0.0
 44
0.0
 50
0.0
 51
0.0
 71
0
 72
100
 73
1
 74
1
 75
0
 76
0
 77
0
 78
0
  0
ENDTAB
  0
TABLE
  2
LTYPE
  5
5
100
AcDbSymbolTable
 70
6
  0
LTYPE
  5
14
100
AcDbSymbolTableRecord
100
AcDbLinetypeTableRecord
  2
BYBLOCK
 70
0
  3

 72
65
 73
0
 40
0.0
  0
LTYPE
  5
15
100
AcDbSymbolTableRecord
100
AcDbLinetypeTableRecord
  2
BYLAYER
 70
0
  3

 72
65
 73
0
 40
0.0
  0
LTYPE
  5
16
100
AcDbSymbolTableRecord
100
AcDbLinetypeTableRecord
  2
CONTINUOUS
 70
64
  3
Solid line
 72
65
 73
0
 40
0.0
  0
LTYPE
  5
1F5
100
AcDbSymbolTableRecord
100
AcDbLinetypeTableRecord
  2
CENTER
 70
64
  3
____ _ ____ _ ____ _ ____ _ ____ _ ____ _ ____
 72
65
 73
4
 40
0.6
 49
0.375
 74
0
 49
-0.075
 74
0
 49
0.075
 74
0
 49
-0.075
 74
0
  0
LTYPE
  5
1F6
100
AcDbSymbolTableRecord
100
AcDbLinetypeTableRecord
  2
HIDDEN
 70
64
  3
- - - - - - - - - - - - - - - - - - - -
 72
65
 73
2
 40
0.2
 49
0.1
 74
0
 49
-0.1
 74
0
  0
LTYPE
  5
1F7
100
AcDbSymbolTableRecord
100
AcDbLinetypeTableRecord
  2
PHANTOM
 70
64
  3
_____ _ _ _____ _ _ _____ _ _ _____
 72
65
 73
6
 40
0.8
 49
0.45
 74
0
 49
-0.05
 74
0
 49
0.1
 74
0
 49
-0.05
 74
0
 49
0.1
 74
0
 49
-0.05
 74
0
  0
LTYPE
  5
1F8
100
AcDbSymbolTableRecord
100
AcDbLinetypeTableRecord
  2
DOT
 70
64
  3
. . . . . . . . . . . . . . . . . . . .
 72
65
 73
2
 40
0.2
 49
0.1
 74
0
 49
-0.1
 74
0
  0
LTYPE
  5
1F9
100
AcDbSymbolTableRecord
100
AcDbLinetypeTableRecord
  2
DASHED
 70
64
  3
- - - - - - - - - - - - - - - - - - - -
 72
65
 73
2
 40
0.2
 49
0.1
 74
0
 49
-0.1
 74
0
  0
ENDTAB
  0
TABLE
  2
LAYER
  5
2
100
AcDbSymbolTable
 70
36
  0
LAYER
  5
10
100
AcDbSymbolTableRecord
100
AcDbLayerTableRecord
  2
0
 70
0
 62
7
  6
CONTINUOUS
370
-3
390
F
  0
LAYER
  5
1FA
100
AcDbSymbolTableRecord
100
AcDbLayerTableRecord
  2
DEFAULT_1
 70
0
 62
7
  6
CENTER
370
-3
390
F
  0
LAYER
  5
1FB
100
AcDbSymbolTableRecord
100
AcDbLayerTableRecord
  2
DEFAULT_2
 70
0
 62
7
  6
HIDDEN
370
-3
390
F
  0
LAYER
  5
1FC
100
AcDbSymbolTableRecord
100
AcDbLayerTableRecord
  2
DEFAULT_3
 70
0
 62
7
  6
PHANTOM
370
-3
390
F
  0
LAYER
  5
1FD
100
AcDbSymbolTableRecord
100
AcDbLayerTableRecord
  2
ASSI
 70
0
 62
7
  6
CONTINUOUS
370
-3
390
F
  0
LAYER
  5
1FE
100
AcDbSymbolTableRecord
100
AcDbLayerTableRecord
  2
COORDINATE
 70
0
 62
7
  6
CONTINUOUS
370
-3
390
F
  0
LAYER
  5
1FF
100
AcDbSymbolTableRecord
100
AcDbLayerTableRecord
  2
COORD_ORIGINE
 70
0
 62
7
  6
CONTINUOUS
370
-3
390
F
  0
LAYER
  5
200
100
AcDbSymbolTableRecord
100
AcDbLayerTableRecord
  2
COPY-PUBBLISH
 70
0
 62
7
  6
CONTINUOUS
370
-3
390
F
  0
LAYER
  5
201
100
AcDbSymbolTableRecord
100
AcDbLayerTableRecord
  2
COPY_PUBLISH
 70
0
 62
7
  6
CONTINUOUS
370
-3
390
F
  0
LAYER
  5
202
100
AcDbSymbolTableRecord
100
AcDbLayerTableRecord
  2
COSMETIC
 70
0
 62
7
  6
CONTINUOUS
370
-3
390
F
  0
LAYER
  5
203
100
AcDbSymbolTableRecord
100
AcDbLayerTableRecord
  2
COSMETICHE
 70
0
 62
7
  6
CONTINUOUS
370
-3
390
F
  0
LAYER
  5
204
100
AcDbSymbolTableRecord
100
AcDbLayerTableRecord
  2
COSMETICI
 70
0
 62
7
  6
CONTINUOUS
370
-3
390
F
  0
LAYER
  5
205
100
AcDbSymbolTableRecord
100
AcDbLayerTableRecord
  2
CURVA_CENTRALE
 70
0
 62
7
  6
CONTINUOUS
370
-3
390
F
  0
LAYER
  5
206
100
AcDbSymbolTableRecord
100
AcDbLayerTableRecord
  2
CURVE
 70
0
 62
7
  6
CONTINUOUS
370
-3
390
F
  0
LAYER
  5
207
100
AcDbSymbolTableRecord
100
AcDbLayerTableRecord
  2
DRAFT
 70
0
 62
7
  6
CONTINUOUS
370
-3
390
F
  0
LAYER
  5
208
100
AcDbSymbolTableRecord
100
AcDbLayerTableRecord
  2
IMPORT_IGES
 70
0
 62
7
  6
CONTINUOUS
370
-3
390
F
  0
LAYER
  5
209
100
AcDbSymbolTableRecord
100
AcDbLayerTableRecord
  2
INTF_1
 70
0
 62
7
  6
CONTINUOUS
370
-3
390
F
  0
LAYER
  5
20A
100
AcDbSymbolTableRecord
100
AcDbLayerTableRecord
  2
INTF_11
 70
0
 62
7
  6
CONTINUOUS
370
-3
390
F
  0
LAYER
  5
20B
100
AcDbSymbolTableRecord
100
AcDbLayerTableRecord
  2
INTF_2
 70
0
 62
7
  6
CONTINUOUS
370
-3
390
F
  0
LAYER
  5
20C
100
AcDbSymbolTableRecord
100
AcDbLayerTableRecord
  2
INTF_8
 70
0
 62
7
  6
CONTINUOUS
370
-3
390
F
  0
LAYER
  5
20D
100
AcDbSymbolTableRecord
100
AcDbLayerTableRecord
  2
NOTE
 70
0
 62
7
  6
CONTINUOUS
370
-3
390
F
  0
LAYER
  5
20E
100
AcDbSymbolTableRecord
100
AcDbLayerTableRecord
  2
PIANI
 70
0
 62
7
  6
CONTINUOUS
370
-3
390
F
  0
LAYER
  5
20F
100
AcDbSymbolTableRecord
100
AcDbLayerTableRecord
  2
PIANI_ORIGINE
 70
0
 62
7
  6
CONTINUOUS
370
-3
390
F
  0
LAYER
  5
210
100
AcDbSymbolTableRecord
100
AcDbLayerTableRecord
  2
PIANI_RIFERIMENTO
 70
0
 62
7
  6
CONTINUOUS
370
-3
390
F
  0
LAYER
  5
211
100
AcDbSymbolTableRecord
100
AcDbLayerTableRecord
  2
PUNTI
 70
0
 62
7
  6
CONTINUOUS
370
-3
390
F
  0
LAYER
  5
212
100
AcDbSymbolTableRecord
100
AcDbLayerTableRecord
  2
RACCORDO
 70
0
 62
7
  6
CONTINUOUS
370
-3
390
F
  0
LAYER
  5
213
100
AcDbSymbolTableRecord
100
AcDbLayerTableRecord
  2
RGB__255__255__255__
 70
0
 62
7
  6
CONTINUOUS
370
-3
390
F
  0
LAYER
  5
214
100
AcDbSymbolTableRecord
100
AcDbLayerTableRecord
  2
RGB____0____0____0__
 70
0
 62
7
  6
CONTINUOUS
370
-3
390
F
  0
LAYER
  5
215
100
AcDbSymbolTableRecord
100
AcDbLayerTableRecord
  2
SIMBOLI
 70
0
 62
7
  6
CONTINUOUS
370
-3
390
F
  0
LAYER
  5
216
100
AcDbSymbolTableRecord
100
AcDbLayerTableRecord
  2
SKETCH
 70
0
 62
7
  6
CONTINUOUS
370
-3
390
F
  0
LAYER
  5
217
100
AcDbSymbolTableRecord
100
AcDbLayerTableRecord
  2
SMUSSO
 70
0
 62
7
  6
CONTINUOUS
370
-3
390
F
  0
LAYER
  5
218
100
AcDbSymbolTableRecord
100
AcDbLayerTableRecord
  2
SUPERFICI
 70
0
 62
7
  6
CONTINUOUS
370
-3
390
F
  0
LAYER
  5
219
100
AcDbSymbolTableRecord
100
AcDbLayerTableRecord
  2
TRASH
 70
0
 62
7
  6
CONTINUOUS
370
-3
390
F
  0
LAYER
  5
21A
100
AcDbSymbolTableRecord
100
AcDbLayerTableRecord
  2
XSEC_DATUMS
 70
0
 62
7
  6
CONTINUOUS
370
-3
390
F
  0
ENDTAB
  0
TABLE
  2
STYLE
  5
3
100
AcDbSymbolTable
 70
1
  0
STYLE
  5
11
100
AcDbSymbolTableRecord
100
AcDbTextStyleTableRecord
  2
STANDARD
 70
0
 40
0.0
 41
0.8
 50
0.0
 71
0
 42
0.2
  3
txt
  4

  0
STYLE
  5
21B
100
AcDbSymbolTableRecord
100
AcDbTextStyleTableRecord
  2
TEXTSTYLE_1
 70
0
 40
0.0
 41
0.8
 50
0.0
 71
0
 42
0.2
  3
gdt
  4

  0
ENDTAB
  0
TABLE
  2
VIEW
  5
6
100
AcDbSymbolTable
 70
0
  0
ENDTAB
  0
TABLE
  2
UCS
  5
7
100
AcDbSymbolTable
 70
0
  0
ENDTAB
  0
TABLE
  2
APPID
  5
9
100
AcDbSymbolTable
 70
1
  0
APPID
  5
21C
100
AcDbSymbolTableRecord
100
AcDbRegAppTableRecord
  2
ACAD
 70
0
  0
ENDTAB
  0
TABLE
  2
BLOCK_RECORD
  5
1
100
AcDbSymbolTable
 70
0
  0
BLOCK_RECORD
  5
21D
100
AcDbSymbolTableRecord
100
AcDbBlockTableRecord
  2
*Model_Space
  0
BLOCK_RECORD
  5
21E
100
AcDbSymbolTableRecord
100
AcDbBlockTableRecord
  2
*Paper_Space
  0
BLOCK_RECORD
  5
21F
100
AcDbSymbolTableRecord
100
AcDbBlockTableRecord
  2
_FILLED
  0
ENDTAB
  0
TABLE
  2
DIMSTYLE
  5
A
100
AcDbSymbolTable
 70
1
100
AcDbDimStyleTable
 71
0
  0
DIMSTYLE
105
220
100
AcDbSymbolTableRecord
100
AcDbDimStyleTableRecord
  2
STANDARD
 70
0
  3

  4

 40
1.0
 41
3.0
 42
0.5
 43
0.38
 44
1.5
 45
0.0
 46
0.0
 47
0.01
 48
0.01
140
3.0
141
0.09
142
0.0
143
25.4
144
1.0
145
0.0
146
1.0
147
0.625
 71
1
 72
0
 73
0
 74
0
 75
0
 76
0
 77
1
 78
8
 79
2
170
0
171
1
172
0
173
0
174
0
175
0
176
0
177
0
178
0
270
2
179
2
271
2
272
2
273
2
274
2
275
0
280
0
281
0
282
0
283
1
284
8
285
0
286
0
287
3
288
0
340
11
278
44
341
21F
342
21F
343
21F
344
21F
  0
ENDTAB
  0
ENDSEC
  0
SECTION
  2
BLOCKS
  0
BLOCK
  5
20
100
AcDbEntity
  8
0
100
AcDbBlockBegin
  2
*Model_Space
 70
0
 10
0.0
 20
0.0
 30
0.0
  3
*Model_Space
  1

  0
ENDBLK
  5
21
100
AcDbEntity
  8
0
100
AcDbBlockEnd
  0
BLOCK
  5
1C
100
AcDbEntity
  8
0
100
AcDbBlockBegin
  2
*Paper_Space
 70
0
 10
0.0
 20
0.0
 30
0.0
  3
*Paper_Space
  1

  0
ENDBLK
  5
1D
100
AcDbEntity
  8
0
100
AcDbBlockEnd
  0
BLOCK
  5
221
100
AcDbEntity
  8
0
100
AcDbBlockBegin
  2
_FILLED
 70
64
 10
0.0
 20
0.0
  3
_FILLED
  1

  0
SOLID
  5
222
100
AcDbEntity
  8
0
  6
BYBLOCK
 62
0
100
AcDbTrace
 10
0.0
 20
0.0
 11
-1.0
 21
0.3166666667
 12
-1.0
 22
-0.3166666667
 13
-1.0
 23
-0.3166666667
  0
ENDBLK
  5
223
100
AcDbEntity
  8
0
  6
BYBLOCK
 62
0
100
AcDbBlockEnd
  0
ENDSEC
  0
SECTION
  2
ENTITIES
  0
LWPOLYLINE
  5
224
100
AcDbEntity
  8
RACCORDO
100
AcDbPolyline
 62
7
  6
CONTINUOUS
 90
10
 70
0
 10
-15.4378229404
 20
21.5574148797
 10
-15.4565842449
 20
21.5441414064
 10
-15.4870884607
 20
21.5179218452
 10
-15.5150095108
 20
21.4873758749
 10
-15.5397957128
 20
21.4525817049
 10
-15.5607571294
 20
21.41394041
 10
-15.5773136041
 20
21.3721415658
 10
-15.5892036884
 20
21.3276128775
 10
-15.5962462332
 20
21.2805730952
 10
-15.5983031787
 20
21.2364300556
  0
LWPOLYLINE
  5
225
100
AcDbEntity
  8
RACCORDO
100
AcDbPolyline
 62
7
  6
CONTINUOUS
 90
19
 70
0
 10
-19.8936567383
 20
18.5966156926
 10
-19.9449013094
 20
18.561309722
 10
-20.0290528289
 20
18.4965823099
 10
-20.1097523822
 20
18.4261042956
 10
-20.1868521578
 20
18.3503533261
 10
-20.26026855
 20
18.2697341283
 10
-20.3298195395
 20
18.1846669983
 10
-20.3953240417
 20
18.0955727942
 10
-20.4565709491
 20
18.0028574051
 10
-20.5132533375
 20
17.9070435458
 10
-20.5651622682
 20
17.808547472
 10
-20.6120528783
 20
17.7077652331
 10
-20.6536354095
 20
17.6052293488
 10
-20.6896782063
 20
17.5013315015
 10
-20.7199107572
 20
17.3964530988
 10
-20.7440673281
 20
17.2909785154
 10
-20.7618487196
 20
17.1851925522
 10
-20.772919484
 20
17.0794625284
 10
-20.776033315
 20
17.0210422022
  0
LINE
  5
226
100
AcDbEntity
  8
TRASH
100
AcDbLine
 62
7
  6
CONTINUOUS
 10
-15.4383696485
 20
21.5570571482
 11
-14.5614972537
 21
22.1353462459
  0
LINE
  5
227
100
AcDbEntity
  8
RACCORDO
100
AcDbLine
 62
7
  6
CONTINUOUS
 10
-15.4383697451
 20
21.5570570845
 11
-15.4378635686
 21
21.5573895377
  0
LWPOLYLINE
  5
228
100
AcDbEntity
  8
RACCORDO
100
AcDbPolyline
 62
250
  6
CONTINUOUS
 90
13
 70
0
 10
-15.1809287074
 20
21.5370895249
 10
-15.2031332019
 20
21.52129109
 10
-15.2248347075
 20
21.5025713032
 10
-15.2456862148
 20
21.4812294956
 10
-15.2653543063
 20
21.4576069249
 10
-15.283524487
 20
21.4320813184
 10
-15.2999062141
 20
21.4050608332
 10
-15.314237542
 20
21.3769775294
 10
-15.3262893114
 20
21.3482804619
 10
-15.3358688133
 20
21.3194284998
 10
-15.3428228704
 20
21.2908829888
 10
-15.3470402867
 20
21.2631003745
 10
-15.3484536253
 20
21.2365249037
  0
LINE
  5
229
100
AcDbEntity
  8
RACCORDO
100
AcDbLine
 62
7
  6
CONTINUOUS
 10
-19.893785735
 20
18.5965350449
 11
-17.9103803885
 21
19.9045722176
  0
LINE
  5
22A
100
AcDbEntity
  8
RACCORDO
100
AcDbLine
 62
250
  6
CONTINUOUS
 10
-15.1809287074
 20
21.5370895249
 11
-14.3033831873
 21
22.1158225423
  0
LINE
  5
22B
100
AcDbEntity
  8
RACCORDO
100
AcDbLine
 62
250
  6
CONTINUOUS
 10
-19.6370163131
 20
18.5761245609
 11
-17.6522663221
 21
19.885048514
  0
LWPOLYLINE
  5
22C
100
AcDbEntity
  8
RACCORDO
100
AcDbPolyline
 62
250
  6
CONTINUOUS
 90
11
 70
0
 10
-15.4378635686
 20
21.5573895377
 10
-15.4302133577
 20
21.5620937726
 10
-15.4078346087
 20
21.5728137663
 10
-15.3836576444
 20
21.580200848
 10
-15.3578699483
 20
21.5841965928
 10
-15.3306676757
 20
21.5847707556
 10
-15.3022549967
 20
21.5819208472
 10
-15.2728481021
 20
21.5756679705
 10
-15.2426707722
 20
21.5660591707
 10
-15.211952759
 20
21.5531673094
 10
-15.1809287074
 20
21.5370895249
  0
LWPOLYLINE
  5
22D
100
AcDbEntity
  8
RACCORDO
100
AcDbPolyline
 62
7
  6
CONTINUOUS
 90
6
 70
0
 10
-14.4226459292
 20
19.7977099595
 10
-14.4141594114
 20
19.8025357983
 10
-14.4046545587
 20
19.808045134
 10
-14.3942623273
 20
19.8141704478
 10
-14.3829320734
 20
19.8207389513
 10
-14.370712164
 20
19.827638796
  0
LWPOLYLINE
  5
22E
100
AcDbEntity
  8
RACCORDO
100
AcDbPolyline
 62
7
  6
CONTINUOUS
 90
3
 70
0
 10
-14.4400781223
 20
19.7876677297
 10
-14.4356212092
 20
19.7901467053
 10
-14.4226459292
 20
19.7977099595
  0
LWPOLYLINE
  5
22F
100
AcDbEntity
  8
RACCORDO
100
AcDbPolyline
 62
250
  6
CONTINUOUS
 90
9
 70
0
 10
-19.8936587291
 20
18.5966187145
 10
-19.8728098382
 20
18.6081521347
 10
-19.8447789182
 20
18.6179953378
 10
-19.8142718583
 20
18.6230358543
 10
-19.781622512
 20
18.6232185233
 10
-19.747188177
 20
18.6185413456
 10
-19.7113456847
 20
18.609055506
 10
-19.674487277
 20
18.5948648125
 10
-19.6370163131
 20
18.5761245609
  0
LWPOLYLINE
  5
230
100
AcDbEntity
  8
RACCORDO
100
AcDbPolyline
 62
7
  6
CONTINUOUS
 90
15
 70
0
 10
-5.4392925079
 20
-25.9099148931
 10
-5.4152673855
 20
-25.9232977445
 10
-5.3529142569
 20
-25.9535010522
 10
-5.2878222838
 20
-25.9786933539
 10
-5.2202642635
 20
-25.9986824725
 10
-5.150365305
 20
-26.0133390224
 10
-5.0784378201
 20
-26.0224829137
 10
-5.0048288026
 20
-26.0259583676
 10
-4.9296214557
 20
-26.0236325724
 10
-4.8530858517
 20
-26.0153822202
 10
-4.7754862473
 20
-26.0011010544
 10
-4.696775218
 20
-25.9805978256
 10
-4.617058574
 20
-25.9536731516
 10
-4.5366879798
 20
-25.9202321559
 10
-4.4947246106
 20
-25.9002256788
  0
LINE
  5
231
100
AcDbEntity
  8
RACCORDO
100
AcDbLine
 62
7
  6
CONTINUOUS
 10
-5.4386886314
 20
-25.9102724787
 11
-20.3234600777
 21
-17.3159919956
  0
LINE
  5
232
100
AcDbEntity
  8
RACCORDO
100
AcDbLine
 62
250
  6
CONTINUOUS
 10
-5.7520194992
 20
-25.2714376574
 11
-20.6295821881
 21
-16.6813194206
  0
LWPOLYLINE
  5
233
100
AcDbEntity
  8
RACCORDO
100
AcDbPolyline
 62
250
  6
CONTINUOUS
 90
12
 70
0
 10
-20.3234603925
 20
-17.3159918138
 10
-20.3530326009
 20
-17.2974800928
 10
-20.4010472531
 20
-17.2605225592
 10
-20.4450302181
 20
-17.2173747439
 10
-20.4847480652
 20
-17.1682558786
 10
-20.5199979143
 20
-17.1134184722
 10
-20.5506013797
 20
-17.053144897
 10
-20.5764110576
 20
-16.9877288409
 10
-20.5973065199
 20
-16.917481835
 10
-20.6131843413
 20
-16.8427460836
 10
-20.6239612443
 20
-16.7638953918
 10
-20.6295821881
 20
-16.6813194206
  0
LINE
  5
234
100
AcDbEntity
  8
RACCORDO
100
AcDbLine
 62
7
  6
CONTINUOUS
 10
-14.428913623
 20
18.8988284201
 11
-15.1605590079
 21
18.4463679392
  0
LINE
  5
235
100
AcDbEntity
  8
RACCORDO
100
AcDbLine
 62
250
  6
CONTINUOUS
 10
-14.190930596
 20
18.8665413812
 11
-15.0104846289
 21
18.3597168736
  0
LINE
  5
236
100
AcDbEntity
  8
RACCORDO
100
AcDbLine
 62
250
  6
CONTINUOUS
 10
-14.9477614491
 20
18.3235012957
 11
-14.1063687116
 21
18.8177164089
  0
LINE
  5
237
100
AcDbEntity
  8
RACCORDO
100
AcDbLine
 62
250
  6
CONTINUOUS
 10
-14.2437612871
 20
17.9170204254
 11
-13.7528557062
 21
18.2053672894
  0
LWPOLYLINE
  5
238
100
AcDbEntity
  8
RACCORDO
100
AcDbPolyline
 62
7
  6
CONTINUOUS
 90
4
 70
0
 10
-14.4289050406
 20
18.8988337276
 10
-14.4259902742
 20
18.9005043286
 10
-14.4154755285
 20
18.9050073818
 10
-14.4026484144
 20
18.9086577693
  0
LWPOLYLINE
  5
239
100
AcDbEntity
  8
TRASH
100
AcDbPolyline
 62
7
  6
CONTINUOUS
 90
14
 70
0
 10
-10.0225461555
 20
19.9270526858
 10
-10.0256950508
 20
19.9252784424
 10
-10.0542589925
 20
19.9131454823
 10
-10.0857759672
 20
19.9058232205
 10
-10.1188161619
 20
19.9036442172
 10
-10.1531700006
 20
19.9067885417
 10
-10.1890470594
 20
19.9150761248
 10
-10.2256462531
 20
19.9282993198
 10
-10.263225967
 20
19.9466920032
 10
-10.3015278159
 20
19.9700202985
 10
-10.3389755587
 20
19.9973749292
 10
-10.3750437817
 20
20.0284528032
 10
-10.4102578985
 20
20.0635570124
 10
-10.4446179092
 20
20.1026875571
  0
LINE
  5
23A
100
AcDbEntity
  8
TRASH
100
AcDbLine
 62
7
  6
CONTINUOUS
 10
-7.0906249031
 20
21.7889028224
 11
-7.7127345743
 21
21.4449380429
  0
LINE
  5
23B
100
AcDbEntity
  8
TRASH
100
AcDbLine
 62
7
  6
CONTINUOUS
 10
-7.7127345743
 20
21.4449380429
 11
-9.2866568682
 21
20.5754072915
  0
LINE
  5
23C
100
AcDbEntity
  8
TRASH
100
AcDbLine
 62
7
  6
CONTINUOUS
 10
-9.2866568682
 20
20.5754072915
 11
-9.9235963687
 21
20.2237606841
  0
LINE
  5
23D
100
AcDbEntity
  8
TRASH
100
AcDbLine
 62
250
  6
CONTINUOUS
 10
-6.9188877746
 20
21.8230056936
 11
-9.7617509326
 21
20.2556014163
  0
LINE
  5
23E
100
AcDbEntity
  8
TRASH
100
AcDbLine
 62
250
  6
CONTINUOUS
 10
-6.5276201644
 20
21.7335023104
 11
-9.3709434857
 21
20.1660109811
  0
LINE
  5
23F
100
AcDbEntity
  8
RACCORDO
100
AcDbLine
 62
250
  6
CONTINUOUS
 10
-6.0236035826
 20
22.8124073073
 11
-8.8021234068
 21
21.2844815492
  0
LINE
  5
240
100
AcDbEntity
  8
RACCORDO
100
AcDbLine
 62
250
  6
CONTINUOUS
 10
-5.884694632
 20
22.7920371327
 11
-8.3275457034
 21
21.4487185265
  0
LINE
  5
241
100
AcDbEntity
  8
TRASH
100
AcDbLine
 62
7
  6
CONTINUOUS
 10
-6.0815800831
 20
22.8361896952
 11
-10.9346388918
 21
20.1707518063
  0
LINE
  5
242
100
AcDbEntity
  8
RACCORDO
100
AcDbLine
 62
7
  6
CONTINUOUS
 10
-1.2476005483
 20
25.4762688517
 11
-6.0039256263
 21
22.8655993324
  0
LINE
  5
243
100
AcDbEntity
  8
RACCORDO
100
AcDbLine
 62
250
  6
CONTINUOUS
 10
-0.9514839819
 20
25.4443808122
 11
-5.7490504419
 21
22.8110741905
  0
LINE
  5
244
100
AcDbEntity
  8
TRASH
100
AcDbLine
 62
7
  6
CONTINUOUS
 10
-9.4768311082
 20
20.6325738833
 11
-10.4446179092
 21
20.1026875571
  0
LINE
  5
245
100
AcDbEntity
  8
TRASH
100
AcDbLine
 62
7
  6
CONTINUOUS
 10
-7.564541462
 20
21.6787757829
 11
-9.4768311082
 21
20.6325738833
  0
LWPOLYLINE
  5
246
100
AcDbEntity
  8
RACCORDO
100
AcDbPolyline
 62
250
  6
CONTINUOUS
 90
9
 70
0
 10
-5.8846946161
 20
22.7920371236
 10
-5.866632161
 20
22.8012108449
 10
-5.8487280724
 20
22.8085202641
 10
-5.8311126263
 20
22.8139121956
 10
-5.8139139981
 20
22.8173474058
 10
-5.7972573306
 20
22.8188008993
 10
-5.7812638229
 20
22.8182620998
 10
-5.7660498488
 20
22.8157349278
 10
-5.75172611
 20
22.811237772
  0
LWPOLYLINE
  5
247
100
AcDbEntity
  8
RACCORDO
100
AcDbPolyline
 62
250
  6
CONTINUOUS
 90
10
 70
0
 10
-1.2476005483
 20
25.4762688517
 10
-1.2293039706
 20
25.4851528902
 10
-1.1994431246
 20
25.4952655183
 10
-1.1676598958
 20
25.5010353971
 10
-1.1342141928
 20
25.5024192287
 10
-1.0993688672
 20
25.4994098401
 10
-1.0633856493
 20
25.4920295191
 10
-1.0265448465
 20
25.4803317444
 10
-0.989144992
 20
25.464407484
 10
-0.9514839819
 20
25.4443808122
  0
LWPOLYLINE
  5
248
100
AcDbEntity
  8
RACCORDO
100
AcDbPolyline
 62
7
  6
CONTINUOUS
 90
5
 70
0
 10
-8.5989886596
 20
21.3502032193
 10
-8.7388070238
 20
21.2958802489
 10
-8.7451442435
 20
21.2934636056
 10
-8.7509571131
 20
21.291303568
 10
-8.7562625466
 20
21.2894111785
  0
LWPOLYLINE
  5
249
100
AcDbEntity
  8
RACCORDO
100
AcDbPolyline
 62
250
  6
CONTINUOUS
 90
10
 70
0
 10
-6.0235793773
 20
22.812420618
 10
-6.0103564194
 20
22.8169987324
 10
-5.9963464148
 20
22.8198826115
 10
-5.9816530894
 20
22.8210512933
 10
-5.9663718531
 20
22.8204774084
 10
-5.9506082156
 20
22.8181550003
 10
-5.9344719787
 20
22.814126733
 10
-5.9180538335
 20
22.8084285232
 10
-5.901433465
 20
22.8010607737
 10
-5.8846946161
 20
22.7920371236
  0
LINE
  5
24A
100
AcDbEntity
  8
RACCORDO
100
AcDbLine
 62
250
  6
CONTINUOUS
 10
-8.7891102336
 20
21.2889502074
 11
-8.8021234068
 21
21.2844815492
  0
LINE
  5
24B
100
AcDbEntity
  8
RACCORDO
100
AcDbLine
 62
7
  6
CONTINUOUS
 10
-8.7562625466
 20
21.2894111785
 11
-8.7610781344
 21
21.287795142
  0
LINE
  5
24C
100
AcDbEntity
  8
RACCORDO
100
AcDbLine
 62
7
  6
CONTINUOUS
 10
-8.7610781344
 20
21.287795142
 11
-8.7705771383
 21
21.2848258201
  0
LINE
  5
24D
100
AcDbEntity
  8
TRASH
100
AcDbLine
 62
7
  6
CONTINUOUS
 10
-10.4446179092
 20
20.1026875571
 11
-10.692982246
 21
20.0312222877
  0
LWPOLYLINE
  5
24E
100
AcDbEntity
  8
RACCORDO
100
AcDbPolyline
 62
250
  6
CONTINUOUS
 90
8
 70
0
 10
-20.7751961557
 20
-16.49026856
 10
-20.7693772955
 20
-16.5210589038
 10
-20.7582756529
 20
-16.5512010842
 10
-20.7420101764
 20
-16.5803721425
 10
-20.7207551428
 20
-16.6082595252
 10
-20.6947382893
 20
-16.6345644327
 10
-20.6642383737
 20
-16.6590050207
 10
-20.6295821877
 20
-16.6813194203
  0
LWPOLYLINE
  5
24F
100
AcDbEntity
  8
RACCORDO
100
AcDbPolyline
 62
7
  6
CONTINUOUS
 90
15
 70
0
 10
-20.7760007474
 20
-16.4784808113
 10
-20.7704718166
 20
-16.5616705572
 10
-20.7593270519
 20
-16.6463521804
 10
-20.743011712
 20
-16.7269732091
 10
-20.7218283851
 20
-16.8033228568
 10
-20.696031267
 20
-16.8754943775
 10
-20.6657505287
 20
-16.943714109
 10
-20.6312245593
 20
-17.0078203751
 10
-20.5927114423
 20
-17.0676896478
 10
-20.5503147506
 20
-17.1234202939
 10
-20.5043264288
 20
-17.174801607
 10
-20.4550435298
 20
-17.2216633184
 10
-20.402556246
 20
-17.2640345145
 10
-20.3471171514
 20
-17.3017892674
 10
-20.3228038917
 20
-17.3163619697
  0
LWPOLYLINE
  5
250
100
AcDbEntity
  8
RACCORDO
100
AcDbPolyline
 62
250
  6
CONTINUOUS
 90
7
 70
0
 10
-20.9234061205
 20
0.1719089086
 10
-20.9222360901
 20
0.1514941437
 10
-20.9187169083
 20
0.1327868558
 10
-20.9129075199
 20
0.1161003844
 10
-20.90490523
 20
0.101714221
 10
-20.8948440735
 20
0.089869328
 10
-20.882035156
 20
0.0802595645
  0
LWPOLYLINE
  5
251
100
AcDbEntity
  8
RACCORDO
100
AcDbPolyline
 62
7
  6
CONTINUOUS
 90
12
 70
0
 10
-21.0698535263
 20
0.3747316863
 10
-21.0688246558
 20
0.3500090799
 10
-21.064547503
 20
0.3187944399
 10
-21.0569097873
 20
0.2877853724
 10
-21.0459034551
 20
0.2572831595
 10
-21.0315673589
 20
0.2276107831
 10
-21.0139527779
 20
0.1990171293
 10
-20.9931331302
 20
0.1717068982
 10
-20.9692035786
 20
0.145881894
 10
-20.9421937536
 20
0.1216690566
 10
-20.9121140295
 20
0.0991792211
 10
-20.882030418
 20
0.0802677617
  0
LWPOLYLINE
  5
252
100
AcDbEntity
  8
RACCORDO
100
AcDbPolyline
 62
250
  6
CONTINUOUS
 90
9
 70
0
 10
-20.7760391325
 20
17.0210423984
 10
-20.7751899339
 20
16.9990981542
 10
-20.7693707033
 20
16.9705224964
 10
-20.7582688025
 20
16.9423061128
 10
-20.7420031808
 20
16.9147513226
 10
-20.7207481133
 20
16.8881533568
 10
-20.6947313335
 20
16.8627971945
 10
-20.6642315935
 20
16.8389545096
 10
-20.6295756773
 20
16.8168807602
  0
LWPOLYLINE
  5
253
100
AcDbEntity
  8
RACCORDO
100
AcDbPolyline
 62
250
  6
CONTINUOUS
 90
10
 70
0
 10
-20.6295821881
 20
-16.6813194206
 10
-20.6901575699
 20
-14.8883880713
 10
-20.7437517635
 20
-13.0910246786
 10
-20.7903641697
 20
-11.2892656973
 10
-20.8299937628
 20
-9.4831755461
 10
-20.8626410181
 20
-7.6727630952
 10
-20.8883068169
 20
-5.8579810066
 10
-20.9069903868
 20
-4.0388373997
 10
-20.9186903973
 20
-2.2153965097
 10
-20.9234061205
 20
-0.3876947137
  0
LWPOLYLINE
  5
254
100
AcDbEntity
  8
RACCORDO
100
AcDbPolyline
 62
250
  6
CONTINUOUS
 90
11
 70
0
 10
-21.0698535203
 20
0.3747413198
 10
-21.0698344136
 20
0.3722582112
 10
-21.0675903629
 20
0.3476496122
 10
-21.0616494656
 20
0.3232181443
 10
-21.0520621899
 20
0.2991471468
 10
-21.0388823127
 20
0.2756171869
 10
-21.0222090886
 20
0.2527989422
 10
-21.0021710121
 20
0.2308584123
 10
-20.9788973802
 20
0.2099593461
 10
-20.9525581217
 20
0.1902602677
 10
-20.9233954542
 20
0.1719150544
  0
LWPOLYLINE
  5
255
100
AcDbEntity
  8
RACCORDO
100
AcDbPolyline
 62
7
  6
CONTINUOUS
 90
10
 70
0
 10
-21.0698535211
 20
-0.1823785308
 10
-21.0652840473
 20
-1.9783484445
 10
-21.053633073
 20
-3.8112411284
 10
-21.0349264199
 20
-5.6398467428
 10
-21.0091643371
 20
-7.4641234851
 10
-20.9763473023
 20
-9.2840366602
 10
-20.9364758054
 20
-11.0995540403
 10
-20.8895504609
 20
-12.9106406926
 10
-20.8355723607
 20
-14.7172549932
 10
-20.7760082663
 20
-16.4784416173
  0
LWPOLYLINE
  5
256
100
AcDbEntity
  8
RACCORDO
100
AcDbPolyline
 62
250
  6
CONTINUOUS
 90
10
 70
0
 10
-20.9234061205
 20
0.1719089086
 10
-20.9186903973
 20
2.0052496498
 10
-20.9069903868
 20
3.8426809658
 10
-20.8883068169
 20
5.684165639
 10
-20.8626410181
 20
7.5296379039
 10
-20.8299937628
 20
9.3790887428
 10
-20.7903641697
 20
11.2325664933
 10
-20.7437517635
 20
13.0900628281
 10
-20.6901575699
 20
14.9515121498
 10
-20.6295821881
 20
16.8168773118
  0
LWPOLYLINE
  5
257
100
AcDbEntity
  8
RACCORDO
100
AcDbPolyline
 62
7
  6
CONTINUOUS
 90
10
 70
0
 10
-20.7760339357
 20
17.0211961318
 10
-20.8356990249
 20
15.1854786864
 10
-20.8896580932
 20
13.3145226937
 10
-20.9365657405
 20
11.4475033362
 10
-20.9764207004
 20
9.5844636357
 10
-21.0092221837
 20
7.7254393647
 10
-21.0349695249
 20
5.8704634585
 10
-21.0536620718
 20
4.0195712989
 10
-21.0652994007
 20
2.1728050958
 10
-21.0698535203
 20
0.3747413198
  0
LWPOLYLINE
  5
258
100
AcDbEntity
  8
RACCORDO
100
AcDbPolyline
 62
250
  6
CONTINUOUS
 90
13
 70
0
 10
-20.9234061205
 20
-0.3876947137
 10
-20.9222360149
 20
-0.3659281268
 10
-20.9187166336
 20
-0.343156331
 10
-20.9129069603
 20
-0.3197607764
 10
-20.9049043333
 20
-0.2961333347
 10
-20.8948428313
 20
-0.272669788
 10
-20.8828910402
 20
-0.2497631975
 10
-20.869249192
 20
-0.2277972365
 10
-20.8541458107
 20
-0.2071397941
 10
-20.8378339157
 20
-0.1881368603
 10
-20.8205867491
 20
-0.1711066792
 10
-20.802693193
 20
-0.1563344267
 10
-20.7844529499
 20
-0.1440674585
  0
LWPOLYLINE
  5
259
100
AcDbEntity
  8
RACCORDO
100
AcDbPolyline
 62
250
  6
CONTINUOUS
 90
22
 70
0
 10
-20.6295821881
 20
16.8168773118
 10
-20.6239612443
 20
16.9061006666
 10
-20.6131843413
 20
16.9976887766
 10
-20.5973065199
 20
17.0911884212
 10
-20.5764110576
 20
17.1861330399
 10
-20.5506013797
 20
17.282057584
 10
-20.5199979143
 20
17.3785012208
 10
-20.4847480652
 20
17.475002063
 10
-20.4450302181
 20
17.571069724
 10
-20.4010472531
 20
17.6662011222
 10
-20.3530326009
 20
17.7599087786
 10
-20.3012190955
 20
17.8517514391
 10
-20.2458380942
 20
17.941304822
 10
-20.1871524258
 20
18.0281451078
 10
-20.1254648727
 20
18.111823275
 10
-20.0610900917
 20
18.1918975375
 10
-19.9943616513
 20
18.2679638901
 10
-19.9256042068
 20
18.3396615579
 10
-19.8551379061
 20
18.4066439493
 10
-19.7833067799
 20
18.4685820136
 10
-19.7104781107
 20
18.525168558
 10
-19.6370163131
 20
18.5761245609
  0
LINE
  5
25A
100
AcDbEntity
  8
TRASH
100
AcDbLine
 62
7
  6
CONTINUOUS
 10
-9.0363498702
 20
19.1563505441
 11
-9.105879221
 21
19.1148488921
  0
LINE
  5
25B
100
AcDbEntity
  8
TRASH
100
AcDbLine
 62
7
  6
CONTINUOUS
 10
-6.3481627743
 20
21.6298858625
 11
-7.8071675658
 21
20.787471889
  0
LINE
  5
25C
100
AcDbEntity
  8
RACCORDO
100
AcDbLine
 62
250
  6
CONTINUOUS
 10
-6.8374978648
 20
20.5693361536
 11
-7.1324726116
 21
20.3990214317
  0
LINE
  5
25D
100
AcDbEntity
  8
RACCORDO
100
AcDbLine
 62
250
  6
CONTINUOUS
 10
-6.8008953244
 20
20.5537664155
 11
-7.0958700712
 21
20.3834516936
  0
LINE
  5
25E
100
AcDbEntity
  8
RACCORDO
100
AcDbLine
 62
7
  6
CONTINUOUS
 10
-7.4530491525
 20
20.5830083553
 11
-7.1833165963
 21
20.7310543433
  0
LINE
  5
25F
100
AcDbEntity
  8
RACCORDO
100
AcDbLine
 62
250
  6
CONTINUOUS
 10
-7.4271302816
 20
20.5680431242
 11
-7.123688589
 21
20.7345907809
  0
LWPOLYLINE
  5
260
100
AcDbEntity
  8
RACCORDO
100
AcDbPolyline
 62
250
  6
CONTINUOUS
 90
10
 70
0
 10
-6.8008953244
 20
20.5537664155
 10
-6.7885705418
 20
20.5602612983
 10
-6.7763392455
 20
20.5654642858
 10
-6.7642945242
 20
20.5693356872
 10
-6.7525279611
 20
20.5718459563
 10
-6.7411292342
 20
20.5729758488
 10
-6.7301853997
 20
20.572716687
 10
-6.7197798363
 20
20.5710704652
 10
-6.7099916458
 20
20.5680497188
 10
-6.7008953244
 20
20.5636774408
  0
LINE
  5
261
100
AcDbEntity
  8
TRASH
100
AcDbLine
 62
7
  6
CONTINUOUS
 10
-6.3481627743
 20
20.7314011378
 11
-6.6919977496
 21
20.5585836019
  0
LINE
  5
262
100
AcDbEntity
  8
TRASH
100
AcDbLine
 62
7
  6
CONTINUOUS
 10
-4.5432544104
 20
21.33851799
 11
-5.0046598901
 21
21.1562376408
  0
LWPOLYLINE
  5
263
100
AcDbEntity
  8
RACCORDO
100
AcDbPolyline
 62
250
  6
CONTINUOUS
 90
8
 70
0
 10
-7.123688589
 20
20.7345907809
 10
-7.1080500206
 20
20.7401808297
 10
-7.0922150225
 20
20.7442620504
 10
-7.0763134669
 20
20.746793784
 10
-7.0604656596
 20
20.7477480398
 10
-7.0448150125
 20
20.7471072807
 10
-7.0295249219
 20
20.7448759353
 10
-7.0147319704
 20
20.7410785543
  0
LWPOLYLINE
  5
264
100
AcDbEntity
  8
RACCORDO
100
AcDbPolyline
 62
250
  6
CONTINUOUS
 90
10
 70
0
 10
-6.8374978648
 20
20.5693361536
 10
-6.8217983392
 20
20.5749449264
 10
-6.8059251174
 20
20.5790280665
 10
-6.7900094862
 20
20.5815515645
 10
-6.774182837
 20
20.582494309
 10
-6.7585764249
 20
20.5818482012
 10
-6.7433202337
 20
20.5796185079
 10
-6.7285407584
 20
20.5758237734
 10
-6.7143600116
 20
20.5704953838
 10
-6.7008953244
 20
20.5636774408
  0
LWPOLYLINE
  5
265
100
AcDbEntity
  8
RACCORDO
100
AcDbPolyline
 62
250
  6
CONTINUOUS
 90
8
 70
0
 10
11.8554242554
 20
25.9708593489
 10
11.8840818804
 20
25.9810903626
 10
11.9149203644
 20
25.9863371245
 10
11.9476019656
 20
25.9865421721
 10
11.9817687561
 20
25.9817032598
 10
12.0170465425
 20
25.9718733832
 10
12.0530489636
 20
25.9571601987
 10
12.0893817224
 20
25.9377248447
  0
LWPOLYLINE
  5
266
100
AcDbEntity
  8
RACCORDO
100
AcDbPolyline
 62
250
  6
CONTINUOUS
 90
13
 70
0
 10
-0.1410782714
 20
-22.7617721274
 10
-0.1167802096
 20
-22.7740936363
 10
-0.0899307638
 20
-22.7845010849
 10
-0.0609791988
 20
-22.7928203284
 10
-0.0304099447
 20
-22.7989121645
 10
0.0012654831
 20
-22.8026746576
 10
0.0335170407
 20
-22.8040448508
 10
0.0658050527
 20
-22.8029998246
 10
0.0975892737
 20
-22.7995570727
 10
0.128337898
 20
-22.7937742014
 10
0.1575364282
 20
-22.7857479708
 10
0.1846962865
 20
-22.7756126821
 10
0.2093630165
 20
-22.7635379254
  0
LWPOLYLINE
  5
267
100
AcDbEntity
  8
RACCORDO
100
AcDbPolyline
 62
7
  6
CONTINUOUS
 90
10
 70
0
 10
-0.2658972287
 20
-23.6185775137
 10
-0.22637821
 20
-23.6389855073
 10
-0.1822044507
 20
-23.6563347263
 10
-0.1377756761
 20
-23.6682466608
 10
-0.0933716358
 20
-23.6747673823
 10
-0.0494945243
 20
-23.6759077793
 10
-0.0070328393
 20
-23.671824393
 10
0.0333224106
 20
-23.6629136901
 10
0.071229931
 20
-23.6496130179
 10
0.0914992
 20
-23.6403014255
  0
LINE
  5
268
100
AcDbEntity
  8
RACCORDO
100
AcDbLine
 62
7
  6
CONTINUOUS
 10
-0.2659052906
 20
-23.6185914824
 11
-1.7519686966
 21
-22.7605571148
  0
LINE
  5
269
100
AcDbEntity
  8
RACCORDO
100
AcDbLine
 62
250
  6
CONTINUOUS
 10
-0.3177204044
 20
-23.5041316157
 11
-1.7519686966
 21
-22.6760146271
  0
LWPOLYLINE
  5
26A
100
AcDbEntity
  8
RACCORDO
100
AcDbPolyline
 62
250
  6
CONTINUOUS
 90
8
 70
0
 10
-0.2659497491
 20
-23.6185658309
 10
-0.2691729932
 20
-23.6166062116
 10
-0.2835043212
 20
-23.6050723661
 10
-0.2955560905
 20
-23.5902923798
 10
-0.3051355924
 20
-23.5725025863
 10
-0.3120896495
 20
-23.5519874462
 10
-0.3163070658
 20
-23.5290749985
 10
-0.3177204044
 20
-23.5041316157
  0
LWPOLYLINE
  5
26B
100
AcDbEntity
  8
RACCORDO
100
AcDbPolyline
 62
250
  6
CONTINUOUS
 90
3
 70
0
 10
-20.8682373517
 20
0.0085928877
 10
-20.8629220885
 20
0.0235285416
 10
-20.8553839836
 20
0.0381580087
  0
LINE
  5
26C
100
AcDbEntity
  8
RACCORDO
100
AcDbLine
 62
250
  6
CONTINUOUS
 10
-3.6205564901
 20
18.3768491878
 11
-3.3255817433
 21
18.5471639097
  0
LINE
  5
26D
100
AcDbEntity
  8
RACCORDO
100
AcDbLine
 62
250
  6
CONTINUOUS
 10
-3.5839539497
 20
18.3501512297
 11
-3.2889792029
 21
18.5204659516
  0
LWPOLYLINE
  5
26E
100
AcDbEntity
  8
RACCORDO
100
AcDbPolyline
 62
250
  6
CONTINUOUS
 90
10
 70
0
 10
-3.3255817433
 20
18.5471639097
 10
-3.3132569324
 20
18.553658806
 10
-3.30102562
 20
18.5588617965
 10
-3.2889808949
 20
18.5627331943
 10
-3.2772143453
 20
18.5652434559
 10
-3.2658156421
 20
18.5663733434
 10
-3.2548718237
 20
18.5661141816
 10
-3.2444662641
 20
18.5644679614
 10
-3.2346780714
 20
18.5614472156
 10
-3.2255817433
 20
18.5570749349
  0
LINE
  5
26F
100
AcDbEntity
  8
RACCORDO
100
AcDbLine
 62
250
  6
CONTINUOUS
 10
11.8463983728
 20
25.9663522352
 11
11.8554242554
 21
25.9708593489
  0
LWPOLYLINE
  5
270
100
AcDbEntity
  8
RACCORDO
100
AcDbPolyline
 62
7
  6
CONTINUOUS
 90
10
 70
0
 10
5.0201259437
 20
22.2954005695
 10
5.0014675791
 20
22.2863429128
 10
4.971951284
 20
22.2756482374
 10
4.9413271681
 20
22.2687369047
 10
4.9100780609
 20
22.2657178862
 10
4.8786966321
 20
22.2666388065
 10
4.8476776834
 20
22.2714851896
 10
4.8175103626
 20
22.280180656
 10
4.7886703834
 20
22.2925881237
 10
4.7766907461
 20
22.2990759972
  0
LINE
  5
271
100
AcDbEntity
  8
TRASH
100
AcDbLine
 62
7
  6
CONTINUOUS
 10
0.5536892352
 20
19.1717832197
 11
-0.3048993606
 21
18.8913449033
  0
LINE
  5
272
100
AcDbEntity
  8
RACCORDO
100
AcDbLine
 62
250
  6
CONTINUOUS
 10
-1.2954618656
 20
-22.095245508
 11
-0.1410782714
 21
-22.7617721274
  0
LINE
  5
273
100
AcDbEntity
  8
RACCORDO
100
AcDbLine
 62
250
  6
CONTINUOUS
 10
-0.9418815469
 20
-21.8911434867
 11
0.0356984239
 21
-22.4555859099
  0
LINE
  5
274
100
AcDbEntity
  8
RACCORDO
100
AcDbLine
 62
7
  6
CONTINUOUS
 10
-0.5461843902
 20
-21.6705120131
 11
0.4344812294
 21
-22.2367360512
  0
LWPOLYLINE
  5
275
100
AcDbEntity
  8
RACCORDO
100
AcDbPolyline
 62
7
  6
CONTINUOUS
 90
3
 70
0
 10
0.7415740358
 20
-22.4175025037
 10
0.7715267144
 20
-22.4347215937
 10
0.7849225173
 20
-22.4426194184
  0
LWPOLYLINE
  5
276
100
AcDbEntity
  8
RACCORDO
100
AcDbPolyline
 62
7
  6
CONTINUOUS
 90
3
 70
0
 10
0.7077420987
 20
-22.3977618716
 10
0.7251156907
 20
-22.4079537597
 10
0.7415740358
 20
-22.4175025037
  0
LWPOLYLINE
  5
277
100
AcDbEntity
  8
RACCORDO
100
AcDbPolyline
 62
7
  6
CONTINUOUS
 90
3
 70
0
 10
0.6508180388
 20
-22.3644736891
 10
0.6705011946
 20
-22.3760833531
 10
0.7077420987
 20
-22.3977618716
  0
LWPOLYLINE
  5
278
100
AcDbEntity
  8
RACCORDO
100
AcDbPolyline
 62
7
  6
CONTINUOUS
 90
3
 70
0
 10
0.5879611829
 20
-22.3275377805
 10
0.6094136217
 20
-22.3402739389
 10
0.6508180388
 20
-22.3644736891
  0
LWPOLYLINE
  5
279
100
AcDbEntity
  8
RACCORDO
100
AcDbPolyline
 62
7
  6
CONTINUOUS
 90
7
 70
0
 10
0.4344812294
 20
-22.2367360512
 10
0.4548171967
 20
-22.2493272491
 10
0.4762812363
 20
-22.2620129626
 10
0.4984713275
 20
-22.2748233072
 10
0.5209819408
 20
-22.2880364717
 10
0.543525326
 20
-22.3015163252
 10
0.5879611829
 20
-22.3275377805
  0
LWPOLYLINE
  5
27A
100
AcDbEntity
  8
RACCORDO
100
AcDbPolyline
 62
250
  6
CONTINUOUS
 90
16
 70
0
 10
0.0356984239
 20
-22.4555859099
 10
0.0539440319
 20
-22.46762466
 10
0.0719829215
 20
-22.4817854338
 10
0.0896157722
 20
-22.4979099396
 10
0.106637791
 20
-22.5158068974
 10
0.1228726034
 20
-22.5352867235
 10
0.1381689466
 20
-22.5561728712
 10
0.1523826742
 20
-22.5782901773
 10
0.1653144532
 20
-22.6013519207
 10
0.1767617734
 20
-22.6249888706
 10
0.1866033738
 20
-22.6489102697
 10
0.1947581401
 20
-22.6728723623
 10
0.2011425552
 20
-22.6965664785
 10
0.205712709
 20
-22.7197250304
 10
0.2084528986
 20
-22.7421239383
 10
0.2093630165
 20
-22.7635379254
  0
LINE
  5
27B
100
AcDbEntity
  8
RACCORDO
100
AcDbLine
 62
7
  6
CONTINUOUS
 10
-15.5983190629
 20
20.5962340638
 11
-15.5983190629
 21
21.2363734904
  0
LINE
  5
27C
100
AcDbEntity
  8
RACCORDO
100
AcDbLine
 62
250
  6
CONTINUOUS
 10
-15.5250957582
 20
20.4941654154
 11
-15.5250957582
 21
21.1343048628
  0
LWPOLYLINE
  5
27D
100
AcDbEntity
  8
RACCORDO
100
AcDbPolyline
 62
250
  6
CONTINUOUS
 90
19
 70
0
 10
-15.5250957582
 20
21.1343048628
 10
-15.5244111216
 20
21.1517823279
 10
-15.5224288153
 20
21.168157355
 10
-15.5191488395
 20
21.183429944
 10
-15.5145286307
 20
21.1977136263
 10
-15.5086107523
 20
21.2108948705
 10
-15.5015228944
 20
21.2226330828
 10
-15.4932362948
 20
21.2328847045
 10
-15.4837797158
 20
21.2416932942
 10
-15.4733671345
 20
21.2488489344
 10
-15.461972109
 20
21.2543097997
 10
-15.4496210814
 20
21.2581177153
 10
-15.4366073552
 20
21.2601882397
 10
-15.4229080065
 20
21.2604722026
 10
-15.4085459592
 20
21.2590187742
 10
-15.3938832898
 20
21.2558910233
 10
-15.3790406904
 20
21.2511099726
 10
-15.3638974689
 20
21.2446545994
 10
-15.3484536253
 20
21.2365249037
  0
LWPOLYLINE
  5
27E
100
AcDbEntity
  8
RACCORDO
100
AcDbPolyline
 62
250
  6
CONTINUOUS
 90
3
 70
0
 10
-20.8553839836
 20
0.0381580087
 10
-20.8456847251
 20
0.0524805343
 10
-20.8418175989
 20
0.0570384271
  0
LINE
  5
27F
100
AcDbEntity
  8
TRASH
100
AcDbLine
 62
7
  6
CONTINUOUS
 10
-4.3741372967
 20
16.4644474354
 11
-4.4389744651
 21
16.4202365762
  0
LWPOLYLINE
  5
280
100
AcDbEntity
  8
RACCORDO
100
AcDbPolyline
 62
250
  6
CONTINUOUS
 90
13
 70
0
 10
5.0201323224
 20
22.2954072595
 10
5.0126052002
 20
22.2904184584
 10
5.0032342173
 20
22.2819156404
 10
4.9934142997
 20
22.270601999
 10
4.9830050844
 20
22.2563588189
 10
4.9719952396
 20
22.2391968507
 10
4.9607913117
 20
22.2194598281
 10
4.9490484411
 20
22.1967747572
 10
4.9369107075
 20
22.1715074529
 10
4.9254357577
 20
22.1455116147
 10
4.9148690658
 20
22.1197874026
 10
4.9047117313
 20
22.0941010035
 10
4.8948879627
 20
22.0687589237
  0
LINE
  5
281
100
AcDbEntity
  8
RACCORDO
100
AcDbLine
 62
250
  6
CONTINUOUS
 10
-2.7932823279
 20
18.2342684785
 11
-3.0762462841
 21
18.0558972334
  0
LINE
  5
282
100
AcDbEntity
  8
TRASH
100
AcDbLine
 62
250
  6
CONTINUOUS
 10
-4.1739102003
 20
17.1653090962
 11
-1.3603792721
 21
18.7500021799
  0
LINE
  5
283
100
AcDbEntity
  8
TRASH
100
AcDbLine
 62
250
  6
CONTINUOUS
 10
-3.7831027535
 20
16.8036048878
 11
-0.969111662
 21
18.3876795345
  0
LWPOLYLINE
  5
284
100
AcDbEntity
  8
TRASH
100
AcDbPolyline
 62
7
  6
CONTINUOUS
 90
10
 70
0
 10
-0.7973745335
 20
18.155258932
 10
-1.1077765264
 20
17.9834809183
 10
-1.4190147813
 20
17.8110231132
 10
-1.7310921251
 20
17.6378847522
 10
-2.0440140399
 20
17.4640600284
 10
-2.3577808557
 20
17.2895536704
 10
-2.6723871414
 20
17.1143805316
 10
-2.9878324008
 20
16.9385449868
 10
-3.3041216762
 20
16.762041337
 10
-3.6212573174
 20
16.5848691028
  0
LINE
  5
285
100
AcDbEntity
  8
RACCORDO
100
AcDbLine
 62
7
  6
CONTINUOUS
 10
13.0174085065
 20
25.4018938104
 11
9.0243211054
 21
23.233997151
  0
LINE
  5
286
100
AcDbEntity
  8
TRASH
100
AcDbLine
 62
7
  6
CONTINUOUS
 10
-1.5398366623
 20
18.8536186279
 11
-3.0506803518
 21
18.0411357845
  0
LINE
  5
287
100
AcDbEntity
  8
RACCORDO
100
AcDbLine
 62
7
  6
CONTINUOUS
 10
11.8463983728
 20
25.9663522352
 11
5.0201115039
 21
22.2953960644
  0
LINE
  5
288
100
AcDbEntity
  8
RACCORDO
100
AcDbLine
 62
250
  6
CONTINUOUS
 10
12.0893817224
 20
25.9377248447
 11
4.8948879627
 21
22.0687589237
  0
LINE
  5
289
100
AcDbEntity
  8
RACCORDO
100
AcDbLine
 62
250
  6
CONTINUOUS
 10
9.8860552641
 20
21.1673562817
 11
9.7779005034
 21
21.1211233176
  0
LWPOLYLINE
  5
28A
100
AcDbEntity
  8
RACCORDO
100
AcDbPolyline
 62
7
  6
CONTINUOUS
 90
8
 70
0
 10
10.0213609295
 20
21.2197180647
 10
9.8803084216
 20
21.1650445261
 10
9.7321708815
 20
21.1015105739
 10
9.5892756255
 20
21.033631788
 10
9.4519123684
 20
20.9615052862
 10
9.320457118
 20
20.885282203
 10
9.1953524498
 20
20.8051818681
 10
9.1348347227
 20
20.7623594222
  0
LINE
  5
28B
100
AcDbEntity
  8
0
100
AcDbLine
 62
7
  6
CONTINUOUS
 10
10.0212358207
 20
21.2196719313
 11
10.6263135103
 21
21.4428017415
  0
LINE
  5
28C
100
AcDbEntity
  8
RACCORDO
100
AcDbLine
 62
7
  6
CONTINUOUS
 10
-15.0425077138
 20
18.5193726303
 11
-15.0425077138
 21
20.1309826391
  0
LINE
  5
28D
100
AcDbEntity
  8
RACCORDO
100
AcDbLine
 62
250
  6
CONTINUOUS
 10
-14.9692844091
 20
18.5646550203
 11
-14.9692844091
 21
20.0887044206
  0
LINE
  5
28E
100
AcDbEntity
  8
RACCORDO
100
AcDbLine
 62
7
  6
CONTINUOUS
 10
-14.4439354688
 20
19.785374527
 11
-14.4439354688
 21
18.8988284201
  0
LINE
  5
28F
100
AcDbEntity
  8
RACCORDO
100
AcDbLine
 62
250
  6
CONTINUOUS
 10
-14.370712164
 20
19.827638796
 11
-14.370712164
 21
18.9136256789
  0
LINE
  5
290
100
AcDbEntity
  8
RACCORDO
100
AcDbLine
 62
7
  6
CONTINUOUS
 10
-13.7528557062
 20
17.6335776955
 11
-13.7528557062
 21
18.2053672894
  0
LWPOLYLINE
  5
291
100
AcDbEntity
  8
RACCORDO
100
AcDbPolyline
 62
250
  6
CONTINUOUS
 90
10
 70
0
 10
-3.2889792029
 20
18.5204659516
 10
-3.2798016901
 20
18.5298404427
 10
-3.2710023947
 20
18.5380079739
 10
-3.2626541672
 20
18.5449007948
 10
-3.2548260106
 20
18.5504617711
 10
-3.2475829316
 20
18.5546445513
 10
-3.2409852929
 20
18.5574142017
 10
-3.2350877813
 20
18.5587478047
 10
-3.229939066
 20
18.5586343991
 10
-3.2255817433
 20
18.5570749349
  0
LWPOLYLINE
  5
292
100
AcDbEntity
  8
RACCORDO
100
AcDbPolyline
 62
250
  6
CONTINUOUS
 90
10
 70
0
 10
-2.7932823279
 20
18.2342684785
 10
-2.7841395169
 20
18.2436091009
 10
-2.7753590136
 20
18.2517635009
 10
-2.7670150036
 20
18.2586588673
 10
-2.7591732851
 20
18.2642357376
 10
-2.7519075099
 20
18.2684362966
 10
-2.7452942171
 20
18.2712148237
 10
-2.7393910857
 20
18.2725503118
 10
-2.7342408749
 20
18.2724366944
 10
-2.7298848683
 20
18.2708774618
  0
LWPOLYLINE
  5
293
100
AcDbEntity
  8
RACCORDO
100
AcDbPolyline
 62
7
  6
CONTINUOUS
 90
9
 70
0
 10
-20.9547848086
 20
0.063379371
 10
-20.9846163766
 20
0.0333447506
 10
-21.0097197422
 20
0.0018105843
 10
-21.0303230899
 20
-0.0310187291
 10
-21.0466850691
 20
-0.0652629956
 10
-21.0586966723
 20
-0.1004666621
 10
-21.0663548844
 20
-0.1362366534
 10
-21.0697064773
 20
-0.1727548149
 10
-21.0698531369
 20
-0.1826400722
  0
LINE
  5
294
100
AcDbEntity
  8
TRASH
100
AcDbLine
 62
7
  6
CONTINUOUS
 10
-0.3048993606
 20
18.8913449033
 11
-0.6205978467
 21
18.6249351621
  0
LINE
  5
295
100
AcDbEntity
  8
RACCORDO
100
AcDbLine
 62
7
  6
CONTINUOUS
 10
0.7879332539
 20
18.9393454191
 11
-0.6205978467
 21
17.7856624186
  0
LINE
  5
296
100
AcDbEntity
  8
0
100
AcDbLine
 62
7
  6
CONTINUOUS
 10
9.8109417122
 20
22.2799169067
 11
14.0128714248
 21
24.7922600309
  0
LWPOLYLINE
  5
297
100
AcDbEntity
  8
TRASH
100
AcDbPolyline
 62
7
  6
CONTINUOUS
 90
10
 70
0
 10
-0.3234579746
 20
17.4978649294
 10
-0.6278218671
 20
17.3177111565
 10
-0.9332295666
 20
17.1371654885
 10
-1.2396820616
 20
16.9562246109
 10
-1.5471857491
 20
16.7748839857
 10
-1.8557358629
 20
16.5931412724
 10
-2.1653167287
 20
16.4109971154
 10
-2.4759237609
 20
16.2284502172
 10
-2.7875632121
 20
16.0454965575
 10
-3.1002357769
 20
15.8621333606
  0
LINE
  5
298
100
AcDbEntity
  8
DRAFT
100
AcDbLine
 62
7
  6
CONTINUOUS
 10
9.8109417122
 20
21.9196162179
 11
10.7703904656
 21
22.4834330333
  0
LINE
  5
299
100
AcDbEntity
  8
DRAFT
100
AcDbLine
 62
7
  6
CONTINUOUS
 10
10.7703861986
 20
22.4807013608
 11
14.0128714248
 21
24.3528781208
  0
LINE
  5
29A
100
AcDbEntity
  8
RACCORDO
100
AcDbLine
 62
250
  6
CONTINUOUS
 10
0.9838316373
 20
15.6938530539
 11
3.726590362
 21
17.2426016349
  0
LWPOLYLINE
  5
29B
100
AcDbEntity
  8
RACCORDO
100
AcDbPolyline
 62
250
  6
CONTINUOUS
 90
8
 70
0
 10
0.9838166354
 20
15.6938617158
 10
0.9732314739
 20
15.6885760762
 10
0.9627707387
 20
15.6845791585
 10
0.9525390905
 20
15.6819109521
 10
0.9426388982
 20
15.6805981529
 10
0.9331692143
 20
15.6806538954
 10
0.924224784
 20
15.682077622
 10
0.9239953649
 20
15.6821541199
  0
LWPOLYLINE
  5
29C
100
AcDbEntity
  8
RACCORDO
100
AcDbPolyline
 62
250
  6
CONTINUOUS
 90
6
 70
0
 10
9.7401182531
 20
21.1049725221
 10
9.5996905981
 20
21.0385066531
 10
9.4651143765
 20
20.9681205618
 10
9.3367176158
 20
20.8939857906
 10
9.2148132404
 20
20.8162830083
 10
9.1356029609
 20
20.7604910779
  0
LINE
  5
29D
100
AcDbEntity
  8
0
100
AcDbLine
 62
7
  6
CONTINUOUS
 10
12.5246550566
 20
19.7645822154
 11
12.3413893896
 21
19.7072928932
  0
LINE
  5
29E
100
AcDbEntity
  8
RACCORDO
100
AcDbLine
 62
7
  6
CONTINUOUS
 10
-0.9741189286
 20
-15.7081597093
 11
-1.3525614827
 21
-15.4896517215
  0
LINE
  5
29F
100
AcDbEntity
  8
RACCORDO
100
AcDbLine
 62
7
  6
CONTINUOUS
 10
-1.440429448
 20
-14.4260117564
 11
-1.7147007651
 21
-14.2676509354
  0
LINE
  5
2A0
100
AcDbEntity
  8
RACCORDO
100
AcDbLine
 62
250
  6
CONTINUOUS
 10
-1.3525614827
 20
-14.375294633
 11
-1.7519686966
 21
-14.1446819135
  0
LINE
  5
2A1
100
AcDbEntity
  8
RACCORDO
100
AcDbLine
 62
7
  6
CONTINUOUS
 10
-1.3684756706
 20
-15.4807101032
 11
-1.3509627614
 21
-15.4908358219
  0
LWPOLYLINE
  5
2A2
100
AcDbEntity
  8
RACCORDO
100
AcDbPolyline
 62
7
  6
CONTINUOUS
 90
8
 70
0
 10
-1.4404506837
 20
-15.4391740848
 10
-1.4403510604
 20
-15.4392404116
 10
-1.4386802309
 20
-15.4402980817
 10
-1.4349552817
 20
-15.4425813774
 10
-1.4290051721
 20
-15.4460053928
 10
-1.420863035
 20
-15.4506404115
 10
-1.4106887582
 20
-15.4565212591
 10
-1.3684756706
 20
-15.4807101032
  0
LWPOLYLINE
  5
2A3
100
AcDbEntity
  8
RACCORDO
100
AcDbPolyline
 62
7
  6
CONTINUOUS
 90
3
 70
0
 10
-20.91035344
 20
0.0980724618
 10
-20.9203082083
 20
0.0913772521
 10
-20.9547848086
 20
0.063379371
  0
LWPOLYLINE
  5
2A4
100
AcDbEntity
  8
RACCORDO
100
AcDbPolyline
 62
250
  6
CONTINUOUS
 90
22
 70
0
 10
-4.7360812443
 20
9.9725114047
 10
-4.8112870302
 20
9.9225623588
 10
-4.8858277944
 20
9.8669643566
 10
-4.9593391224
 20
9.8059964197
 10
-5.0314615628
 20
9.7399702627
 10
-5.1018432538
 20
9.6692104145
 10
-5.1701405532
 20
9.5940499014
 10
-5.2360282902
 20
9.5148492007
 10
-5.2991734119
 20
9.4320126154
 10
-5.3592393129
 20
9.3459692586
 10
-5.4159217345
 20
9.2571672995
 10
-5.4689593245
 20
9.16603141
 10
-5.5181032063
 20
9.0729757567
 10
-5.5631194094
 20
8.9784409371
 10
-5.6037756396
 20
8.8829150869
 10
-5.6398549089
 20
8.7868931415
 10
-5.671177083
 20
8.6908644781
 10
-5.6975965066
 20
8.5952919934
 10
-5.7189838887
 20
8.5006314031
 10
-5.73523285
 20
8.4073460501
 10
-5.7462630671
 20
8.3159042004
 10
-5.7520194992
 20
8.2267590749
  0
LINE
  5
2A5
100
AcDbEntity
  8
RACCORDO
100
AcDbLine
 62
250
  6
CONTINUOUS
 10
-0.1501954865
 20
12.8585325425
 11
0.7585295013
 21
13.419262926
  0
LINE
  5
2A6
100
AcDbEntity
  8
RACCORDO
100
AcDbLine
 62
250
  6
CONTINUOUS
 10
-2.6808124633
 20
11.2407186923
 11
-4.7360812443
 21
9.9725114047
  0
LINE
  5
2A7
100
AcDbEntity
  8
0
100
AcDbLine
 62
7
  6
CONTINUOUS
 10
10.2759176514
 20
20.9483963655
 11
10.7708923982
 21
21.2341885808
  0
LINE
  5
2A8
100
AcDbEntity
  8
RACCORDO
100
AcDbLine
 62
7
  6
CONTINUOUS
 10
13.2390703107
 20
21.4426252859
 11
11.9276059997
 21
20.6854022292
  0
LINE
  5
2A9
100
AcDbEntity
  8
RACCORDO
100
AcDbLine
 62
7
  6
CONTINUOUS
 10
11.2263822578
 20
20.280524429
 11
10.4043428433
 21
19.8058891737
  0
LINE
  5
2AA
100
AcDbEntity
  8
RACCORDO
100
AcDbLine
 62
7
  6
CONTINUOUS
 10
14.0876010185
 20
20.9526972579
 11
12.7761341371
 21
20.1954727172
  0
LINE
  5
2AB
100
AcDbEntity
  8
RACCORDO
100
AcDbLine
 62
7
  6
CONTINUOUS
 10
12.0749103952
 20
19.790594917
 11
11.7282466375
 21
19.590435608
  0
LINE
  5
2AC
100
AcDbEntity
  8
0
100
AcDbLine
 62
7
  6
CONTINUOUS
 10
12.7761341371
 20
20.1139203813
 11
12.166543257
 21
19.7619502471
  0
LINE
  5
2AD
100
AcDbEntity
  8
RACCORDO
100
AcDbLine
 62
250
  6
CONTINUOUS
 10
6.02653257
 20
16.0120001421
 11
12.1478577063
 21
19.4748924684
  0
LINE
  5
2AE
100
AcDbEntity
  8
RACCORDO
100
AcDbLine
 62
250
  6
CONTINUOUS
 10
1.1225537901
 20
15.5540973211
 11
3.8654743301
 21
17.1026040236
  0
LWPOLYLINE
  5
2AF
100
AcDbEntity
  8
RACCORDO
100
AcDbPolyline
 62
7
  6
CONTINUOUS
 90
10
 70
0
 10
14.0875721226
 20
20.9526805738
 10
14.0989685868
 20
20.9587614756
 10
14.1101889893
 20
20.9637708588
 10
14.12123333
 20
20.9677087234
 10
14.1321965889
 20
20.9705852809
 10
14.1429837861
 20
20.9723903198
 10
14.1533099815
 20
20.9730932051
 10
14.1630801953
 20
20.9726837253
 10
14.1723894073
 20
20.971172092
 10
14.1812376176
 20
20.9685583051
  0
LWPOLYLINE
  5
2B0
100
AcDbEntity
  8
0
100
AcDbPolyline
 62
7
  6
CONTINUOUS
 90
8
 70
0
 10
13.6994366819
 20
20.0347486454
 10
13.5584256686
 20
19.9613823572
 10
13.4089852184
 20
19.8938072657
 10
13.2518273072
 20
19.8323453176
 10
13.0877006792
 20
19.7772893348
 10
12.9173872796
 20
19.7289016194
 10
12.741698529
 20
19.687412704
 10
12.5614714575
 20
19.6530202533
  0
LWPOLYLINE
  5
2B1
100
AcDbEntity
  8
RACCORDO
100
AcDbPolyline
 62
250
  6
CONTINUOUS
 90
13
 70
0
 10
0.2093630165
 20
12.2500001749
 10
0.1846962532
 20
12.2379254026
 10
0.1575363555
 20
12.2277901038
 10
0.1283377816
 20
12.2197638693
 10
0.0975891023
 20
12.2139809998
 10
0.0658048256
 20
12.2105382578
 10
0.0335167881
 20
12.2094932494
 10
0.0012652553
 20
12.21086346
 10
-0.0304101178
 20
12.2146259626
 10
-0.0609793173
 20
12.2207178003
 10
-0.0899308383
 20
12.2290370403
 10
-0.1167802439
 20
12.2394444793
 10
-0.1410782714
 20
12.2517659729
  0
LWPOLYLINE
  5
2B2
100
AcDbEntity
  8
RACCORDO
100
AcDbPolyline
 62
250
  6
CONTINUOUS
 90
10
 70
0
 10
-20.9233954544
 20
-0.3876885505
 10
-20.9525581218
 20
-0.3693111707
 10
-20.9788973801
 20
-0.3495136047
 10
-21.0021710119
 20
-0.3284502282
 10
-21.0222090883
 20
-0.3062830799
 10
-21.0388823126
 20
-0.2831777071
 10
-21.0520621897
 20
-0.2592992688
 10
-21.0616494655
 20
-0.2348232102
 10
-21.0675903629
 20
-0.2099346724
 10
-21.0698531422
 20
-0.1826323418
  0
LWPOLYLINE
  5
2B3
100
AcDbEntity
  8
RACCORDO
100
AcDbPolyline
 62
250
  6
CONTINUOUS
 90
12
 70
0
 10
-20.7844529499
 20
-0.1440674585
 10
-20.8020132661
 20
-0.1329822749
 10
-20.8176914352
 20
-0.121190226
 10
-20.8314874571
 20
-0.1086913118
 10
-20.8434912599
 20
-0.0953742013
 10
-20.8536129155
 20
-0.0813502256
 10
-20.86158264
 20
-0.0669533779
 10
-20.8673382377
 20
-0.0521816009
 10
-20.8709419043
 20
-0.0370369521
 10
-20.8723104424
 20
-0.0218595968
 10
-20.8713914613
 20
-0.0066497077
 10
-20.8682373517
 20
0.0085928877
  0
LINE
  5
2B4
100
AcDbEntity
  8
RACCORDO
100
AcDbLine
 62
250
  6
CONTINUOUS
 10
-1.7147007651
 20
-14.2676509354
 11
-1.7235951701
 21
-14.2618660676
  0
LWPOLYLINE
  5
2B5
100
AcDbEntity
  8
RACCORDO
100
AcDbPolyline
 62
250
  6
CONTINUOUS
 90
4
 70
0
 10
-1.7235951701
 20
-14.2618660676
 10
-1.7374319655
 20
-14.2497602345
 10
-1.7493277862
 20
-14.2350597209
 10
-1.7519686966
 20
-14.2304726209
  0
LWPOLYLINE
  5
2B6
100
AcDbEntity
  8
RACCORDO
100
AcDbPolyline
 62
7
  6
CONTINUOUS
 90
9
 70
0
 10
-0.7554249694
 20
-15.9194632006
 10
-0.770550054
 20
-15.9051040274
 10
-0.7855942
 20
-15.8906816255
 10
-0.8004261546
 20
-15.8761912522
 10
-0.8148679534
 20
-15.8616567529
 10
-0.8288214428
 20
-15.8471814781
 10
-0.8421472818
 20
-15.8328150089
 10
-0.8546731682
 20
-15.8185643106
 10
-0.8662499877
 20
-15.8044734797
  0
LWPOLYLINE
  5
2B7
100
AcDbEntity
  8
RACCORDO
100
AcDbPolyline
 62
7
  6
CONTINUOUS
 90
4
 70
0
 10
-0.655985215
 20
-16.0143047172
 10
-0.6684408995
 20
-16.0015762666
 10
-0.6817939836
 20
-15.9885833034
 10
-0.7554249694
 20
-15.9194632006
  0
LWPOLYLINE
  5
2B8
100
AcDbEntity
  8
RACCORDO
100
AcDbPolyline
 62
250
  6
CONTINUOUS
 90
7
 70
0
 10
-15.5983190629
 20
21.2363734904
 10
-15.5959352857
 20
21.2164874903
 10
-15.5894180048
 20
21.1981990531
 10
-15.5788668516
 20
21.1805496008
 10
-15.5644585251
 20
21.1638343911
 10
-15.5464342585
 20
21.1483330495
 10
-15.5250957582
 20
21.1343048628
  0
LINE
  5
2B9
100
AcDbEntity
  8
TRASH
100
AcDbLine
 62
7
  6
CONTINUOUS
 10
-9.2259602782
 20
19.2658292173
 11
-9.2259602782
 21
19.1841821896
  0
LWPOLYLINE
  5
2BA
100
AcDbEntity
  8
RACCORDO
100
AcDbPolyline
 62
250
  6
CONTINUOUS
 90
13
 70
0
 10
-0.1501954865
 20
12.8585325425
 10
-0.1724009796
 20
12.8427333234
 10
-0.1941032696
 20
12.8240126438
 10
-0.2149553227
 20
12.8026699313
 10
-0.2346237285
 20
12.7790465124
 10
-0.2527939836
 20
12.753520207
 10
-0.2691755327
 20
12.7264992987
 10
-0.2835064775
 20
12.6984159107
 10
-0.295557735
 20
12.6697191094
 10
-0.3051366679
 20
12.6408677886
 10
-0.3120901931
 20
12.6123232707
 10
-0.3163072179
 20
12.5845419292
 10
-0.3177204044
 20
12.5579679213
  0
LWPOLYLINE
  5
2BB
100
AcDbEntity
  8
RACCORDO
100
AcDbPolyline
 62
250
  6
CONTINUOUS
 90
22
 70
0
 10
-4.3702485042
 20
9.3678505663
 10
-4.4209332584
 20
9.3344988839
 10
-4.4707373914
 20
9.2977418856
 10
-4.5196609032
 20
9.2575795715
 10
-4.5679494309
 20
9.2137733852
 10
-4.6153573375
 20
9.1665618831
 10
-4.6611477115
 20
9.1166607341
 10
-4.7052881892
 20
9.0640306524
 10
-4.7478111344
 20
9.0087109239
 10
-4.7880767265
 20
8.9515350754
 10
-4.8260431893
 20
8.8924879967
 10
-4.861752299
 20
8.8315847981
 10
-4.8946895637
 20
8.7697043368
 10
-4.9248200861
 20
8.7068204385
 10
-4.9521787635
 20
8.6429592775
 10
-4.9763557959
 20
8.5790782342
 10
-4.9973015377
 20
8.5151640044
 10
-5.0150656344
 20
8.4512298923
 10
-5.0293872225
 20
8.3882731899
 10
-5.0401793473
 20
8.3266263279
 10
-5.0475289635
 20
8.2659568756
 10
-5.0514360709
 20
8.206264833
  0
LWPOLYLINE
  5
2BC
100
AcDbEntity
  8
RACCORDO
100
AcDbPolyline
 62
250
  6
CONTINUOUS
 90
9
 70
0
 10
0.1574462301
 20
11.4953434583
 10
0.1653144554
 20
11.5003481926
 10
0.1767617756
 20
11.5102963866
 10
0.1866033755
 20
11.5224491565
 10
0.1947581413
 20
11.5366597431
 10
0.2011425559
 20
11.552719347
 10
0.2057127094
 20
11.5704128881
 10
0.2084528987
 20
11.5895350644
 10
0.2093630165
 20
11.6098607276
  0
LINE
  5
2BD
100
AcDbEntity
  8
RACCORDO
100
AcDbLine
 62
250
  6
CONTINUOUS
 10
0.2093630165
 20
12.2500001749
 11
1.1118137672
 21
12.8068590293
  0
LINE
  5
2BE
100
AcDbEntity
  8
RACCORDO
100
AcDbLine
 62
250
  6
CONTINUOUS
 10
-2.3275281974
 20
10.6283147955
 11
-4.3702485042
 21
9.3678505663
  0
LINE
  5
2BF
100
AcDbEntity
  8
DRAFT
100
AcDbLine
 62
7
  6
CONTINUOUS
 10
-1.7519686966
 20
10.1816369114
 11
-2.3275281974
 21
9.8264868891
  0
LINE
  5
2C0
100
AcDbEntity
  8
RACCORDO
100
AcDbLine
 62
7
  6
CONTINUOUS
 10
-2.5576014683
 20
11.1437141694
 11
-1.8130140482
 21
11.5963383744
  0
LINE
  5
2C1
100
AcDbEntity
  8
RACCORDO
100
AcDbLine
 62
250
  6
CONTINUOUS
 10
-2.4613463217
 20
11.0254538731
 11
-1.559805318
 21
11.5734879508
  0
LWPOLYLINE
  5
2C2
100
AcDbEntity
  8
RACCORDO
100
AcDbPolyline
 62
7
  6
CONTINUOUS
 90
12
 70
0
 10
18.0948651556
 20
22.2992695468
 10
18.1233949019
 20
22.3160524422
 10
18.1492156985
 20
22.3323877887
 10
18.1723275454
 20
22.3482755862
 10
18.192955212
 20
22.3638862767
 10
18.210873929
 20
22.3790494182
 10
18.2254093876
 20
22.3932536852
 10
18.2363798613
 20
22.4064069514
 10
18.2439670766
 20
22.418601343
 10
18.248041905
 20
22.4296019137
 10
18.2485771768
 20
22.4393915995
 10
18.2459531184
 20
22.4473759292
  0
LINE
  5
2C3
100
AcDbEntity
  8
0
100
AcDbLine
 62
7
  6
CONTINUOUS
 10
12.7733084299
 20
19.9081515567
 11
12.5246550566
 21
19.7645822154
  0
LINE
  5
2C4
100
AcDbEntity
  8
RACCORDO
100
AcDbLine
 62
250
  6
CONTINUOUS
 10
-2.4292921704
 20
10.9738090215
 11
-1.4752434336
 21
11.5246629786
  0
LINE
  5
2C5
100
AcDbEntity
  8
RACCORDO
100
AcDbLine
 62
250
  6
CONTINUOUS
 10
-2.0696624732
 20
10.3650693164
 11
-1.1217438909
 21
10.9123838108
  0
LINE
  5
2C6
100
AcDbEntity
  8
RACCORDO
100
AcDbLine
 62
7
  6
CONTINUOUS
 10
18.0948651556
 20
22.2992695468
 11
14.1937192841
 21
20.074631999
  0
LWPOLYLINE
  5
2C7
100
AcDbEntity
  8
RACCORDO
100
AcDbPolyline
 62
7
  6
CONTINUOUS
 90
12
 70
0
 10
0.6047623261
 20
11.7447564443
 10
0.609270137
 20
11.7473159911
 10
0.6304372759
 20
11.7605825307
 10
0.6509762904
 20
11.7754494275
 10
0.6709090276
 20
11.7917670194
 10
0.6899966394
 20
11.8092821877
 10
0.7082587583
 20
11.8278845379
 10
0.7257070404
 20
11.8474257066
 10
0.7420866997
 20
11.8676218389
 10
0.7573391912
 20
11.8882978937
 10
0.7716019587
 20
11.9093878028
 10
0.7849225173
 20
11.9307792346
  0
LINE
  5
2C8
100
AcDbEntity
  8
RACCORDO
100
AcDbLine
 62
250
  6
CONTINUOUS
 10
13.5760707185
 20
19.7829419062
 11
6.3117857955
 21
15.6753971219
  0
LINE
  5
2C9
100
AcDbEntity
  8
0
100
AcDbLine
 62
7
  6
CONTINUOUS
 10
18.0506622757
 20
22.460890199
 11
13.6994366819
 21
20.0347486454
  0
LINE
  5
2CA
100
AcDbEntity
  8
RACCORDO
100
AcDbLine
 62
250
  6
CONTINUOUS
 10
0.7849225173
 20
11.9307792346
 11
0.2093630165
 21
11.6098607276
  0
LINE
  5
2CB
100
AcDbEntity
  8
RACCORDO
100
AcDbLine
 62
7
  6
CONTINUOUS
 10
0.6047634961
 20
11.7447570967
 11
0.1574462301
 21
11.4953434583
  0
LWPOLYLINE
  5
2CC
100
AcDbEntity
  8
RACCORDO
100
AcDbPolyline
 62
7
  6
CONTINUOUS
 90
7
 70
0
 10
14.1937192841
 20
20.074631999
 10
14.094426825
 20
20.0197297614
 10
13.9936768405
 20
19.9673423347
 10
13.8914681354
 20
19.9174699641
 10
13.7877990458
 20
19.8701126462
 10
13.6826674399
 20
19.8252701282
 10
13.5760707185
 20
19.7829419062
  0
LWPOLYLINE
  5
2CD
100
AcDbEntity
  8
RACCORDO
100
AcDbPolyline
 62
250
  6
CONTINUOUS
 90
13
 70
0
 10
0.2093630165
 20
11.6098607276
 10
0.18469623
 20
11.5977859467
 10
0.1575362998
 20
11.5876506408
 10
0.1283376842
 20
11.5796244023
 10
0.0975889431
 20
11.5738415315
 10
0.0658045975
 20
11.5703987965
 10
0.0335165232
 20
11.5693538048
 10
0.0012650092
 20
11.5707240335
 10
-0.0304103124
 20
11.5744865467
 10
-0.0609794564
 20
11.580578387
 10
-0.0899309288
 20
11.5888976234
 10
-0.116780287
 20
11.5993050511
 10
-0.1410782714
 20
11.6116265256
  0
LWPOLYLINE
  5
2CE
100
AcDbEntity
  8
RACCORDO
100
AcDbPolyline
 62
250
  6
CONTINUOUS
 90
16
 70
0
 10
-5.0514360709
 20
8.206264833
 10
-5.0904452004
 20
8.1884001658
 10
-5.1327578283
 20
8.1729519803
 10
-5.1779205957
 20
8.1600857962
 10
-5.2254496054
 20
8.1499394684
 10
-5.2748356076
 20
8.1426217099
 10
-5.3255494552
 20
8.1382109268
 10
-5.3770477743
 20
8.1367543785
 10
-5.4287787857
 20
8.1382676712
 10
-5.4801882167
 20
8.1427345908
 10
-5.5307252405
 20
8.1501072763
 10
-5.5798483778
 20
8.1603067331
 10
-5.6270312979
 20
8.1732236791
 10
-5.6717684592
 20
8.1887197155
 10
-5.7135805248
 20
8.2066288099
 10
-5.7520194989
 20
8.2267590751
  0
LWPOLYLINE
  5
2CF
100
AcDbEntity
  8
RACCORDO
100
AcDbPolyline
 62
250
  6
CONTINUOUS
 90
16
 70
0
 10
-6.056261804
 20
-8.4121815865
 10
-6.0244611543
 20
-8.4290358284
 10
-5.9902582606
 20
-8.4442930299
 10
-5.9539200604
 20
-8.4578130883
 10
-5.9157241516
 20
-8.4694961317
 10
-5.8759556944
 20
-8.4792666065
 10
-5.8349014624
 20
-8.4870507417
 10
-5.7928611871
 20
-8.4927888451
 10
-5.750151561
 20
-8.4964475797
 10
-5.7070893876
 20
-8.4979982267
 10
-5.6639945875
 20
-8.4974162431
 10
-5.621187333
 20
-8.4947152607
 10
-5.578984882
 20
-8.4899231065
 10
-5.5377050084
 20
-8.4830643674
 10
-5.4976508697
 20
-8.4741877512
 10
-5.4591108451
 20
-8.4633661907
  0
LWPOLYLINE
  5
2D0
100
AcDbEntity
  8
RACCORDO
100
AcDbPolyline
 62
7
  6
CONTINUOUS
 90
16
 70
0
 10
-6.0148994156
 20
-8.5038273471
 10
-5.987417821
 20
-8.5185705669
 10
-5.9477892582
 20
-8.5363473572
 10
-5.9066418941
 20
-8.5511224259
 10
-5.8641914559
 20
-8.5630150471
 10
-5.8206523383
 20
-8.5720938863
 10
-5.776369681
 20
-8.5783667038
 10
-5.7315939744
 20
-8.5818691382
 10
-5.6865563706
 20
-8.5825923757
 10
-5.6416715044
 20
-8.5805267541
 10
-5.5971695579
 20
-8.5756740061
 10
-5.5533032254
 20
-8.5679895671
 10
-5.5104237386
 20
-8.5574516089
 10
-5.4687434145
 20
-8.5439863395
 10
-5.4284744704
 20
-8.5274618775
 10
-5.3995595473
 20
-8.5130946455
  0
LINE
  5
2D1
100
AcDbEntity
  8
RACCORDO
100
AcDbLine
 62
250
  6
CONTINUOUS
 10
-6.0562724632
 20
-8.9717913585
 11
-20.9234061205
 21
-0.3876947137
  0
LINE
  5
2D2
100
AcDbEntity
  8
RACCORDO
100
AcDbLine
 62
250
  6
CONTINUOUS
 10
-5.9173192925
 20
-8.7281641033
 11
-20.7844529499
 21
-0.1440674585
  0
LINE
  5
2D3
100
AcDbEntity
  8
RACCORDO
100
AcDbLine
 62
7
  6
CONTINUOUS
 10
-20.8819896391
 20
0.0802332597
 11
-6.0148559848
 21
-8.5038633834
  0
LINE
  5
2D4
100
AcDbEntity
  8
RACCORDO
100
AcDbLine
 62
250
  6
CONTINUOUS
 10
-20.9234061205
 20
0.1719089086
 11
-6.0562724632
 21
-8.4121877362
  0
LWPOLYLINE
  5
2D5
100
AcDbEntity
  8
TRASH
100
AcDbPolyline
 62
7
  6
CONTINUOUS
 90
10
 70
0
 10
-9.9235963687
 20
20.2237606841
 10
-9.9195918769
 20
20.17757444
 10
-9.9195595064
 20
20.134292578
 10
-9.9234992572
 20
20.0939150981
 10
-9.9315910277
 20
20.0559739932
 10
-9.9436549196
 20
20.0209372703
 10
-9.9591512374
 20
19.9902089517
 10
-9.9780598802
 20
19.9640896131
 10
-10.000400949
 20
19.9422786786
 10
-10.0225461555
 20
19.9270526858
  0
LWPOLYLINE
  5
2D6
100
AcDbEntity
  8
RACCORDO
100
AcDbPolyline
 62
250
  6
CONTINUOUS
 90
22
 70
0
 10
-5.0514360709
 20
-25.2583520555
 10
-5.0475289635
 20
-25.3136870748
 10
-5.0401793474
 20
-25.3661605792
 10
-5.0293872225
 20
-25.4157725688
 10
-5.0150656345
 20
-25.4627585066
 10
-4.9973015377
 20
-25.5068829295
 10
-4.9763557959
 20
-25.5474394484
 10
-4.9521787635
 20
-25.584359397
 10
-4.9248200861
 20
-25.6177114415
 10
-4.8946895637
 20
-25.6469951915
 10
-4.861752299
 20
-25.672145557
 10
-4.8260431893
 20
-25.693227628
 10
-4.7880767265
 20
-25.7099362845
 10
-4.7478111344
 20
-25.7222098295
 10
-4.7052881892
 20
-25.73010996
 10
-4.6611477115
 20
-25.7335166471
 10
-4.6153573375
 20
-25.7323545143
 10
-4.5679494309
 20
-25.7266989382
 10
-4.5196609032
 20
-25.7166560186
 10
-4.4707373914
 20
-25.7022611224
 10
-4.4209332584
 20
-25.6834788829
 10
-4.3702485042
 20
-25.6603093
  0
LWPOLYLINE
  5
2D7
100
AcDbEntity
  8
RACCORDO
100
AcDbPolyline
 62
250
  6
CONTINUOUS
 90
12
 70
0
 10
-5.7520194992
 20
-25.2714376574
 10
-5.7462630671
 20
-25.354091858
 10
-5.73523285
 20
-25.4330888102
 10
-5.7189838887
 20
-25.5080388531
 10
-5.6975965066
 20
-25.5785698873
 10
-5.671177083
 20
-25.6443380029
 10
-5.6398549089
 20
-25.7050265515
 10
-5.6037756396
 20
-25.7603428547
 10
-5.5631194094
 20
-25.8100035308
 10
-5.5181032063
 20
-25.8537479247
 10
-5.4689593245
 20
-25.8913574613
 10
-5.4393116958
 20
-25.909912144
  0
LWPOLYLINE
  5
2D8
100
AcDbEntity
  8
RACCORDO
100
AcDbPolyline
 62
250
  6
CONTINUOUS
 90
7
 70
0
 10
-6.0562724632
 20
-8.4121877362
 10
-6.0551023614
 20
-8.4326031168
 10
-6.0515829827
 20
-8.4513108208
 10
-6.0457733107
 20
-8.4679975109
 10
-6.0377706834
 20
-8.4823837195
 10
-6.0277091799
 20
-8.4942284949
 10
-6.0149041523
 20
-8.5038355453
  0
LWPOLYLINE
  5
2D9
100
AcDbEntity
  8
RACCORDO
100
AcDbPolyline
 62
250
  6
CONTINUOUS
 90
4
 70
0
 10
-5.9185083011
 20
-19.8760888877
 10
-5.8702414468
 20
-21.6788031265
 10
-5.8147449798
 20
-23.4772648681
 10
-5.7520194992
 20
-25.2714376574
  0
LINE
  5
2DA
100
AcDbEntity
  8
RACCORDO
100
AcDbLine
 62
250
  6
CONTINUOUS
 10
10.0739108836
 20
14.7572191744
 11
1.1118137672
 21
9.4558033251
  0
LINE
  5
2DB
100
AcDbEntity
  8
RACCORDO
100
AcDbLine
 62
250
  6
CONTINUOUS
 10
19.5291273605
 20
18.9674161387
 11
7.2336140342
 21
11.7041102815
  0
LINE
  5
2DC
100
AcDbEntity
  8
RACCORDO
100
AcDbLine
 62
250
  6
CONTINUOUS
 10
7.2336140342
 20
11.7041102815
 11
1.1118137672
 21
8.0875693995
  0
LINE
  5
2DD
100
AcDbEntity
  8
RACCORDO
100
AcDbLine
 62
7
  6
CONTINUOUS
 10
-1.8473823415
 20
-6.6809697587
 11
-1.6935683045
 21
-6.7697800559
  0
LINE
  5
2DE
100
AcDbEntity
  8
RACCORDO
100
AcDbLine
 62
7
  6
CONTINUOUS
 10
-1.9094457737
 20
-6.6362360484
 11
-1.8933685137
 21
-6.6455188569
  0
LWPOLYLINE
  5
2DF
100
AcDbEntity
  8
RACCORDO
100
AcDbPolyline
 62
250
  6
CONTINUOUS
 90
13
 70
0
 10
-5.3553927512
 20
-8.9709955129
 10
-5.356908577
 20
-8.9491602453
 10
-5.3607748508
 20
-8.9262777268
 10
-5.3669254069
 20
-8.9027393675
 10
-5.3752550182
 20
-8.8789477654
 10
-5.3856211766
 20
-8.8553098802
 10
-5.3978465153
 20
-8.832230069
 10
-5.4117218883
 20
-8.8101030781
 10
-5.4270099466
 20
-8.7893073253
 10
-5.4434491609
 20
-8.7701984793
 10
-5.4607583352
 20
-8.7531033187
 10
-5.478641423
 20
-8.7383141518
 10
-5.4967925683
 20
-8.7260838457
  0
LWPOLYLINE
  5
2E0
100
AcDbEntity
  8
RACCORDO
100
AcDbPolyline
 62
250
  6
CONTINUOUS
 90
5
 70
0
 10
-5.2587938809
 20
-18.0615479567
 10
-5.2177938846
 20
-19.8670772964
 10
-5.169567665
 20
-21.6683831001
 10
-5.1141150604
 20
-23.4654746865
 10
-5.0514360709
 20
-25.2583520555
  0
LWPOLYLINE
  5
2E1
100
AcDbEntity
  8
RACCORDO
100
AcDbPolyline
 62
250
  6
CONTINUOUS
 90
7
 70
0
 10
-6.0562724632
 20
-8.9717913585
 10
-6.0513893079
 20
-10.7995898276
 10
-6.0392740242
 20
-12.6232704912
 10
-6.0199273397
 20
-14.4427969722
 10
-5.9933505797
 20
-16.2581050383
 10
-5.959544522
 20
-18.0691865672
 10
-5.9185083011
 20
-19.8760888877
  0
LWPOLYLINE
  5
2E2
100
AcDbEntity
  8
RACCORDO
100
AcDbPolyline
 62
250
  6
CONTINUOUS
 90
6
 70
0
 10
-5.3553927512
 20
-8.9709955128
 10
-5.3505267821
 20
-10.7974747972
 10
-5.3384339428
 20
-12.61976782
 10
-5.3191142335
 20
-14.4378745813
 10
-5.2925674922
 20
-16.2518043998
 10
-5.2587938809
 20
-18.0615479567
  0
LINE
  5
2E3
100
AcDbEntity
  8
TRASH
100
AcDbLine
 62
7
  6
CONTINUOUS
 10
-6.3481627743
 20
21.6298858625
 11
-6.3481627743
 21
20.7314011378
  0
LINE
  5
2E4
100
AcDbEntity
  8
RACCORDO
100
AcDbLine
 62
7
  6
CONTINUOUS
 10
-6.3481627743
 20
20.7314011378
 11
-6.3481627743
 21
20.3600946721
  0
LINE
  5
2E5
100
AcDbEntity
  8
TRASH
100
AcDbLine
 62
7
  6
CONTINUOUS
 10
-5.0046598901
 20
21.1562376408
 11
-5.0046598901
 21
20.3169648973
  0
LINE
  5
2E6
100
AcDbEntity
  8
TRASH
100
AcDbLine
 62
7
  6
CONTINUOUS
 10
-4.3188934079
 20
16.3509032787
 11
-4.3188934079
 21
16.4325503064
  0
LWPOLYLINE
  5
2E7
100
AcDbEntity
  8
RACCORDO
100
AcDbPolyline
 62
250
  6
CONTINUOUS
 90
6
 70
0
 10
-5.2587938809
 20
0.7782250107
 10
-5.2925674922
 20
-1.0691812968
 10
-5.3191142335
 20
-2.9127147984
 10
-5.3384339428
 20
-4.7523659953
 10
-5.3505267821
 20
-6.5881443864
 10
-5.3553927512
 20
-8.4200499717
  0
LWPOLYLINE
  5
2E8
100
AcDbEntity
  8
RACCORDO
100
AcDbPolyline
 62
250
  6
CONTINUOUS
 90
9
 70
0
 10
-5.8147449798
 20
6.362635353
 10
-5.8702414468
 20
4.5022843801
 10
-5.9185083011
 20
2.6457433029
 10
-5.959544522
 20
0.7930777217
 10
-5.9933505797
 20
-1.0557040392
 10
-6.0199273397
 20
-2.9006503265
 10
-6.0392740242
 20
-4.7417521257
 10
-6.0513893079
 20
-6.5789436681
 10
-6.0562724632
 20
-8.4121877362
  0
LWPOLYLINE
  5
2E9
100
AcDbEntity
  8
RACCORDO
100
AcDbPolyline
 62
250
  6
CONTINUOUS
 90
4
 70
0
 10
-5.1141150604
 20
6.3434907888
 10
-5.169567665
 20
4.4845610534
 10
-5.2177938846
 20
2.6294756271
 10
-5.2587938809
 20
0.7782250107
  0
LINE
  5
2EA
100
AcDbEntity
  8
RACCORDO
100
AcDbLine
 62
250
  6
CONTINUOUS
 10
-5.7520194992
 20
8.2267590749
 11
-5.8147449798
 21
6.362635353
  0
LINE
  5
2EB
100
AcDbEntity
  8
RACCORDO
100
AcDbLine
 62
250
  6
CONTINUOUS
 10
-5.0514360709
 20
8.206264833
 11
-5.1141150604
 21
6.3434907888
  0
LWPOLYLINE
  5
2EC
100
AcDbEntity
  8
RACCORDO
100
AcDbPolyline
 62
250
  6
CONTINUOUS
 90
13
 70
0
 10
-6.0562724632
 20
-8.9717913585
 10
-6.0551024342
 20
-8.9500254727
 10
-6.0515832533
 20
-8.9272543224
 10
-6.0457738654
 20
-8.9038593152
 10
-6.0377715754
 20
-8.880232308
 10
-6.0277104183
 20
-8.8567690433
 10
-6.0157589147
 20
-8.8338625211
 10
-6.0021172474
 20
-8.8118964162
 10
-5.9870139088
 20
-8.791238652
 10
-5.9707018735
 20
-8.7722352376
 10
-5.9534543615
 20
-8.7552044722
 10
-5.9355602616
 20
-8.7404316144
 10
-5.9173192925
 20
-8.7281641033
  0
LWPOLYLINE
  5
2ED
100
AcDbEntity
  8
RACCORDO
100
AcDbPolyline
 62
250
  6
CONTINUOUS
 90
8
 70
0
 10
-5.3553927512
 20
-8.4200499717
 10
-5.3569084876
 20
-8.4408290613
 10
-5.3607745386
 20
-8.4598319942
 10
-5.3669247805
 20
-8.4767337507
 10
-5.3752540219
 20
-8.4912452491
 10
-5.3856198022
 20
-8.5031182898
 10
-5.3978448285
 20
-8.5121498003
 10
-5.3995546951
 20
-8.5131036602
  0
LINE
  5
2EE
100
AcDbEntity
  8
RACCORDO
100
AcDbLine
 62
250
  6
CONTINUOUS
 10
19.7139350963
 20
16.6589192147
 11
20.9888546891
 21
17.4212959601
  0
LWPOLYLINE
  5
2EF
100
AcDbEntity
  8
RACCORDO
100
AcDbPolyline
 62
7
  6
CONTINUOUS
 90
13
 70
0
 10
-0.8189549161
 20
6.3243913116
 10
-0.8148236254
 20
6.3266817759
 10
-0.800379586
 20
6.3356517917
 10
-0.7855454411
 20
6.3463024883
 10
-0.7704974018
 20
6.358644006
 10
-0.7553685187
 20
6.372685598
 10
-0.7401831694
 20
6.3883612219
 10
-0.7251004344
 20
6.4056973305
 10
-0.7102844602
 20
6.4246800073
 10
-0.695784398
 20
6.4452132591
 10
-0.681750149
 20
6.467271959
 10
-0.668417443
 20
6.490875956
 10
-0.655985215
 20
6.5159994654
  0
LINE
  5
2F0
100
AcDbEntity
  8
RACCORDO
100
AcDbLine
 62
250
  6
CONTINUOUS
 10
-1.7519686966
 20
5.9266150164
 11
-0.655985215
 21
6.5159994654
  0
LINE
  5
2F1
100
AcDbEntity
  8
RACCORDO
100
AcDbLine
 62
7
  6
CONTINUOUS
 10
-0.8189611008
 20
6.3243990392
 11
-1.7519686966
 21
5.8226577475
  0
LWPOLYLINE
  5
2F2
100
AcDbEntity
  8
RACCORDO
100
AcDbPolyline
 62
250
  6
CONTINUOUS
 90
16
 70
0
 10
-4.3702485042
 20
9.3678505663
 10
-4.3741151365
 20
9.4104793488
 10
-4.3817404073
 20
9.4549142694
 10
-4.3930408822
 20
9.5006690653
 10
-4.4078929077
 20
9.5472430291
 10
-4.4261339623
 20
9.5941264825
 10
-4.4475644337
 20
9.6408063542
 10
-4.4719498079
 20
9.6867718052
 10
-4.4990232311
 20
9.7315198093
 10
-4.5284884262
 20
9.7745606542
 10
-4.5600229458
 20
9.8154233186
 10
-4.5932816945
 20
9.8536606144
 10
-4.6279006971
 20
9.8888540747
 10
-4.6635010969
 20
9.9206185509
 10
-4.6996933029
 20
9.9486064252
 10
-4.7360812436
 20
9.9725114051
  0
LINE
  5
2F3
100
AcDbEntity
  8
RACCORDO
100
AcDbLine
 62
7
  6
CONTINUOUS
 10
-2.3275281974
 20
10.6283147955
 11
-2.3275281974
 21
9.8264868891
  0
LINE
  5
2F4
100
AcDbEntity
  8
RACCORDO
100
AcDbLine
 62
7
  6
CONTINUOUS
 10
-2.3275281974
 20
-24.6428274601
 11
-2.3275281974
 21
-23.8409995537
  0
LWPOLYLINE
  5
2F5
100
AcDbEntity
  8
RACCORDO
100
AcDbPolyline
 62
250
  6
CONTINUOUS
 90
9
 70
0
 10
-4.3702485042
 20
-25.6603093
 10
-4.3741151702
 20
-25.7028583204
 10
-4.3817405124
 20
-25.7426690852
 10
-4.393041083
 20
-25.7793059262
 10
-4.4078932144
 20
-25.8123679086
 10
-4.4261343726
 20
-25.8414932193
 10
-4.4475649357
 20
-25.8663631258
 10
-4.4719503788
 20
-25.8867054648
 10
-4.49465093
 20
-25.9001933762
  0
LWPOLYLINE
  5
2F6
100
AcDbEntity
  8
RACCORDO
100
AcDbPolyline
 62
250
  6
CONTINUOUS
 90
3
 70
0
 10
-1.7519686966
 20
5.8145002237
 10
-1.7493276938
 20
5.8221372355
 10
-1.7482802067
 20
5.824641298
  0
LINE
  5
2F7
100
AcDbEntity
  8
RACCORDO
100
AcDbLine
 62
7
  6
CONTINUOUS
 10
-1.7519686966
 20
2.3338078743
 11
-1.4404265822
 21
2.5231899375
  0
LINE
  5
2F8
100
AcDbEntity
  8
RACCORDO
100
AcDbLine
 62
250
  6
CONTINUOUS
 10
-1.7519686966
 20
2.2277444078
 11
-1.3507425433
 21
2.4716441351
  0
LINE
  5
2F9
100
AcDbEntity
  8
DRAFT
100
AcDbLine
 62
7
  6
CONTINUOUS
 10
19.6694574604
 20
15.0361354311
 11
20.4251607624
 21
15.4942808502
  0
LINE
  5
2FA
100
AcDbEntity
  8
RACCORDO
100
AcDbLine
 62
250
  6
CONTINUOUS
 10
19.7139350963
 20
16.0060249243
 11
20.9888546891
 21
16.7681197386
  0
LINE
  5
2FB
100
AcDbEntity
  8
RACCORDO
100
AcDbLine
 62
7
  6
CONTINUOUS
 10
-1.4404294484
 20
2.7765937188
 11
-1.7519686966
 21
2.595658895
  0
LINE
  5
2FC
100
AcDbEntity
  8
RACCORDO
100
AcDbLine
 62
250
  6
CONTINUOUS
 10
-0.9741189286
 20
2.2541863801
 11
-1.7519686966
 21
1.805067162
  0
LINE
  5
2FD
100
AcDbEntity
  8
RACCORDO
100
AcDbLine
 62
250
  6
CONTINUOUS
 10
-0.655985215
 20
1.9480413722
 11
-1.7519686966
 21
1.3152363441
  0
LWPOLYLINE
  5
2FE
100
AcDbEntity
  8
RACCORDO
100
AcDbPolyline
 62
7
  6
CONTINUOUS
 90
10
 70
0
 10
-1.3525614827
 20
2.8930517212
 10
-1.3707461777
 20
2.8828522174
 10
-1.3869107519
 20
2.873462412
 10
-1.4010453086
 20
2.8650640185
 10
-1.41335787
 20
2.8578565198
 10
-1.4236398086
 20
2.852013068
 10
-1.4313838958
 20
2.8475528028
 10
-1.4366291343
 20
2.8444923191
 10
-1.4396589041
 20
2.8428040047
 10
-1.440442773
 20
2.8423422916
  0
LWPOLYLINE
  5
2FF
100
AcDbEntity
  8
TRASH
100
AcDbPolyline
 62
7
  6
CONTINUOUS
 90
19
 70
0
 10
-0.7973745335
 20
18.155258932
 10
-0.7951760435
 20
18.1097806909
 10
-0.7891960434
 20
18.0635612851
 10
-0.7794345334
 20
18.0166007145
 10
-0.7656928398
 20
17.9683468754
 10
-0.7481696363
 20
17.9193518715
 10
-0.7274609432
 20
17.8712720139
 10
-0.7034648801
 20
17.8241513156
 10
-0.6762833274
 20
17.7779457637
 10
-0.6468179471
 20
17.73417963
 10
-0.61499286
 20
17.6929305859
 10
-0.5808839454
 20
17.65412096
 10
-0.545620503
 20
17.6190420098
 10
-0.5091565728
 20
17.5878141576
 10
-0.4715381148
 20
17.5603169812
 10
-0.434032308
 20
17.5374804711
 10
-0.3970615456
 20
17.5196146242
 10
-0.3602034344
 20
17.5064094436
 10
-0.3234579746
 20
17.4978649294
  0
LWPOLYLINE
  5
300
100
AcDbEntity
  8
RACCORDO
100
AcDbPolyline
 62
7
  6
CONTINUOUS
 90
15
 70
0
 10
-1.4404560796
 20
5.7363653324
 10
-1.4402371846
 20
5.7240820299
 10
-1.4390119738
 20
5.7019168342
 10
-1.4367022902
 20
5.6795787908
 10
-1.4332878142
 20
5.6571675624
 10
-1.4289276948
 20
5.6347286028
 10
-1.4236297796
 20
5.6123065657
 10
-1.4173912263
 20
5.5899721616
 10
-1.410345147
 20
5.5678019753
 10
-1.4025081911
 20
5.5458572488
 10
-1.3938788933
 20
5.5241700764
 10
-1.3845546712
 20
5.5027705809
 10
-1.3745693962
 20
5.4816964337
 10
-1.3639016148
 20
5.4609904236
 10
-1.3525614827
 20
5.4406886634
  0
LINE
  5
301
100
AcDbEntity
  8
RACCORDO
100
AcDbLine
 62
7
  6
CONTINUOUS
 10
-1.7519686966
 20
10.1816369114
 11
-1.7519686966
 21
-6.4822451265
  0
LINE
  5
302
100
AcDbEntity
  8
RACCORDO
100
AcDbLine
 62
7
  6
CONTINUOUS
 10
-1.7519686966
 20
-23.5543125619
 11
-1.7519686966
 21
-6.890430524
  0
LINE
  5
303
100
AcDbEntity
  8
RACCORDO
100
AcDbLine
 62
7
  6
CONTINUOUS
 10
-1.4814685789
 20
-3.2816981029
 11
-1.4814685789
 21
-7.1371475566
  0
LINE
  5
304
100
AcDbEntity
  8
RACCORDO
100
AcDbLine
 62
7
  6
CONTINUOUS
 10
-1.4404294484
 20
-15.4391612484
 11
-1.4404294484
 21
-14.4260117558
  0
LINE
  5
305
100
AcDbEntity
  8
RACCORDO
100
AcDbLine
 62
7
  6
CONTINUOUS
 10
-1.4404294484
 20
2.523184841
 11
-1.4404294484
 21
2.8423345983
  0
LINE
  5
306
100
AcDbEntity
  8
RACCORDO
100
AcDbLine
 62
7
  6
CONTINUOUS
 10
-1.4404294484
 20
5.7363705422
 11
-1.4404294484
 21
5.9901934734
  0
LINE
  5
307
100
AcDbEntity
  8
RACCORDO
100
AcDbLine
 62
250
  6
CONTINUOUS
 10
-1.3525614827
 20
6.0374460218
 11
-1.3525614827
 21
5.4406886634
  0
LINE
  5
308
100
AcDbEntity
  8
RACCORDO
100
AcDbLine
 62
250
  6
CONTINUOUS
 10
-1.3525614827
 20
2.8930517212
 11
-1.3525614827
 21
2.4726943679
  0
LINE
  5
309
100
AcDbEntity
  8
RACCORDO
100
AcDbLine
 62
250
  6
CONTINUOUS
 10
-1.3525614827
 20
-14.375294633
 11
-1.3525614827
 21
-15.4896517215
  0
LINE
  5
30A
100
AcDbEntity
  8
RACCORDO
100
AcDbLine
 62
250
  6
CONTINUOUS
 10
-1.2954618656
 20
-22.095245508
 11
-1.2954618656
 21
-21.1967633564
  0
LINE
  5
30B
100
AcDbEntity
  8
RACCORDO
100
AcDbLine
 62
7
  6
CONTINUOUS
 10
-1.1217438909
 20
12.1778505637
 11
-1.1217438909
 21
10.9123838108
  0
LINE
  5
30C
100
AcDbEntity
  8
RACCORDO
100
AcDbLine
 62
250
  6
CONTINUOUS
 10
-0.9450205777
 20
-20.8350452576
 11
-0.9450205777
 21
-21.8928937367
  0
LINE
  5
30D
100
AcDbEntity
  8
RACCORDO
100
AcDbLine
 62
250
  6
CONTINUOUS
 10
-0.8662499877
 20
-15.8044734797
 11
-0.8662499877
 21
-11.6633774833
  0
LINE
  5
30E
100
AcDbEntity
  8
RACCORDO
100
AcDbLine
 62
250
  6
CONTINUOUS
 10
-0.8662499877
 20
2.1578726097
 11
-0.8662499877
 21
6.2989686061
  0
LINE
  5
30F
100
AcDbEntity
  8
RACCORDO
100
AcDbLine
 62
250
  6
CONTINUOUS
 10
-0.655985215
 20
-16.0143047172
 11
-0.655985215
 21
-11.446346624
  0
LINE
  5
310
100
AcDbEntity
  8
RACCORDO
100
AcDbLine
 62
250
  6
CONTINUOUS
 10
-0.655985215
 20
1.9480413722
 11
-0.655985215
 21
6.5159994654
  0
LINE
  5
311
100
AcDbEntity
  8
TRASH
100
AcDbLine
 62
7
  6
CONTINUOUS
 10
-0.6205978467
 20
18.6249351621
 11
-0.6205978467
 21
17.7856624186
  0
LINE
  5
312
100
AcDbEntity
  8
DRAFT
100
AcDbLine
 62
7
  6
CONTINUOUS
 10
-0.5461843902
 20
11.7609872336
 11
-0.5461843902
 21
-21.6705120131
  0
LINE
  5
313
100
AcDbEntity
  8
RACCORDO
100
AcDbLine
 62
250
  6
CONTINUOUS
 10
-0.1410782714
 20
12.2517659729
 11
-0.1410782714
 21
11.6116265256
  0
LINE
  5
314
100
AcDbEntity
  8
RACCORDO
100
AcDbLine
 62
250
  6
CONTINUOUS
 10
-0.1410782714
 20
-22.7617721274
 11
-0.1410782714
 21
-23.4019115747
  0
LINE
  5
315
100
AcDbEntity
  8
RACCORDO
100
AcDbLine
 62
250
  6
CONTINUOUS
 10
0.2093630165
 20
12.2500001749
 11
0.2093630165
 21
11.6098607276
  0
LINE
  5
316
100
AcDbEntity
  8
RACCORDO
100
AcDbLine
 62
250
  6
CONTINUOUS
 10
0.2093630165
 20
-22.7635379254
 11
0.2093630165
 21
-23.4036773727
  0
LWPOLYLINE
  5
317
100
AcDbEntity
  8
RACCORDO
100
AcDbPolyline
 62
250
  6
CONTINUOUS
 90
10
 70
0
 10
3.865475119
 20
17.1026044908
 10
3.8736484653
 20
17.1285136973
 10
3.8805068302
 20
17.1526912165
 10
3.8856930069
 20
17.1748787574
 10
3.8886488236
 20
17.1949507461
 10
3.8893483378
 20
17.2126902612
 10
3.8882566774
 20
17.227709414
 10
3.8853742072
 20
17.2397985588
 10
3.8802917259
 20
17.2490082821
 10
3.8728881434
 20
17.2553678686
  0
LINE
  5
318
100
AcDbEntity
  8
RACCORDO
100
AcDbLine
 62
7
  6
CONTINUOUS
 10
-8.8014734096
 20
21.282788873
 11
-8.8021234068
 21
21.2844815492
  0
LINE
  5
319
100
AcDbEntity
  8
RACCORDO
100
AcDbLine
 62
250
  6
CONTINUOUS
 10
0.4344812294
 20
11.6498116901
 11
0.4344812294
 21
-22.2367360512
  0
LINE
  5
31A
100
AcDbEntity
  8
RACCORDO
100
AcDbLine
 62
250
  6
CONTINUOUS
 10
0.7849225173
 20
11.9307792346
 11
0.7849225173
 21
-22.4426194184
  0
LINE
  5
31B
100
AcDbEntity
  8
TRASH
100
AcDbLine
 62
7
  6
CONTINUOUS
 10
1.1118137672
 20
12.8068590293
 11
1.1118137672
 21
-22.9541653925
  0
LWPOLYLINE
  5
31C
100
AcDbEntity
  8
RACCORDO
100
AcDbPolyline
 62
250
  6
CONTINUOUS
 90
19
 70
0
 10
-0.1410782714
 20
-23.4019115747
 10
-0.1417599965
 20
-23.4193784623
 10
-0.1437405048
 20
-23.4357471786
 10
-0.1470197963
 20
-23.4510177236
 10
-0.1516402054
 20
-23.4653053615
 10
-0.1575593977
 20
-23.4784948282
 10
-0.1646503701
 20
-23.4902403306
 10
-0.172944229
 20
-23.5004971415
 10
-0.182409868
 20
-23.5093099882
 10
-0.1928269653
 20
-23.5164672596
 10
-0.204218298
 20
-23.5219250141
 10
-0.2165610889
 20
-23.5257271935
 10
-0.2295666843
 20
-23.5277940116
 10
-0.2432581785
 20
-23.5280789158
 10
-0.2576124772
 20
-23.5266284588
 10
-0.2722716428
 20
-23.5235025131
 10
-0.287116363
 20
-23.518721036
 10
-0.3022659502
 20
-23.5122640702
 10
-0.3177204044
 20
-23.5041316157
  0
LWPOLYLINE
  5
31D
100
AcDbEntity
  8
RACCORDO
100
AcDbPolyline
 62
250
  6
CONTINUOUS
 90
11
 70
0
 10
0.2093630165
 20
-23.4036773727
 10
0.2072195635
 20
-23.4389142104
 10
0.2024158647
 20
-23.472320157
 10
0.19499459
 20
-23.5036384043
 10
0.1850228232
 20
-23.5326258573
 10
0.1725770823
 20
-23.5590620237
 10
0.1577427482
 20
-23.5827507627
 10
0.1406364202
 20
-23.6035104728
 10
0.121393542
 20
-23.6211811735
 10
0.1001528735
 20
-23.6356327566
 10
0.0914504784
 20
-23.6403273498
  0
LINE
  5
31E
100
AcDbEntity
  8
RACCORDO
100
AcDbLine
 62
250
  6
CONTINUOUS
 10
-1.7519686966
 20
-3.4271643125
 11
-1.4814685789
 21
-3.2816981029
  0
LINE
  5
31F
100
AcDbEntity
  8
RACCORDO
100
AcDbLine
 62
7
  6
CONTINUOUS
 10
-1.7519686966
 20
-3.5311215814
 11
-1.5462196371
 21
-3.4204763955
  0
LINE
  5
320
100
AcDbEntity
  8
RACCORDO
100
AcDbLine
 62
7
  6
CONTINUOUS
 10
-0.9741189286
 20
2.2541863801
 11
-1.3525614827
 21
2.4726943679
  0
LINE
  5
321
100
AcDbEntity
  8
RACCORDO
100
AcDbLine
 62
7
  6
CONTINUOUS
 10
-1.440429448
 20
2.8423345977
 11
-1.7147007651
 21
3.0006954188
  0
LINE
  5
322
100
AcDbEntity
  8
RACCORDO
100
AcDbLine
 62
250
  6
CONTINUOUS
 10
-1.3525614827
 20
2.8930517212
 11
-1.7519686966
 21
3.1236644407
  0
LINE
  5
323
100
AcDbEntity
  8
RACCORDO
100
AcDbLine
 62
7
  6
CONTINUOUS
 10
-1.3684756706
 20
2.4816359862
 11
-1.3509627614
 21
2.4715102675
  0
LINE
  5
324
100
AcDbEntity
  8
RACCORDO
100
AcDbLine
 62
250
  6
CONTINUOUS
 10
-1.7147007651
 20
3.0006954188
 11
-1.7235951701
 21
3.0064802866
  0
LWPOLYLINE
  5
325
100
AcDbEntity
  8
RACCORDO
100
AcDbPolyline
 62
7
  6
CONTINUOUS
 90
8
 70
0
 10
-1.4404506837
 20
2.5231720046
 10
-1.4403510604
 20
2.5231056779
 10
-1.4386802309
 20
2.5220480078
 10
-1.4349552817
 20
2.5197647121
 10
-1.4290051721
 20
2.5163406967
 10
-1.420863035
 20
2.5117056779
 10
-1.4106887582
 20
2.5058248304
 10
-1.3684756706
 20
2.4816359862
  0
LWPOLYLINE
  5
326
100
AcDbEntity
  8
RACCORDO
100
AcDbPolyline
 62
250
  6
CONTINUOUS
 90
4
 70
0
 10
-1.7235951701
 20
3.0064802866
 10
-1.7374319655
 20
3.0185861197
 10
-1.7493277862
 20
3.0332866333
 10
-1.7519686966
 20
3.0378737332
  0
LWPOLYLINE
  5
327
100
AcDbEntity
  8
RACCORDO
100
AcDbPolyline
 62
7
  6
CONTINUOUS
 90
9
 70
0
 10
-0.7554249694
 20
2.0428828889
 10
-0.770550054
 20
2.0572420621
 10
-0.7855942
 20
2.0716644639
 10
-0.8004261546
 20
2.0861548372
 10
-0.8148679534
 20
2.1006893365
 10
-0.8288214428
 20
2.1151646113
 10
-0.8421472818
 20
2.1295310806
 10
-0.8546731682
 20
2.1437817789
 10
-0.8662499877
 20
2.1578726097
  0
LWPOLYLINE
  5
328
100
AcDbEntity
  8
RACCORDO
100
AcDbPolyline
 62
7
  6
CONTINUOUS
 90
4
 70
0
 10
-0.655985215
 20
1.9480413722
 10
-0.6684408995
 20
1.9607698229
 10
-0.6817939836
 20
1.9737627861
 10
-0.7554249694
 20
2.0428828889
  0
LINE
  5
329
100
AcDbEntity
  8
RACCORDO
100
AcDbLine
 62
250
  6
CONTINUOUS
 10
-1.3525614827
 20
5.4406886634
 11
-1.7519686966
 21
5.6713013829
  0
LINE
  5
32A
100
AcDbEntity
  8
RACCORDO
100
AcDbLine
 62
250
  6
CONTINUOUS
 10
-20.6295821881
 20
16.8168773118
 11
-5.7520194992
 21
8.2267590749
  0
LINE
  5
32B
100
AcDbEntity
  8
RACCORDO
100
AcDbLine
 62
250
  6
CONTINUOUS
 10
-1.4404294484
 20
5.9791813443
 11
-1.4503044237
 21
5.9848830312
  0
LWPOLYLINE
  5
32C
100
AcDbEntity
  8
RACCORDO
100
AcDbPolyline
 62
250
  6
CONTINUOUS
 90
19
 70
0
 10
9.4584447467
 20
20.335392349
 10
9.4669049632
 20
20.3843120801
 10
9.4868608509
 20
20.4598622673
 10
9.5135734606
 20
20.5347282496
 10
9.5469803609
 20
20.6087195163
 10
9.5869920162
 20
20.6816253285
 10
9.6334897898
 20
20.7532279288
 10
9.6863524409
 20
20.8233425117
 10
9.7454313114
 20
20.8917735703
 10
9.8105240908
 20
20.9582977676
 10
9.8813999227
 20
21.02270357
 10
9.9578930604
 20
21.0848627207
 10
10.0398844642
 20
21.1446814292
 10
10.1271330612
 20
21.2019786354
 10
10.2194373345
 20
21.2566171308
 10
10.316765845
 20
21.3085531088
 10
10.4191448729
 20
21.3577398241
 10
10.5260988821
 20
21.4038905603
 10
10.6263135103
 20
21.4428017415
  0
LINE
  5
32D
100
AcDbEntity
  8
0
100
AcDbLine
 62
7
  6
CONTINUOUS
 10
12.7733084299
 20
19.9081515567
 11
12.6938596499
 21
19.6782836854
  0
LINE
  5
32E
100
AcDbEntity
  8
RACCORDO
100
AcDbLine
 62
250
  6
CONTINUOUS
 10
19.7139350963
 20
4.7384531735
 11
20.9888546891
 21
5.5008299189
  0
LINE
  5
32F
100
AcDbEntity
  8
RACCORDO
100
AcDbLine
 62
250
  6
CONTINUOUS
 10
19.7139350963
 20
4.0855588832
 11
20.9888546891
 21
4.8476536975
  0
LINE
  5
330
100
AcDbEntity
  8
RACCORDO
100
AcDbLine
 62
250
  6
CONTINUOUS
 10
-1.8933685137
 20
-6.6455188569
 11
-5.4967925683
 21
-8.7260838457
  0
LINE
  5
331
100
AcDbEntity
  8
RACCORDO
100
AcDbLine
 62
250
  6
CONTINUOUS
 10
-1.6935683045
 20
-6.7697800559
 11
-1.7659787222
 21
-6.8115887849
  0
LINE
  5
332
100
AcDbEntity
  8
RACCORDO
100
AcDbLine
 62
250
  6
CONTINUOUS
 10
-1.7519686966
 20
-6.890430524
 11
-5.3553927512
 21
-8.9709955128
  0
LINE
  5
333
100
AcDbEntity
  8
RACCORDO
100
AcDbLine
 62
250
  6
CONTINUOUS
 10
-1.4814685789
 20
-7.1371475566
 11
-1.7519686966
 21
-7.2933304165
  0
LINE
  5
334
100
AcDbEntity
  8
RACCORDO
100
AcDbLine
 62
250
  6
CONTINUOUS
 10
-5.3553927512
 20
-8.4200499717
 11
-1.7519686966
 21
-6.4822451265
  0
LINE
  5
335
100
AcDbEntity
  8
RACCORDO
100
AcDbLine
 62
7
  6
CONTINUOUS
 10
-5.3995992277
 20
-8.5131276302
 11
-1.7951360688
 21
-6.5747639883
  0
LWPOLYLINE
  5
336
100
AcDbEntity
  8
RACCORDO
100
AcDbPolyline
 62
250
  6
CONTINUOUS
 90
19
 70
0
 10
-5.4967925683
 20
-8.7260838457
 10
-5.516265386
 20
-8.7363970303
 10
-5.5368753299
 20
-8.7456042485
 10
-5.5586224
 20
-8.7537055005
 10
-5.5816991194
 20
-8.7607534517
 10
-5.6059129649
 20
-8.7666954367
 10
-5.6306863678
 20
-8.7713734588
 10
-5.6560191015
 20
-8.7747512761
 10
-5.6819113926
 20
-8.7768651305
 10
-5.7077863513
 20
-8.7776657509
 10
-5.73364517
 20
-8.7771223715
 10
-5.7594866563
 20
-8.7752657582
 10
-5.7847303432
 20
-8.7721389367
 10
-5.8093737955
 20
-8.7677053449
 10
-5.8334194483
 20
-8.762001545
 10
-5.8562941406
 20
-8.7551802496
 10
-5.8778068185
 20
-8.7472923629
 10
-5.8981485358
 20
-8.7382869809
 10
-5.9173192925
 20
-8.7281641033
  0
LWPOLYLINE
  5
337
100
AcDbEntity
  8
RACCORDO
100
AcDbPolyline
 62
250
  6
CONTINUOUS
 90
19
 70
0
 10
-5.3554040965
 20
-8.9709887255
 10
-5.3877125508
 20
-8.9878835047
 10
-5.4223713412
 20
-9.0031216255
 10
-5.4591108443
 20
-9.0165616446
 10
-5.4976508689
 20
-9.02810563
 10
-5.5377050077
 20
-9.0376780356
 10
-5.5789848813
 20
-9.045207088
 10
-5.6211873324
 20
-9.0506366165
 10
-5.6639945869
 20
-9.0539341563
 10
-5.7070893871
 20
-9.0550725906
 10
-5.7501515605
 20
-9.054031864
 10
-5.7928611866
 20
-9.0508301994
 10
-5.8349014619
 20
-9.045497157
 10
-5.8759556941
 20
-9.0380615004
 10
-5.9157241512
 20
-9.0285781538
 10
-5.9539200602
 20
-9.0171217288
 10
-5.9902582604
 20
-9.0037659806
 10
-6.0244611541
 20
-8.9886072666
 10
-6.0562618038
 20
-8.9717851912
  0
LWPOLYLINE
  5
338
100
AcDbEntity
  8
RACCORDO
100
AcDbPolyline
 62
250
  6
CONTINUOUS
 90
4
 70
0
 10
-5.4591108451
 20
-8.4633661907
 10
-5.4223713418
 20
-8.4506700787
 10
-5.3877125512
 20
-8.4361853263
 10
-5.3554040967
 20
-8.4200431844
  0
LINE
  5
339
100
AcDbEntity
  8
RACCORDO
100
AcDbLine
 62
250
  6
CONTINUOUS
 10
-19.6370163131
 20
18.5761245609
 11
-4.7360812443
 21
9.9725114047
  0
LWPOLYLINE
  5
33A
100
AcDbEntity
  8
RACCORDO
100
AcDbPolyline
 62
250
  6
CONTINUOUS
 90
8
 70
0
 10
-15.4802578385
 20
20.3842050007
 10
-15.4919102968
 20
20.3942695895
 10
-15.5019282601
 20
20.4065224274
 10
-15.5102291608
 20
20.4208159305
 10
-15.5167279854
 20
20.4369404503
 10
-15.5213800369
 20
20.4546804601
 10
-15.524169331
 20
20.4738304983
 10
-15.5250957582
 20
20.4941654154
  0
LINE
  5
33B
100
AcDbEntity
  8
TRASH
100
AcDbLine
 62
7
  6
CONTINUOUS
 10
-3.7020468039
 20
16.6943901611
 11
-3.7831027535
 21
16.8036048878
  0
LINE
  5
33C
100
AcDbEntity
  8
TRASH
100
AcDbLine
 62
7
  6
CONTINUOUS
 10
-3.6212573174
 20
16.5848691028
 11
-3.7020468039
 21
16.6943901611
  0
LINE
  5
33D
100
AcDbEntity
  8
TRASH
100
AcDbLine
 62
7
  6
CONTINUOUS
 10
-2.8518714401
 20
15.5038631806
 11
-3.1002357769
 21
15.8621333606
  0
LWPOLYLINE
  5
33E
100
AcDbEntity
  8
0
100
AcDbPolyline
 62
7
  6
CONTINUOUS
 90
13
 70
0
 10
9.0391261631
 20
21.1769275549
 10
9.0392262726
 20
21.1904757772
 10
9.0473955749
 20
21.2999712243
 10
9.0686272475
 20
21.408880457
 10
9.1028201366
 20
21.5166846013
 10
9.149811338
 20
21.6228700482
 10
9.2093769722
 20
21.7269309005
 10
9.2812332521
 20
21.8283713832
 10
9.3650378343
 20
21.9267082056
 10
9.4603914502
 20
22.0214728636
 10
9.5668398087
 20
22.1122138718
 10
9.68387576
 20
22.1984989149
 10
9.8109417122
 20
22.2799169067
  0
LWPOLYLINE
  5
33F
100
AcDbEntity
  8
DRAFT
100
AcDbPolyline
 62
7
  6
CONTINUOUS
 90
5
 70
0
 10
15.2122052159
 20
20.8782329747
 10
15.2201128496
 20
20.899808344
 10
15.2461882886
 20
21.0073173953
 10
15.2592610732
 20
21.1152075183
 10
15.2608422688
 20
21.1691605283
  0
LWPOLYLINE
  5
340
100
AcDbEntity
  8
RACCORDO
100
AcDbPolyline
 62
7
  6
CONTINUOUS
 90
13
 70
0
 10
-0.9450205777
 20
-20.8350452576
 10
-0.9665730818
 20
-20.8778244671
 10
-0.9892365341
 20
-20.9179207836
 10
-1.0128500722
 20
-20.955255934
 10
-1.0373242634
 20
-20.9897850545
 10
-1.0624070412
 20
-21.0214907102
 10
-1.0877189781
 20
-21.0503463672
 10
-1.113121649
 20
-21.0763607796
 10
-1.1384759661
 20
-21.0995263741
 10
-1.1634406492
 20
-21.1197759372
 10
-1.1879000479
 20
-21.1371503557
 10
-1.2117181871
 20
-21.1516753782
 10
-1.2166577029
 20
-21.1543850279
  0
LINE
  5
341
100
AcDbEntity
  8
DRAFT
100
AcDbLine
 62
7
  6
CONTINUOUS
 10
19.6694574604
 20
3.1156693899
 11
20.4251607624
 21
3.573814809
  0
LINE
  5
342
100
AcDbEntity
  8
DRAFT
100
AcDbLine
 62
7
  6
CONTINUOUS
 10
-1.7519686966
 20
10.1816369114
 11
-2.3275281974
 21
10.5139577537
  0
LINE
  5
343
100
AcDbEntity
  8
RACCORDO
100
AcDbLine
 62
7
  6
CONTINUOUS
 10
-2.6808124633
 20
11.2407186923
 11
-17.6522663221
 21
19.885048514
  0
LINE
  5
344
100
AcDbEntity
  8
RACCORDO
100
AcDbLine
 62
250
  6
CONTINUOUS
 10
-15.473325103
 20
20.3797312002
 11
-15.4802578385
 21
20.3842050007
  0
LWPOLYLINE
  5
345
100
AcDbEntity
  8
RACCORDO
100
AcDbPolyline
 62
250
  6
CONTINUOUS
 90
7
 70
0
 10
-15.5250957582
 20
20.4941654154
 10
-15.5464358627
 20
20.5081948118
 10
-15.5644609312
 20
20.5236973453
 10
-15.5788693552
 20
20.5404136161
 10
-15.5894200451
 20
20.5580639203
 10
-15.5959364545
 20
20.5763529153
 10
-15.5983190629
 20
20.5962340638
  0
LWPOLYLINE
  5
346
100
AcDbEntity
  8
RACCORDO
100
AcDbPolyline
 62
250
  6
CONTINUOUS
 90
4
 70
0
 10
-2.689685168
 20
18.235267312
 10
-2.6965525592
 20
18.2440192446
 10
-2.7122505802
 20
18.2587858343
 10
-2.7298848683
 20
18.2708774618
  0
LWPOLYLINE
  5
347
100
AcDbEntity
  8
TRASH
100
AcDbPolyline
 62
7
  6
CONTINUOUS
 90
10
 70
0
 10
-3.7831027535
 20
16.8036048878
 10
-3.8225393238
 20
16.8544338167
 10
-3.8631116617
 20
16.902731638
 10
-3.9048197673
 20
16.9484983517
 10
-3.9478491708
 20
16.9919056719
 10
-3.992014342
 20
17.0327818845
 10
-4.0367586897
 20
17.0706118475
 10
-4.0818966834
 20
17.1052238467
 10
-4.1276138537
 20
17.1367895963
 10
-4.1739102003
 20
17.1653090962
  0
LINE
  5
348
100
AcDbEntity
  8
0
100
AcDbLine
 62
250
  6
CONTINUOUS
 10
9.8109417122
 20
21.9196162179
 11
9.8109417122
 21
22.2799169067
  0
LINE
  5
349
100
AcDbEntity
  8
DRAFT
100
AcDbLine
 62
7
  6
CONTINUOUS
 10
10.4809786179
 20
21.7943110216
 11
10.4809786179
 21
22.3133611397
  0
LINE
  5
34A
100
AcDbEntity
  8
0
100
AcDbLine
 62
7
  6
CONTINUOUS
 10
11.2263822578
 20
20.280524429
 11
11.2263822578
 21
19.6230895224
  0
LWPOLYLINE
  5
34B
100
AcDbEntity
  8
RACCORDO
100
AcDbPolyline
 62
250
  6
CONTINUOUS
 90
54
 70
0
 10
9.5762064794
 20
20.2356549094
 10
9.5762527434
 20
20.2747636679
 10
9.582629981
 20
20.3461058008
 10
9.5953456661
 20
20.4171663523
 10
9.6143538644
 20
20.4879483372
 10
9.639515481
 20
20.5579102019
 10
9.6708851382
 20
20.6270561399
 10
9.7084082137
 20
20.6953819577
 10
9.7517817455
 20
20.7623335205
 10
9.8010649639
 20
20.8279024235
 10
9.8561986385
 20
20.8920970715
 10
9.9167021168
 20
20.9543885442
 10
9.9825744685
 20
21.0147288827
 10
10.0538166238
 20
21.0731660459
 10
10.1299507214
 20
21.1293149891
 10
10.2109673504
 20
21.1831595375
 10
10.2968759218
 20
21.2347158658
 10
10.3872268075
 20
21.2836474549
 10
10.4822770877
 20
21.3300222901
 10
10.5817696822
 20
21.373772386
 10
10.6844837226
 20
21.4143572664
 10
10.7908245913
 20
21.4517462458
 10
10.9003869059
 20
21.4859700098
 10
11.0107336503
 20
21.5165801396
 10
11.1218381673
 20
21.5433702176
 10
11.233727114
 20
21.5665466615
 10
11.3440434461
 20
21.5862803052
 10
11.452433936
 20
21.6024170099
 10
11.5592518113
 20
21.6151109144
 10
11.6631997104
 20
21.6249952696
 10
11.7640355448
 20
21.632042364
 10
11.8620014031
 20
21.636279909
 10
11.9565261894
 20
21.63842429
 10
12.0474479295
 20
21.6385003537
 10
12.1349285977
 20
21.6364832535
 10
12.2188830211
 20
21.6330148346
 10
12.2991870945
 20
21.6281430693
 10
12.375964923
 20
21.6218199854
 10
12.4495036495
 20
21.6145435111
 10
12.5197701832
 20
21.6063607369
 10
12.5867976147
 20
21.5972245723
 10
12.6509723589
 20
21.587491674
 10
12.7122801057
 20
21.5772018897
 10
12.7707351651
 20
21.5663153716
 10
12.8267668816
 20
21.5550692336
 10
12.8803714652
 20
21.5434966314
 10
12.9315527059
 20
21.5315644093
 10
12.9807513181
 20
21.5194102129
 10
13.0279704631
 20
21.5070604272
 10
13.0732069796
 20
21.4944886672
 10
13.1168920995
 20
21.4817534239
 10
13.1591695666
 20
21.4688741945
 10
13.199895637
 20
21.4558314818
 10
13.2390703107
 20
21.4426252859
  0
LWPOLYLINE
  5
34C
100
AcDbEntity
  8
RACCORDO
100
AcDbPolyline
 62
250
  6
CONTINUOUS
 90
10
 70
0
 10
19.6523325177
 20
16.5962011873
 10
19.6563544961
 20
16.6039673145
 10
19.6611251547
 20
16.6115908411
 10
19.6666294494
 20
16.6190477266
 10
19.6728500227
 20
16.626314456
 10
19.6797672582
 20
16.6333681141
 10
19.6873593428
 20
16.6401864573
 10
19.6956023351
 20
16.6467479843
 10
19.7044702411
 20
16.6530320037
 10
19.7139350963
 20
16.659018699
  0
LWPOLYLINE
  5
34D
100
AcDbEntity
  8
RACCORDO
100
AcDbPolyline
 62
250
  6
CONTINUOUS
 90
10
 70
0
 10
19.6523325177
 20
15.9430249658
 10
19.6563547298
 20
15.9507915287
 10
19.66112563
 20
15.9584153636
 10
19.6666301415
 20
15.9658724337
 10
19.6728508708
 20
15.9731392244
 10
19.6797681748
 20
15.9801928335
 10
19.6873602283
 20
15.9870110416
 10
19.6956030734
 20
15.9935723617
 10
19.7044706904
 20
15.9998561084
 10
19.7139350963
 20
16.0058424775
  0
LINE
  5
34E
100
AcDbEntity
  8
RACCORDO
100
AcDbLine
 62
250
  6
CONTINUOUS
 10
12.5814854964
 20
-5.244618901
 11
19.5291273605
 21
-0.9480929554
  0
LINE
  5
34F
100
AcDbEntity
  8
RACCORDO
100
AcDbLine
 62
7
  6
CONTINUOUS
 10
12.8403085305
 20
-5.2494755038
 11
19.4324402498
 21
-1.1728023646
  0
LWPOLYLINE
  5
350
100
AcDbEntity
  8
RACCORDO
100
AcDbPolyline
 62
250
  6
CONTINUOUS
 90
13
 70
0
 10
12.8403503036
 20
-5.2494496691
 10
12.8381896036
 20
-5.2507021712
 10
12.8283266559
 20
-5.2549584348
 10
12.8159678452
 20
-5.2583140703
 10
12.8010535554
 20
-5.2607877158
 10
12.7834873056
 20
-5.262414345
 10
12.763305366
 20
-5.2630544609
 10
12.7404027837
 20
-5.2627287047
 10
12.7146727925
 20
-5.2614519321
 10
12.6860677972
 20
-5.2590089268
 10
12.6544473051
 20
-5.2553221069
 10
12.6196355643
 20
-5.2505055563
 10
12.5814854964
 20
-5.244618901
  0
LWPOLYLINE
  5
351
100
AcDbEntity
  8
RACCORDO
100
AcDbPolyline
 62
7
  6
CONTINUOUS
 90
13
 70
0
 10
-0.8189549175
 20
-11.6379547761
 10
-0.8148247026
 20
-11.6356649281
 10
-0.8003808353
 20
-11.6266951505
 10
-0.7855466899
 20
-11.6160445629
 10
-0.7704984007
 20
-11.6037029335
 10
-0.7553690841
 20
-11.5896610326
 10
-0.7401832271
 20
-11.5739849304
 10
-0.7250998043
 20
-11.5566479748
 10
-0.7102831152
 20
-11.5376642436
 10
-0.6957827739
 20
-11.5171303996
 10
-0.681748781
 20
-11.495071875
 10
-0.6684166476
 20
-11.471468669
 10
-0.655985215
 20
-11.446346624
  0
LINE
  5
352
100
AcDbEntity
  8
RACCORDO
100
AcDbLine
 62
250
  6
CONTINUOUS
 10
-1.7519686966
 20
-12.035731073
 11
-0.655985215
 21
-11.446346624
  0
LINE
  5
353
100
AcDbEntity
  8
RACCORDO
100
AcDbLine
 62
7
  6
CONTINUOUS
 10
-1.7519686966
 20
-12.139688342
 11
-0.8189611008
 21
-11.6379470502
  0
LINE
  5
354
100
AcDbEntity
  8
RACCORDO
100
AcDbLine
 62
7
  6
CONTINUOUS
 10
-1.4752434336
 20
11.5246629786
 11
-1.559805318
 21
11.5734879508
  0
LINE
  5
355
100
AcDbEntity
  8
RACCORDO
100
AcDbLine
 62
7
  6
CONTINUOUS
 10
-14.1063687116
 20
18.8177164089
 11
-14.190930596
 21
18.8665413812
  0
LINE
  5
356
100
AcDbEntity
  8
RACCORDO
100
AcDbLine
 62
7
  6
CONTINUOUS
 10
-0.0893076161
 20
11.4971923103
 11
-1.0690695755
 21
12.0628945863
  0
LINE
  5
357
100
AcDbEntity
  8
RACCORDO
100
AcDbLine
 62
7
  6
CONTINUOUS
 10
-14.4439354685
 20
19.7853745265
 11
-15.473325103
 21
20.3797312002
  0
LINE
  5
358
100
AcDbEntity
  8
RACCORDO
100
AcDbLine
 62
250
  6
CONTINUOUS
 10
-0.1410782714
 20
11.6116265256
 11
-1.1217438909
 21
12.1778505637
  0
LINE
  5
359
100
AcDbEntity
  8
RACCORDO
100
AcDbLine
 62
250
  6
CONTINUOUS
 10
-14.370712164
 20
19.827638796
 11
-15.5250957582
 21
20.4941654154
  0
LINE
  5
35A
100
AcDbEntity
  8
RACCORDO
100
AcDbLine
 62
250
  6
CONTINUOUS
 10
-15.3484536253
 20
21.2365249037
 11
-0.3177204044
 21
12.5579679213
  0
LINE
  5
35B
100
AcDbEntity
  8
RACCORDO
100
AcDbLine
 62
250
  6
CONTINUOUS
 10
-15.1809287074
 20
21.5370895249
 11
-0.1501954865
 21
12.8585325425
  0
LWPOLYLINE
  5
35C
100
AcDbEntity
  8
RACCORDO
100
AcDbPolyline
 62
250
  6
CONTINUOUS
 90
19
 70
0
 10
-0.3177204044
 20
12.5579679213
 10
-0.3022659502
 20
12.5482539595
 10
-0.287116363
 20
12.5372165618
 10
-0.2722716429
 20
12.524855728
 10
-0.2576124772
 20
12.5110536367
 10
-0.2432581785
 20
12.4959281095
 10
-0.2295666842
 20
12.4798326109
 10
-0.2165610889
 20
12.4627472573
 10
-0.204218298
 20
12.4446919324
 10
-0.1928269653
 20
12.4260797523
 10
-0.1824098681
 20
12.4068930781
 10
-0.1729442291
 20
12.3871495487
 10
-0.1646503702
 20
12.3673151975
 10
-0.1575593976
 20
12.3473812178
 10
-0.1516402053
 20
12.3273564163
 10
-0.1470197961
 20
12.3077332457
 10
-0.1437405046
 20
12.2886758571
 10
-0.1417599964
 20
12.2700200995
 10
-0.1410782714
 20
12.2517659729
  0
LWPOLYLINE
  5
35D
100
AcDbEntity
  8
RACCORDO
100
AcDbPolyline
 62
250
  6
CONTINUOUS
 90
19
 70
0
 10
-0.1501954865
 20
12.8585325425
 10
-0.1196350074
 20
12.8390521697
 10
-0.0892393578
 20
12.816657744
 10
-0.0592383013
 20
12.79152027
 10
-0.0298598241
 20
12.7638311581
 10
-0.0013264199
 20
12.7338010551
 10
0.0261465453
 20
12.7016580944
 10
0.0523476335
 20
12.667644795
 10
0.0770776181
 20
12.6320196303
 10
0.1001528735
 20
12.5950551769
 10
0.121393542
 20
12.5570294435
 10
0.1406364201
 20
12.5182306112
 10
0.1577427482
 20
12.4789580571
 10
0.1725770823
 20
12.4395069429
 10
0.1850228232
 20
12.4001752223
 10
0.19499459
 20
12.3612681515
 10
0.2024158648
 20
12.3230814408
 10
0.2072195636
 20
12.2858990358
 10
0.2093630165
 20
12.2500001749
  0
LWPOLYLINE
  5
35E
100
AcDbEntity
  8
RACCORDO
100
AcDbPolyline
 62
250
  6
CONTINUOUS
 90
9
 70
0
 10
-0.0893184964
 20
11.4971985935
 10
-0.0962403494
 20
11.5016661092
 10
-0.1078928078
 20
11.5117306973
 10
-0.1179107715
 20
11.523983535
 10
-0.1262116728
 20
11.5382770382
 10
-0.1327104979
 20
11.5544015583
 10
-0.1373625497
 20
11.5721415686
 10
-0.140151844
 20
11.5912916075
 10
-0.1410782714
 20
11.6116265256
  0
LWPOLYLINE
  5
35F
100
AcDbEntity
  8
TRASH
100
AcDbPolyline
 62
7
  6
CONTINUOUS
 90
5
 70
0
 10
-7.564541462
 20
21.6787757829
 10
-7.5277960021
 20
21.6448875612
 10
-7.490937891
 20
21.6155299189
 10
-7.4539671286
 20
21.590702856
 10
-7.4514983507
 20
21.5893551611
  0
LWPOLYLINE
  5
360
100
AcDbEntity
  8
RACCORDO
100
AcDbPolyline
 62
7
  6
CONTINUOUS
 90
3
 70
0
 10
0.8861247533
 20
15.7176211025
 10
0.8774580092
 20
15.7270216451
 10
0.8689267068
 20
15.7369031743
  0
LWPOLYLINE
  5
361
100
AcDbEntity
  8
RACCORDO
100
AcDbPolyline
 62
250
  6
CONTINUOUS
 90
4
 70
0
 10
-2.7577697399
 20
18.1986536326
 10
-2.7634952549
 20
18.2054654359
 10
-2.7780809979
 20
18.2205978307
 10
-2.7932823279
 20
18.2342684785
  0
LWPOLYLINE
  5
362
100
AcDbEntity
  8
RACCORDO
100
AcDbPolyline
 62
7
  6
CONTINUOUS
 90
5
 70
0
 10
0.8689267068
 20
15.7369031743
 10
0.8605484385
 20
15.7472569875
 10
0.8523401204
 20
15.7580720439
 10
0.8443178436
 20
15.7693348761
 10
0.8364967204
 20
15.7810295113
  0
LINE
  5
363
100
AcDbEntity
  8
TRASH
100
AcDbLine
 62
7
  6
CONTINUOUS
 10
-0.8830922029
 20
18.2716419983
 11
-0.969111662
 21
18.3876795345
  0
LINE
  5
364
100
AcDbEntity
  8
TRASH
100
AcDbLine
 62
7
  6
CONTINUOUS
 10
-0.7973745335
 20
18.155258932
 11
-0.8830922029
 21
18.2716419983
  0
LWPOLYLINE
  5
365
100
AcDbEntity
  8
RACCORDO
100
AcDbPolyline
 62
250
  6
CONTINUOUS
 90
10
 70
0
 10
1.1225537901
 20
15.5540973211
 10
1.1094531439
 20
15.5736337438
 10
1.0955559361
 20
15.5924441059
 10
1.0809430468
 20
15.6104054751
 10
1.0656867607
 20
15.6274140651
 10
1.049892077
 20
15.6433389735
 10
1.0337006831
 20
15.6580338426
 10
1.0172309315
 20
15.671396916
 10
1.0005726973
 20
15.68336072
 10
0.9838316364
 20
15.6938530528
  0
LWPOLYLINE
  5
366
100
AcDbEntity
  8
RACCORDO
100
AcDbPolyline
 62
7
  6
CONTINUOUS
 90
10
 70
0
 10
0.8364967204
 20
15.7810295113
 10
0.710989223
 20
15.9747386714
 10
0.5846306003
 20
16.1677209019
 10
0.4574208525
 20
16.3599762027
 10
0.3293505984
 20
16.5515185574
 10
0.2004292191
 20
16.7423339825
 10
0.0706848578
 20
16.9323805273
 10
-0.0598731043
 20
17.1216442082
 10
-0.1912540485
 20
17.3101390089
 10
-0.3234579746
 20
17.4978649294
  0
LWPOLYLINE
  5
367
100
AcDbEntity
  8
RACCORDO
100
AcDbPolyline
 62
250
  6
CONTINUOUS
 90
13
 70
0
 10
12.7218155935
 20
-5.462135771
 10
12.7217425734
 20
-5.4596159684
 10
12.7201681946
 20
-5.4489997469
 10
12.7165152841
 20
-5.4367343893
 10
12.7107684112
 20
-5.4227595603
 10
12.7029066465
 20
-5.406974598
 10
12.692830225
 20
-5.3894844663
 10
12.6805013365
 20
-5.3701893519
 10
12.6658764966
 20
-5.3489902198
 10
12.648747671
 20
-5.32595941
 10
12.6289750357
 20
-5.3010180662
 10
12.6065631833
 20
-5.2739567389
 10
12.5814854964
 20
-5.244618901
  0
LINE
  5
368
100
AcDbEntity
  8
0
100
AcDbLine
 62
7
  6
CONTINUOUS
 10
11.4778613383
 20
20.8259935752
 11
11.4778613383
 21
19.5999958048
  0
LINE
  5
369
100
AcDbEntity
  8
0
100
AcDbLine
 62
7
  6
CONTINUOUS
 10
11.9276059997
 20
20.6854022292
 11
11.9276059997
 21
19.7055432052
  0
LINE
  5
36A
100
AcDbEntity
  8
DRAFT
100
AcDbLine
 62
7
  6
CONTINUOUS
 10
11.9659028584
 20
22.2301554893
 11
11.9659028584
 21
21.6747195023
  0
LINE
  5
36B
100
AcDbEntity
  8
0
100
AcDbLine
 62
7
  6
CONTINUOUS
 10
12.5246550566
 20
19.650003571
 11
12.5246550566
 21
19.7645822154
  0
LINE
  5
36C
100
AcDbEntity
  8
RACCORDO
100
AcDbLine
 62
250
  6
CONTINUOUS
 10
12.5814854964
 20
-5.244618901
 11
12.5814854964
 21
-11.2951432203
  0
LINE
  5
36D
100
AcDbEntity
  8
RACCORDO
100
AcDbLine
 62
7
  6
CONTINUOUS
 10
12.7218155963
 20
-5.4621198087
 11
12.7218155963
 21
-11.0945996983
  0
LINE
  5
36E
100
AcDbEntity
  8
0
100
AcDbLine
 62
7
  6
CONTINUOUS
 10
12.7761341371
 20
20.1954727172
 11
12.7761341371
 21
19.6955446762
  0
LINE
  5
36F
100
AcDbEntity
  8
0
100
AcDbLine
 62
7
  6
CONTINUOUS
 10
13.0196298034
 20
19.7579497281
 11
13.0196298034
 21
19.9357957863
  0
LWPOLYLINE
  5
370
100
AcDbEntity
  8
RACCORDO
100
AcDbPolyline
 62
250
  6
CONTINUOUS
 90
11
 70
0
 10
12.5814854964
 20
-11.2951432203
 10
12.5793717762
 20
-11.3852881913
 10
12.5728043323
 20
-11.4725839912
 10
12.5618045821
 20
-11.5567580071
 10
12.5464085364
 20
-11.6375441527
 10
12.5266655547
 20
-11.7146939942
 10
12.5026362416
 20
-11.7879758907
 10
12.4743958146
 20
-11.8571605319
 10
12.4420326744
 20
-11.9220296787
 10
12.405644493
 20
-11.9823847785
 10
12.3653433639
 20
-12.038036419
  0
LWPOLYLINE
  5
371
100
AcDbEntity
  8
RACCORDO
100
AcDbPolyline
 62
250
  6
CONTINUOUS
 90
9
 70
0
 10
12.7218155957
 20
-11.0946133536
 10
12.7213524259
 20
-11.1070230029
 10
12.71645213
 20
-11.1367715171
 10
12.7062520894
 20
-11.1660682425
 10
12.6908615636
 20
-11.1945992749
 10
12.6704454433
 20
-11.2220588948
 10
12.6452224682
 20
-11.2481528765
 10
12.6154628706
 20
-11.2726016388
 10
12.5814854964
 20
-11.2951432194
  0
LWPOLYLINE
  5
372
100
AcDbEntity
  8
RACCORDO
100
AcDbPolyline
 62
7
  6
CONTINUOUS
 90
10
 70
0
 10
12.7218115911
 20
-5.4621022304
 10
12.722670877
 20
-5.441400267
 10
12.7272300884
 20
-5.4103423468
 10
12.7356453018
 20
-5.380100418
 10
12.7477838471
 20
-5.351151187
 10
12.7634543715
 20
-5.3239510021
 10
12.7824097546
 20
-5.2989287633
 10
12.8043512254
 20
-5.276478833
 10
12.8289332086
 20
-5.2569549045
 10
12.8403490101
 20
-5.2494579163
  0
LINE
  5
373
100
AcDbEntity
  8
RACCORDO
100
AcDbLine
 62
7
  6
CONTINUOUS
 10
-1.7519686966
 20
-15.6285382151
 11
-1.4404265822
 21
-15.4391561519
  0
LINE
  5
374
100
AcDbEntity
  8
RACCORDO
100
AcDbLine
 62
250
  6
CONTINUOUS
 10
-1.7519686966
 20
-15.7346016816
 11
-1.3507425433
 21
-15.4907019544
  0
LINE
  5
375
100
AcDbEntity
  8
RACCORDO
100
AcDbLine
 62
7
  6
CONTINUOUS
 10
-1.4404294484
 20
-14.4509291215
 11
-1.7519686966
 21
-14.6318639453
  0
LINE
  5
376
100
AcDbEntity
  8
RACCORDO
100
AcDbLine
 62
250
  6
CONTINUOUS
 10
-0.9741189286
 20
-15.7081597093
 11
-1.7519686966
 21
-16.1572789274
  0
LINE
  5
377
100
AcDbEntity
  8
RACCORDO
100
AcDbLine
 62
250
  6
CONTINUOUS
 10
-0.655985215
 20
-16.0143047172
 11
-1.7519686966
 21
-16.6471097454
  0
LWPOLYLINE
  5
378
100
AcDbEntity
  8
RACCORDO
100
AcDbPolyline
 62
7
  6
CONTINUOUS
 90
10
 70
0
 10
-1.3525614827
 20
-14.375294633
 10
-1.3707461777
 20
-14.3854941367
 10
-1.3869107519
 20
-14.3948839422
 10
-1.4010453086
 20
-14.4032823357
 10
-1.41335787
 20
-14.4104898343
 10
-1.4236398086
 20
-14.4163332861
 10
-1.4313838958
 20
-14.4207935514
 10
-1.4366291343
 20
-14.4238540351
 10
-1.4396589041
 20
-14.4255423495
 10
-1.440442773
 20
-14.4260040626
  0
LWPOLYLINE
  5
379
100
AcDbEntity
  8
TRASH
100
AcDbPolyline
 62
7
  6
CONTINUOUS
 90
10
 70
0
 10
-9.3709434857
 20
20.1660109811
 10
-9.4172398324
 20
20.1909533418
 10
-9.4629570026
 20
20.2121806345
 10
-9.5080949964
 20
20.229692859
 10
-9.552839344
 20
20.2435325472
 10
-9.5970045152
 20
20.2536571672
 10
-9.6400339188
 20
20.2599391237
 10
-9.6817420244
 20
20.2623358848
 10
-9.7223143623
 20
20.2608899823
 10
-9.7617509326
 20
20.2556014163
  0
LINE
  5
37A
100
AcDbEntity
  8
TRASH
100
AcDbLine
 62
7
  6
CONTINUOUS
 10
-14.3033831873
 20
22.1158225423
 11
-9.105879221
 21
19.1148488921
  0
LINE
  5
37B
100
AcDbEntity
  8
TRASH
100
AcDbLine
 62
7
  6
CONTINUOUS
 10
-4.4389744651
 20
16.4202365762
 11
0.7585295013
 21
13.419262926
  0
LINE
  5
37C
100
AcDbEntity
  8
TRASH
100
AcDbLine
 62
7
  6
CONTINUOUS
 10
-4.3188934079
 20
16.4325503064
 11
-9.2259602782
 21
19.2658292173
  0
LINE
  5
37D
100
AcDbEntity
  8
TRASH
100
AcDbLine
 62
7
  6
CONTINUOUS
 10
-9.3709434857
 20
20.1660109811
 11
-4.1739102003
 21
17.1653090962
  0
LWPOLYLINE
  5
37E
100
AcDbEntity
  8
RACCORDO
100
AcDbPolyline
 62
7
  6
CONTINUOUS
 90
7
 70
0
 10
0.953561787
 20
15.657874328
 10
0.9788411989
 20
15.6395204434
 10
1.0054752387
 20
15.6218813201
 10
1.0331912392
 20
15.6045594238
 10
1.0618978907
 20
15.5874220035
 10
1.0916855572
 20
15.5706013672
 10
1.1225537901
 20
15.5540973211
  0
LINE
  5
37F
100
AcDbEntity
  8
RACCORDO
100
AcDbLine
 62
7
  6
CONTINUOUS
 10
0.9476535357
 20
15.6624681557
 11
0.953561787
 21
15.657874328
  0
LINE
  5
380
100
AcDbEntity
  8
RACCORDO
100
AcDbLine
 62
7
  6
CONTINUOUS
 10
0.9297278648
 20
15.6770753389
 11
0.9476535357
 21
15.6624681557
  0
LWPOLYLINE
  5
381
100
AcDbEntity
  8
RACCORDO
100
AcDbPolyline
 62
250
  6
CONTINUOUS
 90
10
 70
0
 10
-3.2889792029
 20
18.5204659516
 10
-3.2929677341
 20
18.5239313772
 10
-3.29698386
 20
18.5272782967
 10
-3.3010241825
 20
18.5305038783
 10
-3.3050852832
 20
18.5336053929
 10
-3.3091637259
 20
18.5365802162
 10
-3.3132560599
 20
18.5394258314
 10
-3.3173588226
 20
18.5421398307
 10
-3.3214685429
 20
18.5447199178
 10
-3.3255817433
 20
18.5471639097
  0
LWPOLYLINE
  5
382
100
AcDbEntity
  8
RACCORDO
100
AcDbPolyline
 62
7
  6
CONTINUOUS
 90
3
 70
0
 10
0.8861247533
 20
15.7176211025
 10
0.9072488042
 20
15.6969909481
 10
0.9297278648
 20
15.6770753389
  0
LWPOLYLINE
  5
383
100
AcDbEntity
  8
RACCORDO
100
AcDbPolyline
 62
7
  6
CONTINUOUS
 90
13
 70
0
 10
14.1944833837
 20
21.0608297609
 10
14.1941157875
 20
21.0724268142
 10
14.1930037556
 20
21.0834626107
 10
14.1911472879
 20
21.0939371505
 10
14.1885298313
 20
21.103917515
 10
14.185167939
 20
21.1133366227
 10
14.1811112704
 20
21.121993229
 10
14.1763388498
 20
21.1298629912
 10
14.170871653
 20
21.136970252
 10
14.1648222659
 20
21.1431867945
 10
14.1582282175
 20
21.14846988
 10
14.151051979
 20
21.1528622473
 10
14.1452375989
 20
21.1555927663
  0
LWPOLYLINE
  5
384
100
AcDbEntity
  8
DRAFT
100
AcDbPolyline
 62
7
  6
CONTINUOUS
 90
34
 70
0
 10
15.2608422688
 20
21.1691605283
 10
15.2591498598
 20
21.2234839086
 10
15.246035992
 20
21.3321413706
 10
15.2201022545
 20
21.4396722709
 10
15.181170003
 20
21.546060789
 10
15.1294178816
 20
21.6513227456
 10
15.0655646077
 20
21.7539979689
 10
14.9894416687
 20
21.8540503341
 10
14.901217577
 20
21.951515966
 10
14.8021165867
 20
22.0450430687
 10
14.6919872828
 20
22.1345767505
 10
14.5709810803
 20
22.220171903
 10
14.4407764783
 20
22.3006414046
 10
14.3012454
 20
22.3759138867
 10
14.1525159222
 20
22.446060718
 10
13.9966507742
 20
22.5101088828
 10
13.833550509
 20
22.5679734841
 10
13.6633145737
 20
22.6197394188
 10
13.4883040384
 20
22.664688363
 10
13.3084522324
 20
22.7027253897
 10
13.1238258265
 20
22.7339454257
 10
12.9369859038
 20
22.7579149277
 10
12.7479014045
 20
22.7745328619
 10
12.5566033884
 20
22.7839002619
 10
12.3657461191
 20
22.7858866849
 10
12.1753355337
 20
22.780389193
 10
11.9853656951
 20
22.767510724
 10
11.7984730551
 20
22.7474296483
 10
11.6146706938
 20
22.7200329721
 10
11.4339455312
 20
22.6854336891
 10
11.2588947792
 20
22.6441491513
 10
11.090384175
 20
22.5963518093
 10
10.9275479815
 20
22.5418692125
 10
10.7703861986
 20
22.4807013608
  0
LINE
  5
385
100
AcDbEntity
  8
0
100
AcDbLine
 62
7
  6
CONTINUOUS
 10
14.0128714248
 20
24.7922600309
 11
14.0128714248
 21
24.3528781208
  0
LINE
  5
386
100
AcDbEntity
  8
RACCORDO
100
AcDbLine
 62
7
  6
CONTINUOUS
 10
14.1944833837
 20
21.0608297609
 11
14.1944833837
 21
20.9637136555
  0
LWPOLYLINE
  5
387
100
AcDbEntity
  8
RACCORDO
100
AcDbPolyline
 62
250
  6
CONTINUOUS
 90
5
 70
0
 10
19.720246205
 20
15.2401501242
 10
19.7076549321
 20
15.2032754305
 10
19.6926350627
 20
15.1682676466
 10
19.6752487292
 20
15.1349389968
 10
19.6694574604
 20
15.1255554955
  0
LWPOLYLINE
  5
388
100
AcDbEntity
  8
RACCORDO
100
AcDbPolyline
 62
250
  6
CONTINUOUS
 90
10
 70
0
 10
19.6523325177
 20
4.6757351461
 10
19.6563544961
 20
4.6835012733
 10
19.6611251547
 20
4.6911247999
 10
19.6666294494
 20
4.6985816854
 10
19.6728500227
 20
4.7058484148
 10
19.6797672582
 20
4.7129020729
 10
19.6873593428
 20
4.7197204161
 10
19.6956023351
 20
4.7262819432
 10
19.7044702411
 20
4.7325659625
 10
19.7139350963
 20
4.7385526578
  0
LWPOLYLINE
  5
389
100
AcDbEntity
  8
RACCORDO
100
AcDbPolyline
 62
250
  6
CONTINUOUS
 90
10
 70
0
 10
19.6523325177
 20
4.0225589247
 10
19.6563547298
 20
4.0303254876
 10
19.66112563
 20
4.0379493225
 10
19.6666301415
 20
4.0454063925
 10
19.6728508708
 20
4.0526731832
 10
19.6797681748
 20
4.0597267923
 10
19.6873602283
 20
4.0665450005
 10
19.6956030734
 20
4.0731063206
 10
19.7044706904
 20
4.0793900672
 10
19.7139350963
 20
4.0853764364
  0
LWPOLYLINE
  5
38A
100
AcDbEntity
  8
TRASH
100
AcDbPolyline
 62
7
  6
CONTINUOUS
 90
22
 70
0
 10
-3.1002357769
 20
15.8621333606
 10
-3.1345957876
 20
15.862680895
 10
-3.1698099044
 20
15.8682410652
 10
-3.2058781273
 20
15.8788138711
 10
-3.2433258701
 20
15.8947029551
 10
-3.281627719
 20
15.9156046748
 10
-3.319207433
 20
15.9406081031
 10
-3.3558066267
 20
15.9696487396
 10
-3.3916836854
 20
16.0027910846
 10
-3.4260375242
 20
16.039317712
 10
-3.4590777189
 20
16.0796507039
 10
-3.4905946936
 20
16.1233679782
 10
-3.5191586352
 20
16.1684858621
 10
-3.5444527371
 20
16.2146950931
 10
-3.5667938059
 20
16.2623049338
 10
-3.5857024487
 20
16.3102594992
 10
-3.6011987665
 20
16.3588825772
 10
-3.6132626583
 20
16.4078503799
 10
-3.6213544289
 20
16.4551356587
 10
-3.6252941797
 20
16.500062664
 10
-3.6252618092
 20
16.5433071454
 10
-3.6212573174
 20
16.5848691028
  0
LWPOLYLINE
  5
38B
100
AcDbEntity
  8
RACCORDO
100
AcDbPolyline
 62
250
  6
CONTINUOUS
 90
10
 70
0
 10
-6.8008953244
 20
20.5537664155
 10
-6.805008525
 20
20.5560722445
 10
-6.8091182453
 20
20.5582379593
 10
-6.8132210081
 20
20.5602617276
 10
-6.8173133418
 20
20.562141837
 10
-6.8213917841
 20
20.5638766969
 10
-6.8254528846
 20
20.5654648395
 10
-6.8294932072
 20
20.5669049211
 10
-6.8335093333
 20
20.5681957232
 10
-6.8374978648
 20
20.5693361536
  0
LINE
  5
38C
100
AcDbEntity
  8
RACCORDO
100
AcDbLine
 62
250
  6
CONTINUOUS
 10
0.9838316373
 20
15.6938530539
 11
0.8355842801
 21
15.77944922
  0
LINE
  5
38D
100
AcDbEntity
  8
TRASH
100
AcDbLine
 62
7
  6
CONTINUOUS
 10
-7.8071675658
 20
20.787471889
 11
-3.0506803518
 21
18.0411357845
  0
LINE
  5
38E
100
AcDbEntity
  8
RACCORDO
100
AcDbLine
 62
7
  6
CONTINUOUS
 10
-7.0958700712
 20
20.3834516936
 11
-3.6205564901
 21
18.3768491878
  0
LINE
  5
38F
100
AcDbEntity
  8
RACCORDO
100
AcDbLine
 62
250
  6
CONTINUOUS
 10
-2.7932823279
 20
18.2342684785
 11
-3.2889792029
 21
18.5204659516
  0
LINE
  5
390
100
AcDbEntity
  8
RACCORDO
100
AcDbLine
 62
250
  6
CONTINUOUS
 10
-3.3255817433
 20
18.5471639097
 11
-6.8008953244
 21
20.5537664155
  0
LINE
  5
391
100
AcDbEntity
  8
TRASH
100
AcDbLine
 62
7
  6
CONTINUOUS
 10
-5.0046598901
 20
20.3169648973
 11
-2.0215626886
 21
18.5945619601
  0
LINE
  5
392
100
AcDbEntity
  8
TRASH
100
AcDbLine
 62
7
  6
CONTINUOUS
 10
-0.7102148687
 20
17.837406164
 11
-0.6205978467
 21
17.7856624186
  0
LINE
  5
393
100
AcDbEntity
  8
TRASH
100
AcDbLine
 62
7
  6
CONTINUOUS
 10
-6.5276201644
 20
21.7335023104
 11
-6.3481627743
 21
21.6298858625
  0
LINE
  5
394
100
AcDbEntity
  8
TRASH
100
AcDbLine
 62
7
  6
CONTINUOUS
 10
-1.5398366623
 20
18.8536186279
 11
-1.3603792721
 21
18.7500021799
  0
LINE
  5
395
100
AcDbEntity
  8
TRASH
100
AcDbLine
 62
7
  6
CONTINUOUS
 10
-5.0046598901
 20
21.1562376408
 11
-0.6205978467
 21
18.6249351621
  0
LINE
  5
396
100
AcDbEntity
  8
RACCORDO
100
AcDbLine
 62
250
  6
CONTINUOUS
 10
-6.8374978648
 20
20.5693361536
 11
-7.123688589
 21
20.7345907809
  0
LINE
  5
397
100
AcDbEntity
  8
RACCORDO
100
AcDbLine
 62
7
  6
CONTINUOUS
 10
-2.6785609025
 20
18.241249582
 11
-6.9870860486
 21
20.728932068
  0
LWPOLYLINE
  5
398
100
AcDbEntity
  8
RACCORDO
100
AcDbPolyline
 62
7
  6
CONTINUOUS
 90
10
 70
0
 10
-3.6205564901
 20
18.3768491878
 10
-3.6164375867
 20
18.374401426
 10
-3.6123290659
 20
18.371822094
 10
-3.6082309278
 20
18.3691111916
 10
-3.6041396978
 20
18.3662661846
 10
-3.6000588505
 20
18.3632896073
 10
-3.5959988096
 20
18.3601890628
 10
-3.5919630498
 20
18.3569670856
 10
-3.5879480965
 20
18.3536211412
 10
-3.5839539497
 20
18.3501512297
  0
LWPOLYLINE
  5
399
100
AcDbEntity
  8
TRASH
100
AcDbPolyline
 62
7
  6
CONTINUOUS
 90
10
 70
0
 10
-1.3603792721
 20
18.7500021799
 10
-1.3140204151
 20
18.7214416531
 10
-1.2682430404
 20
18.6898273866
 10
-1.2230471482
 20
18.6551593804
 10
-1.1782464889
 20
18.6172651634
 10
-1.134027312
 20
18.5763172067
 10
-1.090948366
 20
18.5328329241
 10
-1.0491959004
 20
18.4869847868
 10
-1.0085836658
 20
18.4386003236
 10
-0.969111662
 20
18.3876795345
  0
LWPOLYLINE
  5
39A
100
AcDbEntity
  8
RACCORDO
100
AcDbPolyline
 62
250
  6
CONTINUOUS
 90
10
 70
0
 10
19.3850034598
 20
20.2892485001
 10
19.3845857936
 20
20.2837014116
 10
19.379313845
 20
20.2759585666
 10
19.3693017736
 20
20.2659813202
 10
19.3546568247
 20
20.2538765588
 10
19.3355358866
 20
20.2397739677
 10
19.3121438254
 20
20.2238246509
 10
19.2847312691
 20
20.2061994961
 10
19.2535919118
 20
20.1870873391
 10
10.0739108836
 20
14.7572191744
  0
LWPOLYLINE
  5
39B
100
AcDbEntity
  8
RACCORDO
100
AcDbPolyline
 62
250
  6
CONTINUOUS
 90
5
 70
0
 10
19.720246205
 20
3.319684083
 10
19.7076549321
 20
3.2828093893
 10
19.6926350627
 20
3.2478016054
 10
19.6752487292
 20
3.2144729556
 10
19.6694574604
 20
3.2050894543
  0
LINE
  5
39C
100
AcDbEntity
  8
RACCORDO
100
AcDbLine
 62
250
  6
CONTINUOUS
 10
12.3653433639
 20
-12.038036419
 11
12.3212566118
 21
-12.0888061662
  0
LINE
  5
39D
100
AcDbEntity
  8
RACCORDO
100
AcDbLine
 62
250
  6
CONTINUOUS
 10
12.3212566118
 20
-12.0888061662
 11
12.2735224638
 21
-12.1345326441
  0
LWPOLYLINE
  5
39E
100
AcDbEntity
  8
RACCORDO
100
AcDbPolyline
 62
7
  6
CONTINUOUS
 90
13
 70
0
 10
12.3199459319
 20
-12.100551432
 10
12.3323943658
 20
-12.089497173
 10
12.3951863044
 20
-12.0277495856
 10
12.45394777
 20
-11.9592027458
 10
12.5082149697
 20
-11.8837887651
 10
12.557324087
 20
-11.8017850259
 10
12.600595132
 20
-11.7138464979
 10
12.6377091974
 20
-11.620200645
 10
12.6683921943
 20
-11.520999845
 10
12.6923136085
 20
-11.4168140932
 10
12.7092815126
 20
-11.3079406983
 10
12.7191404
 20
-11.1944346176
 10
12.7218084294
 20
-11.0946133503
  0
LINE
  5
39F
100
AcDbEntity
  8
RACCORDO
100
AcDbLine
 62
7
  6
CONTINUOUS
 10
12.3199505944
 20
-12.1005567417
 11
12.3195172499
 21
-12.1009354121
  0
LWPOLYLINE
  5
3A0
100
AcDbEntity
  8
RACCORDO
100
AcDbPolyline
 62
250
  6
CONTINUOUS
 90
9
 70
0
 10
12.2735224638
 20
-12.1345326441
 10
12.1450837554
 20
-12.244584898
 10
12.0149845768
 20
-12.3521182788
 10
11.8832391409
 20
-12.4571210385
 10
11.7498618407
 20
-12.5595817059
 10
11.6148672476
 20
-12.6594890872
 10
11.4782701096
 20
-12.7568322676
 10
11.3400853498
 20
-12.8516006124
 10
11.2003280646
 20
-12.9437837685
  0
LWPOLYLINE
  5
3A1
100
AcDbEntity
  8
RACCORDO
100
AcDbPolyline
 62
7
  6
CONTINUOUS
 90
10
 70
0
 10
12.3195172499
 20
-12.1009354121
 10
12.1864565902
 20
-12.2149444973
 10
12.0516950985
 20
-12.326322428
 10
11.915250677
 20
-12.4350576626
 10
11.7771465661
 20
-12.5411351501
 10
11.6373961516
 20
-12.6445480726
 10
11.496002395
 20
-12.745296843
 10
11.3529783509
 20
-12.8433739289
 10
11.2083477314
 20
-12.9387648595
 10
11.0621293176
 20
-13.0314592633
  0
LWPOLYLINE
  5
3A2
100
AcDbEntity
  8
RACCORDO
100
AcDbPolyline
 62
250
  6
CONTINUOUS
 90
3
 70
0
 10
12.3195172499
 20
-12.1009354121
 10
12.3080508686
 20
-12.1104884913
 10
12.2735224638
 20
-12.1345326441
  0
LINE
  5
3A3
100
AcDbEntity
  8
RACCORDO
100
AcDbLine
 62
250
  6
CONTINUOUS
 10
11.0621293176
 20
-13.0314592633
 11
11.0590135224
 21
-13.0333716649
  0
LINE
  5
3A4
100
AcDbEntity
  8
RACCORDO
100
AcDbLine
 62
7
  6
CONTINUOUS
 10
11.0621992938
 20
-13.0314157713
 11
11.0621293176
 21
-13.0314592633
  0
LINE
  5
3A5
100
AcDbEntity
  8
RACCORDO
100
AcDbLine
 62
7
  6
CONTINUOUS
 10
11.0570039931
 20
-13.0345869363
 11
11.0621911557
 21
-13.0314026985
  0
LINE
  5
3A6
100
AcDbEntity
  8
RACCORDO
100
AcDbLine
 62
7
  6
CONTINUOUS
 10
6.3117857992
 20
-15.9117025965
 11
11.0590135224
 21
-13.0333716649
  0
LINE
  5
3A7
100
AcDbEntity
  8
TRASH
100
AcDbLine
 62
7
  6
CONTINUOUS
 10
1.1118137672
 20
-19.0645158923
 11
6.1875006497
 21
-15.9873787568
  0
LINE
  5
3A8
100
AcDbEntity
  8
RACCORDO
100
AcDbLine
 62
7
  6
CONTINUOUS
 10
6.3117857992
 20
-15.9117025965
 11
6.187210006
 21
-15.987554958
  0
LINE
  5
3A9
100
AcDbEntity
  8
RACCORDO
100
AcDbLine
 62
250
  6
CONTINUOUS
 10
12.5814854964
 20
-11.2951432203
 11
1.1118137672
 21
-18.2348757627
  0
LINE
  5
3AA
100
AcDbEntity
  8
RACCORDO
100
AcDbLine
 62
250
  6
CONTINUOUS
 10
12.2735224638
 20
-12.1345326441
 11
1.1118137672
 21
-18.8870306569
  0
LINE
  5
3AB
100
AcDbEntity
  8
RACCORDO
100
AcDbLine
 62
250
  6
CONTINUOUS
 10
-0.9450205777
 20
-20.8350452576
 11
-1.7519686966
 21
-21.2689958421
  0
LINE
  5
3AC
100
AcDbEntity
  8
RACCORDO
100
AcDbLine
 62
7
  6
CONTINUOUS
 10
-1.2166470539
 20
-21.1543793013
 11
-1.7519686966
 21
-21.442257957
  0
LWPOLYLINE
  5
3AD
100
AcDbEntity
  8
0
100
AcDbPolyline
 62
7
  6
CONTINUOUS
 90
28
 70
0
 10
12.5614714575
 20
19.6530202533
 10
12.3775647174
 20
19.6258881226
 10
12.1908544917
 20
19.6061455769
 10
12.00223032
 20
19.5938866753
 10
11.8125908605
 20
19.5891698225
 10
11.6228396088
 20
19.592017491
 10
11.4338805925
 20
19.6024161137
 10
11.2466140655
 20
19.6203161486
 10
11.0619322175
 20
19.6456323149
 10
10.8807149246
 20
19.6782439995
 10
10.7038255566
 20
19.7179958311
 10
10.5321068637
 20
19.7646984209
 10
10.3663769618
 20
19.8181292647
 10
10.2074254345
 20
19.878033803
 10
10.0560095712
 20
19.9441266339
 10
9.9128507594
 20
20.0160928727
 10
9.7786310476
 20
20.0935896521
 10
9.653989896
 20
20.1762477558
 10
9.53952113
 20
20.2636733776
 10
9.4357701105
 20
20.3554499974
 10
9.3432311366
 20
20.4511403656
 10
9.2623450896
 20
20.5502885867
 10
9.1934973334
 20
20.6524222909
 10
9.1370158778
 20
20.7570548846
 10
9.0931698163
 20
20.863687869
 10
9.0621680438
 20
20.9718132148
 10
9.0441582613
 20
21.0809157825
 10
9.0391261631
 20
21.1769275549
  0
LWPOLYLINE
  5
3AE
100
AcDbEntity
  8
RACCORDO
100
AcDbPolyline
 62
7
  6
CONTINUOUS
 90
10
 70
0
 10
-7.1324726116
 20
20.3990214317
 10
-7.1284784648
 20
20.3978790026
 10
-7.1244635115
 20
20.3965885796
 10
-7.1204277517
 20
20.3951501626
 10
-7.1163677109
 20
20.3935622736
 10
-7.1122868635
 20
20.3918263907
 10
-7.1081956335
 20
20.3899469478
 10
-7.1040974954
 20
20.387925423
 10
-7.0999889747
 20
20.3857603383
 10
-7.0958700712
 20
20.3834516936
  0
LWPOLYLINE
  5
3AF
100
AcDbEntity
  8
RACCORDO
100
AcDbPolyline
 62
250
  6
CONTINUOUS
 90
3
 70
0
 10
-7.0147319704
 20
20.7410785543
 10
-7.0005469172
 20
20.7357483333
 10
-6.9870860486
 20
20.728932068
  0
LWPOLYLINE
  5
3B0
100
AcDbEntity
  8
RACCORDO
100
AcDbPolyline
 62
250
  6
CONTINUOUS
 90
10
 70
0
 10
3.8728881434
 20
17.2553678686
 10
3.8595557919
 20
17.2618035
 10
3.8452285643
 20
17.2663010016
 10
3.8300107566
 20
17.2688276342
 10
3.8140119416
 20
17.2693649722
 10
3.7973496918
 20
17.2679088446
 10
3.7801491773
 20
17.2644708328
 10
3.762537203
 20
17.2590777327
 10
3.7446408457
 20
17.2517698737
 10
3.7265903579
 20
17.2426016373
  0
LINE
  5
3B1
100
AcDbEntity
  8
RACCORDO
100
AcDbLine
 62
250
  6
CONTINUOUS
 10
-5.75172611
 20
22.811237772
 11
-5.7383968306
 21
22.8048033549
  0
LWPOLYLINE
  5
3B2
100
AcDbEntity
  8
RACCORDO
100
AcDbPolyline
 62
250
  6
CONTINUOUS
 90
10
 70
0
 10
-5.7383968306
 20
22.8048033549
 10
-5.7676642569
 20
22.819618693
 10
-5.7986166881
 20
22.8312157012
 10
-5.8307743004
 20
22.8393560924
 10
-5.8635188557
 20
22.8438738566
 10
-5.8964509379
 20
22.8447478443
 10
-5.9293999093
 20
22.8419903951
 10
-5.9619631729
 20
22.835601814
 10
-5.993518344
 20
22.8256808758
 10
-6.0235793773
 20
22.812420618
  0
LINE
  5
3B3
100
AcDbEntity
  8
RACCORDO
100
AcDbLine
 62
7
  6
CONTINUOUS
 10
-5.7871604098
 20
22.8330469919
 11
-5.8149411811
 21
22.8472147294
  0
LINE
  5
3B4
100
AcDbEntity
  8
RACCORDO
100
AcDbLine
 62
7
  6
CONTINUOUS
 10
-5.7813818503
 20
22.8297420928
 11
-5.7871517156
 21
22.8330431397
  0
LINE
  5
3B5
100
AcDbEntity
  8
TRASH
100
AcDbLine
 62
7
  6
CONTINUOUS
 10
-4.5432544104
 20
21.33851799
 11
-0.3048993606
 21
18.8913449033
  0
LINE
  5
3B6
100
AcDbEntity
  8
RACCORDO
100
AcDbLine
 62
250
  6
CONTINUOUS
 10
3.726590362
 20
17.2426016349
 11
0.7879332539
 21
18.9393454191
  0
LINE
  5
3B7
100
AcDbEntity
  8
RACCORDO
100
AcDbLine
 62
250
  6
CONTINUOUS
 10
-3.4455203269
 20
21.383688459
 11
-5.884694632
 21
22.7920371327
  0
LINE
  5
3B8
100
AcDbEntity
  8
TRASH
100
AcDbLine
 62
7
  6
CONTINUOUS
 10
-3.2883941549
 20
21.3901540165
 11
0.5536892352
 21
19.1717832197
  0
LINE
  5
3B9
100
AcDbEntity
  8
RACCORDO
100
AcDbLine
 62
7
  6
CONTINUOUS
 10
0.9068002047
 20
18.9679498706
 11
6.0615940487
 21
15.9917562361
  0
LINE
  5
3BA
100
AcDbEntity
  8
RACCORDO
100
AcDbLine
 62
7
  6
CONTINUOUS
 10
0.5536892352
 20
19.1717832197
 11
0.9068002047
 21
18.9679498706
  0
LINE
  5
3BB
100
AcDbEntity
  8
RACCORDO
100
AcDbLine
 62
7
  6
CONTINUOUS
 10
-5.7871596069
 20
22.8330465283
 11
-3.2883731535
 21
21.3901903897
  0
LWPOLYLINE
  5
3BC
100
AcDbEntity
  8
RACCORDO
100
AcDbPolyline
 62
250
  6
CONTINUOUS
 90
3
 70
0
 10
3.8654743301
 20
17.1026040236
 10
6.1295947155
 20
15.7817980306
 10
6.3117857955
 20
15.6753971219
  0
LWPOLYLINE
  5
3BD
100
AcDbEntity
  8
RACCORDO
100
AcDbPolyline
 62
250
  6
CONTINUOUS
 90
10
 70
0
 10
3.7265903579
 20
17.2426016373
 10
3.7434949079
 20
17.2321819366
 10
3.7602698983
 20
17.2202745392
 10
3.7768098607
 20
17.2069543099
 10
3.7930108045
 20
17.1923049959
 10
3.8087708705
 20
17.176418701
 10
3.8239909714
 20
17.1593953062
 10
3.8385754148
 20
17.1413418415
 10
3.852432505
 20
17.1223718134
 10
3.865475119
 20
17.1026044908
  0
LWPOLYLINE
  5
3BE
100
AcDbEntity
  8
RACCORDO
100
AcDbPolyline
 62
7
  6
CONTINUOUS
 90
13
 70
0
 10
6.0615940474
 20
15.9917562368
 10
6.0869335479
 20
15.975867875
 10
6.111701077
 20
15.9577744616
 10
6.1358319406
 20
15.937498257
 10
6.1593311154
 20
15.9150281141
 10
6.1820826291
 20
15.8904626396
 10
6.203866514
 20
15.8640317413
 10
6.2246859295
 20
15.8358239928
 10
6.2445119633
 20
15.8059702771
 10
6.2631225299
 20
15.774820122
 10
6.2804733512
 20
15.7426027787
 10
6.2966788885
 20
15.7094066636
 10
6.3117857993
 20
15.6753971239
  0
LINE
  5
3BF
100
AcDbEntity
  8
0
100
AcDbLine
 62
7
  6
CONTINUOUS
 10
11.3314962157
 20
19.6122026139
 11
11.2263822578
 21
19.9163271298
  0
LINE
  5
3C0
100
AcDbEntity
  8
0
100
AcDbLine
 62
7
  6
CONTINUOUS
 10
11.0270219815
 20
20.493132996
 11
10.7708923982
 21
21.2341885808
  0
LWPOLYLINE
  5
3C1
100
AcDbEntity
  8
RACCORDO
100
AcDbPolyline
 62
250
  6
CONTINUOUS
 90
14
 70
0
 10
19.7139202137
 20
4.0855499943
 10
19.7155963002
 20
4.0095822625
 10
19.718592589
 20
3.9354408429
 10
19.7227443548
 20
3.8633352184
 10
19.7286410044
 20
3.7931550634
 10
19.7353068128
 20
3.7255184075
 10
19.7404964877
 20
3.6615387602
 10
19.7442315666
 20
3.6013249879
 10
19.7467147649
 20
3.5448235853
 10
19.7464430402
 20
3.4924932174
 10
19.7434372859
 20
3.444604293
 10
19.7383143322
 20
3.4004549332
 10
19.7305744718
 20
3.3589169556
 10
19.720246205
 20
3.319684083
  0
LWPOLYLINE
  5
3C2
100
AcDbEntity
  8
RACCORDO
100
AcDbPolyline
 62
250
  6
CONTINUOUS
 90
14
 70
0
 10
19.7139202137
 20
16.0060160355
 10
19.7155963002
 20
15.9300483036
 10
19.718592589
 20
15.8559068841
 10
19.7227443548
 20
15.7838012596
 10
19.7286410044
 20
15.7136211046
 10
19.7353068128
 20
15.6459844486
 10
19.7404964877
 20
15.5820048014
 10
19.7442315666
 20
15.5217910291
 10
19.7467147649
 20
15.4652896264
 10
19.7464430402
 20
15.4129592586
 10
19.7434372859
 20
15.3650703342
 10
19.7383143322
 20
15.3209209744
 10
19.7305744718
 20
15.2793829968
 10
19.720246205
 20
15.2401501242
  0
LWPOLYLINE
  5
3C3
100
AcDbEntity
  8
RACCORDO
100
AcDbPolyline
 62
7
  6
CONTINUOUS
 90
10
 70
0
 10
19.6694524801
 20
19.1677657302
 10
19.6680828044
 20
19.24080554
 10
19.6580509854
 20
19.3814374327
 10
19.638655474
 20
19.5230504464
 10
19.6103339
 20
19.6650707348
 10
19.5734936012
 20
19.8069257077
 10
19.5285797898
 20
19.9478412989
 10
19.47603851
 20
20.0871146721
 10
19.416235652
 20
20.2242232304
 10
19.3849919365
 20
20.28925865
  0
LWPOLYLINE
  5
3C4
100
AcDbEntity
  8
RACCORDO
100
AcDbPolyline
 62
250
  6
CONTINUOUS
 90
9
 70
0
 10
19.6523325177
 20
4.0225589247
 10
19.653031497
 20
3.9388571274
 10
19.6548372089
 20
3.8559884784
 10
19.6575542892
 20
3.7739802689
 10
19.6609924175
 20
3.6921281486
 10
19.6645140282
 20
3.6112219182
 10
19.6673306084
 20
3.5335051304
 10
19.6690799885
 20
3.4592857948
 10
19.6694571438
 20
3.4125281871
  0
LWPOLYLINE
  5
3C5
100
AcDbEntity
  8
RACCORDO
100
AcDbPolyline
 62
250
  6
CONTINUOUS
 90
9
 70
0
 10
19.6523325177
 20
15.9430249658
 10
19.653031497
 20
15.8593231686
 10
19.6548372089
 20
15.7764545196
 10
19.6575542892
 20
15.69444631
 10
19.6609924175
 20
15.6125941898
 10
19.6645140282
 20
15.5316879594
 10
19.6673306084
 20
15.4539711716
 10
19.6690799885
 20
15.3797518359
 10
19.6694571438
 20
15.3329942283
  0
LINE
  5
3C6
100
AcDbEntity
  8
RACCORDO
100
AcDbLine
 62
250
  6
CONTINUOUS
 10
19.5291273605
 20
-0.9480929554
 11
19.5291273605
 21
18.9674161387
  0
LINE
  5
3C7
100
AcDbEntity
  8
RACCORDO
100
AcDbLine
 62
250
  6
CONTINUOUS
 10
19.6523325177
 20
16.5962011873
 11
19.6523325177
 21
15.9430249658
  0
LINE
  5
3C8
100
AcDbEntity
  8
RACCORDO
100
AcDbLine
 62
250
  6
CONTINUOUS
 10
19.6523325177
 20
4.6757351461
 11
19.6523325177
 21
4.0225589247
  0
LINE
  5
3C9
100
AcDbEntity
  8
RACCORDO
100
AcDbLine
 62
7
  6
CONTINUOUS
 10
19.6694571438
 20
15.3329942283
 11
19.6694574604
 21
5.4366287324
  0
LINE
  5
3CA
100
AcDbEntity
  8
RACCORDO
100
AcDbLine
 62
7
  6
CONTINUOUS
 10
19.6694571438
 20
3.4125281871
 11
19.6694574604
 21
-0.7475494369
  0
LINE
  5
3CB
100
AcDbEntity
  8
RACCORDO
100
AcDbLine
 62
250
  6
CONTINUOUS
 10
19.7139350963
 20
16.6589192147
 11
19.7139350963
 21
16.0060249243
  0
LINE
  5
3CC
100
AcDbEntity
  8
RACCORDO
100
AcDbLine
 62
250
  6
CONTINUOUS
 10
19.7139350963
 20
4.7384531735
 11
19.7139350963
 21
4.0855588832
  0
LINE
  5
3CD
100
AcDbEntity
  8
RACCORDO
100
AcDbLine
 62
7
  6
CONTINUOUS
 10
19.6694574604
 20
19.1679596569
 11
19.6694567459
 21
17.3543939187
  0
LINE
  5
3CE
100
AcDbEntity
  8
RACCORDO
100
AcDbLine
 62
7
  6
CONTINUOUS
 10
19.6694574516
 20
5.4365956495
 11
19.6694567459
 21
5.4339278776
  0
LWPOLYLINE
  5
3CF
100
AcDbEntity
  8
RACCORDO
100
AcDbPolyline
 62
250
  6
CONTINUOUS
 90
4
 70
0
 10
19.6694567459
 20
17.3543939187
 10
19.6689735216
 20
17.2772709245
 10
19.6671524978
 20
17.1741659139
 10
19.6643239715
 20
17.0702603763
  0
LWPOLYLINE
  5
3D0
100
AcDbEntity
  8
RACCORDO
100
AcDbPolyline
 62
250
  6
CONTINUOUS
 90
4
 70
0
 10
19.6694567459
 20
5.4339278776
 10
19.6689735216
 20
5.3568048834
 10
19.6671524978
 20
5.2536998727
 10
19.6643239715
 20
5.1497943352
  0
LWPOLYLINE
  5
3D1
100
AcDbEntity
  8
RACCORDO
100
AcDbPolyline
 62
250
  6
CONTINUOUS
 90
9
 70
0
 10
19.5291273605
 20
-0.9480929554
 10
19.527791219
 20
-0.9892735203
 10
19.5225306188
 20
-1.0278067317
 10
19.5134031738
 20
-1.063270575
 10
19.5005088476
 20
-1.0952766516
 10
19.4839888583
 20
-1.123474432
 10
19.4640241323
 20
-1.1475550952
 10
19.4408333225
 20
-1.1672549106
 10
19.4324402498
 20
-1.1728023646
  0
LWPOLYLINE
  5
3D2
100
AcDbEntity
  8
RACCORDO
100
AcDbPolyline
 62
250
  6
CONTINUOUS
 90
5
 70
0
 10
19.6643239715
 20
17.0702603763
 10
19.6574532288
 20
16.8661683385
 10
19.6547884824
 20
16.7720009971
 10
19.6530193359
 20
16.6820206609
 10
19.6523325177
 20
16.5962011873
  0
LWPOLYLINE
  5
3D3
100
AcDbEntity
  8
RACCORDO
100
AcDbPolyline
 62
250
  6
CONTINUOUS
 90
5
 70
0
 10
19.6643239715
 20
5.1497943352
 10
19.6574532288
 20
4.9457022974
 10
19.6547884824
 20
4.8515349559
 10
19.6530193359
 20
4.7615546197
 10
19.6523325177
 20
4.6757351461
  0
LWPOLYLINE
  5
3D4
100
AcDbEntity
  8
RACCORDO
100
AcDbPolyline
 62
250
  6
CONTINUOUS
 90
9
 70
0
 10
19.6694573476
 20
19.1677657268
 10
19.668994175
 20
19.1555348106
 10
19.6640936269
 20
19.1257864019
 10
19.653893395
 20
19.0964898504
 10
19.6385027678
 20
19.0679590484
 10
19.6180866452
 20
19.0404996836
 10
19.5928637718
 20
19.0144059643
 10
19.5631043932
 20
18.9899574664
 10
19.5291273605
 20
18.9674161387
  0
LINE
  5
3D5
100
AcDbEntity
  8
RACCORDO
100
AcDbLine
 62
250
  6
CONTINUOUS
 10
19.6694574604
 20
-0.7475494369
 11
19.6689407591
 21
-0.7606706769
  0
LWPOLYLINE
  5
3D6
100
AcDbEntity
  8
RACCORDO
100
AcDbPolyline
 62
250
  6
CONTINUOUS
 90
8
 70
0
 10
19.6689407591
 20
-0.7606706769
 10
19.6639011302
 20
-0.7904686222
 10
19.6535250844
 20
-0.819846407
 10
19.6379285474
 20
-0.8484434
 10
19.6173739047
 20
-0.8758423581
 10
19.5921788063
 20
-0.9017309884
 10
19.562642256
 20
-0.9258918144
 10
19.5291273605
 20
-0.9480929558
  0
LWPOLYLINE
  5
3D7
100
AcDbEntity
  8
RACCORDO
100
AcDbPolyline
 62
250
  6
CONTINUOUS
 90
16
 70
0
 10
0.0356984239
 20
-22.4555859099
 10
0.0171258508
 20
-22.4674391414
 10
-0.0012362995
 20
-22.4814164985
 10
-0.0191851345
 20
-22.4973617162
 10
-0.0365121914
 20
-22.5150855969
 10
-0.053037935
 20
-22.5344003501
 10
-0.0686083919
 20
-22.5551309672
 10
-0.0830768325
 20
-22.577103751
 10
-0.0962403517
 20
-22.6000340068
 10
-0.10789281
 20
-22.6235545624
 10
-0.1179107733
 20
-22.6473758932
 10
-0.126211674
 20
-22.6712550685
 10
-0.1327104986
 20
-22.6948842679
 10
-0.13736255
 20
-22.7179963502
 10
-0.1401518441
 20
-22.7403673952
 10
-0.1410782714
 20
-22.7617721274
  0
LWPOLYLINE
  5
3D8
100
AcDbEntity
  8
RACCORDO
100
AcDbPolyline
 62
7
  6
CONTINUOUS
 90
4
 70
0
 10
-1.2532119896
 20
-22.0708552104
 10
-1.2682854074
 20
-22.0796833825
 10
-1.2823525772
 20
-22.0878321469
 10
-1.2954618656
 20
-22.095245508
  0
LINE
  5
3D9
100
AcDbEntity
  8
RACCORDO
100
AcDbLine
 62
7
  6
CONTINUOUS
 10
-1.182564
 20
-22.0300452738
 11
-1.2532119896
 21
-22.0708552104
  0
LINE
  5
3DA
100
AcDbEntity
  8
RACCORDO
100
AcDbLine
 62
7
  6
CONTINUOUS
 10
-1.1627060223
 20
-22.0186739165
 11
-1.182564
 21
-22.0300452738
  0
LWPOLYLINE
  5
3DB
100
AcDbEntity
  8
RACCORDO
100
AcDbPolyline
 62
7
  6
CONTINUOUS
 90
3
 70
0
 10
-1.0992753469
 20
-21.9820868958
 10
-1.1210602995
 20
-21.9945386996
 10
-1.1627060223
 20
-22.0186739165
  0
LINE
  5
3DC
100
AcDbEntity
  8
RACCORDO
100
AcDbLine
 62
7
  6
CONTINUOUS
 10
-0.9418815469
 20
-21.8911434867
 11
-0.5461843902
 21
-21.6705120131
  0
LINE
  5
3DD
100
AcDbEntity
  8
RACCORDO
100
AcDbLine
 62
250
  6
CONTINUOUS
 10
0.0356984239
 20
-22.4555859099
 11
0.4313955807
 21
-22.2349544363
  0
LINE
  5
3DE
100
AcDbEntity
  8
RACCORDO
100
AcDbLine
 62
250
  6
CONTINUOUS
 10
0.2093630165
 20
-22.7635379254
 11
0.7849225173
 21
-22.4426194184
  0
LWPOLYLINE
  5
3DF
100
AcDbEntity
  8
RACCORDO
100
AcDbPolyline
 62
7
  6
CONTINUOUS
 90
7
 70
0
 10
-0.9418815469
 20
-21.8911434867
 10
-0.9639939162
 20
-21.9032772076
 10
-0.9864668116
 20
-21.9163684001
 10
-1.0091140076
 20
-21.9299304956
 10
-1.0318880573
 20
-21.9432767903
 10
-1.0546557888
 20
-21.9562269097
 10
-1.0992753469
 20
-21.9820868958
  0
LWPOLYLINE
  5
3E0
100
AcDbEntity
  8
RACCORDO
100
AcDbPolyline
 62
250
  6
CONTINUOUS
 90
16
 70
0
 10
-5.0514360709
 20
-25.2583520555
 10
-5.0904451633
 20
-25.2796878782
 10
-5.1327576406
 20
-25.2985700379
 10
-5.1779201535
 20
-25.3147962253
 10
-5.2254488164
 20
-25.3281925878
 10
-5.274834392
 20
-25.3386155925
 10
-5.3255477476
 20
-25.3459535639
 10
-5.3770455241
 20
-25.3501278807
 10
-5.4287759579
 20
-25.3510938179
 10
-5.4801847927
 20
-25.3488410262
 10
-5.5307212178
 20
-25.3433936426
 10
-5.5798437699
 20
-25.3348100323
 10
-5.6270261342
 20
-25.3231821627
 10
-5.6717627839
 20
-25.3086346186
 10
-5.7135743963
 20
-25.2913232671
 10
-5.7520129885
 20
-25.2714335874
  0
LINE
  5
3E1
100
AcDbEntity
  8
DRAFT
100
AcDbLine
 62
7
  6
CONTINUOUS
 10
-1.7519686966
 20
-23.5543125619
 11
-2.3275281974
 21
-23.8409995537
  0
LINE
  5
3E2
100
AcDbEntity
  8
0
100
AcDbLine
 62
250
  6
CONTINUOUS
 10
13.6994366819
 20
20.0347486454
 11
14.1937192841
 21
20.074631999
  0
LWPOLYLINE
  5
3E3
100
AcDbEntity
  8
RACCORDO
100
AcDbPolyline
 62
7
  6
CONTINUOUS
 90
28
 70
0
 10
12.1478577063
 20
19.4748924684
 10
12.1890311344
 20
19.4774429349
 10
12.2312311177
 20
19.4804775096
 10
12.2743969215
 20
19.4840162497
 10
12.3184342681
 20
19.4880899734
 10
12.3633018414
 20
19.4927066044
 10
12.4090249745
 20
19.4978531301
 10
12.4555803881
 20
19.5035521072
 10
12.5028616564
 20
19.5098217683
 10
12.5507898974
 20
19.5166435015
 10
12.5992197653
 20
19.5240208826
 10
12.6481775955
 20
19.5319856205
 10
12.6978554885
 20
19.5405660204
 10
12.7481027305
 20
19.5497676769
 10
12.7989438424
 20
19.5596285907
 10
12.8508267467
 20
19.5702433264
 10
12.9036390764
 20
19.5816402709
 10
12.9573309654
 20
19.5938579097
 10
13.0124198945
 20
19.6070340304
 10
13.0687854925
 20
19.6212183147
 10
13.1263330218
 20
19.6364586242
 10
13.1855887997
 20
19.6529247843
 10
13.246412002
 20
19.6706902626
 10
13.3086661963
 20
19.689817044
 10
13.3728601014
 20
19.7104989589
 10
13.4390506718
 20
19.7328715242
 10
13.5068451135
 20
19.756986897
 10
13.5760594678
 20
19.7829368769
  0
LWPOLYLINE
  5
3E4
100
AcDbEntity
  8
RACCORDO
100
AcDbPolyline
 62
7
  6
CONTINUOUS
 90
3
 70
0
 10
-14.4439271338
 20
19.7853697142
 10
-14.4439041593
 20
19.7853691254
 10
-14.4400781223
 20
19.7876677297
  0
LWPOLYLINE
  5
3E5
100
AcDbEntity
  8
RACCORDO
100
AcDbPolyline
 62
7
  6
CONTINUOUS
 90
4
 70
0
 10
-8.7956934843
 20
21.2804171171
 10
-8.7976247743
 20
21.2807447088
 10
-8.7999737352
 20
21.2815430578
 10
-8.8014734096
 20
21.282788873
  0
LWPOLYLINE
  5
3E6
100
AcDbEntity
  8
RACCORDO
100
AcDbPolyline
 62
250
  6
CONTINUOUS
 90
6
 70
0
 10
-7.123688589
 20
20.7345907809
 10
-7.1377779039
 20
20.7378319568
 10
-7.1512646216
 20
20.7389079748
 10
-7.1639883708
 20
20.7378059873
 10
-7.1757978694
 20
20.734539033
 10
-7.1833165963
 20
20.7310543433
  0
LWPOLYLINE
  5
3E7
100
AcDbEntity
  8
RACCORDO
100
AcDbPolyline
 62
7
  6
CONTINUOUS
 90
10
 70
0
 10
-5.8149411811
 20
22.8472147294
 10
-5.8442118749
 20
22.8584771849
 10
-5.8746726323
 20
22.8666593709
 10
-5.9059923719
 20
22.8716158879
 10
-5.9378384756
 20
22.8732385643
 10
-5.9698807701
 20
22.8714495982
 10
-6.001760888
 20
22.8662013602
 10
-6.0330860743
 20
22.8574896216
 10
-6.0634616719
 20
22.8453568456
 10
-6.0815800216
 20
22.8361897457
  0
LWPOLYLINE
  5
3E8
100
AcDbEntity
  8
RACCORDO
100
AcDbPolyline
 62
7
  6
CONTINUOUS
 90
19
 70
0
 10
19.6694574604
 20
8.5696046904
 10
19.7889842932
 20
8.4585602078
 10
19.9197886403
 20
8.324656529
 10
20.0458818272
 20
8.1829589185
 10
20.1667159061
 20
8.0342307643
 10
20.2818233808
 20
7.8791794261
 10
20.3908020837
 20
7.7184425168
 10
20.4931748866
 20
7.5527879717
 10
20.5884925107
 20
7.3829895292
 10
20.6763907843
 20
7.2097037798
 10
20.7564555939
 20
7.0337083597
 10
20.8282859546
 20
6.8558143531
 10
20.8915514272
 20
6.6767109018
 10
20.9459131659
 20
6.497133127
 10
20.9910147525
 20
6.317947801
 10
21.0265444759
 20
6.1399844295
 10
21.0522280151
 20
5.964015085
 10
21.0678098993
 20
5.7908088412
 10
21.073052749
 20
5.62115603
  0
LWPOLYLINE
  5
3E9
100
AcDbEntity
  8
RACCORDO
100
AcDbPolyline
 62
250
  6
CONTINUOUS
 90
38
 70
0
 10
19.6694574604
 20
8.4204087746
 10
19.6849069397
 20
8.4054112864
 10
19.7615411127
 20
8.3267998412
 10
19.8349738878
 20
8.2474126151
 10
19.9050853218
 20
8.1677074052
 10
19.9716486813
 20
8.0882953818
 10
20.0349272388
 20
8.0092122555
 10
20.0955280616
 20
7.9299764046
 10
20.1534319041
 20
7.8508415152
 10
20.2086874129
 20
7.7719700517
 10
20.2619314586
 20
7.69262202
 10
20.3132027296
 20
7.6128459715
 10
20.3624337683
 20
7.5328549292
 10
20.4100228255
 20
7.4520729849
 10
20.4560065855
 20
7.3704555936
 10
20.5002621952
 20
7.2882391044
 10
20.542896813
 20
7.2052336377
 10
20.5839178826
 20
7.1214050499
 10
20.623210242
 20
7.0369681768
 10
20.6606881246
 20
6.9521020342
 10
20.696340479
 20
6.8668270077
 10
20.7300942867
 20
6.7813128649
 10
20.761800231
 20
6.6959668264
 10
20.7914435946
 20
6.6108885039
 10
20.8190150392
 20
6.5261683868
 10
20.8444193884
 20
6.4421981957
 10
20.8676807123
 20
6.3590353414
 10
20.8888088589
 20
6.2767920781
 10
20.9077403678
 20
6.195930405
 10
20.9244442598
 20
6.1169336861
 10
20.9390783569
 20
6.0394409312
 10
20.9518314403
 20
5.96265173
 10
20.9626429858
 20
5.8870707985
 10
20.9715897755
 20
5.8123250764
 10
20.978847653
 20
5.7363786499
 10
20.9842941345
 20
5.6586838102
 10
20.9876861396
 20
5.5801096146
 10
20.9888546891
 20
5.5008299189
  0
LINE
  5
3EA
100
AcDbEntity
  8
RACCORDO
100
AcDbLine
 62
250
  6
CONTINUOUS
 10
20.9888546891
 20
17.4212959601
 11
20.9888546891
 21
16.7681197386
  0
LINE
  5
3EB
100
AcDbEntity
  8
RACCORDO
100
AcDbLine
 62
250
  6
CONTINUOUS
 10
20.9888546891
 20
5.5008299189
 11
20.9888546891
 21
4.8476536975
  0
LINE
  5
3EC
100
AcDbEntity
  8
RACCORDO
100
AcDbLine
 62
7
  6
CONTINUOUS
 10
21.073052749
 20
17.5416220712
 11
21.073052749
 21
16.8884458497
  0
LINE
  5
3ED
100
AcDbEntity
  8
RACCORDO
100
AcDbLine
 62
7
  6
CONTINUOUS
 10
21.073052749
 20
5.62115603
 11
21.073052749
 21
4.9679798086
  0
LWPOLYLINE
  5
3EE
100
AcDbEntity
  8
RACCORDO
100
AcDbPolyline
 62
250
  6
CONTINUOUS
 90
25
 70
0
 10
20.9888546891
 20
16.7681197386
 10
20.9879097079
 20
16.6979765939
 10
20.9850898784
 20
16.6292490642
 10
20.9804191111
 20
16.5619887431
 10
20.9739692207
 20
16.4966515923
 10
20.9657436536
 20
16.4328604489
 10
20.9555638197
 20
16.3694888126
 10
20.9432657459
 20
16.3062279891
 10
20.9288435037
 20
16.2436601759
 10
20.9122699306
 20
16.182065858
 10
20.893478672
 20
16.1215302694
 10
20.8724302292
 20
16.0622260392
 10
20.8491825533
 20
16.0045317025
 10
20.8237007938
 20
15.9485192367
 10
20.7959848301
 20
15.8943351266
 10
20.7662141372
 20
15.8424026667
 10
20.7344578244
 20
15.7928450967
 10
20.7007123789
 20
15.7456594513
 10
20.6651048696
 20
15.7010155254
 10
20.6277557315
 20
15.6590250261
 10
20.5886537901
 20
15.6196381551
 10
20.5477302371
 20
15.5827812867
 10
20.5051170317
 20
15.5485742254
 10
20.4607714915
 20
15.5169836291
 10
20.4251607624
 20
15.4942808502
  0
LWPOLYLINE
  5
3EF
100
AcDbEntity
  8
RACCORDO
100
AcDbPolyline
 62
250
  6
CONTINUOUS
 90
25
 70
0
 10
20.9888546891
 20
4.8476536975
 10
20.9879097079
 20
4.7775105527
 10
20.9850898784
 20
4.7087830231
 10
20.9804191111
 20
4.641522702
 10
20.9739692207
 20
4.5761855512
 10
20.9657436536
 20
4.5123944077
 10
20.9555638197
 20
4.4490227714
 10
20.9432657459
 20
4.3857619479
 10
20.9288435037
 20
4.3231941347
 10
20.9122699306
 20
4.2615998168
 10
20.893478672
 20
4.2010642283
 10
20.8724302292
 20
4.141759998
 10
20.8491825533
 20
4.0840656613
 10
20.8237007938
 20
4.0280531955
 10
20.7959848301
 20
3.9738690855
 10
20.7662141372
 20
3.9219366255
 10
20.7344578244
 20
3.8723790555
 10
20.7007123789
 20
3.8251934101
 10
20.6651048696
 20
3.7805494842
 10
20.6277557315
 20
3.7385589849
 10
20.5886537901
 20
3.6991721139
 10
20.5477302371
 20
3.6623152455
 10
20.5051170317
 20
3.6281081843
 10
20.4607714915
 20
3.5965175879
 10
20.4251607624
 20
3.573814809
  0
LWPOLYLINE
  5
3F0
100
AcDbEntity
  8
RACCORDO
100
AcDbPolyline
 62
7
  6
CONTINUOUS
 90
13
 70
0
 10
21.073052749
 20
16.8884458497
 10
21.0680685789
 20
16.7281971711
 10
21.0531964407
 20
16.5741915297
 10
21.0285604146
 20
16.4268881891
 10
20.9941750749
 20
16.2863261949
 10
20.9502455246
 20
16.1534063848
 10
20.897469664
 20
16.0296897399
 10
20.8365184304
 20
15.9157807983
 10
20.7677121128
 20
15.8114782824
 10
20.6915580863
 20
15.7169784621
 10
20.6086464425
 20
15.6325044245
 10
20.5196202159
 20
15.5582334896
 10
20.4251607624
 20
15.4942808502
  0
LWPOLYLINE
  5
3F1
100
AcDbEntity
  8
RACCORDO
100
AcDbPolyline
 62
7
  6
CONTINUOUS
 90
13
 70
0
 10
21.073052749
 20
4.9679798086
 10
21.0680685789
 20
4.8077311299
 10
21.0531964407
 20
4.6537254885
 10
21.0285604146
 20
4.5064221479
 10
20.9941750749
 20
4.3658601537
 10
20.9502455246
 20
4.2329403437
 10
20.897469664
 20
4.1092236987
 10
20.8365184304
 20
3.9953147571
 10
20.7677121128
 20
3.8910122412
 10
20.6915580863
 20
3.796512421
 10
20.6086464425
 20
3.7120383833
 10
20.5196202159
 20
3.6377674484
 10
20.4251607624
 20
3.573814809
  0
LWPOLYLINE
  5
3F2
100
AcDbEntity
  8
RACCORDO
100
AcDbPolyline
 62
250
  6
CONTINUOUS
 90
9
 70
0
 10
21.073052749
 20
17.5416220712
 10
21.0727747777
 20
17.5341671634
 10
21.0698344488
 20
17.5163181182
 10
21.0637143097
 20
17.4987401874
 10
21.0544799334
 20
17.4816217062
 10
21.0422302599
 20
17.4651460874
 10
21.0270965358
 20
17.4494898557
 10
21.0092409087
 20
17.4348207568
 10
20.9888546891
 20
17.4212959601
  0
LWPOLYLINE
  5
3F3
100
AcDbEntity
  8
RACCORDO
100
AcDbPolyline
 62
250
  6
CONTINUOUS
 90
9
 70
0
 10
21.073052749
 20
16.8884458497
 10
21.0727747777
 20
16.880990942
 10
21.0698344488
 20
16.8631418968
 10
21.0637143097
 20
16.845563966
 10
21.0544799334
 20
16.8284454848
 10
21.0422302599
 20
16.8119698659
 10
21.0270965358
 20
16.7963136343
 10
21.0092409087
 20
16.7816445354
 10
20.9888546891
 20
16.7681197386
  0
LWPOLYLINE
  5
3F4
100
AcDbEntity
  8
RACCORDO
100
AcDbPolyline
 62
250
  6
CONTINUOUS
 90
9
 70
0
 10
21.073052749
 20
5.62115603
 10
21.0727747777
 20
5.6137011222
 10
21.0698344488
 20
5.595852077
 10
21.0637143097
 20
5.5782741462
 10
21.0544799334
 20
5.561155665
 10
21.0422302599
 20
5.5446800462
 10
21.0270965358
 20
5.5290238145
 10
21.0092409087
 20
5.5143547157
 10
20.9888546891
 20
5.5008299189
  0
LWPOLYLINE
  5
3F5
100
AcDbEntity
  8
RACCORDO
100
AcDbPolyline
 62
250
  6
CONTINUOUS
 90
9
 70
0
 10
21.073052749
 20
4.9679798086
 10
21.0727747777
 20
4.9605249008
 10
21.0698344488
 20
4.9426758556
 10
21.0637143097
 20
4.9250979248
 10
21.0544799334
 20
4.9079794436
 10
21.0422302599
 20
4.8915038248
 10
21.0270965358
 20
4.8758475931
 10
21.0092409087
 20
4.8611784942
 10
20.9888546891
 20
4.8476536975
  0
LINE
  5
3F6
100
AcDbEntity
  8
RACCORDO
100
AcDbLine
 62
7
  6
CONTINUOUS
 10
0.0914504784
 20
-23.6403273498
 11
0.0908464723
 21
-23.6406296831
  0
LINE
  5
3F7
100
AcDbEntity
  8
RACCORDO
100
AcDbLine
 62
250
  6
CONTINUOUS
 10
-4.3702485042
 20
-25.6603093
 11
-2.3275281974
 21
-24.6428274601
  0
LINE
  5
3F8
100
AcDbEntity
  8
RACCORDO
100
AcDbLine
 62
250
  6
CONTINUOUS
 10
1.1118137672
 20
-22.9541653925
 11
0.2093630165
 21
-23.4036773727
  0
LINE
  5
3F9
100
AcDbEntity
  8
RACCORDO
100
AcDbLine
 62
7
  6
CONTINUOUS
 10
-4.49465093
 20
-25.9001933762
 11
-2.4401566328
 21
-24.8768468953
  0
LINE
  5
3FA
100
AcDbEntity
  8
TRASH
100
AcDbLine
 62
7
  6
CONTINUOUS
 10
0.9991853317
 20
-23.1881848276
 11
0.0908466397
 21
-23.6406295997
  0
LWPOLYLINE
  5
3FB
100
AcDbEntity
  8
RACCORDO
100
AcDbPolyline
 62
250
  6
CONTINUOUS
 90
13
 70
0
 10
0.2093630165
 20
-23.4036773727
 10
0.1846944504
 20
-23.415752912
 10
0.1575327363
 20
-23.4258886002
 10
0.1283324883
 20
-23.4339148848
 10
0.0975823542
 20
-23.4396975294
 10
0.0657969977
 20
-23.4431398241
 10
0.0335084991
 20
-23.4441842432
 10
0.0012572304
 20
-23.442813431
 10
-0.0304172529
 20
-23.4390504447
 10
-0.0609850636
 20
-23.4329583474
 10
-0.0899348306
 20
-23.4246391613
 10
-0.1167822573
 20
-23.4142321703
 10
-0.1410782714
 20
-23.4019115747
  0
LINE
  5
3FC
100
AcDbEntity
  8
RACCORDO
100
AcDbLine
 62
250
  6
CONTINUOUS
 10
-8.775279574
 20
21.2917538426
 11
-8.7891102336
 21
21.2889502074
  0
LINE
  5
3FD
100
AcDbEntity
  8
TRASH
100
AcDbLine
 62
7
  6
CONTINUOUS
 10
-9.869766318
 20
20.2346471667
 11
-9.9235963687
 21
20.2237606841
  0
LINE
  5
3FE
100
AcDbEntity
  8
TRASH
100
AcDbLine
 62
7
  6
CONTINUOUS
 10
-9.8158178393
 20
20.2452607441
 11
-9.869766318
 21
20.2346471667
  0
LWPOLYLINE
  5
3FF
100
AcDbEntity
  8
RACCORDO
100
AcDbPolyline
 62
7
  6
CONTINUOUS
 90
3
 70
0
 10
-14.4026484144
 20
18.9086577693
 10
-14.3876881709
 20
18.9115012693
 10
-14.370712164
 20
18.9136256789
  0
LINE
  5
400
100
AcDbEntity
  8
TRASH
100
AcDbLine
 62
7
  6
CONTINUOUS
 10
-9.7617509326
 20
20.2556014163
 11
-9.8158178393
 21
20.2452607441
  0
LWPOLYLINE
  5
401
100
AcDbEntity
  8
RACCORDO
100
AcDbPolyline
 62
7
  6
CONTINUOUS
 90
4
 70
0
 10
-8.7854860211
 20
21.2810404502
 10
-8.7907239559
 20
21.280313794
 10
-8.7945985944
 20
21.2803048598
 10
-8.7956934843
 20
21.2804171171
  0
LWPOLYLINE
  5
402
100
AcDbEntity
  8
TRASH
100
AcDbPolyline
 62
7
  6
CONTINUOUS
 90
10
 70
0
 10
-6.9188877746
 20
21.8230056936
 10
-6.8794157708
 20
21.8283452022
 10
-6.8388035361
 20
21.8298316748
 10
-6.7970510706
 20
21.8274651115
 10
-6.7539721246
 20
21.8212029071
 10
-6.7097529477
 20
21.8110876667
 10
-6.6649522884
 20
21.7972472053
 10
-6.6197563962
 20
21.779724128
 10
-6.5739790215
 20
21.7584758297
 10
-6.5276201644
 20
21.7335023104
  0
LINE
  5
403
100
AcDbEntity
  8
RACCORDO
100
AcDbLine
 62
7
  6
CONTINUOUS
 10
18.1291227078
 20
22.4678854321
 11
18.0506622757
 21
22.460890199
  0
LINE
  5
404
100
AcDbEntity
  8
RACCORDO
100
AcDbLine
 62
250
  6
CONTINUOUS
 10
-8.7607146417
 20
21.2928659956
 11
-8.775279574
 21
21.2917538426
  0
LINE
  5
405
100
AcDbEntity
  8
TRASH
100
AcDbLine
 62
7
  6
CONTINUOUS
 10
-3.2883941549
 20
21.3901540165
 11
-4.5432544104
 21
21.33851799
  0
LINE
  5
406
100
AcDbEntity
  8
0
100
AcDbLine
 62
7
  6
CONTINUOUS
 10
12.0749103952
 20
19.790594917
 11
12.5246550566
 21
19.650003571
  0
LWPOLYLINE
  5
407
100
AcDbEntity
  8
RACCORDO
100
AcDbPolyline
 62
7
  6
CONTINUOUS
 90
13
 70
0
 10
-0.7077438734
 20
25.4656987625
 10
-0.7483376528
 20
25.4870707682
 10
-0.7952947724
 20
25.5070041122
 10
-0.8435608016
 20
25.5225808386
 10
-0.8926912923
 20
25.5336823564
 10
-0.9423214828
 20
25.5402563736
 10
-0.9920722103
 20
25.5422741705
 10
-1.0413834345
 20
25.5397691635
 10
-1.0898401778
 20
25.5328544278
 10
-1.1371964709
 20
25.521639987
 10
-1.1830676088
 20
25.5062749849
 10
-1.2269736686
 20
25.4870048187
 10
-1.2477018917
 20
25.4762007329
  0
LINE
  5
408
100
AcDbEntity
  8
RACCORDO
100
AcDbLine
 62
250
  6
CONTINUOUS
 10
-0.9514839819
 20
25.4443808122
 11
4.8948879627
 21
22.0687589237
  0
LINE
  5
409
100
AcDbEntity
  8
RACCORDO
100
AcDbLine
 62
7
  6
CONTINUOUS
 10
-0.7077392297
 20
25.4657068363
 11
4.7766729173
 21
22.2990760419
  0
LWPOLYLINE
  5
40A
100
AcDbEntity
  8
RACCORDO
100
AcDbPolyline
 62
250
  6
CONTINUOUS
 90
13
 70
0
 10
4.7766751979
 20
22.2990747237
 10
4.7840484089
 20
22.2938564489
 10
4.7931444013
 20
22.2850772114
 10
4.8026040784
 20
22.2734746277
 10
4.8125644267
 20
22.2589256796
 10
4.8230369238
 20
22.2414408821
 10
4.8336263143
 20
22.2213759703
 10
4.8446662461
 20
22.198347774
 10
4.8560236875
 20
22.1727264423
 10
4.8666977121
 20
22.1463968215
 10
4.8764731913
 20
22.1203660452
 10
4.8858416187
 20
22.0943853783
 10
4.8948879627
 20
22.0687589237
  0
LINE
  5
40B
100
AcDbEntity
  8
0
100
AcDbLine
 62
7
  6
CONTINUOUS
 10
10.9828865915
 20
20.5402013599
 11
11.2263822578
 21
20.280524429
  0
LINE
  5
40C
100
AcDbEntity
  8
0
100
AcDbLine
 62
250
  6
CONTINUOUS
 10
9.8109417122
 20
22.2799169067
 11
9.0243211054
 21
23.233997151
  0
LWPOLYLINE
  5
40D
100
AcDbEntity
  8
RACCORDO
100
AcDbPolyline
 62
250
  6
CONTINUOUS
 90
18
 70
0
 10
19.6694574604
 20
6.2361541659
 10
19.6770938014
 20
6.2071512625
 10
19.6944923698
 20
6.1293680081
 10
19.7094081439
 20
6.0486568564
 10
19.7217879431
 20
5.9649994037
 10
19.7318331526
 20
5.8783042089
 10
19.7392384628
 20
5.7887502066
 10
19.7439861013
 20
5.6963172002
 10
19.7466265253
 20
5.6006421461
 10
19.746605015
 20
5.5006631202
 10
19.7439402528
 20
5.3977265061
 10
19.7401240916
 20
5.2950872311
 10
19.7349481365
 20
5.1924285532
 10
19.7283795989
 20
5.0903762726
 10
19.7225856912
 20
4.9934810745
 10
19.7185071592
 20
4.9032447531
 10
19.7155691758
 20
4.8182270213
 10
19.7139270577
 20
4.7384483687
  0
LWPOLYLINE
  5
40E
100
AcDbEntity
  8
RACCORDO
100
AcDbPolyline
 62
7
  6
CONTINUOUS
 90
3
 70
0
 10
-8.7705771383
 20
21.2848258201
 10
-8.7787131396
 20
21.2825742756
 10
-8.7854860211
 20
21.2810404502
  0
LWPOLYLINE
  5
40F
100
AcDbEntity
  8
RACCORDO
100
AcDbPolyline
 62
7
  6
CONTINUOUS
 90
9
 70
0
 10
-7.564541462
 20
21.6787757829
 10
-7.6967453881
 20
21.6437156426
 10
-7.8281263323
 20
21.606936263
 10
-7.9586842944
 20
21.5684376441
 10
-8.0884286557
 20
21.5282166356
 10
-8.217350035
 20
21.4862763878
 10
-8.3454202891
 20
21.4426263523
 10
-8.4726300369
 20
21.3972696796
 10
-8.5989886596
 20
21.3502032193
  0
LINE
  5
410
100
AcDbEntity
  8
TRASH
100
AcDbLine
 62
7
  6
CONTINUOUS
 10
-7.0335133223
 20
21.8005789036
 11
-7.0906249031
 21
21.7889028224
  0
LINE
  5
411
100
AcDbEntity
  8
TRASH
100
AcDbLine
 62
7
  6
CONTINUOUS
 10
-6.9762676128
 20
21.8119465273
 11
-7.0335133223
 21
21.8005789036
  0
LINE
  5
412
100
AcDbEntity
  8
TRASH
100
AcDbLine
 62
7
  6
CONTINUOUS
 10
-6.9188877746
 20
21.8230056936
 11
-6.9762676128
 21
21.8119465273
  0
LWPOLYLINE
  5
413
100
AcDbEntity
  8
RACCORDO
100
AcDbPolyline
 62
250
  6
CONTINUOUS
 90
11
 70
0
 10
-6.0815822878
 20
22.8361884843
 10
-6.0802601151
 20
22.8363946457
 10
-6.0779755302
 20
22.8360528877
 10
-6.0747403609
 20
22.835153299
 10
-6.0705276531
 20
22.8336966269
 10
-6.065354171
 20
22.8316718748
 10
-6.0592008326
 20
22.8290724188
 10
-6.0519724163
 20
22.8258796579
 10
-6.0436236916
 20
22.8220582293
 10
-6.0341716807
 20
22.817577855
 10
-6.0236035826
 20
22.8124073073
  0
LWPOLYLINE
  5
414
100
AcDbEntity
  8
RACCORDO
100
AcDbPolyline
 62
7
  6
CONTINUOUS
 90
10
 70
0
 10
13.332018122
 20
21.458737645
 10
13.3238612699
 20
21.461101604
 10
13.3145520579
 20
21.4626132373
 10
13.3047818441
 20
21.4630227171
 10
13.2944556487
 20
21.4623198318
 10
13.2836684515
 20
21.4605147929
 10
13.2727051926
 20
21.4576382354
 10
13.2616608519
 20
21.4537003708
 10
13.2504404494
 20
21.4486909876
 10
13.2390439851
 20
21.4426100858
  0
LINE
  5
415
100
AcDbEntity
  8
0
100
AcDbLine
 62
7
  6
CONTINUOUS
 10
11.9276059997
 20
20.6854022292
 11
11.4778613383
 21
20.8259935752
  0
LWPOLYLINE
  5
416
100
AcDbEntity
  8
RACCORDO
100
AcDbPolyline
 62
7
  6
CONTINUOUS
 90
22
 70
0
 10
13.3320172762
 20
21.4587359479
 10
13.2131069461
 20
21.4981935394
 10
13.0909337963
 20
21.5338802933
 10
12.9660227323
 20
21.5656631713
 10
12.8387084094
 20
21.5934859366
 10
12.7093161241
 20
21.6173028226
 10
12.5781669382
 20
21.637075702
 10
12.4456098904
 20
21.6527697542
 10
12.3119788856
 20
21.6643606746
 10
12.1775811119
 20
21.6718324859
 10
12.0427643833
 20
21.6751726645
 10
11.9078719888
 20
21.6743773623
 10
11.7732064779
 20
21.6694487976
 10
11.6391094397
 20
21.6603956248
 10
11.5059286782
 20
21.6472353085
 10
11.3739726971
 20
21.6299886319
 10
11.2435827126
 20
21.6086865108
 10
11.1150947291
 20
21.5833675539
 10
10.9888005634
 20
21.5540679228
 10
10.8650145424
 20
21.5208328809
 10
10.7440775107
 20
21.4837225106
 10
10.6263135103
 20
21.4428017415
  0
LWPOLYLINE
  5
417
100
AcDbEntity
  8
RACCORDO
100
AcDbPolyline
 62
7
  6
CONTINUOUS
 90
6
 70
0
 10
14.1812376176
 20
20.9685583051
 10
14.2637932413
 20
20.9383635195
 10
14.3482144955
 20
20.9073234316
 10
14.4345013802
 20
20.8754380416
 10
14.5226383118
 20
20.8427051261
 10
14.6126408738
 20
20.8091269084
  0
LWPOLYLINE
  5
418
100
AcDbEntity
  8
RACCORDO
100
AcDbPolyline
 62
7
  6
CONTINUOUS
 90
3
 70
0
 10
13.5010960385
 20
21.3967328781
 10
13.4154487208
 20
21.4282252008
 10
13.332018122
 20
21.458737645
  0
LINE
  5
419
100
AcDbEntity
  8
0
100
AcDbLine
 62
7
  6
CONTINUOUS
 10
13.9812805742
 20
21.2196719313
 11
13.9795231769
 21
21.2203199931
  0
LWPOLYLINE
  5
41A
100
AcDbEntity
  8
RACCORDO
100
AcDbPolyline
 62
7
  6
CONTINUOUS
 90
4
 70
0
 10
13.7645828636
 20
21.2988806918
 10
13.6745756341
 20
21.3324614998
 10
13.5863890061
 20
21.3652134776
 10
13.5010960385
 20
21.3967328781
  0
LINE
  5
41B
100
AcDbEntity
  8
RACCORDO
100
AcDbLine
 62
7
  6
CONTINUOUS
 10
14.6126408738
 20
20.8091269084
 11
14.7983987259
 21
20.7394567994
  0
LWPOLYLINE
  5
41C
100
AcDbEntity
  8
RACCORDO
100
AcDbPolyline
 62
250
  6
CONTINUOUS
 90
8
 70
0
 10
-0.7186455204
 20
25.4714678694
 10
-0.746857012
 20
25.4820951996
 10
-0.7773270509
 20
25.4879069841
 10
-0.8097291717
 20
25.4888409538
 10
-0.8437162084
 20
25.4848871017
 10
-0.8789240135
 20
25.4760877909
 10
-0.9149753597
 20
25.4625372997
 10
-0.9514839819
 20
25.4443808122
  0
LINE
  5
41D
100
AcDbEntity
  8
RACCORDO
100
AcDbLine
 62
7
  6
CONTINUOUS
 10
13.9788268201
 20
21.2184724961
 11
13.7645828636
 21
21.2988806918
  0
LINE
  5
41E
100
AcDbEntity
  8
RACCORDO
100
AcDbLine
 62
7
  6
CONTINUOUS
 10
14.7983987259
 20
20.7394567994
 11
14.8967935759
 21
20.7023668262
  0
LINE
  5
41F
100
AcDbEntity
  8
RACCORDO
100
AcDbLine
 62
7
  6
CONTINUOUS
 10
14.1432935503
 20
21.1563638964
 11
13.9788268201
 21
21.2184724961
  0
LINE
  5
420
100
AcDbEntity
  8
RACCORDO
100
AcDbLine
 62
250
  6
CONTINUOUS
 10
14.1432935503
 20
21.1563638964
 11
13.9812805742
 21
21.2196719313
  0
LINE
  5
421
100
AcDbEntity
  8
0
100
AcDbLine
 62
7
  6
CONTINUOUS
 10
10.9828865915
 20
20.5402013599
 11
10.2759176514
 21
20.9483963655
  0
LINE
  5
422
100
AcDbEntity
  8
0
100
AcDbLine
 62
7
  6
CONTINUOUS
 10
12.7761341371
 20
19.9065200288
 11
12.7733084299
 21
19.9081515567
  0
LINE
  5
423
100
AcDbEntity
  8
0
100
AcDbLine
 62
7
  6
CONTINUOUS
 10
13.218286265
 20
19.8210940352
 11
13.0196298034
 21
19.9357957863
  0
LINE
  5
424
100
AcDbEntity
  8
0
100
AcDbLine
 62
7
  6
CONTINUOUS
 10
11.4778613383
 20
20.8259935752
 11
10.7708923982
 21
21.2341885808
  0
LINE
  5
425
100
AcDbEntity
  8
DRAFT
100
AcDbLine
 62
7
  6
CONTINUOUS
 10
10.0354550709
 20
22.0515507339
 11
10.4809786179
 21
21.7943110216
  0
LWPOLYLINE
  5
426
100
AcDbEntity
  8
RACCORDO
100
AcDbPolyline
 62
250
  6
CONTINUOUS
 90
18
 70
0
 10
14.0876010185
 20
20.9526972579
 10
14.1104614479
 20
20.9300882273
 10
14.1330389862
 20
20.9065850393
 10
14.1553336333
 20
20.882187694
 10
14.1773791317
 20
20.8569790878
 10
14.1991417389
 20
20.8308763242
 10
14.2205202282
 20
20.803630714
 10
14.2415599313
 20
20.7752443262
 10
14.2622155164
 20
20.7457150919
 10
14.2822497622
 20
20.714788115
 10
14.3017201357
 20
20.6824611673
 10
14.3205691699
 20
20.6487364771
 10
14.3383872423
 20
20.6133658336
 10
14.3552433399
 20
20.5763411203
 10
14.3710684757
 20
20.5376704537
 10
14.3852460661
 20
20.4971299732
 10
14.3978577761
 20
20.4547012402
 10
14.4044976496
 20
20.4278741395
  0
LINE
  5
427
100
AcDbEntity
  8
0
100
AcDbLine
 62
7
  6
CONTINUOUS
 10
13.0196298034
 20
19.9357957863
 11
12.7761341371
 21
20.1954727172
  0
LWPOLYLINE
  5
428
100
AcDbEntity
  8
RACCORDO
100
AcDbPolyline
 62
250
  6
CONTINUOUS
 90
18
 70
0
 10
19.6694574604
 20
18.1566202071
 10
19.6770938014
 20
18.1276173037
 10
19.6944923698
 20
18.0498340493
 10
19.7094081439
 20
17.9691228976
 10
19.7217879431
 20
17.8854654449
 10
19.7318331526
 20
17.7987702501
 10
19.7392384628
 20
17.7092162478
 10
19.7439861013
 20
17.6167832414
 10
19.7466265253
 20
17.5211081873
 10
19.746605015
 20
17.4211291613
 10
19.7439402528
 20
17.3181925472
 10
19.7401240916
 20
17.2155532723
 10
19.7349481365
 20
17.1128945943
 10
19.7283795989
 20
17.0108423138
 10
19.7225856912
 20
16.9139471156
 10
19.7185071592
 20
16.8237107943
 10
19.7155691758
 20
16.7386930624
 10
19.7139270577
 20
16.6589144099
  0
LWPOLYLINE
  5
429
100
AcDbEntity
  8
RACCORDO
100
AcDbPolyline
 62
7
  6
CONTINUOUS
 90
3
 70
0
 10
14.1452381734
 20
21.1555938707
 10
14.002177635
 20
21.2119088659
 10
13.9812790091
 20
21.2196677155
  0
LWPOLYLINE
  5
42A
100
AcDbEntity
  8
RACCORDO
100
AcDbPolyline
 62
250
  6
CONTINUOUS
 90
17
 70
0
 10
14.1812376176
 20
20.9685583051
 10
14.2057606079
 20
20.9448803629
 10
14.2301263696
 20
20.9203087565
 10
14.2542631198
 20
20.8948317917
 10
14.2780280047
 20
20.8685164106
 10
14.3014178205
 20
20.8412770444
 10
14.3245411264
 20
20.8128677481
 10
14.3472886999
 20
20.7832746032
 10
14.3695466976
 20
20.7524855449
 10
14.3913563817
 20
20.7202461593
 10
14.4125643005
 20
20.6865417887
 10
14.4330094098
 20
20.6513617943
 10
14.4526505858
 20
20.6144493388
 10
14.4712782215
 20
20.5757952512
 10
14.4886733838
 20
20.5353949896
 10
14.504697365
 20
20.4929948134
 10
14.5072348098
 20
20.4851579756
  0
LINE
  5
42B
100
AcDbEntity
  8
RACCORDO
100
AcDbLine
 62
7
  6
CONTINUOUS
 10
13.9711003819
 20
24.8442203311
 11
14.0128714248
 21
24.7922600309
  0
LWPOLYLINE
  5
42C
100
AcDbEntity
  8
RACCORDO
100
AcDbPolyline
 62
250
  6
CONTINUOUS
 90
10
 70
0
 10
18.0948651556
 20
22.2992695468
 10
18.2174233053
 20
22.0790511251
 10
18.3402703635
 20
21.8555226363
 10
18.4633513309
 20
21.6286812355
 10
18.5859993077
 20
21.3996731356
 10
18.7087808282
 20
21.1673558744
 10
18.8334295982
 20
20.9282694341
 10
18.9604135278
 20
20.6812344572
 10
19.0890008964
 20
20.4273814272
 10
19.2190593856
 20
20.1666929522
  0
LWPOLYLINE
  5
42D
100
AcDbEntity
  8
RACCORDO
100
AcDbPolyline
 62
7
  6
CONTINUOUS
 90
10
 70
0
 10
19.3850034598
 20
20.2892485001
 10
19.2607053612
 20
20.5384617462
 10
19.1348456281
 20
20.7870943643
 10
19.0074372441
 20
21.0351209359
 10
18.8784934494
 20
21.2825159014
 10
18.7480274211
 20
21.5292541765
 10
18.6160522604
 20
21.7753111452
 10
18.4825814248
 20
22.0206618438
 10
18.3476287375
 20
22.2652809719
 10
18.2459430278
 20
22.4473720258
  0
LWPOLYLINE
  5
42E
100
AcDbEntity
  8
RACCORDO
100
AcDbPolyline
 62
250
  6
CONTINUOUS
 90
13
 70
0
 10
19.219059386
 20
20.1666929523
 10
19.2671117197
 20
20.0657773523
 10
19.3114947628
 20
19.9639718534
 10
19.352068649
 20
19.8615982712
 10
19.38870401
 20
19.7589845428
 10
19.4212882047
 20
19.6564504573
 10
19.4497238162
 20
19.5543067166
 10
19.4739216297
 20
19.452874788
 10
19.4938040505
 20
19.3524767438
 10
19.5093086477
 20
19.2534213864
 10
19.5203855646
 20
19.1560197243
 10
19.5269989238
 20
19.0605836511
 10
19.5291273605
 20
18.9674161387
  0
LWPOLYLINE
  5
42F
100
AcDbEntity
  8
RACCORDO
100
AcDbPolyline
 62
250
  6
CONTINUOUS
 90
8
 70
0
 10
12.3215904711
 20
25.9651137476
 10
12.2932665523
 20
25.9756454015
 10
12.2626382666
 20
25.9813455459
 10
12.2300758726
 20
25.9821342922
 10
12.1960718805
 20
25.9780302893
 10
12.1610555503
 20
25.9691525112
 10
12.1253647126
 20
25.9556511831
 10
12.0893817224
 20
25.9377248447
  0
LWPOLYLINE
  5
430
100
AcDbEntity
  8
RACCORDO
100
AcDbPolyline
 62
7
  6
CONTINUOUS
 90
24
 70
0
 10
19.0692911072
 20
20.9147096951
 10
19.0826758294
 20
20.9080817273
 10
19.2289334582
 20
20.8232739868
 10
19.3731682812
 20
20.7274046719
 10
19.5151366688
 20
20.6208521971
 10
19.6539674697
 20
20.5044614584
 10
19.7889842933
 20
20.3790262489
 10
19.9197886403
 20
20.2451225702
 10
20.0458818273
 20
20.1034249597
 10
20.1667159062
 20
19.9546968054
 10
20.2818233808
 20
19.7996454672
 10
20.3908020837
 20
19.638908558
 10
20.4931748867
 20
19.4732540128
 10
20.5884925107
 20
19.3034555704
 10
20.6763907844
 20
19.130169821
 10
20.7564555939
 20
18.9541744009
 10
20.8282859546
 20
18.7762803943
 10
20.8915514272
 20
18.5971769429
 10
20.9459131659
 20
18.4175991682
 10
20.9910147525
 20
18.2384138421
 10
21.0265444759
 20
18.0604504706
 10
21.0522280151
 20
17.8844811261
 10
21.0678098993
 20
17.7112748824
 10
21.073052749
 20
17.5416220712
  0
LINE
  5
431
100
AcDbEntity
  8
RACCORDO
100
AcDbLine
 62
250
  6
CONTINUOUS
 10
12.333223445
 20
25.9589949226
 11
12.3215904711
 21
25.9651137476
  0
LINE
  5
432
100
AcDbEntity
  8
DRAFT
100
AcDbLine
 62
7
  6
CONTINUOUS
 10
14.0128714248
 20
24.3528781208
 11
17.6635293923
 21
22.2450339638
  0
LINE
  5
433
100
AcDbEntity
  8
RACCORDO
100
AcDbLine
 62
250
  6
CONTINUOUS
 10
12.0893817224
 20
25.9377248447
 11
13.0174085065
 21
25.4018938104
  0
LINE
  5
434
100
AcDbEntity
  8
RACCORDO
100
AcDbLine
 62
7
  6
CONTINUOUS
 10
12.333223445
 20
25.9589949226
 11
13.4363086573
 21
25.3220873459
  0
LWPOLYLINE
  5
435
100
AcDbEntity
  8
RACCORDO
100
AcDbPolyline
 62
250
  6
CONTINUOUS
 90
44
 70
0
 10
19.1427176079
 20
20.7715434738
 10
19.1746011107
 20
20.7507846819
 10
19.2618069983
 20
20.6895605245
 10
19.3497931086
 20
20.6231843963
 10
19.4364221916
 20
20.5532201156
 10
19.5213530895
 20
20.4800651771
 10
19.6046329187
 20
20.4038011346
 10
19.6848124023
 20
20.325971718
 10
19.7614376908
 20
20.2473748405
 10
19.8348761714
 20
20.1679870294
 10
19.9049986812
 20
20.088274389
 10
19.9715780726
 20
20.0088476708
 10
20.0348773073
 20
19.9297421388
 10
20.09549532
 20
19.8504862226
 10
20.1534101553
 20
19.771337939
 10
20.2086736143
 20
19.6924562194
 10
20.2619236886
 20
19.6130998935
 10
20.3131995299
 20
19.5333171004
 10
20.3624334278
 20
19.4533215357
 10
20.4100236249
 20
19.3725376387
 10
20.4560064919
 20
19.2909218046
 10
20.5002598313
 20
19.2087096405
 10
20.5428921353
 20
19.1257090072
 10
20.5839111613
 20
19.0418851724
 10
20.6232014804
 20
18.9574535401
 10
20.660677616
 20
18.8725925235
 10
20.6963283476
 20
18.7873229005
 10
20.7300808386
 20
18.7018140112
 10
20.7617864252
 20
18.6164712233
 10
20.7914309713
 20
18.5313920122
 10
20.8190041893
 20
18.446668986
 10
20.8444094467
 20
18.3626983887
 10
20.8676698483
 20
18.2795418767
 10
20.8887967668
 20
18.1973073797
 10
20.9077287445
 20
18.1164486327
 10
20.9244354083
 20
18.0374439586
 10
20.939072907
 20
17.9599376761
 10
20.951828524
 20
17.8831366381
 10
20.9626415535
 20
17.8075477388
 10
20.9715892836
 20
17.7327956786
 10
20.9788476269
 20
17.6568450055
 10
20.984294233
 20
17.5791481203
 10
20.9876861925
 20
17.5005738479
 10
20.9888546891
 20
17.4212959601
  0
LWPOLYLINE
  5
436
100
AcDbEntity
  8
RACCORDO
100
AcDbPolyline
 62
7
  6
CONTINUOUS
 90
8
 70
0
 10
18.2459531184
 20
22.4473759292
 10
18.2390629403
 20
22.4552057536
 10
18.2287966858
 20
22.4610346031
 10
18.2149704251
 20
22.465485877
 10
18.1980439207
 20
22.468411413
 10
18.1781704267
 20
22.4697618238
 10
18.1551966891
 20
22.4695864969
 10
18.1291227078
 20
22.4678854321
  0
ARC
  5
437
100
AcDbEntity
  8
RACCORDO
100
AcDbCircle
 62
7
  6
CONTINUOUS
 10
19.1694574604
 20
-0.7475494369
 40
0.5
100
AcDbArc
 50
301.7332683129
 51
0.0153289556
  0
ARC
  5
438
100
AcDbEntity
  8
RACCORDO
100
AcDbCircle
 62
7
  6
CONTINUOUS
 10
12.0832113649
 20
25.5259891954
 40
0.5
100
AcDbArc
 50
59.9830714493
 51
118.2699256376
  0
ARC
  5
439
100
AcDbEntity
  8
RACCORDO
100
AcDbCircle
 62
7
  6
CONTINUOUS
 10
-1.5646935171
 20
3.2604988551
 40
0.3
100
AcDbArc
 50
231.3149588545
 51
240.014801368
  0
ARC
  5
43A
100
AcDbEntity
  8
RACCORDO
100
AcDbCircle
 62
7
  6
CONTINUOUS
 10
-1.5646935171
 20
-14.007847499
 40
0.3
100
AcDbArc
 50
231.3149588545
 51
240.014801368
  0
ARC
  5
43B
100
AcDbEntity
  8
RACCORDO
100
AcDbCircle
 62
7
  6
CONTINUOUS
 10
-15.3483190629
 20
20.5962340638
 40
0.25
100
AcDbArc
 50
180.0
 51
240.0080369102
  0
ARC
  5
43C
100
AcDbEntity
  8
RACCORDO
100
AcDbCircle
 62
7
  6
CONTINUOUS
 10
0.0356984239
 20
11.7136951739
 40
0.25
100
AcDbArc
 50
239.9955220619
 51
299.1398038409
  0
ARC
  5
43D
100
AcDbEntity
  8
RACCORDO
100
AcDbCircle
 62
7
  6
CONTINUOUS
 10
-7.0870860486
 20
20.5557269875
 40
0.2
100
AcDbArc
 50
60.0031138276
 51
118.7607162654
  0
ELLIPSE
  5
43E
100
AcDbEntity
  8
RACCORDO
100
AcDbEllipse
 62
7
  6
CONTINUOUS
 10
-1.8934115953
 20
-6.8088129117
 30
0.0
 11
-0.1000048364
 21
0.1732022883
 31
0.0
 40
0.5775075436
 41
-2.3560905478
 42
-0.7855988075
  0
ELLIPSE
  5
43F
100
AcDbEntity
  8
RACCORDO
100
AcDbEllipse
 62
7
  6
CONTINUOUS
 10
-2.6811354441
 20
-24.4382856786
 30
0.0
 11
-0.2498600223
 21
0.43379745
 31
0.0
 40
0.5768037941
 41
-3.1764860545
 42
-2.355482613
  0
ELLIPSE
  5
440
100
AcDbEntity
  8
RACCORDO
100
AcDbEllipse
 62
7
  6
CONTINUOUS
 10
-17.6519433414
 20
19.4760666507
 30
0.0
 11
-0.2498600223
 21
0.43379745
 31
0.0
 40
0.5768037941
 41
-0.7837728977
 42
0.0348934027
  0
ELLIPSE
  5
441
100
AcDbEntity
  8
RACCORDO
100
AcDbEllipse
 62
7
  6
CONTINUOUS
 10
-1.8934115953
 20
-6.4005280248
 30
0.0
 11
-0.1000352924
 21
0.1732550566
 31
0.0
 40
0.5771558487
 41
-3.1590397876
 42
-2.3563950755
  0
ELLIPSE
  5
442
100
AcDbEntity
  8
RACCORDO
100
AcDbEllipse
 62
7
  6
CONTINUOUS
 10
-2.6811354441
 20
10.8321097991
 30
0.0
 11
-0.2496303025
 21
0.4334023309
 31
0.0
 40
0.5778584463
 41
-2.3545649475
 42
-0.7846820092
  0
ELLIPSE
  5
443
100
AcDbEntity
  8
TRASH
100
AcDbEllipse
 62
7
  6
CONTINUOUS
 10
0.7582065205
 20
-22.749623611
 30
0.0
 11
-0.2498600223
 21
0.43379745
 31
0.0
 40
0.5768037941
 41
-3.1764860545
 42
-2.355482613
  0
ELLIPSE
  5
444
100
AcDbEntity
  8
TRASH
100
AcDbEllipse
 62
7
  6
CONTINUOUS
 10
0.7582065205
 20
13.0106540328
 30
0.0
 11
-0.2496303025
 21
0.4334023309
 31
0.0
 40
0.5778584463
 41
-2.3545649475
 42
-0.7846820092
  0
ELLIPSE
  5
445
100
AcDbEntity
  8
TRASH
100
AcDbEllipse
 62
7
  6
CONTINUOUS
 10
-14.3030602066
 20
21.706840679
 30
0.0
 11
-0.2498600223
 21
0.43379745
 31
0.0
 40
0.5768037941
 41
-0.7837728977
 42
0.0348934027
  0
ELLIPSE
  5
446
100
AcDbEntity
  8
RACCORDO
100
AcDbEllipse
 62
7
  6
CONTINUOUS
 10
-1.5597514701
 20
11.1651595356
 30
0.0
 11
-0.2500120841
 21
0.4331046564
 31
0.0
 40
0.5772437478
 41
-0.7852561221
 42
0.0130877367
  0
ELLIPSE
  5
447
100
AcDbEntity
  8
RACCORDO
100
AcDbEllipse
 62
7
  6
CONTINUOUS
 10
-0.9418815469
 20
12.2781375971
 30
0.0
 11
0.1283320592
 21
0.214570675
 31
0.0
 40
0.5873179545
 41
-3.917905871
 42
-3.1325560282
  0
ELLIPSE
  5
448
100
AcDbEntity
  8
RACCORDO
100
AcDbEllipse
 62
7
  6
CONTINUOUS
 10
-0.974183551
 20
2.0092452979
 30
0.0
 11
-0.1500072547
 21
0.2598034325
 31
0.0
 40
0.5775075436
 41
-1.3189988016
 42
-0.7855988075
  0
ELLIPSE
  5
449
100
AcDbEntity
  8
RACCORDO
100
AcDbEllipse
 62
7
  6
CONTINUOUS
 10
-1.6936329269
 20
-3.1591224503
 30
0.0
 11
-0.1500529386
 21
0.2598825848
 31
0.0
 40
0.5771558487
 41
-3.159039926
 42
-2.3563950755
  0
ELLIPSE
  5
44A
100
AcDbEntity
  8
RACCORDO
100
AcDbEllipse
 62
7
  6
CONTINUOUS
 10
-1.6936329269
 20
-7.0147211382
 30
0.0
 11
-0.1500072547
 21
0.2598034325
 31
0.0
 40
0.5775075436
 41
-2.3560905478
 42
-0.7855988075
  0
ELLIPSE
  5
44B
100
AcDbEntity
  8
RACCORDO
100
AcDbEllipse
 62
7
  6
CONTINUOUS
 10
-0.974183551
 20
-15.9531007916
 30
0.0
 11
-0.1500072547
 21
0.2598034325
 31
0.0
 40
0.5775075436
 41
-1.3189988016
 42
-0.7855988075
  0
ELLIPSE
  5
44C
100
AcDbEntity
  8
RACCORDO
100
AcDbEllipse
 62
7
  6
CONTINUOUS
 10
-1.4753511376
 20
11.1164278415
 30
0.0
 11
-0.2500120911
 21
0.4330057209
 31
0.0
 40
0.5775075436
 41
-2.3560905478
 42
-0.7855988075
  0
ELLIPSE
  5
44D
100
AcDbEntity
  8
RACCORDO
100
AcDbEllipse
 62
7
  6
CONTINUOUS
 10
-14.1064225595
 20
18.409450176
 30
0.0
 11
-0.2499739954
 21
0.4330387087
 31
0.0
 40
0.577419602
 41
-2.3560524088
 42
-0.785408381
  0
ELLIPSE
  5
44E
100
AcDbEntity
  8
RACCORDO
100
AcDbEllipse
 62
7
  6
CONTINUOUS
 10
-14.190822892
 20
18.4581818702
 30
0.0
 11
-0.2500882309
 21
0.4331376414
 31
0.0
 40
0.5771558487
 41
-0.7852941622
 42
-0.2518941681
  0
ELLIPSE
  5
44F
100
AcDbEntity
  8
DRAFT
100
AcDbEllipse
 62
7
  6
CONTINUOUS
 10
12.4608776052
 20
22.5098723476
 30
0.0
 11
2.7981186272
 21
-1.3650561788
 31
0.0
 40
0.0751809742
 41
0.617447718
 42
1.0266694981
  0
ELLIPSE
  5
450
100
AcDbEntity
  8
DRAFT
100
AcDbEllipse
 62
7
  6
CONTINUOUS
 10
12.4608776052
 20
20.6511421603
 30
0.0
 11
2.7999742554
 21
-0.0209793252
 31
0.0
 40
0.5723275643
 41
0.1708011781
 42
0.5850755173
  0
ELLIPSE
  5
451
100
AcDbEntity
  8
DRAFT
100
AcDbEllipse
 62
7
  6
CONTINUOUS
 10
11.7891261631
 20
20.8162848971
 30
0.0
 11
2.7499747151
 21
-0.0206046944
 31
0.0
 40
0.5723275643
 41
2.3779360266
 42
3.0364985992
  0
ELLIPSE
  5
452
100
AcDbEntity
  8
DRAFT
100
AcDbEllipse
 62
7
  6
CONTINUOUS
 10
12.4608776052
 20
20.6511421603
 30
0.0
 11
2.7999742554
 21
-0.0209793252
 31
0.0
 40
0.5723275643
 41
0.9942972973
 42
2.3604827341
  0
ELLIPSE
  5
453
100
AcDbEntity
  8
RACCORDO
100
AcDbEllipse
 62
7
  6
CONTINUOUS
 10
11.7069273673
 20
21.6456467214
 30
0.0
 11
3.8440095022
 21
-0.055647443
 31
0.0
 40
0.5672294263
 41
2.3513893867
 42
4.8355552269
  0
ELLIPSE
  5
454
100
AcDbEntity
  8
RACCORDO
100
AcDbEllipse
 62
7
  6
CONTINUOUS
 10
0.7849252047
 20
18.6919032272
 30
0.0
 11
0.1138633247
 21
0.2799677567
 31
0.0
 40
0.4621659175
 41
-0.0637487301
 42
0.7041961408
  0
ELLIPSE
  5
455
100
AcDbEntity
  8
RACCORDO
100
AcDbEllipse
 62
7
  6
CONTINUOUS
 10
13.6237182887
 20
24.6365198047
 30
0.0
 11
-0.6347852159
 21
0.7458801276
 31
0.0
 40
0.4084979508
 41
4.6439585985
 42
6.1973016328
  0
ENDSEC
  0
SECTION
  2
OBJECTS
  0
DICTIONARY
  5
C
100
AcDbDictionary
280
0
281
1
  3
ACAD_GROUP
350
D
  3
ACAD_MLINESTYLE
350
17
  3
ACAD_LAYOUT
350
1A
  3
ACAD_PLOTSETTINGS
350
19
  3
ACAD_PLOTSTYLENAME
350
E
  0
DICTIONARY
  5
D
102
{ACAD_REACTORS
330
C
102
}
100
AcDbDictionary
280
0
281
1
  0
ACDBDICTIONARYWDFLT
  5
E
102
{ACAD_REACTORS
330
C
102
}
100
AcDbDictionary
281
1
  3
Normal
350
F
100
AcDbDictionaryWithDefault
340
F
  0
DICTIONARY
  5
17
102
{ACAD_REACTORS
330
C
102
}
100
AcDbDictionary
280
0
281
1
  3
Standard
350
18
  0
DICTIONARY
  5
19
102
{ACAD_REACTORS
330
C
102
}
100
AcDbDictionary
281
1
  0
DICTIONARY
  5
1A
102
{ACAD_REACTORS
330
C
102
}
100
AcDbDictionary
281
1
  3
Model
350
456
  3
Layout1
350
457
  0
ACDBPLACEHOLDER
  5
F
102
{ACAD_REACTORS
330
E
102
}
  0
MLINESTYLE
  5
18
102
{ACAD_REACTORS
330
17
102
}
100
AcDbMlineStyle
  2
STANDARD
 70
0
  3

 62
256
 51
90.0
 52
90.0
 71
2
 49
0.5
 62
256
  6
BYLAYER
 49
-0.5
 62
256
  6
BYLAYER
  0
LAYOUT
  5
456
102
{ACAD_REACTORS
330
1A
102
}
100
AcDbPlotSettings
  1

  2
none_device
  4
ISO_A4_(297.00_x_210.00_MM)
  6

 40
0.0
 41
0.0
 42
0.0
 43
0.0
 44
297.0
 45
210.0
 46
0.0
 47
0.0
 48
0.0
 49
0.0
140
0.0
141
0.0
142
1.0
143
1.0
 70
1024
 72
1
 73
0
 74
0
  7

 75
0
147
1.0
148
0.0
149
0.0
100
AcDbLayout
  1
Model
 70
0
 71
0
 10
0.0
 20
0.0
 11
297.0
 21
210.0
 12
0.0
 22
0.0
 32
0.0
 14
0.0
 24
0.0
 34
0.0
 15
0.0
 25
0.0
 35
0.0
146
0.0
 13
0.0
 23
0.0
 33
0.0
 16
1.0
 26
0.0
 36
0.0
 17
0.0
 27
1.0
 37
0.0
 76
0
330
21D
345
0
346
0
  0
LAYOUT
  5
457
102
{ACAD_REACTORS
330
1A
102
}
100
AcDbPlotSettings
  1

  2
none_device
  4
ISO_A4_(297.00_x_210.00_MM)
  6

 40
0.0
 41
0.0
 42
0.0
 43
0.0
 44
297.0
 45
210.0
 46
0.0
 47
0.0
 48
0.0
 49
0.0
140
0.0
141
0.0
142
1.0
143
1.0
 70
0
 72
1
 73
0
 74
0
  7

 75
0
147
1.0
148
0.0
149
0.0
100
AcDbLayout
  1
Layout1
 70
0
 71
1
 10
0.0
 20
0.0
 11
297.0
 21
210.0
 12
0.0
 22
0.0
 32
0.0
 14
0.0
 24
0.0
 34
0.0
 15
0.0
 25
0.0
 35
0.0
146
0.0
 13
0.0
 23
0.0
 33
0.0
 16
1.0
 26
0.0
 36
0.0
 17
0.0
 27
1.0
 37
0.0
 76
0
330
21E
345
0
346
0
  0
ENDSEC
  0
EOF
