  0
SECTION
  2
HEADER
  9
$ACADVER
  1
AC1024
  9
$DWGCODEPAGE
  3
ANSI_1252
  9
$EXTMAX
 10
297.0
 20
210.0
 30
0.0
  9
$EXTMIN
 10
0.0
 20
0.0
 30
0.0
  9
$LIMMIN
 10
0.0
 20
0.0
  9
$LIMMAX
 10
297.0
 20
210.0
  9
$VIEWCTR
 10
148.5
 20
105.0
  9
$VIEWSIZE
 40
210.0
  9
$CLAYER
  8
0
  9
$LTSCALE
 40
16.335
  9
$CELTYPE
  6
BYLAYER
  9
$DIMSCALE
 40
1.0
  9
$DIMASZ
 40
3.0
  9
$DIMEXO
 40
0.5
  9
$DIMDLI
 40
11.286
  9
$DIMEXE
 40
1.5
  9
$DIMCEN
 40
2.673
  9
$DIMLFAC
 40
1.0
  9
$DIMBLK
  1
_FILLED
  9
$DIMALT
 70
0
  9
$DIMALTF
 40
0.0393700787
  9
$DIMTXT
 40
3.0
  9
$DIMTOL
 70
1
  9
$DIMLIM
 70
0
  9
$DIMTFAC
 40
1.0
  9
$DIMTP
 40
0.01
  9
$DIMTM
 40
0.01
  9
$DIMGAP
 40
0.625
  9
$DIMDSEP
 70
44
  9
$AUNITS
 70
0
  9
$PDMODE
 70
3
  9
$PDSIZE
 40
3.0
  9
$HANDSEED
  5
315
  9
$TILEMODE
 70
1
  9
$MEASUREMENT
 70
1
  9
$INSUNITS
 70
4
  0
ENDSEC
  0
SECTION
  2
CLASSES
  0
CLASS
  1
ACDBDICTIONARYWDFLT
  2
AcDbDictionaryWithDefault
  3
AutoCAD 2000
 90
0
 91
1
280
0
281
0
  0
CLASS
  1
ACDBPLACEHOLDER
  2
AcDbPlaceHolder
  3
AutoCAD 2000
 90
0
 91
1
280
0
281
0
  0
CLASS
  1
LAYOUT
  2
AcDbLayout
  3
AutoCAD 2000
 90
0
 91
0
280
0
281
0
  0
ENDSEC
  0
SECTION
  2
TABLES
  0
TABLE
  2
VPORT
  5
8
100
AcDbSymbolTable
 70
2
  0
VPORT
  5
1F4
100
AcDbSymbolTableRecord
100
AcDbViewportTableRecord
  2
*ACTIVE
 70
0
 10
0.0
 20
0.0
 11
1.0
 21
1.0
 12
148.5
 22
105.0
 13
0.0
 23
0.0
 14
1.0
 24
1.0
 15
0.0
 25
0.0
 16
0.0
 26
0.0
 36
1.0
 17
0.0
 27
0.0
 37
0.0
 40
210.0
 41
1.4142857143
 42
50.0
 43
0.0
 44
0.0
 50
0.0
 51
0.0
 71
0
 72
100
 73
1
 74
1
 75
0
 76
0
 77
0
 78
0
  0
ENDTAB
  0
TABLE
  2
LTYPE
  5
5
100
AcDbSymbolTable
 70
6
  0
LTYPE
  5
14
100
AcDbSymbolTableRecord
100
AcDbLinetypeTableRecord
  2
BYBLOCK
 70
0
  3

 72
65
 73
0
 40
0.0
  0
LTYPE
  5
15
100
AcDbSymbolTableRecord
100
AcDbLinetypeTableRecord
  2
BYLAYER
 70
0
  3

 72
65
 73
0
 40
0.0
  0
LTYPE
  5
16
100
AcDbSymbolTableRecord
100
AcDbLinetypeTableRecord
  2
CONTINUOUS
 70
64
  3
Solid line
 72
65
 73
0
 40
0.0
  0
LTYPE
  5
1F5
100
AcDbSymbolTableRecord
100
AcDbLinetypeTableRecord
  2
CENTER
 70
64
  3
____ _ ____ _ ____ _ ____ _ ____ _ ____ _ ____
 72
65
 73
4
 40
0.6
 49
0.375
 74
0
 49
-0.075
 74
0
 49
0.075
 74
0
 49
-0.075
 74
0
  0
LTYPE
  5
1F6
100
AcDbSymbolTableRecord
100
AcDbLinetypeTableRecord
  2
HIDDEN
 70
64
  3
- - - - - - - - - - - - - - - - - - - -
 72
65
 73
2
 40
0.2
 49
0.1
 74
0
 49
-0.1
 74
0
  0
LTYPE
  5
1F7
100
AcDbSymbolTableRecord
100
AcDbLinetypeTableRecord
  2
PHANTOM
 70
64
  3
_____ _ _ _____ _ _ _____ _ _ _____
 72
65
 73
6
 40
0.8
 49
0.45
 74
0
 49
-0.05
 74
0
 49
0.1
 74
0
 49
-0.05
 74
0
 49
0.1
 74
0
 49
-0.05
 74
0
  0
LTYPE
  5
1F8
100
AcDbSymbolTableRecord
100
AcDbLinetypeTableRecord
  2
DOT
 70
64
  3
. . . . . . . . . . . . . . . . . . . .
 72
65
 73
2
 40
0.2
 49
0.1
 74
0
 49
-0.1
 74
0
  0
LTYPE
  5
1F9
100
AcDbSymbolTableRecord
100
AcDbLinetypeTableRecord
  2
DASHED
 70
64
  3
- - - - - - - - - - - - - - - - - - - -
 72
65
 73
2
 40
0.2
 49
0.1
 74
0
 49
-0.1
 74
0
  0
ENDTAB
  0
TABLE
  2
LAYER
  5
2
100
AcDbSymbolTable
 70
36
  0
LAYER
  5
10
100
AcDbSymbolTableRecord
100
AcDbLayerTableRecord
  2
0
 70
0
 62
7
  6
CONTINUOUS
370
-3
390
F
  0
LAYER
  5
1FA
100
AcDbSymbolTableRecord
100
AcDbLayerTableRecord
  2
DEFAULT_1
 70
0
 62
7
  6
CENTER
370
-3
390
F
  0
LAYER
  5
1FB
100
AcDbSymbolTableRecord
100
AcDbLayerTableRecord
  2
DEFAULT_2
 70
0
 62
7
  6
HIDDEN
370
-3
390
F
  0
LAYER
  5
1FC
100
AcDbSymbolTableRecord
100
AcDbLayerTableRecord
  2
DEFAULT_3
 70
0
 62
7
  6
PHANTOM
370
-3
390
F
  0
LAYER
  5
1FD
100
AcDbSymbolTableRecord
100
AcDbLayerTableRecord
  2
ASSI
 70
0
 62
7
  6
CONTINUOUS
370
-3
390
F
  0
LAYER
  5
1FE
100
AcDbSymbolTableRecord
100
AcDbLayerTableRecord
  2
COORDINATE
 70
0
 62
7
  6
CONTINUOUS
370
-3
390
F
  0
LAYER
  5
1FF
100
AcDbSymbolTableRecord
100
AcDbLayerTableRecord
  2
COORD_ORIGINE
 70
0
 62
7
  6
CONTINUOUS
370
-3
390
F
  0
LAYER
  5
200
100
AcDbSymbolTableRecord
100
AcDbLayerTableRecord
  2
COPY_PUBLISH
 70
0
 62
7
  6
CONTINUOUS
370
-3
390
F
  0
LAYER
  5
201
100
AcDbSymbolTableRecord
100
AcDbLayerTableRecord
  2
COSMETICI
 70
0
 62
7
  6
CONTINUOUS
370
-3
390
F
  0
LAYER
  5
202
100
AcDbSymbolTableRecord
100
AcDbLayerTableRecord
  2
CURVE
 70
0
 62
7
  6
CONTINUOUS
370
-3
390
F
  0
LAYER
  5
203
100
AcDbSymbolTableRecord
100
AcDbLayerTableRecord
  2
DRAFT
 70
0
 62
7
  6
CONTINUOUS
370
-3
390
F
  0
LAYER
  5
204
100
AcDbSymbolTableRecord
100
AcDbLayerTableRecord
  2
IMPORT_IGES
 70
0
 62
7
  6
CONTINUOUS
370
-3
390
F
  0
LAYER
  5
205
100
AcDbSymbolTableRecord
100
AcDbLayerTableRecord
  2
NOTE
 70
0
 62
7
  6
CONTINUOUS
370
-3
390
F
  0
LAYER
  5
206
100
AcDbSymbolTableRecord
100
AcDbLayerTableRecord
  2
PIANI
 70
0
 62
7
  6
CONTINUOUS
370
-3
390
F
  0
LAYER
  5
207
100
AcDbSymbolTableRecord
100
AcDbLayerTableRecord
  2
PIANI_ORIGINE
 70
0
 62
7
  6
CONTINUOUS
370
-3
390
F
  0
LAYER
  5
208
100
AcDbSymbolTableRecord
100
AcDbLayerTableRecord
  2
PIANI_RIFERIMENTO
 70
0
 62
7
  6
CONTINUOUS
370
-3
390
F
  0
LAYER
  5
209
100
AcDbSymbolTableRecord
100
AcDbLayerTableRecord
  2
PUNTI
 70
0
 62
7
  6
CONTINUOUS
370
-3
390
F
  0
LAYER
  5
20A
100
AcDbSymbolTableRecord
100
AcDbLayerTableRecord
  2
RACCORDO
 70
0
 62
7
  6
CONTINUOUS
370
-3
390
F
  0
LAYER
  5
20B
100
AcDbSymbolTableRecord
100
AcDbLayerTableRecord
  2
SIMBOLI
 70
0
 62
7
  6
CONTINUOUS
370
-3
390
F
  0
LAYER
  5
20C
100
AcDbSymbolTableRecord
100
AcDbLayerTableRecord
  2
SMUSSO
 70
0
 62
7
  6
CONTINUOUS
370
-3
390
F
  0
LAYER
  5
20D
100
AcDbSymbolTableRecord
100
AcDbLayerTableRecord
  2
SNAPLINE
 70
0
 62
7
  6
CONTINUOUS
370
-3
390
F
  0
LAYER
  5
20E
100
AcDbSymbolTableRecord
100
AcDbLayerTableRecord
  2
SUPERFICI
 70
0
 62
7
  6
CONTINUOUS
370
-3
390
F
  0
LAYER
  5
20F
100
AcDbSymbolTableRecord
100
AcDbLayerTableRecord
  2
TRASH
 70
0
 62
7
  6
CONTINUOUS
370
-3
390
F
  0
ENDTAB
  0
TABLE
  2
STYLE
  5
3
100
AcDbSymbolTable
 70
1
  0
STYLE
  5
11
100
AcDbSymbolTableRecord
100
AcDbTextStyleTableRecord
  2
STANDARD
 70
0
 40
0.0
 41
0.8
 50
0.0
 71
0
 42
0.2
  3
txt
  4

  0
STYLE
  5
210
100
AcDbSymbolTableRecord
100
AcDbTextStyleTableRecord
  2
TEXTSTYLE_1
 70
0
 40
0.0
 41
0.8
 50
0.0
 71
0
 42
0.2
  3
gdt
  4

  0
ENDTAB
  0
TABLE
  2
VIEW
  5
6
100
AcDbSymbolTable
 70
0
  0
ENDTAB
  0
TABLE
  2
UCS
  5
7
100
AcDbSymbolTable
 70
0
  0
ENDTAB
  0
TABLE
  2
APPID
  5
9
100
AcDbSymbolTable
 70
1
  0
APPID
  5
211
100
AcDbSymbolTableRecord
100
AcDbRegAppTableRecord
  2
ACAD
 70
0
  0
ENDTAB
  0
TABLE
  2
BLOCK_RECORD
  5
1
100
AcDbSymbolTable
 70
0
  0
BLOCK_RECORD
  5
212
100
AcDbSymbolTableRecord
100
AcDbBlockTableRecord
  2
*Model_Space
  0
BLOCK_RECORD
  5
213
100
AcDbSymbolTableRecord
100
AcDbBlockTableRecord
  2
*Paper_Space
  0
BLOCK_RECORD
  5
214
100
AcDbSymbolTableRecord
100
AcDbBlockTableRecord
  2
_FILLED
  0
ENDTAB
  0
TABLE
  2
DIMSTYLE
  5
A
100
AcDbSymbolTable
 70
1
100
AcDbDimStyleTable
 71
0
  0
DIMSTYLE
105
215
100
AcDbSymbolTableRecord
100
AcDbDimStyleTableRecord
  2
STANDARD
 70
0
  3

  4

 40
1.0
 41
3.0
 42
0.5
 43
0.38
 44
1.5
 45
0.0
 46
0.0
 47
0.01
 48
0.01
140
3.0
141
0.09
142
0.0
143
25.4
144
1.0
145
0.0
146
1.0
147
0.625
 71
1
 72
0
 73
0
 74
0
 75
0
 76
0
 77
1
 78
8
 79
2
170
0
171
1
172
0
173
0
174
0
175
0
176
0
177
0
178
0
270
2
179
2
271
2
272
2
273
2
274
2
275
0
280
0
281
0
282
0
283
1
284
8
285
0
286
0
287
3
288
0
340
11
278
44
341
214
342
214
343
214
344
214
  0
ENDTAB
  0
ENDSEC
  0
SECTION
  2
BLOCKS
  0
BLOCK
  5
20
100
AcDbEntity
  8
0
100
AcDbBlockBegin
  2
*Model_Space
 70
0
 10
0.0
 20
0.0
 30
0.0
  3
*Model_Space
  1

  0
ENDBLK
  5
21
100
AcDbEntity
  8
0
100
AcDbBlockEnd
  0
BLOCK
  5
1C
100
AcDbEntity
  8
0
100
AcDbBlockBegin
  2
*Paper_Space
 70
0
 10
0.0
 20
0.0
 30
0.0
  3
*Paper_Space
  1

  0
ENDBLK
  5
1D
100
AcDbEntity
  8
0
100
AcDbBlockEnd
  0
BLOCK
  5
216
100
AcDbEntity
  8
0
100
AcDbBlockBegin
  2
_FILLED
 70
64
 10
0.0
 20
0.0
  3
_FILLED
  1

  0
SOLID
  5
217
100
AcDbEntity
  8
0
  6
BYBLOCK
 62
0
100
AcDbTrace
 10
0.0
 20
0.0
 11
-1.0
 21
0.3166666667
 12
-1.0
 22
-0.3166666667
 13
-1.0
 23
-0.3166666667
  0
ENDBLK
  5
218
100
AcDbEntity
  8
0
  6
BYBLOCK
 62
0
100
AcDbBlockEnd
  0
ENDSEC
  0
SECTION
  2
ENTITIES
  0
LWPOLYLINE
  5
219
100
AcDbEntity
  8
ASSI
100
AcDbPolyline
 62
7
  6
CONTINUOUS
 90
16
 70
0
 10
-35.105951037
 20
19.0632001003
 10
-35.1444254286
 20
19.0365626844
 10
-35.2092172159
 20
18.9855761492
 10
-35.2701308433
 20
18.9299275105
 10
-35.3273766095
 20
18.8698699405
 10
-35.380903267
 20
18.8057223513
 10
-35.4303482651
 20
18.7382012079
 10
-35.4756392053
 20
18.6675866635
 10
-35.5166700854
 20
18.5940946687
 10
-35.5530195574
 20
18.5185153829
 10
-35.5845406376
 20
18.4410460653
 10
-35.6110498869
 20
18.3618901157
 10
-35.6321475638
 20
18.2817453161
 10
-35.6475670718
 20
18.2008421001
 10
-35.6570239505
 20
18.1191221157
 10
-35.6594473063
 20
18.075797788
  0
LINE
  5
21A
100
AcDbEntity
  8
ASSI
100
AcDbLine
 62
7
  6
CONTINUOUS
 10
-35.1061272648
 20
19.063102444
 11
-29.4720624135
 21
22.7787152271
  0
LINE
  5
21B
100
AcDbEntity
  8
ASSI
100
AcDbLine
 62
250
  6
CONTINUOUS
 10
-34.8493578418
 20
19.0426919608
 11
-29.2139483471
 21
22.7591915235
  0
LWPOLYLINE
  5
21C
100
AcDbEntity
  8
ASSI
100
AcDbPolyline
 62
250
  6
CONTINUOUS
 90
15
 70
0
 10
-35.1059594908
 20
19.0632129332
 10
-35.0910142228
 20
19.0718890173
 10
-35.0761038272
 20
19.0785280994
 10
-35.0603645313
 20
19.0837043125
 10
-35.043849528
 20
19.0874001606
 10
-35.0266146373
 20
19.0896031497
 10
-35.0087181087
 20
19.0903058329
 10
-34.9902204289
 20
19.0895058336
 10
-34.9711841231
 20
19.0872058556
 10
-34.9516735297
 20
19.0834136723
 10
-34.9317545917
 20
19.078142101
 10
-34.9114946407
 20
19.0714089626
 10
-34.8909621552
 20
19.0632370174
 10
-34.870226528
 20
19.0536538864
 10
-34.8493578418
 20
19.0426919608
  0
LINE
  5
21D
100
AcDbEntity
  8
DRAFT
100
AcDbLine
 62
7
  6
CONTINUOUS
 10
-25.8159959682
 20
20.7972564062
 11
-21.0067856346
 21
23.4359977582
  0
LWPOLYLINE
  5
21E
100
AcDbEntity
  8
RACCORDO
100
AcDbPolyline
 62
250
  6
CONTINUOUS
 90
13
 70
0
 10
-21.5463539081
 20
21.3935391329
 10
-21.5646270195
 20
21.3819903745
 10
-21.5826356712
 20
21.3678790799
 10
-21.6000785301
 20
21.3514413692
 10
-21.6166637302
 20
21.3329522894
 10
-21.6321137566
 20
21.3127212126
 10
-21.6461700888
 20
21.291086659
 10
-21.6585975265
 20
21.2684106329
 10
-21.6691881253
 20
21.2450725653
 10
-21.6777646759
 20
21.2214629647
 10
-21.6841836697
 20
21.1979768833
 10
-21.6883376995
 20
21.1750073064
 10
-21.6901572573
 20
21.1529385768
  0
LWPOLYLINE
  5
21F
100
AcDbEntity
  8
RACCORDO
100
AcDbPolyline
 62
7
  6
CONTINUOUS
 90
12
 70
0
 10
-21.8144654747
 20
22.4079590619
 10
-21.804287254
 20
22.4138750547
 10
-21.7954288056
 20
22.4194733229
 10
-21.7879513262
 20
22.4247380682
 10
-21.7819598105
 20
22.4297042812
 10
-21.7774663378
 20
22.4343195474
 10
-21.7743832374
 20
22.4384677889
 10
-21.7727865347
 20
22.442190615
 10
-21.7726800727
 20
22.4455157588
 10
-21.7738524761
 20
22.4483399235
 10
-21.7763156765
 20
22.4507022796
 10
-21.7773494661
 20
22.4513532359
  0
LINE
  5
220
100
AcDbEntity
  8
RACCORDO
100
AcDbLine
 62
7
  6
CONTINUOUS
 10
-20.2112521511
 20
21.5471082749
 11
-19.8903586385
 21
21.7323881673
  0
LINE
  5
221
100
AcDbEntity
  8
RACCORDO
100
AcDbLine
 62
7
  6
CONTINUOUS
 10
-19.4889136909
 20
21.9641774488
 11
-19.0319015347
 21
22.2280505401
  0
LWPOLYLINE
  5
222
100
AcDbEntity
  8
RACCORDO
100
AcDbPolyline
 62
7
  6
CONTINUOUS
 90
12
 70
0
 10
-21.0286190471
 20
23.3922674105
 10
-21.0205191353
 20
23.3968503139
 10
-21.0131278347
 20
23.4011380194
 10
-21.0064848546
 20
23.4051102802
 10
-21.0006270893
 20
23.4087401588
 10
-20.9955876979
 20
23.4119975129
 10
-20.9914172722
 20
23.4148794916
 10
-20.9881421047
 20
23.417364432
 10
-20.9857550448
 20
23.4194095347
 10
-20.9842744013
 20
23.4210080401
 10
-20.983747008
 20
23.4221804322
 10
-20.9842035231
 20
23.4229376172
  0
LINE
  5
223
100
AcDbEntity
  8
DRAFT
100
AcDbLine
 62
7
  6
CONTINUOUS
 10
-24.8341615284
 20
20.8671296653
 11
-22.024648518
 21
22.419298928
  0
LINE
  5
224
100
AcDbEntity
  8
RACCORDO
100
AcDbLine
 62
7
  6
CONTINUOUS
 10
-24.4925657853
 20
20.9312417095
 11
-21.8144654747
 21
22.4079590619
  0
LINE
  5
225
100
AcDbEntity
  8
RACCORDO
100
AcDbLine
 62
7
  6
CONTINUOUS
 10
-23.7575866089
 20
21.8951890546
 11
-21.0286190471
 21
23.3922674105
  0
LINE
  5
226
100
AcDbEntity
  8
DRAFT
100
AcDbLine
 62
7
  6
CONTINUOUS
 10
-25.355183069
 20
20.7460565382
 11
-22.4931072228
 21
22.3123023669
  0
LINE
  5
227
100
AcDbEntity
  8
RACCORDO
100
AcDbLine
 62
7
  6
CONTINUOUS
 10
-23.7894982632
 20
19.6271820293
 11
-22.105067638
 21
20.5393006185
  0
LWPOLYLINE
  5
228
100
AcDbEntity
  8
DRAFT
100
AcDbPolyline
 62
7
  6
CONTINUOUS
 90
22
 70
0
 10
-24.9331735756
 20
20.5703857094
 10
-24.9457560006
 20
20.5638317728
 10
-24.9625426305
 20
20.5570287966
 10
-24.9801133222
 20
20.5519671571
 10
-24.9984772737
 20
20.5486668935
 10
-25.017625287
 20
20.5471079666
 10
-25.0373368458
 20
20.5473089936
 10
-25.0576185755
 20
20.5492903735
 10
-25.0784638506
 20
20.5530317071
 10
-25.099632278
 20
20.5584904138
 10
-25.1211277327
 20
20.5656864973
 10
-25.1429463398
 20
20.5745999539
 10
-25.1648360816
 20
20.5851281922
 10
-25.1867977956
 20
20.5972900254
 10
-25.2088306444
 20
20.6110666403
 10
-25.2306800981
 20
20.6262990051
 10
-25.2523440316
 20
20.6430040847
 10
-25.27382457
 20
20.6611649141
 10
-25.2948735584
 20
20.6805715669
 10
-25.3154082785
 20
20.7011540674
 10
-25.3355114487
 20
20.7229823912
 10
-25.355183069
 20
20.7460565382
  0
LINE
  5
229
100
AcDbEntity
  8
RACCORDO
100
AcDbLine
 62
250
  6
CONTINUOUS
 10
-23.9438174243
 20
20.6144012833
 11
-22.2211542221
 21
21.4170802305
  0
LINE
  5
22A
100
AcDbEntity
  8
RACCORDO
100
AcDbLine
 62
250
  6
CONTINUOUS
 10
-23.8016654811
 20
20.3718559116
 11
-22.0950374457
 21
21.1670632354
  0
LWPOLYLINE
  5
22B
100
AcDbEntity
  8
RACCORDO
100
AcDbPolyline
 62
250
  6
CONTINUOUS
 90
16
 70
0
 10
-22.09503745
 20
21.1670629617
 10
-22.071596996
 20
21.1771704002
 10
-22.0465316274
 20
21.1858694855
 10
-22.0200828276
 20
21.1930823135
 10
-21.9925153403
 20
21.1987455518
 10
-21.9640849253
 20
21.202808979
 10
-21.9350331489
 20
21.2052304012
 10
-21.9056868723
 20
21.2059826051
 10
-21.8762797398
 20
21.2050613317
 10
-21.846919998
 20
21.2024476381
 10
-21.8177518139
 20
21.1981030574
 10
-21.7892376474
 20
21.1920498171
 10
-21.7619458188
 20
21.184401715
 10
-21.7362217815
 20
21.175278426
 10
-21.712218128
 20
21.164753966
 10
-21.6901572622
 20
21.1529382682
  0
LWPOLYLINE
  5
22C
100
AcDbEntity
  8
RACCORDO
100
AcDbPolyline
 62
7
  6
CONTINUOUS
 90
3
 70
0
 10
-19.0072181365
 20
22.2397868311
 10
-19.0194216159
 20
22.234596213
 10
-19.0319015347
 20
22.2280505401
  0
LWPOLYLINE
  5
22D
100
AcDbEntity
  8
RACCORDO
100
AcDbPolyline
 62
250
  6
CONTINUOUS
 90
16
 70
0
 10
-22.2211542221
 20
21.4170802305
 10
-22.1813889051
 20
21.4336853824
 10
-22.1397532244
 20
21.447778827
 10
-22.0962471798
 20
21.4593605643
 10
-22.0504367526
 20
21.4684942447
 10
-22.0027559615
 20
21.4751162178
 10
-21.9545068633
 20
21.4790355323
 10
-21.9057406212
 20
21.4802082807
 10
-21.8564060719
 20
21.4786783704
 10
-21.8076517824
 20
21.4743865732
 10
-21.7592404165
 20
21.4672012435
 10
-21.7114093103
 20
21.4572540268
 10
-21.6660190395
 20
21.4448806313
 10
-21.6236897962
 20
21.4301929596
 10
-21.5838013883
 20
21.413079109
 10
-21.5463538159
 20
21.3935390796
  0
LINE
  5
22E
100
AcDbEntity
  8
DRAFT
100
AcDbLine
 62
7
  6
CONTINUOUS
 10
-19.4867976582
 20
21.9605126087
 11
-19.8881731234
 21
21.7982400977
  0
LINE
  5
22F
100
AcDbEntity
  8
DRAFT
100
AcDbLine
 62
7
  6
CONTINUOUS
 10
-25.6074346384
 20
20.6768357083
 11
-25.579552439
 21
20.6848385727
  0
LWPOLYLINE
  5
230
100
AcDbEntity
  8
ASSI
100
AcDbPolyline
 62
7
  6
CONTINUOUS
 90
14
 70
0
 10
-35.6594120951
 20
-16.2470466144
 10
-35.6546375152
 20
-16.3131662555
 10
-35.6449891831
 20
-16.3786844728
 10
-35.6308282477
 20
-16.4411351999
 10
-35.6124796128
 20
-16.5002358713
 10
-35.590191999
 20
-16.5560178797
 10
-35.5640951294
 20
-16.6087004102
 10
-35.5345078237
 20
-16.6580217935
 10
-35.5017015524
 20
-16.7038653593
 10
-35.4656316891
 20
-16.7464702307
 10
-35.4265832858
 20
-16.7855821316
 10
-35.3848472831
 20
-16.8210287085
 10
-35.340260389
 20
-16.8529760296
 10
-35.3079568198
 20
-16.8728582962
  0
LWPOLYLINE
  5
231
100
AcDbEntity
  8
ASSI
100
AcDbPolyline
 62
7
  6
CONTINUOUS
 90
10
 70
0
 10
-35.6594418627
 20
18.076053593
 10
-35.7794440273
 20
14.2387378753
 10
-35.8710752047
 20
10.35678155
 10
-35.9321617462
 20
6.4921919748
 10
-35.9626949868
 20
2.645354532
 10
-35.9626728698
 20
-1.1834124153
 10
-35.9320946105
 20
-4.9938155481
 10
-35.8709606288
 20
-8.7855385717
 10
-35.7792779567
 20
-12.5582060422
 10
-35.6594144466
 20
-16.247077983
  0
LWPOLYLINE
  5
232
100
AcDbEntity
  8
ASSI
100
AcDbPolyline
 62
250
  6
CONTINUOUS
 90
31
 70
0
 10
-35.5129896191
 20
17.8717424247
 10
-35.5106986927
 20
17.9130971579
 10
-35.5067224617
 20
17.9552753787
 10
-35.5010689683
 20
17.9981760687
 10
-35.4937503171
 20
18.0416974243
 10
-35.4847826995
 20
18.0857338108
 10
-35.4741867465
 20
18.1301759091
 10
-35.4619868527
 20
18.1749181879
 10
-35.4482117284
 20
18.2198510642
 10
-35.4328955375
 20
18.264857736
 10
-35.4160757997
 20
18.3098280727
 10
-35.3977928674
 20
18.3546546064
 10
-35.3780918478
 20
18.3992246101
 10
-35.3570217414
 20
18.4434292704
 10
-35.3346332942
 20
18.4871628254
 10
-35.3109796208
 20
18.5303185294
 10
-35.2861187029
 20
18.5727916112
 10
-35.2601111911
 20
18.6144800023
 10
-35.2330185309
 20
18.655283441
 10
-35.2049065167
 20
18.6951044051
 10
-35.1758440923
 20
18.7338455438
 10
-35.1459011821
 20
18.7714104832
 10
-35.1151512536
 20
18.8077080193
 10
-35.0836692936
 20
18.8426512667
 10
-35.0515305585
 20
18.8761550784
 10
-35.0188142422
 20
18.9081384608
 10
-34.9855997294
 20
18.9385246929
 10
-34.951964615
 20
18.9672403763
 10
-34.9179898759
 20
18.9942161116
 10
-34.8837597316
 20
19.0193868777
 10
-34.8493578418
 20
19.0426919608
  0
LINE
  5
233
100
AcDbEntity
  8
RACCORDO
100
AcDbLine
 62
7
  6
CONTINUOUS
 10
-18.0900137671
 20
18.968140047
 11
-19.5265163917
 21
18.0114056048
  0
LINE
  5
234
100
AcDbEntity
  8
RACCORDO
100
AcDbLine
 62
250
  6
CONTINUOUS
 10
-17.9766806076
 20
18.9663742571
 11
-19.4221665814
 21
18.0036567562
  0
LWPOLYLINE
  5
235
100
AcDbEntity
  8
RACCORDO
100
AcDbPolyline
 62
250
  6
CONTINUOUS
 90
13
 70
0
 10
-18.006189765
 20
19.3494927253
 10
-18.0244627937
 20
19.3379440254
 10
-18.0424713834
 20
19.323832797
 10
-18.0599142032
 20
19.3073951503
 10
-18.0764993882
 20
19.2889061224
 10
-18.0919494205
 20
19.2686750789
 10
-18.1060057736
 20
19.2470405393
 10
-18.1184332439
 20
19.2243645042
 10
-18.1290238816
 20
19.2010264041
 10
-18.1376004695
 20
19.1774167559
 10
-18.1440194945
 20
19.1539306165
 10
-18.1481735467
 20
19.1309609719
 10
-18.1499931142
 20
19.1088921693
  0
LINE
  5
236
100
AcDbEntity
  8
RACCORDO
100
AcDbLine
 62
7
  6
CONTINUOUS
 10
-18.8734182204
 20
17.68681633
 11
-16.2228299017
 21
19.1794187618
  0
LINE
  5
237
100
AcDbEntity
  8
DRAFT
100
AcDbLine
 62
7
  6
CONTINUOUS
 10
-18.5318224772
 20
17.2282380839
 11
-17.278078045
 21
17.9275068672
  0
LWPOLYLINE
  5
238
100
AcDbEntity
  8
DRAFT
100
AcDbPolyline
 62
7
  6
CONTINUOUS
 90
3
 70
0
 10
-17.278078045
 20
17.9275068672
 10
-16.0389157194
 20
18.6154569146
 10
-15.7313976724
 20
18.7856547628
  0
LWPOLYLINE
  5
239
100
AcDbEntity
  8
ASSI
100
AcDbPolyline
 62
250
  6
CONTINUOUS
 90
14
 70
0
 10
-35.6591757623
 20
-16.251865546
 10
-35.657259379
 20
-16.2690920433
 10
-35.6536967304
 20
-16.2861852079
 10
-35.6484996047
 20
-16.3030884786
 10
-35.641685199
 20
-16.3197459211
 10
-35.6332760621
 20
-16.3361024158
 10
-35.6233000196
 20
-16.3521038389
 10
-35.611790083
 20
-16.3676972404
 10
-35.5987843387
 20
-16.3828310216
 10
-35.5843258229
 20
-16.3974551048
 10
-35.5684623803
 20
-16.4115210978
 10
-35.5512465039
 20
-16.424982456
 10
-35.532735161
 20
-16.4377946361
 10
-35.5129896062
 20
-16.4499152429
  0
LINE
  5
23A
100
AcDbEntity
  8
ASSI
100
AcDbLine
 62
250
  6
CONTINUOUS
 10
-35.6594144466
 20
-16.247077983
 11
-35.6591757623
 21
-16.251865546
  0
LWPOLYLINE
  5
23B
100
AcDbEntity
  8
ASSI
100
AcDbPolyline
 62
250
  6
CONTINUOUS
 90
16
 70
0
 10
-35.5129896191
 20
-16.449915251
 10
-35.589406659
 20
-14.2085835277
 10
-35.6549115172
 20
-11.9602589716
 10
-35.7095020829
 20
-9.7050122665
 10
-35.7531766025
 20
-7.4429126153
 10
-35.7859336387
 20
-5.174032813
 10
-35.807772155
 20
-2.8984492945
 10
-35.8186915237
 20
-0.6162379209
 10
-35.8186914865
 20
1.6725337977
 10
-35.8077720469
 20
3.967801667
 10
-35.7859334701
 20
6.2694979769
 10
-35.753176391
 20
8.5775460352
 10
-35.7095018567
 20
10.8918678984
 10
-35.6549113152
 20
13.2123890041
 10
-35.5894065292
 20
15.5390382216
 10
-35.5129896191
 20
17.8717424247
  0
LWPOLYLINE
  5
23C
100
AcDbEntity
  8
ASSI
100
AcDbPolyline
 62
250
  6
CONTINUOUS
 90
15
 70
0
 10
-35.6594506104
 20
18.0757979014
 10
-35.6591721986
 20
18.0602248801
 10
-35.6572555661
 20
18.044324979
 10
-35.6536926939
 20
18.0284721248
 10
-35.6484953746
 20
18.0127187733
 10
-35.6416808089
 20
17.9971170512
 10
-35.6332715492
 20
17.9817185839
 10
-35.623295424
 20
17.9665743234
 10
-35.6117854457
 20
17.9517343795
 10
-35.5987797028
 20
17.9372478564
 10
-35.5843212328
 20
17.9231626884
 10
-35.5684578778
 20
17.9095254797
 10
-35.5512421293
 20
17.8963813536
 10
-35.5327309555
 20
17.8837738035
 10
-35.5129856101
 20
17.871744546
  0
LINE
  5
23D
100
AcDbEntity
  8
DRAFT
100
AcDbLine
 62
7
  6
CONTINUOUS
 10
-15.5335297434
 20
19.2839235866
 11
-15.252483617
 21
19.5156727498
  0
LINE
  5
23E
100
AcDbEntity
  8
RACCORDO
100
AcDbLine
 62
7
  6
CONTINUOUS
 10
-15.5311630065
 20
18.4518338665
 11
-14.2794109601
 21
19.484022045
  0
LINE
  5
23F
100
AcDbEntity
  8
DRAFT
100
AcDbLine
 62
7
  6
CONTINUOUS
 10
-18.0108009366
 20
16.5055023417
 11
-15.2513234941
 21
18.1309872028
  0
LINE
  5
240
100
AcDbEntity
  8
RACCORDO
100
AcDbLine
 62
7
  6
CONTINUOUS
 10
-15.1233813563
 20
17.9523876126
 11
-13.3750472852
 21
18.9618537935
  0
LINE
  5
241
100
AcDbEntity
  8
RACCORDO
100
AcDbLine
 62
7
  6
CONTINUOUS
 10
-15.1187478637
 20
17.9459195334
 11
-13.3504683384
 21
18.9490837342
  0
LWPOLYLINE
  5
242
100
AcDbEntity
  8
RACCORDO
100
AcDbPolyline
 62
7
  6
CONTINUOUS
 90
10
 70
0
 10
-13.3750472852
 20
18.9618537935
 10
-13.3625673664
 20
18.9683994664
 10
-13.350363887
 20
18.9735900845
 10
-13.338436847
 20
18.9774256478
 10
-13.3266985632
 20
18.9799142327
 10
-13.3152367187
 20
18.9810477627
 10
-13.3043143637
 20
18.9808020092
 10
-13.2940191815
 20
18.9791688959
 10
-13.2842634886
 20
18.9761564991
 10
-13.2750472852
 20
18.9717648187
  0
LWPOLYLINE
  5
243
100
AcDbEntity
  8
RACCORDO
100
AcDbPolyline
 62
7
  6
CONTINUOUS
 90
9
 70
0
 10
-13.3504683384
 20
18.9490837342
 10
-13.3381372192
 20
18.9554343387
 10
-13.326083046
 20
18.9604587872
 10
-13.314305819
 20
18.9641570797
 10
-13.3027224221
 20
18.9665369624
 10
-13.2914159713
 20
18.9675906891
 10
-13.2806358146
 20
18.9672950213
 10
-13.2704650679
 20
18.9656422128
 10
-13.2608206153
 20
18.9626400099
  0
LWPOLYLINE
  5
244
100
AcDbEntity
  8
ASSI
100
AcDbPolyline
 62
250
  6
CONTINUOUS
 90
28
 70
0
 10
-4.7530879372
 20
-34.2102969609
 10
-4.7321746691
 20
-34.2216522429
 10
-4.7101617102
 20
-34.232238268
 10
-4.687121901
 20
-34.2420200057
 10
-4.6631314776
 20
-34.2509650879
 10
-4.6382698266
 20
-34.259043913
 10
-4.6126192227
 20
-34.2662297451
 10
-4.5862645447
 20
-34.2724988057
 10
-4.5592930012
 20
-34.27783035
 10
-4.5317938501
 20
-34.2822067344
 10
-4.5038580874
 20
-34.2856134779
 10
-4.4755781541
 20
-34.2880393081
 10
-4.4470476381
 20
-34.2894761982
 10
-4.4183609463
 20
-34.2899193949
 10
-4.389613006
 20
-34.2893674331
 10
-4.36089896
 20
-34.2878221418
 10
-4.3323138214
 20
-34.2852886372
 10
-4.3039521803
 20
-34.281775306
 10
-4.2759079057
 20
-34.2772937803
 10
-4.248273794
 20
-34.2718588947
 10
-4.2211412837
 20
-34.2654886381
 10
-4.1946001724
 20
-34.2582041002
 10
-4.1687382788
 20
-34.2500293922
 10
-4.1436411728
 20
-34.2409915703
 10
-4.1193919108
 20
-34.231120554
 10
-4.0960707282
 20
-34.2204490164
 10
-4.0737547764
 20
-34.2090122737
 10
-4.0525178853
 20
-34.1968481758
  0
LWPOLYLINE
  5
245
100
AcDbEntity
  8
ASSI
100
AcDbPolyline
 62
7
  6
CONTINUOUS
 90
14
 70
0
 10
-4.5450291113
 20
-34.6349865372
 10
-4.518501459
 20
-34.649530854
 10
-4.4662940375
 20
-34.673876033
 10
-4.4123141913
 20
-34.6936538334
 10
-4.3563631275
 20
-34.7089180983
 10
-4.2987879677
 20
-34.7195066496
 10
-4.2399862846
 20
-34.7252988302
 10
-4.1797269465
 20
-34.7262069198
 10
-4.1182718527
 20
-34.7220368892
 10
-4.0560479447
 20
-34.7126431979
 10
-3.9929449031
 20
-34.6978182849
 10
-3.9290788523
 20
-34.6773124005
 10
-3.8648909577
 20
-34.6509612864
 10
-3.8365641299
 20
-34.637444785
  0
LINE
  5
246
100
AcDbEntity
  8
ASSI
100
AcDbLine
 62
7
  6
CONTINUOUS
 10
-4.5448283939
 20
-34.6351134857
 11
-35.3083344604
 21
-16.8726506402
  0
LINE
  5
247
100
AcDbEntity
  8
ASSI
100
AcDbLine
 62
250
  6
CONTINUOUS
 10
-4.7530879448
 20
-34.2102969656
 11
-35.5129896191
 21
-16.449915251
  0
LINE
  5
248
100
AcDbEntity
  8
ASSI
100
AcDbLine
 62
250
  6
CONTINUOUS
 10
-35.3083341353
 20
-16.8726508279
 11
-35.310979618
 21
-16.8711068217
  0
LWPOLYLINE
  5
249
100
AcDbEntity
  8
ASSI
100
AcDbPolyline
 62
250
  6
CONTINUOUS
 90
16
 70
0
 10
-35.310979618
 20
-16.8711068217
 10
-35.3346332913
 20
-16.855746515
 10
-35.3570217385
 20
-16.8383231059
 10
-35.3780918449
 20
-16.8188781437
 10
-35.3977928646
 20
-16.7974582402
 10
-35.416075797
 20
-16.7741161741
 10
-35.4328955349
 20
-16.7489103747
 10
-35.4482117258
 20
-16.7219017898
 10
-35.4619868503
 20
-16.6931571453
 10
-35.4741867442
 20
-16.6627513477
 10
-35.4847826972
 20
-16.6307603599
 10
-35.4937503149
 20
-16.5972620094
 10
-35.5010689666
 20
-16.5623407447
 10
-35.5067224607
 20
-16.5260831546
 10
-35.5106986923
 20
-16.4885774129
 10
-35.5129896191
 20
-16.449915251
  0
LINE
  5
24A
100
AcDbEntity
  8
DRAFT
100
AcDbLine
 62
7
  6
CONTINUOUS
 10
-15.4121240408
 20
14.7901911465
 11
-10.7679236059
 21
17.5242071459
  0
LINE
  5
24B
100
AcDbEntity
  8
RACCORDO
100
AcDbLine
 62
7
  6
CONTINUOUS
 10
-11.3204005022
 20
17.7769480083
 11
-13.9515431472
 21
16.2333024584
  0
LWPOLYLINE
  5
24C
100
AcDbEntity
  8
ASSI
100
AcDbPolyline
 62
250
  6
CONTINUOUS
 90
16
 70
0
 10
-4.54503021
 20
-34.6349968672
 10
-4.5714706818
 20
-34.618026824
 10
-4.5942532304
 20
-34.6003921076
 10
-4.6156949123
 20
-34.580750517
 10
-4.6357445273
 20
-34.559148789
 10
-4.6543534458
 20
-34.5356392277
 10
-4.6714750326
 20
-34.5102801379
 10
-4.6870679485
 20
-34.4831332209
 10
-4.7010951888
 20
-34.4542637479
 10
-4.7135222992
 20
-34.4237421116
 10
-4.724319302
 20
-34.39164277
 10
-4.7334606811
 20
-34.3580428452
 10
-4.7409243096
 20
-34.3230222677
 10
-4.7466920057
 20
-34.2866651314
 10
-4.7507498468
 20
-34.2490597284
 10
-4.7530879448
 20
-34.2102969656
  0
LINE
  5
24D
100
AcDbEntity
  8
DRAFT
100
AcDbLine
 62
7
  6
CONTINUOUS
 10
-9.6975320617
 20
11.4906573584
 11
-9.6696498623
 21
11.4986602228
  0
LINE
  5
24E
100
AcDbEntity
  8
RACCORDO
100
AcDbLine
 62
250
  6
CONTINUOUS
 10
-13.4013166387
 20
13.6291761538
 11
-10.209520084
 21
16.1989473556
  0
LINE
  5
24F
100
AcDbEntity
  8
RACCORDO
100
AcDbLine
 62
7
  6
CONTINUOUS
 10
-13.3354388607
 20
13.5911391505
 11
-10.2596907618
 21
16.0674777119
  0
LWPOLYLINE
  5
250
100
AcDbEntity
  8
RACCORDO
100
AcDbPolyline
 62
7
  6
CONTINUOUS
 90
12
 70
0
 10
-5.904562898
 20
13.2217807121
 10
-5.8943846773
 20
13.2276967048
 10
-5.8855262289
 20
13.233294973
 10
-5.8780487495
 20
13.2385597184
 10
-5.8720572338
 20
13.2435259313
 10
-5.8675637611
 20
13.2481411975
 10
-5.8644806607
 20
13.252289439
 10
-5.862883958
 20
13.2560122651
 10
-5.862777496
 20
13.2593374089
 10
-5.8639498994
 20
13.2621615736
 10
-5.8664130998
 20
13.2645239297
 10
-5.8674468894
 20
13.265174886
  0
LWPOLYLINE
  5
251
100
AcDbEntity
  8
RACCORDO
100
AcDbPolyline
 62
7
  6
CONTINUOUS
 90
12
 70
0
 10
-5.1187164704
 20
14.2060890606
 10
-5.1106165586
 20
14.210671964
 10
-5.103225258
 20
14.2149596695
 10
-5.0965822779
 20
14.2189319304
 10
-5.0907245127
 20
14.222561809
 10
-5.0856851212
 20
14.225819163
 10
-5.0815146955
 20
14.2287011417
 10
-5.078239528
 20
14.2311860821
 10
-5.0758524681
 20
14.2332311848
 10
-5.0743718246
 20
14.2348296903
 10
-5.0738444313
 20
14.2360020823
 10
-5.0743009464
 20
14.2367592673
  0
LINE
  5
252
100
AcDbEntity
  8
DRAFT
100
AcDbLine
 62
7
  6
CONTINUOUS
 10
-8.9242589517
 20
11.6809513154
 11
-6.1147459413
 21
13.2331205782
  0
LINE
  5
253
100
AcDbEntity
  8
RACCORDO
100
AcDbLine
 62
7
  6
CONTINUOUS
 10
-8.5826632086
 20
11.7450633597
 11
-5.904562898
 21
13.2217807121
  0
LINE
  5
254
100
AcDbEntity
  8
DRAFT
100
AcDbLine
 62
7
  6
CONTINUOUS
 10
-9.9060933915
 20
11.6110780564
 11
-5.0968830579
 21
14.2498194083
  0
LINE
  5
255
100
AcDbEntity
  8
RACCORDO
100
AcDbLine
 62
7
  6
CONTINUOUS
 10
-7.8476840322
 20
12.7090107047
 11
-5.1187164704
 21
14.2060890606
  0
LINE
  5
256
100
AcDbEntity
  8
DRAFT
100
AcDbLine
 62
7
  6
CONTINUOUS
 10
-9.4452804923
 20
11.5598781884
 11
-6.5832046461
 21
13.126124017
  0
LWPOLYLINE
  5
257
100
AcDbEntity
  8
DRAFT
100
AcDbPolyline
 62
7
  6
CONTINUOUS
 90
22
 70
0
 10
-9.0232709989
 20
11.3842073595
 10
-9.0358534239
 20
11.377653423
 10
-9.0526400538
 20
11.3708504467
 10
-9.0702107455
 20
11.3657888072
 10
-9.088574697
 20
11.3624885436
 10
-9.1077227103
 20
11.3609296168
 10
-9.1274342691
 20
11.3611306437
 10
-9.1477159988
 20
11.3631120236
 10
-9.1685612739
 20
11.3668533572
 10
-9.1897297013
 20
11.372312064
 10
-9.211225156
 20
11.3795081474
 10
-9.2330437631
 20
11.3884216041
 10
-9.2549335049
 20
11.3989498423
 10
-9.276895219
 20
11.4111116756
 10
-9.2989280677
 20
11.4248882905
 10
-9.3207775214
 20
11.4401206552
 10
-9.3424414549
 20
11.4568257348
 10
-9.3639219933
 20
11.4749865643
 10
-9.3849709817
 20
11.494393217
 10
-9.4055057018
 20
11.5149757175
 10
-9.4256088721
 20
11.5368040413
 10
-9.4452804923
 20
11.5598781884
  0
LINE
  5
258
100
AcDbEntity
  8
RACCORDO
100
AcDbLine
 62
250
  6
CONTINUOUS
 10
-8.0339148476
 20
11.4282229335
 11
-6.3112516454
 21
12.2309018807
  0
LINE
  5
259
100
AcDbEntity
  8
RACCORDO
100
AcDbLine
 62
250
  6
CONTINUOUS
 10
-7.8917629044
 20
11.1856775618
 11
-6.185134869
 21
11.9808848855
  0
LWPOLYLINE
  5
25A
100
AcDbEntity
  8
RACCORDO
100
AcDbPolyline
 62
250
  6
CONTINUOUS
 90
16
 70
0
 10
-6.1851348733
 20
11.9808846119
 10
-6.1616944193
 20
11.9909920503
 10
-6.1366290507
 20
11.9996911356
 10
-6.1101802509
 20
12.0069039637
 10
-6.0826127636
 20
12.0125672019
 10
-6.0541823486
 20
12.0166306291
 10
-6.0251305722
 20
12.0190520513
 10
-5.9957842956
 20
12.0198042552
 10
-5.9663771631
 20
12.0188829818
 10
-5.9370174213
 20
12.0162692882
 10
-5.9078492372
 20
12.0119247076
 10
-5.8793350707
 20
12.0058714672
 10
-5.8520432421
 20
11.9982233652
 10
-5.8263192048
 20
11.9891000761
 10
-5.8023155513
 20
11.9785756161
 10
-5.7802546855
 20
11.9667599184
  0
LWPOLYLINE
  5
25B
100
AcDbEntity
  8
RACCORDO
100
AcDbPolyline
 62
7
  6
CONTINUOUS
 90
3
 70
0
 10
-3.0973155598
 20
13.0536084813
 10
-3.1095190392
 20
13.0484178631
 10
-3.121998958
 20
13.0418721902
  0
LWPOLYLINE
  5
25C
100
AcDbEntity
  8
RACCORDO
100
AcDbPolyline
 62
250
  6
CONTINUOUS
 90
16
 70
0
 10
-6.3112516454
 20
12.2309018807
 10
-6.2714863284
 20
12.2475070325
 10
-6.2298506477
 20
12.2616004771
 10
-6.1863446031
 20
12.2731822144
 10
-6.1405341759
 20
12.2823158948
 10
-6.0928533848
 20
12.2889378679
 10
-6.0446042866
 20
12.2928571824
 10
-5.9958380445
 20
12.2940299308
 10
-5.9465034952
 20
12.2925000206
 10
-5.8977492057
 20
12.2882082233
 10
-5.8493378398
 20
12.2810228936
 10
-5.8015067336
 20
12.271075677
 10
-5.7561164628
 20
12.2587022814
 10
-5.7137872195
 20
12.2440146097
 10
-5.6738988116
 20
12.2269007592
 10
-5.6364512392
 20
12.2073607298
  0
LINE
  5
25D
100
AcDbEntity
  8
DRAFT
100
AcDbLine
 62
7
  6
CONTINUOUS
 10
-3.5768950815
 20
12.7743342589
 11
-3.9782705467
 21
12.6120617478
  0
LWPOLYLINE
  5
25E
100
AcDbEntity
  8
RACCORDO
100
AcDbPolyline
 62
7
  6
CONTINUOUS
 90
8
 70
0
 10
-18.0607105249
 20
18.9932305649
 10
-18.0600970461
 20
18.9949156778
 10
-18.0602137152
 20
18.9948168796
 10
-18.0621783688
 20
18.9920781694
 10
-18.0667240428
 20
18.9869405407
 10
-18.0742797563
 20
18.9799096071
 10
-18.085017592
 20
18.9715794105
 10
-18.0898142551
 20
18.9682724986
  0
LWPOLYLINE
  5
25F
100
AcDbEntity
  8
RACCORDO
100
AcDbPolyline
 62
250
  6
CONTINUOUS
 90
13
 70
0
 10
-5.6364513315
 20
12.207360783
 10
-5.6547244428
 20
12.1958120246
 10
-5.6727330945
 20
12.1817007301
 10
-5.6901759534
 20
12.1652630194
 10
-5.7067611535
 20
12.1467739396
 10
-5.7222111799
 20
12.1265428627
 10
-5.7362675121
 20
12.1049083091
 10
-5.7486949498
 20
12.082232283
 10
-5.7592855486
 20
12.0588942154
 10
-5.7678620992
 20
12.0352846148
 10
-5.774281093
 20
12.0117985335
 10
-5.7784351228
 20
11.9888289566
 10
-5.7802546806
 20
11.9667602269
  0
LINE
  5
260
100
AcDbEntity
  8
RACCORDO
100
AcDbLine
 62
7
  6
CONTINUOUS
 10
-4.3013495744
 20
12.360929925
 11
-3.9804560618
 21
12.5462098175
  0
LINE
  5
261
100
AcDbEntity
  8
RACCORDO
100
AcDbLine
 62
7
  6
CONTINUOUS
 10
-3.5790111142
 20
12.7779990989
 11
-3.121998958
 21
13.0418721902
  0
LINE
  5
262
100
AcDbEntity
  8
RACCORDO
100
AcDbLine
 62
7
  6
CONTINUOUS
 10
-7.8795956865
 20
10.4410036794
 11
-6.1951650613
 21
11.3531222686
  0
LWPOLYLINE
  5
263
100
AcDbEntity
  8
DRAFT
100
AcDbPolyline
 62
7
  6
CONTINUOUS
 90
17
 70
0
 10
-24.8341615284
 20
20.8671296653
 10
-24.8313247609
 20
20.8401042621
 10
-24.8298507388
 20
20.8139268486
 10
-24.8297394623
 20
20.7885974248
 10
-24.8310007813
 20
20.7640346545
 10
-24.8336248458
 20
20.7403198739
 10
-24.8375821054
 20
20.7176970913
 10
-24.8428883184
 20
20.6961657692
 10
-24.8495277264
 20
20.6757264452
 10
-24.8574235049
 20
20.6566247408
 10
-24.8665901176
 20
20.6388795082
 10
-24.8770131008
 20
20.6224718951
 10
-24.8885722376
 20
20.6075909665
 10
-24.9012805128
 20
20.5942544378
 10
-24.9151249417
 20
20.5824445934
 10
-24.9299463542
 20
20.5722973514
 10
-24.9331735756
 20
20.5703857094
  0
LINE
  5
264
100
AcDbEntity
  8
RACCORDO
100
AcDbLine
 62
7
  6
CONTINUOUS
 10
-23.8016654811
 20
20.3718559116
 11
-23.7894982632
 21
19.6271820293
  0
LINE
  5
265
100
AcDbEntity
  8
RACCORDO
100
AcDbLine
 62
250
  6
CONTINUOUS
 10
-22.105067638
 20
20.5393006185
 11
-22.0950374457
 21
21.1670632354
  0
LINE
  5
266
100
AcDbEntity
  8
RACCORDO
100
AcDbLine
 62
250
  6
CONTINUOUS
 10
-21.6999311144
 20
20.5412192883
 11
-21.6901572573
 21
21.1529385768
  0
LINE
  5
267
100
AcDbEntity
  8
RACCORDO
100
AcDbLine
 62
7
  6
CONTINUOUS
 10
2.1111511841
 20
-23.5078036372
 11
3.1383325301
 21
-24.1008852728
  0
LINE
  5
268
100
AcDbEntity
  8
RACCORDO
100
AcDbLine
 62
7
  6
CONTINUOUS
 10
-19.5643185245
 20
17.9252648853
 11
-19.5764857424
 21
17.1946414013
  0
LINE
  5
269
100
AcDbEntity
  8
DRAFT
100
AcDbLine
 62
7
  6
CONTINUOUS
 10
-19.8881731234
 20
21.7982400977
 11
-19.9024256617
 21
21.3687957304
  0
LINE
  5
26A
100
AcDbEntity
  8
RACCORDO
100
AcDbLine
 62
7
  6
CONTINUOUS
 10
-2.1801111904
 20
9.7819616971
 11
-3.616613815
 21
8.825227255
  0
LINE
  5
26B
100
AcDbEntity
  8
RACCORDO
100
AcDbLine
 62
250
  6
CONTINUOUS
 10
-2.0667780309
 20
9.7801959072
 11
-3.5122640047
 21
8.8174784064
  0
LWPOLYLINE
  5
26C
100
AcDbEntity
  8
RACCORDO
100
AcDbPolyline
 62
250
  6
CONTINUOUS
 90
13
 70
0
 10
-2.0962871883
 20
10.1633143755
 10
-2.114560217
 20
10.1517656755
 10
-2.1325688067
 20
10.1376544471
 10
-2.1500116265
 20
10.1212168005
 10
-2.1665968115
 20
10.1027277725
 10
-2.1820468438
 20
10.082496729
 10
-2.1961031969
 20
10.0608621895
 10
-2.2085306672
 20
10.0381861543
 10
-2.2191213049
 20
10.0148480542
 10
-2.2276978928
 20
9.991238406
 10
-2.2341169178
 20
9.9677522666
 10
-2.23827097
 20
9.9447826221
 10
-2.2400905375
 20
9.9227138194
  0
LINE
  5
26D
100
AcDbEntity
  8
DRAFT
100
AcDbLine
 62
7
  6
CONTINUOUS
 10
-2.1008983599
 20
7.3193239919
 11
0.6585790826
 21
8.944808853
  0
LINE
  5
26E
100
AcDbEntity
  8
RACCORDO
100
AcDbLine
 62
7
  6
CONTINUOUS
 10
0.7865212204
 20
8.7662092627
 11
2.5348552915
 21
9.7756754436
  0
LINE
  5
26F
100
AcDbEntity
  8
RACCORDO
100
AcDbLine
 62
7
  6
CONTINUOUS
 10
0.791154713
 20
8.7597411835
 11
2.5594342383
 21
9.7629053843
  0
LINE
  5
270
100
AcDbEntity
  8
RACCORDO
100
AcDbLine
 62
7
  6
CONTINUOUS
 10
-2.9635156437
 20
8.5006379801
 11
-0.312927325
 21
9.9932404119
  0
LINE
  5
271
100
AcDbEntity
  8
DRAFT
100
AcDbLine
 62
7
  6
CONTINUOUS
 10
-2.6219199005
 20
8.0420597341
 11
-1.3681754683
 21
8.7413285173
  0
LWPOLYLINE
  5
272
100
AcDbEntity
  8
DRAFT
100
AcDbPolyline
 62
7
  6
CONTINUOUS
 90
3
 70
0
 10
-1.3681754683
 20
8.7413285173
 10
-0.1290131427
 20
9.4292785647
 10
0.1785049043
 20
9.5994764129
  0
LWPOLYLINE
  5
273
100
AcDbEntity
  8
RACCORDO
100
AcDbPolyline
 62
7
  6
CONTINUOUS
 90
10
 70
0
 10
2.5348552915
 20
9.7756754436
 10
2.5473352103
 20
9.7822211165
 10
2.5595386897
 20
9.7874117346
 10
2.5714657297
 20
9.791247298
 10
2.5832040135
 20
9.7937358828
 10
2.594665858
 20
9.7948694128
 10
2.605588213
 20
9.7946236593
 10
2.6158833952
 20
9.792990546
 10
2.6256390881
 20
9.7899781492
 10
2.6348552915
 20
9.7855864688
  0
LWPOLYLINE
  5
274
100
AcDbEntity
  8
RACCORDO
100
AcDbPolyline
 62
7
  6
CONTINUOUS
 90
9
 70
0
 10
2.5594342383
 20
9.7629053843
 10
2.5717653575
 20
9.7692559888
 10
2.5838195307
 20
9.7742804373
 10
2.5955967577
 20
9.7779787298
 10
2.6071801546
 20
9.7803586125
 10
2.6184866054
 20
9.7814123392
 10
2.6292667621
 20
9.7811166714
 10
2.6394375088
 20
9.779463863
 10
2.6490819614
 20
9.7764616601
  0
LINE
  5
275
100
AcDbEntity
  8
RACCORDO
100
AcDbLine
 62
7
  6
CONTINUOUS
 10
5.4777811744
 20
-23.3160699537
 11
5.4888611254
 21
-23.3224673786
  0
LINE
  5
276
100
AcDbEntity
  8
RACCORDO
100
AcDbLine
 62
250
  6
CONTINUOUS
 10
-18.0620787965
 20
18.9888131305
 11
-18.0621487516
 21
18.9850193573
  0
LINE
  5
277
100
AcDbEntity
  8
RACCORDO
100
AcDbLine
 62
250
  6
CONTINUOUS
 10
-18.0621487516
 20
18.9850193573
 11
-18.0621709475
 21
18.9844763845
  0
LINE
  5
278
100
AcDbEntity
  8
RACCORDO
100
AcDbLine
 62
250
  6
CONTINUOUS
 10
-18.1581242195
 20
18.9227773622
 11
-18.1499931142
 21
19.1088921693
  0
LINE
  5
279
100
AcDbEntity
  8
DRAFT
100
AcDbLine
 62
7
  6
CONTINUOUS
 10
0.3763728333
 20
10.0977452367
 11
0.6574189597
 21
10.3294943999
  0
LINE
  5
27A
100
AcDbEntity
  8
RACCORDO
100
AcDbLine
 62
7
  6
CONTINUOUS
 10
4.5895020745
 20
8.5907696584
 11
1.9583594295
 21
7.0471241085
  0
LINE
  5
27B
100
AcDbEntity
  8
RACCORDO
100
AcDbLine
 62
250
  6
CONTINUOUS
 10
-18.0635432634
 20
19.0054988594
 11
-18.0620787965
 21
18.9888131305
  0
LINE
  5
27C
100
AcDbEntity
  8
DRAFT
100
AcDbLine
 62
7
  6
CONTINUOUS
 10
-15.5335297434
 20
19.2839235866
 11
-15.5311630065
 21
18.4518338665
  0
LINE
  5
27D
100
AcDbEntity
  8
RACCORDO
100
AcDbLine
 62
7
  6
CONTINUOUS
 10
0.3787395702
 20
9.2656555166
 11
1.6304916166
 21
10.2978436951
  0
LINE
  5
27E
100
AcDbEntity
  8
ASSI
100
AcDbLine
 62
250
  6
CONTINUOUS
 10
-4.0777704442
 20
1.275563056
 11
1.7578669182
 21
4.8764535573
  0
LINE
  5
27F
100
AcDbEntity
  8
DRAFT
100
AcDbLine
 62
7
  6
CONTINUOUS
 10
0.4977785359
 20
5.6040127966
 11
5.1419789708
 21
8.338028796
  0
LINE
  5
280
100
AcDbEntity
  8
ASSI
100
AcDbLine
 62
250
  6
CONTINUOUS
 10
-3.7119377042
 20
0.6709022177
 11
2.1111511841
 21
4.2640496605
  0
LINE
  5
281
100
AcDbEntity
  8
RACCORDO
100
AcDbLine
 62
7
  6
CONTINUOUS
 10
-10.209520084
 20
16.1989473556
 11
-10.209520084
 21
17.2018553731
  0
LINE
  5
282
100
AcDbEntity
  8
RACCORDO
100
AcDbLine
 62
250
  6
CONTINUOUS
 10
2.1111511841
 20
4.1230161361
 11
5.7003824927
 21
7.0127690058
  0
LINE
  5
283
100
AcDbEntity
  8
RACCORDO
100
AcDbLine
 62
7
  6
CONTINUOUS
 10
2.1111511841
 20
4.0319397821
 11
5.6502118149
 21
6.881299362
  0
LWPOLYLINE
  5
284
100
AcDbEntity
  8
RACCORDO
100
AcDbPolyline
 62
7
  6
CONTINUOUS
 90
8
 70
0
 10
-2.1508079482
 20
9.807052215
 10
-2.1501944694
 20
9.8087373279
 10
-2.1503111385
 20
9.8086385297
 10
-2.1522757921
 20
9.8058998196
 10
-2.1568214661
 20
9.8007621908
 10
-2.1643771796
 20
9.7937312573
 10
-2.1751150153
 20
9.7854010607
 10
-2.1799116784
 20
9.7820941487
  0
LWPOLYLINE
  5
285
100
AcDbEntity
  8
DRAFT
100
AcDbPolyline
 62
7
  6
CONTINUOUS
 90
17
 70
0
 10
-8.9242589517
 20
11.6809513154
 10
-8.9214221842
 20
11.6539259122
 10
-8.9199481621
 20
11.6277484988
 10
-8.9198368856
 20
11.6024190749
 10
-8.9210982046
 20
11.5778563046
 10
-8.9237222691
 20
11.554141524
 10
-8.9276795287
 20
11.5315187415
 10
-8.9329857417
 20
11.5099874194
 10
-8.9396251497
 20
11.4895480953
 10
-8.9475209282
 20
11.4704463909
 10
-8.956687541
 20
11.4527011583
 10
-8.9671105241
 20
11.4362935453
 10
-8.978669661
 20
11.4214126166
 10
-8.9913779361
 20
11.4080760879
 10
-9.005222365
 20
11.3962662436
 10
-9.0200437775
 20
11.3861190015
 10
-9.0232709989
 20
11.3842073595
  0
LWPOLYLINE
  5
286
100
AcDbEntity
  8
ASSI
100
AcDbPolyline
 62
250
  6
CONTINUOUS
 90
16
 70
0
 10
-4.7530879448
 20
-34.2102969656
 10
-4.8322173121
 20
-31.9674023967
 10
-4.9000471128
 20
-29.7177380508
 10
-4.9565752263
 20
-27.4613746052
 10
-5.0017999335
 20
-25.1983811391
 10
-5.0357197422
 20
-22.9288305586
 10
-5.058333475
 20
-20.6527996471
 10
-5.0696404558
 20
-18.3703643224
 10
-5.0696404637
 20
-16.0815920314
 10
-5.0583334981
 20
-13.7865471417
 10
-5.0357197782
 20
-11.4852974147
 10
-5.0017999788
 20
-9.177919488
 10
-4.9565752747
 20
-6.8644913219
 10
-4.9000471559
 20
-4.5450874841
 10
-4.8322173397
 20
-2.2197790983
 10
-4.7530879448
 20
0.1113607101
  0
LINE
  5
287
100
AcDbEntity
  8
RACCORDO
100
AcDbLine
 62
7
  6
CONTINUOUS
 10
-7.8917629044
 20
11.1856775618
 11
-7.8795956865
 21
10.4410036794
  0
LINE
  5
288
100
AcDbEntity
  8
RACCORDO
100
AcDbLine
 62
250
  6
CONTINUOUS
 10
-6.1951650613
 20
11.3531222686
 11
-6.185134869
 21
11.9808848855
  0
LINE
  5
289
100
AcDbEntity
  8
RACCORDO
100
AcDbLine
 62
250
  6
CONTINUOUS
 10
-5.7900285377
 20
11.3550409384
 11
-5.7802546806
 21
11.9667602269
  0
LWPOLYLINE
  5
28A
100
AcDbEntity
  8
ASSI
100
AcDbPolyline
 62
250
  6
CONTINUOUS
 90
16
 70
0
 10
-4.0525178853
 20
-34.1968481758
 10
-4.1315619744
 20
-31.9564768199
 10
-4.1993179505
 20
-29.7093513415
 10
-4.2557858136
 20
-27.4554717406
 10
-4.3009685964
 20
-25.194736039
 10
-4.3348632663
 20
-22.9272462149
 10
-4.3574607246
 20
-20.6533082027
 10
-4.3687579387
 20
-18.3729245695
 10
-4.3687579412
 20
-16.0860927482
 10
-4.3574607316
 20
-13.7931109722
 10
-4.3348632777
 20
-11.4939733036
 10
-4.3009686117
 20
-9.1886856803
 10
-4.2557858299
 20
-6.8775641493
 10
-4.1993179642
 20
-4.5607140598
 10
-4.1315619827
 20
-2.2380300626
 10
-4.0525178853
 20
0.0904878422
  0
LINE
  5
28B
100
AcDbEntity
  8
RACCORDO
100
AcDbLine
 62
7
  6
CONTINUOUS
 10
-3.6544159478
 20
8.7390865355
 11
-3.6665831657
 21
8.0084630514
  0
LINE
  5
28C
100
AcDbEntity
  8
DRAFT
100
AcDbLine
 62
7
  6
CONTINUOUS
 10
-3.9782705467
 20
12.6120617478
 11
-3.992523085
 21
12.1826173805
  0
LINE
  5
28D
100
AcDbEntity
  8
RACCORDO
100
AcDbLine
 62
250
  6
CONTINUOUS
 10
-2.2482216428
 20
9.7365990124
 11
-2.2400905375
 21
9.9227138194
  0
LWPOLYLINE
  5
28E
100
AcDbEntity
  8
ASSI
100
AcDbPolyline
 62
250
  6
CONTINUOUS
 90
31
 70
0
 10
-4.7530879448
 20
0.1113607101
 10
-4.7507498468
 20
0.15277635
 10
-4.7466920058
 20
0.1949866671
 10
-4.7409243098
 20
0.237889336
 10
-4.7334606813
 20
0.2813795194
 10
-4.7243193019
 20
0.3253525953
 10
-4.7135222989
 20
0.3697044843
 10
-4.7010951885
 20
0.4143284281
 10
-4.6870679482
 20
0.4591155221
 10
-4.6714750324
 20
0.5039575009
 10
-4.6543534457
 20
0.548746032
 10
-4.6357445274
 20
0.5933720058
 10
-4.6156949125
 20
0.6377261681
 10
-4.5942532306
 20
0.6816999639
 10
-4.5714706819
 20
0.7251876263
 10
-4.5474028268
 20
0.7680854363
 10
-4.5221073368
 20
0.8102892503
 10
-4.4956450045
 20
0.8516965465
 10
-4.4680803246
 20
0.8922084412
 10
-4.4394786913
 20
0.9317270492
 10
-4.4099093616
 20
0.9701556075
 10
-4.3794463886
 20
1.0074005504
 10
-4.3481632688
 20
1.0433711352
 10
-4.3161348059
 20
1.0779801613
 10
-4.283440076
 20
1.1111441535
 10
-4.2501582485
 20
1.1427816802
 10
-4.216368629
 20
1.1728167478
 10
-4.1821525362
 20
1.2011793215
 10
-4.1475921135
 20
1.2278010764
 10
-4.1127702241
 20
1.2526158969
 10
-4.0777704442
 20
1.275563056
  0
LWPOLYLINE
  5
28F
100
AcDbEntity
  8
ASSI
100
AcDbPolyline
 62
250
  6
CONTINUOUS
 90
28
 70
0
 10
-4.0525178853
 20
0.0904878422
 10
-4.05118985
 20
0.1132564765
 10
-4.0488043226
 20
0.1364629818
 10
-4.0453613033
 20
0.1601073583
 10
-4.0408480089
 20
0.1842836574
 10
-4.0352772224
 20
0.2088978276
 10
-4.0286872931
 20
0.2336677148
 10
-4.0210588613
 20
0.2585932352
 10
-4.0124112866
 20
0.2836744727
 10
-4.0028409963
 20
0.3086295246
 10
-3.9923460396
 20
0.3334350602
 10
-3.9809283674
 20
0.3581144101
 10
-3.9686902596
 20
0.3824556644
 10
-3.95562884
 20
0.4064510957
 10
-3.941746985
 20
0.4301084313
 10
-3.9271556028
 20
0.4532389427
 10
-3.9118464626
 20
0.4758443776
 10
-3.8958277953
 20
0.4979229884
 10
-3.8792352023
 20
0.5192808033
 10
-3.8620472331
 20
0.5399274836
 10
-3.8442853382
 20
0.559853368
 10
-3.82614947
 20
0.578835501
 10
-3.807630095
 20
0.5968573934
 10
-3.7887367467
 20
0.6139355344
 10
-3.7696979782
 20
0.6298964361
 10
-3.7505899738
 20
0.6446822692
 10
-3.7313365491
 20
0.6583508631
 10
-3.7119377042
 20
0.6709022177
  0
LWPOLYLINE
  5
290
100
AcDbEntity
  8
ASSI
100
AcDbPolyline
 62
250
  6
CONTINUOUS
 90
28
 70
0
 10
-4.7530720344
 20
0.1113691264
 10
-4.7321597824
 20
0.0999231273
 10
-4.7101479297
 20
0.0891330272
 10
-4.6871093026
 20
0.0790345313
 10
-4.6631201286
 20
0.0696610576
 10
-4.6382597743
 20
0.0610436232
 10
-4.6126104821
 20
0.0532107422
 10
-4.5862571144
 20
0.0461883367
 10
-4.559286866
 20
0.039999648
 10
-4.5317889639
 20
0.0346651569
 10
-4.5038543893
 20
0.0302025206
 10
-4.4755755718
 20
0.0266265118
 10
-4.447046075
 20
0.0239489692
 10
-4.418360293
 20
0.0221787594
 10
-4.3896131485
 20
0.0213217472
 10
-4.3608997734
 20
0.0213807756
 10
-4.3323151739
 20
0.0223556556
 10
-4.3039539412
 20
0.0242431674
 10
-4.2759099485
 20
0.0270370687
 10
-4.2482759925
 20
0.0307281183
 10
-4.2211435166
 20
0.0353041059
 10
-4.1946023318
 20
0.0407498872
 10
-4.1687402621
 20
0.0470474429
 10
-4.1436428866
 20
0.0541759351
 10
-4.1193932805
 20
0.0621117667
 10
-4.096071692
 20
0.0708286726
 10
-4.0737552797
 20
0.0802978094
 10
-4.0525178854
 20
0.0904878423
  0
LINE
  5
291
100
AcDbEntity
  8
ASSI
100
AcDbLine
 62
250
  6
CONTINUOUS
 10
-35.5129896191
 20
17.8717424247
 11
-4.7530879448
 21
0.1113607101
  0
LINE
  5
292
100
AcDbEntity
  8
ASSI
100
AcDbLine
 62
250
  6
CONTINUOUS
 10
-34.8493578418
 20
19.0426919608
 11
-4.0777704442
 21
1.275563056
  0
LWPOLYLINE
  5
293
100
AcDbEntity
  8
ASSI
100
AcDbPolyline
 62
250
  6
CONTINUOUS
 90
28
 70
0
 10
-4.0777704442
 20
1.275563056
 10
-4.0575544249
 20
1.2628031902
 10
-4.0373441848
 20
1.2487446978
 10
-4.0172080304
 20
1.2334350918
 10
-3.9972140152
 20
1.216926112
 10
-3.9774297175
 20
1.1992735555
 10
-3.9579220117
 20
1.1805370898
 10
-3.9387568304
 20
1.1607800409
 10
-3.9199989475
 20
1.1400691827
 10
-3.9017117658
 20
1.1184745197
 10
-3.8839570924
 20
1.0960690387
 10
-3.8667949335
 20
1.0729284655
 10
-3.850283296
 20
1.0491310151
 10
-3.8344779835
 20
1.0247571163
 10
-3.8194324153
 20
0.9998891504
 10
-3.8051974473
 20
0.974611178
 10
-3.7918211873
 20
0.9490086315
 10
-3.779348843
 20
0.9231680448
 10
-3.7678225737
 20
0.8971767726
 10
-3.7572813311
 20
0.8711226604
 10
-3.7477607366
 20
0.8450937635
 10
-3.7392929674
 20
0.8191780687
 10
-3.7319066351
 20
0.7934631634
 10
-3.7256266959
 20
0.7680359539
 10
-3.7204743689
 20
0.7429823872
 10
-3.7164670586
 20
0.7183871368
 10
-3.7136182976
 20
0.6943333176
 10
-3.7119377042
 20
0.6709022177
  0
LINE
  5
294
100
AcDbEntity
  8
DRAFT
100
AcDbLine
 62
7
  6
CONTINUOUS
 10
-18.8734182204
 20
17.68681633
 11
-18.7210199431
 21
17.4836782392
  0
LWPOLYLINE
  5
295
100
AcDbEntity
  8
DRAFT
100
AcDbPolyline
 62
7
  6
CONTINUOUS
 90
3
 70
0
 10
-18.7210199431
 20
17.4836782392
 10
-18.5695456182
 20
17.2794599836
 10
-18.5318224772
 20
17.2282380839
  0
LINE
  5
296
100
AcDbEntity
  8
DRAFT
100
AcDbLine
 62
7
  6
CONTINUOUS
 10
-18.0108009366
 20
16.5055023417
 11
-17.8702972709
 21
16.3055754974
  0
LINE
  5
297
100
AcDbEntity
  8
DRAFT
100
AcDbLine
 62
7
  6
CONTINUOUS
 10
-17.8702972709
 20
16.3055754974
 11
-17.7585493672
 21
16.1449877223
  0
LINE
  5
298
100
AcDbEntity
  8
RACCORDO
100
AcDbLine
 62
250
  6
CONTINUOUS
 10
-2.1536406867
 20
9.8193205095
 11
-2.1521762198
 21
9.8026347806
  0
LINE
  5
299
100
AcDbEntity
  8
RACCORDO
100
AcDbLine
 62
250
  6
CONTINUOUS
 10
-2.1521762198
 20
9.8026347806
 11
-2.1522461749
 21
9.7988410074
  0
LINE
  5
29A
100
AcDbEntity
  8
RACCORDO
100
AcDbLine
 62
250
  6
CONTINUOUS
 10
-2.1522461749
 20
9.7988410074
 11
-2.1522683708
 21
9.7982980346
  0
LWPOLYLINE
  5
29B
100
AcDbEntity
  8
DRAFT
100
AcDbPolyline
 62
7
  6
CONTINUOUS
 90
37
 70
0
 10
-2.1008983599
 20
7.3193239919
 10
-2.1205699394
 20
7.3189662975
 10
-2.1406726465
 20
7.3203525214
 10
-2.1612064814
 20
7.3234826637
 10
-2.182254027
 20
7.3283822732
 10
-2.2037327003
 20
7.3350258011
 10
-2.2253947525
 20
7.3433366006
 10
-2.2472422775
 20
7.3533339513
 10
-2.2692731813
 20
7.3649985737
 10
-2.2912334334
 20
7.3781959825
 10
-2.3131222987
 20
7.3929439897
 10
-2.3349405123
 20
7.4092247833
 10
-2.3564362485
 20
7.4268504432
 10
-2.3776058205
 20
7.4458366625
 10
-2.3984529151
 20
7.4661677481
 10
-2.4187367677
 20
7.4876087002
 10
-2.4384507979
 20
7.5101724282
 10
-2.457601586
 20
7.5338460228
 10
-2.4759681089
 20
7.5583557559
 10
-2.4935411032
 20
7.5837111138
 10
-2.5103298322
 20
7.6099026103
 10
-2.5261410627
 20
7.6366280578
 10
-2.5409634189
 20
7.6638934504
 10
-2.5548082765
 20
7.6916927942
 10
-2.5675165299
 20
7.7197059203
 10
-2.5790750856
 20
7.7479353025
 10
-2.5894970371
 20
7.776378467
 10
-2.5986625592
 20
7.8047078242
 10
-2.6065572294
 20
7.8329254044
 10
-2.6131954702
 20
7.8610291772
 10
-2.618500724
 20
7.8886854616
 10
-2.622457342
 20
7.9158755797
 10
-2.6250809729
 20
7.9426182095
 10
-2.6263420053
 20
7.9686357044
 10
-2.6262305688
 20
7.9938355158
 10
-2.6247565339
 20
8.0183101923
 10
-2.6219199005
 20
8.0420597341
  0
LWPOLYLINE
  5
29C
100
AcDbEntity
  8
RACCORDO
100
AcDbPolyline
 62
7
  6
CONTINUOUS
 90
12
 70
0
 10
-15.8771003709
 20
18.9798143678
 10
-15.8941522196
 20
19.0015224006
 10
-15.9114534935
 20
19.0221306799
 10
-15.9289516623
 20
19.041606163
 10
-15.946598463
 20
19.0599064013
 10
-15.964326295
 20
19.0770404848
 10
-15.9820698815
 20
19.0930473748
 10
-15.9997571614
 20
19.107881854
 10
-16.01737539
 20
19.1215610638
 10
-16.0349920121
 20
19.1341716159
 10
-16.0526586953
 20
19.1457164436
 10
-16.064855343
 20
19.1530307236
  0
LINE
  5
29D
100
AcDbEntity
  8
DRAFT
100
AcDbLine
 62
7
  6
CONTINUOUS
 10
0.3763728333
 20
10.0977452367
 11
0.3787395702
 21
9.2656555166
  0
LINE
  5
29E
100
AcDbEntity
  8
DRAFT
100
AcDbLine
 62
7
  6
CONTINUOUS
 10
-9.6696498623
 20
11.4986602228
 11
-9.6137759539
 21
11.5144322594
  0
LINE
  5
29F
100
AcDbEntity
  8
DRAFT
100
AcDbLine
 62
7
  6
CONTINUOUS
 10
-9.6137759539
 20
11.5144322594
 11
-9.5577558589
 21
11.5298927539
  0
LINE
  5
2A0
100
AcDbEntity
  8
DRAFT
100
AcDbLine
 62
7
  6
CONTINUOUS
 10
-9.5577558589
 20
11.5298927539
 11
-9.5015906183
 21
11.5450414207
  0
LINE
  5
2A1
100
AcDbEntity
  8
DRAFT
100
AcDbLine
 62
7
  6
CONTINUOUS
 10
-9.5015906183
 20
11.5450414207
 11
-9.4452804923
 21
11.5598781884
  0
LINE
  5
2A2
100
AcDbEntity
  8
DRAFT
100
AcDbLine
 62
7
  6
CONTINUOUS
 10
-8.9242589517
 20
11.6809513154
 11
-8.8487545338
 21
11.6961375172
  0
LINE
  5
2A3
100
AcDbEntity
  8
DRAFT
100
AcDbLine
 62
7
  6
CONTINUOUS
 10
-8.8487545338
 20
11.6961375172
 11
-8.7730173713
 21
11.7107872683
  0
LINE
  5
2A4
100
AcDbEntity
  8
DRAFT
100
AcDbLine
 62
7
  6
CONTINUOUS
 10
-8.7730173713
 20
11.7107872683
 11
-8.6970480666
 21
11.7249004555
  0
LWPOLYLINE
  5
2A5
100
AcDbEntity
  8
DRAFT
100
AcDbPolyline
 62
7
  6
CONTINUOUS
 90
3
 70
0
 10
-8.6970480666
 20
11.7249004555
 10
-8.6208490283
 20
11.7384766267
 10
-8.5826632086
 20
11.7450633597
  0
LINE
  5
2A6
100
AcDbEntity
  8
RACCORDO
100
AcDbLine
 62
7
  6
CONTINUOUS
 10
0.6574189597
 20
10.3294943999
 11
1.678741265
 21
10.3376301024
  0
LINE
  5
2A7
100
AcDbEntity
  8
ASSI
100
AcDbLine
 62
7
  6
CONTINUOUS
 10
2.1111511841
 20
4.2640496605
 11
2.1111511841
 21
-31.4969747612
  0
LWPOLYLINE
  5
2A8
100
AcDbEntity
  8
RACCORDO
100
AcDbPolyline
 62
250
  6
CONTINUOUS
 90
8
 70
0
 10
-2.0667779471
 20
9.780195963
 10
-2.086574959
 20
9.7884320098
 10
-2.1060820125
 20
9.7937744674
 10
-2.1249727021
 20
9.7961339421
 10
-2.1429309358
 20
9.7954709535
 10
-2.1596562239
 20
9.7917965953
 10
-2.1748687074
 20
9.7851723495
 10
-2.1799116796
 20
9.7820941479
  0
LINE
  5
2A9
100
AcDbEntity
  8
DRAFT
100
AcDbLine
 62
7
  6
CONTINUOUS
 10
-29.2139483471
 20
22.7591915235
 11
-23.7894982632
 21
19.6271820293
  0
LINE
  5
2AA
100
AcDbEntity
  8
DRAFT
100
AcDbLine
 62
7
  6
CONTINUOUS
 10
-19.5764857424
 20
17.1946414013
 11
-7.8795956865
 21
10.4410036794
  0
LINE
  5
2AB
100
AcDbEntity
  8
DRAFT
100
AcDbLine
 62
7
  6
CONTINUOUS
 10
-3.6665831657
 20
8.0084630514
 11
1.7578669182
 21
4.8764535573
  0
LINE
  5
2AC
100
AcDbEntity
  8
RACCORDO
100
AcDbLine
 62
7
  6
CONTINUOUS
 10
-24.4925657853
 20
20.9312417095
 11
-23.9438174243
 21
20.6144012833
  0
LINE
  5
2AD
100
AcDbEntity
  8
RACCORDO
100
AcDbLine
 62
7
  6
CONTINUOUS
 10
-19.4221665814
 20
18.0036567562
 11
-18.8734182204
 21
17.68681633
  0
LINE
  5
2AE
100
AcDbEntity
  8
RACCORDO
100
AcDbLine
 62
7
  6
CONTINUOUS
 10
-8.5826632086
 20
11.7450633597
 11
-8.0339148476
 21
11.4282229335
  0
LINE
  5
2AF
100
AcDbEntity
  8
RACCORDO
100
AcDbLine
 62
7
  6
CONTINUOUS
 10
-3.5122640047
 20
8.8174784064
 11
-2.9635156437
 21
8.5006379801
  0
LINE
  5
2B0
100
AcDbEntity
  8
RACCORDO
100
AcDbLine
 62
7
  6
CONTINUOUS
 10
-21.6999311144
 20
20.5412192883
 11
-18.5011768388
 21
18.6942986594
  0
LINE
  5
2B1
100
AcDbEntity
  8
RACCORDO
100
AcDbLine
 62
7
  6
CONTINUOUS
 10
-5.7900285377
 20
11.3550409384
 11
-2.5912742621
 21
9.5081203095
  0
LWPOLYLINE
  5
2B2
100
AcDbEntity
  8
RACCORDO
100
AcDbPolyline
 62
250
  6
CONTINUOUS
 90
13
 70
0
 10
-22.2211542221
 20
21.4170802305
 10
-22.2045797155
 20
21.404315839
 10
-22.1883238257
 20
21.3890092595
 10
-22.1726585567
 20
21.3714166034
 10
-22.1578460302
 20
21.3518322342
 10
-22.1441341029
 20
21.330583846
 10
-22.1317522174
 20
21.3080269814
 10
-22.1209075591
 20
21.2845390743
 10
-22.1117815925
 20
21.2605131402
 10
-22.1045270262
 20
21.2363512059
 10
-22.0992652521
 20
21.2124575698
 10
-22.0960843158
 20
21.1892320366
 10
-22.0950374461
 20
21.1670632352
  0
LINE
  5
2B3
100
AcDbEntity
  8
DRAFT
100
AcDbLine
 62
7
  6
CONTINUOUS
 10
-2.9635156437
 20
8.5006379801
 11
-2.8111173664
 21
8.2974998893
  0
LWPOLYLINE
  5
2B4
100
AcDbEntity
  8
DRAFT
100
AcDbPolyline
 62
7
  6
CONTINUOUS
 90
3
 70
0
 10
-2.8111173664
 20
8.2974998893
 10
-2.6596430415
 20
8.0932816337
 10
-2.6219199005
 20
8.0420597341
  0
LINE
  5
2B5
100
AcDbEntity
  8
DRAFT
100
AcDbLine
 62
7
  6
CONTINUOUS
 10
-2.1008983599
 20
7.3193239919
 11
-1.9603946942
 21
7.1193971476
  0
LINE
  5
2B6
100
AcDbEntity
  8
DRAFT
100
AcDbLine
 62
7
  6
CONTINUOUS
 10
-1.9603946942
 20
7.1193971476
 11
-1.8486467905
 21
6.9588093725
  0
LINE
  5
2B7
100
AcDbEntity
  8
RACCORDO
100
AcDbLine
 62
7
  6
CONTINUOUS
 10
5.7003824927
 20
-23.6925630945
 11
5.7003824927
 21
-24.695471112
  0
LINE
  5
2B8
100
AcDbEntity
  8
RACCORDO
100
AcDbLine
 62
7
  6
CONTINUOUS
 10
5.7003824927
 20
7.0127690058
 11
5.7003824927
 21
8.0156770232
  0
LINE
  5
2B9
100
AcDbEntity
  8
RACCORDO
100
AcDbLine
 62
7
  6
CONTINUOUS
 10
-3.5768950815
 20
12.7743342589
 11
-2.148727644
 21
12.547562681
  0
LWPOLYLINE
  5
2BA
100
AcDbEntity
  8
RACCORDO
100
AcDbPolyline
 62
250
  6
CONTINUOUS
 90
8
 70
0
 10
-17.9766805238
 20
18.9663743129
 10
-17.9964775357
 20
18.9746103597
 10
-18.0159845892
 20
18.9799528173
 10
-18.0348752788
 20
18.982312292
 10
-18.0528335125
 20
18.9816493034
 10
-18.0695588006
 20
18.9779749452
 10
-18.0847712841
 20
18.9713506993
 10
-18.0898142563
 20
18.9682724978
  0
LINE
  5
2BB
100
AcDbEntity
  8
RACCORDO
100
AcDbLine
 62
7
  6
CONTINUOUS
 10
2.6490819614
 20
9.7764616601
 11
2.6582001198
 21
9.7721100627
  0
LWPOLYLINE
  5
2BC
100
AcDbEntity
  8
RACCORDO
100
AcDbPolyline
 62
7
  6
CONTINUOUS
 90
12
 70
0
 10
-5.8674468894
 20
13.265174886
 10
-5.8701978495
 20
13.2664900327
 10
-5.8751231787
 20
13.2679851445
 10
-5.8811749787
 20
13.2690316306
 10
-5.8884078416
 20
13.2696874235
 10
-5.8967765119
 20
13.2698816209
 10
-5.9063364387
 20
13.2696232259
 10
-5.9171154377
 20
13.268933628
 10
-5.9290677831
 20
13.2677175345
 10
-5.9422215875
 20
13.2659491791
 10
-5.9566588243
 20
13.2636922438
 10
-5.9724290807
 20
13.2609812995
  0
LWPOLYLINE
  5
2BD
100
AcDbEntity
  8
RACCORDO
100
AcDbPolyline
 62
7
  6
CONTINUOUS
 90
12
 70
0
 10
-0.1549527663
 20
9.9668523737
 10
-0.1603818689
 20
9.9699329356
 10
-0.1778541509
 20
9.9790820996
 10
-0.1952172676
 20
9.986961766
 10
-0.2123854975
 20
9.9934888624
 10
-0.22905335
 20
9.9984678136
 10
-0.2451854351
 20
10.0018512936
 10
-0.2607376516
 20
10.003615886
 10
-0.2753752924
 20
10.0036374765
 10
-0.2889451723
 20
10.001889688
 10
-0.3014829268
 20
9.9984184509
 10
-0.312927325
 20
9.9932404119
  0
LWPOLYLINE
  5
2BE
100
AcDbEntity
  8
RACCORDO
100
AcDbPolyline
 62
7
  6
CONTINUOUS
 90
12
 70
0
 10
-16.064855343
 20
19.1530307236
 10
-16.0702844456
 20
19.1561112855
 10
-16.0877567276
 20
19.1652604495
 10
-16.1051198443
 20
19.1731401159
 10
-16.1222880742
 20
19.1796672123
 10
-16.1389559267
 20
19.1846461634
 10
-16.1550880118
 20
19.1880296435
 10
-16.1706402282
 20
19.1897942358
 10
-16.1852778691
 20
19.1898158263
 10
-16.198847749
 20
19.1880680379
 10
-16.2113855035
 20
19.1845968008
 10
-16.2228299017
 20
19.1794187618
  0
LINE
  5
2BF
100
AcDbEntity
  8
RACCORDO
100
AcDbLine
 62
250
  6
CONTINUOUS
 10
-21.6901572573
 20
21.1529385768
 11
-18.1499931142
 21
19.1088921693
  0
LINE
  5
2C0
100
AcDbEntity
  8
RACCORDO
100
AcDbLine
 62
250
  6
CONTINUOUS
 10
-5.7802546806
 20
11.9667602269
 11
-2.2400905375
 21
9.9227138194
  0
LINE
  5
2C1
100
AcDbEntity
  8
RACCORDO
100
AcDbLine
 62
250
  6
CONTINUOUS
 10
-21.5463538159
 20
21.3935390796
 11
-18.006189765
 21
19.3494927253
  0
LINE
  5
2C2
100
AcDbEntity
  8
RACCORDO
100
AcDbLine
 62
250
  6
CONTINUOUS
 10
-5.6364512392
 20
12.2073607298
 11
-2.0962871883
 21
10.1633143755
  0
LINE
  5
2C3
100
AcDbEntity
  8
DRAFT
100
AcDbLine
 62
7
  6
CONTINUOUS
 10
-15.6710700698
 20
18.5326144514
 11
-15.5311630065
 21
18.4518338665
  0
LINE
  5
2C4
100
AcDbEntity
  8
DRAFT
100
AcDbLine
 62
7
  6
CONTINUOUS
 10
0.2388325069
 20
9.3464361015
 11
0.3787395702
 21
9.2656555166
  0
LINE
  5
2C5
100
AcDbEntity
  8
RACCORDO
100
AcDbLine
 62
250
  6
CONTINUOUS
 10
-0.312927325
 20
9.9932404119
 11
-5.904562898
 21
13.2217807121
  0
LINE
  5
2C6
100
AcDbEntity
  8
RACCORDO
100
AcDbLine
 62
250
  6
CONTINUOUS
 10
-16.2228299017
 20
19.1794187618
 11
-21.8144654747
 21
22.4079590619
  0
LINE
  5
2C7
100
AcDbEntity
  8
RACCORDO
100
AcDbLine
 62
7
  6
CONTINUOUS
 10
-0.215390636
 20
10.0017484431
 11
-5.867466984
 21
13.2651864893
  0
LINE
  5
2C8
100
AcDbEntity
  8
RACCORDO
100
AcDbLine
 62
7
  6
CONTINUOUS
 10
-16.1252932127
 20
19.187926793
 11
-21.7773695607
 21
22.4513648392
  0
LINE
  5
2C9
100
AcDbEntity
  8
DRAFT
100
AcDbLine
 62
7
  6
CONTINUOUS
 10
-19.8881731234
 20
21.7982400977
 11
-15.5335297434
 21
19.2839235866
  0
LINE
  5
2CA
100
AcDbEntity
  8
DRAFT
100
AcDbLine
 62
7
  6
CONTINUOUS
 10
-3.9782705467
 20
12.6120617478
 11
0.3763728333
 21
10.0977452367
  0
LINE
  5
2CB
100
AcDbEntity
  8
DRAFT
100
AcDbLine
 62
7
  6
CONTINUOUS
 10
-3.5768950815
 20
12.7743342589
 11
0.6574189597
 21
10.3294943999
  0
LINE
  5
2CC
100
AcDbEntity
  8
DRAFT
100
AcDbLine
 62
7
  6
CONTINUOUS
 10
-15.252483617
 20
19.5156727498
 11
-19.4867976582
 21
21.9605126087
  0
LWPOLYLINE
  5
2CD
100
AcDbEntity
  8
RACCORDO
100
AcDbPolyline
 62
250
  6
CONTINUOUS
 90
8
 70
0
 10
-18.149993126
 20
19.1088918999
 10
-18.1302217858
 20
19.0965768501
 10
-18.1126849873
 20
19.0832089878
 10
-18.0975502029
 20
19.0689223272
 10
-18.084965733
 20
19.0538672056
 10
-18.0750454042
 20
19.0381840874
 10
-18.0678773243
 20
19.0220004176
 10
-18.0635432634
 20
19.0054988594
  0
LWPOLYLINE
  5
2CE
100
AcDbEntity
  8
RACCORDO
100
AcDbPolyline
 62
250
  6
CONTINUOUS
 90
8
 70
0
 10
-2.2400905493
 20
9.92271355
 10
-2.2203192091
 20
9.9103985002
 10
-2.2027824106
 20
9.8970306379
 10
-2.1876476262
 20
9.8827439773
 10
-2.1750631563
 20
9.8676888558
 10
-2.1651428275
 20
9.8520057375
 10
-2.1579747476
 20
9.8358220677
 10
-2.1536406867
 20
9.8193205095
  0
LWPOLYLINE
  5
2CF
100
AcDbEntity
  8
RACCORDO
100
AcDbPolyline
 62
250
  6
CONTINUOUS
 90
16
 70
0
 10
-18.006189765
 20
19.3494927253
 10
-17.9728561441
 20
19.3281626132
 10
-17.943736745
 20
19.3056011881
 10
-17.9188315678
 20
19.2818084502
 10
-17.8979833227
 20
19.2565435144
 10
-17.8813492995
 20
19.2300472657
 10
-17.8694013677
 20
19.203042359
 10
-17.8622218978
 20
19.1755546153
 10
-17.8597285193
 20
19.1475582136
 10
-17.86214599
 20
19.1196983457
 10
-17.8696806202
 20
19.0918316489
 10
-17.8821260997
 20
19.0641014861
 10
-17.8990882554
 20
19.0375831374
 10
-17.9204356965
 20
19.0126350298
 10
-17.9462998139
 20
18.9888987363
 10
-17.9766806076
 20
18.9663742571
  0
LWPOLYLINE
  5
2D0
100
AcDbEntity
  8
RACCORDO
100
AcDbPolyline
 62
250
  6
CONTINUOUS
 90
16
 70
0
 10
-2.0962871883
 20
10.1633143755
 10
-2.0629535674
 20
10.1419842633
 10
-2.0338341683
 20
10.1194228383
 10
-2.0089289911
 20
10.0956301003
 10
-1.988080746
 20
10.0703651645
 10
-1.9714467228
 20
10.0438689159
 10
-1.959498791
 20
10.0168640092
 10
-1.9523193211
 20
9.9893762654
 10
-1.9498259426
 20
9.9613798637
 10
-1.9522434133
 20
9.9335199958
 10
-1.9597780435
 20
9.9056532991
 10
-1.972223523
 20
9.8779231362
 10
-1.9891856787
 20
9.8514047875
 10
-2.0105331198
 20
9.8264566799
 10
-2.0363972372
 20
9.8027203864
 10
-2.0667780309
 20
9.7801959072
  0
LWPOLYLINE
  5
2D1
100
AcDbEntity
  8
RACCORDO
100
AcDbPolyline
 62
250
  6
CONTINUOUS
 90
13
 70
0
 10
-6.3112516454
 20
12.2309018807
 10
-6.2946771388
 20
12.2181374891
 10
-6.278421249
 20
12.2028309096
 10
-6.26275598
 20
12.1852382535
 10
-6.2479434535
 20
12.1656538844
 10
-6.2342315262
 20
12.1444054961
 10
-6.2218496407
 20
12.1218486315
 10
-6.2110049824
 20
12.0983607244
 10
-6.2018790158
 20
12.0743347903
 10
-6.1946244495
 20
12.050172856
 10
-6.1893626754
 20
12.0262792199
 10
-6.1861817391
 20
12.0030536867
 10
-6.1851348694
 20
11.9808848853
  0
LWPOLYLINE
  5
2D2
100
AcDbEntity
  8
RACCORDO
100
AcDbPolyline
 62
7
  6
CONTINUOUS
 90
12
 70
0
 10
0.0328022058
 20
9.7936360179
 10
0.0157503571
 20
9.8153440507
 10
-0.0015509168
 20
9.8359523301
 10
-0.0190490856
 20
9.8554278131
 10
-0.0366958863
 20
9.8737280514
 10
-0.0544237183
 20
9.8908621349
 10
-0.0721673048
 20
9.906869025
 10
-0.0898545847
 20
9.9217035041
 10
-0.1074728133
 20
9.9353827139
 10
-0.1250894354
 20
9.947993266
 10
-0.1427561187
 20
9.9595380937
 10
-0.1549527663
 20
9.9668523737
  0
LINE
  5
2D3
100
AcDbEntity
  8
RACCORDO
100
AcDbLine
 62
250
  6
CONTINUOUS
 10
5.4888611254
 20
-23.3224673786
 11
2.1111511841
 21
-24.6420946375
  0
LINE
  5
2D4
100
AcDbEntity
  8
RACCORDO
100
AcDbLine
 62
7
  6
CONTINUOUS
 10
2.1111511841
 20
-24.476381878
 11
5.3449980793
 21
-23.2942162013
  0
LINE
  5
2D5
100
AcDbEntity
  8
RACCORDO
100
AcDbLine
 62
250
  6
CONTINUOUS
 10
2.1111511841
 20
-24.5467758435
 11
5.4777811744
 21
-23.3160699537
  0
LWPOLYLINE
  5
2D6
100
AcDbEntity
  8
DRAFT
100
AcDbPolyline
 62
7
  6
CONTINUOUS
 90
37
 70
0
 10
-18.0108009366
 20
16.5055023417
 10
-18.030472516
 20
16.5051446474
 10
-18.0505752232
 20
16.5065308713
 10
-18.0711090581
 20
16.5096610136
 10
-18.0921566037
 20
16.5145606231
 10
-18.113635277
 20
16.521204151
 10
-18.1352973292
 20
16.5295149505
 10
-18.1571448542
 20
16.5395123012
 10
-18.179175758
 20
16.5511769235
 10
-18.2011360101
 20
16.5643743324
 10
-18.2230248754
 20
16.5791223395
 10
-18.244843089
 20
16.5954031332
 10
-18.2663388252
 20
16.6130287931
 10
-18.2875083972
 20
16.6320150124
 10
-18.3083554918
 20
16.652346098
 10
-18.3286393444
 20
16.6737870501
 10
-18.3483533746
 20
16.6963507781
 10
-18.3675041627
 20
16.7200243727
 10
-18.3858706856
 20
16.7445341057
 10
-18.4034436799
 20
16.7698894637
 10
-18.4202324089
 20
16.7960809601
 10
-18.4360436394
 20
16.8228064077
 10
-18.4508659956
 20
16.8500718003
 10
-18.4647108532
 20
16.877871144
 10
-18.4774191066
 20
16.9058842701
 10
-18.4889776623
 20
16.9341136523
 10
-18.4993996138
 20
16.9625568169
 10
-18.5085651359
 20
16.9908861741
 10
-18.5164598061
 20
17.0191037543
 10
-18.5230980469
 20
17.047207527
 10
-18.5284033007
 20
17.0748638115
 10
-18.5323599187
 20
17.1020539296
 10
-18.5349835496
 20
17.1287965593
 10
-18.536244582
 20
17.1548140543
 10
-18.5361331455
 20
17.1800138657
 10
-18.5346591106
 20
17.2044885422
 10
-18.5318224772
 20
17.2282380839
  0
LWPOLYLINE
  5
2D7
100
AcDbEntity
  8
RACCORDO
100
AcDbPolyline
 62
7
  6
CONTINUOUS
 90
8
 70
0
 10
-3.021998958
 20
13.0517832154
 10
-3.0312151614
 20
13.0561748958
 10
-3.0409708542
 20
13.0591872926
 10
-3.0512660365
 20
13.0608204059
 10
-3.0621883915
 20
13.0610661594
 10
-3.073650236
 20
13.0599326294
 10
-3.0853885198
 20
13.0574440446
 10
-3.0973155598
 20
13.0536084813
  0
LWPOLYLINE
  5
2D8
100
AcDbEntity
  8
RACCORDO
100
AcDbPolyline
 62
7
  6
CONTINUOUS
 90
8
 70
0
 10
-18.9319015347
 20
22.2379615653
 10
-18.9411177381
 20
22.2423532457
 10
-18.9508734309
 20
22.2453656425
 10
-18.9611686132
 20
22.2469987558
 10
-18.9720909682
 20
22.2472445093
 10
-18.9835528127
 20
22.2461109793
 10
-18.9952910965
 20
22.2436223945
 10
-19.0072181365
 20
22.2397868311
  0
LINE
  5
2D9
100
AcDbEntity
  8
RACCORDO
100
AcDbLine
 62
7
  6
CONTINUOUS
 10
-13.2608206153
 20
18.9626400099
 11
-13.2517024569
 21
18.9582884126
  0
LWPOLYLINE
  5
2DA
100
AcDbEntity
  8
RACCORDO
100
AcDbPolyline
 62
7
  6
CONTINUOUS
 90
12
 70
0
 10
-21.7773494661
 20
22.4513532359
 10
-21.7801004262
 20
22.4526683826
 10
-21.7850257554
 20
22.4541634944
 10
-21.7910775554
 20
22.4552099805
 10
-21.7983104183
 20
22.4558657734
 10
-21.8066790886
 20
22.4560599707
 10
-21.8162390154
 20
22.4558015758
 10
-21.8270180144
 20
22.4551119779
 10
-21.8389703598
 20
22.4538958844
 10
-21.8521241642
 20
22.452127529
 10
-21.866561401
 20
22.4498705937
 10
-21.8823316574
 20
22.4471596494
  0
LWPOLYLINE
  5
2DB
100
AcDbEntity
  8
RACCORDO
100
AcDbPolyline
 62
7
  6
CONTINUOUS
 90
13
 70
0
 10
4.7338469366
 20
8.5736576047
 10
4.7199036902
 20
8.5812146468
 10
4.7061500806
 20
8.587678736
 10
4.6926166994
 20
8.5930388173
 10
4.6793039282
 20
8.5973014608
 10
4.6662764948
 20
8.6004462354
 10
4.6536662373
 20
8.6024336808
 10
4.6415292853
 20
8.6032632957
 10
4.6298858236
 20
8.6029574573
 10
4.6188182485
 20
8.6015291901
 10
4.6083804411
 20
8.5990027818
 10
4.598596003
 20
8.5954065838
 10
4.5895020745
 20
8.5907696584
  0
LWPOLYLINE
  5
2DC
100
AcDbEntity
  8
RACCORDO
100
AcDbPolyline
 62
7
  6
CONTINUOUS
 90
13
 70
0
 10
-11.1760556401
 20
17.7598359546
 10
-11.1899988865
 20
17.7673929966
 10
-11.2037524961
 20
17.7738570859
 10
-11.2172858773
 20
17.7792171672
 10
-11.2305986485
 20
17.7834798106
 10
-11.2436260819
 20
17.7866245852
 10
-11.2562363394
 20
17.7886120307
 10
-11.2683732914
 20
17.7894416456
 10
-11.2800167531
 20
17.7891358071
 10
-11.2910843282
 20
17.7877075399
 10
-11.3015221356
 20
17.7851811317
 10
-11.3113065737
 20
17.7815849336
 10
-11.3204005022
 20
17.7769480083
  0
LINE
  5
2DD
100
AcDbEntity
  8
RACCORDO
100
AcDbLine
 62
250
  6
CONTINUOUS
 10
2.5348552915
 20
9.7756754436
 11
1.6304916166
 21
10.2978436951
  0
LINE
  5
2DE
100
AcDbEntity
  8
RACCORDO
100
AcDbLine
 62
250
  6
CONTINUOUS
 10
-13.3750472852
 20
18.9618537935
 11
-14.2794109601
 21
19.484022045
  0
LINE
  5
2DF
100
AcDbEntity
  8
RACCORDO
100
AcDbLine
 62
250
  6
CONTINUOUS
 10
-21.037390424
 20
23.3874162066
 11
-18.2202278129
 21
21.7594003058
  0
LINE
  5
2E0
100
AcDbEntity
  8
RACCORDO
100
AcDbLine
 62
250
  6
CONTINUOUS
 10
-13.3504683384
 20
18.9490837342
 11
-11.3204005022
 21
17.7769480083
  0
LINE
  5
2E1
100
AcDbEntity
  8
RACCORDO
100
AcDbLine
 62
250
  6
CONTINUOUS
 10
-5.1274878473
 20
14.2012378568
 11
-2.3103252362
 21
12.5732219559
  0
LINE
  5
2E2
100
AcDbEntity
  8
RACCORDO
100
AcDbLine
 62
250
  6
CONTINUOUS
 10
2.5594342383
 20
9.7629053843
 11
4.5895020745
 21
8.5907696584
  0
LINE
  5
2E3
100
AcDbEntity
  8
DRAFT
100
AcDbLine
 62
7
  6
CONTINUOUS
 10
5.1419789708
 20
8.338028796
 11
5.7003824927
 21
8.0156770232
  0
LINE
  5
2E4
100
AcDbEntity
  8
DRAFT
100
AcDbLine
 62
7
  6
CONTINUOUS
 10
-10.7679236059
 20
17.5242071459
 11
-10.209520084
 21
17.2018553731
  0
LINE
  5
2E5
100
AcDbEntity
  8
RACCORDO
100
AcDbLine
 62
7
  6
CONTINUOUS
 10
-21.0067856346
 20
23.4359977582
 11
-10.7679236059
 21
17.5242071459
  0
LINE
  5
2E6
100
AcDbEntity
  8
RACCORDO
100
AcDbLine
 62
7
  6
CONTINUOUS
 10
-5.0968830579
 20
14.2498194083
 11
5.1419789708
 21
8.338028796
  0
LINE
  5
2E7
100
AcDbEntity
  8
RACCORDO
100
AcDbLine
 62
250
  6
CONTINUOUS
 10
5.7003824927
 20
-23.6925630945
 11
2.1111511841
 21
-25.0948289953
  0
LINE
  5
2E8
100
AcDbEntity
  8
RACCORDO
100
AcDbLine
 62
7
  6
CONTINUOUS
 10
-15.252483617
 20
19.5156727498
 11
-14.2311613117
 21
19.5238084522
  0
LINE
  5
2E9
100
AcDbEntity
  8
DRAFT
100
AcDbLine
 62
7
  6
CONTINUOUS
 10
5.1419789708
 20
-25.6855643012
 11
5.7003824927
 21
-24.695471112
  0
LINE
  5
2EA
100
AcDbEntity
  8
DRAFT
100
AcDbLine
 62
7
  6
CONTINUOUS
 10
2.1111511841
 20
-27.5256095196
 11
5.1419789708
 21
-25.6855643012
  0
LINE
  5
2EB
100
AcDbEntity
  8
DRAFT
100
AcDbLine
 62
7
  6
CONTINUOUS
 10
-25.579552439
 20
20.6848385727
 11
-25.5236785306
 21
20.7006106093
  0
LINE
  5
2EC
100
AcDbEntity
  8
DRAFT
100
AcDbLine
 62
7
  6
CONTINUOUS
 10
-25.5236785306
 20
20.7006106093
 11
-25.4676584356
 21
20.7160711038
  0
LINE
  5
2ED
100
AcDbEntity
  8
DRAFT
100
AcDbLine
 62
7
  6
CONTINUOUS
 10
-25.4676584356
 20
20.7160711038
 11
-25.411493195
 21
20.7312197706
  0
LINE
  5
2EE
100
AcDbEntity
  8
DRAFT
100
AcDbLine
 62
7
  6
CONTINUOUS
 10
-25.411493195
 20
20.7312197706
 11
-25.355183069
 21
20.7460565382
  0
LINE
  5
2EF
100
AcDbEntity
  8
DRAFT
100
AcDbLine
 62
7
  6
CONTINUOUS
 10
-24.8341615284
 20
20.8671296653
 11
-24.7586571105
 21
20.8823158671
  0
LINE
  5
2F0
100
AcDbEntity
  8
DRAFT
100
AcDbLine
 62
7
  6
CONTINUOUS
 10
-24.7586571105
 20
20.8823158671
 11
-24.682919948
 21
20.8969656181
  0
LINE
  5
2F1
100
AcDbEntity
  8
DRAFT
100
AcDbLine
 62
7
  6
CONTINUOUS
 10
-24.682919948
 20
20.8969656181
 11
-24.6069506433
 21
20.9110788053
  0
LWPOLYLINE
  5
2F2
100
AcDbEntity
  8
DRAFT
100
AcDbPolyline
 62
7
  6
CONTINUOUS
 90
3
 70
0
 10
-24.6069506433
 20
20.9110788053
 10
-24.530751605
 20
20.9246549766
 10
-24.4925657853
 20
20.9312417095
  0
LINE
  5
2F3
100
AcDbEntity
  8
RACCORDO
100
AcDbLine
 62
7
  6
CONTINUOUS
 10
-19.4867976582
 20
21.9605126087
 11
-18.0586302207
 21
21.7337410308
  0
LWPOLYLINE
  5
2F4
100
AcDbEntity
  8
ASSI
100
AcDbPolyline
 62
250
  6
CONTINUOUS
 90
16
 70
0
 10
-3.8363400969
 20
-34.6373475351
 10
-3.8344779492
 20
-34.6364063327
 10
-3.8194323808
 20
-34.6277411318
 10
-3.8051974131
 20
-34.6175957765
 10
-3.7918211537
 20
-34.6060045585
 10
-3.7793488106
 20
-34.5930066579
 10
-3.7678225428
 20
-34.5786460192
 10
-3.7572813022
 20
-34.562971185
 10
-3.7477607101
 20
-34.5460351377
 10
-3.7392929436
 20
-34.5278951343
 10
-3.7319066145
 20
-34.5086124915
 10
-3.7256266788
 20
-34.4882523857
 10
-3.7204743557
 20
-34.4668836462
 10
-3.7164670494
 20
-34.4445785043
 10
-3.7136182929
 20
-34.4214123474
 10
-3.7119377042
 20
-34.3974634753
  0
LINE
  5
2F5
100
AcDbEntity
  8
ASSI
100
AcDbLine
 62
250
  6
CONTINUOUS
 10
2.1111511841
 20
-31.4969747612
 11
-3.7119377042
 21
-34.3974634753
  0
LINE
  5
2F6
100
AcDbEntity
  8
ASSI
100
AcDbLine
 62
7
  6
CONTINUOUS
 10
1.9985227487
 20
-31.7309941964
 11
-3.8363400969
 21
-34.6373475351
  0
LWPOLYLINE
  5
2F7
100
AcDbEntity
  8
ASSI
100
AcDbPolyline
 62
250
  6
CONTINUOUS
 90
28
 70
0
 10
-3.7119377042
 20
-34.3974634753
 10
-3.7313365504
 20
-34.4065448051
 10
-3.7505899763
 20
-34.4143467296
 10
-3.769697982
 20
-34.4208692488
 10
-3.7887367519
 20
-34.4261394906
 10
-3.8076301016
 20
-34.4301303271
 10
-3.8261494775
 20
-34.4327603745
 10
-3.8442853461
 20
-34.4340025124
 10
-3.862047241
 20
-34.4338838613
 10
-3.8792352099
 20
-34.4324043991
 10
-3.8958278025
 20
-34.4295498667
 10
-3.9118464691
 20
-34.4253345233
 10
-3.9271556087
 20
-34.4198011243
 10
-3.9417469905
 20
-34.4129422388
 10
-3.9556288453
 20
-34.4047652978
 10
-3.9686902646
 20
-34.3953353496
 10
-3.9809283723
 20
-34.3846414595
 10
-3.9923460443
 20
-34.3726945623
 10
-4.0028410008
 20
-34.3595925105
 10
-4.0124112907
 20
-34.3453097979
 10
-4.0210588649
 20
-34.3298719307
 10
-4.0286872961
 20
-34.3134532804
 10
-4.0352772247
 20
-34.2960321746
 10
-4.0408480104
 20
-34.2776302858
 10
-4.0453613041
 20
-34.2584870026
 10
-4.048804323
 20
-34.2386821214
 10
-4.0511898501
 20
-34.2181358457
 10
-4.0525178853
 20
-34.1968481758
  0
ELLIPSE
  5
2F8
100
AcDbEntity
  8
RACCORDO
100
AcDbEllipse
 62
7
  6
CONTINUOUS
 10
5.4781026403
 20
-23.5649752581
 30
0.0
 11
-0.1478280315
 21
0.264004509
 31
0.0
 40
0.5763243502
 41
-0.7694688804
 42
-0.0927270999
  0
ELLIPSE
  5
2F9
100
AcDbEntity
  8
ASSI
100
AcDbEllipse
 62
7
  6
CONTINUOUS
 10
-29.2136253664
 20
22.3502096602
 30
0.0
 11
-0.2498600223
 21
0.43379745
 31
0.0
 40
0.5768037941
 41
-0.7837728977
 42
0.0348934132
  0
ELLIPSE
  5
2FA
100
AcDbEntity
  8
ASSI
100
AcDbEllipse
 62
7
  6
CONTINUOUS
 10
1.7575439374
 20
-31.2924329797
 30
0.0
 11
-0.2498600223
 21
0.43379745
 31
0.0
 40
0.5768037941
 41
-3.1764860668
 42
-2.355482613
  0
ELLIPSE
  5
2FB
100
AcDbEntity
  8
ASSI
100
AcDbEllipse
 62
7
  6
CONTINUOUS
 10
1.7575439374
 20
4.4678446641
 30
0.0
 11
-0.2496303025
 21
0.4334023309
 31
0.0
 40
0.5778584463
 41
-2.3545649475
 42
-0.7846820092
  0
ELLIPSE
  5
2FC
100
AcDbEntity
  8
RACCORDO
100
AcDbEllipse
 62
7
  6
CONTINUOUS
 10
-10.421684432
 20
16.3222021557
 30
0.0
 11
-0.147984367
 21
0.2641983012
 31
0.0
 40
0.575454123
 41
-3.0447328625
 42
-2.342697354
  0
ELLIPSE
  5
2FD
100
AcDbEntity
  8
RACCORDO
100
AcDbEllipse
 62
7
  6
CONTINUOUS
 10
5.4882181447
 20
7.1360238058
 30
0.0
 11
-0.147984367
 21
0.2641983012
 31
0.0
 40
0.575454123
 41
-3.0447328625
 42
-2.342697354
  0
ELLIPSE
  5
2FE
100
AcDbEntity
  8
RACCORDO
100
AcDbEllipse
 62
7
  6
CONTINUOUS
 10
5.4882181447
 20
-23.5708158236
 30
0.0
 11
-0.1474950306
 21
0.2634225764
 31
0.0
 40
0.5789510426
 41
-2.3394837756
 42
-0.771718032
  0
ELLIPSE
  5
2FF
100
AcDbEntity
  8
DRAFT
100
AcDbEllipse
 62
7
  6
CONTINUOUS
 10
-22.378194375
 20
22.6229582462
 30
0.0
 11
-0.2564363187
 21
0.4292759547
 31
0.0
 40
0.5671684152
 41
-4.2839021826
 42
-3.9564521986
  0
ELLIPSE
  5
300
100
AcDbEntity
  8
DRAFT
100
AcDbEllipse
 62
7
  6
CONTINUOUS
 10
-15.3778372413
 20
18.5810397723
 30
0.0
 11
-0.2564363187
 21
0.4292759547
 31
0.0
 40
0.5671684152
 41
0.7757425892
 42
2.6961563058
  0
ELLIPSE
  5
301
100
AcDbEntity
  8
DRAFT
100
AcDbEllipse
 62
7
  6
CONTINUOUS
 10
0.5320653354
 20
9.3948614224
 30
0.0
 11
-0.2564363187
 21
0.4292759547
 31
0.0
 40
0.5671684152
 41
0.7757425892
 42
2.6961563058
  0
ELLIPSE
  5
302
100
AcDbEntity
  8
DRAFT
100
AcDbEllipse
 62
7
  6
CONTINUOUS
 10
-6.4682917983
 20
13.4367798964
 30
0.0
 11
-0.2564363187
 21
0.4292759547
 31
0.0
 40
0.5671684152
 41
-4.2839021826
 42
-3.9564521986
  0
ELLIPSE
  5
303
100
AcDbEntity
  8
DRAFT
100
AcDbEllipse
 62
7
  6
CONTINUOUS
 10
-10.6380555885
 20
-2.680046625
 30
0.0
 11
-14.3213122627
 21
23.973965803
 31
0.0
 40
0.5671684156
 41
-1.5030371129
 42
-1.4203141699
  0
ELLIPSE
  5
304
100
AcDbEntity
  8
RACCORDO
100
AcDbEllipse
 62
7
  6
CONTINUOUS
 10
-10.6380555885
 20
-2.680046625
 30
0.0
 11
-14.3213122627
 21
23.973965803
 31
0.0
 40
0.5671684156
 41
-1.3909721082
 42
-1.3821787813
  0
ELLIPSE
  5
305
100
AcDbEntity
  8
RACCORDO
100
AcDbEllipse
 62
7
  6
CONTINUOUS
 10
-10.6380555885
 20
-2.680046625
 30
0.0
 11
-14.3213122627
 21
23.973965803
 31
0.0
 40
0.5671684156
 41
-0.205567005
 42
-0.1967736781
  0
ELLIPSE
  5
306
100
AcDbEntity
  8
DRAFT
100
AcDbEllipse
 62
7
  6
CONTINUOUS
 10
-10.6380555885
 20
-2.680046625
 30
0.0
 11
-14.3213122627
 21
23.973965803
 31
0.0
 40
0.5671684156
 41
-0.1674316165
 42
-0.0847086734
  0
ELLIPSE
  5
307
100
AcDbEntity
  8
RACCORDO
100
AcDbEllipse
 62
7
  6
CONTINUOUS
 10
-26.5479581652
 20
6.5061317248
 30
0.0
 11
-14.3213122627
 21
23.973965803
 31
0.0
 40
0.5671684156
 41
-1.3909721082
 42
-1.3821787813
  0
ELLIPSE
  5
308
100
AcDbEntity
  8
DRAFT
100
AcDbEllipse
 62
7
  6
CONTINUOUS
 10
-26.5479581652
 20
6.5061317248
 30
0.0
 11
-14.3213122627
 21
23.973965803
 31
0.0
 40
0.5671684156
 41
-1.5030371129
 42
-1.4203141699
  0
ELLIPSE
  5
309
100
AcDbEntity
  8
RACCORDO
100
AcDbEllipse
 62
7
  6
CONTINUOUS
 10
5.2718469882
 20
-11.8662249749
 30
0.0
 11
-14.3213122627
 21
23.973965803
 31
0.0
 40
0.5671684156
 41
-0.205567005
 42
-0.1967736781
  0
ELLIPSE
  5
30A
100
AcDbEntity
  8
DRAFT
100
AcDbEllipse
 62
7
  6
CONTINUOUS
 10
5.2718469882
 20
-11.8662249749
 30
0.0
 11
-14.3213122627
 21
23.973965803
 31
0.0
 40
0.5671684156
 41
-0.1674316165
 42
-0.0847086734
  0
ELLIPSE
  5
30B
100
AcDbEntity
  8
RACCORDO
100
AcDbEllipse
 62
7
  6
CONTINUOUS
 10
-6.0023822466
 20
11.2192196319
 30
0.0
 11
0.3000362684
 21
0.0150720232
 31
0.0
 40
0.6075268531
 41
0.7544308383
 42
2.237694817
  0
ELLIPSE
  5
30C
100
AcDbEntity
  8
RACCORDO
100
AcDbEllipse
 62
7
  6
CONTINUOUS
 10
-3.5124799392
 20
8.6542841546
 30
0.0
 11
-0.1006785842
 21
0.1730959295
 31
0.0
 40
0.5782025297
 41
-0.7898783421
 42
0.7634646922
  0
ELLIPSE
  5
30D
100
AcDbEntity
  8
RACCORDO
100
AcDbEllipse
 62
7
  6
CONTINUOUS
 10
-8.033698913
 20
11.2647793259
 30
0.0
 11
-0.1008284495
 21
0.1733613851
 31
0.0
 40
0.5764462677
 41
-2.3416777373
 42
-0.788334703
  0
ELLIPSE
  5
30E
100
AcDbEntity
  8
RACCORDO
100
AcDbEllipse
 62
7
  6
CONTINUOUS
 10
-19.4223825159
 20
17.8404625045
 30
0.0
 11
-0.1006785842
 21
0.1730959295
 31
0.0
 40
0.5782025297
 41
-0.7898783421
 42
0.7634646922
  0
ELLIPSE
  5
30F
100
AcDbEntity
  8
RACCORDO
100
AcDbEllipse
 62
7
  6
CONTINUOUS
 10
-23.9436014897
 20
20.4509576758
 30
0.0
 11
-0.1008284495
 21
0.1733613851
 31
0.0
 40
0.5764462677
 41
-2.3416777373
 42
-0.788334703
  0
ELLIPSE
  5
310
100
AcDbEntity
  8
RACCORDO
100
AcDbEllipse
 62
7
  6
CONTINUOUS
 10
-21.9122848233
 20
20.4053979817
 30
0.0
 11
0.3000362684
 21
0.0150720232
 31
0.0
 40
0.6075268531
 41
0.7544308383
 42
2.237694817
  0
ELLIPSE
  5
311
100
AcDbEntity
  8
RACCORDO
100
AcDbEllipse
 62
7
  6
CONTINUOUS
 10
-14.2769043602
 20
19.3192807103
 30
0.0
 11
0.0745499504
 21
0.1873399944
 31
0.0
 40
0.4779521866
 41
-0.0695820262
 42
0.7158161372
  0
ELLIPSE
  5
312
100
AcDbEntity
  8
RACCORDO
100
AcDbEllipse
 62
7
  6
CONTINUOUS
 10
1.6329982165
 20
10.1331023605
 30
0.0
 11
0.0745499504
 21
0.1873399944
 31
0.0
 40
0.4779521866
 41
-0.0695820262
 42
0.7158161372
  0
ENDSEC
  0
SECTION
  2
OBJECTS
  0
DICTIONARY
  5
C
100
AcDbDictionary
280
0
281
1
  3
ACAD_GROUP
350
D
  3
ACAD_MLINESTYLE
350
17
  3
ACAD_LAYOUT
350
1A
  3
ACAD_PLOTSETTINGS
350
19
  3
ACAD_PLOTSTYLENAME
350
E
  0
DICTIONARY
  5
D
102
{ACAD_REACTORS
330
C
102
}
100
AcDbDictionary
280
0
281
1
  0
ACDBDICTIONARYWDFLT
  5
E
102
{ACAD_REACTORS
330
C
102
}
100
AcDbDictionary
281
1
  3
Normal
350
F
100
AcDbDictionaryWithDefault
340
F
  0
DICTIONARY
  5
17
102
{ACAD_REACTORS
330
C
102
}
100
AcDbDictionary
280
0
281
1
  3
Standard
350
18
  0
DICTIONARY
  5
19
102
{ACAD_REACTORS
330
C
102
}
100
AcDbDictionary
281
1
  0
DICTIONARY
  5
1A
102
{ACAD_REACTORS
330
C
102
}
100
AcDbDictionary
281
1
  3
Model
350
313
  3
Layout1
350
314
  0
ACDBPLACEHOLDER
  5
F
102
{ACAD_REACTORS
330
E
102
}
  0
MLINESTYLE
  5
18
102
{ACAD_REACTORS
330
17
102
}
100
AcDbMlineStyle
  2
STANDARD
 70
0
  3

 62
256
 51
90.0
 52
90.0
 71
2
 49
0.5
 62
256
  6
BYLAYER
 49
-0.5
 62
256
  6
BYLAYER
  0
LAYOUT
  5
313
102
{ACAD_REACTORS
330
1A
102
}
100
AcDbPlotSettings
  1

  2
none_device
  4
ISO_A4_(297.00_x_210.00_MM)
  6

 40
0.0
 41
0.0
 42
0.0
 43
0.0
 44
297.0
 45
210.0
 46
0.0
 47
0.0
 48
0.0
 49
0.0
140
0.0
141
0.0
142
1.0
143
1.0
 70
1024
 72
1
 73
0
 74
0
  7

 75
0
147
1.0
148
0.0
149
0.0
100
AcDbLayout
  1
Model
 70
0
 71
0
 10
0.0
 20
0.0
 11
297.0
 21
210.0
 12
0.0
 22
0.0
 32
0.0
 14
0.0
 24
0.0
 34
0.0
 15
0.0
 25
0.0
 35
0.0
146
0.0
 13
0.0
 23
0.0
 33
0.0
 16
1.0
 26
0.0
 36
0.0
 17
0.0
 27
1.0
 37
0.0
 76
0
330
212
345
0
346
0
  0
LAYOUT
  5
314
102
{ACAD_REACTORS
330
1A
102
}
100
AcDbPlotSettings
  1

  2
none_device
  4
ISO_A4_(297.00_x_210.00_MM)
  6

 40
0.0
 41
0.0
 42
0.0
 43
0.0
 44
297.0
 45
210.0
 46
0.0
 47
0.0
 48
0.0
 49
0.0
140
0.0
141
0.0
142
1.0
143
1.0
 70
0
 72
1
 73
0
 74
0
  7

 75
0
147
1.0
148
0.0
149
0.0
100
AcDbLayout
  1
Layout1
 70
0
 71
1
 10
0.0
 20
0.0
 11
297.0
 21
210.0
 12
0.0
 22
0.0
 32
0.0
 14
0.0
 24
0.0
 34
0.0
 15
0.0
 25
0.0
 35
0.0
146
0.0
 13
0.0
 23
0.0
 33
0.0
 16
1.0
 26
0.0
 36
0.0
 17
0.0
 27
1.0
 37
0.0
 76
0
330
213
345
0
346
0
  0
ENDSEC
  0
EOF
