  0
SECTION
  2
HEADER
  9
$ACADVER
  1
AC1024
  9
$DWGCODEPAGE
  3
ANSI_1252
  9
$EXTMAX
 10
297.0
 20
210.0
 30
0.0
  9
$EXTMIN
 10
0.0
 20
0.0
 30
0.0
  9
$LIMMIN
 10
0.0
 20
0.0
  9
$LIMMAX
 10
297.0
 20
210.0
  9
$VIEWCTR
 10
148.5
 20
105.0
  9
$VIEWSIZE
 40
210.0
  9
$CLAYER
  8
0
  9
$LTSCALE
 40
16.335
  9
$CELTYPE
  6
BYLAYER
  9
$DIMSCALE
 40
1.0
  9
$DIMASZ
 40
3.0
  9
$DIMEXO
 40
0.5
  9
$DIMDLI
 40
11.286
  9
$DIMEXE
 40
1.5
  9
$DIMCEN
 40
2.673
  9
$DIMLFAC
 40
1.0
  9
$DIMBLK
  1
_FILLED
  9
$DIMALT
 70
0
  9
$DIMALTF
 40
0.0393700787
  9
$DIMTXT
 40
3.0
  9
$DIMTOL
 70
1
  9
$DIMLIM
 70
0
  9
$DIMTFAC
 40
1.0
  9
$DIMTP
 40
0.01
  9
$DIMTM
 40
0.01
  9
$DIMGAP
 40
0.625
  9
$DIMDSEP
 70
44
  9
$AUNITS
 70
0
  9
$PDMODE
 70
3
  9
$PDSIZE
 40
3.0
  9
$HANDSEED
  5
366
  9
$TILEMODE
 70
1
  9
$MEASUREMENT
 70
1
  9
$INSUNITS
 70
4
  0
ENDSEC
  0
SECTION
  2
CLASSES
  0
CLASS
  1
ACDBDICTIONARYWDFLT
  2
AcDbDictionaryWithDefault
  3
AutoCAD 2000
 90
0
 91
1
280
0
281
0
  0
CLASS
  1
ACDBPLACEHOLDER
  2
AcDbPlaceHolder
  3
AutoCAD 2000
 90
0
 91
1
280
0
281
0
  0
CLASS
  1
LAYOUT
  2
AcDbLayout
  3
AutoCAD 2000
 90
0
 91
0
280
0
281
0
  0
ENDSEC
  0
SECTION
  2
TABLES
  0
TABLE
  2
VPORT
  5
8
100
AcDbSymbolTable
 70
2
  0
VPORT
  5
1F4
100
AcDbSymbolTableRecord
100
AcDbViewportTableRecord
  2
*ACTIVE
 70
0
 10
0.0
 20
0.0
 11
1.0
 21
1.0
 12
148.5
 22
105.0
 13
0.0
 23
0.0
 14
1.0
 24
1.0
 15
0.0
 25
0.0
 16
0.0
 26
0.0
 36
1.0
 17
0.0
 27
0.0
 37
0.0
 40
210.0
 41
1.4142857143
 42
50.0
 43
0.0
 44
0.0
 50
0.0
 51
0.0
 71
0
 72
100
 73
1
 74
1
 75
0
 76
0
 77
0
 78
0
  0
ENDTAB
  0
TABLE
  2
LTYPE
  5
5
100
AcDbSymbolTable
 70
6
  0
LTYPE
  5
14
100
AcDbSymbolTableRecord
100
AcDbLinetypeTableRecord
  2
BYBLOCK
 70
0
  3

 72
65
 73
0
 40
0.0
  0
LTYPE
  5
15
100
AcDbSymbolTableRecord
100
AcDbLinetypeTableRecord
  2
BYLAYER
 70
0
  3

 72
65
 73
0
 40
0.0
  0
LTYPE
  5
16
100
AcDbSymbolTableRecord
100
AcDbLinetypeTableRecord
  2
CONTINUOUS
 70
64
  3
Solid line
 72
65
 73
0
 40
0.0
  0
LTYPE
  5
1F5
100
AcDbSymbolTableRecord
100
AcDbLinetypeTableRecord
  2
CENTER
 70
64
  3
____ _ ____ _ ____ _ ____ _ ____ _ ____ _ ____
 72
65
 73
4
 40
0.6
 49
0.375
 74
0
 49
-0.075
 74
0
 49
0.075
 74
0
 49
-0.075
 74
0
  0
LTYPE
  5
1F6
100
AcDbSymbolTableRecord
100
AcDbLinetypeTableRecord
  2
HIDDEN
 70
64
  3
- - - - - - - - - - - - - - - - - - - -
 72
65
 73
2
 40
0.2
 49
0.1
 74
0
 49
-0.1
 74
0
  0
LTYPE
  5
1F7
100
AcDbSymbolTableRecord
100
AcDbLinetypeTableRecord
  2
PHANTOM
 70
64
  3
_____ _ _ _____ _ _ _____ _ _ _____
 72
65
 73
6
 40
0.8
 49
0.45
 74
0
 49
-0.05
 74
0
 49
0.1
 74
0
 49
-0.05
 74
0
 49
0.1
 74
0
 49
-0.05
 74
0
  0
LTYPE
  5
1F8
100
AcDbSymbolTableRecord
100
AcDbLinetypeTableRecord
  2
DOT
 70
64
  3
. . . . . . . . . . . . . . . . . . . .
 72
65
 73
2
 40
0.2
 49
0.1
 74
0
 49
-0.1
 74
0
  0
LTYPE
  5
1F9
100
AcDbSymbolTableRecord
100
AcDbLinetypeTableRecord
  2
DASHED
 70
64
  3
- - - - - - - - - - - - - - - - - - - -
 72
65
 73
2
 40
0.2
 49
0.1
 74
0
 49
-0.1
 74
0
  0
ENDTAB
  0
TABLE
  2
LAYER
  5
2
100
AcDbSymbolTable
 70
36
  0
LAYER
  5
10
100
AcDbSymbolTableRecord
100
AcDbLayerTableRecord
  2
0
 70
0
 62
7
  6
CONTINUOUS
370
-3
390
F
  0
LAYER
  5
1FA
100
AcDbSymbolTableRecord
100
AcDbLayerTableRecord
  2
DEFAULT_1
 70
0
 62
7
  6
CENTER
370
-3
390
F
  0
LAYER
  5
1FB
100
AcDbSymbolTableRecord
100
AcDbLayerTableRecord
  2
DEFAULT_2
 70
0
 62
7
  6
HIDDEN
370
-3
390
F
  0
LAYER
  5
1FC
100
AcDbSymbolTableRecord
100
AcDbLayerTableRecord
  2
DEFAULT_3
 70
0
 62
7
  6
PHANTOM
370
-3
390
F
  0
LAYER
  5
1FD
100
AcDbSymbolTableRecord
100
AcDbLayerTableRecord
  2
ASSI
 70
0
 62
7
  6
CONTINUOUS
370
-3
390
F
  0
LAYER
  5
1FE
100
AcDbSymbolTableRecord
100
AcDbLayerTableRecord
  2
COORDINATE
 70
0
 62
7
  6
CONTINUOUS
370
-3
390
F
  0
LAYER
  5
1FF
100
AcDbSymbolTableRecord
100
AcDbLayerTableRecord
  2
COORD_ORIGINE
 70
0
 62
7
  6
CONTINUOUS
370
-3
390
F
  0
LAYER
  5
200
100
AcDbSymbolTableRecord
100
AcDbLayerTableRecord
  2
COSMETICI
 70
0
 62
7
  6
CONTINUOUS
370
-3
390
F
  0
LAYER
  5
201
100
AcDbSymbolTableRecord
100
AcDbLayerTableRecord
  2
CURVE
 70
0
 62
7
  6
CONTINUOUS
370
-3
390
F
  0
LAYER
  5
202
100
AcDbSymbolTableRecord
100
AcDbLayerTableRecord
  2
DRAFT
 70
0
 62
7
  6
CONTINUOUS
370
-3
390
F
  0
LAYER
  5
203
100
AcDbSymbolTableRecord
100
AcDbLayerTableRecord
  2
IMPORT_FEATURES
 70
0
 62
7
  6
CONTINUOUS
370
-3
390
F
  0
LAYER
  5
204
100
AcDbSymbolTableRecord
100
AcDbLayerTableRecord
  2
INTF_1
 70
0
 62
7
  6
CONTINUOUS
370
-3
390
F
  0
LAYER
  5
205
100
AcDbSymbolTableRecord
100
AcDbLayerTableRecord
  2
INTF_9
 70
0
 62
7
  6
CONTINUOUS
370
-3
390
F
  0
LAYER
  5
206
100
AcDbSymbolTableRecord
100
AcDbLayerTableRecord
  2
NOTE
 70
0
 62
7
  6
CONTINUOUS
370
-3
390
F
  0
LAYER
  5
207
100
AcDbSymbolTableRecord
100
AcDbLayerTableRecord
  2
PIANI
 70
0
 62
7
  6
CONTINUOUS
370
-3
390
F
  0
LAYER
  5
208
100
AcDbSymbolTableRecord
100
AcDbLayerTableRecord
  2
PIANI_ORIGINE
 70
0
 62
7
  6
CONTINUOUS
370
-3
390
F
  0
LAYER
  5
209
100
AcDbSymbolTableRecord
100
AcDbLayerTableRecord
  2
PUNTI
 70
0
 62
7
  6
CONTINUOUS
370
-3
390
F
  0
LAYER
  5
20A
100
AcDbSymbolTableRecord
100
AcDbLayerTableRecord
  2
RACCORDO
 70
0
 62
7
  6
CONTINUOUS
370
-3
390
F
  0
LAYER
  5
20B
100
AcDbSymbolTableRecord
100
AcDbLayerTableRecord
  2
RGB____0____0____0__
 70
0
 62
7
  6
CONTINUOUS
370
-3
390
F
  0
LAYER
  5
20C
100
AcDbSymbolTableRecord
100
AcDbLayerTableRecord
  2
SIMBOLI
 70
0
 62
7
  6
CONTINUOUS
370
-3
390
F
  0
LAYER
  5
20D
100
AcDbSymbolTableRecord
100
AcDbLayerTableRecord
  2
SNAPLINE
 70
0
 62
7
  6
CONTINUOUS
370
-3
390
F
  0
LAYER
  5
20E
100
AcDbSymbolTableRecord
100
AcDbLayerTableRecord
  2
SUPERFICI
 70
0
 62
7
  6
CONTINUOUS
370
-3
390
F
  0
LAYER
  5
20F
100
AcDbSymbolTableRecord
100
AcDbLayerTableRecord
  2
TRASH
 70
0
 62
7
  6
CONTINUOUS
370
-3
390
F
  0
LAYER
  5
210
100
AcDbSymbolTableRecord
100
AcDbLayerTableRecord
  2
XSEC_DATUMS
 70
0
 62
7
  6
CONTINUOUS
370
-3
390
F
  0
ENDTAB
  0
TABLE
  2
STYLE
  5
3
100
AcDbSymbolTable
 70
1
  0
STYLE
  5
11
100
AcDbSymbolTableRecord
100
AcDbTextStyleTableRecord
  2
STANDARD
 70
0
 40
0.0
 41
0.8
 50
0.0
 71
0
 42
0.2
  3
txt
  4

  0
STYLE
  5
211
100
AcDbSymbolTableRecord
100
AcDbTextStyleTableRecord
  2
TEXTSTYLE_1
 70
0
 40
0.0
 41
0.8
 50
0.0
 71
0
 42
0.2
  3
gdt
  4

  0
ENDTAB
  0
TABLE
  2
VIEW
  5
6
100
AcDbSymbolTable
 70
0
  0
ENDTAB
  0
TABLE
  2
UCS
  5
7
100
AcDbSymbolTable
 70
0
  0
ENDTAB
  0
TABLE
  2
APPID
  5
9
100
AcDbSymbolTable
 70
1
  0
APPID
  5
212
100
AcDbSymbolTableRecord
100
AcDbRegAppTableRecord
  2
ACAD
 70
0
  0
ENDTAB
  0
TABLE
  2
BLOCK_RECORD
  5
1
100
AcDbSymbolTable
 70
0
  0
BLOCK_RECORD
  5
213
100
AcDbSymbolTableRecord
100
AcDbBlockTableRecord
  2
*Model_Space
  0
BLOCK_RECORD
  5
214
100
AcDbSymbolTableRecord
100
AcDbBlockTableRecord
  2
*Paper_Space
  0
BLOCK_RECORD
  5
215
100
AcDbSymbolTableRecord
100
AcDbBlockTableRecord
  2
_FILLED
  0
ENDTAB
  0
TABLE
  2
DIMSTYLE
  5
A
100
AcDbSymbolTable
 70
1
100
AcDbDimStyleTable
 71
0
  0
DIMSTYLE
105
216
100
AcDbSymbolTableRecord
100
AcDbDimStyleTableRecord
  2
STANDARD
 70
0
  3

  4

 40
1.0
 41
3.0
 42
0.5
 43
0.38
 44
1.5
 45
0.0
 46
0.0
 47
0.01
 48
0.01
140
3.0
141
0.09
142
0.0
143
25.4
144
1.0
145
0.0
146
1.0
147
0.625
 71
1
 72
0
 73
0
 74
0
 75
0
 76
0
 77
1
 78
8
 79
2
170
0
171
1
172
0
173
0
174
0
175
0
176
0
177
0
178
0
270
2
179
2
271
2
272
2
273
2
274
2
275
0
280
0
281
0
282
0
283
1
284
8
285
0
286
0
287
3
288
0
340
11
278
44
341
215
342
215
343
215
344
215
  0
ENDTAB
  0
ENDSEC
  0
SECTION
  2
BLOCKS
  0
BLOCK
  5
20
100
AcDbEntity
  8
0
100
AcDbBlockBegin
  2
*Model_Space
 70
0
 10
0.0
 20
0.0
 30
0.0
  3
*Model_Space
  1

  0
ENDBLK
  5
21
100
AcDbEntity
  8
0
100
AcDbBlockEnd
  0
BLOCK
  5
1C
100
AcDbEntity
  8
0
100
AcDbBlockBegin
  2
*Paper_Space
 70
0
 10
0.0
 20
0.0
 30
0.0
  3
*Paper_Space
  1

  0
ENDBLK
  5
1D
100
AcDbEntity
  8
0
100
AcDbBlockEnd
  0
BLOCK
  5
217
100
AcDbEntity
  8
0
100
AcDbBlockBegin
  2
_FILLED
 70
64
 10
0.0
 20
0.0
  3
_FILLED
  1

  0
SOLID
  5
218
100
AcDbEntity
  8
0
  6
BYBLOCK
 62
0
100
AcDbTrace
 10
0.0
 20
0.0
 11
-1.0
 21
0.3166666667
 12
-1.0
 22
-0.3166666667
 13
-1.0
 23
-0.3166666667
  0
ENDBLK
  5
219
100
AcDbEntity
  8
0
  6
BYBLOCK
 62
0
100
AcDbBlockEnd
  0
ENDSEC
  0
SECTION
  2
ENTITIES
  0
LINE
  5
21A
100
AcDbEntity
  8
0
100
AcDbLine
 62
7
  6
CONTINUOUS
 10
-10.7512450134
 20
17.5464134103
 11
-10.1721351829
 21
17.8578399364
  0
LWPOLYLINE
  5
21B
100
AcDbEntity
  8
0
100
AcDbPolyline
 62
7
  6
CONTINUOUS
 90
7
 70
0
 10
-10.7512457889
 20
17.5464129933
 10
-10.7392340323
 20
17.5514370164
 10
-10.7240150663
 20
17.5544179416
 10
-10.7074374622
 20
17.5543694669
 10
-10.6897119488
 20
17.5512641356
 10
-10.6711795632
 20
17.545101464
 10
-10.6521467726
 20
17.5359548164
  0
LWPOLYLINE
  5
21C
100
AcDbEntity
  8
0
100
AcDbPolyline
 62
250
  6
CONTINUOUS
 90
7
 70
0
 10
-10.1721351829
 20
17.8578399364
 10
-10.1600144038
 20
17.8628976146
 10
-10.1447263869
 20
17.8658338921
 10
-10.1282870137
 20
17.8656207171
 10
-10.1109774577
 20
17.8622617359
 10
-10.0930937754
 20
17.8558143992
 10
-10.0749418431
 20
17.8463889802
  0
LWPOLYLINE
  5
21D
100
AcDbEntity
  8
0
100
AcDbPolyline
 62
7
  6
CONTINUOUS
 90
16
 70
0
 10
-16.4391268857
 20
12.8804575508
 10
-16.4705643163
 20
12.8588761288
 10
-16.5359364284
 20
12.8082551208
 10
-16.5977619367
 20
12.7525904145
 10
-16.6561687827
 20
12.6920343631
 10
-16.7109927105
 20
12.6269517503
 10
-16.7616684883
 20
12.558196461
 10
-16.8081410474
 20
12.4860222778
 10
-16.8502443442
 20
12.4106536925
 10
-16.8873689731
 20
12.3332056548
 10
-16.9193771538
 20
12.253947844
 10
-16.9460869978
 20
12.1730573483
 10
-16.9670639645
 20
12.0914694024
 10
-16.9820755362
 20
12.0095328766
 10
-16.9909254216
 20
11.9272148487
 10
-16.9926981432
 20
11.8929387258
  0
LINE
  5
21E
100
AcDbEntity
  8
0
100
AcDbLine
 62
250
  6
CONTINUOUS
 10
-11.9238511319
 20
16.7486802632
 11
-11.9060131654
 21
16.7606468867
  0
LINE
  5
21F
100
AcDbEntity
  8
0
100
AcDbLine
 62
7
  6
CONTINUOUS
 10
-16.4393730491
 20
12.8802955445
 11
-11.9766750124
 21
15.8234029296
  0
LINE
  5
220
100
AcDbEntity
  8
0
100
AcDbLine
 62
7
  6
CONTINUOUS
 10
-12.0087381382
 20
16.7689039477
 11
-10.7547340949
 21
17.5443988585
  0
LINE
  5
221
100
AcDbEntity
  8
0
100
AcDbLine
 62
250
  6
CONTINUOUS
 10
-11.9060131654
 20
16.7606468867
 11
-10.6529838307
 21
17.5355046584
  0
LWPOLYLINE
  5
222
100
AcDbEntity
  8
0
100
AcDbPolyline
 62
7
  6
CONTINUOUS
 90
3
 70
0
 10
-10.7547348786
 20
17.5443984371
 10
-10.7529999502
 20
17.5454352914
 10
-10.7512457889
 20
17.5464129933
  0
LINE
  5
223
100
AcDbEntity
  8
0
100
AcDbLine
 62
250
  6
CONTINUOUS
 10
-10.8191187416
 20
16.1330876684
 11
-8.9633622297
 21
17.2045768428
  0
LWPOLYLINE
  5
224
100
AcDbEntity
  8
0
100
AcDbPolyline
 62
250
  6
CONTINUOUS
 90
9
 70
0
 10
-16.4391268857
 20
12.8804575508
 10
-16.4183971524
 20
12.8919126344
 10
-16.3903662319
 20
12.9017558379
 10
-16.3598591714
 20
12.9067963549
 10
-16.3272098246
 20
12.9069790243
 10
-16.2927754897
 20
12.9023018466
 10
-16.2569329986
 20
12.8928160061
 10
-16.2200745927
 20
12.8786253113
 10
-16.1826036315
 20
12.8598850577
  0
LINE
  5
225
100
AcDbEntity
  8
0
100
AcDbLine
 62
250
  6
CONTINUOUS
 10
-10.652983814
 20
17.5355046487
 11
-10.0749418431
 21
17.8463889802
  0
LWPOLYLINE
  5
226
100
AcDbEntity
  8
0
100
AcDbPolyline
 62
7
  6
CONTINUOUS
 90
13
 70
0
 10
-10.6777189245
 20
15.6726848964
 10
-10.697136588
 20
15.6633946889
 10
-10.7185967483
 20
15.6559765492
 10
-10.7417750808
 20
15.6505767874
 10
-10.7663557857
 20
15.6472812612
 10
-10.7919061976
 20
15.6461940126
 10
-10.8178744009
 20
15.6473971061
 10
-10.8438076184
 20
15.6508249973
 10
-10.8692993311
 20
15.6564043343
 10
-10.8938636488
 20
15.6641001872
 10
-10.9170801704
 20
15.6737680207
 10
-10.9385972169
 20
15.685167502
 10
-10.9580719548
 20
15.6980603631
  0
LWPOLYLINE
  5
227
100
AcDbEntity
  8
0
100
AcDbPolyline
 62
7
  6
CONTINUOUS
 90
11
 70
0
 10
-9.7436097909
 20
-27.0382552344
 10
-9.6878849732
 20
-27.0671373019
 10
-9.6184620078
 20
-27.094562557
 10
-9.5463261549
 20
-27.1142608224
 10
-9.4713793033
 20
-27.1261815995
 10
-9.3942843265
 20
-27.130003443
 10
-9.3159222495
 20
-27.12552911
 10
-9.2362025732
 20
-27.1125110534
 10
-9.1554137687
 20
-27.0905898213
 10
-9.0745173588
 20
-27.0596635599
 10
-9.0347442582
 20
-27.0410382257
  0
LINE
  5
228
100
AcDbEntity
  8
0
100
AcDbLine
 62
7
  6
CONTINUOUS
 10
-9.7429275494
 20
-27.0386531522
 11
-16.6415790924
 21
-23.0554582117
  0
LINE
  5
229
100
AcDbEntity
  8
0
100
AcDbLine
 62
250
  6
CONTINUOUS
 10
-16.8462354088
 20
-22.632722154
 11
-9.9511875995
 21
-26.6138363439
  0
LWPOLYLINE
  5
22A
100
AcDbEntity
  8
0
100
AcDbPolyline
 62
250
  6
CONTINUOUS
 90
11
 70
0
 10
-16.6415811282
 20
-23.0554570362
 10
-16.6699841965
 20
-23.0370419791
 10
-16.7039592297
 20
-23.0088658261
 10
-16.7334743592
 20
-22.977363869
 10
-16.7596679637
 20
-22.9419028238
 10
-16.7823779092
 20
-22.902931678
 10
-16.8016765165
 20
-22.8605945265
 10
-16.8182512672
 20
-22.8128200176
 10
-16.8317321691
 20
-22.7585936996
 10
-16.8412528652
 20
-22.6985600792
 10
-16.8462354088
 20
-22.632722154
  0
LWPOLYLINE
  5
22B
100
AcDbEntity
  8
0
100
AcDbPolyline
 62
250
  6
CONTINUOUS
 90
4
 70
0
 10
-8.9161594729
 20
16.4196660756
 10
-8.8993523018
 20
16.431532798
 10
-8.8851377499
 20
16.4452746429
 10
-8.8737545235
 20
16.4606615166
  0
LWPOLYLINE
  5
22C
100
AcDbEntity
  8
0
100
AcDbPolyline
 62
7
  6
CONTINUOUS
 90
6
 70
0
 10
-8.8219624127
 20
16.727830847
 10
-8.8054705716
 20
16.7393062227
 10
-8.7915186135
 20
16.7523319088
 10
-8.7803751036
 20
16.7667199508
 10
-8.7722578554
 20
16.7823113094
 10
-8.7696126113
 20
16.7897670419
  0
LINE
  5
22D
100
AcDbEntity
  8
0
100
AcDbLine
 62
250
  6
CONTINUOUS
 10
-16.1826036315
 20
12.8598850577
 11
-11.9393654151
 21
15.6582607552
  0
LINE
  5
22E
100
AcDbEntity
  8
0
100
AcDbLine
 62
7
  6
CONTINUOUS
 10
-9.6093014203
 20
15.1755185397
 11
-10.9068215216
 21
14.374881434
  0
LINE
  5
22F
100
AcDbEntity
  8
0
100
AcDbLine
 62
7
  6
CONTINUOUS
 10
-8.8219624127
 20
16.727830847
 11
-9.3801988232
 21
16.3923794084
  0
LINE
  5
230
100
AcDbEntity
  8
0
100
AcDbLine
 62
250
  6
CONTINUOUS
 10
-10.6777189245
 20
15.8881760013
 11
-8.8219624127
 21
16.9596651757
  0
LINE
  5
231
100
AcDbEntity
  8
0
100
AcDbLine
 62
7
  6
CONTINUOUS
 10
-9.3801988232
 20
16.3923794084
 11
-10.6777189245
 21
15.6726848964
  0
LINE
  5
232
100
AcDbEntity
  8
0
100
AcDbLine
 62
250
  6
CONTINUOUS
 10
-9.5929021925
 20
15.6965223928
 11
-10.8904222938
 21
14.9768278808
  0
LINE
  5
233
100
AcDbEntity
  8
0
100
AcDbLine
 62
250
  6
CONTINUOUS
 10
-9.6093014203
 20
15.5769747
 11
-10.9068215216
 21
14.857280188
  0
LWPOLYLINE
  5
234
100
AcDbEntity
  8
0
100
AcDbPolyline
 62
250
  6
CONTINUOUS
 90
13
 70
0
 10
-10.8904222938
 20
14.9768278808
 10
-10.9100923761
 20
14.9676297147
 10
-10.9316582425
 20
14.9607028038
 10
-10.9547590382
 20
14.9561630541
 10
-10.9790082246
 20
14.9540864277
 10
-11.0040000478
 20
14.9545076722
 10
-11.0293163273
 20
14.9574197391
 10
-11.0545334537
 20
14.9627739017
 10
-11.0792294765
 20
14.9704805703
 10
-11.102991165
 20
14.9804107917
 10
-11.1254209222
 20
14.9923984067
 10
-11.1461434378
 20
15.0062428301
 10
-11.1648119686
 20
15.0217124075
  0
LINE
  5
235
100
AcDbEntity
  8
0
100
AcDbLine
 62
7
  6
CONTINUOUS
 10
-8.1034552965
 20
15.0233772408
 11
-8.6603040101
 21
14.7696025292
  0
LINE
  5
236
100
AcDbEntity
  8
0
100
AcDbLine
 62
7
  6
CONTINUOUS
 10
-2.5799777842
 20
17.207459735
 11
-2.5286364918
 21
17.230719689
  0
LINE
  5
237
100
AcDbEntity
  8
0
100
AcDbLine
 62
7
  6
CONTINUOUS
 10
-2.5286364918
 20
17.230719689
 11
-2.4771363894
 21
17.2536805493
  0
LINE
  5
238
100
AcDbEntity
  8
0
100
AcDbLine
 62
7
  6
CONTINUOUS
 10
-2.4771363894
 20
17.2536805493
 11
-2.4254774768
 21
17.2763423157
  0
LINE
  5
239
100
AcDbEntity
  8
0
100
AcDbLine
 62
7
  6
CONTINUOUS
 10
-2.3981199974
 20
17.2877415905
 11
-2.4254774768
 21
17.2763423157
  0
LINE
  5
23A
100
AcDbEntity
  8
0
100
AcDbLine
 62
7
  6
CONTINUOUS
 10
-6.9406804281
 20
14.4940288052
 11
-6.9069255847
 21
14.5037060042
  0
LWPOLYLINE
  5
23B
100
AcDbEntity
  8
0
100
AcDbPolyline
 62
250
  6
CONTINUOUS
 90
5
 70
0
 10
-11.9902408283
 20
16.6777575023
 10
-11.9749760053
 20
16.6984927628
 10
-11.9586117497
 20
16.7174143315
 10
-11.9414826362
 20
16.734206864
 10
-11.9238511319
 20
16.7486802632
  0
LINE
  5
23C
100
AcDbEntity
  8
0
100
AcDbLine
 62
250
  6
CONTINUOUS
 10
-6.7883627191
 20
14.5366773046
 11
-8.7318104973
 21
13.3894059964
  0
LWPOLYLINE
  5
23D
100
AcDbEntity
  8
0
100
AcDbPolyline
 62
7
  6
CONTINUOUS
 90
10
 70
0
 10
-2.4057279807
 20
17.2649234222
 10
-2.3940830459
 20
17.2715800111
 10
-2.3836827601
 20
17.2776963632
 10
-2.3746175665
 20
17.2832216388
 10
-2.3670071523
 20
17.2881399712
 10
-2.3609142535
 20
17.2923897595
 10
-2.3563394806
 20
17.2958792989
 10
-2.3534061328
 20
17.2986374096
 10
-2.352153439
 20
17.3006455661
 10
-2.3525119336
 20
17.3018469156
  0
LINE
  5
23E
100
AcDbEntity
  8
0
100
AcDbLine
 62
250
  6
CONTINUOUS
 10
-3.8419215314
 20
16.0730464708
 11
-6.6544140063
 21
14.4804330823
  0
LINE
  5
23F
100
AcDbEntity
  8
0
100
AcDbLine
 62
250
  6
CONTINUOUS
 10
-3.9723768776
 20
16.1262347181
 11
-6.7883696616
 21
14.53667542
  0
LINE
  5
240
100
AcDbEntity
  8
0
100
AcDbLine
 62
7
  6
CONTINUOUS
 10
-7.1636960346
 20
14.6227952213
 11
-2.5799777842
 21
17.207459735
  0
LINE
  5
241
100
AcDbEntity
  8
0
100
AcDbLine
 62
7
  6
CONTINUOUS
 10
-5.128719183
 20
15.734257506
 11
-2.4057279807
 21
17.2649234222
  0
LINE
  5
242
100
AcDbEntity
  8
0
100
AcDbLine
 62
7
  6
CONTINUOUS
 10
-3.2576750431
 20
16.2866546394
 11
-6.086004318
 21
14.6969869259
  0
LINE
  5
243
100
AcDbEntity
  8
0
100
AcDbLine
 62
250
  6
CONTINUOUS
 10
-6.0647384871
 20
14.7048302504
 11
-3.2371567004
 21
16.2940518916
  0
LWPOLYLINE
  5
244
100
AcDbEntity
  8
0
100
AcDbPolyline
 62
250
  6
CONTINUOUS
 90
3
 70
0
 10
-8.0159720603
 20
13.552521126
 10
-8.0061147167
 20
13.5573303161
 10
-7.9937340274
 20
13.5609175737
  0
LWPOLYLINE
  5
245
100
AcDbEntity
  8
0
100
AcDbPolyline
 62
250
  6
CONTINUOUS
 90
3
 70
0
 10
-6.086004318
 20
14.6969869259
 10
-6.0777368148
 20
14.7009220553
 10
-6.0651606215
 20
14.7045956365
  0
LWPOLYLINE
  5
246
100
AcDbEntity
  8
0
100
AcDbPolyline
 62
7
  6
CONTINUOUS
 90
3
 70
0
 10
-3.2576553364
 20
16.2866209104
 10
-3.2494178606
 20
16.2904860098
 10
-3.2371566999
 20
16.2940518904
  0
LINE
  5
247
100
AcDbEntity
  8
0
100
AcDbLine
 62
7
  6
CONTINUOUS
 10
-1.2339563346
 20
15.6224191176
 11
-0.818310336
 21
15.7833395627
  0
LINE
  5
248
100
AcDbEntity
  8
0
100
AcDbLine
 62
250
  6
CONTINUOUS
 10
-12.0040346327
 20
16.6556795524
 11
-11.9902408283
 21
16.6777575023
  0
LINE
  5
249
100
AcDbEntity
  8
0
100
AcDbLine
 62
250
  6
CONTINUOUS
 10
-8.9126399216
 20
16.4019371583
 11
-8.9126692472
 21
16.401907494
  0
LINE
  5
24A
100
AcDbEntity
  8
0
100
AcDbLine
 62
250
  6
CONTINUOUS
 10
-9.5723663091
 20
15.7637053368
 11
-8.9161594729
 21
16.4196660756
  0
LINE
  5
24B
100
AcDbEntity
  8
0
100
AcDbLine
 62
7
  6
CONTINUOUS
 10
-9.5817187552
 20
15.7331088998
 11
-8.9126692472
 21
16.401907494
  0
LWPOLYLINE
  5
24C
100
AcDbEntity
  8
0
100
AcDbPolyline
 62
7
  6
CONTINUOUS
 90
10
 70
0
 10
-8.2085435783
 20
13.1802638816
 10
-8.2014207021
 20
13.1852135713
 10
-8.1938540442
 20
13.1923059772
 10
-8.1859590235
 20
13.202076317
 10
-8.1780230815
 20
13.214864726
 10
-8.1704100652
 20
13.2308229553
 10
-8.1634741045
 20
13.2500055754
 10
-8.1575564793
 20
13.2723539926
 10
-8.1529748364
 20
13.2976377795
 10
-8.1499754208
 20
13.3255512719
  0
LWPOLYLINE
  5
24D
100
AcDbEntity
  8
0
100
AcDbPolyline
 62
7
  6
CONTINUOUS
 90
13
 70
0
 10
-7.7668764757
 20
13.6022797562
 10
-7.7887549176
 20
13.5871736244
 10
-7.8095422902
 20
13.5684808571
 10
-7.8288712626
 20
13.5464553481
 10
-7.8463256231
 20
13.5213747986
 10
-7.8616023412
 20
13.4936266074
 10
-7.87451794
 20
13.4637031304
 10
-7.8847185825
 20
13.4320242153
 10
-7.8919523067
 20
13.3990880573
 10
-7.8962315122
 20
13.3655534208
 10
-7.8974317874
 20
13.3319913754
 10
-7.895296071
 20
13.2988762916
 10
-7.8897055291
 20
13.2667340299
  0
LWPOLYLINE
  5
24E
100
AcDbEntity
  8
0
100
AcDbPolyline
 62
7
  6
CONTINUOUS
 90
10
 70
0
 10
-8.0159871721
 20
13.5525121622
 10
-8.0393729745
 20
13.5367204538
 10
-8.0619690772
 20
13.5173034499
 10
-8.0826655537
 20
13.4948621541
 10
-8.1017031679
 20
13.4688090898
 10
-8.1181553371
 20
13.439997508
 10
-8.1310372229
 20
13.4105069132
 10
-8.1406520933
 20
13.3804956586
 10
-8.1473286458
 20
13.3486947379
 10
-8.1499956603
 20
13.3252696033
  0
LWPOLYLINE
  5
24F
100
AcDbEntity
  8
0
100
AcDbPolyline
 62
250
  6
CONTINUOUS
 90
13
 70
0
 10
-7.2773976344
 20
13.3196608078
 10
-7.2998220124
 20
13.3048363423
 10
-7.3220120423
 20
13.286828094
 10
-7.343591613
 20
13.2658697854
 10
-7.3642272279
 20
13.2421984278
 10
-7.3834915038
 20
13.2162118807
 10
-7.4009082942
 20
13.1885088422
 10
-7.4161481815
 20
13.159626611
 10
-7.4289883687
 20
13.1300026186
 10
-7.4392043399
 20
13.1001574168
 10
-7.4466234168
 20
13.0706058975
 10
-7.4511237305
 20
13.0418478276
 10
-7.4526316816
 20
13.0143730681
  0
LINE
  5
250
100
AcDbEntity
  8
0
100
AcDbLine
 62
250
  6
CONTINUOUS
 10
-8.0086063935
 20
13.5511005012
 11
-7.9937340377
 21
13.5609175717
  0
LWPOLYLINE
  5
251
100
AcDbEntity
  8
0
100
AcDbPolyline
 62
250
  6
CONTINUOUS
 90
22
 70
0
 10
-8.7318104973
 20
13.3894059964
 10
-8.7433011316
 20
13.3819546094
 10
-8.7541753606
 20
13.3735590953
 10
-8.7643845338
 20
13.3642581265
 10
-8.7738278821
 20
13.3541596816
 10
-8.7825256674
 20
13.3432553201
 10
-8.7905768196
 20
13.331369231
 10
-8.7979623916
 20
13.3183994395
 10
-8.8045267929
 20
13.3044695648
 10
-8.8101442737
 20
13.2897269205
 10
-8.8147442316
 20
13.2742632182
 10
-8.8182855731
 20
13.258110325
 10
-8.8207143177
 20
13.2413550526
 10
-8.8219796703
 20
13.224173506
 10
-8.8220582662
 20
13.206559267
 10
-8.8208949975
 20
13.1883247192
 10
-8.8184132874
 20
13.1695902592
 10
-8.8145320595
 20
13.1504412832
 10
-8.8090744236
 20
13.1306523185
 10
-8.801862336
 20
13.1102689933
 10
-8.7927999857
 20
13.0896064136
 10
-8.7817802853
 20
13.0688954486
  0
LWPOLYLINE
  5
252
100
AcDbEntity
  8
0
100
AcDbPolyline
 62
250
  6
CONTINUOUS
 90
13
 70
0
 10
-8.6043951836
 20
13.2858979279
 10
-8.6230981728
 20
13.2739998283
 10
-8.6420932248
 20
13.2600128385
 10
-8.6610589232
 20
13.2441736354
 10
-8.679674351
 20
13.2267502347
 10
-8.6976245144
 20
13.2080374616
 10
-8.7146056742
 20
13.1883519633
 10
-8.730330494
 20
13.1680268403
 10
-8.7445328986
 20
13.1474060137
 10
-8.756972571
 20
13.1268384119
 10
-8.7674390252
 20
13.1066720583
 10
-8.7757551665
 20
13.087248182
 10
-8.7817802853
 20
13.0688954486
  0
LWPOLYLINE
  5
253
100
AcDbEntity
  8
0
100
AcDbPolyline
 62
250
  6
CONTINUOUS
 90
22
 70
0
 10
-8.6000672242
 20
13.3354448064
 10
-8.6023794129
 20
13.3339750285
 10
-8.6045278851
 20
13.332395794
 10
-8.6065125456
 20
13.3307072837
 10
-8.608335985
 20
13.328915714
 10
-8.6099952886
 20
13.327015598
 10
-8.6114820086
 20
13.3249898145
 10
-8.61281092
 20
13.3228202518
 10
-8.613966555
 20
13.3205267709
 10
-8.614895014
 20
13.3181494776
 10
-8.61558813
 20
13.3156907844
 10
-8.6160531292
 20
13.3131509097
 10
-8.6162592067
 20
13.3105667498
 10
-8.6162095585
 20
13.3079513398
 10
-8.6158999722
 20
13.3052948376
 10
-8.6152884724
 20
13.3026001276
 10
-8.6143887755
 20
13.2998653879
 10
-8.6131858438
 20
13.2970970594
 10
-8.6115943448
 20
13.2943113296
 10
-8.6095852103
 20
13.2915160582
 10
-8.6071857793
 20
13.288710318
 10
-8.6043951837
 20
13.285897928
  0
LINE
  5
254
100
AcDbEntity
  8
0
100
AcDbLine
 62
7
  6
CONTINUOUS
 10
-6.0873411299
 20
14.6961989429
 11
-8.0159720603
 21
13.552521126
  0
LINE
  5
255
100
AcDbEntity
  8
0
100
AcDbLine
 62
250
  6
CONTINUOUS
 10
-7.9937340274
 20
13.5609175737
 11
-6.0647456476
 21
14.7048288576
  0
LINE
  5
256
100
AcDbEntity
  8
0
100
AcDbLine
 62
7
  6
CONTINUOUS
 10
-5.825811575
 20
14.7484348065
 11
-7.7668764757
 21
13.6022797562
  0
LINE
  5
257
100
AcDbEntity
  8
0
100
AcDbLine
 62
250
  6
CONTINUOUS
 10
-6.6544198695
 20
14.4804390371
 11
-8.6000672242
 21
13.3354448064
  0
LINE
  5
258
100
AcDbEntity
  8
0
100
AcDbLine
 62
250
  6
CONTINUOUS
 10
-3.5620016783
 20
15.482712311
 11
-5.3143460509
 21
14.453121023
  0
LINE
  5
259
100
AcDbEntity
  8
0
100
AcDbLine
 62
250
  6
CONTINUOUS
 10
-3.3852182516
 20
15.1765222068
 11
-5.1375581361
 21
14.1469283275
  0
LINE
  5
25A
100
AcDbEntity
  8
0
100
AcDbLine
 62
7
  6
CONTINUOUS
 10
-6.0873497928
 20
14.6962101249
 11
-6.086004318
 21
14.6969869259
  0
LINE
  5
25B
100
AcDbEntity
  8
0
100
AcDbLine
 62
250
  6
CONTINUOUS
 10
-5.3143325883
 20
14.4531132499
 11
-7.2773976344
 21
13.3196608078
  0
LINE
  5
25C
100
AcDbEntity
  8
0
100
AcDbLine
 62
250
  6
CONTINUOUS
 10
-5.1375581361
 20
14.1469257338
 11
-7.1006276703
 21
13.0134862489
  0
LINE
  5
25D
100
AcDbEntity
  8
0
100
AcDbLine
 62
7
  6
CONTINUOUS
 10
-2.9807621606
 20
16.3391539642
 11
-5.825811575
 21
14.7484348065
  0
LINE
  5
25E
100
AcDbEntity
  8
0
100
AcDbLine
 62
7
  6
CONTINUOUS
 10
-3.0869484706
 20
-19.6439282493
 11
0.5751605534
 21
-19.0207358064
  0
LINE
  5
25F
100
AcDbEntity
  8
0
100
AcDbLine
 62
250
  6
CONTINUOUS
 10
2.1974949928
 20
-18.2657426209
 11
-3.0869484706
 21
-19.1650127437
  0
LINE
  5
260
100
AcDbEntity
  8
0
100
AcDbLine
 62
250
  6
CONTINUOUS
 10
2.1019959853
 20
-18.0041513677
 11
-3.0869484706
 21
-18.8871701283
  0
LINE
  5
261
100
AcDbEntity
  8
0
100
AcDbLine
 62
7
  6
CONTINUOUS
 10
-3.0869484706
 20
-19.6439282493
 11
0.7052764361
 21
-19.0958630863
  0
LINE
  5
262
100
AcDbEntity
  8
0
100
AcDbLine
 62
7
  6
CONTINUOUS
 10
-3.3852182516
 20
14.5894959567
 11
-5.1375581361
 21
13.4529285922
  0
LINE
  5
263
100
AcDbEntity
  8
0
100
AcDbLine
 62
7
  6
CONTINUOUS
 10
-5.1375581361
 20
13.4529285922
 11
-7.1006276703
 21
12.2213244791
  0
LINE
  5
264
100
AcDbEntity
  8
0
100
AcDbLine
 62
250
  6
CONTINUOUS
 10
-1.4914809033
 20
14.2872195652
 11
-0.4772270778
 21
14.8936441841
  0
LINE
  5
265
100
AcDbEntity
  8
0
100
AcDbLine
 62
250
  6
CONTINUOUS
 10
-1.3500380046
 20
14.0422581528
 11
-0.3333587484
 21
14.6501329422
  0
LINE
  5
266
100
AcDbEntity
  8
0
100
AcDbLine
 62
7
  6
CONTINUOUS
 10
-1.0623810021
 20
12.4781730152
 11
0.9426838106
 21
13.2657647993
  0
LINE
  5
267
100
AcDbEntity
  8
0
100
AcDbLine
 62
7
  6
CONTINUOUS
 10
-0.9904474847
 20
12.4366395038
 11
1.08585791
 21
13.1830978687
  0
LINE
  5
268
100
AcDbEntity
  8
0
100
AcDbLine
 62
7
  6
CONTINUOUS
 10
1.5098023904
 20
-17.6622262079
 11
-3.0869484706
 21
-18.355277639
  0
LINE
  5
269
100
AcDbEntity
  8
0
100
AcDbLine
 62
7
  6
CONTINUOUS
 10
-1.4914809033
 20
-24.0868834441
 11
-2.2382621134
 21
-23.6557013327
  0
LWPOLYLINE
  5
26A
100
AcDbEntity
  8
0
100
AcDbPolyline
 62
250
  6
CONTINUOUS
 90
19
 70
0
 10
-9.2758699493
 20
8.8720235913
 10
-9.3405994276
 20
8.8280237061
 10
-9.4042035982
 20
8.7780083155
 10
-9.4661766533
 20
8.7224685049
 10
-9.5263963504
 20
8.6615501584
 10
-9.5840180359
 20
8.5961369306
 10
-9.6376319965
 20
8.5281150809
 10
-9.6869283807
 20
8.4584075875
 10
-9.7318702059
 20
8.3876265267
 10
-9.771836563
 20
8.3174568583
 10
-9.8064127787
 20
8.2497002189
 10
-9.8364465415
 20
8.1838157017
 10
-9.8630979231
 20
8.1178428992
 10
-9.8862116689
 20
8.0524139851
 10
-9.9058532146
 20
7.9875935624
 10
-9.9227111234
 20
7.9205159428
 10
-9.9364158082
 20
7.8505937675
 10
-9.9461006
 20
7.779472111
 10
-9.9511875995
 20
7.7078213318
  0
LWPOLYLINE
  5
26B
100
AcDbEntity
  8
0
100
AcDbPolyline
 62
250
  6
CONTINUOUS
 90
19
 70
0
 10
-8.9100373589
 20
8.2673628394
 10
-8.9430857484
 20
8.2450893648
 10
-8.9750778491
 20
8.2203219031
 10
-9.0060136609
 20
8.1930604543
 10
-9.0362369008
 20
8.1627790853
 10
-9.0654038519
 20
8.1300037293
 10
-9.0924833633
 20
8.0963121853
 10
-9.1172380262
 20
8.0617244374
 10
-9.1399052494
 20
8.0262205016
 10
-9.1601661082
 20
7.9913182241
 10
-9.1777033153
 20
7.9576846794
 10
-9.192834158
 20
7.9246527931
 10
-9.2061915733
 20
7.8917391885
 10
-9.2179770004
 20
7.8591096383
 10
-9.2279890002
 20
7.8265983698
 10
-9.2362561921
 20
7.7932246877
 10
-9.242788116
 20
7.7586616934
 10
-9.2475752319
 20
7.7232362855
 10
-9.25061754
 20
7.686948464
  0
LINE
  5
26C
100
AcDbEntity
  8
0
100
AcDbLine
 62
250
  6
CONTINUOUS
 10
-1.6416092967
 20
13.5827579987
 11
-9.2758700989
 21
8.8720236777
  0
LINE
  5
26D
100
AcDbEntity
  8
0
100
AcDbLine
 62
250
  6
CONTINUOUS
 10
-1.2883250307
 20
12.9703541019
 11
-8.9100373589
 21
8.2673628394
  0
LINE
  5
26E
100
AcDbEntity
  8
0
100
AcDbLine
 62
7
  6
CONTINUOUS
 10
0.8037309733
 20
13.6154138355
 11
-0.307891725
 21
12.9507721509
  0
LINE
  5
26F
100
AcDbEntity
  8
0
100
AcDbLine
 62
7
  6
CONTINUOUS
 10
0.8158544335
 20
14.4388840703
 11
1.1630290519
 21
14.6393390321
  0
LWPOLYLINE
  5
270
100
AcDbEntity
  8
0
100
AcDbPolyline
 62
250
  6
CONTINUOUS
 90
16
 70
0
 10
-9.25061754
 20
7.686948464
 10
-9.2896252803
 20
7.6691229212
 10
-9.3319365367
 20
7.6537134429
 10
-9.3770979645
 20
7.6408851342
 10
-9.4246256807
 20
7.6307754444
 10
-9.4740104488
 20
7.623492694
 10
-9.5247231345
 20
7.619114914
 10
-9.5762203759
 20
7.6176890104
 10
-9.6279504047
 20
7.619230261
 10
-9.6793589585
 20
7.623722152
 10
-9.7298952194
 20
7.6311165551
 10
-9.7790177156
 20
7.6413342426
 10
-9.8262001231
 20
7.6542657371
 10
-9.8709369051
 20
7.6697724838
 10
-9.9127487284
 20
7.6876883353
 10
-9.9511875995
 20
7.7078213318
  0
LINE
  5
271
100
AcDbEntity
  8
0
100
AcDbLine
 62
7
  6
CONTINUOUS
 10
-2.2942598476
 20
-16.2822786246
 11
-3.0869484706
 21
-16.4119551911
  0
LINE
  5
272
100
AcDbEntity
  8
0
100
AcDbLine
 62
7
  6
CONTINUOUS
 10
-2.8126087934
 20
-15.9829904397
 11
-3.0869484706
 21
-16.0260958917
  0
LWPOLYLINE
  5
273
100
AcDbEntity
  8
0
100
AcDbPolyline
 62
7
  6
CONTINUOUS
 90
6
 70
0
 10
-2.8126087934
 20
-15.9829904397
 10
-2.7789593681
 20
-15.9801442045
 10
-2.7475236061
 20
-15.9819072016
 10
-2.7183015075
 20
-15.9882794312
 10
-2.691038055
 20
-15.9994212454
 10
-2.6834776154
 20
-16.0034432846
  0
LWPOLYLINE
  5
274
100
AcDbEntity
  8
0
100
AcDbPolyline
 62
7
  6
CONTINUOUS
 90
11
 70
0
 10
-16.9926587863
 20
-22.4299247512
 10
-16.9857411179
 20
-22.5138281821
 10
-16.9709592274
 20
-22.5963136129
 10
-16.9488819343
 20
-22.6739642157
 10
-16.9201627989
 20
-22.7460806898
 10
-16.8852945243
 20
-22.812723093
 10
-16.8443990568
 20
-22.8742606055
 10
-16.7981083928
 20
-22.9301015385
 10
-16.7470063598
 20
-22.9799181085
 10
-16.6909037449
 20
-23.0239893067
 10
-16.6410593277
 20
-23.0557484891
  0
LWPOLYLINE
  5
275
100
AcDbEntity
  8
0
100
AcDbPolyline
 62
250
  6
CONTINUOUS
 90
9
 70
0
 10
-16.9926587863
 20
-22.4299247512
 10
-16.9918530541
 20
-22.4415757811
 10
-16.9860333062
 20
-22.4723900773
 10
-16.9749308846
 20
-22.5025530849
 10
-16.9586647465
 20
-22.5317416219
 10
-16.9374091757
 20
-22.559642947
 10
-16.9113919154
 20
-22.585958111
 10
-16.8808917282
 20
-22.6104051595
 10
-16.8462354088
 20
-22.632722154
  0
LWPOLYLINE
  5
276
100
AcDbEntity
  8
0
100
AcDbPolyline
 62
250
  6
CONTINUOUS
 90
16
 70
0
 10
-16.8462354088
 20
-22.632722154
 10
-16.9276713976
 20
-20.2326935831
 10
-16.9947096627
 20
-17.895745095
 10
-17.0484402533
 20
-15.6226286686
 10
-17.0895998808
 20
-13.4341620716
 10
-17.1197199188
 20
-11.3110406861
 10
-17.1401995166
 20
-9.1932857332
 10
-17.1511775857
 20
-7.0792156651
 10
-17.1528030729
 20
-4.9707963582
 10
-17.1449084603
 20
-2.8125873861
 10
-17.1268228076
 20
-0.5995275014
 10
-17.0979513377
 20
1.6639185093
 10
-17.0568862286
 20
4.019663017
 10
-17.0020339778
 20
6.4822436683
 10
-16.9322707434
 20
9.0384548762
 10
-16.8462354088
 20
11.6889355216
  0
LWPOLYLINE
  5
277
100
AcDbEntity
  8
0
100
AcDbPolyline
 62
7
  6
CONTINUOUS
 90
10
 70
0
 10
-16.9926876592
 20
11.893246714
 10
-17.112388836
 20
8.0669082744
 10
-17.2041719313
 20
4.1815938165
 10
-17.2653562781
 20
0.3137003261
 10
-17.2959363548
 20
-3.5364382402
 10
-17.2959091051
 20
-7.3684969797
 10
-17.265273817
 20
-11.1821400021
 10
-17.2040318936
 20
-14.977041703
 10
-17.1121872259
 20
-18.7528776508
 10
-16.9926602484
 20
-22.4298849091
  0
LWPOLYLINE
  5
278
100
AcDbEntity
  8
0
100
AcDbPolyline
 62
250
  6
CONTINUOUS
 90
19
 70
0
 10
-16.8462354088
 20
11.6889355216
 10
-16.841078774
 20
11.7622656173
 10
-16.8307384417
 20
11.8378073274
 10
-16.8153035582
 20
11.914993481
 10
-16.7948262073
 20
11.9935142727
 10
-16.7695128586
 20
12.0725210657
 10
-16.7398847863
 20
12.1506231793
 10
-16.7062429254
 20
12.2274076669
 10
-16.6690186988
 20
12.3022063776
 10
-16.6292823076
 20
12.3733683579
 10
-16.588214324
 20
12.4396093073
 10
-16.5457786996
 20
12.5017333084
 10
-16.5011536585
 20
12.5612178738
 10
-16.45474882
 20
12.617581069
 10
-16.4067172407
 20
12.6707055968
 10
-16.3554785069
 20
12.7220863321
 10
-16.3005654644
 20
12.7715709743
 10
-16.242831798
 20
12.8177698233
 10
-16.1826036315
 20
12.8598850577
  0
LWPOLYLINE
  5
279
100
AcDbEntity
  8
0
100
AcDbPolyline
 62
250
  6
CONTINUOUS
 90
5
 70
0
 10
-12.0402138972
 20
16.561868597
 10
-12.0343447765
 20
16.5853691557
 10
-12.0262617134
 20
16.6091084056
 10
-12.0160998224
 20
16.6326815864
 10
-12.0040346327
 20
16.6556795524
  0
LWPOLYLINE
  5
27A
100
AcDbEntity
  8
0
100
AcDbPolyline
 62
250
  6
CONTINUOUS
 90
3
 70
0
 10
-8.8737545235
 20
16.4606615166
 10
-8.8653938069
 20
16.4774359703
 10
-8.8628185882
 20
16.4848305128
  0
LWPOLYLINE
  5
27B
100
AcDbEntity
  8
0
100
AcDbPolyline
 62
7
  6
CONTINUOUS
 90
9
 70
0
 10
2.4638397617
 20
13.7184648976
 10
2.4847050693
 20
13.7319095902
 10
2.5027926551
 20
13.7461843292
 10
2.5181025189
 20
13.7612891148
 10
2.5307361271
 20
13.7773986317
 10
2.5405920135
 20
13.7943381952
 10
2.5473657789
 20
13.8115837506
 10
2.5509611641
 20
13.8291449811
 10
2.5517077248
 20
13.8409249013
  0
LINE
  5
27C
100
AcDbEntity
  8
0
100
AcDbLine
 62
7
  6
CONTINUOUS
 10
2.4711650207
 20
13.9592001409
 11
1.08585791
 21
13.1309219372
  0
LINE
  5
27D
100
AcDbEntity
  8
0
100
AcDbLine
 62
7
  6
CONTINUOUS
 10
2.4638397617
 20
13.7184648976
 11
1.1203368774
 21
12.9427431703
  0
LINE
  5
27E
100
AcDbEntity
  8
0
100
AcDbLine
 62
7
  6
CONTINUOUS
 10
1.1203368774
 20
12.2895669489
 11
2.4638397617
 21
13.0652886762
  0
LINE
  5
27F
100
AcDbEntity
  8
0
100
AcDbLine
 62
7
  6
CONTINUOUS
 10
0.8158544335
 20
-21.8118988477
 11
0.1213689832
 21
-21.4109116526
  0
LWPOLYLINE
  5
280
100
AcDbEntity
  8
0
100
AcDbPolyline
 62
250
  6
CONTINUOUS
 90
9
 70
0
 10
-16.9926981432
 20
11.8929387258
 10
-16.9918534805
 20
11.8710592316
 10
-16.9860343899
 20
11.8425079809
 10
-16.9749324708
 20
11.8143125799
 10
-16.9586666062
 20
11.7867751448
 10
-16.9374110435
 20
11.7601907716
 10
-16.9113934989
 20
11.7348443286
 10
-16.8808926964
 20
11.7110074077
 10
-16.8462354117
 20
11.6889354398
  0
LINE
  5
281
100
AcDbEntity
  8
0
100
AcDbLine
 62
250
  6
CONTINUOUS
 10
-11.1648119686
 20
15.0217124075
 11
-10.9580719548
 21
15.6980603631
  0
LINE
  5
282
100
AcDbEntity
  8
0
100
AcDbLine
 62
250
  6
CONTINUOUS
 10
-10.8904222938
 20
14.9768278808
 11
-10.6777189245
 21
15.6726848964
  0
LINE
  5
283
100
AcDbEntity
  8
0
100
AcDbLine
 62
7
  6
CONTINUOUS
 10
-9.5929021925
 20
15.6965223928
 11
-9.3801988232
 21
16.3923794084
  0
LWPOLYLINE
  5
284
100
AcDbEntity
  8
0
100
AcDbPolyline
 62
250
  6
CONTINUOUS
 90
7
 70
0
 10
2.3346372448
 20
12.8570667583
 10
2.3513674596
 20
12.8684605784
 10
2.3654104352
 20
12.8810060051
 10
2.3765311947
 20
12.8944931198
 10
2.384543658
 20
12.908696248
 10
2.3893137551
 20
12.9233777321
 10
2.3907692847
 20
12.9372841905
  0
LWPOLYLINE
  5
285
100
AcDbEntity
  8
0
100
AcDbPolyline
 62
250
  6
CONTINUOUS
 90
6
 70
0
 10
2.2681673786
 20
-18.2741999421
 10
2.2565828098
 20
-18.269296939
 10
2.2437628047
 20
-18.265982725
 10
2.229575637
 20
-18.2643139011
 10
2.214153033
 20
-18.2642338664
 10
2.1974949928
 20
-18.2657426209
  0
LINE
  5
286
100
AcDbEntity
  8
0
100
AcDbLine
 62
250
  6
CONTINUOUS
 10
0.9759062988
 20
-20.3701197367
 11
0.9419680348
 21
-20.3505242084
  0
LINE
  5
287
100
AcDbEntity
  8
0
100
AcDbLine
 62
250
  6
CONTINUOUS
 10
0.7052764361
 20
-19.0958630863
 11
0.5751605534
 21
-19.0207358064
  0
LINE
  5
288
100
AcDbEntity
  8
0
100
AcDbLine
 62
7
  6
CONTINUOUS
 10
0.8366194039
 20
-19.117592983
 11
0.701996983
 21
-19.0398636844
  0
LWPOLYLINE
  5
289
100
AcDbEntity
  8
0
100
AcDbPolyline
 62
7
  6
CONTINUOUS
 90
3
 70
0
 10
-8.7696126113
 20
16.7897670419
 10
-8.7673676612
 20
16.7988287669
 10
-8.7658303727
 20
16.8150665362
  0
LINE
  5
28A
100
AcDbEntity
  8
0
100
AcDbLine
 62
250
  6
CONTINUOUS
 10
-8.9161594729
 20
16.4196660756
 11
-8.8219624127
 21
16.727830847
  0
LINE
  5
28B
100
AcDbEntity
  8
0
100
AcDbLine
 62
7
  6
CONTINUOUS
 10
-8.8627999395
 20
16.4848914547
 11
-8.7696123359
 21
16.7897537984
  0
LINE
  5
28C
100
AcDbEntity
  8
0
100
AcDbLine
 62
250
  6
CONTINUOUS
 10
-8.8628185882
 20
16.4848305128
 11
-8.8627999395
 21
16.4848914547
  0
LINE
  5
28D
100
AcDbEntity
  8
0
100
AcDbLine
 62
250
  6
CONTINUOUS
 10
-8.0914838906
 20
13.4307621947
 11
-8.0860528972
 21
13.4458323858
  0
LWPOLYLINE
  5
28E
100
AcDbEntity
  8
0
100
AcDbPolyline
 62
250
  6
CONTINUOUS
 90
9
 70
0
 10
-8.0860528972
 20
13.4458323858
 10
-8.0798169919
 20
13.4605307498
 10
-8.0727485247
 20
13.474839988
 10
-8.0647397401
 20
13.4888724048
 10
-8.0557589143
 20
13.5024924066
 10
-8.0457804956
 20
13.5155755824
 10
-8.0346398579
 20
13.5281629779
 10
-8.0222410849
 20
13.5401022476
 10
-8.0086063935
 20
13.5511005012
  0
LWPOLYLINE
  5
28F
100
AcDbEntity
  8
0
100
AcDbPolyline
 62
250
  6
CONTINUOUS
 90
7
 70
0
 10
2.2296472123
 20
-18.0237497343
 10
2.2205237965
 20
-18.0188679164
 10
2.201113847
 20
-18.0107569885
 10
2.1796568078
 20
-18.004867836
 10
2.1558274922
 20
-18.0015218035
 10
2.1299205884
 20
-18.0011671055
 10
2.1019959853
 20
-18.0041513677
  0
LINE
  5
290
100
AcDbEntity
  8
0
100
AcDbLine
 62
7
  6
CONTINUOUS
 10
-1.922243007
 20
-16.9547372724
 11
-0.2399995219
 21
-17.9260435772
  0
LINE
  5
291
100
AcDbEntity
  8
0
100
AcDbLine
 62
7
  6
CONTINUOUS
 10
1.7279677408
 20
-19.0623232103
 11
1.8816370302
 21
-19.1510499321
  0
LINE
  5
292
100
AcDbEntity
  8
0
100
AcDbLine
 62
7
  6
CONTINUOUS
 10
2.2423681195
 20
-19.359331542
 11
2.4711650207
 21
-19.4914360052
  0
LINE
  5
293
100
AcDbEntity
  8
0
100
AcDbLine
 62
250
  6
CONTINUOUS
 10
-2.2942598476
 20
-16.2822786246
 11
-2.8126087934
 21
-15.9829904397
  0
LINE
  5
294
100
AcDbEntity
  8
0
100
AcDbLine
 62
7
  6
CONTINUOUS
 10
-2.1662966976
 20
-16.3020570568
 11
-2.6835190947
 21
-16.0034193271
  0
LINE
  5
295
100
AcDbEntity
  8
0
100
AcDbLine
 62
250
  6
CONTINUOUS
 10
2.1019959853
 20
-18.0041513677
 11
1.5098023904
 21
-17.6622262079
  0
LINE
  5
296
100
AcDbEntity
  8
0
100
AcDbLine
 62
7
  6
CONTINUOUS
 10
2.2297331086
 20
-18.0237992949
 11
1.6400186379
 21
-17.6833055504
  0
LINE
  5
297
100
AcDbEntity
  8
0
100
AcDbLine
 62
250
  6
CONTINUOUS
 10
-12.1035450096
 20
16.5987614733
 11
-12.1035450224
 21
16.5988027766
  0
LINE
  5
298
100
AcDbEntity
  8
0
100
AcDbLine
 62
7
  6
CONTINUOUS
 10
-12.1035450224
 20
16.5988027766
 11
-12.1035450224
 21
16.3903276406
  0
LWPOLYLINE
  5
299
100
AcDbEntity
  8
0
100
AcDbPolyline
 62
250
  6
CONTINUOUS
 90
3
 70
0
 10
-12.0449663787
 20
16.517147858
 10
-12.043773643
 20
16.5389997774
 10
-12.0402138972
 20
16.561868597
  0
LINE
  5
29A
100
AcDbEntity
  8
0
100
AcDbLine
 62
250
  6
CONTINUOUS
 10
-3.0869484706
 20
7.1250088865
 11
2.1974949928
 21
12.5448997725
  0
LINE
  5
29B
100
AcDbEntity
  8
0
100
AcDbLine
 62
7
  6
CONTINUOUS
 10
-3.0869484706
 20
7.0662913188
 11
2.1968263869
 21
12.4854964616
  0
LINE
  5
29C
100
AcDbEntity
  8
0
100
AcDbLine
 62
7
  6
CONTINUOUS
 10
0.8491663113
 20
11.4244347384
 11
-3.0869484706
 21
7.6039243921
  0
LWPOLYLINE
  5
29D
100
AcDbEntity
  8
0
100
AcDbPolyline
 62
250
  6
CONTINUOUS
 90
19
 70
0
 10
-9.25061754
 20
-26.600387554
 10
-9.2478623409
 20
-26.6344206715
 10
-9.2425705483
 20
-26.6661184404
 10
-9.2347421622
 20
-26.6954808607
 10
-9.224200411
 20
-26.7227237416
 10
-9.2111220663
 20
-26.7476312738
 10
-9.1960374432
 20
-26.7695560303
 10
-9.178787665
 20
-26.788310574
 10
-9.1595316084
 20
-26.8040823418
 10
-9.1392762181
 20
-26.8167862182
 10
-9.118357504
 20
-26.8262476676
 10
-9.0964394562
 20
-26.8326412255
 10
-9.0735209899
 20
-26.836405382
 10
-9.0497855166
 20
-26.8378213753
 10
-9.0250496248
 20
-26.8366079673
 10
-8.9987619951
 20
-26.8323599335
 10
-8.9707388543
 20
-26.8249421992
 10
-8.9411639756
 20
-26.8144898393
 10
-8.9100373589
 20
-26.8010028536
  0
LWPOLYLINE
  5
29E
100
AcDbEntity
  8
0
100
AcDbPolyline
 62
250
  6
CONTINUOUS
 90
10
 70
0
 10
-9.9511875995
 20
-26.6138363439
 10
-9.9459358682
 20
-26.6811603542
 10
-9.9354132046
 20
-26.7446581796
 10
-9.9197090625
 20
-26.8038657813
 10
-9.8988699947
 20
-26.8585298694
 10
-9.8731086609
 20
-26.9080444818
 10
-9.8429638643
 20
-26.9516325973
 10
-9.8087305773
 20
-26.9892258646
 10
-9.7708459598
 20
-27.0206570354
 10
-9.7436787278
 20
-27.0382181446
  0
LINE
  5
29F
100
AcDbEntity
  8
0
100
AcDbLine
 62
250
  6
CONTINUOUS
 10
-11.8163505143
 20
15.2448360003
 11
-11.8158637816
 21
15.2216901082
  0
LINE
  5
2A0
100
AcDbEntity
  8
0
100
AcDbLine
 62
250
  6
CONTINUOUS
 10
-12.0449663787
 20
16.517147858
 11
-12.0449663787
 21
16.3256195814
  0
LINE
  5
2A1
100
AcDbEntity
  8
0
100
AcDbLine
 62
7
  6
CONTINUOUS
 10
-11.8744424253
 20
15.3033450269
 11
-11.8744424253
 21
14.8150442943
  0
LINE
  5
2A2
100
AcDbEntity
  8
0
100
AcDbLine
 62
250
  6
CONTINUOUS
 10
-11.8158637816
 20
15.2216901082
 11
-11.8158637816
 21
14.730882831
  0
LINE
  5
2A3
100
AcDbEntity
  8
0
100
AcDbLine
 62
250
  6
CONTINUOUS
 10
-11.1871745519
 20
14.3678855491
 11
-11.1871745519
 21
14.8586928264
  0
LINE
  5
2A4
100
AcDbEntity
  8
0
100
AcDbLine
 62
250
  6
CONTINUOUS
 10
-10.9580719548
 20
15.6980603631
 11
-10.9580719548
 21
15.8895886396
  0
LINE
  5
2A5
100
AcDbEntity
  8
0
100
AcDbLine
 62
250
  6
CONTINUOUS
 10
-10.9068215216
 20
14.374881434
 11
-10.9068215216
 21
14.857280188
  0
LINE
  5
2A6
100
AcDbEntity
  8
0
100
AcDbLine
 62
250
  6
CONTINUOUS
 10
-10.6777189245
 20
15.6726848964
 11
-10.6777189245
 21
15.8881760013
  0
LWPOLYLINE
  5
2A7
100
AcDbEntity
  8
0
100
AcDbPolyline
 62
250
  6
CONTINUOUS
 90
10
 70
0
 10
-10.9068215216
 20
14.857280188
 10
-10.9065557608
 20
14.8740192704
 10
-10.9057766032
 20
14.8898409526
 10
-10.904540613
 20
14.9047611391
 10
-10.90290277
 20
14.9187898909
 10
-10.9009164727
 20
14.9319591583
 10
-10.8986304555
 20
14.9443199735
 10
-10.8960900252
 20
14.9559053723
 10
-10.8933399024
 20
14.966732299
 10
-10.8904222938
 20
14.9768278808
  0
LWPOLYLINE
  5
2A8
100
AcDbEntity
  8
0
100
AcDbPolyline
 62
250
  6
CONTINUOUS
 90
10
 70
0
 10
-11.1871745519
 20
14.8586928264
 10
-11.1866719621
 20
14.8814841027
 10
-11.1856237383
 20
14.903072701
 10
-11.1840298807
 20
14.9234586212
 10
-11.1818235911
 20
14.9425976226
 10
-11.1790716675
 20
14.960533946
 10
-11.1759745041
 20
14.9774003139
 10
-11.1725988988
 20
14.9932409672
 10
-11.1688780537
 20
15.0080116651
 10
-11.1648119686
 20
15.0217124075
  0
LWPOLYLINE
  5
2A9
100
AcDbEntity
  8
0
100
AcDbPolyline
 62
250
  6
CONTINUOUS
 90
13
 70
0
 10
-10.9580719548
 20
15.8895886396
 10
-10.9568796674
 20
15.9114363398
 10
-10.9533213068
 20
15.9343003608
 10
-10.9474545428
 20
15.9577957479
 10
-10.9393751475
 20
15.9815288073
 10
-10.9292180008
 20
16.0050959606
 10
-10.9171570761
 20
16.0280909236
 10
-10.903365835
 20
16.0501696533
 10
-10.8881017497
 20
16.0709082683
 10
-10.87173602
 20
16.0898351925
 10
-10.8546030261
 20
16.1066343282
 10
-10.8369652309
 20
16.1211146958
 10
-10.8191187416
 20
16.1330876684
  0
LWPOLYLINE
  5
2AA
100
AcDbEntity
  8
0
100
AcDbPolyline
 62
250
  6
CONTINUOUS
 90
7
 70
0
 10
-8.7658303727
 20
17.0398825831
 10
-8.7673991224
 20
17.0254474476
 10
-8.7723352418
 20
17.010670918
 10
-8.780492902
 20
16.9964823143
 10
-8.7916442736
 20
16.9831362247
 10
-8.8055610488
 20
16.9708039123
 10
-8.8219624127
 20
16.9596651757
  0
LWPOLYLINE
  5
2AB
100
AcDbEntity
  8
0
100
AcDbPolyline
 62
250
  6
CONTINUOUS
 90
4
 70
0
 10
-8.1029241525
 20
13.3843823518
 10
-8.0999026448
 20
13.3999949989
 10
-8.0960968958
 20
13.4154673997
 10
-8.0914838906
 20
13.4307621947
  0
LWPOLYLINE
  5
2AC
100
AcDbEntity
  8
0
100
AcDbPolyline
 62
250
  6
CONTINUOUS
 90
4
 70
0
 10
2.1974949928
 20
12.5448997725
 10
2.2161451469
 20
12.5657459517
 10
2.2332453421
 20
12.5866610981
 10
2.2487955786
 20
12.6076452117
  0
LWPOLYLINE
  5
2AD
100
AcDbEntity
  8
0
100
AcDbPolyline
 62
7
  6
CONTINUOUS
 90
11
 70
0
 10
2.1967420839
 20
12.4854104114
 10
2.2319533402
 20
12.5245883808
 10
2.2625857542
 20
12.5643631955
 10
2.2907121744
 20
12.6068535855
 10
2.3158877255
 20
12.6514245686
 10
2.3379440099
 20
12.6978583627
 10
2.3566172564
 20
12.7458298206
 10
2.3714753922
 20
12.794560187
 10
2.3822910686
 20
12.8437165272
 10
2.3888298378
 20
12.8932189218
 10
2.3907692624
 20
12.9373387581
  0
LWPOLYLINE
  5
2AE
100
AcDbEntity
  8
0
100
AcDbPolyline
 62
250
  6
CONTINUOUS
 90
13
 70
0
 10
-10.6777189245
 20
15.8881760013
 10
-10.6792346615
 20
15.9100105056
 10
-10.6831007129
 20
15.9328923188
 10
-10.6892509549
 20
15.9564300782
 10
-10.6975801959
 20
15.9802212022
 10
-10.7079459756
 20
16.0038587756
 10
-10.7201710014
 20
16.02693851
 10
-10.7340461808
 20
16.0490656576
 10
-10.7493341976
 20
16.0698617633
 10
-10.7657735707
 20
16.0889711375
 10
-10.7830831267
 20
16.1060669401
 10
-10.8009668091
 20
16.1208567704
 10
-10.8191187416
 20
16.1330876684
  0
LINE
  5
2AF
100
AcDbEntity
  8
0
100
AcDbLine
 62
7
  6
CONTINUOUS
 10
-9.6093014203
 20
15.1755185397
 11
-9.6093014203
 21
15.5769747
  0
LINE
  5
2B0
100
AcDbEntity
  8
0
100
AcDbLine
 62
7
  6
CONTINUOUS
 10
-9.3801988232
 20
16.3923794084
 11
-9.3801988232
 21
16.6373121795
  0
LINE
  5
2B1
100
AcDbEntity
  8
0
100
AcDbLine
 62
250
  6
CONTINUOUS
 10
-8.8219624127
 20
16.9596651757
 11
-8.8219624127
 21
16.727830847
  0
LWPOLYLINE
  5
2B2
100
AcDbEntity
  8
0
100
AcDbPolyline
 62
250
  6
CONTINUOUS
 90
16
 70
0
 10
-9.25061754
 20
7.686948464
 10
-9.3330755789
 20
5.1931339139
 10
-9.4028259484
 20
2.7784696138
 10
-9.4598686485
 20
0.4429555637
 10
-9.5033036137
 20
-1.7926797597
 10
-9.5340309095
 20
-3.9491648333
 10
-9.554750733
 20
-6.088685087
 10
-9.5665787196
 20
-8.213672627
 10
-9.5683992338
 20
-10.3216953472
 10
-9.5595655665
 20
-12.4676423603
 10
-9.5410071399
 20
-14.6568146765
 10
-9.5117945317
 20
-16.8839112855
 10
-9.4684927653
 20
-19.1879182696
 10
-9.4099568485
 20
-21.5818309894
 10
-9.3373317734
 20
-24.0526540842
 10
-9.25061754
 20
-26.600387554
  0
LWPOLYLINE
  5
2B3
100
AcDbEntity
  8
0
100
AcDbPolyline
 62
250
  6
CONTINUOUS
 90
16
 70
0
 10
-9.9511875995
 20
7.7078213318
 10
-10.0354967383
 20
5.2106674253
 10
-10.1049508311
 20
2.7937550776
 10
-10.1606445751
 20
0.4565751126
 10
-10.2032880859
 20
-1.7808686577
 10
-10.2344481063
 20
-3.9396907218
 10
-10.2556200073
 20
-6.0816046578
 10
-10.266983726
 20
-8.208462333
 10
-10.268652945
 20
-10.3184632355
 10
-10.2604395777
 20
-12.4669473214
 10
-10.2417060278
 20
-14.658222547
 10
-10.2118272966
 20
-16.8871176952
 10
-10.1692771766
 20
-19.1939493306
 10
-10.1124224186
 20
-21.5914248016
 10
-10.0401794609
 20
-24.0650313335
 10
-9.9511875995
 20
-26.6138363439
  0
LINE
  5
2B4
100
AcDbEntity
  8
0
100
AcDbLine
 62
7
  6
CONTINUOUS
 10
-8.1499754208
 20
13.3255512719
 11
-8.1499956603
 21
13.3252696031
  0
LINE
  5
2B5
100
AcDbEntity
  8
0
100
AcDbLine
 62
250
  6
CONTINUOUS
 10
-8.0989519599
 20
13.1717930993
 11
-8.0919375652
 21
13.2291986389
  0
LWPOLYLINE
  5
2B6
100
AcDbEntity
  8
0
100
AcDbPolyline
 62
250
  6
CONTINUOUS
 90
13
 70
0
 10
2.2487955786
 20
12.6076452117
 10
2.2627147059
 20
12.6288182766
 10
2.2750838745
 20
12.6500603086
 10
2.2861465351
 20
12.6710113558
 10
2.2958884329
 20
12.6914529408
 10
2.3043238228
 20
12.7116035409
 10
2.3117389202
 20
12.731758637
 10
2.3182564843
 20
12.7518799756
 10
2.323753756
 20
12.7720058102
 10
2.328148674
 20
12.7925463817
 10
2.3314138846
 20
12.813638437
 10
2.3335767415
 20
12.8351452292
 10
2.3346372448
 20
12.8570667583
  0
LWPOLYLINE
  5
2B7
100
AcDbEntity
  8
0
100
AcDbPolyline
 62
250
  6
CONTINUOUS
 90
5
 70
0
 10
-11.8238840494
 20
15.3323056177
 10
-11.8211502201
 20
15.3111991103
 10
-11.8189625963
 20
15.2895750119
 10
-11.8173834525
 20
15.2674643015
 10
-11.8163505143
 20
15.2448360003
  0
LWPOLYLINE
  5
2B8
100
AcDbEntity
  8
0
100
AcDbPolyline
 62
250
  6
CONTINUOUS
 90
7
 70
0
 10
-11.8744424253
 20
15.3033450269
 10
-11.8725363134
 20
15.2874400037
 10
-11.8673231733
 20
15.2728088327
 10
-11.8588826197
 20
15.2586886144
 10
-11.8473558855
 20
15.2453156179
 10
-11.8329358441
 20
15.2329136096
 10
-11.8158637816
 20
15.2216901082
  0
LINE
  5
2B9
100
AcDbEntity
  8
0
100
AcDbLine
 62
7
  6
CONTINUOUS
 10
-12.1035450224
 20
16.3903303108
 11
-12.1023626909
 21
16.3797180289
  0
LWPOLYLINE
  5
2BA
100
AcDbEntity
  8
0
100
AcDbPolyline
 62
250
  6
CONTINUOUS
 90
16
 70
0
 10
-8.9100373589
 20
8.2673628394
 10
-8.9139038558
 20
8.3099906244
 10
-8.9215288549
 20
8.3544246371
 10
-8.9328289677
 20
8.40017866
 10
-8.9476805882
 20
8.4467520246
 10
-8.96592124
 20
8.4936350746
 10
-8.9873513493
 20
8.5403147436
 10
-9.0117364424
 20
8.5862802002
 10
-9.0388096961
 20
8.6310284052
 10
-9.0682748437
 20
8.6740696055
 10
-9.0998094576
 20
8.7149327585
 10
-9.1330684498
 20
8.7531706395
 10
-9.1676878199
 20
8.7883647153
 10
-9.2032886952
 20
8.8201297929
 10
-9.2394814825
 20
8.8481182258
 10
-9.2758700934
 20
8.8720236812
  0
LINE
  5
2BB
100
AcDbEntity
  8
0
100
AcDbLine
 62
250
  6
CONTINUOUS
 10
-8.8228763698
 20
16.9818471407
 11
-8.8219624127
 21
16.9596651757
  0
LINE
  5
2BC
100
AcDbEntity
  8
0
100
AcDbLine
 62
7
  6
CONTINUOUS
 10
-8.7658303727
 20
17.0398825831
 11
-8.7658303727
 21
16.8150642232
  0
LINE
  5
2BD
100
AcDbEntity
  8
0
100
AcDbLine
 62
250
  6
CONTINUOUS
 10
-7.4526316816
 20
12.2116073006
 11
-7.4526316816
 21
13.0143730681
  0
LWPOLYLINE
  5
2BE
100
AcDbEntity
  8
0
100
AcDbPolyline
 62
250
  6
CONTINUOUS
 90
3
 70
0
 10
-8.1499956603
 20
13.3252696031
 10
-8.1501843799
 20
13.3195103447
 10
-8.1484250105
 20
13.3032481468
  0
LINE
  5
2BF
100
AcDbEntity
  8
0
100
AcDbLine
 62
7
  6
CONTINUOUS
 10
-12.1023628709
 20
16.3797307318
 11
-11.8918882767
 21
15.4481143468
  0
LINE
  5
2C0
100
AcDbEntity
  8
0
100
AcDbLine
 62
250
  6
CONTINUOUS
 10
-12.0449663787
 20
16.3256195814
 11
-11.8382263649
 21
15.41053344
  0
LINE
  5
2C1
100
AcDbEntity
  8
0
100
AcDbLine
 62
250
  6
CONTINUOUS
 10
-11.8382263649
 20
15.41053344
 11
-11.8341172814
 21
15.3919000199
  0
LWPOLYLINE
  5
2C2
100
AcDbEntity
  8
0
100
AcDbPolyline
 62
7
  6
CONTINUOUS
 90
6
 70
0
 10
-11.8918841998
 20
15.448096327
 10
-11.8871749319
 20
15.4257815567
 10
-11.8810780829
 20
15.3901606569
 10
-11.8769882454
 20
15.3560667679
 10
-11.8748568941
 20
15.3241641879
 10
-11.8744424114
 20
15.3033881413
  0
LWPOLYLINE
  5
2C3
100
AcDbEntity
  8
0
100
AcDbPolyline
 62
250
  6
CONTINUOUS
 90
4
 70
0
 10
-11.8341172814
 20
15.3919000199
 10
-11.8303675801
 20
15.3726560725
 10
-11.8269772609
 20
15.3528015981
 10
-11.8238840494
 20
15.3323056177
  0
LWPOLYLINE
  5
2C4
100
AcDbEntity
  8
0
100
AcDbPolyline
 62
250
  6
CONTINUOUS
 90
13
 70
0
 10
-7.1006276703
 20
13.0134862489
 10
-7.102329707
 20
13.0408921209
 10
-7.107000522
 20
13.0695905423
 10
-7.1145602039
 20
13.0990905226
 10
-7.1248794171
 20
13.1288873579
 10
-7.137781614
 20
13.1584712655
 10
-7.1530460558
 20
13.1873361054
 10
-7.1704115891
 20
13.2149880402
 10
-7.1895811134
 20
13.2409539832
 10
-7.2102266647
 20
13.2647896932
 10
-7.2319950261
 20
13.2860873739
 10
-7.2545137709
 20
13.3044826514
 10
-7.2773976344
 20
13.3196608078
  0
LINE
  5
2C5
100
AcDbEntity
  8
0
100
AcDbLine
 62
250
  6
CONTINUOUS
 10
-7.1006276703
 20
12.2213244791
 11
-7.1006276703
 21
13.0134862489
  0
LWPOLYLINE
  5
2C6
100
AcDbEntity
  8
0
100
AcDbPolyline
 62
250
  6
CONTINUOUS
 90
9
 70
0
 10
-8.9100373589
 20
-26.8010028536
 10
-8.9139040249
 20
-26.8435518738
 10
-8.9215293669
 20
-26.8833626386
 10
-8.9328299373
 20
-26.9199994794
 10
-8.9476820683
 20
-26.9530614616
 10
-8.965923226
 20
-26.982186772
 10
-8.9873537887
 20
-27.0070566783
 10
-9.0117392312
 20
-27.0273990171
 10
-9.0344397821
 20
-27.0408869285
  0
LWPOLYLINE
  5
2C7
100
AcDbEntity
  8
0
100
AcDbPolyline
 62
7
  6
CONTINUOUS
 90
6
 70
0
 10
-12.1023626909
 20
16.3797180289
 10
-12.1016924282
 20
16.3770971669
 10
-12.0964923205
 20
16.3650111964
 10
-12.0880393174
 20
16.3536022517
 10
-12.0764918966
 20
16.3430693674
 10
-12.0620505413
 20
16.3336733656
  0
LWPOLYLINE
  5
2C8
100
AcDbEntity
  8
0
100
AcDbPolyline
 62
7
  6
CONTINUOUS
 90
13
 70
0
 10
-5.1380768398
 20
14.1466262443
 10
-5.1397590221
 20
14.174043772
 10
-5.1444091566
 20
14.2027547905
 10
-5.151947336
 20
14.2322682437
 10
-5.162243835
 20
14.2620795779
 10
-5.1751224736
 20
14.2916787153
 10
-5.1903636385
 20
14.3205587777
 10
-5.2077061383
 20
14.3482258563
 10
-5.2268528364
 20
14.374206792
 10
-5.2474768864
 20
14.3980566076
 10
-5.2692254081
 20
14.419367225
 10
-5.2917255314
 20
14.4377744437
 10
-5.3145919346
 20
14.4529635062
  0
LINE
  5
2C9
100
AcDbEntity
  8
0
100
AcDbLine
 62
7
  6
CONTINUOUS
 10
-5.1375581361
 20
13.4529285922
 11
-5.1375581361
 21
14.1469257338
  0
LINE
  5
2CA
100
AcDbEntity
  8
0
100
AcDbLine
 62
7
  6
CONTINUOUS
 10
-3.3852182516
 20
14.5894959567
 11
-3.3852182516
 21
15.1765222068
  0
LINE
  5
2CB
100
AcDbEntity
  8
0
100
AcDbLine
 62
7
  6
CONTINUOUS
 10
-3.0869484706
 20
-19.6439282493
 11
-3.0869484706
 21
7.6039243921
  0
LWPOLYLINE
  5
2CC
100
AcDbEntity
  8
0
100
AcDbPolyline
 62
250
  6
CONTINUOUS
 90
8
 70
0
 10
2.3265362214
 20
-18.3511331481
 10
2.3210206977
 20
-18.3346642131
 10
2.3141788479
 20
-18.320359724
 10
2.3064982632
 20
-18.3078320176
 10
2.2981419813
 20
-18.2970711384
 10
2.2889469644
 20
-18.2880870418
 10
2.2789116905
 20
-18.2805219319
 10
2.2681673786
 20
-18.2741999421
  0
LWPOLYLINE
  5
2CD
100
AcDbEntity
  8
0
100
AcDbPolyline
 62
250
  6
CONTINUOUS
 90
6
 70
0
 10
-8.1484250105
 20
13.3032481468
 10
-8.1433168355
 20
13.2871146414
 10
-8.1349462911
 20
13.2713828228
 10
-8.1234550158
 20
13.2563188881
 10
-8.109037454
 20
13.2421777331
 10
-8.0919375652
 20
13.2291986392
  0
LWPOLYLINE
  5
2CE
100
AcDbEntity
  8
0
100
AcDbPolyline
 62
250
  6
CONTINUOUS
 90
12
 70
0
 10
-8.0919375651
 20
13.2291986391
 10
-8.0955225029
 20
13.2410831684
 10
-8.0987294788
 20
13.2534923345
 10
-8.1015112048
 20
13.2664092249
 10
-8.1038128524
 20
13.2798026356
 10
-8.1055927959
 20
13.2936541683
 10
-8.1068184815
 20
13.3079589825
 10
-8.1074359763
 20
13.322715251
 10
-8.1073884435
 20
13.3378408444
 10
-8.1066465628
 20
13.3532010338
 10
-8.1051713041
 20
13.3687358788
 10
-8.1029241525
 20
13.3843823518
  0
LINE
  5
2CF
100
AcDbEntity
  8
0
100
AcDbLine
 62
7
  6
CONTINUOUS
 10
-2.0636589784
 20
-16.7097976253
 11
-2.0636589784
 21
-16.5304037651
  0
LINE
  5
2D0
100
AcDbEntity
  8
0
100
AcDbLine
 62
7
  6
CONTINUOUS
 10
-1.3500380046
 20
14.0422581528
 11
-1.3500380046
 21
13.2366605026
  0
LINE
  5
2D1
100
AcDbEntity
  8
0
100
AcDbLine
 62
7
  6
CONTINUOUS
 10
-1.3500380046
 20
-23.1996590955
 11
-1.3500380046
 21
-24.0052567457
  0
LINE
  5
2D2
100
AcDbEntity
  8
0
100
AcDbLine
 62
7
  6
CONTINUOUS
 10
-1.2883250307
 20
12.9703541019
 11
-1.2883250307
 21
12.6727061978
  0
LINE
  5
2D3
100
AcDbEntity
  8
0
100
AcDbLine
 62
7
  6
CONTINUOUS
 10
-1.2883250307
 20
-23.0046172901
 11
-1.2883250307
 21
-22.706969386
  0
LINE
  5
2D4
100
AcDbEntity
  8
0
100
AcDbLine
 62
7
  6
CONTINUOUS
 10
-1.2390571114
 20
15.3335152975
 11
-1.2339563346
 21
15.6224191176
  0
LINE
  5
2D5
100
AcDbEntity
  8
0
100
AcDbLine
 62
7
  6
CONTINUOUS
 10
-0.307891725
 20
12.9507721509
 11
-0.3333587484
 21
14.6501329422
  0
LINE
  5
2D6
100
AcDbEntity
  8
0
100
AcDbLine
 62
7
  6
CONTINUOUS
 10
0.8158544335
 20
-21.8118988477
 11
0.8037309733
 21
-21.0029259006
  0
LINE
  5
2D7
100
AcDbEntity
  8
0
100
AcDbLine
 62
7
  6
CONTINUOUS
 10
0.9419680348
 20
-20.6785123756
 11
0.9419680348
 21
-19.3475049377
  0
LINE
  5
2D8
100
AcDbEntity
  8
0
100
AcDbLine
 62
7
  6
CONTINUOUS
 10
-0.3333587484
 20
-23.3973819563
 11
-0.307891725
 21
-21.6675675851
  0
LINE
  5
2D9
100
AcDbEntity
  8
0
100
AcDbLine
 62
7
  6
CONTINUOUS
 10
0.8037309733
 20
13.6154138355
 11
0.8158544335
 21
14.4388840703
  0
LWPOLYLINE
  5
2DA
100
AcDbEntity
  8
0
100
AcDbPolyline
 62
250
  6
CONTINUOUS
 90
5
 70
0
 10
-8.9161594729
 20
16.4196660756
 10
-8.9130129274
 20
16.412654702
 10
-8.9115431687
 20
16.4071890339
 10
-8.9117777195
 20
16.4033437316
 10
-8.9126399216
 20
16.4019371583
  0
LWPOLYLINE
  5
2DB
100
AcDbEntity
  8
0
100
AcDbPolyline
 62
250
  6
CONTINUOUS
 90
4
 70
0
 10
2.3346372448
 20
-18.4139142916
 10
2.3332632297
 20
-18.3908227979
 10
2.3305628886
 20
-18.3698957501
 10
2.3265362214
 20
-18.3511331481
  0
LWPOLYLINE
  5
2DC
100
AcDbEntity
  8
0
100
AcDbPolyline
 62
7
  6
CONTINUOUS
 90
10
 70
0
 10
2.3907691804
 20
-18.3338148686
 10
2.3882432983
 20
-18.2851091604
 10
2.3812646732
 20
-18.2411874108
 10
2.3697709618
 20
-18.1992590701
 10
2.353749998
 20
-18.1597346229
 10
2.333224532
 20
-18.1229571587
 10
2.3083289425
 20
-18.0894419284
 10
2.2795552396
 20
-18.0599236611
 10
2.2474153022
 20
-18.0348553798
 10
2.2296398315
 20
-18.0237439906
  0
LINE
  5
2DD
100
AcDbEntity
  8
0
100
AcDbLine
 62
7
  6
CONTINUOUS
 10
1.08585791
 20
13.1830978687
 11
1.08585791
 21
11.9400239813
  0
LINE
  5
2DE
100
AcDbEntity
  8
0
100
AcDbLine
 62
7
  6
CONTINUOUS
 10
1.1203368774
 20
12.9427431703
 11
1.1203368774
 21
12.2895669489
  0
LINE
  5
2DF
100
AcDbEntity
  8
0
100
AcDbLine
 62
250
  6
CONTINUOUS
 10
2.3346372448
 20
-18.6995941641
 11
2.3346372448
 21
-18.4139142916
  0
LINE
  5
2E0
100
AcDbEntity
  8
0
100
AcDbLine
 62
250
  6
CONTINUOUS
 10
2.3346372448
 20
12.8570667583
 11
2.3346372448
 21
12.9906887622
  0
LINE
  5
2E1
100
AcDbEntity
  8
0
100
AcDbLine
 62
7
  6
CONTINUOUS
 10
2.3907692847
 20
-18.6193767567
 11
2.3907692847
 21
-18.3336969125
  0
LINE
  5
2E2
100
AcDbEntity
  8
0
100
AcDbLine
 62
7
  6
CONTINUOUS
 10
2.3907692847
 20
12.9372841905
 11
2.3907692847
 21
13.0230986986
  0
LINE
  5
2E3
100
AcDbEntity
  8
0
100
AcDbLine
 62
250
  6
CONTINUOUS
 10
2.4638397617
 20
13.0652886762
 11
2.4638397617
 21
13.7184648976
  0
LINE
  5
2E4
100
AcDbEntity
  8
0
100
AcDbLine
 62
7
  6
CONTINUOUS
 10
2.4711650207
 20
14.5137904938
 11
2.4711650207
 21
13.9592001409
  0
LINE
  5
2E5
100
AcDbEntity
  8
0
100
AcDbLine
 62
7
  6
CONTINUOUS
 10
2.4711650207
 20
-19.4914360052
 11
2.4711650207
 21
-19.9073775051
  0
LINE
  5
2E6
100
AcDbEntity
  8
0
100
AcDbLine
 62
7
  6
CONTINUOUS
 10
2.5517077273
 20
13.1877710542
 11
2.5517077273
 21
13.8409472756
  0
LWPOLYLINE
  5
2E7
100
AcDbEntity
  8
0
100
AcDbPolyline
 62
7
  6
CONTINUOUS
 90
9
 70
0
 10
2.5517077273
 20
13.1877710542
 10
2.5512369567
 20
13.1786404856
 10
2.5480142295
 20
13.1606740643
 10
2.5414636208
 20
13.1430119751
 10
2.5316902848
 20
13.1256446016
 10
2.5190096846
 20
13.1091325268
 10
2.5035269745
 20
13.0936626114
 10
2.4851370002
 20
13.0790479945
 10
2.4638397617
 20
13.0652886762
  0
LINE
  5
2E8
100
AcDbEntity
  8
0
100
AcDbLine
 62
250
  6
CONTINUOUS
 10
-16.8462354088
 20
11.6889355216
 11
-9.9511875995
 21
7.7078213318
  0
LWPOLYLINE
  5
2E9
100
AcDbEntity
  8
0
100
AcDbPolyline
 62
250
  6
CONTINUOUS
 90
6
 70
0
 10
-8.8623708779
 20
17.0996076449
 10
-8.8502055425
 20
17.0764934455
 10
-8.8400178139
 20
17.0527530663
 10
-8.8319819396
 20
17.0287925549
 10
-8.8262353625
 20
17.0050217238
 10
-8.8228763698
 20
16.9818471407
  0
LWPOLYLINE
  5
2EA
100
AcDbEntity
  8
0
100
AcDbPolyline
 62
7
  6
CONTINUOUS
 90
9
 70
0
 10
2.5517077248
 20
13.8409249013
 10
2.5514744284
 20
13.8470122035
 10
2.5488899506
 20
13.8646323133
 10
2.5431009909
 20
13.8820035953
 10
2.5342142891
 20
13.8991277647
 10
2.5225344432
 20
13.9154568631
 10
2.5081629861
 20
13.9308082375
 10
2.4909983849
 20
13.9453645409
 10
2.4710406397
 20
13.9591257733
  0
LWPOLYLINE
  5
2EB
100
AcDbEntity
  8
0
100
AcDbPolyline
 62
7
  6
CONTINUOUS
 90
7
 70
0
 10
2.3907692804
 20
-18.6194007931
 10
2.3892488744
 20
-18.6331935244
 10
2.3844268947
 20
-18.6480346847
 10
2.3765311953
 20
-18.6621678008
 10
2.3656402647
 20
-18.6753512996
 10
2.3516756145
 20
-18.687826754
 10
2.3346372448
 20
-18.6995941641
  0
LINE
  5
2EC
100
AcDbEntity
  8
0
100
AcDbLine
 62
250
  6
CONTINUOUS
 10
-16.1826036315
 20
12.8598850577
 11
-9.2758700989
 21
8.8720236777
  0
LWPOLYLINE
  5
2ED
100
AcDbEntity
  8
0
100
AcDbPolyline
 62
250
  6
CONTINUOUS
 90
13
 70
0
 10
2.1974949928
 20
-18.2657426209
 10
2.2024515117
 20
-18.2414142779
 10
2.2048808892
 20
-18.2161369016
 10
2.2047418729
 20
-18.1903397188
 10
2.2020368223
 20
-18.1644607831
 10
2.196811672
 20
-18.138939536
 10
2.1891551514
 20
-18.1142093444
 10
2.1791972726
 20
-18.0906901438
 10
2.1671071275
 20
-18.0687813057
 10
2.153090019
 20
-18.0488548563
 10
2.1373839686
 20
-18.0312491597
 10
2.120255674
 20
-18.0162631728
 10
2.1019959853
 20
-18.0041513677
  0
LINE
  5
2EE
100
AcDbEntity
  8
0
100
AcDbLine
 62
250
  6
CONTINUOUS
 10
-2.0636589784
 20
-16.7097976253
 11
-3.0869484706
 21
-17.3006331586
  0
LWPOLYLINE
  5
2EF
100
AcDbEntity
  8
0
100
AcDbPolyline
 62
250
  6
CONTINUOUS
 90
18
 70
0
 10
-8.7817802835
 20
13.0688954473
 10
-8.7293750757
 20
13.0253195979
 10
-8.6769088217
 20
12.9876667329
 10
-8.6243815216
 20
12.9559368523
 10
-8.5712225353
 20
12.9298861225
 10
-8.5180025028
 20
12.909758377
 10
-8.4664333437
 20
12.896285117
 10
-8.4166412592
 20
12.8897151957
 10
-8.3685000481
 20
12.8897997599
 10
-8.3233430264
 20
12.8965237501
 10
-8.2812493534
 20
12.9100648556
 10
-8.2421398697
 20
12.9302453873
 10
-8.2071104133
 20
12.9565172185
 10
-8.1762621284
 20
12.9891335889
 10
-8.1494938708
 20
13.0278412589
 10
-8.1275980452
 20
13.0713323834
 10
-8.1108387865
 20
13.1191710141
 10
-8.0989519599
 20
13.1717930993
  0
LWPOLYLINE
  5
2F0
100
AcDbEntity
  8
0
100
AcDbPolyline
 62
250
  6
CONTINUOUS
 90
12
 70
0
 10
-8.6043951837
 20
13.285897928
 10
-8.5657267358
 20
13.2537084194
 10
-8.5264102874
 20
13.2255393385
 10
-8.4868195214
 20
13.2016584213
 10
-8.4473307261
 20
13.1822926464
 10
-8.4083192258
 20
13.167626081
 10
-8.3701558126
 20
13.1577981287
 10
-8.3332032169
 20
13.1529022007
 10
-8.29781265
 20
13.1529848301
 10
-8.2643204744
 20
13.1580452345
 10
-8.2330450069
 20
13.1680353273
 10
-8.2085435783
 20
13.1802638816
  0
LWPOLYLINE
  5
2F1
100
AcDbEntity
  8
0
100
AcDbPolyline
 62
250
  6
CONTINUOUS
 90
10
 70
0
 10
-8.6000672479
 20
13.3354447924
 10
-8.6148762918
 20
13.349025439
 10
-8.6300631053
 20
13.3609614076
 10
-8.6454477634
 20
13.3711112795
 10
-8.660848001
 20
13.3793547939
 10
-8.6760813608
 20
13.3855942819
 10
-8.6909673462
 20
13.389755828
 10
-8.7053295804
 20
13.3917901305
 10
-8.7189979042
 20
13.3916730821
 10
-8.7318103745
 20
13.3894060676
  0
LINE
  5
2F2
100
AcDbEntity
  8
0
100
AcDbLine
 62
250
  6
CONTINUOUS
 10
-8.9085045563
 20
17.1613336141
 11
-8.8917718164
 21
17.1423936273
  0
LWPOLYLINE
  5
2F3
100
AcDbEntity
  8
0
100
AcDbPolyline
 62
250
  6
CONTINUOUS
 90
3
 70
0
 10
-8.8917718164
 20
17.1423936273
 10
-8.8763057482
 20
17.1217003273
 10
-8.8623708779
 20
17.0996076449
  0
LINE
  5
2F4
100
AcDbEntity
  8
0
100
AcDbLine
 62
250
  6
CONTINUOUS
 10
-1.922243007
 20
-16.9547372724
 11
-3.0869484706
 21
-17.6272247541
  0
LINE
  5
2F5
100
AcDbEntity
  8
0
100
AcDbLine
 62
7
  6
CONTINUOUS
 10
-11.8158637816
 20
14.730882831
 11
-11.1871745519
 21
14.3678855491
  0
LINE
  5
2F6
100
AcDbEntity
  8
0
100
AcDbLine
 62
7
  6
CONTINUOUS
 10
-8.8870824068
 20
13.0398411714
 11
-7.4526316816
 21
12.2116073006
  0
LWPOLYLINE
  5
2F7
100
AcDbEntity
  8
0
100
AcDbPolyline
 62
7
  6
CONTINUOUS
 90
19
 70
0
 10
-8.8870824068
 20
13.0398411714
 10
-8.9127972993
 20
13.0556873385
 10
-8.9363114025
 20
13.0717444921
 10
-8.9576247167
 20
13.0880126323
 10
-8.9767577731
 20
13.1045683176
 10
-8.9936900403
 20
13.1213349895
 10
-9.0083599241
 20
13.1380829726
 10
-9.0207937494
 20
13.1547547995
 10
-9.0309651912
 20
13.1714079375
 10
-9.0387336799
 20
13.1879851138
 10
-9.0441541137
 20
13.2046532516
 10
-9.0471715944
 20
13.2212454276
 10
-9.0474808577
 20
13.2372035989
 10
-9.0449175861
 20
13.2524992566
 10
-9.039646097
 20
13.2671609096
 10
-9.0318540784
 20
13.2807160417
 10
-9.0216040927
 20
13.2930071476
 10
-9.0088335775
 20
13.3041917327
 10
-8.9935425327
 20
13.3142697969
  0
LWPOLYLINE
  5
2F8
100
AcDbEntity
  8
0
100
AcDbPolyline
 62
250
  6
CONTINUOUS
 90
10
 70
0
 10
-6.6548312239
 20
14.4801970116
 10
-6.6698158025
 20
14.494239129
 10
-6.6852167876
 20
14.5066036914
 10
-6.7008457683
 20
14.5171388787
 10
-6.7165119812
 20
14.5257155574
 10
-6.7320229827
 20
14.5322279234
 10
-6.7471870869
 20
14.5365955459
 10
-6.7618180015
 20
14.5387653127
 10
-6.7757370144
 20
14.538711323
 10
-6.7887735765
 20
14.5364347676
  0
LWPOLYLINE
  5
2F9
100
AcDbEntity
  8
0
100
AcDbPolyline
 62
7
  6
CONTINUOUS
 90
4
 70
0
 10
-6.6544198695
 20
14.4804390371
 10
-6.6143253961
 20
14.4425295671
 10
-6.5730844176
 20
14.4090466938
 10
-6.5723805388
 20
14.4085652164
  0
LWPOLYLINE
  5
2FA
100
AcDbEntity
  8
0
100
AcDbPolyline
 62
250
  6
CONTINUOUS
 90
6
 70
0
 10
2.1974949928
 20
12.5448997725
 10
2.2024513341
 20
12.5293219786
 10
2.2048807912
 20
12.5153705639
 10
2.2047420396
 20
12.5032824653
 10
2.2020373571
 20
12.4932629865
 10
2.1968263869
 20
12.4854964616
  0
LWPOLYLINE
  5
2FB
100
AcDbEntity
  8
0
100
AcDbPolyline
 62
250
  6
CONTINUOUS
 90
13
 70
0
 10
-7.4526316816
 20
13.0143730681
 10
-7.4280831727
 20
13.0019404109
 10
-7.4009272119
 20
12.9914577489
 10
-7.371624841
 20
12.9831062912
 10
-7.3406698135
 20
12.9770303938
 10
-7.3085943839
 20
12.9733379691
 10
-7.2759616249
 20
12.9720948628
 10
-7.2432617633
 20
12.9733268457
 10
-7.2111248213
 20
12.977017281
 10
-7.1803073535
 20
12.9830531521
 10
-7.1513675986
 20
12.9912632477
 10
-7.124677553
 20
13.0014772402
 10
-7.1006276703
 20
13.0134862489
  0
LWPOLYLINE
  5
2FC
100
AcDbEntity
  8
0
100
AcDbPolyline
 62
250
  6
CONTINUOUS
 90
13
 70
0
 10
-11.1871745519
 20
14.8586928264
 10
-11.1677361298
 20
14.8488356314
 10
-11.1462566051
 20
14.8405096803
 10
-11.123095388
 20
14.8338542884
 10
-11.0986400281
 20
14.8289808185
 10
-11.0732997292
 20
14.8259708168
 10
-11.0474985028
 20
14.8248746487
 10
-11.0216680727
 20
14.825710656
 10
-10.9962406514
 20
14.8284648502
 10
-10.9716417082
 20
14.833091146
 10
-10.9482828495
 20
14.8395121333
 10
-10.9265549318
 20
14.8476203715
 10
-10.9068215216
 20
14.857280188
  0
LINE
  5
2FD
100
AcDbEntity
  8
0
100
AcDbLine
 62
250
  6
CONTINUOUS
 10
-7.4526316816
 20
13.0143730681
 11
-7.8897055291
 21
13.2667340299
  0
LINE
  5
2FE
100
AcDbEntity
  8
0
100
AcDbLine
 62
250
  6
CONTINUOUS
 10
-7.2773976344
 20
13.3196608078
 11
-7.7668764757
 21
13.6022797562
  0
LINE
  5
2FF
100
AcDbEntity
  8
0
100
AcDbLine
 62
250
  6
CONTINUOUS
 10
-10.9580719548
 20
15.8895886396
 11
-12.0449663787
 21
16.517147858
  0
LINE
  5
300
100
AcDbEntity
  8
0
100
AcDbLine
 62
7
  6
CONTINUOUS
 10
-9.6093014203
 20
15.1755185397
 11
-8.9164406536
 21
14.7754694166
  0
LINE
  5
301
100
AcDbEntity
  8
0
100
AcDbLine
 62
250
  6
CONTINUOUS
 10
-10.8191187416
 20
16.1330876684
 11
-11.9060131654
 21
16.7606468867
  0
LWPOLYLINE
  5
302
100
AcDbEntity
  8
0
100
AcDbPolyline
 62
250
  6
CONTINUOUS
 90
7
 70
0
 10
-12.0449663787
 20
16.517147858
 10
-12.0620991629
 20
16.5284169365
 10
-12.0765629109
 20
16.5408772289
 10
-12.0881107391
 20
16.5543195922
 10
-12.0965453502
 20
16.5685195141
 10
-12.1017195503
 20
16.5832362508
 10
-12.1035450096
 20
16.5987614733
  0
LWPOLYLINE
  5
303
100
AcDbEntity
  8
0
100
AcDbPolyline
 62
7
  6
CONTINUOUS
 90
13
 70
0
 10
-9.5208190076
 20
16.8827403438
 10
-9.5025267843
 20
16.8703359962
 10
-9.4845403526
 20
16.8554131602
 10
-9.4671737466
 20
16.8382567416
 10
-9.4507149825
 20
16.8192304315
 10
-9.4354365955
 20
16.7986407169
 10
-9.4216112586
 20
16.7767081471
 10
-9.4095298177
 20
16.7537688615
 10
-9.3993379563
 20
16.7302428118
 10
-9.3910903406
 20
16.706476417
 10
-9.3849161272
 20
16.6828589403
 10
-9.3809862672
 20
16.6598216456
 10
-9.3793904724
 20
16.6377789354
  0
LINE
  5
304
100
AcDbEntity
  8
0
100
AcDbLine
 62
7
  6
CONTINUOUS
 10
1.1630290519
 20
-21.5972008559
 11
2.3969289717
 21
-20.0962652892
  0
LINE
  5
305
100
AcDbEntity
  8
0
100
AcDbLine
 62
7
  6
CONTINUOUS
 10
0.9419680348
 20
-20.6785123756
 11
-0.9904474847
 21
-22.1387235959
  0
LWPOLYLINE
  5
306
100
AcDbEntity
  8
0
100
AcDbPolyline
 62
250
  6
CONTINUOUS
 90
7
 70
0
 10
2.3346372448
 20
-18.4139142916
 10
2.3513667158
 20
-18.4025210419
 10
2.3654093406
 20
-18.3899761675
 10
2.3765300854
 20
-18.3764895315
 10
2.3845427966
 20
-18.3622867599
 10
2.3893133076
 20
-18.3476054813
 10
2.3907691804
 20
-18.3338148686
  0
LINE
  5
307
100
AcDbEntity
  8
0
100
AcDbLine
 62
7
  6
CONTINUOUS
 10
2.3346372448
 20
-18.6995941641
 11
0.9774220199
 21
-19.5110761668
  0
LINE
  5
308
100
AcDbEntity
  8
0
100
AcDbLine
 62
7
  6
CONTINUOUS
 10
-0.307891725
 20
-21.6675675851
 11
0.8037309733
 21
-21.0029259006
  0
LINE
  5
309
100
AcDbEntity
  8
0
100
AcDbLine
 62
7
  6
CONTINUOUS
 10
2.4711650207
 20
-19.4914360052
 11
0.9759062988
 21
-20.3701197367
  0
LINE
  5
30A
100
AcDbEntity
  8
0
100
AcDbLine
 62
7
  6
CONTINUOUS
 10
0.9419680348
 20
-19.6936030332
 11
1.949924992
 21
-19.1116213188
  0
LWPOLYLINE
  5
30B
100
AcDbEntity
  8
0
100
AcDbPolyline
 62
7
  6
CONTINUOUS
 90
16
 70
0
 10
1.9500373864
 20
-19.1115565403
 10
1.9619949122
 20
-19.1059922604
 10
1.9819606421
 20
-19.1009224156
 10
2.0033392398
 20
-19.1001584633
 10
2.0262612588
 20
-19.1039418402
 10
2.0505961454
 20
-19.1120311096
 10
2.074931032
 20
-19.1240066132
 10
2.0992659187
 20
-19.1401324268
 10
2.1236008053
 20
-19.1601444744
 10
2.1465228243
 20
-19.1828308704
 10
2.1679014219
 20
-19.2082822915
 10
2.1878671519
 20
-19.2364080608
 10
2.2053988073
 20
-19.2657242622
 10
2.2201559859
 20
-19.2957362568
 10
2.23247909
 20
-19.3269386834
 10
2.2423681195
 20
-19.359331542
  0
LINE
  5
30C
100
AcDbEntity
  8
0
100
AcDbLine
 62
250
  6
CONTINUOUS
 10
-8.8340819548
 20
13.0546216431
 11
-8.8870824068
 21
13.0398411714
  0
LWPOLYLINE
  5
30D
100
AcDbEntity
  8
0
100
AcDbPolyline
 62
250
  6
CONTINUOUS
 90
7
 70
0
 10
-8.7318104973
 20
13.3894059964
 10
-8.7742383793
 20
13.3777532634
 10
-8.8171489431
 20
13.3657622102
 10
-8.8605384669
 20
13.3534256525
 10
-8.9044031594
 20
13.3407363183
 10
-8.9487391589
 20
13.3276868484
 10
-8.9935425327
 20
13.3142697969
  0
LINE
  5
30E
100
AcDbEntity
  8
0
100
AcDbLine
 62
250
  6
CONTINUOUS
 10
-8.7817802835
 20
13.0688954473
 11
-8.8340819548
 21
13.0546216431
  0
LINE
  5
30F
100
AcDbEntity
  8
0
100
AcDbLine
 62
250
  6
CONTINUOUS
 10
-8.0255250191
 20
13.2419860001
 11
-8.0919375652
 21
13.2291986389
  0
LINE
  5
310
100
AcDbEntity
  8
0
100
AcDbLine
 62
250
  6
CONTINUOUS
 10
-7.9193863931
 20
13.5750416234
 11
-7.9937340274
 21
13.5609175737
  0
LINE
  5
311
100
AcDbEntity
  8
0
100
AcDbLine
 62
250
  6
CONTINUOUS
 10
-7.9581143404
 20
13.2544977971
 11
-8.0255250191
 21
13.2419860001
  0
LINE
  5
312
100
AcDbEntity
  8
0
100
AcDbLine
 62
250
  6
CONTINUOUS
 10
-7.8437698284
 20
13.5888364532
 11
-7.9193863931
 21
13.5750416234
  0
LINE
  5
313
100
AcDbEntity
  8
0
100
AcDbLine
 62
250
  6
CONTINUOUS
 10
-7.8897055291
 20
13.2667340299
 11
-7.9581143404
 21
13.2544977971
  0
LINE
  5
314
100
AcDbEntity
  8
0
100
AcDbLine
 62
250
  6
CONTINUOUS
 10
-7.7668764757
 20
13.6022797562
 11
-7.8437698284
 21
13.5888364532
  0
LWPOLYLINE
  5
315
100
AcDbEntity
  8
0
100
AcDbPolyline
 62
250
  6
CONTINUOUS
 90
7
 70
0
 10
-11.8382263649
 20
15.41053344
 10
-11.854528536
 20
15.4152555076
 10
-11.8681915684
 20
15.4212648687
 10
-11.8789868427
 20
15.4284609705
 10
-11.8867337249
 20
15.4367234029
 10
-11.891302589
 20
15.4459139132
 10
-11.8918841998
 20
15.448096327
  0
LINE
  5
316
100
AcDbEntity
  8
0
100
AcDbLine
 62
7
  6
CONTINUOUS
 10
-12.0620505413
 20
16.3336733656
 11
-12.0449663787
 21
16.3256195814
  0
LWPOLYLINE
  5
317
100
AcDbEntity
  8
0
100
AcDbPolyline
 62
250
  6
CONTINUOUS
 90
8
 70
0
 10
-11.9060131654
 20
16.7606468867
 10
-11.9247668774
 20
16.7697248454
 10
-11.9431576181
 20
16.7758794126
 10
-11.9608708388
 20
16.7790053227
 10
-11.9776035787
 20
16.7790491114
 10
-11.9930696469
 20
16.7760100296
 10
-12.0070045172
 20
16.7699400566
 10
-12.0087381382
 20
16.7689039477
  0
LWPOLYLINE
  5
318
100
AcDbEntity
  8
0
100
AcDbPolyline
 62
250
  6
CONTINUOUS
 90
13
 70
0
 10
-10.9580719548
 20
15.8895886396
 10
-10.9385507176
 20
15.8796946632
 10
-10.9169653999
 20
15.8713422765
 10
-10.8936783867
 20
15.8646741603
 10
-10.86907779
 20
15.8598042028
 10
-10.8435817044
 20
15.8568177795
 10
-10.8176322281
 20
15.8557674558
 10
-10.791615311
 20
15.8566743535
 10
-10.7660257963
 20
15.8595267234
 10
-10.7414573721
 20
15.8642382554
 10
-10.7183504149
 20
15.8706768588
 10
-10.6970007796
 20
15.8787102661
 10
-10.6777189245
 20
15.8881760012
  0
LINE
  5
319
100
AcDbEntity
  8
0
100
AcDbLine
 62
7
  6
CONTINUOUS
 10
-9.4521780574
 20
15.8626010159
 11
-8.0344939955
 21
15.0440480063
  0
LINE
  5
31A
100
AcDbEntity
  8
0
100
AcDbLine
 62
7
  6
CONTINUOUS
 10
-7.847318653
 20
15.0175103534
 11
-6.9406804281
 21
14.4940288052
  0
LINE
  5
31B
100
AcDbEntity
  8
0
100
AcDbLine
 62
7
  6
CONTINUOUS
 10
-9.521627378
 20
16.8822736219
 11
-10.6529838307
 21
17.5355046584
  0
LINE
  5
31C
100
AcDbEntity
  8
0
100
AcDbLine
 62
7
  6
CONTINUOUS
 10
-5.825811575
 20
14.7484348065
 11
-5.3143460509
 21
14.453121023
  0
LINE
  5
31D
100
AcDbEntity
  8
0
100
AcDbLine
 62
250
  6
CONTINUOUS
 10
-1.0623810021
 20
12.4781730152
 11
-0.9904474847
 21
12.4366395038
  0
LINE
  5
31E
100
AcDbEntity
  8
0
100
AcDbLine
 62
250
  6
CONTINUOUS
 10
-10.0749418431
 20
17.8463889802
 11
-8.9633622297
 21
17.2045768428
  0
LINE
  5
31F
100
AcDbEntity
  8
0
100
AcDbLine
 62
7
  6
CONTINUOUS
 10
-9.9774051541
 20
17.8548970114
 11
-8.8658255407
 21
17.213084874
  0
LWPOLYLINE
  5
320
100
AcDbEntity
  8
0
100
AcDbPolyline
 62
250
  6
CONTINUOUS
 90
4
 70
0
 10
-8.9633622297
 20
17.2045768428
 10
-8.9446085178
 20
17.1926934054
 10
-8.926217777
 20
17.178196345
 10
-8.9085045563
 20
17.1613336141
  0
LINE
  5
321
100
AcDbEntity
  8
0
100
AcDbLine
 62
7
  6
CONTINUOUS
 10
0.8158544335
 20
-21.8118988477
 11
1.1630290519
 21
-21.5972008559
  0
LINE
  5
322
100
AcDbEntity
  8
0
100
AcDbLine
 62
250
  6
CONTINUOUS
 10
-0.3333587484
 20
-23.3973819563
 11
-1.3500380046
 21
-24.0052567457
  0
LINE
  5
323
100
AcDbEntity
  8
0
100
AcDbLine
 62
7
  6
CONTINUOUS
 10
-0.3755970736
 20
-23.4894224584
 11
-1.3905766724
 21
-24.0962810188
  0
LWPOLYLINE
  5
324
100
AcDbEntity
  8
0
100
AcDbPolyline
 62
250
  6
CONTINUOUS
 90
16
 70
0
 10
-9.25061754
 20
-26.600387554
 10
-9.2896237728
 20
-26.6217607861
 10
-9.3319335469
 20
-26.6406802255
 10
-9.3770936151
 20
-26.6569431285
 10
-9.4246201839
 20
-26.6703752092
 10
-9.4740040807
 20
-26.680832503
 10
-9.5247162064
 20
-26.6882029131
 10
-9.5762132401
 20
-26.6924074195
 10
-9.6279434185
 20
-26.69340092
 10
-9.6793524303
 20
-26.6911727201
 10
-9.7298894439
 20
-26.6857466488
 10
-9.7790129427
 20
-26.6771808018
 10
-9.8261964919
 20
-26.6655669351
 10
-9.8709344818
 20
-26.6510294679
 10
-9.9127475382
 20
-26.6337241366
 10
-9.9511875995
 20
-26.6138363427
  0
LINE
  5
325
100
AcDbEntity
  8
0
100
AcDbLine
 62
250
  6
CONTINUOUS
 10
-8.9100373589
 20
-26.8010028536
 11
-1.2883250307
 21
-23.0046172901
  0
LINE
  5
326
100
AcDbEntity
  8
0
100
AcDbLine
 62
7
  6
CONTINUOUS
 10
-9.0344397821
 20
-27.0408869285
 11
-1.4009534662
 21
-23.2386367253
  0
LINE
  5
327
100
AcDbEntity
  8
0
100
AcDbLine
 62
7
  6
CONTINUOUS
 10
-6.9069255847
 20
14.5037060042
 11
-6.8561925789
 21
14.5180079241
  0
LWPOLYLINE
  5
328
100
AcDbEntity
  8
0
100
AcDbPolyline
 62
7
  6
CONTINUOUS
 90
3
 70
0
 10
-6.8561925789
 20
14.5180079241
 10
-6.8053399852
 20
14.5320528293
 10
-6.7883627191
 20
14.5366773046
  0
LINE
  5
329
100
AcDbEntity
  8
0
100
AcDbLine
 62
7
  6
CONTINUOUS
 10
-6.0647456476
 20
14.7048288576
 11
-6.0118465187
 21
14.7149766818
  0
LINE
  5
32A
100
AcDbEntity
  8
0
100
AcDbLine
 62
7
  6
CONTINUOUS
 10
-6.0118465187
 20
14.7149766818
 11
-5.9588339938
 21
14.7248631344
  0
LINE
  5
32B
100
AcDbEntity
  8
0
100
AcDbLine
 62
7
  6
CONTINUOUS
 10
-5.9588339938
 20
14.7248631344
 11
-5.9057087389
 21
14.7344880836
  0
LWPOLYLINE
  5
32C
100
AcDbEntity
  8
0
100
AcDbPolyline
 62
7
  6
CONTINUOUS
 90
3
 70
0
 10
-5.9057087389
 20
14.7344880836
 10
-5.8524717921
 20
14.7438513388
 10
-5.825811575
 20
14.7484348065
  0
LWPOLYLINE
  5
32D
100
AcDbEntity
  8
0
100
AcDbPolyline
 62
7
  6
CONTINUOUS
 90
10
 70
0
 10
-3.9723768783
 20
16.1262347195
 10
-3.9594723561
 20
16.1284129299
 10
-3.946040374
 20
16.1285165657
 10
-3.9320809322
 20
16.1265456268
 10
-3.9174209229
 20
16.122430019
 10
-3.9022334537
 20
16.1162398365
 10
-3.8870378477
 20
16.1081853622
 10
-3.8720072124
 20
16.0983366902
 10
-3.8569684403
 20
16.0866237264
 10
-3.8419215314
 20
16.0730464708
  0
LINE
  5
32E
100
AcDbEntity
  8
0
100
AcDbLine
 62
7
  6
CONTINUOUS
 10
2.3969289717
 20
14.6139064801
 11
1.1630290519
 21
14.6393390321
  0
LWPOLYLINE
  5
32F
100
AcDbEntity
  8
0
100
AcDbPolyline
 62
250
  6
CONTINUOUS
 90
7
 70
0
 10
-8.8658279567
 20
17.2130862689
 10
-8.8791345658
 20
17.2189514519
 10
-8.8943993887
 20
17.2220592776
 10
-8.9107636444
 20
17.2220838145
 10
-8.9278927581
 20
17.2190960762
 10
-8.9455242628
 20
17.2132090561
 10
-8.9633622297
 20
17.2045768428
  0
LWPOLYLINE
  5
330
100
AcDbEntity
  8
0
100
AcDbPolyline
 62
250
  6
CONTINUOUS
 90
7
 70
0
 10
-9.9774051541
 20
17.8548970114
 10
-9.9906947496
 20
17.8607573969
 10
-10.0059588349
 20
17.8638694288
 10
-10.0223245646
 20
17.8638976186
 10
-10.0394575585
 20
17.8609120025
 10
-10.0570953538
 20
17.8550246861
 10
-10.0749418431
 20
17.8463889802
  0
LINE
  5
331
100
AcDbEntity
  8
0
100
AcDbLine
 62
7
  6
CONTINUOUS
 10
-1.6416092967
 20
13.5827579987
 11
-3.3852182516
 21
14.5894959567
  0
LINE
  5
332
100
AcDbEntity
  8
0
100
AcDbLine
 62
7
  6
CONTINUOUS
 10
1.1203368774
 20
12.2895669489
 11
1.08585791
 21
12.3094746726
  0
LINE
  5
333
100
AcDbEntity
  8
0
100
AcDbLine
 62
7
  6
CONTINUOUS
 10
-3.5620016783
 20
15.482712311
 11
-1.4914809033
 21
14.2872195652
  0
LINE
  5
334
100
AcDbEntity
  8
0
100
AcDbLine
 62
7
  6
CONTINUOUS
 10
1.1203368774
 20
12.9427431703
 11
1.08585791
 21
12.962650894
  0
LINE
  5
335
100
AcDbEntity
  8
0
100
AcDbLine
 62
7
  6
CONTINUOUS
 10
0.9426838106
 20
13.2657647993
 11
1.08585791
 21
13.1830978687
  0
LINE
  5
336
100
AcDbEntity
  8
0
100
AcDbLine
 62
7
  6
CONTINUOUS
 10
0.8037309733
 20
13.6154138355
 11
-0.3276418192
 21
14.2686543064
  0
LINE
  5
337
100
AcDbEntity
  8
0
100
AcDbLine
 62
7
  6
CONTINUOUS
 10
0.6589450192
 20
15.6173966322
 11
-0.818310336
 21
15.7833395627
  0
LINE
  5
338
100
AcDbEntity
  8
0
100
AcDbLine
 62
7
  6
CONTINUOUS
 10
-2.9807621606
 20
16.3391539642
 11
-0.4772270778
 21
14.8936441841
  0
LINE
  5
339
100
AcDbEntity
  8
0
100
AcDbLine
 62
7
  6
CONTINUOUS
 10
0.8158544335
 20
14.4388840703
 11
-1.2339563346
 21
15.6224191176
  0
LINE
  5
33A
100
AcDbEntity
  8
0
100
AcDbLine
 62
7
  6
CONTINUOUS
 10
1.1630290519
 20
14.6393390321
 11
-0.818310336
 21
15.7833395627
  0
LINE
  5
33B
100
AcDbEntity
  8
0
100
AcDbLine
 62
250
  6
CONTINUOUS
 10
-2.4057279807
 20
17.2649234222
 11
0.3966602414
 21
15.6468595849
  0
LINE
  5
33C
100
AcDbEntity
  8
0
100
AcDbLine
 62
7
  6
CONTINUOUS
 10
-2.3525211337
 20
17.3018522277
 11
0.5421262457
 21
15.6305191093
  0
LWPOLYLINE
  5
33D
100
AcDbEntity
  8
0
100
AcDbPolyline
 62
7
  6
CONTINUOUS
 90
8
 70
0
 10
-2.3525119336
 20
17.3018469156
 10
-2.3542921677
 20
17.3021558688
 10
-2.3577714991
 20
17.3017984158
 10
-2.3627263912
 20
17.3006193853
 10
-2.3692337513
 20
17.2986401811
 10
-2.377354274
 20
17.2959053972
 10
-2.386973921
 20
17.2922808225
 10
-2.3981199974
 20
17.2877415905
  0
LINE
  5
33E
100
AcDbEntity
  8
0
100
AcDbLine
 62
250
  6
CONTINUOUS
 10
0.6589450192
 20
15.6173966322
 11
2.3969289717
 21
14.6139064801
  0
LINE
  5
33F
100
AcDbEntity
  8
0
100
AcDbLine
 62
7
  6
CONTINUOUS
 10
0.6991028695
 20
15.6045909609
 11
2.4304714246
 21
14.6049204563
  0
ARC
  5
340
100
AcDbEntity
  8
0
100
AcDbCircle
 62
7
  6
CONTINUOUS
 10
-11.9035450224
 20
16.5988027766
 40
0.2
100
AcDbArc
 50
121.7332683128
 51
180.0118325387
  0
ARC
  5
341
100
AcDbEntity
  8
0
100
AcDbCircle
 62
7
  6
CONTINUOUS
 10
-9.0540640774
 20
16.5433553713
 40
0.2
100
AcDbArc
 50
315.0012038373
 51
342.984865077
  0
ARC
  5
342
100
AcDbEntity
  8
0
100
AcDbCircle
 62
7
  6
CONTINUOUS
 10
-10.0774099861
 20
17.6816947205
 40
0.2
100
AcDbArc
 50
59.9865904589
 51
118.2699256376
  0
ARC
  5
343
100
AcDbEntity
  8
0
100
AcDbCircle
 62
7
  6
CONTINUOUS
 10
-8.9658303727
 20
17.0398825831
 40
0.2
100
AcDbArc
 50
0.0007993368
 51
59.9992008247
  0
ELLIPSE
  5
344
100
AcDbEntity
  8
0
100
AcDbEllipse
 62
7
  6
CONTINUOUS
 10
-7.9887400092
 20
14.9272975559
 30
0.0
 11
0.1999154856
 21
0.0095814127
 31
0.0
 40
0.6067642562
 41
7.0395110818
 42
8.4357744834
  0
ELLIPSE
  5
345
100
AcDbEntity
  8
0
100
AcDbEllipse
 62
7
  6
CONTINUOUS
 10
0.5814644874
 20
15.4415700608
 30
0.0
 11
0.1312163834
 21
0.1534266259
 31
0.0
 40
0.666509319
 41
0.1233427435
 42
0.4243115909
  0
ELLIPSE
  5
346
100
AcDbEntity
  8
0
100
AcDbEllipse
 62
7
  6
CONTINUOUS
 10
-8.7750192974
 20
14.8656822141
 30
0.0
 11
0.1999154856
 21
0.0095814127
 31
0.0
 40
0.6067642562
 41
-2.385266879
 42
-0.9890034774
  0
ELLIPSE
  5
347
100
AcDbEntity
  8
0
100
AcDbEllipse
 62
7
  6
CONTINUOUS
 10
-0.474801647
 20
-23.3157145993
 30
0.0
 11
-0.097382924
 21
0.17475967
 31
0.0
 40
0.5871416782
 41
-3.1236861843
 42
-2.347216622
  0
ELLIPSE
  5
348
100
AcDbEntity
  8
0
100
AcDbEllipse
 62
7
  6
CONTINUOUS
 10
8.0287510581
 20
-8.8662919478
 30
0.0
 11
-14.3408745307
 21
24.0067115742
 31
0.0
 40
0.5671684153
 41
-0.2208724933
 42
-0.2051811174
  0
ELLIPSE
  5
349
100
AcDbEntity
  8
0
100
AcDbEllipse
 62
7
  6
CONTINUOUS
 10
-0.474801647
 20
14.7318002992
 30
0.0
 11
-0.1025894759
 21
0.1716840158
 31
0.0
 40
0.567339716
 41
-2.364975117
 42
-0.7941787902
  0
ELLIPSE
  5
34A
100
AcDbEntity
  8
0
100
AcDbEllipse
 62
7
  6
CONTINUOUS
 10
8.0287510581
 20
-8.8662919478
 30
0.0
 11
-14.3408745307
 21
24.0067115742
 31
0.0
 40
0.5671684153
 41
-0.1591936131
 42
-0.0833534622
  0
ELLIPSE
  5
34B
100
AcDbEntity
  8
0
100
AcDbEllipse
 62
7
  6
CONTINUOUS
 10
-1.922232237
 20
-16.7914432175
 30
0.0
 11
-0.1000048331
 21
0.1732022903
 31
0.0
 40
0.5773756362
 41
0.7853879108
 42
2.3561080852
  0
ELLIPSE
  5
34C
100
AcDbEntity
  8
0
100
AcDbEllipse
 62
7
  6
CONTINUOUS
 10
0.9774220199
 20
-19.715193736
 30
0.0
 11
0.1217847277
 21
0.2183525581
 31
0.0
 40
0.5671693725
 41
0.7770191891
 42
0.9831237553
  0
ELLIPSE
  5
34D
100
AcDbEntity
  8
0
100
AcDbEllipse
 62
7
  6
CONTINUOUS
 10
1.3878247354
 20
-18.1150515207
 30
0.0
 11
0.2533110813
 21
0.431095234
 31
0.0
 40
0.5823475934
 41
0.0044402846
 42
0.4408207765
  0
ELLIPSE
  5
34E
100
AcDbEntity
  8
0
100
AcDbEllipse
 62
7
  6
CONTINUOUS
 10
-9.2203334489
 20
15.3523693905
 30
0.0
 11
-0.2751023066
 21
0.4763185185
 31
0.0
 40
0.577305836
 41
6.7769516965
 42
7.0683637839
  0
ELLIPSE
  5
34F
100
AcDbEntity
  8
0
100
AcDbEllipse
 62
7
  6
CONTINUOUS
 10
-0.9286003427
 20
-22.5063953191
 30
0.0
 11
0.2566641185
 21
0.42914135
 31
0.0
 40
0.5873179545
 41
0.9672707053
 42
2.3652794362
  0
ELLIPSE
  5
350
100
AcDbEntity
  8
0
100
AcDbEllipse
 62
7
  6
CONTINUOUS
 10
0.726133222
 20
11.7394499144
 30
0.0
 11
0.2566641185
 21
0.42914135
 31
0.0
 40
0.5873179545
 41
-1.9980436938
 42
-0.7763132174
  0
ELLIPSE
  5
351
100
AcDbEntity
  8
0
100
AcDbEllipse
 62
7
  6
CONTINUOUS
 10
-3.7114390656
 20
16.4400792681
 30
0.0
 11
-0.2998346005
 21
0.5019249529
 31
0.0
 40
0.5671684153
 41
-4.2740014859
 42
-4.0718149151
  0
ELLIPSE
  5
352
100
AcDbEntity
  8
0
100
AcDbEllipse
 62
7
  6
CONTINUOUS
 10
2.3322121834
 20
-19.9904577157
 30
0.0
 11
0.0974277822
 21
0.1746820465
 31
0.0
 40
0.5671693725
 41
-1.8800955354
 42
-0.7937771377
  0
ELLIPSE
  5
353
100
AcDbEntity
  8
0
100
AcDbEllipse
 62
7
  6
CONTINUOUS
 10
-1.0026559114
 20
12.9160390219
 30
0.0
 11
0.2435694555
 21
0.4367051162
 31
0.0
 40
0.5671693725
 41
3.2620090564
 42
3.7458242468
  0
ELLIPSE
  5
354
100
AcDbEntity
  8
0
100
AcDbEllipse
 62
7
  6
CONTINUOUS
 10
2.3322121834
 20
14.4307102832
 30
0.0
 11
0.0974277822
 21
0.1746820465
 31
0.0
 40
0.5671693725
 41
5.4894081695
 42
6.5757265673
  0
ELLIPSE
  5
355
100
AcDbEntity
  8
0
100
AcDbEllipse
 62
7
  6
CONTINUOUS
 10
-1.4914809033
 20
-23.9235893887
 30
0.0
 11
-0.1000352969
 21
0.1732022922
 31
0.0
 40
0.5773316475
 41
2.3559938597
 42
3.9267901865
  0
ELLIPSE
  5
356
100
AcDbEntity
  8
0
100
AcDbEllipse
 62
7
  6
CONTINUOUS
 10
0.4563488801
 20
-19.4753891173
 30
0.0
 11
0.2435694555
 21
0.4367051162
 31
0.0
 40
0.5671693725
 41
-0.0084271526
 42
0.4279533387
  0
ELLIPSE
  5
357
100
AcDbEntity
  8
0
100
AcDbEllipse
 62
7
  6
CONTINUOUS
 10
-3.5620016783
 20
15.2785947418
 30
0.0
 11
-0.1250155594
 21
0.216502864
 31
0.0
 40
0.5773316664
 41
-2.3562808875
 42
-0.7854845607
  0
ELLIPSE
  5
358
100
AcDbEntity
  8
0
100
AcDbEllipse
 62
7
  6
CONTINUOUS
 10
-7.2758549863
 20
12.3243732975
 30
0.0
 11
0.249894357
 21
0.0119767658
 31
0.0
 40
0.6067642562
 41
-2.385266879
 42
-0.8231971985
  0
ELLIPSE
  5
359
100
AcDbEntity
  8
0
100
AcDbEllipse
 62
7
  6
CONTINUOUS
 10
0.9774220199
 20
-20.1651036867
 30
0.0
 11
0.1217847277
 21
0.2183525581
 31
0.0
 40
0.5671693725
 41
-2.5706802911
 42
-2.3733001107
  0
ELLIPSE
  5
35A
100
AcDbEntity
  8
0
100
AcDbEllipse
 62
7
  6
CONTINUOUS
 10
-2.4141269553
 20
-16.736322541
 30
0.0
 11
0.2467654307
 21
0.4348749944
 31
0.0
 40
0.5722717666
 41
5.4935476323
 42
6.7152781087
  0
ELLIPSE
  5
35B
100
AcDbEntity
  8
0
100
AcDbEllipse
 62
7
  6
CONTINUOUS
 10
-1.4914809033
 20
14.1239255098
 30
0.0
 11
-0.1000352969
 21
0.1732022922
 31
0.0
 40
0.5773316475
 41
-2.3563951207
 42
-0.7855987939
  0
ELLIPSE
  5
35C
100
AcDbEntity
  8
0
100
AcDbEllipse
 62
7
  6
CONTINUOUS
 10
8.5720385156
 20
-15.5767757493
 30
0.0
 11
20.2571880851
 21
11.4912246511
 31
0.0
 40
0.0075572096
 41
-1.9612674076
 42
-1.8928675109
  0
ELLIPSE
  5
35D
100
AcDbEntity
  8
0
100
AcDbEllipse
 62
7
  6
CONTINUOUS
 10
-1.6419322774
 20
13.1741491054
 30
0.0
 11
-0.2496303025
 21
0.4334023309
 31
0.0
 40
0.5778584463
 41
3.9286203597
 42
5.498503298
  0
ELLIPSE
  5
35E
100
AcDbEntity
  8
0
100
AcDbEllipse
 62
7
  6
CONTINUOUS
 10
-11.0457531957
 20
14.4580983466
 30
0.0
 11
0.1999154856
 21
0.0095814127
 31
0.0
 40
0.6067642562
 41
-2.385266879
 42
-0.8319238447
  0
ELLIPSE
  5
35F
100
AcDbEntity
  8
0
100
AcDbEllipse
 62
7
  6
CONTINUOUS
 10
-1.6419322774
 20
-22.8000755087
 30
0.0
 11
-0.2498600223
 21
0.43379745
 31
0.0
 40
0.5768037941
 41
-3.1764860684
 42
-2.355482613
  0
ELLIPSE
  5
360
100
AcDbEntity
  8
0
100
AcDbEllipse
 62
7
  6
CONTINUOUS
 10
-11.6744424253
 20
14.8210956284
 30
0.0
 11
0.1999154856
 21
0.0095814127
 31
0.0
 40
0.6067642562
 41
3.1125202707
 42
3.8979184282
  0
ELLIPSE
  5
361
100
AcDbEntity
  8
0
100
AcDbEllipse
 62
7
  6
CONTINUOUS
 10
-0.9286003427
 20
12.8732802647
 30
0.0
 11
0.2566641185
 21
0.42914135
 31
0.0
 40
0.5873179545
 41
2.3652794362
 42
3.763288167
  0
ELLIPSE
  5
362
100
AcDbEntity
  8
0
100
AcDbEllipse
 62
7
  6
CONTINUOUS
 10
-241.2077420797
 20
-149.3820073734
 30
0.0
 11
337.1128116605
 21
214.5529380422
 31
0.0
 40
0.044613475
 41
0.7744880654
 42
0.7829157325
  0
ELLIPSE
  5
363
100
AcDbEntity
  8
0
100
AcDbEllipse
 62
7
  6
CONTINUOUS
 10
0.5822433468
 20
-19.5480790046
 30
0.0
 11
0.2566641185
 21
0.42914135
 31
0.0
 40
0.5873179545
 41
5.5068720898
 42
6.7286025662
  0
ENDSEC
  0
SECTION
  2
OBJECTS
  0
DICTIONARY
  5
C
100
AcDbDictionary
280
0
281
1
  3
ACAD_GROUP
350
D
  3
ACAD_MLINESTYLE
350
17
  3
ACAD_LAYOUT
350
1A
  3
ACAD_PLOTSETTINGS
350
19
  3
ACAD_PLOTSTYLENAME
350
E
  0
DICTIONARY
  5
D
102
{ACAD_REACTORS
330
C
102
}
100
AcDbDictionary
280
0
281
1
  0
ACDBDICTIONARYWDFLT
  5
E
102
{ACAD_REACTORS
330
C
102
}
100
AcDbDictionary
281
1
  3
Normal
350
F
100
AcDbDictionaryWithDefault
340
F
  0
DICTIONARY
  5
17
102
{ACAD_REACTORS
330
C
102
}
100
AcDbDictionary
280
0
281
1
  3
Standard
350
18
  0
DICTIONARY
  5
19
102
{ACAD_REACTORS
330
C
102
}
100
AcDbDictionary
281
1
  0
DICTIONARY
  5
1A
102
{ACAD_REACTORS
330
C
102
}
100
AcDbDictionary
281
1
  3
Model
350
364
  3
Layout1
350
365
  0
ACDBPLACEHOLDER
  5
F
102
{ACAD_REACTORS
330
E
102
}
  0
MLINESTYLE
  5
18
102
{ACAD_REACTORS
330
17
102
}
100
AcDbMlineStyle
  2
STANDARD
 70
0
  3

 62
256
 51
90.0
 52
90.0
 71
2
 49
0.5
 62
256
  6
BYLAYER
 49
-0.5
 62
256
  6
BYLAYER
  0
LAYOUT
  5
364
102
{ACAD_REACTORS
330
1A
102
}
100
AcDbPlotSettings
  1

  2
none_device
  4
ISO_A4_(297.00_x_210.00_MM)
  6

 40
0.0
 41
0.0
 42
0.0
 43
0.0
 44
297.0
 45
210.0
 46
0.0
 47
0.0
 48
0.0
 49
0.0
140
0.0
141
0.0
142
1.0
143
1.0
 70
1024
 72
1
 73
0
 74
0
  7

 75
0
147
1.0
148
0.0
149
0.0
100
AcDbLayout
  1
Model
 70
0
 71
0
 10
0.0
 20
0.0
 11
297.0
 21
210.0
 12
0.0
 22
0.0
 32
0.0
 14
0.0
 24
0.0
 34
0.0
 15
0.0
 25
0.0
 35
0.0
146
0.0
 13
0.0
 23
0.0
 33
0.0
 16
1.0
 26
0.0
 36
0.0
 17
0.0
 27
1.0
 37
0.0
 76
0
330
213
345
0
346
0
  0
LAYOUT
  5
365
102
{ACAD_REACTORS
330
1A
102
}
100
AcDbPlotSettings
  1

  2
none_device
  4
ISO_A4_(297.00_x_210.00_MM)
  6

 40
0.0
 41
0.0
 42
0.0
 43
0.0
 44
297.0
 45
210.0
 46
0.0
 47
0.0
 48
0.0
 49
0.0
140
0.0
141
0.0
142
1.0
143
1.0
 70
0
 72
1
 73
0
 74
0
  7

 75
0
147
1.0
148
0.0
149
0.0
100
AcDbLayout
  1
Layout1
 70
0
 71
1
 10
0.0
 20
0.0
 11
297.0
 21
210.0
 12
0.0
 22
0.0
 32
0.0
 14
0.0
 24
0.0
 34
0.0
 15
0.0
 25
0.0
 35
0.0
146
0.0
 13
0.0
 23
0.0
 33
0.0
 16
1.0
 26
0.0
 36
0.0
 17
0.0
 27
1.0
 37
0.0
 76
0
330
214
345
0
346
0
  0
ENDSEC
  0
EOF
