  0
SECTION
  2
HEADER
  9
$ACADVER
  1
AC1024
  9
$DWGCODEPAGE
  3
ANSI_1252
  9
$EXTMAX
 10
297.0
 20
210.0
 30
0.0
  9
$EXTMIN
 10
0.0
 20
0.0
 30
0.0
  9
$LIMMIN
 10
0.0
 20
0.0
  9
$LIMMAX
 10
297.0
 20
210.0
  9
$VIEWCTR
 10
148.5
 20
105.0
  9
$VIEWSIZE
 40
210.0
  9
$CLAYER
  8
0
  9
$LTSCALE
 40
16.335
  9
$CELTYPE
  6
BYLAYER
  9
$DIMSCALE
 40
1.0
  9
$DIMASZ
 40
3.0
  9
$DIMEXO
 40
0.5
  9
$DIMDLI
 40
11.286
  9
$DIMEXE
 40
1.5
  9
$DIMCEN
 40
2.673
  9
$DIMLFAC
 40
1.0
  9
$DIMBLK
  1
_FILLED
  9
$DIMALT
 70
0
  9
$DIMALTF
 40
0.0393700787
  9
$DIMTXT
 40
3.0
  9
$DIMTOL
 70
1
  9
$DIMLIM
 70
0
  9
$DIMTFAC
 40
1.0
  9
$DIMTP
 40
0.01
  9
$DIMTM
 40
0.01
  9
$DIMGAP
 40
0.625
  9
$DIMDSEP
 70
44
  9
$AUNITS
 70
0
  9
$PDMODE
 70
3
  9
$PDSIZE
 40
3.0
  9
$HANDSEED
  5
381
  9
$TILEMODE
 70
1
  9
$MEASUREMENT
 70
1
  9
$INSUNITS
 70
4
  0
ENDSEC
  0
SECTION
  2
CLASSES
  0
CLASS
  1
ACDBDICTIONARYWDFLT
  2
AcDbDictionaryWithDefault
  3
AutoCAD 2000
 90
0
 91
1
280
0
281
0
  0
CLASS
  1
ACDBPLACEHOLDER
  2
AcDbPlaceHolder
  3
AutoCAD 2000
 90
0
 91
1
280
0
281
0
  0
CLASS
  1
LAYOUT
  2
AcDbLayout
  3
AutoCAD 2000
 90
0
 91
0
280
0
281
0
  0
ENDSEC
  0
SECTION
  2
TABLES
  0
TABLE
  2
VPORT
  5
8
100
AcDbSymbolTable
 70
2
  0
VPORT
  5
1F4
100
AcDbSymbolTableRecord
100
AcDbViewportTableRecord
  2
*ACTIVE
 70
0
 10
0.0
 20
0.0
 11
1.0
 21
1.0
 12
148.5
 22
105.0
 13
0.0
 23
0.0
 14
1.0
 24
1.0
 15
0.0
 25
0.0
 16
0.0
 26
0.0
 36
1.0
 17
0.0
 27
0.0
 37
0.0
 40
210.0
 41
1.4142857143
 42
50.0
 43
0.0
 44
0.0
 50
0.0
 51
0.0
 71
0
 72
100
 73
1
 74
1
 75
0
 76
0
 77
0
 78
0
  0
ENDTAB
  0
TABLE
  2
LTYPE
  5
5
100
AcDbSymbolTable
 70
6
  0
LTYPE
  5
14
100
AcDbSymbolTableRecord
100
AcDbLinetypeTableRecord
  2
BYBLOCK
 70
0
  3

 72
65
 73
0
 40
0.0
  0
LTYPE
  5
15
100
AcDbSymbolTableRecord
100
AcDbLinetypeTableRecord
  2
BYLAYER
 70
0
  3

 72
65
 73
0
 40
0.0
  0
LTYPE
  5
16
100
AcDbSymbolTableRecord
100
AcDbLinetypeTableRecord
  2
CONTINUOUS
 70
64
  3
Solid line
 72
65
 73
0
 40
0.0
  0
LTYPE
  5
1F5
100
AcDbSymbolTableRecord
100
AcDbLinetypeTableRecord
  2
CENTER
 70
64
  3
____ _ ____ _ ____ _ ____ _ ____ _ ____ _ ____
 72
65
 73
4
 40
0.6
 49
0.375
 74
0
 49
-0.075
 74
0
 49
0.075
 74
0
 49
-0.075
 74
0
  0
LTYPE
  5
1F6
100
AcDbSymbolTableRecord
100
AcDbLinetypeTableRecord
  2
HIDDEN
 70
64
  3
- - - - - - - - - - - - - - - - - - - -
 72
65
 73
2
 40
0.2
 49
0.1
 74
0
 49
-0.1
 74
0
  0
LTYPE
  5
1F7
100
AcDbSymbolTableRecord
100
AcDbLinetypeTableRecord
  2
PHANTOM
 70
64
  3
_____ _ _ _____ _ _ _____ _ _ _____
 72
65
 73
6
 40
0.8
 49
0.45
 74
0
 49
-0.05
 74
0
 49
0.1
 74
0
 49
-0.05
 74
0
 49
0.1
 74
0
 49
-0.05
 74
0
  0
LTYPE
  5
1F8
100
AcDbSymbolTableRecord
100
AcDbLinetypeTableRecord
  2
DOT
 70
64
  3
. . . . . . . . . . . . . . . . . . . .
 72
65
 73
2
 40
0.2
 49
0.1
 74
0
 49
-0.1
 74
0
  0
LTYPE
  5
1F9
100
AcDbSymbolTableRecord
100
AcDbLinetypeTableRecord
  2
DASHED
 70
64
  3
- - - - - - - - - - - - - - - - - - - -
 72
65
 73
2
 40
0.2
 49
0.1
 74
0
 49
-0.1
 74
0
  0
ENDTAB
  0
TABLE
  2
LAYER
  5
2
100
AcDbSymbolTable
 70
36
  0
LAYER
  5
10
100
AcDbSymbolTableRecord
100
AcDbLayerTableRecord
  2
0
 70
0
 62
7
  6
CONTINUOUS
370
-3
390
F
  0
LAYER
  5
1FA
100
AcDbSymbolTableRecord
100
AcDbLayerTableRecord
  2
DEFAULT_1
 70
0
 62
7
  6
CENTER
370
-3
390
F
  0
LAYER
  5
1FB
100
AcDbSymbolTableRecord
100
AcDbLayerTableRecord
  2
DEFAULT_2
 70
0
 62
7
  6
HIDDEN
370
-3
390
F
  0
LAYER
  5
1FC
100
AcDbSymbolTableRecord
100
AcDbLayerTableRecord
  2
DEFAULT_3
 70
0
 62
7
  6
PHANTOM
370
-3
390
F
  0
LAYER
  5
1FD
100
AcDbSymbolTableRecord
100
AcDbLayerTableRecord
  2
ASSI
 70
0
 62
7
  6
CONTINUOUS
370
-3
390
F
  0
LAYER
  5
1FE
100
AcDbSymbolTableRecord
100
AcDbLayerTableRecord
  2
COORDINATE
 70
0
 62
7
  6
CONTINUOUS
370
-3
390
F
  0
LAYER
  5
1FF
100
AcDbSymbolTableRecord
100
AcDbLayerTableRecord
  2
COORD_ORIGINE
 70
0
 62
7
  6
CONTINUOUS
370
-3
390
F
  0
LAYER
  5
200
100
AcDbSymbolTableRecord
100
AcDbLayerTableRecord
  2
COPY_PUBLISH
 70
0
 62
7
  6
CONTINUOUS
370
-3
390
F
  0
LAYER
  5
201
100
AcDbSymbolTableRecord
100
AcDbLayerTableRecord
  2
COSMETIC
 70
0
 62
7
  6
CONTINUOUS
370
-3
390
F
  0
LAYER
  5
202
100
AcDbSymbolTableRecord
100
AcDbLayerTableRecord
  2
COSMETICI
 70
0
 62
7
  6
CONTINUOUS
370
-3
390
F
  0
LAYER
  5
203
100
AcDbSymbolTableRecord
100
AcDbLayerTableRecord
  2
CURVE
 70
0
 62
7
  6
CONTINUOUS
370
-3
390
F
  0
LAYER
  5
204
100
AcDbSymbolTableRecord
100
AcDbLayerTableRecord
  2
DRAFT
 70
0
 62
7
  6
CONTINUOUS
370
-3
390
F
  0
LAYER
  5
205
100
AcDbSymbolTableRecord
100
AcDbLayerTableRecord
  2
IMPORT_IGES
 70
0
 62
7
  6
CONTINUOUS
370
-3
390
F
  0
LAYER
  5
206
100
AcDbSymbolTableRecord
100
AcDbLayerTableRecord
  2
INTFCLR_1
 70
0
 62
7
  6
CONTINUOUS
370
-3
390
F
  0
LAYER
  5
207
100
AcDbSymbolTableRecord
100
AcDbLayerTableRecord
  2
NOTE
 70
0
 62
7
  6
CONTINUOUS
370
-3
390
F
  0
LAYER
  5
208
100
AcDbSymbolTableRecord
100
AcDbLayerTableRecord
  2
PIANI
 70
0
 62
7
  6
CONTINUOUS
370
-3
390
F
  0
LAYER
  5
209
100
AcDbSymbolTableRecord
100
AcDbLayerTableRecord
  2
PIANI_ORIGINE
 70
0
 62
7
  6
CONTINUOUS
370
-3
390
F
  0
LAYER
  5
20A
100
AcDbSymbolTableRecord
100
AcDbLayerTableRecord
  2
PUNTI
 70
0
 62
7
  6
CONTINUOUS
370
-3
390
F
  0
LAYER
  5
20B
100
AcDbSymbolTableRecord
100
AcDbLayerTableRecord
  2
RACCORDO
 70
0
 62
7
  6
CONTINUOUS
370
-3
390
F
  0
LAYER
  5
20C
100
AcDbSymbolTableRecord
100
AcDbLayerTableRecord
  2
SIMBOLI
 70
0
 62
7
  6
CONTINUOUS
370
-3
390
F
  0
LAYER
  5
20D
100
AcDbSymbolTableRecord
100
AcDbLayerTableRecord
  2
SIMBOLO
 70
0
 62
7
  6
CONTINUOUS
370
-3
390
F
  0
LAYER
  5
20E
100
AcDbSymbolTableRecord
100
AcDbLayerTableRecord
  2
SMUSSO
 70
0
 62
7
  6
CONTINUOUS
370
-3
390
F
  0
LAYER
  5
20F
100
AcDbSymbolTableRecord
100
AcDbLayerTableRecord
  2
SNAPLINE
 70
0
 62
7
  6
CONTINUOUS
370
-3
390
F
  0
LAYER
  5
210
100
AcDbSymbolTableRecord
100
AcDbLayerTableRecord
  2
SUPERFICI
 70
0
 62
7
  6
CONTINUOUS
370
-3
390
F
  0
LAYER
  5
211
100
AcDbSymbolTableRecord
100
AcDbLayerTableRecord
  2
TRASH
 70
0
 62
7
  6
CONTINUOUS
370
-3
390
F
  0
LAYER
  5
212
100
AcDbSymbolTableRecord
100
AcDbLayerTableRecord
  2
XSEC_DATUMS
 70
0
 62
7
  6
CONTINUOUS
370
-3
390
F
  0
ENDTAB
  0
TABLE
  2
STYLE
  5
3
100
AcDbSymbolTable
 70
1
  0
STYLE
  5
11
100
AcDbSymbolTableRecord
100
AcDbTextStyleTableRecord
  2
STANDARD
 70
0
 40
0.0
 41
0.8
 50
0.0
 71
0
 42
0.2
  3
txt
  4

  0
STYLE
  5
213
100
AcDbSymbolTableRecord
100
AcDbTextStyleTableRecord
  2
TEXTSTYLE_1
 70
0
 40
0.0
 41
0.8
 50
0.0
 71
0
 42
0.2
  3
gdt
  4

  0
ENDTAB
  0
TABLE
  2
VIEW
  5
6
100
AcDbSymbolTable
 70
0
  0
ENDTAB
  0
TABLE
  2
UCS
  5
7
100
AcDbSymbolTable
 70
0
  0
ENDTAB
  0
TABLE
  2
APPID
  5
9
100
AcDbSymbolTable
 70
1
  0
APPID
  5
214
100
AcDbSymbolTableRecord
100
AcDbRegAppTableRecord
  2
ACAD
 70
0
  0
ENDTAB
  0
TABLE
  2
BLOCK_RECORD
  5
1
100
AcDbSymbolTable
 70
0
  0
BLOCK_RECORD
  5
215
100
AcDbSymbolTableRecord
100
AcDbBlockTableRecord
  2
*Model_Space
  0
BLOCK_RECORD
  5
216
100
AcDbSymbolTableRecord
100
AcDbBlockTableRecord
  2
*Paper_Space
  0
BLOCK_RECORD
  5
217
100
AcDbSymbolTableRecord
100
AcDbBlockTableRecord
  2
_FILLED
  0
ENDTAB
  0
TABLE
  2
DIMSTYLE
  5
A
100
AcDbSymbolTable
 70
1
100
AcDbDimStyleTable
 71
0
  0
DIMSTYLE
105
218
100
AcDbSymbolTableRecord
100
AcDbDimStyleTableRecord
  2
STANDARD
 70
0
  3

  4

 40
1.0
 41
3.0
 42
0.5
 43
0.38
 44
1.5
 45
0.0
 46
0.0
 47
0.01
 48
0.01
140
3.0
141
0.09
142
0.0
143
25.4
144
1.0
145
0.0
146
1.0
147
0.625
 71
1
 72
0
 73
0
 74
0
 75
0
 76
0
 77
1
 78
8
 79
2
170
0
171
1
172
0
173
0
174
0
175
0
176
0
177
0
178
0
270
2
179
2
271
2
272
2
273
2
274
2
275
0
280
0
281
0
282
0
283
1
284
8
285
0
286
0
287
3
288
0
340
11
278
44
341
217
342
217
343
217
344
217
  0
ENDTAB
  0
ENDSEC
  0
SECTION
  2
BLOCKS
  0
BLOCK
  5
20
100
AcDbEntity
  8
0
100
AcDbBlockBegin
  2
*Model_Space
 70
0
 10
0.0
 20
0.0
 30
0.0
  3
*Model_Space
  1

  0
ENDBLK
  5
21
100
AcDbEntity
  8
0
100
AcDbBlockEnd
  0
BLOCK
  5
1C
100
AcDbEntity
  8
0
100
AcDbBlockBegin
  2
*Paper_Space
 70
0
 10
0.0
 20
0.0
 30
0.0
  3
*Paper_Space
  1

  0
ENDBLK
  5
1D
100
AcDbEntity
  8
0
100
AcDbBlockEnd
  0
BLOCK
  5
219
100
AcDbEntity
  8
0
100
AcDbBlockBegin
  2
_FILLED
 70
64
 10
0.0
 20
0.0
  3
_FILLED
  1

  0
SOLID
  5
21A
100
AcDbEntity
  8
0
  6
BYBLOCK
 62
0
100
AcDbTrace
 10
0.0
 20
0.0
 11
-1.0
 21
0.3166666667
 12
-1.0
 22
-0.3166666667
 13
-1.0
 23
-0.3166666667
  0
ENDBLK
  5
21B
100
AcDbEntity
  8
0
  6
BYBLOCK
 62
0
100
AcDbBlockEnd
  0
ENDSEC
  0
SECTION
  2
ENTITIES
  0
LWPOLYLINE
  5
21C
100
AcDbEntity
  8
RACCORDO
100
AcDbPolyline
 62
250
  6
CONTINUOUS
 90
9
 70
0
 10
-7.7200974875
 20
33.3032083783
 10
-7.7015545065
 20
33.3132492184
 10
-7.6729105025
 20
33.3234689497
 10
-7.6418702193
 20
33.3288311678
 10
-7.608773543
 20
33.3292771573
 10
-7.5739828769
 20
33.3248020346
 10
-7.5378791735
 20
33.3154548018
 10
-7.5008577625
 20
33.3013378096
 10
-7.4633240227
 20
33.2826056366
  0
LWPOLYLINE
  5
21D
100
AcDbEntity
  8
RACCORDO
100
AcDbPolyline
 62
250
  6
CONTINUOUS
 90
4
 70
0
 10
-7.6364732518
 20
33.1500894864
 10
-7.579554881
 20
33.1993966669
 10
-7.5217028587
 20
33.2436708131
 10
-7.4633240227
 20
33.2826056366
  0
LWPOLYLINE
  5
21E
100
AcDbEntity
  8
RACCORDO
100
AcDbPolyline
 62
7
  6
CONTINUOUS
 90
16
 70
0
 10
-7.7200889908
 20
33.3031948331
 10
-7.7742244353
 20
33.2666777985
 10
-7.8392050371
 20
33.2158381759
 10
-7.9003099776
 20
33.1603046321
 10
-7.9577483725
 20
33.1003311269
 10
-8.0114709529
 20
33.0362381507
 10
-8.0611153337
 20
32.9687389209
 10
-8.106607178
 20
32.8981087614
 10
-8.1478431708
 20
32.8245679525
 10
-8.1843927239
 20
32.7489045988
 10
-8.2161097789
 20
32.6713171116
 10
-8.2428081078
 20
32.5920128694
 10
-8.2640744064
 20
32.5116892285
 10
-8.279649596
 20
32.4305696638
 10
-8.2892331573
 20
32.3486000305
 10
-8.2917595987
 20
32.3036481728
  0
LWPOLYLINE
  5
21F
100
AcDbEntity
  8
ASSI
100
AcDbPolyline
 62
7
  6
CONTINUOUS
 90
16
 70
0
 10
-7.7200858476
 20
33.303196806
 10
-7.7738183443
 20
33.2669707778
 10
-7.8389171575
 20
33.2160813923
 10
-7.9001311328
 20
33.1604790212
 10
-7.9576706327
 20
33.1004179424
 10
-8.0114850325
 20
33.0362202134
 10
-8.0612081129
 20
32.9686041743
 10
-8.1067650803
 20
32.8978461845
 10
-8.1480517527
 20
32.8241677069
 10
-8.1846337269
 20
32.7483634266
 10
-8.2163645
 20
32.670633027
 10
-8.2430569696
 20
32.5911847356
 10
-8.2642953177
 20
32.5107211978
 10
-8.2798200484
 20
32.4294671353
 10
-8.2893286276
 20
32.3473678344
 10
-8.2917597833
 20
32.3036425762
  0
LINE
  5
220
100
AcDbEntity
  8
ASSI
100
AcDbLine
 62
7
  6
CONTINUOUS
 10
-7.7201863606
 20
33.3031525457
 11
-3.4826161313
 21
35.9672082576
  0
LINE
  5
221
100
AcDbEntity
  8
RACCORDO
100
AcDbLine
 62
7
  6
CONTINUOUS
 10
-7.7201863607
 20
33.3031525457
 11
-3.4826161313
 21
35.9672082576
  0
LINE
  5
222
100
AcDbEntity
  8
ASSI
100
AcDbLine
 62
250
  6
CONTINUOUS
 10
-7.4633240227
 20
33.2826056366
 11
-3.2273259445
 21
35.9456729759
  0
LINE
  5
223
100
AcDbEntity
  8
RACCORDO
100
AcDbLine
 62
250
  6
CONTINUOUS
 10
-7.4633240227
 20
33.2826056366
 11
-3.2273259445
 21
35.9456729759
  0
LWPOLYLINE
  5
224
100
AcDbEntity
  8
ASSI
100
AcDbPolyline
 62
250
  6
CONTINUOUS
 90
14
 70
0
 10
-7.7200943536
 20
33.3032103457
 10
-7.7148802343
 20
33.3063498612
 10
-7.6981174737
 20
33.3147883902
 10
-7.6803102372
 20
33.3213655219
 10
-7.6615347535
 20
33.3260530995
 10
-7.6418713858
 20
33.3288310621
 10
-7.6214042812
 20
33.329687525
 10
-7.6002210305
 20
33.3286188241
 10
-7.5784122937
 20
33.3256295341
 10
-7.5560714052
 20
33.320732449
 10
-7.5332939704
 20
33.3139485253
 10
-7.5101774678
 20
33.3053067941
 10
-7.4868208319
 20
33.2948442393
 10
-7.4633240227
 20
33.2826056366
  0
LINE
  5
225
100
AcDbEntity
  8
ASSI
100
AcDbLine
 62
250
  6
CONTINUOUS
 10
7.2356274206
 20
24.7956152944
 11
11.6221318397
 21
27.3717821587
  0
LINE
  5
226
100
AcDbEntity
  8
RACCORDO
100
AcDbLine
 62
250
  6
CONTINUOUS
 10
7.2356274206
 20
24.7956152944
 11
11.6221318397
 21
27.3717821587
  0
LINE
  5
227
100
AcDbEntity
  8
ASSI
100
AcDbLine
 62
250
  6
CONTINUOUS
 10
7.5922115547
 20
24.1851948468
 11
11.9755775407
 21
26.7595185288
  0
LINE
  5
228
100
AcDbEntity
  8
RACCORDO
100
AcDbLine
 62
250
  6
CONTINUOUS
 10
7.5922115547
 20
24.1851948468
 11
11.9755775407
 21
26.7595185288
  0
LWPOLYLINE
  5
229
100
AcDbEntity
  8
ASSI
100
AcDbPolyline
 62
250
  6
CONTINUOUS
 90
28
 70
0
 10
-8.1453083402
 20
32.0995665339
 10
-8.1426062533
 20
32.1464966573
 10
-8.1377421126
 20
32.1944494647
 10
-8.1307313795
 20
32.2432763315
 10
-8.1215967631
 20
32.2928248165
 10
-8.1103666345
 20
32.3429426189
 10
-8.0970743774
 20
32.393478183
 10
-8.0817608576
 20
32.444277521
 10
-8.0644739502
 20
32.4951811878
 10
-8.045266802
 20
32.5460283435
 10
-8.0241998432
 20
32.5966609516
 10
-8.00133868
 20
32.6469232457
 10
-7.9767532132
 20
32.6966588347
 10
-7.950520827
 20
32.7457137141
 10
-7.9227230981
 20
32.7939366396
 10
-7.8934438089
 20
32.8411784975
 10
-7.8627741028
 20
32.887293955
 10
-7.8308100482
 20
32.9321398744
 10
-7.7976492596
 20
32.9755756573
 10
-7.7633952782
 20
33.0174673679
 10
-7.7281552669
 20
33.0576855397
 10
-7.6920375033
 20
33.0961036339
 10
-7.6551558522
 20
33.1326026454
 10
-7.6176247524
 20
33.1670708853
 10
-7.579556903
 20
33.1994016055
 10
-7.5410697133
 20
33.2294948545
 10
-7.5022850102
 20
33.2572580506
 10
-7.4633240227
 20
33.2826056366
  0
LWPOLYLINE
  5
22A
100
AcDbEntity
  8
RACCORDO
100
AcDbPolyline
 62
250
  6
CONTINUOUS
 90
16
 70
0
 10
-8.1453083402
 20
32.0995665339
 10
-8.1404468754
 20
32.1703337012
 10
-8.1307374862
 20
32.243247548
 10
-8.1162464534
 20
32.3178011126
 10
-8.0970726787
 20
32.3934856395
 10
-8.0733490928
 20
32.4697648101
 10
-8.0452470704
 20
32.5460780602
 10
-8.0129756575
 20
32.6218776057
 10
-7.9767576773
 20
32.6966541609
 10
-7.9368295742
 20
32.7699095462
 10
-7.893465217
 20
32.841144153
 10
-7.8469727547
 20
32.9098520018
 10
-7.7976730622
 20
32.9755455282
 10
-7.7459129576
 20
33.0377682536
 10
-7.6920555834
 20
33.0960876355
 10
-7.6364732518
 20
33.1500894864
  0
LWPOLYLINE
  5
22B
100
AcDbEntity
  8
ASSI
100
AcDbPolyline
 62
7
  6
CONTINUOUS
 90
12
 70
0
 10
-8.2917256689
 20
-1.5519179275
 10
-8.2850235046
 20
-1.6347199755
 10
-8.2708107918
 20
-1.7154100613
 10
-8.249689066
 20
-1.791291008
 10
-8.2223285144
 20
-1.8617440021
 10
-8.1892259697
 20
-1.9268591793
 10
-8.1505191599
 20
-1.9871072559
 10
-8.1068138284
 20
-2.0419633843
 10
-8.0586458397
 20
-2.0911512418
 10
-8.0057774579
 20
-2.1350623056
 10
-7.9484334959
 20
-2.1734104017
 10
-7.9398310213
 20
-2.1784485121
  0
LWPOLYLINE
  5
22C
100
AcDbEntity
  8
RACCORDO
100
AcDbPolyline
 62
7
  6
CONTINUOUS
 90
13
 70
0
 10
-8.2917259034
 20
-1.5519114094
 10
-8.2859331572
 20
-1.6273435875
 10
-8.2738941557
 20
-1.7012338127
 10
-8.2561056976
 20
-1.7710885469
 10
-8.2330824626
 20
-1.8364628163
 10
-8.2052044175
 20
-1.897432237
 10
-8.1726132106
 20
-1.9543772009
 10
-8.1357812596
 20
-2.0069128446
 10
-8.0951109005
 20
-2.0548637025
 10
-8.0504360952
 20
-2.0985924948
 10
-8.002171807
 20
-2.1377361459
 10
-7.9507473518
 20
-2.1720258157
 10
-7.9407015241
 20
-2.177947133
  0
LINE
  5
22D
100
AcDbEntity
  8
RACCORDO
100
AcDbLine
 62
250
  6
CONTINUOUS
 10
-8.2917339555
 20
-1.551940144
 11
-8.2909236496
 21
-1.5637167751
  0
LWPOLYLINE
  5
22E
100
AcDbEntity
  8
ASSI
100
AcDbPolyline
 62
250
  6
CONTINUOUS
 90
16
 70
0
 10
-8.1453083402
 20
-1.7548029884
 10
-8.2196580207
 20
0.4566552801
 10
-8.2833906256
 20
2.6749113068
 10
-8.3365041531
 20
4.8998972426
 10
-8.3789969402
 20
7.1315467142
 10
-8.4108676217
 20
9.369789801
 10
-8.4321152115
 20
11.6145529891
 10
-8.4427391142
 20
13.865763465
 10
-8.4427390837
 20
16.1233564454
 10
-8.432115123
 20
18.3872701885
 10
-8.4108674836
 20
20.6574397144
 10
-8.378996767
 20
22.9337914282
 10
-8.3365039677
 20
25.216250401
 10
-8.2833904601
 20
27.5047450406
 10
-8.2196579144
 20
29.7992071397
 10
-8.1453083402
 20
32.0995665339
  0
LWPOLYLINE
  5
22F
100
AcDbEntity
  8
RACCORDO
100
AcDbPolyline
 62
250
  6
CONTINUOUS
 90
10
 70
0
 10
-8.1453083402
 20
-1.7548029884
 10
-8.2633261086
 20
1.9347414684
 10
-8.351848362
 20
5.6430394717
 10
-8.4108674485
 20
9.3697759192
 10
-8.4403782664
 20
13.1146341297
 10
-8.4403782665
 20
16.8772959842
 10
-8.4108674486
 20
20.6574419551
 10
-8.3518483622
 20
24.4547509797
 10
-8.2633261087
 20
28.2689004856
 10
-8.1453083402
 20
32.0995665339
  0
LWPOLYLINE
  5
230
100
AcDbEntity
  8
ASSI
100
AcDbPolyline
 62
250
  6
CONTINUOUS
 90
14
 70
0
 10
-8.2917597833
 20
32.3036425762
 10
-8.2918215914
 20
32.296071913
 10
-8.2904782633
 20
32.27817013
 10
-8.2870477542
 20
32.2603037
 10
-8.2815444439
 20
32.2425474459
 10
-8.2739913949
 20
32.2249757273
 10
-8.2644202482
 20
32.2076621186
 10
-8.2528710894
 20
32.1906791085
 10
-8.2393922916
 20
32.1740978126
 10
-8.2240403058
 20
32.1579876606
 10
-8.2068794107
 20
32.1424160963
 10
-8.1879814652
 20
32.1274483189
 10
-8.1674256123
 20
32.1131470081
 10
-8.1452979321
 20
32.0995720482
  0
LWPOLYLINE
  5
231
100
AcDbEntity
  8
RACCORDO
100
AcDbPolyline
 62
7
  6
CONTINUOUS
 90
10
 70
0
 10
-8.2917602656
 20
32.3038825681
 10
-8.4073078325
 20
28.5642282259
 10
-8.4970660964
 20
24.7222525941
 10
-8.5568971689
 20
20.8973011772
 10
-8.5867927408
 20
17.0897480463
 10
-8.5867508206
 20
13.2999020008
 10
-8.5567706473
 20
9.5280470175
 10
-8.4968526413
 20
5.774490008
 10
-8.4070035456
 20
2.0395956485
 10
-8.2917339555
 20
-1.551940144
  0
LWPOLYLINE
  5
232
100
AcDbEntity
  8
ASSI
100
AcDbPolyline
 62
7
  6
CONTINUOUS
 90
10
 70
0
 10
-8.2917602662
 20
32.3038825513
 10
-8.4084986662
 20
28.5203726053
 10
-8.4976593825
 20
24.6917970932
 10
-8.5570987136
 20
20.8801314528
 10
-8.5868084515
 20
17.0857456107
 10
-8.5867866377
 20
13.3089451244
 10
-8.5570325182
 20
9.5500113899
 10
-8.4975464893
 20
5.8092480699
 10
-8.4083352004
 20
2.0870157601
 10
-8.2917339562
 20
-1.5519401228
  0
LINE
  5
233
100
AcDbEntity
  8
SIMBOLO
100
AcDbLine
 62
250
  6
CONTINUOUS
 10
-3.785395958
 20
8.8775642425
 11
-3.91558432
 21
8.8024097686
  0
LINE
  5
234
100
AcDbEntity
  8
SIMBOLO
100
AcDbLine
 62
250
  6
CONTINUOUS
 10
-2.3474309525
 20
9.1011453528
 11
-2.0862242731
 21
9.2519335063
  0
LINE
  5
235
100
AcDbEntity
  8
SIMBOLO
100
AcDbLine
 62
250
  6
CONTINUOUS
 10
-3.8352930236
 20
7.1983257508
 11
-3.7056112655
 21
7.273187718
  0
LWPOLYLINE
  5
236
100
AcDbEntity
  8
RACCORDO
100
AcDbPolyline
 62
250
  6
CONTINUOUS
 90
8
 70
0
 10
-8.2909236496
 20
-1.5637167751
 10
-8.2851044625
 20
-1.5945159839
 10
-8.2740025332
 20
-1.6246658727
 10
-8.2577368134
 20
-1.6538434
 10
-8.2364815824
 20
-1.6817359426
 10
-8.2104645797
 20
-1.7080446454
 10
-8.1799645647
 20
-1.7324876234
 10
-8.1453083304
 20
-1.7548029822
  0
LWPOLYLINE
  5
237
100
AcDbEntity
  8
ASSI
100
AcDbPolyline
 62
250
  6
CONTINUOUS
 90
12
 70
0
 10
-8.290487944
 20
-1.5675900399
 10
-8.2870581155
 20
-1.5868634458
 10
-8.2815553911
 20
-1.6059151136
 10
-8.2740028175
 20
-1.6246652565
 10
-8.2644320224
 20
-1.6430353599
 10
-8.252883085
 20
-1.6609484977
 10
-8.2394043693
 20
-1.6783296551
 10
-8.22405232
 20
-1.6951060463
 10
-8.2068912232
 20
-1.7112074203
 10
-8.1879929421
 20
-1.7265663507
 10
-8.167436617
 20
-1.741118518
 10
-8.1453083304
 20
-1.7548029822
  0
LWPOLYLINE
  5
238
100
AcDbEntity
  8
0
100
AcDbPolyline
 62
250
  6
CONTINUOUS
 90
12
 70
0
 10
-5.4507576984
 20
1.8995612165
 10
-5.453676365
 20
1.9267379038
 10
-5.4664065402
 20
2.1553939149
 10
-5.4665977625
 20
2.3769513285
 10
-5.4542248663
 20
2.5906357503
 10
-5.429412347
 20
2.7956447402
 10
-5.3923145469
 20
2.9911351243
 10
-5.3430198225
 20
3.1763155666
 10
-5.2817146049
 20
3.3504007281
 10
-5.2086209044
 20
3.5126378167
 10
-5.1240183629
 20
3.6624279937
 10
-5.028322789
 20
3.7992470827
  0
LWPOLYLINE
  5
239
100
AcDbEntity
  8
ASSI
100
AcDbPolyline
 62
250
  6
CONTINUOUS
 90
24
 70
0
 10
-5.450773796
 20
1.8990158755
 10
-5.4559524308
 20
1.9556083764
 10
-5.4643546539
 20
2.0973723627
 10
-5.4679505937
 20
2.2364958357
 10
-5.4667177819
 20
2.3728057813
 10
-5.4606772434
 20
2.5061130764
 10
-5.4498624465
 20
2.6362095318
 10
-5.4342919694
 20
2.7629066668
 10
-5.4140039341
 20
2.8860188175
 10
-5.3890349679
 20
3.0053478367
 10
-5.3594089027
 20
3.1206923469
 10
-5.3251776587
 20
3.2318523488
 10
-5.2863858517
 20
3.3386629608
 10
-5.2430499356
 20
3.4409786607
 10
-5.1952300342
 20
3.5386438124
 10
-5.1430279765
 20
3.6315199011
 10
-5.0865291916
 20
3.719493992
 10
-5.0258247859
 20
3.8024511945
 10
-4.9610237051
 20
3.8802530078
 10
-4.8922438609
 20
3.9527583988
 10
-4.8196096059
 20
4.0198409481
 10
-4.7432178621
 20
4.0814023488
 10
-4.6631500066
 20
4.1373502221
 10
-4.5772239374
 20
4.1888425111
  0
LWPOLYLINE
  5
23A
100
AcDbEntity
  8
RACCORDO
100
AcDbPolyline
 62
250
  6
CONTINUOUS
 90
9
 70
0
 10
-8.2917595987
 20
32.3036481728
 10
-8.2909144077
 20
32.2817518526
 10
-8.2850946004
 20
32.2531855833
 10
-8.2739922027
 20
32.2249773717
 10
-8.257726169
 20
32.1974294489
 10
-8.2364707784
 20
32.1708369714
 10
-8.2104537677
 20
32.1454848587
 10
-8.1799538906
 20
32.121644741
 10
-8.1452979321
 20
32.0995720482
  0
LINE
  5
23B
100
AcDbEntity
  8
ASSI
100
AcDbLine
 62
7
  6
CONTINUOUS
 10
-4.8497886105
 20
3.762585224
 11
-4.7938238658
 21
3.8509507161
  0
LINE
  5
23C
100
AcDbEntity
  8
0
100
AcDbLine
 62
7
  6
CONTINUOUS
 10
-4.8497886105
 20
3.762585224
 11
-4.7544514618
 21
3.9073209504
  0
LWPOLYLINE
  5
23D
100
AcDbEntity
  8
ASSI
100
AcDbPolyline
 62
7
  6
CONTINUOUS
 90
3
 70
0
 10
-4.7938238658
 20
3.8509507161
 10
-4.7341680909
 20
3.9347344363
 10
-4.6709070752
 20
4.0138288384
  0
LINE
  5
23E
100
AcDbEntity
  8
0
100
AcDbLine
 62
7
  6
CONTINUOUS
 10
-4.7544514618
 20
3.9073209504
 11
-4.6489894248
 21
4.0391774484
  0
LWPOLYLINE
  5
23F
100
AcDbEntity
  8
RACCORDO
100
AcDbPolyline
 62
7
  6
CONTINUOUS
 90
34
 70
0
 10
-4.7914780143
 20
3.7818496565
 10
-4.9130765836
 20
3.6406511797
 10
-5.0233877147
 20
3.4850505897
 10
-5.1219688823
 20
3.3156743217
 10
-5.2083793852
 20
3.1331626808
 10
-5.2822395328
 20
2.9383388795
 10
-5.3432057739
 20
2.7320700388
 10
-5.3909915744
 20
2.5151203612
 10
-5.4253896129
 20
2.288452347
 10
-5.446220199
 20
2.0532783065
 10
-5.4533835939
 20
1.8106036242
 10
-5.4468979959
 20
1.5614417739
 10
-5.4268315926
 20
1.3070821323
 10
-5.3932941512
 20
1.0486700399
 10
-5.3464978467
 20
0.7872557468
 10
-5.2867012841
 20
0.524015842
 10
-5.2141878077
 20
0.2601089595
 10
-5.1293323418
 20
-0.0033754399
 10
-5.0325268481
 20
-0.2653563477
 10
-4.9241938876
 20
-0.5247117188
 10
-4.8048545159
 20
-0.7803460739
 10
-4.6750309768
 20
-1.0312125516
 10
-4.5352760277
 20
-1.2762342458
 10
-4.3862308324
 20
-1.5143738277
 10
-4.2285350471
 20
-1.7446382286
 10
-4.062839066
 20
-1.9660444513
 10
-3.8899016632
 20
-2.1776303824
 10
-3.7105167335
 20
-2.3784391482
 10
-3.5254574255
 20
-2.5675717587
 10
-3.3354937689
 20
-2.7442613433
 10
-3.1414027393
 20
-2.9077593624
 10
-2.9439835005
 20
-3.0573293865
 10
-2.7441611326
 20
-3.1922939821
 10
-2.6005669407
 20
-3.2793416396
  0
LWPOLYLINE
  5
240
100
AcDbEntity
  8
0
100
AcDbPolyline
 62
250
  6
CONTINUOUS
 90
5
 70
0
 10
-5.028322789
 20
3.7992470827
 10
-4.9219819744
 20
3.9225768803
 10
-4.8054183908
 20
4.0319348053
 10
-4.6791413023
 20
4.126820091
 10
-4.5774654664
 20
4.1887091325
  0
LINE
  5
241
100
AcDbEntity
  8
ASSI
100
AcDbLine
 62
7
  6
CONTINUOUS
 10
-4.6709070752
 20
4.0138288384
 11
-4.6041391481
 21
4.0881208533
  0
LINE
  5
242
100
AcDbEntity
  8
0
100
AcDbLine
 62
7
  6
CONTINUOUS
 10
-4.6489894248
 20
4.0391774484
 11
-4.5338046875
 21
4.1576637459
  0
LWPOLYLINE
  5
243
100
AcDbEntity
  8
RACCORDO
100
AcDbPolyline
 62
250
  6
CONTINUOUS
 90
35
 70
0
 10
-4.6890311838
 20
3.7753532392
 10
-4.8126659806
 20
3.6530058871
 10
-4.9260268622
 20
3.5160691668
 10
-5.0292315417
 20
3.364738053
 10
-5.1209384795
 20
3.2009532501
 10
-5.2009887262
 20
3.0245570256
 10
-5.2695166134
 20
2.8357197374
 10
-5.3256315809
 20
2.6368687203
 10
-5.3691674302
 20
2.427877965
 10
-5.4002770745
 20
2.2088805274
 10
-5.4185615104
 20
1.9826858646
 10
-5.4238571706
 20
1.7492021775
 10
-5.4163276824
 20
1.5085216073
 10
-5.3960783349
 20
1.263722675
 10
-5.362954461
 20
1.0147494798
 10
-5.3171240961
 20
0.7616514529
 10
-5.259189416
 20
0.5076585464
 10
-5.1890111873
 20
0.2527561419
 10
-5.1067532672
 20
-0.0030534869
 10
-5.0134834497
 20
-0.2565207205
 10
-4.9090758259
 20
-0.5076304588
 10
-4.7936883873
 20
-0.7564141436
 10
-4.6688230477
 20
-0.9996962756
 10
-4.5343938407
 20
-1.237394902
 10
-4.3905214609
 20
-1.4696098494
 10
-4.2390228527
 20
-1.6934409359
 10
-4.0798123245
 20
-1.9088088037
 10
-3.9130075276
 20
-2.1158093804
 10
-3.7407322851
 20
-2.3118064103
 10
-3.5628078982
 20
-2.496742282
 10
-3.3794375589
 20
-2.6706873697
 10
-3.1933171473
 20
-2.8311970042
 10
-3.005349934
 20
-2.9774587236
 10
-2.814645924
 20
-3.1102919281
 10
-2.6212084192
 20
-3.2296983448
  0
LINE
  5
244
100
AcDbEntity
  8
ASSI
100
AcDbLine
 62
7
  6
CONTINUOUS
 10
-4.6041391481
 20
4.0881208533
 11
-4.5338766618
 21
4.1575897086
  0
LINE
  5
245
100
AcDbEntity
  8
0
100
AcDbLine
 62
250
  6
CONTINUOUS
 10
-5.1755255693
 20
4.000419792
 11
-5.0537658908
 21
4.1147065571
  0
LINE
  5
246
100
AcDbEntity
  8
ASSI
100
AcDbLine
 62
250
  6
CONTINUOUS
 10
-5.1445751106
 20
4.0319607829
 11
-5.068544814
 21
4.1020954388
  0
LINE
  5
247
100
AcDbEntity
  8
ASSI
100
AcDbLine
 62
7
  6
CONTINUOUS
 10
-4.5338766618
 20
4.1575897086
 11
-4.4604055973
 21
4.2219783836
  0
LINE
  5
248
100
AcDbEntity
  8
0
100
AcDbLine
 62
7
  6
CONTINUOUS
 10
-4.5338046875
 20
4.1576637459
 11
-4.4093218643
 21
4.262334116
  0
LWPOLYLINE
  5
249
100
AcDbEntity
  8
ASSI
100
AcDbPolyline
 62
250
  6
CONTINUOUS
 90
7
 70
0
 10
-5.068544814
 20
4.1020954388
 10
-4.9884633311
 20
4.1665524561
 10
-4.9046874645
 20
4.2250595571
 10
-4.8172160053
 20
4.2775932344
 10
-4.7260555443
 20
4.3241737389
 10
-4.6315750617
 20
4.3645941465
 10
-4.5337261939
 20
4.3988278962
  0
LINE
  5
24A
100
AcDbEntity
  8
ASSI
100
AcDbLine
 62
7
  6
CONTINUOUS
 10
-4.4604055973
 20
4.2219783836
 11
-4.3976817731
 21
4.2704939498
  0
LWPOLYLINE
  5
24B
100
AcDbEntity
  8
0
100
AcDbPolyline
 62
250
  6
CONTINUOUS
 90
5
 70
0
 10
-5.0537658908
 20
4.1147065571
 10
-4.9217547589
 20
4.2137478581
 10
-4.7795728383
 20
4.2977197312
 10
-4.628773576
 20
4.3656787726
 10
-4.469082808
 20
4.4174321858
  0
LINE
  5
24C
100
AcDbEntity
  8
0
100
AcDbLine
 62
7
  6
CONTINUOUS
 10
-4.4093218643
 20
4.262334116
 11
-4.3966392738
 21
4.2709373643
  0
LWPOLYLINE
  5
24D
100
AcDbEntity
  8
RACCORDO
100
AcDbPolyline
 62
250
  6
CONTINUOUS
 90
3
 70
0
 10
-4.4131406292
 20
3.9754318622
 10
-4.5552723274
 20
3.8832899725
 10
-4.6890311838
 20
3.7753532392
  0
LWPOLYLINE
  5
24E
100
AcDbEntity
  8
RACCORDO
100
AcDbPolyline
 62
7
  6
CONTINUOUS
 90
4
 70
0
 10
-4.4025388931
 20
4.0912405252
 10
-4.5165388153
 20
4.0184780633
 10
-4.6590788255
 20
3.9079922552
 10
-4.7914780143
 20
3.7818496565
  0
LINE
  5
24F
100
AcDbEntity
  8
DRAFT
100
AcDbLine
 62
7
  6
CONTINUOUS
 10
-4.4049489906
 20
4.0898343767
 11
-3.9464005113
 21
4.3584713958
  0
LINE
  5
250
100
AcDbEntity
  8
RACCORDO
100
AcDbLine
 62
7
  6
CONTINUOUS
 10
-4.4026518585
 20
4.0911776291
 11
-4.4049440277
 21
4.0898372843
  0
LINE
  5
251
100
AcDbEntity
  8
SIMBOLO
100
AcDbLine
 62
250
  6
CONTINUOUS
 10
0.2782248317
 20
7.7358996605
 11
0.4088522089
 21
7.8113076163
  0
LINE
  5
252
100
AcDbEntity
  8
SIMBOLO
100
AcDbLine
 62
250
  6
CONTINUOUS
 10
-1.7324887604
 20
5.8345098674
 11
-1.4731740411
 21
5.9842064436
  0
LINE
  5
253
100
AcDbEntity
  8
SIMBOLO
100
AcDbLine
 62
250
  6
CONTINUOUS
 10
1.5921642743
 20
6.8264724435
 11
1.8533702466
 21
6.9772610054
  0
LINE
  5
254
100
AcDbEntity
  8
SIMBOLO
100
AcDbLine
 62
250
  6
CONTINUOUS
 10
0.9432490153
 20
5.9969802963
 11
1.0734380843
 21
6.0721343619
  0
LINE
  5
255
100
AcDbEntity
  8
0
100
AcDbLine
 62
7
  6
CONTINUOUS
 10
-4.5774654664
 20
4.1887091325
 11
-4.5746680455
 21
4.1902496977
  0
LINE
  5
256
100
AcDbEntity
  8
ASSI
100
AcDbLine
 62
7
  6
CONTINUOUS
 10
-4.5772239374
 20
4.1888425111
 11
-4.5746834394
 21
4.1902412429
  0
LINE
  5
257
100
AcDbEntity
  8
ASSI
100
AcDbLine
 62
7
  6
CONTINUOUS
 10
-4.8497886105
 20
3.762585224
 11
-4.7607208313
 21
3.8111533934
  0
LINE
  5
258
100
AcDbEntity
  8
0
100
AcDbLine
 62
7
  6
CONTINUOUS
 10
-4.8497886105
 20
3.762585224
 11
-4.7607208313
 21
3.8111533934
  0
LINE
  5
259
100
AcDbEntity
  8
0
100
AcDbLine
 62
7
  6
CONTINUOUS
 10
-4.5771512017
 20
4.1887660116
 11
-4.5206025515
 21
4.218211083
  0
LWPOLYLINE
  5
25A
100
AcDbEntity
  8
ASSI
100
AcDbPolyline
 62
7
  6
CONTINUOUS
 90
13
 70
0
 10
-4.5768920538
 20
4.1889091515
 10
-4.5056500966
 20
4.2254165491
 10
-4.3783091286
 20
4.2777956106
 10
-4.2439437259
 20
4.3175345032
 10
-4.1030468005
 20
4.3445207627
 10
-3.9557579654
 20
4.3586823353
 10
-3.802468509
 20
4.3598572519
 10
-3.6438048949
 20
4.3479514097
 10
-3.4803206496
 20
4.3229073279
 10
-3.3125710825
 20
4.284705699
 10
-3.1412934724
 20
4.2335193787
 10
-2.9673181134
 20
4.1696304147
 10
-2.7913808721
 20
4.0933278097
  0
LINE
  5
25B
100
AcDbEntity
  8
RACCORDO
100
AcDbLine
 62
250
  6
CONTINUOUS
 10
-4.2625692243
 20
4.0515607114
 11
-4.4131406292
 21
3.9754318622
  0
LWPOLYLINE
  5
25C
100
AcDbEntity
  8
0
100
AcDbPolyline
 62
7
  6
CONTINUOUS
 90
12
 70
0
 10
-4.5206025515
 20
4.218211083
 10
-4.3922749651
 20
4.2727936702
 10
-4.2563361071
 20
4.3144726556
 10
-4.1132460183
 20
4.3430286336
 10
-3.9630926565
 20
4.3582913448
 10
-3.8062483292
 20
4.3599831577
 10
-3.6433339654
 20
4.3478973971
 10
-3.4748907881
 20
4.3218642922
 10
-3.3014896157
 20
4.2817578586
 10
-3.1239128784
 20
4.2276661452
 10
-2.9430395874
 20
4.1597913953
 10
-2.7596646812
 20
4.0783491995
  0
LINE
  5
25D
100
AcDbEntity
  8
RACCORDO
100
AcDbLine
 62
250
  6
CONTINUOUS
 10
-4.1036597804
 20
4.111877334
 11
-4.2625692243
 21
4.0515607114
  0
LWPOLYLINE
  5
25E
100
AcDbEntity
  8
ASSI
100
AcDbPolyline
 62
250
  6
CONTINUOUS
 90
8
 70
0
 10
2.6699582823
 20
-5.313673127
 10
2.57453546
 20
-5.3396981119
 10
2.4762328793
 20
-5.3597691687
 10
2.3752093504
 20
-5.373857624
 10
2.2716185283
 20
-5.3819368904
 10
2.1656126871
 20
-5.38399632
 10
2.05736749
 20
-5.3800245159
 10
2.0292838575
 20
-5.3774771751
  0
LWPOLYLINE
  5
25F
100
AcDbEntity
  8
0
100
AcDbPolyline
 62
250
  6
CONTINUOUS
 90
5
 70
0
 10
2.631281803
 20
-5.325041345
 10
2.4821291506
 20
-5.3587437632
 10
2.3250279536
 20
-5.3785452702
 10
2.1589098868
 20
-5.3839382142
 10
2.0327197744
 20
-5.3768381436
  0
LWPOLYLINE
  5
260
100
AcDbEntity
  8
ASSI
100
AcDbPolyline
 62
7
  6
CONTINUOUS
 90
4
 70
0
 10
2.6248837661
 20
-5.220495218
 10
2.7221350152
 20
-5.2059020647
 10
2.8171810562
 20
-5.1860312557
 10
2.9099595411
 20
-5.1608959466
  0
LWPOLYLINE
  5
261
100
AcDbEntity
  8
0
100
AcDbPolyline
 62
7
  6
CONTINUOUS
 90
3
 70
0
 10
2.5648608798
 20
-5.2267659085
 10
2.7400793533
 20
-5.2025866794
 10
2.9092267325
 20
-5.1611178211
  0
LINE
  5
262
100
AcDbEntity
  8
ASSI
100
AcDbLine
 62
7
  6
CONTINUOUS
 10
2.5255078283
 20
-5.2297894069
 11
2.6248837661
 21
-5.220495218
  0
LINE
  5
263
100
AcDbEntity
  8
ASSI
100
AcDbLine
 62
7
  6
CONTINUOUS
 10
2.5008018755
 20
-5.2307574278
 11
2.5255078283
 21
-5.2297894069
  0
LINE
  5
264
100
AcDbEntity
  8
0
100
AcDbLine
 62
7
  6
CONTINUOUS
 10
2.504030807
 20
-5.229149535
 11
2.5648608798
 21
-5.2267659085
  0
LWPOLYLINE
  5
265
100
AcDbEntity
  8
RACCORDO
100
AcDbPolyline
 62
7
  6
CONTINUOUS
 90
12
 70
0
 10
6.7500147252
 20
-10.6601835393
 10
6.8058620468
 20
-10.6890288394
 10
6.8670546323
 20
-10.7135671585
 10
6.9306046065
 20
-10.7321215662
 10
6.9959137388
 20
-10.7445231983
 10
7.063411747
 20
-10.7507584652
 10
7.1326928481
 20
-10.7505498049
 10
7.2031092321
 20
-10.7436696834
 10
7.2749383193
 20
-10.7298023954
 10
7.3480306807
 20
-10.7085531992
 10
7.4216617783
 20
-10.6796703845
 10
7.4781244438
 20
-10.6522361328
  0
LWPOLYLINE
  5
266
100
AcDbEntity
  8
RACCORDO
100
AcDbPolyline
 62
250
  6
CONTINUOUS
 90
16
 70
0
 10
6.5416342204
 20
-10.2348595452
 10
6.5800731562
 20
-10.254748421
 10
6.6218851323
 20
-10.2720574798
 10
6.6666221537
 20
-10.2866012634
 10
6.7138048849
 20
-10.2982239422
 10
6.7629277859
 20
-10.3068009849
 10
6.8134645287
 20
-10.3122404927
 10
6.8648736367
 20
-10.314484184
 10
6.9166042864
 20
-10.3135080186
 10
6.9681022089
 20
-10.3093224558
 10
7.0188156291
 20
-10.3019723417
 10
7.0682011773
 20
-10.2915364293
 10
7.1157297115
 20
-10.2781265343
 10
7.1608919864
 20
-10.2618863372
 10
7.2032041104
 20
-10.2429898439
 10
7.2422127295
 20
-10.221639521
  0
LWPOLYLINE
  5
267
100
AcDbEntity
  8
ASSI
100
AcDbPolyline
 62
250
  6
CONTINUOUS
 90
25
 70
0
 10
6.5416342204
 20
-10.2348595452
 10
6.5652404871
 20
-10.2475816341
 10
6.5902271938
 20
-10.2593254294
 10
6.616489703
 20
-10.2700417523
 10
6.6439180322
 20
-10.2796857256
 10
6.6723973218
 20
-10.2882169652
 10
6.7018083179
 20
-10.2955997475
 10
6.7320278582
 20
-10.3018031556
 10
6.7629293913
 20
-10.3068012107
 10
6.794383516
 20
-10.3105729825
 10
6.8262585244
 20
-10.3131026758
 10
6.8584209222
 20
-10.3143796943
 10
6.8907359916
 20
-10.3143986898
 10
6.9230684104
 20
-10.3131595854
 10
6.9552827769
 20
-10.3106675725
 10
6.9872441464
 20
-10.3069330954
 10
7.0188186734
 20
-10.3019718008
 10
7.0498741415
 20
-10.2958044719
 10
7.0802804771
 20
-10.2884569499
 10
7.1099103563
 20
-10.2799600138
 10
7.1386397095
 20
-10.2703492552
 10
7.1663482151
 20
-10.2596649394
 10
7.1929198478
 20
-10.2479518228
 10
7.2182433614
 20
-10.2352589628
 10
7.2422127295
 20
-10.221639521
  0
LWPOLYLINE
  5
268
100
AcDbEntity
  8
ASSI
100
AcDbPolyline
 62
7
  6
CONTINUOUS
 90
14
 70
0
 10
6.7496667354
 20
-10.6599825526
 10
6.776368377
 20
-10.6746188645
 10
6.8287169885
 20
-10.6990079584
 10
6.882837405
 20
-10.7188053054
 10
6.9389321397
 20
-10.7340666502
 10
6.996652793
 20
-10.7446269423
 10
7.055598468
 20
-10.7503668455
 10
7.1160045832
 20
-10.7511996419
 10
7.1776075773
 20
-10.7469314644
 10
7.2399779426
 20
-10.7374147722
 10
7.3032301161
 20
-10.7224386785
 10
7.3672484159
 20
-10.7017508594
 10
7.4315878417
 20
-10.6751859926
 10
7.4781667521
 20
-10.6522138531
  0
LINE
  5
269
100
AcDbEntity
  8
ASSI
100
AcDbLine
 62
7
  6
CONTINUOUS
 10
6.7499106907
 20
-10.6601336012
 11
-7.9406362415
 21
-2.1779959183
  0
LINE
  5
26A
100
AcDbEntity
  8
RACCORDO
100
AcDbLine
 62
7
  6
CONTINUOUS
 10
6.7500277307
 20
-10.6602011477
 11
-7.9406362415
 21
-2.1779959183
  0
LINE
  5
26B
100
AcDbEntity
  8
ASSI
100
AcDbLine
 62
250
  6
CONTINUOUS
 10
6.5416342145
 20
-10.2348595488
 11
-8.1453083402
 21
-1.7548029884
  0
LINE
  5
26C
100
AcDbEntity
  8
RACCORDO
100
AcDbLine
 62
250
  6
CONTINUOUS
 10
6.5416342145
 20
-10.2348595488
 11
-8.1453083402
 21
-1.7548029884
  0
LINE
  5
26D
100
AcDbEntity
  8
RACCORDO
100
AcDbLine
 62
7
  6
CONTINUOUS
 10
-7.9406364672
 20
-2.177995788
 11
-7.9407361298
 21
-2.1779382207
  0
LINE
  5
26E
100
AcDbEntity
  8
ASSI
100
AcDbLine
 62
250
  6
CONTINUOUS
 10
-7.9406357822
 20
-2.1779961835
 11
-7.9499331736
 21
-2.1724075099
  0
LWPOLYLINE
  5
26F
100
AcDbEntity
  8
ASSI
100
AcDbPolyline
 62
250
  6
CONTINUOUS
 90
15
 70
0
 10
6.7496806085
 20
-10.6600006343
 10
6.7398515585
 20
-10.6540911914
 10
6.7131574529
 20
-10.6355953191
 10
6.6881397569
 20
-10.6144996797
 10
6.6648754708
 20
-10.5908692305
 10
6.6434380134
 20
-10.5647779912
 10
6.6238932014
 20
-10.5363063243
 10
6.606301154
 20
-10.5055422506
 10
6.5907178245
 20
-10.4725826254
 10
6.5771914256
 20
-10.437530507
 10
6.5657627391
 20
-10.4004935447
 10
6.5564672361
 20
-10.361585135
 10
6.549333809
 20
-10.3209251012
 10
6.5443843562
 20
-10.2786396225
 10
6.5416342145
 20
-10.2348595488
  0
LWPOLYLINE
  5
270
100
AcDbEntity
  8
RACCORDO
100
AcDbPolyline
 62
250
  6
CONTINUOUS
 90
10
 70
0
 10
6.7499111351
 20
-10.6601338577
 10
6.7131682201
 20
-10.63560329
 10
6.6762971483
 20
-10.6030106102
 10
6.6434525653
 20
-10.5647973637
 10
6.6148615307
 20
-10.5212250796
 10
6.5907239818
 20
-10.4725968944
 10
6.5712141931
 20
-10.4192587215
 10
6.5564684551
 20
-10.3615853106
 10
6.5465858685
 20
-10.2999757735
 10
6.5416342145
 20
-10.2348595488
  0
LINE
  5
271
100
AcDbEntity
  8
RACCORDO
100
AcDbLine
 62
250
  6
CONTINUOUS
 10
-7.9407361298
 20
-2.1779382207
 11
-7.9507473518
 21
-2.1720258157
  0
LWPOLYLINE
  5
272
100
AcDbEntity
  8
ASSI
100
AcDbPolyline
 62
250
  6
CONTINUOUS
 90
14
 70
0
 10
-7.9505208269
 20
-2.1720542708
 10
-7.9767532132
 20
-2.1538249372
 10
-8.0013386799
 20
-2.1329788626
 10
-8.0241998432
 20
-2.109581251
 10
-8.045266802
 20
-2.0837039891
 10
-8.0644739504
 20
-2.0554270783
 10
-8.081760858
 20
-2.0248387768
 10
-8.0970743778
 20
-1.9920347821
 10
-8.1103666345
 20
-1.9571186185
 10
-8.1215967628
 20
-1.9201977191
 10
-8.1307313792
 20
-1.8813832274
 10
-8.1377421123
 20
-1.840794061
 10
-8.1426062532
 20
-1.7985570579
 10
-8.1453083402
 20
-1.7548029884
  0
LWPOLYLINE
  5
273
100
AcDbEntity
  8
RACCORDO
100
AcDbPolyline
 62
250
  6
CONTINUOUS
 90
9
 70
0
 10
-7.9767576773
 20
-2.1538218087
 10
-8.0129756575
 20
-2.1216085549
 10
-8.0452470704
 20
-2.0837305188
 10
-8.0733490928
 20
-2.0404381863
 10
-8.0970726787
 20
-1.9920394295
 10
-8.1162464534
 20
-1.9388864804
 10
-8.1307374862
 20
-1.8813586747
 10
-8.1404468754
 20
-1.8198540366
 10
-8.1453083402
 20
-1.7548029884
  0
LWPOLYLINE
  5
274
100
AcDbEntity
  8
0
100
AcDbPolyline
 62
250
  6
CONTINUOUS
 90
7
 70
0
 10
-2.5291215644
 20
4.0233241439
 10
-2.5276298803
 20
4.0033874409
 10
-2.5238531064
 20
3.9851596425
 10
-2.5178529293
 20
3.9689384661
 10
-2.5097273507
 20
3.9549888548
 10
-2.4996090872
 20
3.9435386498
 10
-2.4877297204
 20
3.9348131097
  0
LWPOLYLINE
  5
275
100
AcDbEntity
  8
ASSI
100
AcDbPolyline
 62
250
  6
CONTINUOUS
 90
10
 70
0
 10
-2.5291215644
 20
4.0233241439
 10
-2.5283829848
 20
4.0098586857
 10
-2.5266225692
 20
3.9971063046
 10
-2.5238531064
 20
3.9851596425
 10
-2.5200947158
 20
3.9741054881
 10
-2.5153747007
 20
3.9640241463
 10
-2.5097273507
 20
3.9549888548
 10
-2.503193692
 20
3.9470652522
 10
-2.4958211893
 20
3.9403109008
 10
-2.4877708067
 20
3.9348368519
  0
LWPOLYLINE
  5
276
100
AcDbEntity
  8
RACCORDO
100
AcDbPolyline
 62
250
  6
CONTINUOUS
 90
6
 70
0
 10
-2.6212084192
 20
-3.2296983448
 10
-2.6206985196
 20
-3.2437318999
 10
-2.6180254912
 20
-3.2561924924
 10
-2.6132717904
 20
-3.2666957434
 10
-2.6065840574
 20
-3.2749176532
 10
-2.6005777844
 20
-3.2793415881
  0
LINE
  5
277
100
AcDbEntity
  8
SIMBOLO
100
AcDbLine
 62
250
  6
CONTINUOUS
 10
-3.8204336132
 20
5.9938632509
 11
-3.8352930237
 21
7.1983257591
  0
LINE
  5
278
100
AcDbEntity
  8
SIMBOLO
100
AcDbLine
 62
250
  6
CONTINUOUS
 10
-2.6385555401
 20
5.3114616639
 11
-2.6611164499
 21
7.2696280472
  0
LINE
  5
279
100
AcDbEntity
  8
SIMBOLO
100
AcDbLine
 62
250
  6
CONTINUOUS
 10
-3.7926900238
 20
10.0863948776
 11
-3.785395958
 21
8.8775642396
  0
LINE
  5
27A
100
AcDbEntity
  8
SIMBOLO
100
AcDbLine
 62
250
  6
CONTINUOUS
 10
-2.3419604119
 20
8.194523392
 11
-2.3474309525
 21
9.1011453577
  0
LINE
  5
27B
100
AcDbEntity
  8
SIMBOLO
100
AcDbLine
 62
250
  6
CONTINUOUS
 10
-4.5680606658
 20
8.6784685234
 11
-4.581301462
 21
10.692559744
  0
LINE
  5
27C
100
AcDbEntity
  8
SIMBOLO
100
AcDbLine
 62
250
  6
CONTINUOUS
 10
-3.2601167359
 20
8.5742746029
 11
-3.270384288
 21
10.5395389999
  0
LWPOLYLINE
  5
27D
100
AcDbEntity
  8
ASSI
100
AcDbPolyline
 62
250
  6
CONTINUOUS
 90
5
 70
0
 10
-2.3444416568
 20
-3.4814823973
 10
-2.3444358884
 20
-3.4691130641
 10
-2.3436196953
 20
-3.4563117635
 10
-2.3419977582
 20
-3.4431519085
 10
-2.3396331312
 20
-3.4300077604
  0
LINE
  5
27E
100
AcDbEntity
  8
SIMBOLO
100
AcDbLine
 62
250
  6
CONTINUOUS
 10
-2.2416272919
 20
21.1067494418
 11
-2.2704229399
 21
19.5500887842
  0
LWPOLYLINE
  5
27F
100
AcDbEntity
  8
0
100
AcDbPolyline
 62
250
  6
CONTINUOUS
 90
4
 70
0
 10
-2.3444416568
 20
-3.4814823973
 10
-2.3438994538
 20
-3.4595474644
 10
-2.3408869798
 20
-3.4364589078
 10
-2.3394425466
 20
-3.4301178016
  0
LINE
  5
280
100
AcDbEntity
  8
SIMBOLO
100
AcDbLine
 62
250
  6
CONTINUOUS
 10
-2.1612706115
 20
23.7750956541
 11
-2.1734733644
 21
23.288357303
  0
LWPOLYLINE
  5
281
100
AcDbEntity
  8
SIMBOLO
100
AcDbPolyline
 62
250
  6
CONTINUOUS
 90
87
 70
0
 10
-1.8928976441
 20
22.3330171059
 10
-1.8910471587
 20
22.3780467121
 10
-1.8875925728
 20
22.4217944798
 10
-1.8825295762
 20
22.4643028633
 10
-1.8758538583
 20
22.5056143171
 10
-1.8675611088
 20
22.5457712958
 10
-1.8594150288
 20
22.5783684717
 10
-1.8501578445
 20
22.6101237137
 10
-1.8398043835
 20
22.6409673246
 10
-1.8283694734
 20
22.6708296072
 10
-1.8158679419
 20
22.6996408641
 10
-1.8023146167
 20
22.7273313982
 10
-1.7877272012
 20
22.7538387952
 10
-1.7721349014
 20
22.7791297731
 10
-1.7555697994
 20
22.8031783326
 10
-1.7380639768
 20
22.8259584746
 10
-1.7196495157
 20
22.8474442001
 10
-1.7003584977
 20
22.8676095099
 10
-1.6760937895
 20
22.8900342882
 10
-1.6506468561
 20
22.9105110751
 10
-1.6240515164
 20
22.9290307163
 10
-1.5963415891
 20
22.9455840576
 10
-1.567550893
 20
22.9601619451
 10
-1.5427535569
 20
22.970792381
 10
-1.5172253391
 20
22.9800262873
 10
-1.4909624066
 20
22.9878453343
 10
-1.4639609265
 20
22.9942311925
 10
-1.4362170657
 20
22.9991655323
 10
-1.4077269911
 20
23.0026300242
 10
-1.3785046827
 20
23.0046055314
 10
-1.348635371
 20
23.0050696897
 10
-1.3182220996
 20
23.0039993275
 10
-1.2873551149
 20
23.001376517
 10
-1.2560734754
 20
22.9972043061
 10
-1.2244034424
 20
22.991490986
 10
-1.1923804545
 20
22.9842450112
 10
-1.1600766603
 20
22.9754754874
 10
-1.1275733856
 20
22.9651916831
 10
-1.0950060673
 20
22.9534433195
 10
-1.0627265871
 20
22.9404419289
 10
-1.0311409378
 20
22.9264394959
 10
-1.0005280877
 20
22.9116308001
 10
-0.9706589064
 20
22.8959818001
 10
-0.9411772392
 20
22.8794012493
 10
-0.9117250601
 20
22.8617577668
 10
-0.881936859
 20
22.8427594343
 10
-0.8514452549
 20
22.8220741993
 10
-0.8200153683
 20
22.7994638991
 10
-0.7879423265
 20
22.7750659311
 10
-0.7556537584
 20
22.7491115824
 10
-0.7235244845
 20
22.7218141539
 10
-0.691718092
 20
22.693315001
 10
-0.6603453595
 20
22.6637374927
 10
-0.6294967816
 20
22.6331834163
 10
-0.5991817159
 20
22.601668233
 10
-0.5693892362
 20
22.5691858221
 10
-0.540125819
 20
22.5357534785
 10
-0.5114675535
 20
22.501482159
 10
-0.4835079321
 20
22.4665062359
 10
-0.4563234847
 20
22.4309386719
 10
-0.4299228915
 20
22.3948067916
 10
-0.4042978703
 20
22.3581165102
 10
-0.3794401388
 20
22.3208737428
 10
-0.3553414149
 20
22.2830844046
 10
-0.3319934163
 20
22.2447544108
 10
-0.3049637618
 20
22.1980598496
 10
-0.2790408006
 20
22.1506460939
 10
-0.2542621077
 20
22.1025639756
 10
-0.2306652584
 20
22.0538643264
 10
-0.2082878278
 20
22.0045979784
 10
-0.1906000341
 20
21.9631524706
 10
-0.1738156345
 20
21.9214141663
 10
-0.1579651107
 20
21.8794485098
 10
-0.1430789441
 20
21.8373209456
 10
-0.1291876167
 20
21.7950969181
 10
-0.1163216099
 20
21.7528418719
 10
-0.1045079789
 20
21.710623296
 10
-0.0937600725
 20
21.6685168579
 10
-0.0840878131
 20
21.6266002699
 10
-0.075501123
 20
21.5849512441
 10
-0.0680099246
 20
21.5436474929
 10
-0.06162414
 20
21.5027667284
 10
-0.0554316572
 20
21.4543484189
 10
-0.0508464547
 20
21.4066104819
 10
-0.0478697287
 20
21.3595122835
 10
-0.0465026751
 20
21.31301319
 10
-0.0467464902
 20
21.2670725673
  0
LINE
  5
282
100
AcDbEntity
  8
ASSI
100
AcDbLine
 62
7
  6
CONTINUOUS
 10
-4.1644243337
 20
4.2326678503
 11
-4.1584224965
 21
4.3274134736
  0
LINE
  5
283
100
AcDbEntity
  8
0
100
AcDbLine
 62
7
  6
CONTINUOUS
 10
-4.1644243337
 20
4.2326678503
 11
-4.1584224965
 21
4.3274134736
  0
LWPOLYLINE
  5
284
100
AcDbEntity
  8
RACCORDO
100
AcDbPolyline
 62
250
  6
CONTINUOUS
 90
13
 70
0
 10
0.3486400618
 20
-4.9444516368
 10
0.5427571077
 20
-5.0487864073
 10
0.7352531761
 20
-5.1372019951
 10
0.9261315649
 20
-5.2096966752
 10
1.116281658
 20
-5.2664901027
 10
1.3048273151
 20
-5.3073557008
 10
1.4891262414
 20
-5.3316209934
 10
1.6690651399
 20
-5.3390155728
 10
1.8447818217
 20
-5.3297970727
 10
2.0140114442
 20
-5.3040846806
 10
2.1766576385
 20
-5.2616664246
 10
2.3328487116
 20
-5.2027377178
 10
2.4806549602
 20
-5.1280298282
  0
LWPOLYLINE
  5
285
100
AcDbEntity
  8
RACCORDO
100
AcDbPolyline
 62
7
  6
CONTINUOUS
 90
14
 70
0
 10
0.3692611452
 20
-4.9940795497
 10
0.4995745229
 20
-5.0659299324
 10
0.6928072155
 20
-5.1601125036
 10
0.8853569509
 20
-5.2392229091
 10
1.0763492881
 20
-5.3028939426
 10
1.2651710227
 20
-5.350990744
 10
1.4513862668
 20
-5.3834125635
 10
1.6343461111
 20
-5.3999769818
 10
1.8133239169
 20
-5.4005930514
 10
1.9877171039
 20
-5.3852079979
 10
2.1568303229
 20
-5.3537553535
 10
2.3198970431
 20
-5.3063004537
 10
2.4761635352
 20
-5.2430264425
 10
2.5521232443
 20
-5.2052012165
  0
LINE
  5
286
100
AcDbEntity
  8
ASSI
100
AcDbLine
 62
250
  6
CONTINUOUS
 10
0.6254068242
 20
-5.1962356892
 11
-2.3444416568
 21
-3.4814823973
  0
LINE
  5
287
100
AcDbEntity
  8
0
100
AcDbLine
 62
250
  6
CONTINUOUS
 10
0.6254068242
 20
-5.1962356892
 11
-2.3444416568
 21
-3.4814823973
  0
LINE
  5
288
100
AcDbEntity
  8
RACCORDO
100
AcDbLine
 62
7
  6
CONTINUOUS
 10
-2.6005777844
 20
-3.2793415881
 11
0.3692706964
 21
-4.99409488
  0
LINE
  5
289
100
AcDbEntity
  8
RACCORDO
100
AcDbLine
 62
250
  6
CONTINUOUS
 10
-2.6212084192
 20
-3.2296983448
 11
0.3486400618
 21
-4.9444516368
  0
LWPOLYLINE
  5
28A
100
AcDbEntity
  8
ASSI
100
AcDbPolyline
 62
250
  6
CONTINUOUS
 90
3
 70
0
 10
-2.3444416568
 20
-3.4814823973
 10
-2.4715878532
 20
-3.4053308756
 10
-2.5985419888
 20
-3.323852993
  0
LINE
  5
28B
100
AcDbEntity
  8
0
100
AcDbLine
 62
250
  6
CONTINUOUS
 10
-2.3444416568
 20
-3.4814823973
 11
-2.5529234938
 21
-3.3535727774
  0
LWPOLYLINE
  5
28C
100
AcDbEntity
  8
0
100
AcDbPolyline
 62
250
  6
CONTINUOUS
 90
5
 70
0
 10
-2.5529234938
 20
-3.3535727774
 10
-2.7593818407
 20
-3.2127230466
 10
-2.963814599
 20
-3.0589319032
 10
-3.1670199076
 20
-2.8914675994
 10
-3.2641747458
 20
-2.8043389215
  0
LWPOLYLINE
  5
28D
100
AcDbEntity
  8
ASSI
100
AcDbPolyline
 62
250
  6
CONTINUOUS
 90
7
 70
0
 10
-2.5985419888
 20
-3.323852993
 10
-2.725303758
 20
-3.2370485597
 10
-2.8521015303
 20
-3.1447596186
 10
-2.9787057128
 20
-3.0471433679
 10
-3.1044287653
 20
-2.9446721707
 10
-3.2292551297
 20
-2.8373197538
 10
-3.2858928369
 20
-2.7860440787
  0
LWPOLYLINE
  5
28E
100
AcDbEntity
  8
0
100
AcDbPolyline
 62
250
  6
CONTINUOUS
 90
7
 70
0
 10
-4.1067196902
 20
-1.9074102998
 10
-4.125948139
 20
-1.8839395329
 10
-4.3005602285
 20
-1.6543254277
 10
-4.468631947
 20
-1.4163327984
 10
-4.6282077996
 20
-1.1726453524
 10
-4.7791870934
 20
-0.9231521645
 10
-4.9216477798
 20
-0.667950167
  0
LWPOLYLINE
  5
28F
100
AcDbEntity
  8
ASSI
100
AcDbPolyline
 62
250
  6
CONTINUOUS
 90
10
 70
0
 10
-4.1064895818
 20
-1.9077177752
 10
-4.1718567205
 20
-1.825220181
 10
-4.27985191
 20
-1.6825203554
 10
-4.3852857164
 20
-1.5366650629
 10
-4.4876568987
 20
-1.3883167799
 10
-4.5869416675
 20
-1.2374641717
 10
-4.6831584992
 20
-1.0841153
 10
-4.7758698811
 20
-0.928961941
 10
-4.8650531807
 20
-0.771996625
 10
-4.9507256431
 20
-0.6132235119
  0
LWPOLYLINE
  5
290
100
AcDbEntity
  8
0
100
AcDbPolyline
 62
250
  6
CONTINUOUS
 90
22
 70
0
 10
-4.9216477798
 20
-0.667950167
 10
-5.0539051007
 20
-0.4100365788
 10
-5.1758470408
 20
-0.1493626867
 10
-5.2875639273
 20
0.1140360717
 10
-5.3876793401
 20
0.3770332631
 10
-5.4760228484
 20
0.6396261886
 10
-5.5527472672
 20
0.9018282489
 10
-5.616967663
 20
1.1605330802
 10
-5.6685437641
 20
1.4156762439
 10
-5.7076049465
 20
1.6673287042
 10
-5.7336785386
 20
1.9125824195
 10
-5.7466020564
 20
2.1513684762
 10
-5.7465349674
 20
2.3837574682
 10
-5.7334958377
 20
2.6070455389
 10
-5.7073460546
 20
2.8211415099
 10
-5.6682296628
 20
3.026133096
 10
-5.6165975325
 20
3.2195797251
 10
-5.5522926497
 20
3.40132949
 10
-5.475485276
 20
3.5715261235
 10
-5.3871247415
 20
3.7281679484
 10
-5.2870921427
 20
3.8710771296
 10
-5.1755255693
 20
4.000419792
  0
LWPOLYLINE
  5
291
100
AcDbEntity
  8
ASSI
100
AcDbPolyline
 62
250
  6
CONTINUOUS
 90
35
 70
0
 10
-4.9507256431
 20
-0.6132235119
 10
-5.0325100871
 20
-0.4533521442
 10
-5.1103953579
 20
-0.292370459
 10
-5.1843874401
 20
-0.1302873533
 10
-5.2541355583
 20
0.0321557593
 10
-5.3196160431
 20
0.1949582679
 10
-5.3808478951
 20
0.3581236302
 10
-5.4375452041
 20
0.5209160035
 10
-5.4896770018
 20
0.6833278686
 10
-5.5372703288
 20
0.8453691265
 10
-5.5801272826
 20
1.0063294511
 10
-5.618234059
 20
1.1662171229
 10
-5.6516014708
 20
1.3250256608
 10
-5.6800696659
 20
1.4820219051
 10
-5.7036174701
 20
1.6371997874
 10
-5.7222642139
 20
1.7905664669
 10
-5.7359120326
 20
1.9414078716
 10
-5.7445284658
 20
2.0896915571
 10
-5.7481453897
 20
2.2354502859
 10
-5.7467626738
 20
2.3780670458
 10
-5.7403645494
 20
2.5175422945
 10
-5.7289673765
 20
2.6538751756
 10
-5.712620435
 20
2.7864459641
 10
-5.6913015409
 20
2.9152490983
 10
-5.6650346947
 20
3.0402889988
 10
-5.6339396988
 20
3.1609601582
 10
-5.597995948
 20
3.2772154632
 10
-5.5572270842
 20
3.3891001511
 10
-5.5118204057
 20
3.496146559
 10
-5.4617620845
 20
3.5983406521
 10
-5.4070698554
 20
3.69569407
 10
-5.3479793171
 20
3.7877770851
 10
-5.2844591769
 20
3.8745786206
 10
-5.2165453453
 20
3.9561069375
 10
-5.1445751106
 20
4.0319607829
  0
LWPOLYLINE
  5
292
100
AcDbEntity
  8
RACCORDO
100
AcDbPolyline
 62
250
  6
CONTINUOUS
 90
6
 70
0
 10
0.3486400618
 20
-4.9444516368
 10
0.3491498617
 20
-4.9584843598
 10
0.3518225887
 20
-4.9709445432
 10
0.3565759136
 20
-4.9814477634
 10
0.3632633387
 20
-4.989669946
 10
0.3692569075
 20
-4.994086914
  0
LINE
  5
293
100
AcDbEntity
  8
SIMBOLO
100
AcDbLine
 62
250
  6
CONTINUOUS
 10
-0.4120565251
 20
4.4739424412
 11
-0.4061183154
 21
4.0224803719
  0
LINE
  5
294
100
AcDbEntity
  8
SIMBOLO
100
AcDbLine
 62
250
  6
CONTINUOUS
 10
-1.7213442205
 20
4.9311640027
 11
-1.7324887608
 21
5.8345099001
  0
LINE
  5
295
100
AcDbEntity
  8
SIMBOLO
100
AcDbLine
 62
250
  6
CONTINUOUS
 10
-0.9445702808
 20
5.3795756122
 11
-0.9392175631
 21
4.9277754955
  0
LINE
  5
296
100
AcDbEntity
  8
SIMBOLO
100
AcDbLine
 62
250
  6
CONTINUOUS
 10
-1.0307806329
 20
7.7383934792
 11
-1.0276795114
 21
7.2852933234
  0
LINE
  5
297
100
AcDbEntity
  8
SIMBOLO
100
AcDbLine
 62
250
  6
CONTINUOUS
 10
-0.2386290578
 20
6.6793818833
 11
-0.2463133567
 21
7.8879863698
  0
LINE
  5
298
100
AcDbEntity
  8
SIMBOLO
100
AcDbLine
 62
250
  6
CONTINUOUS
 10
-1.5595117657
 20
8.6462106893
 11
-1.5569960002
 21
8.1927725381
  0
LINE
  5
299
100
AcDbEntity
  8
SIMBOLO
100
AcDbLine
 62
250
  6
CONTINUOUS
 10
0.2805942602
 20
7.2823770394
 11
0.2782248318
 21
7.7358996383
  0
LINE
  5
29A
100
AcDbEntity
  8
SIMBOLO
100
AcDbLine
 62
250
  6
CONTINUOUS
 10
-1.524913701
 20
19.9267335755
 11
-1.5076364532
 21
20.814876052
  0
LINE
  5
29B
100
AcDbEntity
  8
SIMBOLO
100
AcDbLine
 62
250
  6
CONTINUOUS
 10
-0.5015217905
 20
20.2339580995
 11
-0.5187990384
 21
19.3458156229
  0
LINE
  5
29C
100
AcDbEntity
  8
SIMBOLO
100
AcDbLine
 62
250
  6
CONTINUOUS
 10
0.264818908
 20
21.880517922
 11
0.2770216609
 21
22.3672562731
  0
LINE
  5
29D
100
AcDbEntity
  8
SIMBOLO
100
AcDbLine
 62
250
  6
CONTINUOUS
 10
-0.9337771989
 20
23.5929826766
 11
-0.9397472005
 21
23.3667503195
  0
LWPOLYLINE
  5
29E
100
AcDbEntity
  8
SIMBOLO
100
AcDbPolyline
 62
250
  6
CONTINUOUS
 90
87
 70
0
 10
-0.0467464902
 20
21.2670725673
 10
-0.0481939783
 20
21.2290855398
 10
-0.050770984
 20
21.1920155792
 10
-0.0544804382
 20
21.1558372298
 10
-0.0593252717
 20
21.1205250362
 10
-0.0653084155
 20
21.0860535428
 10
-0.0724328003
 20
21.0523972939
 10
-0.0806983365
 20
21.0195471481
 10
-0.0900928525
 20
20.9875592205
 10
-0.100601156
 20
20.9565059405
 10
-0.1122080549
 20
20.9264597373
 10
-0.1248983571
 20
20.8974930401
 10
-0.1386568703
 20
20.8696782782
 10
-0.1534652362
 20
20.8430802078
 10
-0.1692924307
 20
20.8177328925
 10
-0.1861042638
 20
20.793662723
 10
-0.2038665452
 20
20.7708960899
 10
-0.2225450846
 20
20.7494593837
 10
-0.242105692
 20
20.729378995
 10
-0.2625166866
 20
20.7106775196
 10
-0.2837564255
 20
20.6933623745
 10
-0.3058057754
 20
20.6774371817
 10
-0.3286456029
 20
20.6629055634
 10
-0.3522567745
 20
20.6497711418
 10
-0.376620157
 20
20.6380375389
 10
-0.4017203346
 20
20.6277108885
 10
-0.4275567627
 20
20.6188073705
 10
-0.454132614
 20
20.6113456766
 10
-0.4814510616
 20
20.6053444984
 10
-0.5095152783
 20
20.6008225273
 10
-0.5383284371
 20
20.5977984551
 10
-0.567874806
 20
20.5962912497
 10
-0.5980630331
 20
20.5963209853
 10
-0.6287828616
 20
20.5979080127
 10
-0.6599355302
 20
20.6010664177
 10
-0.6914682602
 20
20.6057852264
 10
-0.7233397681
 20
20.6120472005
 10
-0.7555035275
 20
20.6198355857
 10
-0.7878920389
 20
20.6291355654
 10
-0.8204325598
 20
20.6399328076
 10
-0.8529952649
 20
20.6521709222
 10
-0.8852219982
 20
20.6656252875
 10
-0.9166975212
 20
20.6800292237
 10
-0.9471372377
 20
20.6951769465
 10
-0.9767791221
 20
20.7111062515
 10
-1.0059917914
 20
20.7279158298
 10
-1.0351436826
 20
20.7457433591
 10
-1.0646025133
 20
20.7648824635
 10
-1.0947358215
 20
20.7856657538
 10
-1.1257798921
 20
20.8083314348
 10
-1.1574459986
 20
20.8327400877
 10
-1.1893141615
 20
20.8586578875
 10
-1.2210176506
 20
20.8858711242
 10
-1.2524027322
 20
20.9142465475
 10
-1.2833689218
 20
20.943671022
 10
-1.3138335678
 20
20.9740508551
 10
-1.3437853503
 20
21.0053701253
 10
-1.3732307825
 20
21.0376323539
 10
-1.4021603912
 20
21.0708192539
 10
-1.4305007573
 20
21.1048253045
 10
-1.4581624756
 20
21.1395231765
 10
-1.4903623313
 20
21.1819291418
 10
-1.5214666474
 20
21.2251355145
 10
-1.551485881
 20
21.2691298335
 10
-1.580430489
 20
21.3138996373
 10
-1.6083109285
 20
21.3594324645
 10
-1.6351299154
 20
21.4057101701
 10
-1.660859202
 20
21.4526918744
 10
-1.6854627996
 20
21.5003310138
 10
-1.7089047193
 20
21.5485810251
 10
-1.7311489723
 20
21.5973953447
 10
-1.752156884
 20
21.6467177448
 10
-1.7718790353
 20
21.69645334
 10
-1.7902633212
 20
21.7464975808
 10
-1.8072576366
 20
21.7967459173
 10
-1.8228098766
 20
21.8470937999
 10
-1.8368730382
 20
21.8974334004
 10
-1.8494205272
 20
21.947643777
 10
-1.8604308513
 20
21.9976007092
 10
-1.8698825186
 20
22.0471799767
 10
-1.8777540367
 20
22.0962573592
 10
-1.8830921846
 20
22.1366972156
 10
-1.8873123241
 20
22.1767206348
 10
-1.8904086973
 20
22.2163459752
 10
-1.8923755469
 20
22.255591595
 10
-1.893207115
 20
22.2944758525
 10
-1.8928976441
 20
22.3330171059
  0
LWPOLYLINE
  5
29F
100
AcDbEntity
  8
0
100
AcDbPolyline
 62
250
  6
CONTINUOUS
 90
7
 70
0
 10
0.4407269166
 20
2.3085708519
 10
0.442218602
 20
2.288634141
 10
0.4459953786
 20
2.2704063378
 10
0.4519955592
 20
2.2541851593
 10
0.4601211411
 20
2.2402355485
 10
0.4702394074
 20
2.2287853456
 10
0.4821187615
 20
2.2200598172
  0
LWPOLYLINE
  5
2A0
100
AcDbEntity
  8
ASSI
100
AcDbPolyline
 62
250
  6
CONTINUOUS
 90
10
 70
0
 10
0.4407269166
 20
2.3085708519
 10
0.4414654964
 20
2.2951053936
 10
0.4432259122
 20
2.2823530124
 10
0.4459953751
 20
2.2704063502
 10
0.4497537659
 20
2.2593521957
 10
0.454473781
 20
2.2492708539
 10
0.4601211311
 20
2.2402355624
 10
0.4666547899
 20
2.2323119597
 10
0.4740272926
 20
2.2255576083
 10
0.4821187615
 20
2.2200598172
  0
LINE
  5
2A1
100
AcDbEntity
  8
SIMBOLO
100
AcDbLine
 62
250
  6
CONTINUOUS
 10
0.3838778571
 20
3.4171149907
 11
0.3686281284
 21
4.6213512842
  0
LINE
  5
2A2
100
AcDbEntity
  8
SIMBOLO
100
AcDbLine
 62
250
  6
CONTINUOUS
 10
1.6801398697
 20
4.0137839229
 11
1.6970762666
 21
2.6588906456
  0
LINE
  5
2A3
100
AcDbEntity
  8
SIMBOLO
100
AcDbLine
 62
250
  6
CONTINUOUS
 10
0.9091570792
 20
3.1138253511
 11
0.8905828119
 21
4.6194028847
  0
LINE
  5
2A4
100
AcDbEntity
  8
SIMBOLO
100
AcDbLine
 62
250
  6
CONTINUOUS
 10
1.0734380843
 20
6.0721343619
 11
1.0703369628
 21
6.5252345177
  0
LINE
  5
2A5
100
AcDbEntity
  8
SIMBOLO
100
AcDbLine
 62
250
  6
CONTINUOUS
 10
1.5976348149
 20
5.9198504827
 11
1.5921642743
 21
6.8264724484
  0
LINE
  5
2A6
100
AcDbEntity
  8
SIMBOLO
100
AcDbLine
 62
250
  6
CONTINUOUS
 10
2.3800834611
 20
6.37153778
 11
2.3825992266
 21
5.9180996289
  0
LWPOLYLINE
  5
2A7
100
AcDbEntity
  8
ASSI
100
AcDbPolyline
 62
250
  6
CONTINUOUS
 90
6
 70
0
 10
0.6254068242
 20
-5.1962356892
 10
0.6254125893
 20
-5.1838663542
 10
0.6262287794
 20
-5.1710650519
 10
0.6278507138
 20
-5.1579051954
 10
0.6302690911
 20
-5.1444622537
 10
0.6333904974
 20
-5.131152501
  0
LWPOLYLINE
  5
2A8
100
AcDbEntity
  8
0
100
AcDbPolyline
 62
250
  6
CONTINUOUS
 90
4
 70
0
 10
0.6254068242
 20
-5.1962356892
 10
0.6259489313
 20
-5.1743018981
 10
0.6289611077
 20
-5.1512143248
 10
0.6335167479
 20
-5.1312140361
  0
LWPOLYLINE
  5
2A9
100
AcDbEntity
  8
RACCORDO
100
AcDbPolyline
 62
250
  6
CONTINUOUS
 90
10
 70
0
 10
-2.4553899276
 20
3.907015608
 10
-2.6482161047
 20
3.9950750411
 10
-2.8397854403
 20
4.06706093
 10
-3.0309791711
 20
4.1231991992
 10
-3.2209028514
 20
4.1632704165
 10
-3.4068869681
 20
4.1866094925
 10
-3.5888068101
 20
4.1929563038
 10
-3.7667625883
 20
4.1825830537
 10
-3.9384213552
 20
4.1556235603
 10
-4.1036597804
 20
4.111877334
  0
LWPOLYLINE
  5
2AA
100
AcDbEntity
  8
0
100
AcDbPolyline
 62
250
  6
CONTINUOUS
 90
3
 70
0
 10
-2.8441892074
 20
4.1902553291
 10
-2.6827376457
 20
4.1106495741
 10
-2.5291215644
 20
4.0233241439
  0
LINE
  5
2AB
100
AcDbEntity
  8
ASSI
100
AcDbLine
 62
7
  6
CONTINUOUS
 10
-2.7913808721
 20
4.0933278097
 11
-2.6141476195
 21
4.0048963309
  0
LWPOLYLINE
  5
2AC
100
AcDbEntity
  8
ASSI
100
AcDbPolyline
 62
250
  6
CONTINUOUS
 90
3
 70
0
 10
-2.7835894274
 20
4.1590023245
 10
-2.6566020589
 20
4.0940918624
 10
-2.5291215644
 20
4.0233241439
  0
LWPOLYLINE
  5
2AD
100
AcDbEntity
  8
0
100
AcDbPolyline
 62
7
  6
CONTINUOUS
 90
3
 70
0
 10
-2.7596646812
 20
4.0783491995
 10
-2.5745260074
 20
3.9835573508
 10
-2.4877997826
 20
3.9348536195
  0
LINE
  5
2AE
100
AcDbEntity
  8
ASSI
100
AcDbLine
 62
7
  6
CONTINUOUS
 10
-2.6141476195
 20
4.0048963309
 11
-2.4877708063
 21
3.9348368517
  0
LINE
  5
2AF
100
AcDbEntity
  8
ASSI
100
AcDbLine
 62
7
  6
CONTINUOUS
 10
-4.1669165032
 20
4.3323178066
 11
-4.1584224965
 21
4.3274134736
  0
LINE
  5
2B0
100
AcDbEntity
  8
0
100
AcDbLine
 62
7
  6
CONTINUOUS
 10
-4.1669165032
 20
4.3323178066
 11
-4.1584224965
 21
4.3274134736
  0
LINE
  5
2B1
100
AcDbEntity
  8
RACCORDO
100
AcDbLine
 62
250
  6
CONTINUOUS
 10
0.5586535331
 20
2.1746692998
 11
0.4815989999
 21
2.2191596216
  0
LINE
  5
2B2
100
AcDbEntity
  8
ASSI
100
AcDbLine
 62
7
  6
CONTINUOUS
 10
-2.4877708067
 20
3.9348368519
 11
0.4821187615
 21
2.2200598172
  0
LINE
  5
2B3
100
AcDbEntity
  8
0
100
AcDbLine
 62
7
  6
CONTINUOUS
 10
-2.4877297204
 20
3.9348131097
 11
0.4821187615
 21
2.2200598172
  0
LINE
  5
2B4
100
AcDbEntity
  8
ASSI
100
AcDbLine
 62
250
  6
CONTINUOUS
 10
-2.5291215644
 20
4.0233241439
 11
0.4407269166
 21
2.3085708519
  0
LINE
  5
2B5
100
AcDbEntity
  8
0
100
AcDbLine
 62
250
  6
CONTINUOUS
 10
-2.5291215644
 20
4.0233241439
 11
0.4407269166
 21
2.3085708519
  0
LINE
  5
2B6
100
AcDbEntity
  8
0
100
AcDbLine
 62
250
  6
CONTINUOUS
 10
0.4407269166
 20
2.3085708519
 11
0.5067308982
 21
2.2698865037
  0
LINE
  5
2B7
100
AcDbEntity
  8
0
100
AcDbLine
 62
7
  6
CONTINUOUS
 10
0.4821553912
 20
2.2200386832
 11
0.568566426
 21
2.1687901788
  0
LINE
  5
2B8
100
AcDbEntity
  8
ASSI
100
AcDbLine
 62
250
  6
CONTINUOUS
 10
0.4407269166
 20
2.3085708519
 11
0.5684970049
 21
2.2319711297
  0
LWPOLYLINE
  5
2B9
100
AcDbEntity
  8
ASSI
100
AcDbPolyline
 62
7
  6
CONTINUOUS
 90
29
 70
0
 10
0.4821404434
 20
2.2200473038
 10
0.619532284
 20
2.1372974633
 10
0.8138815162
 20
2.0086165913
 10
1.0083626499
 20
1.8661913804
 10
1.2022437132
 20
1.7103946294
 10
1.3945817773
 20
1.5417918744
 10
1.5842581506
 20
1.3611741498
 10
1.77044267
 20
1.1691335393
 10
1.9523523131
 20
0.9663785926
 10
2.1290130443
 20
0.7540060975
 10
2.2996856508
 20
0.5329567607
 10
2.4636948687
 20
0.3041014617
 10
2.620232093
 20
0.0685228008
 10
2.7686225094
 20
-0.172805157
 10
2.9083007709
 20
-0.4189234737
 10
3.0386911382
 20
-0.6687337322
 10
3.1593494158
 20
-0.9211810789
 10
3.2698483689
 20
-1.1752144527
 10
3.3697365469
 20
-1.4297007942
 10
3.4586252337
 20
-1.6835593273
 10
3.5361756279
 20
-1.9357607444
 10
3.6021633026
 20
-2.1852592049
 10
3.6564562877
 20
-2.4309886443
 10
3.6989751887
 20
-2.6720485357
 10
3.7296586712
 20
-2.9076255495
 10
3.7484167125
 20
-3.1366508696
 10
3.7552093755
 20
-3.3582141429
 10
3.750122923
 20
-3.5717470265
 10
3.7332901564
 20
-3.7763920933
  0
LINE
  5
2BA
100
AcDbEntity
  8
0
100
AcDbLine
 62
250
  6
CONTINUOUS
 10
0.5067308982
 20
2.2698865037
 11
0.5742566206
 21
2.2285291152
  0
LWPOLYLINE
  5
2BB
100
AcDbEntity
  8
0
100
AcDbPolyline
 62
250
  6
CONTINUOUS
 90
40
 70
0
 10
0.5742566206
 20
2.2285291152
 10
0.643304112
 20
2.1844987034
 10
0.7136875707
 20
2.1380655776
 10
0.7855929129
 20
2.088959497
 10
0.8595777997
 20
2.0363696871
 10
0.9357040256
 20
1.9803334791
 10
1.0139101239
 20
1.9208137383
 10
1.0945690076
 20
1.8568880778
 10
1.1777199588
 20
1.7886223796
 10
1.2633244318
 20
1.7159512031
 10
1.3516389047
 20
1.6377553618
 10
1.4427466977
 20
1.5540814147
 10
1.5365660055
 20
1.4648837112
 10
1.6331062159
 20
1.3689051094
 10
1.7324792317
 20
1.2661563517
 10
1.8345760901
 20
1.1566284599
 10
1.9390759379
 20
1.0390353454
 10
2.0461441549
 20
0.9133452889
 10
2.1556207082
 20
0.7795932216
 10
2.2666983426
 20
0.6365940632
 10
2.3796361456
 20
0.484206462
 10
2.4941842066
 20
0.3225772904
 10
2.6087742988
 20
0.1509553252
 10
2.7237094858
 20
-0.031008086
 10
2.8387014624
 20
-0.2229553945
 10
2.9512979333
 20
-0.4245767185
 10
3.0618604658
 20
-0.6367092245
 10
3.1700489369
 20
-0.8585027842
 10
3.2723598243
 20
-1.0871157721
 10
3.3688096035
 20
-1.3233979415
 10
3.459406472
 20
-1.5664845653
 10
3.5406304161
 20
-1.8109647423
 10
3.611889621
 20
-2.0566047107
 10
3.6737945705
 20
-2.3036268188
 10
3.7246196543
 20
-2.5473097947
 10
3.76397146
 20
-2.7871011942
 10
3.7922522861
 20
-3.0235479322
 10
3.8089208797
 20
-3.2535833598
 10
3.8137604043
 20
-3.4769750835
 10
3.8069888421
 20
-3.6939546584
  0
LWPOLYLINE
  5
2BC
100
AcDbEntity
  8
ASSI
100
AcDbPolyline
 62
250
  6
CONTINUOUS
 90
43
 70
0
 10
0.5684970049
 20
2.2319711297
 10
0.696015536
 20
2.1499014419
 10
0.8232828232
 20
2.0623619762
 10
0.9506124666
 20
1.9691124563
 10
1.0776921249
 20
1.8703939126
 10
1.203583482
 20
1.766928662
 10
1.3281683536
 20
1.6587736587
 10
1.4515673338
 20
1.545873393
 10
1.5732004777
 20
1.4287816085
 10
1.6929270343
 20
1.307629353
 10
1.8108911572
 20
1.1822876204
 10
1.9269404409
 20
1.0529201831
 10
2.0412747225
 20
0.9192817604
 10
2.1536986281
 20
0.7816203151
 10
2.2634669443
 20
0.6408394899
 10
2.3705268909
 20
0.4969641085
 10
2.4749361853
 20
0.34997232
 10
2.5761150653
 20
0.2006975799
 10
2.6739480248
 20
0.0492900996
 10
2.7685556778
 20
-0.1043972495
 10
2.8597121634
 20
-0.2599771869
 10
2.947477485
 20
-0.4175683134
 10
3.0317971378
 20
-0.5770487012
 10
3.1122731046
 20
-0.7376705118
 10
3.1889093525
 20
-0.8994934978
 10
3.2617071828
 20
-1.0624547081
 10
3.3302637552
 20
-1.2256227431
 10
3.3945262708
 20
-1.3888912904
 10
3.454551978
 20
-1.5523639481
 10
3.5101022097
 20
-1.7154247219
 10
3.5611597285
 20
-1.8780962604
 10
3.6077457066
 20
-2.0403535027
 10
3.6496782069
 20
-2.2015094244
 10
3.6869465778
 20
-2.3615841796
 10
3.7195645041
 20
-2.5205557401
 10
3.747385431
 20
-2.6776744858
 10
3.7703986218
 20
-2.8329410393
 10
3.7886166593
 20
-2.9863536189
 10
3.8019266942
 20
-3.1371597716
 10
3.8102902132
 20
-3.2853070484
 10
3.8137462527
 20
-3.4308475414
 10
3.8122970534
 20
-3.573186361
 10
3.8059252817
 20
-3.7123177768
  0
LWPOLYLINE
  5
2BD
100
AcDbEntity
  8
0
100
AcDbPolyline
 62
7
  6
CONTINUOUS
 90
28
 70
0
 10
0.568566426
 20
2.1687901788
 10
0.76430598
 20
2.0427335768
 10
0.960503267
 20
1.9025157139
 10
1.1564262295
 20
1.7484755909
 10
1.351080723
 20
1.5811788095
 10
1.5432531797
 20
1.4014703479
 10
1.7320868074
 20
1.2099402498
 10
1.9167616854
 20
1.0072777155
 10
2.0962069756
 20
0.7946582784
 10
2.2696461597
 20
0.5730694139
 10
2.4364025627
 20
0.3433909231
 10
2.5956414605
 20
0.1067446514
 10
2.7466538684
 20
-0.1358553524
 10
2.8888656731
 20
-0.3834440166
 10
3.0217033493
 20
-0.6349428334
 10
3.1447012151
 20
-0.889272946
 10
3.2574211236
 20
-1.145354819
 10
3.3594142513
 20
-1.4020742406
 10
3.4502776124
 20
-1.6583399636
 10
3.5296438086
 20
-1.9130761182
 10
3.5972574347
 20
-2.1651979871
 10
3.6529775274
 20
-2.4136291452
 10
3.6967079541
 20
-2.6574166226
 10
3.7283698237
 20
-2.8956509891
 10
3.7478697981
 20
-3.1271794936
 10
3.7551759465
 20
-3.3511219919
 10
3.7503700856
 20
-3.5669785061
 10
3.7335758246
 20
-3.7738622875
  0
LWPOLYLINE
  5
2BE
100
AcDbEntity
  8
ASSI
100
AcDbPolyline
 62
250
  6
CONTINUOUS
 90
28
 70
0
 10
6.5416342145
 20
23.6195099734
 10
6.5443843562
 20
23.6664102331
 10
6.5493338089
 20
23.7143124573
 10
6.556467236
 20
23.7630680857
 10
6.5657627391
 20
23.8125249479
 10
6.5771914258
 20
23.8625305598
 10
6.5907178248
 20
23.9129326736
 10
6.6063011543
 20
23.9635760943
 10
6.6238932016
 20
24.0143025409
 10
6.6434380134
 20
24.064954011
 10
6.6648754707
 20
24.1153729134
 10
6.6881397568
 20
24.1654030285
 10
6.7131574528
 20
24.2148894605
 10
6.7398515584
 20
24.263677748
 10
6.7681400719
 20
24.3116171173
 10
6.797934448
 20
24.358561349
 10
6.829143632
 20
24.4043650139
 10
6.861671462
 20
24.4488850801
 10
6.895415315
 20
24.4919841226
 10
6.93027202
 20
24.5335283396
 10
6.9661340802
 20
24.573388074
 10
7.00288713
 20
24.611439519
 10
7.0404171009
 20
24.6475631994
 10
7.0786097035
 20
24.6816480484
 10
7.1173466891
 20
24.713591641
 10
7.1565088241
 20
24.7432953638
 10
7.1959761432
 20
24.7706651273
 10
7.2356274206
 20
24.7956152944
  0
LWPOLYLINE
  5
2BF
100
AcDbEntity
  8
RACCORDO
100
AcDbPolyline
 62
250
  6
CONTINUOUS
 90
19
 70
0
 10
6.5416342145
 20
23.6195099734
 10
6.5465858686
 20
23.6902419343
 10
6.5564684551
 20
23.7630665708
 10
6.5712141931
 20
23.8374761722
 10
6.5907239818
 20
23.9129537776
 10
6.6148615307
 20
23.9889706626
 10
6.6434525653
 20
24.0649898963
 10
6.6762971483
 20
24.1404758177
 10
6.7131682201
 20
24.2149063369
 10
6.753806225
 20
24.2877701315
 10
6.7979297516
 20
24.3585561118
 10
6.8452342316
 20
24.4267719672
 10
6.8953914139
 20
24.4919546324
 10
6.9480617455
 20
24.5536529016
 10
7.0028765823
 20
24.6114269149
 10
7.0594381043
 20
24.6648673868
 10
7.1173485235
 20
24.7135997223
 10
7.1762139126
 20
24.7572842627
 10
7.2356274206
 20
24.7956152944
  0
LWPOLYLINE
  5
2C0
100
AcDbEntity
  8
ASSI
100
AcDbPolyline
 62
250
  6
CONTINUOUS
 90
3
 70
0
 10
3.8059252817
 20
-3.7123177768
 10
3.7946476661
 20
-3.8482478503
 10
3.7785163813
 20
-3.9804000874
  0
LINE
  5
2C1
100
AcDbEntity
  8
0
100
AcDbLine
 62
250
  6
CONTINUOUS
 10
3.8069888421
 20
-3.6939546584
 11
3.7887094965
 21
-3.9021560321
  0
LINE
  5
2C2
100
AcDbEntity
  8
0
100
AcDbLine
 62
7
  6
CONTINUOUS
 10
3.7335758246
 20
-3.7738622875
 11
3.7049494245
 21
-3.9708965021
  0
LINE
  5
2C3
100
AcDbEntity
  8
ASSI
100
AcDbLine
 62
7
  6
CONTINUOUS
 10
3.7332901564
 20
-3.7763920933
 11
3.7048746882
 21
-3.9713121679
  0
LINE
  5
2C4
100
AcDbEntity
  8
0
100
AcDbLine
 62
250
  6
CONTINUOUS
 10
3.7887094965
 20
-3.9021560321
 11
3.7588110735
 21
-4.1014778653
  0
LINE
  5
2C5
100
AcDbEntity
  8
ASSI
100
AcDbLine
 62
250
  6
CONTINUOUS
 10
3.7785163813
 20
-3.9804000874
 11
3.7575092795
 21
-4.1088008229
  0
LINE
  5
2C6
100
AcDbEntity
  8
ASSI
100
AcDbLine
 62
250
  6
CONTINUOUS
 10
3.7575092795
 20
-4.1088008229
 11
3.7316467754
 21
-4.2334247452
  0
LINE
  5
2C7
100
AcDbEntity
  8
ASSI
100
AcDbLine
 62
7
  6
CONTINUOUS
 10
3.7048746882
 20
-3.9713121679
 11
3.6650436821
 21
-4.1558894772
  0
LINE
  5
2C8
100
AcDbEntity
  8
0
100
AcDbLine
 62
7
  6
CONTINUOUS
 10
3.7049494245
 20
-3.9708965021
 11
3.6646357389
 21
-4.1574942678
  0
LINE
  5
2C9
100
AcDbEntity
  8
0
100
AcDbLine
 62
250
  6
CONTINUOUS
 10
3.7588110735
 20
-4.1014778653
 11
3.717398929
 21
-4.2920249921
  0
LINE
  5
2CA
100
AcDbEntity
  8
ASSI
100
AcDbLine
 62
250
  6
CONTINUOUS
 10
3.7316467754
 20
-4.2334247452
 11
3.7010436322
 21
-4.3536186598
  0
LWPOLYLINE
  5
2CB
100
AcDbEntity
  8
0
100
AcDbPolyline
 62
250
  6
CONTINUOUS
 90
3
 70
0
 10
3.717398929
 20
-4.2920249921
 10
3.6648944357
 20
-4.4717448472
 10
3.6011528837
 20
-4.6405079115
  0
LWPOLYLINE
  5
2CC
100
AcDbEntity
  8
ASSI
100
AcDbPolyline
 62
7
  6
CONTINUOUS
 90
4
 70
0
 10
3.6650436821
 20
-4.1558894772
 10
3.6140011063
 20
-4.3292922158
 10
3.5520206084
 20
-4.4906854886
 10
3.4794605633
 20
-4.6395234206
  0
LWPOLYLINE
  5
2CD
100
AcDbEntity
  8
0
100
AcDbPolyline
 62
7
  6
CONTINUOUS
 90
4
 70
0
 10
3.6646357389
 20
-4.1574942678
 10
3.6127956698
 20
-4.332851822
 10
3.5497082428
 20
-4.4959936528
 10
3.4758092302
 20
-4.6461781343
  0
LWPOLYLINE
  5
2CE
100
AcDbEntity
  8
ASSI
100
AcDbPolyline
 62
250
  6
CONTINUOUS
 90
7
 70
0
 10
3.7010436322
 20
-4.3536186598
 10
3.6656755685
 20
-4.4693208422
 10
3.6255637879
 20
-4.5805948692
 10
3.5808901075
 20
-4.6869762197
 10
3.5316403092
 20
-4.7884416878
 10
3.4778246663
 20
-4.8850168717
 10
3.4196608112
 20
-4.9763110246
  0
LWPOLYLINE
  5
2CF
100
AcDbEntity
  8
0
100
AcDbPolyline
 62
250
  6
CONTINUOUS
 90
3
 70
0
 10
3.6011528837
 20
-4.6405079115
 10
3.5263068118
 20
-4.7984510491
 10
3.4411874033
 20
-4.9439249986
  0
LWPOLYLINE
  5
2D0
100
AcDbEntity
  8
ASSI
100
AcDbPolyline
 62
7
  6
CONTINUOUS
 90
4
 70
0
 10
3.4794605633
 20
-4.6395234206
 10
3.396779237
 20
-4.7751963904
 10
3.3043533097
 20
-4.8973563519
 10
3.202356566
 20
-5.0059408193
  0
LWPOLYLINE
  5
2D1
100
AcDbEntity
  8
0
100
AcDbPolyline
 62
7
  6
CONTINUOUS
 90
4
 70
0
 10
3.4758092302
 20
-4.6461781343
 10
3.3915688076
 20
-4.7828164657
 10
3.2974056733
 20
-4.9055384136
 10
3.1936866208
 20
-5.014129947
  0
LWPOLYLINE
  5
2D2
100
AcDbEntity
  8
RACCORDO
100
AcDbPolyline
 62
250
  6
CONTINUOUS
 90
16
 70
0
 10
2.9995984091
 20
-4.8536673969
 10
3.1131527786
 20
-4.7148524214
 10
3.2159624119
 20
-4.5617810344
 10
3.3075765963
 20
-4.3951087702
 10
3.3876393729
 20
-4.215524378
 10
3.4558252085
 20
-4.0237853239
 10
3.5118046273
 20
-3.8207316804
 10
3.5553783345
 20
-3.6072084066
 10
3.5863815535
 20
-3.3841160817
 10
3.6046189831
 20
-3.1524460813
 10
3.6100560029
 20
-2.9131648538
 10
3.6026953002
 20
-2.6672836154
 10
3.5824829925
 20
-2.4159111904
 10
3.5495502179
 20
-2.1600998758
 10
3.5040692022
 20
-1.9009309695
 10
3.4503222332
 20
-1.6584831799
  0
LINE
  5
2D3
100
AcDbEntity
  8
0
100
AcDbLine
 62
250
  6
CONTINUOUS
 10
-4.469082808
 20
4.4174321858
 11
-4.3007967662
 21
4.4531594502
  0
LINE
  5
2D4
100
AcDbEntity
  8
ASSI
100
AcDbLine
 62
250
  6
CONTINUOUS
 10
-4.4325625661
 20
4.4268983738
 11
-4.3286064816
 21
4.448673373
  0
LWPOLYLINE
  5
2D5
100
AcDbEntity
  8
ASSI
100
AcDbPolyline
 62
250
  6
CONTINUOUS
 90
6
 70
0
 10
-4.3286064816
 20
4.448673373
 10
-4.2218657658
 20
4.4641165074
 10
-4.1123375607
 20
4.4732611728
 10
-4.0005283233
 20
4.4760797304
 10
-3.8864712135
 20
4.4725599822
 10
-3.7701373949
 20
4.4627115281
  0
LINE
  5
2D6
100
AcDbEntity
  8
0
100
AcDbLine
 62
250
  6
CONTINUOUS
 10
-4.3007967662
 20
4.4531594502
 11
-4.1263268289
 21
4.4724741837
  0
LINE
  5
2D7
100
AcDbEntity
  8
0
100
AcDbLine
 62
250
  6
CONTINUOUS
 10
-4.1263268289
 20
4.4724741837
 11
-3.9443166757
 21
4.4745206859
  0
LWPOLYLINE
  5
2D8
100
AcDbEntity
  8
RACCORDO
100
AcDbPolyline
 62
250
  6
CONTINUOUS
 90
7
 70
0
 10
-3.4465330256
 20
4.3153053474
 10
-3.5501653263
 20
4.3190222817
 10
-3.7317412837
 20
4.3084964932
 10
-3.9075478453
 20
4.2808518782
 10
-4.0768372636
 20
4.2361997467
 10
-4.2389329714
 20
4.1747215448
 10
-4.4026518585
 20
4.0911776291
  0
LINE
  5
2D9
100
AcDbEntity
  8
0
100
AcDbLine
 62
250
  6
CONTINUOUS
 10
-3.9443166757
 20
4.4745206859
 11
-3.756142059
 21
4.4601429721
  0
LINE
  5
2DA
100
AcDbEntity
  8
ASSI
100
AcDbLine
 62
250
  6
CONTINUOUS
 10
-3.7701373949
 20
4.4627115281
 11
-3.6519403198
 21
4.4465394342
  0
LWPOLYLINE
  5
2DB
100
AcDbEntity
  8
0
100
AcDbPolyline
 62
250
  6
CONTINUOUS
 90
4
 70
0
 10
-3.756142059
 20
4.4601429721
 10
-3.5683133565
 20
4.4315037081
 10
-3.3805174258
 20
4.3871352092
 10
-3.1930816034
 20
4.3284966451
  0
LWPOLYLINE
  5
2DC
100
AcDbEntity
  8
ASSI
100
AcDbPolyline
 62
250
  6
CONTINUOUS
 90
8
 70
0
 10
-3.6519403198
 20
4.4465394342
 10
-3.5318137553
 20
4.4239933257
 10
-3.4098273762
 20
4.395121512
 10
-3.2865983649
 20
4.3600771648
 10
-3.1620850674
 20
4.3188047781
 10
-3.0363315514
 20
4.271358411
 10
-2.9100833599
 20
4.2180557156
 10
-2.7835894274
 20
4.1590023245
  0
LWPOLYLINE
  5
2DD
100
AcDbEntity
  8
0
100
AcDbPolyline
 62
250
  6
CONTINUOUS
 90
3
 70
0
 10
-3.1930816034
 20
4.3284966451
 10
-3.0134751478
 20
4.262142069
 10
-2.8441892074
 20
4.1902553291
  0
LINE
  5
2DE
100
AcDbEntity
  8
SIMBOLO
100
AcDbLine
 62
250
  6
CONTINUOUS
 10
-0.1414013651
 20
3.7204046302
 11
0.3838778571
 21
3.4171149907
  0
LINE
  5
2DF
100
AcDbEntity
  8
SIMBOLO
100
AcDbLine
 62
250
  6
CONTINUOUS
 10
-0.9293205518
 20
4.1753392938
 11
-1.454599774
 21
4.4786289333
  0
LINE
  5
2E0
100
AcDbEntity
  8
SIMBOLO
100
AcDbLine
 62
250
  6
CONTINUOUS
 10
-2.2425189608
 20
4.9335635968
 11
-2.5051582183
 21
5.0852082125
  0
LINE
  5
2E1
100
AcDbEntity
  8
SIMBOLO
100
AcDbLine
 62
250
  6
CONTINUOUS
 10
-3.1617577763
 20
5.4643205682
 11
-3.6870369985
 21
5.7676102077
  0
LINE
  5
2E2
100
AcDbEntity
  8
SIMBOLO
100
AcDbLine
 62
250
  6
CONTINUOUS
 10
0.3739808458
 20
4.1695512018
 11
-0.1512983764
 21
4.4728408413
  0
LINE
  5
2E3
100
AcDbEntity
  8
SIMBOLO
100
AcDbLine
 62
250
  6
CONTINUOUS
 10
-0.9392175632
 20
4.9277755048
 11
-1.7271360429
 21
5.3827097601
  0
LINE
  5
2E4
100
AcDbEntity
  8
SIMBOLO
100
AcDbLine
 62
250
  6
CONTINUOUS
 10
-3.7056112655
 20
7.273187718
 11
-3.1803320434
 21
6.9698980784
  0
LINE
  5
2E5
100
AcDbEntity
  8
SIMBOLO
100
AcDbLine
 62
250
  6
CONTINUOUS
 10
-1.4731740411
 20
5.9842064436
 11
-1.2105340764
 21
5.8325614196
  0
LINE
  5
2E6
100
AcDbEntity
  8
SIMBOLO
100
AcDbLine
 62
250
  6
CONTINUOUS
 10
0.8905828122
 20
4.6194028613
 11
1.5471823702
 21
4.2402905057
  0
LINE
  5
2E7
100
AcDbEntity
  8
SIMBOLO
100
AcDbLine
 62
250
  6
CONTINUOUS
 10
0.2339839613
 20
4.9985148087
 11
-0.4226155967
 21
5.3776271644
  0
LWPOLYLINE
  5
2E8
100
AcDbEntity
  8
ASSI
100
AcDbPolyline
 62
250
  6
CONTINUOUS
 90
9
 70
0
 10
6.5416342145
 20
-10.2348595488
 10
6.4646455702
 20
-8.0218802496
 10
6.3986509151
 20
-5.8023203058
 10
6.3436522591
 20
-3.5762475612
 10
6.2996512312
 20
-1.3437282837
 10
6.2666492475
 20
0.8951675112
 10
6.2446474257
 20
3.1403660113
 10
6.2336464068
 20
5.3917943533
 10
6.2336464002
 20
7.6493878091
  0
LWPOLYLINE
  5
2E9
100
AcDbEntity
  8
ASSI
100
AcDbPolyline
 62
250
  6
CONTINUOUS
 90
6
 70
0
 10
7.2422127295
 20
-10.221639521
 10
7.1653068405
 20
-8.0111417795
 10
7.0993838164
 20
-5.7940786668
 10
7.0444436573
 20
-3.570450183
 10
7.000483493
 20
-1.3401584375
 10
6.9675061937
 20
0.8966986792
  0
LWPOLYLINE
  5
2EA
100
AcDbEntity
  8
RACCORDO
100
AcDbPolyline
 62
250
  6
CONTINUOUS
 90
5
 70
0
 10
6.5416342145
 20
-10.2348595488
 10
6.4194272035
 20
-6.5428962771
 10
6.327763018
 20
-2.8327841624
 10
6.2666493102
 20
0.8951616927
 10
6.2360911817
 20
4.6406246072
  0
LWPOLYLINE
  5
2EB
100
AcDbEntity
  8
RACCORDO
100
AcDbPolyline
 62
250
  6
CONTINUOUS
 90
4
 70
0
 10
7.2422127295
 20
-10.221639521
 10
7.1201174016
 20
-6.5328492282
 10
7.0285459095
 20
-2.8265557259
 10
6.9674982531
 20
0.8972409859
  0
LWPOLYLINE
  5
2EC
100
AcDbEntity
  8
ASSI
100
AcDbPolyline
 62
250
  6
CONTINUOUS
 90
3
 70
0
 10
6.9675061937
 20
0.8966986792
 10
6.9455203701
 20
3.1398274955
 10
6.9345288924
 20
5.3892255218
  0
LINE
  5
2ED
100
AcDbEntity
  8
RACCORDO
100
AcDbLine
 62
250
  6
CONTINUOUS
 10
6.9674982531
 20
0.8972409859
 11
6.9369744376
 21
4.638863612
  0
LINE
  5
2EE
100
AcDbEntity
  8
RACCORDO
100
AcDbLine
 62
250
  6
CONTINUOUS
 10
6.2360911817
 20
4.6406246072
 11
6.2360911816
 21
8.403286462
  0
LWPOLYLINE
  5
2EF
100
AcDbEntity
  8
ASSI
100
AcDbPolyline
 62
250
  6
CONTINUOUS
 90
7
 70
0
 10
6.9345288924
 20
5.3892255218
 10
6.9345288903
 20
7.6448952477
 10
6.9455203644
 20
9.9065504708
 10
6.9675061844
 20
12.1741968722
 10
7.0004834805
 20
14.4478287709
 10
7.044443644
 20
16.7271429207
 10
7.0993838052
 20
19.0120382399
  0
LWPOLYLINE
  5
2F0
100
AcDbEntity
  8
RACCORDO
100
AcDbPolyline
 62
250
  6
CONTINUOUS
 90
5
 70
0
 10
6.9369744376
 20
4.638863612
 10
6.9369744578
 20
8.3979894476
 10
6.9674982987
 20
12.1736503788
 10
7.028545955
 20
15.9655237009
 10
7.120117432
 20
19.7739321186
  0
LWPOLYLINE
  5
2F1
100
AcDbEntity
  8
ASSI
100
AcDbPolyline
 62
250
  6
CONTINUOUS
 90
6
 70
0
 10
6.2336464002
 20
7.6493878091
 10
6.2446474068
 20
9.9130844931
 10
6.2666492179
 20
12.1828193797
 10
6.2996511941
 20
14.4585189222
 10
6.3436522194
 20
16.7401081868
 10
6.3986508798
 20
19.0275155797
  0
LWPOLYLINE
  5
2F2
100
AcDbEntity
  8
RACCORDO
100
AcDbPolyline
 62
250
  6
CONTINUOUS
 90
4
 70
0
 10
6.2360911816
 20
8.403286462
 10
6.2666493102
 20
12.1828277293
 10
6.3277630179
 20
15.9789273462
 10
6.4194272034
 20
19.7912627406
  0
LINE
  5
2F3
100
AcDbEntity
  8
ASSI
100
AcDbLine
 62
250
  6
CONTINUOUS
 10
6.3986508798
 20
19.0275155797
 11
6.4646455475
 21
21.3206728965
  0
LINE
  5
2F4
100
AcDbEntity
  8
ASSI
100
AcDbLine
 62
250
  6
CONTINUOUS
 10
7.0993838052
 20
19.0120382399
 11
7.1653068337
 21
21.3026158102
  0
LINE
  5
2F5
100
AcDbEntity
  8
RACCORDO
100
AcDbLine
 62
250
  6
CONTINUOUS
 10
6.4194272034
 20
19.7912627406
 11
6.5416342145
 21
23.6195099734
  0
LINE
  5
2F6
100
AcDbEntity
  8
RACCORDO
100
AcDbLine
 62
250
  6
CONTINUOUS
 10
7.120117432
 20
19.7739321186
 11
7.2422127295
 21
23.5988756318
  0
LINE
  5
2F7
100
AcDbEntity
  8
ASSI
100
AcDbLine
 62
250
  6
CONTINUOUS
 10
6.4646455475
 20
21.3206728965
 11
6.5416342145
 21
23.6195099734
  0
LINE
  5
2F8
100
AcDbEntity
  8
ASSI
100
AcDbLine
 62
250
  6
CONTINUOUS
 10
7.1653068337
 20
21.3026158102
 11
7.2422127295
 21
23.5988756318
  0
LWPOLYLINE
  5
2F9
100
AcDbEntity
  8
ASSI
100
AcDbPolyline
 62
250
  6
CONTINUOUS
 90
25
 70
0
 10
7.2422127295
 20
23.5988756318
 10
7.2438117787
 20
23.6250394276
 10
7.2467937066
 20
23.651729224
 10
7.251158513
 20
23.6789450209
 10
7.2569319305
 20
23.7068297827
 10
7.2640882266
 20
23.7352405451
 10
7.2725502038
 20
23.7637484146
 10
7.282343174
 20
23.7923407757
 10
7.2934418253
 20
23.8210302439
 10
7.3056930243
 20
23.8494257721
 10
7.3190992873
 20
23.8774955018
 10
7.333658098
 20
23.9052712916
 10
7.3492087735
 20
23.93245767
 10
7.3657589815
 20
23.9590502125
 10
7.3833010543
 20
23.9850533437
 10
7.401651305
 20
24.0101848663
 10
7.4208391462
 20
24.0344575797
 10
7.4408351654
 20
24.0578586844
 10
7.4613674385
 20
24.0800675852
 10
7.482458917
 20
24.1010681085
 10
7.5040866495
 20
24.1208764279
 10
7.5259098573
 20
24.1392204689
 10
7.5478149477
 20
24.1560095399
 10
7.5699155135
 20
24.1713343326
 10
7.5922115547
 20
24.1851948468
  0
LWPOLYLINE
  5
2FA
100
AcDbEntity
  8
RACCORDO
100
AcDbPolyline
 62
250
  6
CONTINUOUS
 90
19
 70
0
 10
7.2422127295
 20
23.5988756318
 10
7.2447649853
 20
23.6345167522
 10
7.2497155244
 20
23.6707229243
 10
7.257064347
 20
23.7074941482
 10
7.2668973727
 20
23.7451097664
 10
7.2791286817
 20
23.7832904364
 10
7.2935005153
 20
23.82119813
 10
7.3100555842
 20
23.858810564
 10
7.3287511776
 20
23.8961500217
 10
7.3492014041
 20
23.9324453242
 10
7.3714422699
 20
23.9676738791
 10
7.3954377687
 20
24.0018582789
 10
7.4206939904
 20
24.0342951231
 10
7.4472502658
 20
24.06495794
 10
7.475067264
 20
24.0938732013
 10
7.5035330822
 20
24.1204169212
 10
7.532443753
 20
24.1443811045
 10
7.5620032438
 20
24.1659737464
 10
7.5922115547
 20
24.1851948468
  0
LINE
  5
2FB
100
AcDbEntity
  8
0
100
AcDbLine
 62
250
  6
CONTINUOUS
 10
3.4411874033
 20
-4.9439249986
 11
3.3456904668
 21
-5.0768010355
  0
LINE
  5
2FC
100
AcDbEntity
  8
ASSI
100
AcDbLine
 62
250
  6
CONTINUOUS
 10
3.4196608112
 20
-4.9763110246
 11
3.3571072216
 21
-5.0623336354
  0
LWPOLYLINE
  5
2FD
100
AcDbEntity
  8
ASSI
100
AcDbPolyline
 62
250
  6
CONTINUOUS
 90
4
 70
0
 10
3.3571072216
 20
-5.0623336354
 10
3.290200853
 20
-5.1430779993
 10
3.2192761849
 20
-5.2181296157
 10
3.1443237915
 20
-5.2874423514
  0
LWPOLYLINE
  5
2FE
100
AcDbEntity
  8
0
100
AcDbPolyline
 62
250
  6
CONTINUOUS
 90
3
 70
0
 10
3.3456904668
 20
-5.0768010355
 10
3.2399033872
 20
-5.1972181268
 10
3.1249398748
 20
-5.3039315361
  0
LWPOLYLINE
  5
2FF
100
AcDbEntity
  8
DRAFT
100
AcDbPolyline
 62
7
  6
CONTINUOUS
 90
3
 70
0
 10
3.4155005321
 20
-4.6653775999
 10
3.5188092342
 20
-4.5490949844
 10
3.5331443578
 20
-4.5296563282
  0
LINE
  5
300
100
AcDbEntity
  8
DRAFT
100
AcDbLine
 62
7
  6
CONTINUOUS
 10
3.4831676114
 20
-4.6314969576
 11
3.4094286888
 21
-4.7016627492
  0
LWPOLYLINE
  5
301
100
AcDbEntity
  8
ASSI
100
AcDbPolyline
 62
7
  6
CONTINUOUS
 90
3
 70
0
 10
3.202356566
 20
-5.0059408193
 10
3.0912289695
 20
-5.1004981498
 10
2.9850505444
 20
-5.1725983013
  0
LWPOLYLINE
  5
302
100
AcDbEntity
  8
DRAFT
100
AcDbPolyline
 62
7
  6
CONTINUOUS
 90
3
 70
0
 10
3.4094286888
 20
-4.7016627492
 10
3.3322657968
 20
-4.7661102427
 10
3.2516789352
 20
-4.8248394383
  0
LWPOLYLINE
  5
303
100
AcDbEntity
  8
0
100
AcDbPolyline
 62
7
  6
CONTINUOUS
 90
3
 70
0
 10
3.1936866208
 20
-5.014129947
 10
3.0809097293
 20
-5.1082233873
 10
2.9848019047
 20
-5.1727490177
  0
LINE
  5
304
100
AcDbEntity
  8
ASSI
100
AcDbLine
 62
250
  6
CONTINUOUS
 10
3.1443237915
 20
-5.2874423514
 11
3.0653478786
 21
-5.351065536
  0
LWPOLYLINE
  5
305
100
AcDbEntity
  8
0
100
AcDbPolyline
 62
250
  6
CONTINUOUS
 90
16
 70
0
 10
3.1249398748
 20
-5.3039315361
 10
3.0006916398
 20
-5.3968059642
 10
2.867247742
 20
-5.4759885026
 10
2.7260145297
 20
-5.5406601022
 10
2.5774651313
 20
-5.5907680175
 10
2.4211070048
 20
-5.6263769527
 10
2.2568967184
 20
-5.6468448321
 10
2.0831628216
 20
-5.6518980944
 10
1.9015611306
 20
-5.641819961
 10
1.7170379926
 20
-5.6168042325
 10
1.5287449647
 20
-5.5753398469
 10
1.33751663
 20
-5.5189464516
 10
1.1508241034
 20
-5.4523637736
 10
0.9711557768
 20
-5.3771729502
 10
0.7960171454
 20
-5.2917966356
 10
0.6254068242
 20
-5.1962356892
  0
LWPOLYLINE
  5
306
100
AcDbEntity
  8
ASSI
100
AcDbPolyline
 62
250
  6
CONTINUOUS
 90
23
 70
0
 10
3.0653478786
 20
-5.351065536
 10
2.9827026346
 20
-5.4087283218
 10
2.8963837116
 20
-5.4604055928
 10
2.8063900614
 20
-5.5061257801
 10
2.7130803468
 20
-5.5456986521
 10
2.6164036093
 20
-5.5791041586
 10
2.5164055526
 20
-5.6063655871
 10
2.4135895037
 20
-5.627357918
 10
2.3079585875
 20
-5.6420488631
 10
2.1995047248
 20
-5.6504737697
 10
2.0887142634
 20
-5.6526091804
 10
1.975598931
 20
-5.6484413214
 10
1.8601426934
 20
-5.63798663
 10
1.7427902652
 20
-5.6212669613
 10
1.623482412
 20
-5.5982360398
 10
1.5022749317
 20
-5.5689422693
 10
1.3797852157
 20
-5.5335494446
 10
1.2559845936
 20
-5.4920104218
 10
1.1308993302
 20
-5.4443738362
 10
1.0052294445
 20
-5.3909470121
 10
0.8792078596
 20
-5.3318326494
 10
0.7526004219
 20
-5.2669288116
 10
0.6254068242
 20
-5.1962356892
  0
LWPOLYLINE
  5
307
100
AcDbEntity
  8
RACCORDO
100
AcDbPolyline
 62
250
  6
CONTINUOUS
 90
27
 70
0
 10
2.4806549602
 20
-5.1280298282
 10
2.6200053452
 20
-5.0373298296
 10
2.7510056361
 20
-4.9308327731
 10
2.871986311
 20
-4.809884538
 10
2.9828291209
 20
-4.6742951403
 10
3.0836843933
 20
-4.5242382243
 10
3.1732772022
 20
-4.3616094185
 10
3.2514754475
 20
-4.1862401193
 10
3.3184358576
 20
-3.9982865832
 10
3.3733057735
 20
-3.800137396
 10
3.4159344951
 20
-3.5916577359
 10
3.4464861037
 20
-3.3729759484
 10
3.4645672855
 20
-3.1468819354
 10
3.4700147658
 20
-2.9132787439
 10
3.4629918967
 20
-2.6722636601
 10
3.4435818052
 20
-2.4269247908
 10
3.4116142024
 20
-2.1772083211
 10
3.3672461072
 20
-1.9231751047
 10
3.3110387157
 20
-1.6680917285
 10
3.2428240214
 20
-1.4119540045
 10
3.1627454213
 20
-1.154778742
 10
3.0718201535
 20
-0.8998695308
 10
2.9698861768
 20
-0.6472606292
 10
2.8570733911
 20
-0.3969340039
 10
2.7348286207
 20
-0.1521189146
 10
2.6030277428
 20
0.0870789784
 10
2.551301706
 20
0.1726383352
  0
LWPOLYLINE
  5
308
100
AcDbEntity
  8
DRAFT
100
AcDbPolyline
 62
7
  6
CONTINUOUS
 90
3
 70
0
 10
3.2516789352
 20
-4.8248394383
 10
3.1675311037
 20
-4.8779249799
 10
3.1123806248
 20
-4.9086340683
  0
LINE
  5
309
100
AcDbEntity
  8
ASSI
100
AcDbLine
 62
7
  6
CONTINUOUS
 10
2.9849915429
 20
-5.1726999165
 11
2.9848494115
 21
-5.1727860946
  0
LINE
  5
30A
100
AcDbEntity
  8
0
100
AcDbLine
 62
7
  6
CONTINUOUS
 10
2.9848654584
 20
-5.1727763663
 11
2.9847600646
 21
-5.1728402543
  0
LWPOLYLINE
  5
30B
100
AcDbEntity
  8
ASSI
100
AcDbPolyline
 62
250
  6
CONTINUOUS
 90
5
 70
0
 10
2.9848494115
 20
-5.1727860946
 10
2.9373965565
 20
-5.2002736316
 10
2.8515340834
 20
-5.2439094256
 10
2.7623479147
 20
-5.281724071
 10
2.6699582823
 20
-5.313673127
  0
LWPOLYLINE
  5
30C
100
AcDbEntity
  8
0
100
AcDbPolyline
 62
250
  6
CONTINUOUS
 90
4
 70
0
 10
2.9847600646
 20
-5.1728402543
 10
2.9087160971
 20
-5.2156894263
 10
2.7735210972
 20
-5.2773774878
 10
2.631281803
 20
-5.325041345
  0
LWPOLYLINE
  5
30D
100
AcDbEntity
  8
RACCORDO
100
AcDbPolyline
 62
250
  6
CONTINUOUS
 90
5
 70
0
 10
2.5521023328
 20
-5.2052123512
 10
2.5993459448
 20
-5.1790796705
 10
2.7421540568
 20
-5.0862731339
 10
2.87576428
 20
-4.9776468042
 10
2.9995984091
 20
-4.8536673969
  0
LINE
  5
30E
100
AcDbEntity
  8
RACCORDO
100
AcDbLine
 62
7
  6
CONTINUOUS
 10
2.5503630803
 20
-5.2061343392
 11
2.5521023328
 21
-5.2052123512
  0
LINE
  5
30F
100
AcDbEntity
  8
DRAFT
100
AcDbLine
 62
7
  6
CONTINUOUS
 10
2.5503620695
 20
-5.2061348742
 11
3.1123902899
 21
-4.9086517199
  0
LINE
  5
310
100
AcDbEntity
  8
0
100
AcDbLine
 62
7
  6
CONTINUOUS
 10
3.0709355188
 20
-5.1024449227
 11
3.1114361549
 21
-5.0827541944
  0
LINE
  5
311
100
AcDbEntity
  8
ASSI
100
AcDbLine
 62
7
  6
CONTINUOUS
 10
3.0882943961
 20
-5.0949191144
 11
3.1083336714
 21
-5.0853426976
  0
LINE
  5
312
100
AcDbEntity
  8
ASSI
100
AcDbLine
 62
7
  6
CONTINUOUS
 10
3.0003832474
 20
-5.1305106737
 11
3.0882943961
 21
-5.0949191144
  0
LINE
  5
313
100
AcDbEntity
  8
0
100
AcDbLine
 62
7
  6
CONTINUOUS
 10
2.9092267325
 20
-5.1611178211
 11
3.0709355188
 21
-5.1024449227
  0
LINE
  5
314
100
AcDbEntity
  8
ASSI
100
AcDbLine
 62
7
  6
CONTINUOUS
 10
2.9099595411
 20
-5.1608959466
 11
3.0003832474
 21
-5.1305106737
  0
LINE
  5
315
100
AcDbEntity
  8
ASSI
100
AcDbLine
 62
250
  6
CONTINUOUS
 10
-4.5337261939
 20
4.3988278962
 11
-4.4325625661
 21
4.4268983738
  0
LINE
  5
316
100
AcDbEntity
  8
SIMBOLO
100
AcDbLine
 62
250
  6
CONTINUOUS
 10
-0.7639082799
 20
6.9826715229
 11
-0.2386290578
 21
6.6793818833
  0
LINE
  5
317
100
AcDbEntity
  8
SIMBOLO
100
AcDbLine
 62
250
  6
CONTINUOUS
 10
0.4179697931
 20
6.3002699359
 11
0.9432490153
 21
5.9969802963
  0
LINE
  5
318
100
AcDbEntity
  8
SIMBOLO
100
AcDbLine
 62
250
  6
CONTINUOUS
 10
2.3877677601
 20
5.1629332771
 11
1.8624878308
 21
5.466223325
  0
LINE
  5
319
100
AcDbEntity
  8
SIMBOLO
100
AcDbLine
 62
250
  6
CONTINUOUS
 10
-1.5518274667
 20
7.4376061864
 11
-2.0771066889
 21
7.7408958259
  0
LINE
  5
31A
100
AcDbEntity
  8
SIMBOLO
100
AcDbLine
 62
250
  6
CONTINUOUS
 10
-2.8650258757
 20
8.1958304894
 11
-3.1276658403
 21
8.3474755134
  0
LINE
  5
31B
100
AcDbEntity
  8
SIMBOLO
100
AcDbLine
 62
250
  6
CONTINUOUS
 10
-3.91558432
 20
8.8024097686
 11
-4.572183878
 21
9.1815221243
  0
LINE
  5
31C
100
AcDbEntity
  8
SIMBOLO
100
AcDbLine
 62
250
  6
CONTINUOUS
 10
2.3825992265
 20
5.918099652
 11
1.5946800397
 21
6.3730343155
  0
LINE
  5
31D
100
AcDbEntity
  8
SIMBOLO
100
AcDbLine
 62
250
  6
CONTINUOUS
 10
-0.2437975914
 20
7.4345482582
 11
-0.7690768135
 21
7.7378378977
  0
LINE
  5
31E
100
AcDbEntity
  8
SIMBOLO
100
AcDbLine
 62
250
  6
CONTINUOUS
 10
-1.5569960003
 20
8.1927725612
 11
-2.3449151871
 21
8.6477072247
  0
LINE
  5
31F
100
AcDbEntity
  8
SIMBOLO
100
AcDbLine
 62
250
  6
CONTINUOUS
 10
-4.5813014622
 20
10.6925598047
 11
-3.9247019042
 21
10.313447449
  0
LINE
  5
320
100
AcDbEntity
  8
SIMBOLO
100
AcDbLine
 62
250
  6
CONTINUOUS
 10
-2.0862242731
 20
9.2519335063
 11
-1.8235850156
 21
9.1002888907
  0
LINE
  5
321
100
AcDbEntity
  8
SIMBOLO
100
AcDbLine
 62
250
  6
CONTINUOUS
 10
0.4088522089
 20
7.8113076163
 11
0.934131431
 21
7.5080179767
  0
LINE
  5
322
100
AcDbEntity
  8
SIMBOLO
100
AcDbLine
 62
250
  6
CONTINUOUS
 10
1.8533702466
 20
6.9772610054
 11
2.1160102112
 21
6.8256159814
  0
LINE
  5
323
100
AcDbEntity
  8
SIMBOLO
100
AcDbLine
 62
250
  6
CONTINUOUS
 10
-0.3790662708
 20
8.2662418715
 11
-1.0356658288
 21
8.6453542272
  0
LINE
  5
324
100
AcDbEntity
  8
ASSI
100
AcDbLine
 62
7
  6
CONTINUOUS
 10
11.9755775407
 20
-8.1038555433
 11
11.9755775407
 21
26.7595185288
  0
LINE
  5
325
100
AcDbEntity
  8
RACCORDO
100
AcDbLine
 62
7
  6
CONTINUOUS
 10
11.9755775407
 20
-8.1038555433
 11
11.9755775407
 21
26.7595185288
  0
LWPOLYLINE
  5
326
100
AcDbEntity
  8
ASSI
100
AcDbPolyline
 62
250
  6
CONTINUOUS
 90
14
 70
0
 10
7.4782899325
 20
-10.6521650004
 10
7.4838836627
 20
-10.6490760615
 10
7.4998621782
 20
-10.6386206161
 10
7.5147494426
 20
-10.6263307519
 10
7.5284817287
 20
-10.6122590883
 10
7.5410002721
 20
-10.5964658592
 10
7.5522515061
 20
-10.5790186632
 10
7.5621872777
 20
-10.5599921964
 10
7.5707650764
 20
-10.5394678999
 10
7.5779482051
 20
-10.5175336211
 10
7.5837059313
 20
-10.49428326
 10
7.5880136293
 20
-10.4698163382
 10
7.5908528819
 20
-10.4442375694
 10
7.5922115547
 20
-10.4176564292
  0
LINE
  5
327
100
AcDbEntity
  8
ASSI
100
AcDbLine
 62
250
  6
CONTINUOUS
 10
11.9755775407
 20
-8.1038555433
 11
7.5922115547
 21
-10.4176564292
  0
LINE
  5
328
100
AcDbEntity
  8
RACCORDO
100
AcDbLine
 62
250
  6
CONTINUOUS
 10
11.9755775407
 20
-8.1038555433
 11
7.5922115547
 21
-10.4176564292
  0
LINE
  5
329
100
AcDbEntity
  8
ASSI
100
AcDbLine
 62
7
  6
CONTINUOUS
 10
11.8665190629
 20
-8.335797058
 11
7.4782899325
 21
-10.6521650004
  0
LINE
  5
32A
100
AcDbEntity
  8
RACCORDO
100
AcDbLine
 62
7
  6
CONTINUOUS
 10
11.8665190629
 20
-8.335797058
 11
7.4782899327
 21
-10.6521650003
  0
LWPOLYLINE
  5
32B
100
AcDbEntity
  8
ASSI
100
AcDbPolyline
 62
250
  6
CONTINUOUS
 90
25
 70
0
 10
7.5922115547
 20
-10.4176564292
 10
7.569915512
 20
-10.4286594171
 10
7.5478149448
 20
-10.4379801413
 10
7.525909853
 20
-10.4456186019
 10
7.5040866437
 20
-10.4516107808
 10
7.4824589099
 20
-10.455920696
 10
7.4613674305
 20
-10.458440402
 10
7.4408351573
 20
-10.4591281304
 10
7.4208391385
 20
-10.4580256496
 10
7.4016512978
 20
-10.4551503179
 10
7.3833010476
 20
-10.4504821354
 10
7.3657589755
 20
-10.444041102
 10
7.3492087679
 20
-10.4359045762
 10
7.3336580928
 20
-10.4260595823
 10
7.3190992823
 20
-10.414519096
 10
7.3056930194
 20
-10.4013994026
 10
7.2934418209
 20
-10.3866658372
 10
7.2823431701
 20
-10.3703530648
 10
7.2725502004
 20
-10.3526813655
 10
7.264088224
 20
-10.3336098975
 10
7.2569319288
 20
-10.3131795025
 10
7.251158512
 20
-10.2917329868
 10
7.2467937061
 20
-10.269384619
 10
7.2438117786
 20
-10.2460201304
 10
7.2422127295
 20
-10.221639521
  0
LWPOLYLINE
  5
32C
100
AcDbEntity
  8
RACCORDO
100
AcDbPolyline
 62
250
  6
CONTINUOUS
 90
19
 70
0
 10
7.5922115547
 20
-10.4176564292
 10
7.5620032438
 20
-10.4321222229
 10
7.532443753
 20
-10.4434929415
 10
7.5035330823
 20
-10.4517685849
 10
7.475067264
 20
-10.4569686132
 10
7.4472502657
 20
-10.4590735664
 10
7.4206939903
 20
-10.4580250648
 10
7.3954377687
 20
-10.4537527768
 10
7.3714422699
 20
-10.446327034
 10
7.3492014041
 20
-10.4359004515
 10
7.3287511777
 20
-10.4224102842
 10
7.3100555843
 20
-10.4059192772
 10
7.2935005154
 20
-10.3867682811
 10
7.2791286818
 20
-10.3648873836
 10
7.2668973726
 20
-10.3403464971
 10
7.2570643469
 20
-10.3136962088
 10
7.2497155243
 20
-10.2851200479
 10
7.2447649852
 20
-10.2544344853
 10
7.2422127295
 20
-10.221639521
  0
LWPOLYLINE
  5
32D
100
AcDbEntity
  8
RACCORDO
100
AcDbPolyline
 62
250
  6
CONTINUOUS
 90
9
 70
0
 10
7.4782899327
 20
-10.6521650003
 10
7.4967526147
 20
-10.6408593283
 10
7.5203850596
 20
-10.6209119944
 10
7.5410007328
 20
-10.5964652152
 10
7.5583739344
 20
-10.5677867206
 10
7.5723144668
 20
-10.5351905811
 10
7.5826697262
 20
-10.4990337554
 10
7.5893263702
 20
-10.4597121777
 10
7.5922115547
 20
-10.4176564292
  0
LINE
  5
32E
100
AcDbEntity
  8
SIMBOLO
100
AcDbLine
 62
250
  6
CONTINUOUS
 10
1.0345407507
 20
19.4238599458
 11
0.6916261963
 21
19.6152129899
  0
LINE
  5
32F
100
AcDbEntity
  8
SIMBOLO
100
AcDbLine
 62
250
  6
CONTINUOUS
 10
-2.2704229397
 20
19.5500887949
 11
0.3211241205
 21
18.0537620021
  0
LINE
  5
330
100
AcDbEntity
  8
SIMBOLO
100
AcDbLine
 62
250
  6
CONTINUOUS
 10
-0.5187990392
 20
19.3458155794
 11
-1.524913701
 21
19.9267335755
  0
LINE
  5
331
100
AcDbEntity
  8
SIMBOLO
100
AcDbLine
 62
250
  6
CONTINUOUS
 10
0.7684010968
 20
20.8511526876
 11
0.8096666997
 21
20.8215338807
  0
LINE
  5
332
100
AcDbEntity
  8
SIMBOLO
100
AcDbLine
 62
250
  6
CONTINUOUS
 10
0.7830430568
 20
20.1574079827
 11
0.7707941333
 21
20.1627456858
  0
LINE
  5
333
100
AcDbEntity
  8
SIMBOLO
100
AcDbLine
 62
250
  6
CONTINUOUS
 10
1.376025047
 20
20.05105192
 11
1.41346253
 21
20.0326182657
  0
LINE
  5
334
100
AcDbEntity
  8
SIMBOLO
100
AcDbLine
 62
250
  6
CONTINUOUS
 10
-0.2589639844
 20
23.2033539839
 11
-1.6088350723
 21
23.9827526322
  0
LWPOLYLINE
  5
335
100
AcDbEntity
  8
RACCORDO
100
AcDbPolyline
 62
250
  6
CONTINUOUS
 90
16
 70
0
 10
6.5416508134
 20
23.6195187628
 10
6.58008901
 20
23.5993877484
 10
6.6219000678
 20
23.5814762978
 10
6.6666360163
 20
23.5659763171
 10
6.7138175471
 20
23.5530538758
 10
6.7629391496
 20
23.542847427
 10
6.813474527
 20
23.5354663243
 10
6.864882235
 20
23.5309896502
 10
6.9166114828
 20
23.5294653684
 10
6.968108035
 20
23.5309098104
 10
7.018820149
 20
23.5353075002
 10
7.068204487
 20
23.5426113203
 10
7.1157319371
 20
23.5527430163
 10
7.1608932823
 20
23.5655940355
 10
7.2032046568
 20
23.58102669
 10
7.2422127294
 20
23.5988756318
  0
LWPOLYLINE
  5
336
100
AcDbEntity
  8
ASSI
100
AcDbPolyline
 62
250
  6
CONTINUOUS
 90
25
 70
0
 10
6.5416508134
 20
23.6195187628
 10
6.5652558872
 20
23.6066881619
 10
6.590241283
 20
23.5946944247
 10
6.6165023844
 20
23.5835877759
 10
6.6439292194
 20
23.5734147306
 10
6.672406959
 20
23.5642178851
 10
6.7018164032
 20
23.5560357429
 10
6.7320344156
 20
23.5489025729
 10
6.7629344635
 20
23.5428482543
 10
6.7943871907
 20
23.5378981437
 10
6.826260912
 20
23.53407298
 10
6.8584221456
 20
23.531388796
 10
6.8907362006
 20
23.5298568447
 10
6.9230677698
 20
23.5294835521
 10
6.9552814544
 20
23.5302704926
 10
6.9872423137
 20
23.5322143781
 10
7.018816507
 20
23.5353070746
 10
7.0498718113
 20
23.5395356372
 10
7.0802781356
 20
23.5448823564
 10
7.1099081513
 20
23.5513248443
 10
7.1386377746
 20
23.5588361232
 10
7.1663466515
 20
23.5673847253
 10
7.1929187372
 20
23.5769348434
 10
7.2182427774
 20
23.5874464862
 10
7.2422127294
 20
23.5988756318
  0
LINE
  5
337
100
AcDbEntity
  8
ASSI
100
AcDbLine
 62
250
  6
CONTINUOUS
 10
-8.1453083402
 20
32.0995665339
 11
6.5416342145
 21
23.6195099734
  0
LINE
  5
338
100
AcDbEntity
  8
RACCORDO
100
AcDbLine
 62
250
  6
CONTINUOUS
 10
-8.1453083402
 20
32.0995665339
 11
6.5416342145
 21
23.6195099734
  0
LINE
  5
339
100
AcDbEntity
  8
ASSI
100
AcDbLine
 62
250
  6
CONTINUOUS
 10
-7.4633240227
 20
33.2826056366
 11
7.2356274206
 21
24.7956152944
  0
LINE
  5
33A
100
AcDbEntity
  8
RACCORDO
100
AcDbLine
 62
250
  6
CONTINUOUS
 10
-7.4633240227
 20
33.2826056366
 11
7.2356274206
 21
24.7956152944
  0
LWPOLYLINE
  5
33B
100
AcDbEntity
  8
ASSI
100
AcDbPolyline
 62
250
  6
CONTINUOUS
 90
25
 70
0
 10
7.2356274206
 20
24.7956152944
 10
7.2583574684
 20
24.7811630916
 10
7.2810298439
 20
24.7650490786
 10
7.3035475158
 20
24.7473422196
 10
7.3258141135
 20
24.7281182966
 10
7.3477343438
 20
24.7074595822
 10
7.3692143987
 20
24.6854544855
 10
7.3901623497
 20
24.6621971817
 10
7.4104885451
 20
24.6377872053
 10
7.430105998
 20
24.6123290193
 10
7.4489307571
 20
24.585931567
 10
7.4668822498
 20
24.5587078307
 10
7.4838836327
 20
24.5307743459
 10
7.4998621483
 20
24.5022506584
 10
7.5147494134
 20
24.4732588455
 10
7.5284817005
 20
24.4439230213
 10
7.5410002454
 20
24.4143687386
 10
7.5522514813
 20
24.3847224783
 10
7.5621872552
 20
24.3551111449
 10
7.5707650567
 20
24.325661465
 10
7.5779481887
 20
24.296499468
 10
7.5837059185
 20
24.2677499745
 10
7.5880136204
 20
24.2395360216
 10
7.5908528772
 20
24.2119783374
 10
7.5922115547
 20
24.1851948468
  0
LWPOLYLINE
  5
33C
100
AcDbEntity
  8
RACCORDO
100
AcDbPolyline
 62
250
  6
CONTINUOUS
 90
16
 70
0
 10
7.2356274206
 20
24.7956152944
 10
7.2719738014
 20
24.7716900114
 10
7.3080235355
 20
24.7436166403
 10
7.3433818837
 20
24.71170258
 10
7.3776616779
 20
24.6762972846
 10
7.4104875595
 20
24.6377884364
 10
7.4415000903
 20
24.5965977012
 10
7.4703596879
 20
24.5531761112
 10
7.4967503443
 20
24.5079991258
 10
7.5203830859
 20
24.4615614261
 10
7.5409991378
 20
24.4143714975
 10
7.5583727576
 20
24.3669460622
 10
7.5723137069
 20
24.3198044215
 10
7.5826693345
 20
24.2734627688
 10
7.5893262478
 20
24.228428538
 10
7.5922115547
 20
24.1851948468
  0
LINE
  5
33D
100
AcDbEntity
  8
ASSI
100
AcDbLine
 62
7
  6
CONTINUOUS
 10
-3.2273259445
 20
35.9456729759
 11
11.6221318397
 21
27.3717821587
  0
LINE
  5
33E
100
AcDbEntity
  8
RACCORDO
100
AcDbLine
 62
7
  6
CONTINUOUS
 10
-3.2273259445
 20
35.9456729759
 11
11.6221318397
 21
27.3717821587
  0
ELLIPSE
  5
33F
100
AcDbEntity
  8
DRAFT
100
AcDbEllipse
 62
7
  6
CONTINUOUS
 10
-12.8642531861
 20
-9.5407074977
 30
0.0
 11
31.9688281258
 21
14.4299522753
 31
0.0
 40
0.0732634166
 41
-1.0698772717
 42
-1.0674178531
  0
ELLIPSE
  5
340
100
AcDbEntity
  8
ASSI
100
AcDbEllipse
 62
7
  6
CONTINUOUS
 10
-3.2271643987
 20
35.5372046231
 30
0.0
 11
-0.2500597015
 21
0.4332530584
 31
0.0
 40
0.5770679649
 41
-0.7850277811
 42
0.0218062174
  0
ELLIPSE
  5
341
100
AcDbEntity
  8
ASSI
100
AcDbEllipse
 62
7
  6
CONTINUOUS
 10
11.621970294
 20
-7.8995005843
 30
0.0
 11
-0.2500597015
 21
0.4332530584
 31
0.0
 40
0.5770679649
 41
-3.163398871
 42
-2.3562809586
  0
ELLIPSE
  5
342
100
AcDbEntity
  8
ASSI
100
AcDbEllipse
 62
7
  6
CONTINUOUS
 10
11.621970294
 20
26.9635003549
 30
0.0
 11
-0.2499453902
 21
0.4330552278
 31
0.0
 40
0.5775954737
 41
-2.3558238482
 42
-0.7854843722
  0
ELLIPSE
  5
343
100
AcDbEntity
  8
SIMBOLO
100
AcDbEllipse
 62
250
  6
CONTINUOUS
 10
342.0529925385
 20
220.8957433425
 30
0.0
 11
-733.8564056099
 21
796.895231512
 31
0.0
 40
0.3689776231
 41
1.5038654892
 42
1.5042369637
  0
ELLIPSE
  5
344
100
AcDbEntity
  8
SIMBOLO
100
AcDbEllipse
 62
250
  6
CONTINUOUS
 10
363.3672692192
 20
208.5891471177
 30
0.0
 11
790.2668488934
 21
96.2871154356
 31
0.0
 40
0.2277740776
 41
-2.0767028156
 42
-2.0763313494
  0
ELLIPSE
  5
345
100
AcDbEntity
  8
SIMBOLO
100
AcDbEllipse
 62
250
  6
CONTINUOUS
 10
397.5774781353
 20
188.8366012441
 30
0.0
 11
1894.835661833
 21
-1475.3485916273
 31
0.0
 40
0.1578420461
 41
-1.6585701181
 42
-1.6582543359
  0
ELLIPSE
  5
346
100
AcDbEntity
  8
SIMBOLO
100
AcDbEllipse
 62
250
  6
CONTINUOUS
 10
350.7302336593
 20
215.8856130707
 30
0.0
 11
-353.5448483845
 21
612.3773669863
 31
0.0
 40
0.5773595689
 41
-4.7000787966
 42
-4.6997073397
  0
ELLIPSE
  5
347
100
AcDbEntity
  8
SIMBOLO
100
AcDbEllipse
 62
250
  6
CONTINUOUS
 10
353.8667571081
 20
214.0746237412
 30
0.0
 11
-353.5448483845
 21
612.3773669863
 31
0.0
 40
0.5773595689
 41
-4.7072790837
 42
-4.7065362147
  0
ELLIPSE
  5
348
100
AcDbEntity
  8
SIMBOLO
100
AcDbEllipse
 62
250
  6
CONTINUOUS
 10
350.0635217005
 20
216.2705641998
 30
0.0
 11
382.908004632
 21
354.2940639129
 31
0.0
 40
0.2678284645
 41
-3.8673230039
 42
-3.8646517583
  0
ELLIPSE
  5
349
100
AcDbEntity
  8
SIMBOLO
100
AcDbEllipse
 62
250
  6
CONTINUOUS
 10
352.290927111
 20
214.9844882318
 30
0.0
 11
-353.5436585129
 21
612.3769547902
 31
0.0
 40
0.5773603461
 41
-4.7043069173
 42
-4.7035640329
  0
ELLIPSE
  5
34A
100
AcDbEntity
  8
SIMBOLO
100
AcDbEllipse
 62
250
  6
CONTINUOUS
 10
352.684868646
 20
214.7570313267
 30
0.0
 11
-353.5472281277
 21
612.3781913832
 31
0.0
 40
0.5773580145
 41
-4.70728043
 42
-4.7069089969
  0
ELLIPSE
  5
34B
100
AcDbEntity
  8
SIMBOLO
100
AcDbEllipse
 62
250
  6
CONTINUOUS
 10
350.3413436951
 20
216.1101532621
 30
0.0
 11
-552.5721496794
 21
699.3559429522
 31
0.0
 40
0.4542249282
 41
1.5111098325
 42
1.511357458
  0
ELLIPSE
  5
34C
100
AcDbEntity
  8
SIMBOLO
100
AcDbEllipse
 62
250
  6
CONTINUOUS
 10
339.4922268698
 20
222.3742973456
 30
0.0
 11
2138.5395614329
 21
-1618.1137175068
 31
0.0
 40
0.1404988472
 41
-1.6232153783
 42
-1.6229677543
  0
ELLIPSE
  5
34D
100
AcDbEntity
  8
SIMBOLO
100
AcDbEllipse
 62
250
  6
CONTINUOUS
 10
350.7352841695
 20
215.8826969694
 30
0.0
 11
-552.5751559057
 21
699.3574641758
 31
0.0
 40
0.4542232796
 41
1.5116045881
 42
1.5118522145
  0
ELLIPSE
  5
34E
100
AcDbEntity
  8
SIMBOLO
100
AcDbEllipse
 62
250
  6
CONTINUOUS
 10
350.8464006968
 20
215.8185396791
 30
0.0
 11
-353.5448483845
 21
612.3773669863
 31
0.0
 40
0.5773595689
 41
-4.7039361479
 42
-4.7035647061
  0
ELLIPSE
  5
34F
100
AcDbEntity
  8
SIMBOLO
100
AcDbEllipse
 62
250
  6
CONTINUOUS
 10
352.2707187607
 20
214.9961562799
 30
0.0
 11
-66.7161013921
 21
547.5657150915
 31
0.0
 40
0.7115376945
 41
-4.4132484527
 42
-4.4125055837
  0
ELLIPSE
  5
350
100
AcDbEntity
  8
SIMBOLO
100
AcDbEllipse
 62
250
  6
CONTINUOUS
 10
346.5532360335
 20
218.2973591497
 30
0.0
 11
-733.8564056099
 21
796.895231512
 31
0.0
 40
0.3689776231
 41
1.4966649527
 42
1.4970363945
  0
ELLIPSE
  5
351
100
AcDbEntity
  8
SIMBOLO
100
AcDbEllipse
 62
250
  6
CONTINUOUS
 10
355.5323797397
 20
213.1129141089
 30
0.0
 11
167.4220967545
 21
476.2181129666
 31
0.0
 40
0.6670736339
 41
-4.0762410798
 42
-4.0758016038
  0
ELLIPSE
  5
352
100
AcDbEntity
  8
SIMBOLO
100
AcDbEllipse
 62
250
  6
CONTINUOUS
 10
357.6851476511
 20
211.8699328974
 30
0.0
 11
790.2668488934
 21
96.2871154356
 31
0.0
 40
0.2277740776
 41
-2.0695023711
 42
-2.0691309337
  0
ELLIPSE
  5
353
100
AcDbEntity
  8
SIMBOLO
100
AcDbEllipse
 62
250
  6
CONTINUOUS
 10
349.9271618813
 20
216.3492966505
 30
0.0
 11
-353.5448483845
 21
612.3773669863
 31
0.0
 40
0.5773595689
 41
-4.7072790837
 42
-4.7065362147
  0
ELLIPSE
  5
354
100
AcDbEntity
  8
SIMBOLO
100
AcDbEllipse
 62
250
  6
CONTINUOUS
 10
348.3513242149
 20
217.2591655692
 30
0.0
 11
-353.5448483845
 21
612.3773669863
 31
0.0
 40
0.5773595689
 41
-4.7043075905
 42
-4.7035647061
  0
ELLIPSE
  5
355
100
AcDbEntity
  8
SIMBOLO
100
AcDbEllipse
 62
250
  6
CONTINUOUS
 10
364.077610764
 20
208.1790048124
 30
0.0
 11
-426.4321872897
 21
640.3978141908
 31
0.0
 40
0.5298475782
 41
1.5126535917
 42
1.5129831956
  0
ELLIPSE
  5
356
100
AcDbEntity
  8
SIMBOLO
100
AcDbEllipse
 62
250
  6
CONTINUOUS
 10
347.3007650634
 20
217.8657452566
 30
0.0
 11
-353.5448483845
 21
612.3773669863
 31
0.0
 40
0.5773595689
 41
-4.7039361479
 42
-4.7035647061
  0
ELLIPSE
  5
357
100
AcDbEntity
  8
SIMBOLO
100
AcDbEllipse
 62
250
  6
CONTINUOUS
 10
347.8260449927
 20
217.5624552088
 30
0.0
 11
-353.5448483845
 21
612.3773669863
 31
0.0
 40
0.5773595689
 41
-4.7072790837
 42
-4.7069076506
  0
ELLIPSE
  5
358
100
AcDbEntity
  8
SIMBOLO
100
AcDbEllipse
 62
250
  6
CONTINUOUS
 10
345.3460899348
 20
218.9943501781
 30
0.0
 11
-353.5472281277
 21
612.3781913832
 31
0.0
 40
0.5773580145
 41
-4.6967369576
 42
-4.6963654832
  0
ELLIPSE
  5
359
100
AcDbEntity
  8
SIMBOLO
100
AcDbEllipse
 62
250
  6
CONTINUOUS
 10
344.1642416146
 20
219.6767345861
 30
0.0
 11
-353.5448483845
 21
612.3773669863
 31
0.0
 40
0.5773595689
 41
-4.6967356114
 42
-4.6963641369
  0
ELLIPSE
  5
35A
100
AcDbEntity
  8
SIMBOLO
100
AcDbEllipse
 62
250
  6
CONTINUOUS
 10
346.3246094364
 20
218.4293652816
 30
0.0
 11
490.8265583775
 21
293.9388796845
 31
0.0
 40
0.0162519751
 41
2.3408881347
 42
2.3413089517
  0
ELLIPSE
  5
35B
100
AcDbEntity
  8
SIMBOLO
100
AcDbEllipse
 62
250
  6
CONTINUOUS
 10
354.7818263644
 20
213.5462742211
 30
0.0
 11
243.262729435
 21
436.8785891537
 31
0.0
 40
0.5874316792
 41
-3.9611439611
 42
-3.9604785257
  0
ELLIPSE
  5
35C
100
AcDbEntity
  8
SIMBOLO
100
AcDbEllipse
 62
250
  6
CONTINUOUS
 10
357.0884947745
 20
212.2144327905
 30
0.0
 11
103.3810184342
 21
502.638651082
 31
0.0
 40
0.7005058548
 41
-4.1808241914
 42
-4.1806763147
  0
ELLIPSE
  5
35D
100
AcDbEntity
  8
SIMBOLO
100
AcDbEllipse
 62
250
  6
CONTINUOUS
 10
359.5749229572
 20
210.7788003201
 30
0.0
 11
-108.7802626088
 21
555.223779142
 31
0.0
 40
0.7020885113
 41
-4.501606123
 42
-4.5014789764
  0
ELLIPSE
  5
35E
100
AcDbEntity
  8
SIMBOLO
100
AcDbEllipse
 62
250
  6
CONTINUOUS
 10
195.1144284033
 20
305.7362287014
 30
0.0
 11
6542.0135773104
 21
-3356.9355160869
 31
0.0
 40
0.0466730287
 41
-1.5764602026
 42
-1.5764401626
  0
ELLIPSE
  5
35F
100
AcDbEntity
  8
SIMBOLO
100
AcDbEllipse
 62
250
  6
CONTINUOUS
 10
344.1416553125
 20
219.6897756338
 30
0.0
 11
565.8308059261
 21
249.2651241705
 31
0.0
 40
0.0949282147
 41
-2.2623522912
 42
-2.2620910922
  0
ELLIPSE
  5
360
100
AcDbEntity
  8
SIMBOLO
100
AcDbEllipse
 62
250
  6
CONTINUOUS
 10
353.6897002684
 20
214.1768541415
 30
0.0
 11
301.35731846
 21
402.407636163
 31
0.0
 40
0.480231173
 41
-3.8950043714
 42
-3.8942352769
  0
ELLIPSE
  5
361
100
AcDbEntity
  8
SIMBOLO
100
AcDbEllipse
 62
250
  6
CONTINUOUS
 10
361.6629878396
 20
209.5731778266
 30
0.0
 11
-216.968959707
 21
575.1059761785
 31
0.0
 40
0.6592271384
 41
-4.6303533949
 42
-4.6299781711
  0
ELLIPSE
  5
362
100
AcDbEntity
  8
SIMBOLO
100
AcDbEllipse
 62
250
  6
CONTINUOUS
 10
412.8184984797
 20
180.0366271121
 30
0.0
 11
2250.6546865592
 21
-1683.7066261957
 31
0.0
 40
0.1337229506
 41
-1.6539941383
 42
-1.6539139794
  0
ELLIPSE
  5
363
100
AcDbEntity
  8
SIMBOLO
100
AcDbEllipse
 62
250
  6
CONTINUOUS
 10
322.0227544306
 20
232.4609517881
 30
0.0
 11
1311.2997052057
 21
-266.3825004404
 31
0.0
 40
0.2076023375
 41
-1.7754825553
 42
-1.775454914
  0
ELLIPSE
  5
364
100
AcDbEntity
  8
SIMBOLO
100
AcDbEllipse
 62
250
  6
CONTINUOUS
 10
356.0931074677
 20
212.7891569463
 30
0.0
 11
194.2315318393
 21
463.2752980463
 31
0.0
 40
0.6451063139
 41
-4.0357126512
 42
-4.0354127405
  0
ELLIPSE
  5
365
100
AcDbEntity
  8
SIMBOLO
100
AcDbEllipse
 62
250
  6
CONTINUOUS
 10
350.0447444145
 20
216.2814059694
 30
0.0
 11
383.4365360502
 21
353.9947449639
 31
0.0
 40
0.266385551
 41
-3.8629419555
 42
-3.8620403213
  0
ELLIPSE
  5
366
100
AcDbEntity
  8
SIMBOLO
100
AcDbEllipse
 62
250
  6
CONTINUOUS
 10
363.9606395342
 20
208.2465425345
 30
0.0
 11
-334.5097894004
 21
605.9835429661
 31
0.0
 40
0.5897392454
 41
1.555099737
 42
1.5553194887
  0
ELLIPSE
  5
367
100
AcDbEntity
  8
SIMBOLO
100
AcDbEllipse
 62
250
  6
CONTINUOUS
 10
414.7226499092
 20
178.9371939414
 30
0.0
 11
2232.4295257434
 21
-1673.047499812
 31
0.0
 40
0.1347801738
 41
-1.6555041179
 42
-1.6554032249
  0
ELLIPSE
  5
368
100
AcDbEntity
  8
SIMBOLO
100
AcDbEllipse
 62
250
  6
CONTINUOUS
 10
296.8400217406
 20
247.0011460296
 30
0.0
 11
2340.6482327812
 21
-903.6550507681
 31
0.0
 40
0.1273181741
 41
-1.6496542783
 42
-1.6493384962
  0
ELLIPSE
  5
369
100
AcDbEntity
  8
SIMBOLO
100
AcDbEllipse
 62
250
  6
CONTINUOUS
 10
341.4568007039
 20
221.2399770357
 30
0.0
 11
598.3220734875
 21
228.7332662827
 31
0.0
 40
0.1294327979
 41
-2.2246215471
 42
-2.2243810633
  0
ELLIPSE
  5
36A
100
AcDbEntity
  8
SIMBOLO
100
AcDbEllipse
 62
250
  6
CONTINUOUS
 10
352.953745335
 20
214.6017852963
 30
0.0
 11
301.3579049637
 21
402.40728089
 31
0.0
 40
0.4802298561
 41
-3.8964128792
 42
-3.8958697246
  0
ELLIPSE
  5
36B
100
AcDbEntity
  8
SIMBOLO
100
AcDbEllipse
 62
250
  6
CONTINUOUS
 10
357.3284715721
 20
212.0758731952
 30
0.0
 11
80.0760763567
 21
510.7516769794
 31
0.0
 40
0.7076427359
 41
-4.2197472034
 42
-4.2195613153
  0
ELLIPSE
  5
36C
100
AcDbEntity
  8
SIMBOLO
100
AcDbEllipse
 62
250
  6
CONTINUOUS
 10
362.2060142756
 20
209.2596411682
 30
0.0
 11
-277.0939252879
 21
589.137851425
 31
0.0
 40
0.6257286324
 41
-4.6859351806
 42
-4.6857969755
  0
ELLIPSE
  5
36D
100
AcDbEntity
  8
SIMBOLO
100
AcDbEllipse
 62
250
  6
CONTINUOUS
 10
368.9618365623
 20
205.3589140502
 30
0.0
 11
-568.4829449216
 21
707.4667512982
 31
0.0
 40
0.4456118265
 41
1.475062101
 42
1.4751346594
  0
ELLIPSE
  5
36E
100
AcDbEntity
  8
SIMBOLO
100
AcDbEllipse
 62
250
  6
CONTINUOUS
 10
263.516906726
 20
266.2414950023
 30
0.0
 11
3372.6092266941
 21
-1513.5270392711
 31
0.0
 40
0.0897277587
 41
-1.6085333756
 42
-1.6084732557
  0
ELLIPSE
  5
36F
100
AcDbEntity
  8
SIMBOLO
100
AcDbEllipse
 62
250
  6
CONTINUOUS
 10
346.2710470883
 20
218.46029151
 30
0.0
 11
454.1403901422
 21
314.6265592247
 31
0.0
 40
0.089740702
 41
2.3716517295
 42
2.3720539155
  0
ELLIPSE
  5
370
100
AcDbEntity
  8
SIMBOLO
100
AcDbEllipse
 62
250
  6
CONTINUOUS
 10
354.8607772105
 20
213.5006889921
 30
0.0
 11
205.5447566867
 21
457.4839560032
 31
0.0
 40
0.6340051965
 41
-4.017890921
 42
-4.0169918927
  0
ELLIPSE
  5
371
100
AcDbEntity
  8
SIMBOLO
100
AcDbEllipse
 62
250
  6
CONTINUOUS
 10
365.0781213407
 20
207.6013225447
 30
0.0
 11
-449.8631334605
 21
650.4774671701
 31
0.0
 40
0.5149441526
 41
1.5031403932
 42
1.5034672434
  0
ELLIPSE
  5
372
100
AcDbEntity
  8
SIMBOLO
100
AcDbEllipse
 62
250
  6
CONTINUOUS
 10
269.6376629105
 20
262.7074470924
 30
0.0
 11
3349.1549621809
 21
-1499.7754833875
 31
0.0
 40
0.0903394783
 41
-1.610711065
 42
-1.6106633857
  0
ELLIPSE
  5
373
100
AcDbEntity
  8
SIMBOLO
100
AcDbEllipse
 62
250
  6
CONTINUOUS
 10
346.0622703851
 20
218.5808365619
 30
0.0
 11
421.3271498002
 21
332.8249338962
 31
0.0
 40
0.1667309248
 41
2.3919522156
 42
2.3924200981
  0
ELLIPSE
  5
374
100
AcDbEntity
  8
SIMBOLO
100
AcDbEllipse
 62
250
  6
CONTINUOUS
 10
358.8918848085
 20
211.1731779867
 30
0.0
 11
-181.5402598429
 21
568.1476218922
 31
0.0
 40
0.6760177216
 41
-4.596867047
 42
-4.5963991634
  0
ELLIPSE
  5
375
100
AcDbEntity
  8
SIMBOLO
100
AcDbEllipse
 62
250
  6
CONTINUOUS
 10
361.0444557197
 20
209.9303105206
 30
0.0
 11
-337.6348067953
 21
607.0055925274
 31
0.0
 40
0.5877158378
 41
1.5514309402
 42
1.5524703072
  0
ELLIPSE
  5
376
100
AcDbEntity
  8
SIMBOLO
100
AcDbEllipse
 62
250
  6
CONTINUOUS
 10
338.3400940244
 20
223.039524411
 30
0.0
 11
556.6841934546
 21
254.9146968741
 31
0.0
 40
0.0838690631
 41
-2.2667700166
 42
-2.2655177151
  0
ELLIPSE
  5
377
100
AcDbEntity
  8
SIMBOLO
100
AcDbEllipse
 62
250
  6
CONTINUOUS
 10
366.8194463264
 20
206.5959033219
 30
0.0
 11
-453.9046536605
 21
652.2626144655
 31
0.0
 40
0.512405385
 41
1.4963010225
 42
1.4975533241
  0
ELLIPSE
  5
378
100
AcDbEntity
  8
SIMBOLO
100
AcDbEllipse
 62
250
  6
CONTINUOUS
 10
343.4412837121
 20
220.0941614182
 30
0.0
 11
501.4213700473
 21
287.8445486675
 31
0.0
 40
0.0024942324
 41
-2.3269914309
 42
-2.3260177152
  0
ELLIPSE
  5
379
100
AcDbEntity
  8
SIMBOLO
100
AcDbEllipse
 62
250
  6
CONTINUOUS
 10
347.9725289071
 20
217.4778772324
 30
0.0
 11
-353.5436585129
 21
612.3769547902
 31
0.0
 40
0.5773603461
 41
-4.7000781234
 42
-4.6993352059
  0
ELLIPSE
  5
37A
100
AcDbEntity
  8
SIMBOLO
100
AcDbEllipse
 62
250
  6
CONTINUOUS
 10
346.3966940691
 20
218.3877445181
 30
0.0
 11
-353.5436585129
 21
612.3769547902
 31
0.0
 40
0.5773603461
 41
-4.6971064125
 42
-4.6963634638
  0
ELLIPSE
  5
37B
100
AcDbEntity
  8
SIMBOLO
100
AcDbEllipse
 62
250
  6
CONTINUOUS
 10
351.5888690179
 20
215.3898477759
 30
0.0
 11
-66.7161013921
 21
547.5657150915
 31
0.0
 40
0.7115376945
 41
-4.4060481656
 42
-4.405305248
  0
ELLIPSE
  5
37C
100
AcDbEntity
  8
RACCORDO
100
AcDbEllipse
 62
7
  6
CONTINUOUS
 10
-3.2271643987
 20
35.5372046231
 30
0.0
 11
-0.2500597015
 21
0.4332530584
 31
0.0
 40
0.5770679649
 41
-0.7850277811
 42
0.0218062175
  0
ELLIPSE
  5
37D
100
AcDbEntity
  8
RACCORDO
100
AcDbEllipse
 62
7
  6
CONTINUOUS
 10
11.621970294
 20
26.9635003549
 30
0.0
 11
-0.2499453902
 21
0.4330552278
 31
0.0
 40
0.5775954737
 41
-2.3558238482
 42
-0.7854843722
  0
ELLIPSE
  5
37E
100
AcDbEntity
  8
RACCORDO
100
AcDbEllipse
 62
7
  6
CONTINUOUS
 10
11.621970294
 20
-7.8995005843
 30
0.0
 11
-0.2500597015
 21
0.4332530584
 31
0.0
 40
0.5770679649
 41
-3.1633988709
 42
-2.3562809586
  0
ENDSEC
  0
SECTION
  2
OBJECTS
  0
DICTIONARY
  5
C
100
AcDbDictionary
280
0
281
1
  3
ACAD_GROUP
350
D
  3
ACAD_MLINESTYLE
350
17
  3
ACAD_LAYOUT
350
1A
  3
ACAD_PLOTSETTINGS
350
19
  3
ACAD_PLOTSTYLENAME
350
E
  0
DICTIONARY
  5
D
102
{ACAD_REACTORS
330
C
102
}
100
AcDbDictionary
280
0
281
1
  0
ACDBDICTIONARYWDFLT
  5
E
102
{ACAD_REACTORS
330
C
102
}
100
AcDbDictionary
281
1
  3
Normal
350
F
100
AcDbDictionaryWithDefault
340
F
  0
DICTIONARY
  5
17
102
{ACAD_REACTORS
330
C
102
}
100
AcDbDictionary
280
0
281
1
  3
Standard
350
18
  0
DICTIONARY
  5
19
102
{ACAD_REACTORS
330
C
102
}
100
AcDbDictionary
281
1
  0
DICTIONARY
  5
1A
102
{ACAD_REACTORS
330
C
102
}
100
AcDbDictionary
281
1
  3
Model
350
37F
  3
Layout1
350
380
  0
ACDBPLACEHOLDER
  5
F
102
{ACAD_REACTORS
330
E
102
}
  0
MLINESTYLE
  5
18
102
{ACAD_REACTORS
330
17
102
}
100
AcDbMlineStyle
  2
STANDARD
 70
0
  3

 62
256
 51
90.0
 52
90.0
 71
2
 49
0.5
 62
256
  6
BYLAYER
 49
-0.5
 62
256
  6
BYLAYER
  0
LAYOUT
  5
37F
102
{ACAD_REACTORS
330
1A
102
}
100
AcDbPlotSettings
  1

  2
none_device
  4
ISO_A4_(297.00_x_210.00_MM)
  6

 40
0.0
 41
0.0
 42
0.0
 43
0.0
 44
297.0
 45
210.0
 46
0.0
 47
0.0
 48
0.0
 49
0.0
140
0.0
141
0.0
142
1.0
143
1.0
 70
1024
 72
1
 73
0
 74
0
  7

 75
0
147
1.0
148
0.0
149
0.0
100
AcDbLayout
  1
Model
 70
0
 71
0
 10
0.0
 20
0.0
 11
297.0
 21
210.0
 12
0.0
 22
0.0
 32
0.0
 14
0.0
 24
0.0
 34
0.0
 15
0.0
 25
0.0
 35
0.0
146
0.0
 13
0.0
 23
0.0
 33
0.0
 16
1.0
 26
0.0
 36
0.0
 17
0.0
 27
1.0
 37
0.0
 76
0
330
215
345
0
346
0
  0
LAYOUT
  5
380
102
{ACAD_REACTORS
330
1A
102
}
100
AcDbPlotSettings
  1

  2
none_device
  4
ISO_A4_(297.00_x_210.00_MM)
  6

 40
0.0
 41
0.0
 42
0.0
 43
0.0
 44
297.0
 45
210.0
 46
0.0
 47
0.0
 48
0.0
 49
0.0
140
0.0
141
0.0
142
1.0
143
1.0
 70
0
 72
1
 73
0
 74
0
  7

 75
0
147
1.0
148
0.0
149
0.0
100
AcDbLayout
  1
Layout1
 70
0
 71
1
 10
0.0
 20
0.0
 11
297.0
 21
210.0
 12
0.0
 22
0.0
 32
0.0
 14
0.0
 24
0.0
 34
0.0
 15
0.0
 25
0.0
 35
0.0
146
0.0
 13
0.0
 23
0.0
 33
0.0
 16
1.0
 26
0.0
 36
0.0
 17
0.0
 27
1.0
 37
0.0
 76
0
330
216
345
0
346
0
  0
ENDSEC
  0
EOF
