  0
SECTION
  2
HEADER
  9
$ACADVER
  1
AC1024
  9
$DWGCODEPAGE
  3
ANSI_1252
  9
$EXTMAX
 10
297.0
 20
210.0
 30
0.0
  9
$EXTMIN
 10
0.0
 20
0.0
 30
0.0
  9
$LIMMIN
 10
0.0
 20
0.0
  9
$LIMMAX
 10
297.0
 20
210.0
  9
$VIEWCTR
 10
148.5
 20
105.0
  9
$VIEWSIZE
 40
210.0
  9
$CLAYER
  8
0
  9
$LTSCALE
 40
16.335
  9
$CELTYPE
  6
BYLAYER
  9
$DIMSCALE
 40
1.0
  9
$DIMASZ
 40
3.0
  9
$DIMEXO
 40
0.5
  9
$DIMDLI
 40
11.286
  9
$DIMEXE
 40
1.5
  9
$DIMCEN
 40
2.673
  9
$DIMLFAC
 40
1.0
  9
$DIMBLK
  1
_FILLED
  9
$DIMALT
 70
0
  9
$DIMALTF
 40
0.0393700787
  9
$DIMTXT
 40
3.0
  9
$DIMTOL
 70
1
  9
$DIMLIM
 70
0
  9
$DIMTFAC
 40
1.0
  9
$DIMTP
 40
0.01
  9
$DIMTM
 40
0.01
  9
$DIMGAP
 40
0.625
  9
$DIMDSEP
 70
44
  9
$AUNITS
 70
0
  9
$PDMODE
 70
3
  9
$PDSIZE
 40
3.0
  9
$HANDSEED
  5
419
  9
$TILEMODE
 70
1
  9
$MEASUREMENT
 70
1
  9
$INSUNITS
 70
4
  0
ENDSEC
  0
SECTION
  2
CLASSES
  0
CLASS
  1
ACDBDICTIONARYWDFLT
  2
AcDbDictionaryWithDefault
  3
AutoCAD 2000
 90
0
 91
1
280
0
281
0
  0
CLASS
  1
ACDBPLACEHOLDER
  2
AcDbPlaceHolder
  3
AutoCAD 2000
 90
0
 91
1
280
0
281
0
  0
CLASS
  1
LAYOUT
  2
AcDbLayout
  3
AutoCAD 2000
 90
0
 91
0
280
0
281
0
  0
ENDSEC
  0
SECTION
  2
TABLES
  0
TABLE
  2
VPORT
  5
8
100
AcDbSymbolTable
 70
2
  0
VPORT
  5
1F4
100
AcDbSymbolTableRecord
100
AcDbViewportTableRecord
  2
*ACTIVE
 70
0
 10
0.0
 20
0.0
 11
1.0
 21
1.0
 12
148.5
 22
105.0
 13
0.0
 23
0.0
 14
1.0
 24
1.0
 15
0.0
 25
0.0
 16
0.0
 26
0.0
 36
1.0
 17
0.0
 27
0.0
 37
0.0
 40
210.0
 41
1.4142857143
 42
50.0
 43
0.0
 44
0.0
 50
0.0
 51
0.0
 71
0
 72
100
 73
1
 74
1
 75
0
 76
0
 77
0
 78
0
  0
ENDTAB
  0
TABLE
  2
LTYPE
  5
5
100
AcDbSymbolTable
 70
6
  0
LTYPE
  5
14
100
AcDbSymbolTableRecord
100
AcDbLinetypeTableRecord
  2
BYBLOCK
 70
0
  3

 72
65
 73
0
 40
0.0
  0
LTYPE
  5
15
100
AcDbSymbolTableRecord
100
AcDbLinetypeTableRecord
  2
BYLAYER
 70
0
  3

 72
65
 73
0
 40
0.0
  0
LTYPE
  5
16
100
AcDbSymbolTableRecord
100
AcDbLinetypeTableRecord
  2
CONTINUOUS
 70
64
  3
Solid line
 72
65
 73
0
 40
0.0
  0
LTYPE
  5
1F5
100
AcDbSymbolTableRecord
100
AcDbLinetypeTableRecord
  2
CENTER
 70
64
  3
____ _ ____ _ ____ _ ____ _ ____ _ ____ _ ____
 72
65
 73
4
 40
0.6
 49
0.375
 74
0
 49
-0.075
 74
0
 49
0.075
 74
0
 49
-0.075
 74
0
  0
LTYPE
  5
1F6
100
AcDbSymbolTableRecord
100
AcDbLinetypeTableRecord
  2
HIDDEN
 70
64
  3
- - - - - - - - - - - - - - - - - - - -
 72
65
 73
2
 40
0.2
 49
0.1
 74
0
 49
-0.1
 74
0
  0
LTYPE
  5
1F7
100
AcDbSymbolTableRecord
100
AcDbLinetypeTableRecord
  2
PHANTOM
 70
64
  3
_____ _ _ _____ _ _ _____ _ _ _____
 72
65
 73
6
 40
0.8
 49
0.45
 74
0
 49
-0.05
 74
0
 49
0.1
 74
0
 49
-0.05
 74
0
 49
0.1
 74
0
 49
-0.05
 74
0
  0
LTYPE
  5
1F8
100
AcDbSymbolTableRecord
100
AcDbLinetypeTableRecord
  2
DOT
 70
64
  3
. . . . . . . . . . . . . . . . . . . .
 72
65
 73
2
 40
0.2
 49
0.1
 74
0
 49
-0.1
 74
0
  0
LTYPE
  5
1F9
100
AcDbSymbolTableRecord
100
AcDbLinetypeTableRecord
  2
DASHED
 70
64
  3
- - - - - - - - - - - - - - - - - - - -
 72
65
 73
2
 40
0.2
 49
0.1
 74
0
 49
-0.1
 74
0
  0
ENDTAB
  0
TABLE
  2
LAYER
  5
2
100
AcDbSymbolTable
 70
36
  0
LAYER
  5
10
100
AcDbSymbolTableRecord
100
AcDbLayerTableRecord
  2
0
 70
0
 62
7
  6
CONTINUOUS
370
-3
390
F
  0
LAYER
  5
1FA
100
AcDbSymbolTableRecord
100
AcDbLayerTableRecord
  2
DEFAULT_1
 70
0
 62
7
  6
CENTER
370
-3
390
F
  0
LAYER
  5
1FB
100
AcDbSymbolTableRecord
100
AcDbLayerTableRecord
  2
DEFAULT_2
 70
0
 62
7
  6
HIDDEN
370
-3
390
F
  0
LAYER
  5
1FC
100
AcDbSymbolTableRecord
100
AcDbLayerTableRecord
  2
DEFAULT_3
 70
0
 62
7
  6
PHANTOM
370
-3
390
F
  0
LAYER
  5
1FD
100
AcDbSymbolTableRecord
100
AcDbLayerTableRecord
  2
40225_-_32A_DURA_DP_-_MYRAH_1
 70
0
 62
7
  6
CONTINUOUS
370
-3
390
F
  0
LAYER
  5
1FE
100
AcDbSymbolTableRecord
100
AcDbLayerTableRecord
  2
40225_-_32A_DURA_DP_-_MYRAH_23
 70
0
 62
7
  6
CONTINUOUS
370
-3
390
F
  0
LAYER
  5
1FF
100
AcDbSymbolTableRecord
100
AcDbLayerTableRecord
  2
40225_-_32A_DURA_DP_-_MYRAH_24
 70
0
 62
7
  6
CONTINUOUS
370
-3
390
F
  0
LAYER
  5
200
100
AcDbSymbolTableRecord
100
AcDbLayerTableRecord
  2
40225_-_32A_DURA_DP_-_MYRAH_25
 70
0
 62
7
  6
CONTINUOUS
370
-3
390
F
  0
LAYER
  5
201
100
AcDbSymbolTableRecord
100
AcDbLayerTableRecord
  2
40225_-_32A_DURA_DP_-_MYRAH_26
 70
0
 62
7
  6
CONTINUOUS
370
-3
390
F
  0
LAYER
  5
202
100
AcDbSymbolTableRecord
100
AcDbLayerTableRecord
  2
40225_-_32A_DURA_DP_-_MYRAH_27
 70
0
 62
7
  6
CONTINUOUS
370
-3
390
F
  0
LAYER
  5
203
100
AcDbSymbolTableRecord
100
AcDbLayerTableRecord
  2
40225_-_32A_DURA_DP_-_MYRAH_3
 70
0
 62
7
  6
CONTINUOUS
370
-3
390
F
  0
LAYER
  5
204
100
AcDbSymbolTableRecord
100
AcDbLayerTableRecord
  2
40225_-_32A_DURA_DP_-_MYRAH_4
 70
0
 62
7
  6
CONTINUOUS
370
-3
390
F
  0
LAYER
  5
205
100
AcDbSymbolTableRecord
100
AcDbLayerTableRecord
  2
ASSI
 70
0
 62
7
  6
CONTINUOUS
370
-3
390
F
  0
LAYER
  5
206
100
AcDbSymbolTableRecord
100
AcDbLayerTableRecord
  2
COORDINATE
 70
0
 62
7
  6
CONTINUOUS
370
-3
390
F
  0
LAYER
  5
207
100
AcDbSymbolTableRecord
100
AcDbLayerTableRecord
  2
COORD_ORIGINE
 70
0
 62
7
  6
CONTINUOUS
370
-3
390
F
  0
LAYER
  5
208
100
AcDbSymbolTableRecord
100
AcDbLayerTableRecord
  2
COPY_PUBLISH
 70
0
 62
7
  6
CONTINUOUS
370
-3
390
F
  0
LAYER
  5
209
100
AcDbSymbolTableRecord
100
AcDbLayerTableRecord
  2
COSMETICI
 70
0
 62
7
  6
CONTINUOUS
370
-3
390
F
  0
LAYER
  5
20A
100
AcDbSymbolTableRecord
100
AcDbLayerTableRecord
  2
CURVE
 70
0
 62
7
  6
CONTINUOUS
370
-3
390
F
  0
LAYER
  5
20B
100
AcDbSymbolTableRecord
100
AcDbLayerTableRecord
  2
DRAFT
 70
0
 62
7
  6
CONTINUOUS
370
-3
390
F
  0
LAYER
  5
20C
100
AcDbSymbolTableRecord
100
AcDbLayerTableRecord
  2
IGES
 70
0
 62
7
  6
CONTINUOUS
370
-3
390
F
  0
LAYER
  5
20D
100
AcDbSymbolTableRecord
100
AcDbLayerTableRecord
  2
IMPORT_IGES
 70
0
 62
7
  6
CONTINUOUS
370
-3
390
F
  0
LAYER
  5
20E
100
AcDbSymbolTableRecord
100
AcDbLayerTableRecord
  2
INTF_1
 70
0
 62
7
  6
CONTINUOUS
370
-3
390
F
  0
LAYER
  5
20F
100
AcDbSymbolTableRecord
100
AcDbLayerTableRecord
  2
INTF_11
 70
0
 62
7
  6
CONTINUOUS
370
-3
390
F
  0
LAYER
  5
210
100
AcDbSymbolTableRecord
100
AcDbLayerTableRecord
  2
INTF_2
 70
0
 62
7
  6
CONTINUOUS
370
-3
390
F
  0
LAYER
  5
211
100
AcDbSymbolTableRecord
100
AcDbLayerTableRecord
  2
INTF_5
 70
0
 62
7
  6
CONTINUOUS
370
-3
390
F
  0
LAYER
  5
212
100
AcDbSymbolTableRecord
100
AcDbLayerTableRecord
  2
INTF_CYAN
 70
0
 62
7
  6
CONTINUOUS
370
-3
390
F
  0
LAYER
  5
213
100
AcDbSymbolTableRecord
100
AcDbLayerTableRecord
  2
NOTE
 70
0
 62
7
  6
CONTINUOUS
370
-3
390
F
  0
LAYER
  5
214
100
AcDbSymbolTableRecord
100
AcDbLayerTableRecord
  2
PIANI
 70
0
 62
7
  6
CONTINUOUS
370
-3
390
F
  0
LAYER
  5
215
100
AcDbSymbolTableRecord
100
AcDbLayerTableRecord
  2
PIANI_ORIGINE
 70
0
 62
7
  6
CONTINUOUS
370
-3
390
F
  0
LAYER
  5
216
100
AcDbSymbolTableRecord
100
AcDbLayerTableRecord
  2
PUNTI
 70
0
 62
7
  6
CONTINUOUS
370
-3
390
F
  0
LAYER
  5
217
100
AcDbSymbolTableRecord
100
AcDbLayerTableRecord
  2
RACCORDO
 70
0
 62
7
  6
CONTINUOUS
370
-3
390
F
  0
LAYER
  5
218
100
AcDbSymbolTableRecord
100
AcDbLayerTableRecord
  2
RGB__255__255__255__
 70
0
 62
7
  6
CONTINUOUS
370
-3
390
F
  0
LAYER
  5
219
100
AcDbSymbolTableRecord
100
AcDbLayerTableRecord
  2
RGB____0____0____0__
 70
0
 62
7
  6
CONTINUOUS
370
-3
390
F
  0
LAYER
  5
21A
100
AcDbSymbolTableRecord
100
AcDbLayerTableRecord
  2
SHELL
 70
0
 62
7
  6
CONTINUOUS
370
-3
390
F
  0
LAYER
  5
21B
100
AcDbSymbolTableRecord
100
AcDbLayerTableRecord
  2
SHELL_1
 70
0
 62
7
  6
CONTINUOUS
370
-3
390
F
  0
LAYER
  5
21C
100
AcDbSymbolTableRecord
100
AcDbLayerTableRecord
  2
SHELL_2
 70
0
 62
7
  6
CONTINUOUS
370
-3
390
F
  0
LAYER
  5
21D
100
AcDbSymbolTableRecord
100
AcDbLayerTableRecord
  2
SHELL_3
 70
0
 62
7
  6
CONTINUOUS
370
-3
390
F
  0
LAYER
  5
21E
100
AcDbSymbolTableRecord
100
AcDbLayerTableRecord
  2
SHELL_4
 70
0
 62
7
  6
CONTINUOUS
370
-3
390
F
  0
LAYER
  5
21F
100
AcDbSymbolTableRecord
100
AcDbLayerTableRecord
  2
SIMBOLI
 70
0
 62
7
  6
CONTINUOUS
370
-3
390
F
  0
LAYER
  5
220
100
AcDbSymbolTableRecord
100
AcDbLayerTableRecord
  2
SMUSSO
 70
0
 62
7
  6
CONTINUOUS
370
-3
390
F
  0
LAYER
  5
221
100
AcDbSymbolTableRecord
100
AcDbLayerTableRecord
  2
SUPERFICI
 70
0
 62
7
  6
CONTINUOUS
370
-3
390
F
  0
LAYER
  5
222
100
AcDbSymbolTableRecord
100
AcDbLayerTableRecord
  2
TRASH
 70
0
 62
7
  6
CONTINUOUS
370
-3
390
F
  0
LAYER
  5
223
100
AcDbSymbolTableRecord
100
AcDbLayerTableRecord
  2
___SHELL
 70
0
 62
7
  6
CONTINUOUS
370
-3
390
F
  0
ENDTAB
  0
TABLE
  2
STYLE
  5
3
100
AcDbSymbolTable
 70
1
  0
STYLE
  5
11
100
AcDbSymbolTableRecord
100
AcDbTextStyleTableRecord
  2
STANDARD
 70
0
 40
0.0
 41
0.8
 50
0.0
 71
0
 42
0.2
  3
txt
  4

  0
STYLE
  5
224
100
AcDbSymbolTableRecord
100
AcDbTextStyleTableRecord
  2
TEXTSTYLE_1
 70
0
 40
0.0
 41
0.8
 50
0.0
 71
0
 42
0.2
  3
gdt
  4

  0
ENDTAB
  0
TABLE
  2
VIEW
  5
6
100
AcDbSymbolTable
 70
0
  0
ENDTAB
  0
TABLE
  2
UCS
  5
7
100
AcDbSymbolTable
 70
0
  0
ENDTAB
  0
TABLE
  2
APPID
  5
9
100
AcDbSymbolTable
 70
1
  0
APPID
  5
225
100
AcDbSymbolTableRecord
100
AcDbRegAppTableRecord
  2
ACAD
 70
0
  0
ENDTAB
  0
TABLE
  2
BLOCK_RECORD
  5
1
100
AcDbSymbolTable
 70
0
  0
BLOCK_RECORD
  5
226
100
AcDbSymbolTableRecord
100
AcDbBlockTableRecord
  2
*Model_Space
  0
BLOCK_RECORD
  5
227
100
AcDbSymbolTableRecord
100
AcDbBlockTableRecord
  2
*Paper_Space
  0
BLOCK_RECORD
  5
228
100
AcDbSymbolTableRecord
100
AcDbBlockTableRecord
  2
_FILLED
  0
ENDTAB
  0
TABLE
  2
DIMSTYLE
  5
A
100
AcDbSymbolTable
 70
1
100
AcDbDimStyleTable
 71
0
  0
DIMSTYLE
105
229
100
AcDbSymbolTableRecord
100
AcDbDimStyleTableRecord
  2
STANDARD
 70
0
  3

  4

 40
1.0
 41
3.0
 42
0.5
 43
0.38
 44
1.5
 45
0.0
 46
0.0
 47
0.01
 48
0.01
140
3.0
141
0.09
142
0.0
143
25.4
144
1.0
145
0.0
146
1.0
147
0.625
 71
1
 72
0
 73
0
 74
0
 75
0
 76
0
 77
1
 78
8
 79
2
170
0
171
1
172
0
173
0
174
0
175
0
176
0
177
0
178
0
270
2
179
2
271
2
272
2
273
2
274
2
275
0
280
0
281
0
282
0
283
1
284
8
285
0
286
0
287
3
288
0
340
11
278
44
341
228
342
228
343
228
344
228
  0
ENDTAB
  0
ENDSEC
  0
SECTION
  2
BLOCKS
  0
BLOCK
  5
20
100
AcDbEntity
  8
0
100
AcDbBlockBegin
  2
*Model_Space
 70
0
 10
0.0
 20
0.0
 30
0.0
  3
*Model_Space
  1

  0
ENDBLK
  5
21
100
AcDbEntity
  8
0
100
AcDbBlockEnd
  0
BLOCK
  5
1C
100
AcDbEntity
  8
0
100
AcDbBlockBegin
  2
*Paper_Space
 70
0
 10
0.0
 20
0.0
 30
0.0
  3
*Paper_Space
  1

  0
ENDBLK
  5
1D
100
AcDbEntity
  8
0
100
AcDbBlockEnd
  0
BLOCK
  5
22A
100
AcDbEntity
  8
0
100
AcDbBlockBegin
  2
_FILLED
 70
64
 10
0.0
 20
0.0
  3
_FILLED
  1

  0
SOLID
  5
22B
100
AcDbEntity
  8
0
  6
BYBLOCK
 62
0
100
AcDbTrace
 10
0.0
 20
0.0
 11
-1.0
 21
0.3166666667
 12
-1.0
 22
-0.3166666667
 13
-1.0
 23
-0.3166666667
  0
ENDBLK
  5
22C
100
AcDbEntity
  8
0
  6
BYBLOCK
 62
0
100
AcDbBlockEnd
  0
ENDSEC
  0
SECTION
  2
ENTITIES
  0
LINE
  5
22D
100
AcDbEntity
  8
0
100
AcDbLine
 62
250
  6
CONTINUOUS
 10
-7.7519361644
 20
6.0583689503
 11
-16.2372175387
 21
10.9576640703
  0
LINE
  5
22E
100
AcDbEntity
  8
0
100
AcDbLine
 62
250
  6
CONTINUOUS
 10
-15.2084900986
 20
11.9147317925
 11
-6.7232087244
 21
7.0154366726
  0
LINE
  5
22F
100
AcDbEntity
  8
0
100
AcDbLine
 62
250
  6
CONTINUOUS
 10
-16.2372175387
 20
10.9576640703
 11
-15.2084900986
 21
11.9147317925
  0
LWPOLYLINE
  5
230
100
AcDbEntity
  8
0
100
AcDbPolyline
 62
250
  6
CONTINUOUS
 90
10
 70
0
 10
-6.7232087244
 20
7.0154366726
 10
-6.8382817252
 20
6.9116323788
 10
-6.9531714763
 20
6.8071854662
 10
-7.0678735991
 20
6.7020999115
 10
-7.1823839003
 20
6.5963795353
 10
-7.2966989275
 20
6.4900275334
 10
-7.4108154137
 20
6.3830469451
 10
-7.5247299144
 20
6.2754409912
 10
-7.6384382752
 20
6.1672136174
 10
-7.7519361644
 20
6.0583689503
  0
HATCH
  5
231
100
AcDbEntity
  8
0
100
AcDbHatch
 62
7
  6
CONTINUOUS
 10
0.0
 20
0.0
 30
0.0
210
0.0
220
0.0
230
1.0
  2
XSEC0001
 70
1
 71
1
 91
1
 92
1
 93
4
 72
1
 10
-16.2372175387
 20
10.9576640703
 11
-15.2084900986
 21
11.9147317925
 72
1
 10
-15.2084900986
 20
11.9147317925
 11
-6.7232087244
 21
7.0154366726
 72
4
 94
3
 73
0
 74
0
 95
25
 96
21
 40
0.0
 40
0.0
 40
0.0
 40
0.0
 40
0.0711667125
 40
0.1102903287
 40
0.1814570412
 40
0.2207909739
 40
0.2919576864
 40
0.3314993694
 40
0.4026660819
 40
0.4424131121
 40
0.5135798246
 40
0.5535304792
 40
0.6246971918
 40
0.6648499112
 40
0.7360166237
 40
0.7763696592
 40
0.8475363717
 40
0.8880872447
 40
0.9592539572
 40
1.0
 40
1.0
 40
1.0
 40
1.0
 10
-6.7232087244
 20
7.0154366726
 10
-6.7478885348
 20
6.9930310101
 10
-6.786317329
 20
6.9585080786
 10
-6.8494613005
 20
6.9016185174
 10
-6.901214044
 20
6.8543625164
 10
-6.9642508666
 20
6.7972073654
 10
-7.0159527295
 20
6.7496059628
 10
-7.0788435874
 20
6.6921458891
 10
-7.1305041355
 20
6.6442147039
 10
-7.1932450893
 20
6.5864488952
 10
-7.2448626521
 20
6.5381905005
 10
-7.3074523397
 20
6.4801205106
 10
-7.3590247843
 20
6.4315363719
 10
-7.4214620346
 20
6.3731638394
 10
-7.4729873139
 20
6.3242555227
 10
-7.5352704936
 20
6.2655817197
 10
-7.5867482826
 20
6.2163532036
 10
-7.6488693729
 20
6.1573732264
 10
-7.7003291446
 20
6.1078601693
 10
-7.7381422192
 20
6.0715581343
 10
-7.7519361644
 20
6.0583689503
 97
0
 72
1
 10
-7.7519361644
 20
6.0583689503
 11
-16.2372175387
 21
10.9576640703
 97
4
330
22D
330
22E
330
22F
330
230
 75
0
 76
1
 98
1
 10
0.0
 20
0.0
  0
LWPOLYLINE
  5
232
100
AcDbEntity
  8
ASSI
100
AcDbPolyline
 62
7
  6
CONTINUOUS
 90
16
 70
0
 10
-25.0750786764
 20
24.5767172964
 10
-25.113553068
 20
24.5500798805
 10
-25.1783448553
 20
24.4990933453
 10
-25.2392584827
 20
24.4434447065
 10
-25.2965042489
 20
24.3833871365
 10
-25.3500309063
 20
24.3192395474
 10
-25.3994759044
 20
24.251718404
 10
-25.4447668447
 20
24.1811038595
 10
-25.4857977247
 20
24.1076118648
 10
-25.5221471968
 20
24.032032579
 10
-25.5536682769
 20
23.9545632614
 10
-25.5801775262
 20
23.8754073119
 10
-25.6012752031
 20
23.7952625122
 10
-25.6166947111
 20
23.7143592962
 10
-25.6261515899
 20
23.6326393118
 10
-25.6285749457
 20
23.5893149841
  0
LINE
  5
233
100
AcDbEntity
  8
ASSI
100
AcDbLine
 62
7
  6
CONTINUOUS
 10
-25.0752549042
 20
24.5766196401
 11
-19.4411900528
 21
28.2922324232
  0
LINE
  5
234
100
AcDbEntity
  8
ASSI
100
AcDbLine
 62
250
  6
CONTINUOUS
 10
-24.8184854811
 20
24.5562091569
 11
-19.1830759864
 21
28.2727087195
  0
LWPOLYLINE
  5
235
100
AcDbEntity
  8
ASSI
100
AcDbPolyline
 62
250
  6
CONTINUOUS
 90
15
 70
0
 10
-25.0750871302
 20
24.5767301293
 10
-25.0601418622
 20
24.5854062134
 10
-25.0452314665
 20
24.5920452955
 10
-25.0294921707
 20
24.5972215086
 10
-25.0129771673
 20
24.6009173567
 10
-24.9957422767
 20
24.6031203458
 10
-24.977845748
 20
24.603823029
 10
-24.9593480682
 20
24.6030230297
 10
-24.9403117624
 20
24.6007230517
 10
-24.9208011691
 20
24.5969308684
 10
-24.900882231
 20
24.5916592971
 10
-24.88062228
 20
24.5849261587
 10
-24.8600897945
 20
24.5767542135
 10
-24.8393541674
 20
24.5671710825
 10
-24.8184854811
 20
24.5562091569
  0
LINE
  5
236
100
AcDbEntity
  8
0
100
AcDbLine
 62
7
  6
CONTINUOUS
 10
-13.7734399857
 20
25.1492526914
 11
-12.0056730327
 21
26.2769126598
  0
LINE
  5
237
100
AcDbEntity
  8
ASSI
100
AcDbLine
 62
7
  6
CONTINUOUS
 10
-13.8024182004
 20
27.4524167639
 11
-10.9739910757
 21
29.0855151372
  0
LINE
  5
238
100
AcDbEntity
  8
ASSI
100
AcDbLine
 62
7
  6
CONTINUOUS
 10
-15.3243107083
 20
26.2595737343
 11
-12.4958835836
 21
27.8926721076
  0
LINE
  5
239
100
AcDbEntity
  8
ASSI
100
AcDbLine
 62
7
  6
CONTINUOUS
 10
-14.8032891678
 20
26.3806468614
 11
-11.974862043
 21
28.0137452347
  0
LINE
  5
23A
100
AcDbEntity
  8
0
100
AcDbLine
 62
7
  6
CONTINUOUS
 10
-14.4616934246
 20
26.4447589056
 11
-11.6332662999
 21
28.0778572789
  0
LINE
  5
23B
100
AcDbEntity
  8
0
100
AcDbLine
 62
7
  6
CONTINUOUS
 10
-13.7734399857
 20
26.0473699959
 11
-12.0056730327
 21
27.0680564792
  0
LWPOLYLINE
  5
23C
100
AcDbEntity
  8
ASSI
100
AcDbPolyline
 62
7
  6
CONTINUOUS
 90
15
 70
0
 10
-14.9023382076
 20
26.0838815578
 10
-14.9232979239
 20
26.0737273192
 10
-14.9492881722
 20
26.0654733736
 10
-14.9770803404
 20
26.0612268235
 10
-15.0066287567
 20
26.0608860005
 10
-15.0371724633
 20
26.0644592336
 10
-15.0687367845
 20
26.0720479382
 10
-15.1012963959
 20
26.083550699
 10
-15.1340143677
 20
26.0986715985
 10
-15.1668955452
 20
26.1175050475
 10
-15.1999350829
 20
26.1399566354
 10
-15.2322815147
 20
26.1654472129
 10
-15.2636510185
 20
26.1937837303
 10
-15.2943274164
 20
26.2251592375
 10
-15.3243107083
 20
26.2595737343
  0
LWPOLYLINE
  5
23D
100
AcDbEntity
  8
ASSI
100
AcDbPolyline
 62
7
  6
CONTINUOUS
 90
7
 70
0
 10
-13.8024182004
 20
27.4524167639
 10
-13.590747106
 20
27.5380970108
 10
-13.3766421416
 20
27.6188555152
 10
-13.1601033071
 20
27.6946922771
 10
-12.9411306026
 20
27.7656072965
 10
-12.7197240281
 20
27.8316005733
 10
-12.4958835836
 20
27.8926721076
  0
LINE
  5
23E
100
AcDbEntity
  8
0
100
AcDbLine
 62
7
  6
CONTINUOUS
 10
-9.8843526892
 20
27.313123818
 11
-9.4684582967
 21
27.4812662015
  0
LWPOLYLINE
  5
23F
100
AcDbEntity
  8
ASSI
100
AcDbPolyline
 62
7
  6
CONTINUOUS
 90
5
 70
0
 10
-15.5765622777
 20
26.1903529044
 10
-15.5347210476
 20
26.2023291539
 10
-15.4927995382
 20
26.2141296257
 10
-15.4507977496
 20
26.2257543196
 10
-15.4087156817
 20
26.2372032356
  0
LWPOLYLINE
  5
240
100
AcDbEntity
  8
ASSI
100
AcDbPolyline
 62
7
  6
CONTINUOUS
 90
14
 70
0
 10
-25.6285397345
 20
-10.7335294183
 10
-25.6237651556
 20
-10.7996490496
 10
-25.6141168254
 20
-10.8651672612
 10
-25.5999558916
 20
-10.9276179867
 10
-25.5816072568
 20
-10.9867186623
 10
-25.5593196407
 20
-11.0425006783
 10
-25.5332227687
 20
-11.0951832141
 10
-25.5036354624
 20
-11.1445045984
 10
-25.4708291916
 20
-11.1903481634
 10
-25.4347593287
 20
-11.2329530343
 10
-25.3957109254
 20
-11.2720649353
 10
-25.3539749226
 20
-11.3075115123
 10
-25.3093880284
 20
-11.3394588334
 10
-25.2770844592
 20
-11.3593411001
  0
LINE
  5
241
100
AcDbEntity
  8
ASSI
100
AcDbLine
 62
250
  6
CONTINUOUS
 10
-25.628542086
 20
-10.7335607869
 11
-25.6283034017
 21
-10.7383483499
  0
LWPOLYLINE
  5
242
100
AcDbEntity
  8
ASSI
100
AcDbPolyline
 62
250
  6
CONTINUOUS
 90
16
 70
0
 10
-25.4821172584
 20
-10.9363980549
 10
-25.5585342983
 20
-8.6950663316
 10
-25.6240391565
 20
-6.4467417755
 10
-25.6786297222
 20
-4.1914950704
 10
-25.7223042418
 20
-1.9293954192
 10
-25.7550612781
 20
0.339484383
 10
-25.7768997943
 20
2.6150679016
 10
-25.787819163
 20
4.8972792752
 10
-25.7878191258
 20
7.1860509938
 10
-25.7768996863
 20
9.4813188631
 10
-25.7550611094
 20
11.783015173
 10
-25.7223040303
 20
14.0910632313
 10
-25.678629496
 20
16.4053850945
 10
-25.6240389546
 20
18.7259062002
 10
-25.5585341685
 20
21.0525554177
 10
-25.4821172584
 20
23.3852596208
  0
LWPOLYLINE
  5
243
100
AcDbEntity
  8
ASSI
100
AcDbPolyline
 62
7
  6
CONTINUOUS
 90
10
 70
0
 10
-25.6285695021
 20
23.5895707891
 10
-25.7485716666
 20
19.7522550714
 10
-25.840202844
 20
15.8702987461
 10
-25.9012893855
 20
12.0057091709
 10
-25.9318226262
 20
8.1588717281
 10
-25.9318005092
 20
4.3301047808
 10
-25.9012222498
 20
0.519701648
 10
-25.8400882682
 20
-3.2720213756
 10
-25.748405596
 20
-7.0446888461
 10
-25.628542086
 20
-10.7335607869
  0
LWPOLYLINE
  5
244
100
AcDbEntity
  8
ASSI
100
AcDbPolyline
 62
250
  6
CONTINUOUS
 90
31
 70
0
 10
-25.4821172584
 20
23.3852596208
 10
-25.4798263321
 20
23.426614354
 10
-25.4758501011
 20
23.4687925748
 10
-25.4701966076
 20
23.5116932648
 10
-25.4628779564
 20
23.5552146204
 10
-25.4539103388
 20
23.5992510068
 10
-25.4433143859
 20
23.6436931052
 10
-25.4311144921
 20
23.688435384
 10
-25.4173393678
 20
23.7333682603
 10
-25.4020231769
 20
23.7783749321
 10
-25.385203439
 20
23.8233452688
 10
-25.3669205068
 20
23.8681718025
 10
-25.3472194871
 20
23.9127418062
 10
-25.3261493808
 20
23.9569464665
 10
-25.3037609336
 20
24.0006800215
 10
-25.2801072602
 20
24.0438357255
 10
-25.2552463423
 20
24.0863088073
 10
-25.2292388305
 20
24.1279971984
 10
-25.2021461703
 20
24.1688006371
 10
-25.1740341561
 20
24.2086216012
 10
-25.1449717317
 20
24.2473627399
 10
-25.1150288215
 20
24.2849276793
 10
-25.084278893
 20
24.3212252154
 10
-25.0527969329
 20
24.3561684628
 10
-25.0206581978
 20
24.3896722745
 10
-24.9879418816
 20
24.4216556569
 10
-24.9547273688
 20
24.452041889
 10
-24.9210922544
 20
24.4807575724
 10
-24.8871175153
 20
24.5077333077
 10
-24.852887371
 20
24.5329040738
 10
-24.8184854811
 20
24.5562091569
  0
LINE
  5
245
100
AcDbEntity
  8
0
100
AcDbLine
 62
7
  6
CONTINUOUS
 10
-24.1217888831
 20
14.2670242947
 11
-24.1217550805
 21
14.2670594024
  0
LINE
  5
246
100
AcDbEntity
  8
ASSI
100
AcDbLine
 62
7
  6
CONTINUOUS
 10
-24.1217888462
 20
14.2670243331
 11
-24.1217550797
 21
14.2670594032
  0
LWPOLYLINE
  5
247
100
AcDbEntity
  8
ASSI
100
AcDbPolyline
 62
250
  6
CONTINUOUS
 90
9
 70
0
 10
-23.8854515525
 20
14.2310970802
 10
-23.4458720078
 20
14.6812131006
 10
-23.016731271
 20
15.1080772065
 10
-22.5985468483
 20
15.5123742084
 10
-22.1928377528
 20
15.8938356201
 10
-21.7989920525
 20
16.2541739186
 10
-21.4142132216
 20
16.5968699229
 10
-21.0395029141
 20
16.921849119
 10
-20.7012580101
 20
17.2076145404
  0
LWPOLYLINE
  5
248
100
AcDbEntity
  8
0
100
AcDbPolyline
 62
250
  6
CONTINUOUS
 90
9
 70
0
 10
-23.8854515525
 20
14.2310970802
 10
-23.4458720078
 20
14.6812131006
 10
-23.016731271
 20
15.1080772065
 10
-22.5985468483
 20
15.5123742084
 10
-22.1928377528
 20
15.8938356201
 10
-21.7989920525
 20
16.2541739186
 10
-21.4142132216
 20
16.5968699229
 10
-21.0395029141
 20
16.921849119
 10
-20.7012580101
 20
17.2076145404
  0
LWPOLYLINE
  5
249
100
AcDbEntity
  8
ASSI
100
AcDbPolyline
 62
7
  6
CONTINUOUS
 90
8
 70
0
 10
-20.8650627014
 20
17.3021933163
 10
-21.0582955435
 20
17.1425247653
 10
-21.5874905091
 20
16.6882651006
 10
-22.1131704796
 20
16.219951412
 10
-22.6350158177
 20
15.7378849112
 10
-23.15269647
 20
15.2423805218
 10
-23.6658363042
 20
14.7338211535
 10
-24.1217069234
 20
14.2671095107
  0
LWPOLYLINE
  5
24A
100
AcDbEntity
  8
0
100
AcDbPolyline
 62
7
  6
CONTINUOUS
 90
8
 70
0
 10
-20.8650626785
 20
17.302193303
 10
-21.0573210341
 20
17.1433455715
 10
-21.5872665414
 20
16.6884609784
 10
-22.1136869902
 20
16.2194827911
 10
-22.636261479
 20
15.7367134357
 10
-23.1546585225
 20
15.2404692554
 10
-23.6685002649
 20
14.7311349806
 10
-24.1217069612
 20
14.2671094715
  0
LWPOLYLINE
  5
24B
100
AcDbEntity
  8
ASSI
100
AcDbPolyline
 62
250
  6
CONTINUOUS
 90
10
 70
0
 10
-24.1217550797
 20
14.2670594032
 10
-24.1107932844
 20
14.276056695
 10
-24.093071231
 20
14.2844144734
 10
-24.0720725969
 20
14.2884782992
 10
-24.0476003826
 20
14.2884361863
 10
-24.0196323877
 20
14.2846739678
 10
-23.9893744331
 20
14.2769092213
 10
-23.9572572969
 20
14.2652067378
 10
-23.9227175157
 20
14.2499133922
 10
-23.8854515557
 20
14.2310970769
  0
LWPOLYLINE
  5
24C
100
AcDbEntity
  8
0
100
AcDbPolyline
 62
250
  6
CONTINUOUS
 90
10
 70
0
 10
-24.1217550805
 20
14.2670594024
 10
-24.1107932844
 20
14.276056695
 10
-24.093071231
 20
14.2844144734
 10
-24.0720725969
 20
14.2884782992
 10
-24.0476003826
 20
14.2884361863
 10
-24.0196323877
 20
14.2846739678
 10
-23.9893744331
 20
14.2769092213
 10
-23.9572572969
 20
14.2652067378
 10
-23.9227175157
 20
14.2499133922
 10
-23.8854515557
 20
14.2310970769
  0
LINE
  5
24D
100
AcDbEntity
  8
RACCORDO
100
AcDbLine
 62
250
  6
CONTINUOUS
 10
-21.8182191297
 20
17.8525338921
 11
-21.9638242341
 21
17.7727899264
  0
LINE
  5
24E
100
AcDbEntity
  8
RACCORDO
100
AcDbLine
 62
250
  6
CONTINUOUS
 10
-6.0322046657
 20
26.4526815525
 11
-5.9710635313
 21
26.4861668931
  0
LWPOLYLINE
  5
24F
100
AcDbEntity
  8
RACCORDO
100
AcDbPolyline
 62
250
  6
CONTINUOUS
 90
10
 70
0
 10
-5.9710635313
 20
26.4861668931
 10
-5.9404328591
 20
26.502007692
 10
-5.9100559444
 20
26.5146434651
 10
-5.8801614139
 20
26.5239791116
 10
-5.8509742635
 20
26.5299443682
 10
-5.8227141655
 20
26.5324943385
 10
-5.7955938147
 20
26.5316098307
 10
-5.7698173277
 20
26.5272975016
 10
-5.7455787069
 20
26.5195898075
 10
-5.7241367475
 20
26.509171615
  0
LWPOLYLINE
  5
250
100
AcDbEntity
  8
ASSI
100
AcDbPolyline
 62
250
  6
CONTINUOUS
 90
14
 70
0
 10
-25.6283034017
 20
-10.7383483499
 10
-25.6263870184
 20
-10.7555748472
 10
-25.6228243698
 20
-10.7726680118
 10
-25.617627244
 20
-10.7895712825
 10
-25.6108128384
 20
-10.806228725
 10
-25.6024037015
 20
-10.8225852197
 10
-25.592427659
 20
-10.8385866428
 10
-25.5809177223
 20
-10.8541800443
 10
-25.567911978
 20
-10.8693138255
 10
-25.5534534623
 20
-10.8839379087
 10
-25.5375900197
 20
-10.8980039017
 10
-25.5203741432
 20
-10.9114652599
 10
-25.5018628004
 20
-10.92427744
 10
-25.4821172456
 20
-10.9363980469
  0
LWPOLYLINE
  5
251
100
AcDbEntity
  8
ASSI
100
AcDbPolyline
 62
250
  6
CONTINUOUS
 90
15
 70
0
 10
-25.6285782497
 20
23.5893150975
 10
-25.6282998379
 20
23.5737420762
 10
-25.6263832054
 20
23.5578421751
 10
-25.6228203332
 20
23.5419893209
 10
-25.617623014
 20
23.5262359694
 10
-25.6108084483
 20
23.5106342473
 10
-25.6023991885
 20
23.49523578
 10
-25.5924230634
 20
23.4800915195
 10
-25.5809130851
 20
23.4652515756
 10
-25.5679073422
 20
23.4507650525
 10
-25.5534488721
 20
23.4366798845
 10
-25.5375855171
 20
23.4230426757
 10
-25.5203697687
 20
23.4098985497
 10
-25.5018585949
 20
23.3972909996
 10
-25.4821132494
 20
23.3852617421
  0
LWPOLYLINE
  5
252
100
AcDbEntity
  8
RACCORDO
100
AcDbPolyline
 62
250
  6
CONTINUOUS
 90
19
 70
0
 10
-22.3844036801
 20
17.7830927979
 10
-22.3815720419
 20
17.8254890968
 10
-22.375613811
 20
17.865318957
 10
-22.3665291849
 20
17.9025822717
 10
-22.3541873497
 20
17.9376068818
 10
-22.338719438
 20
17.9700647738
 10
-22.3205188584
 20
17.9989719022
 10
-22.2995402143
 20
18.0241490601
 10
-22.2758298294
 20
18.0457749545
 10
-22.2499191132
 20
18.0634021841
 10
-22.2217721359
 20
18.0769553828
 10
-22.1914258492
 20
18.0865093664
 10
-22.1595211714
 20
18.0918419057
 10
-22.1259402455
 20
18.0928288267
 10
-22.0908018067
 20
18.0895938307
 10
-22.0551017022
 20
18.082286481
 10
-22.019172068
 20
18.0709565314
 10
-21.9826812815
 20
18.0555539518
 10
-21.9456294693
 20
18.0360786742
  0
LWPOLYLINE
  5
253
100
AcDbEntity
  8
RACCORDO
100
AcDbPolyline
 62
250
  6
CONTINUOUS
 90
9
 70
0
 10
-21.9640088985
 20
17.7726887907
 10
-21.962129689
 20
17.7938963548
 10
-21.958654935
 20
17.8141451835
 10
-21.9535804861
 20
17.8332707223
 10
-21.9468908306
 20
17.8511527052
 10
-21.9386241502
 20
17.8675923033
 10
-21.9289024004
 20
17.8823460966
 10
-21.91782359
 20
17.8952834514
 10
-21.9093834933
 20
17.9028328383
  0
LINE
  5
254
100
AcDbEntity
  8
0
100
AcDbLine
 62
7
  6
CONTINUOUS
 10
-9.5307992986
 20
23.5977224359
 11
-7.7630323456
 21
24.6184089192
  0
LINE
  5
255
100
AcDbEntity
  8
0
100
AcDbLine
 62
7
  6
CONTINUOUS
 10
-8.8425458597
 20
23.2003335261
 11
-6.014118735
 21
24.8334318994
  0
LINE
  5
256
100
AcDbEntity
  8
ASSI
100
AcDbLine
 62
7
  6
CONTINUOUS
 10
-8.5009501165
 20
22.74175528
 11
-5.6725229918
 21
24.3748536533
  0
LWPOLYLINE
  5
257
100
AcDbEntity
  8
RACCORDO
100
AcDbPolyline
 62
250
  6
CONTINUOUS
 90
4
 70
0
 10
1.8530174329
 20
-23.1238111603
 10
1.8433562626
 20
-23.1250821405
 10
1.8276125173
 20
-23.1249764381
 10
1.8110939519
 20
-23.1227977884
  0
LWPOLYLINE
  5
258
100
AcDbEntity
  8
ASSI
100
AcDbPolyline
 62
250
  6
CONTINUOUS
 90
16
 70
0
 10
-25.2801072573
 20
-11.3575896256
 10
-25.3037609307
 20
-11.3422293189
 10
-25.3261493779
 20
-11.3248059098
 10
-25.3472194842
 20
-11.3053609476
 10
-25.366920504
 20
-11.2839410441
 10
-25.3852034363
 20
-11.260598978
 10
-25.4020231743
 20
-11.2353931786
 10
-25.4173393652
 20
-11.2083845937
 10
-25.4311144896
 20
-11.1796399492
 10
-25.4433143835
 20
-11.1492341516
 10
-25.4539103365
 20
-11.1172431638
 10
-25.4628779543
 20
-11.0837448133
 10
-25.4701966059
 20
-11.0488235486
 10
-25.4758501001
 20
-11.0125659585
 10
-25.4798263317
 20
-10.9750602168
 10
-25.4821172584
 20
-10.9363980549
  0
LWPOLYLINE
  5
259
100
AcDbEntity
  8
ASSI
100
AcDbPolyline
 62
250
  6
CONTINUOUS
 90
9
 70
0
 10
-21.5330869033
 20
-8.7744731373
 10
-21.5322057555
 20
-8.7871061538
 10
-21.5262955236
 20
-8.817785639
 10
-21.5150159205
 20
-8.8481345696
 10
-21.4985144908
 20
-8.8771311977
 10
-21.477301738
 20
-8.9045646961
 10
-21.4516955719
 20
-8.9304645122
 10
-21.4215551251
 20
-8.9545849303
 10
-21.3866850096
 20
-8.9766429814
  0
LWPOLYLINE
  5
25A
100
AcDbEntity
  8
0
100
AcDbPolyline
 62
250
  6
CONTINUOUS
 90
9
 70
0
 10
-21.5330869033
 20
-8.7744731375
 10
-21.5322057555
 20
-8.7871061538
 10
-21.5262955236
 20
-8.817785639
 10
-21.5150159205
 20
-8.8481345696
 10
-21.4985144908
 20
-8.8771311977
 10
-21.477301738
 20
-8.9045646961
 10
-21.4516955719
 20
-8.9304645122
 10
-21.4215551251
 20
-8.9545849303
 10
-21.3866850096
 20
-8.9766429814
  0
LWPOLYLINE
  5
25B
100
AcDbEntity
  8
ASSI
100
AcDbPolyline
 62
250
  6
CONTINUOUS
 90
9
 70
0
 10
-21.7777558312
 20
2.3814227997
 10
-21.7768507713
 20
2.3655453034
 10
-21.7710537158
 20
2.3356700748
 10
-21.7599707317
 20
2.3063385713
 10
-21.7437205848
 20
2.2778651102
 10
-21.7224774121
 20
2.2505548139
 10
-21.6964688561
 20
2.2247003403
 10
-21.6659736254
 20
2.2005787468
 10
-21.6313185077
 20
2.1784485211
  0
LWPOLYLINE
  5
25C
100
AcDbEntity
  8
0
100
AcDbPolyline
 62
250
  6
CONTINUOUS
 90
9
 70
0
 10
-21.7777558312
 20
2.3814227998
 10
-21.7768507713
 20
2.3655453034
 10
-21.7710537158
 20
2.3356700748
 10
-21.7599707317
 20
2.3063385713
 10
-21.7437205848
 20
2.2778651102
 10
-21.7224774121
 20
2.2505548139
 10
-21.6964688561
 20
2.2247003403
 10
-21.6659736254
 20
2.2005787468
 10
-21.6313185077
 20
2.1784485211
  0
LINE
  5
25D
100
AcDbEntity
  8
0
100
AcDbLine
 62
7
  6
CONTINUOUS
 10
-21.5717074205
 20
-7.5958346199
 11
-21.5330839041
 21
-8.7745618175
  0
LWPOLYLINE
  5
25E
100
AcDbEntity
  8
ASSI
100
AcDbPolyline
 62
250
  6
CONTINUOUS
 90
10
 70
0
 10
-21.3866850095
 20
-8.9766429813
 10
-21.4269579642
 20
-7.7454184861
 10
-21.4639585291
 20
-6.5121150812
 10
-21.4976864355
 20
-5.2767444177
 10
-21.5281412828
 20
-4.0393259303
 10
-21.5553230695
 20
-2.7998635677
 10
-21.5792319838
 20
-1.5583456667
 10
-21.5998677942
 20
-0.3147760377
 10
-21.6172300584
 20
0.930825909
 10
-21.6323204655
 20
2.2506149628
  0
LWPOLYLINE
  5
25F
100
AcDbEntity
  8
0
100
AcDbPolyline
 62
250
  6
CONTINUOUS
 90
10
 70
0
 10
-21.3866850095
 20
-8.9766429813
 10
-21.4269579642
 20
-7.7454184861
 10
-21.4639585291
 20
-6.5121150812
 10
-21.4976864355
 20
-5.2767444177
 10
-21.5281412828
 20
-4.0393259303
 10
-21.5553230695
 20
-2.7998635677
 10
-21.5792319838
 20
-1.5583456667
 10
-21.5998677942
 20
-0.3147760377
 10
-21.6172300584
 20
0.930825909
 10
-21.6323204655
 20
2.2506149628
  0
LWPOLYLINE
  5
260
100
AcDbEntity
  8
RACCORDO
100
AcDbPolyline
 62
250
  6
CONTINUOUS
 90
6
 70
0
 10
-21.9640098337
 20
-9.1814925158
 10
-22.0366034159
 20
-6.5394324408
 10
-22.0922391871
 20
-3.8139887775
 10
-22.1309171474
 20
-1.005161526
 10
-22.1542316171
 20
1.8806073661
 10
-22.1605788467
 20
4.8453556251
  0
LWPOLYLINE
  5
261
100
AcDbEntity
  8
RACCORDO
100
AcDbPolyline
 62
250
  6
CONTINUOUS
 90
7
 70
0
 10
-22.3844370432
 20
-9.1872916834
 10
-22.4548490411
 20
-6.5425959194
 10
-22.5109456984
 20
-3.8157622666
 10
-22.5514298549
 20
-1.0061333507
 10
-22.574970435
 20
1.8812710601
 10
-22.5802739527
 20
4.852741434
 10
-22.5723570585
 20
6.5250176243
  0
LWPOLYLINE
  5
262
100
AcDbEntity
  8
ASSI
100
AcDbPolyline
 62
250
  6
CONTINUOUS
 90
27
 70
0
 10
-21.6323204655
 20
2.2506149628
 10
-21.6338548925
 20
2.3217783255
 10
-21.6359063092
 20
2.3919423679
 10
-21.6384499123
 20
2.4608821634
 10
-21.6414764143
 20
2.5288330723
 10
-21.6450093592
 20
2.5964797631
 10
-21.6490648218
 20
2.6640584869
 10
-21.6536312517
 20
2.7313198144
 10
-21.6587051699
 20
2.7982107741
 10
-21.6642834489
 20
2.8647003447
 10
-21.6703671752
 20
2.9308106117
 10
-21.6769587704
 20
2.9965685328
 10
-21.684062387
 20
3.0620074436
 10
-21.6916741127
 20
3.1270834919
 10
-21.6997829702
 20
3.191708806
 10
-21.708356368
 20
3.2556599699
 10
-21.7174188307
 20
3.3191560616
 10
-21.7270568395
 20
3.3827640597
 10
-21.7372668032
 20
3.4463760923
 10
-21.7480738052
 20
3.5100729254
 10
-21.7596422844
 20
3.574677134
 10
-21.772010935
 20
3.640182652
 10
-21.7852083377
 20
3.7065296292
 10
-21.7994258924
 20
3.7744251363
 10
-21.8147742429
 20
3.8440608412
 10
-21.8312607576
 20
3.9151312977
 10
-21.8489442736
 20
3.9875775577
  0
LWPOLYLINE
  5
263
100
AcDbEntity
  8
0
100
AcDbPolyline
 62
250
  6
CONTINUOUS
 90
27
 70
0
 10
-21.6323204655
 20
2.2506149628
 10
-21.6338548925
 20
2.3217783255
 10
-21.6359063092
 20
2.3919423679
 10
-21.6384499123
 20
2.4608821634
 10
-21.6414764143
 20
2.5288330723
 10
-21.6450093592
 20
2.5964797631
 10
-21.6490648218
 20
2.6640584869
 10
-21.6536312517
 20
2.7313198144
 10
-21.6587051699
 20
2.7982107741
 10
-21.6642834489
 20
2.8647003447
 10
-21.6703671752
 20
2.9308106117
 10
-21.6769587704
 20
2.9965685328
 10
-21.684062387
 20
3.0620074436
 10
-21.6916741127
 20
3.1270834919
 10
-21.6997829702
 20
3.191708806
 10
-21.708356368
 20
3.2556599699
 10
-21.7174188307
 20
3.3191560616
 10
-21.7270568395
 20
3.3827640597
 10
-21.7372668032
 20
3.4463760923
 10
-21.7480738052
 20
3.5100729254
 10
-21.7596422844
 20
3.574677134
 10
-21.772010935
 20
3.640182652
 10
-21.7852083377
 20
3.7065296292
 10
-21.7994258924
 20
3.7744251363
 10
-21.8147742429
 20
3.8440608412
 10
-21.8312607576
 20
3.9151312977
 10
-21.8489442736
 20
3.9875775577
  0
LINE
  5
264
100
AcDbEntity
  8
ASSI
100
AcDbLine
 62
7
  6
CONTINUOUS
 10
-21.7808190374
 20
2.544939613
 11
-21.7777559164
 21
2.3814313613
  0
LINE
  5
265
100
AcDbEntity
  8
0
100
AcDbLine
 62
7
  6
CONTINUOUS
 10
-21.780783709
 20
2.5430537965
 11
-21.7777559217
 21
2.3814319
  0
LWPOLYLINE
  5
266
100
AcDbEntity
  8
0
100
AcDbPolyline
 62
7
  6
CONTINUOUS
 90
8
 70
0
 10
-21.7642613496
 20
1.181390395
 10
-21.7468200608
 20
-0.0777309492
 10
-21.7260064541
 20
-1.3362321317
 10
-21.7018406373
 20
-2.5926606217
 10
-21.6743228163
 20
-3.8470049936
 10
-21.6434531919
 20
-5.0992547766
 10
-21.6092320015
 20
-6.3493985589
 10
-21.5717074205
 20
-7.5958346199
  0
LWPOLYLINE
  5
267
100
AcDbEntity
  8
ASSI
100
AcDbPolyline
 62
7
  6
CONTINUOUS
 90
10
 70
0
 10
-21.7777558312
 20
2.3814227997
 10
-21.7642443205
 20
1.1798760391
 10
-21.7467888104
 20
-0.0797873987
 10
-21.7259856578
 20
-1.33739483
 10
-21.7018350408
 20
-2.5929324936
 10
-21.6743371648
 20
-3.8463889887
 10
-21.6434922304
 20
-5.097753864
 10
-21.6093004742
 20
-6.3470157328
 10
-21.571762262
 20
-7.5941609452
 10
-21.5330839041
 20
-8.7745618173
  0
LINE
  5
268
100
AcDbEntity
  8
0
100
AcDbLine
 62
7
  6
CONTINUOUS
 10
-21.7777558312
 20
2.3814227998
 11
-21.7642613496
 21
1.181390395
  0
LWPOLYLINE
  5
269
100
AcDbEntity
  8
RACCORDO
100
AcDbPolyline
 62
250
  6
CONTINUOUS
 90
16
 70
0
 10
-21.9456293981
 20
-9.9142371215
 10
-21.9452013621
 20
-9.8879401811
 10
-21.9423793729
 20
-9.8604608723
 10
-21.9371953602
 20
-9.8321101143
 10
-21.9297079795
 20
-9.8032086864
 10
-21.920001948
 20
-9.7740835988
 10
-21.9081870862
 20
-9.7450643919
 10
-21.8943970753
 20
-9.7164794086
 10
-21.8787879446
 20
-9.6886520783
 10
-21.8615363063
 20
-9.661897258
 10
-21.8428373569
 20
-9.6365176695
 10
-21.8229026689
 20
-9.6128004744
 10
-21.8019577964
 20
-9.5910140249
 10
-21.7802397238
 20
-9.5714048274
 10
-21.7579941838
 20
-9.5541947534
 10
-21.7354728773
 20
-9.5395785291
  0
LINE
  5
26A
100
AcDbEntity
  8
RACCORDO
100
AcDbLine
 62
250
  6
CONTINUOUS
 10
-21.9990495011
 20
16.3216111981
 11
-21.9638242341
 21
17.7727899264
  0
LINE
  5
26B
100
AcDbEntity
  8
RACCORDO
100
AcDbLine
 62
250
  6
CONTINUOUS
 10
-22.4310838913
 20
15.9262623974
 11
-22.3844036801
 21
17.7830927979
  0
LINE
  5
26C
100
AcDbEntity
  8
0
100
AcDbLine
 62
7
  6
CONTINUOUS
 10
-5.2090782571
 20
25.0219535492
 11
-5.5002906458
 21
24.7818213394
  0
LINE
  5
26D
100
AcDbEntity
  8
0
100
AcDbLine
 62
7
  6
CONTINUOUS
 10
-4.10247118
 20
25.1179856698
 11
-5.5002906458
 21
23.9653510626
  0
LINE
  5
26E
100
AcDbEntity
  8
ASSI
100
AcDbLine
 62
7
  6
CONTINUOUS
 10
-7.979928576
 20
22.0190195378
 11
-5.1515014512
 21
23.6521179111
  0
LINE
  5
26F
100
AcDbEntity
  8
ASSI
100
AcDbLine
 62
7
  6
CONTINUOUS
 10
-3.8449668344
 20
21.7031091413
 11
-1.0165397096
 21
23.3362075146
  0
LINE
  5
270
100
AcDbEntity
  8
IMPORT_IGES
100
AcDbLine
 62
7
  6
CONTINUOUS
 10
-2.0095472847
 20
24.3644142139
 11
8.2343571243
 21
28.9263310577
  0
LINE
  5
271
100
AcDbEntity
  8
IMPORT_IGES
100
AcDbLine
 62
250
  6
CONTINUOUS
 10
-1.8750962863
 20
24.2867838925
 11
8.4529892577
 21
28.8862228004
  0
LWPOLYLINE
  5
272
100
AcDbEntity
  8
RACCORDO
100
AcDbPolyline
 62
250
  6
CONTINUOUS
 90
4
 70
0
 10
1.8110939519
 20
-23.1227977884
 10
1.7940088283
 20
-23.118593559
 10
1.7765273002
 20
-23.1124369095
 10
1.7587681903
 20
-23.1043869661
  0
LWPOLYLINE
  5
273
100
AcDbEntity
  8
ASSI
100
AcDbPolyline
 62
250
  6
CONTINUOUS
 90
28
 70
0
 10
5.2777844234
 20
-28.6967797648
 10
5.2986976915
 20
-28.7081350468
 10
5.3207106504
 20
-28.7187210719
 10
5.3437504597
 20
-28.7285028096
 10
5.367740883
 20
-28.7374478918
 10
5.392602534
 20
-28.7455267169
 10
5.418253138
 20
-28.752712549
 10
5.444607816
 20
-28.7589816096
 10
5.4715793594
 20
-28.7643131539
 10
5.4990785105
 20
-28.7686895383
 10
5.5270142732
 20
-28.7720962818
 10
5.5552942066
 20
-28.774522112
 10
5.5838247225
 20
-28.7759590021
 10
5.6125114144
 20
-28.7764021988
 10
5.6412593546
 20
-28.775850237
 10
5.6699734006
 20
-28.7743049457
 10
5.6985585393
 20
-28.7717714411
 10
5.7269201803
 20
-28.7682581099
 10
5.7549644549
 20
-28.7637765842
 10
5.7825985667
 20
-28.7583416986
 10
5.809731077
 20
-28.751971442
 10
5.8362721883
 20
-28.7446869041
 10
5.8621340819
 20
-28.7365121961
 10
5.8872311878
 20
-28.7274743742
 10
5.9114804498
 20
-28.7176033579
 10
5.9348016324
 20
-28.7069318203
 10
5.9571175843
 20
-28.6954950776
 10
5.9783544754
 20
-28.6833309797
  0
LWPOLYLINE
  5
274
100
AcDbEntity
  8
ASSI
100
AcDbPolyline
 62
7
  6
CONTINUOUS
 90
14
 70
0
 10
5.4858432494
 20
-29.1214693411
 10
5.5123709026
 20
-29.1360136584
 10
5.5645783239
 20
-29.1603588372
 10
5.6185581697
 20
-29.1801366374
 10
5.6745092332
 20
-29.1954009022
 10
5.7320843928
 20
-29.2059894535
 10
5.7908860758
 20
-29.2117816341
 10
5.8511454142
 20
-29.2126897237
 10
5.9126005089
 20
-29.208519693
 10
5.9748244182
 20
-29.1991260014
 10
6.0379274604
 20
-29.184301088
 10
6.1017935108
 20
-29.1637952035
 10
6.1659814045
 20
-29.1374440897
 10
6.1943082309
 20
-29.1239275889
  0
LINE
  5
275
100
AcDbEntity
  8
ASSI
100
AcDbLine
 62
7
  6
CONTINUOUS
 10
5.4860439667
 20
-29.1215962896
 11
-25.2774620997
 21
-11.3591334441
  0
LINE
  5
276
100
AcDbEntity
  8
ASSI
100
AcDbLine
 62
250
  6
CONTINUOUS
 10
5.2777844159
 20
-28.6967797695
 11
-25.4821172584
 21
-10.9363980549
  0
LINE
  5
277
100
AcDbEntity
  8
ASSI
100
AcDbLine
 62
250
  6
CONTINUOUS
 10
-25.2774617746
 20
-11.3591336318
 11
-25.2801072573
 21
-11.3575896256
  0
LWPOLYLINE
  5
278
100
AcDbEntity
  8
ASSI
100
AcDbPolyline
 62
250
  6
CONTINUOUS
 90
16
 70
0
 10
5.4858421506
 20
-29.1214796711
 10
5.4594016788
 20
-29.1045096279
 10
5.4366191302
 20
-29.0868749115
 10
5.4151774483
 20
-29.0672333209
 10
5.3951278333
 20
-29.0456315929
 10
5.3765189149
 20
-29.0221220316
 10
5.359397328
 20
-28.9967629418
 10
5.3438044122
 20
-28.9696160249
 10
5.3297771719
 20
-28.9407465518
 10
5.3173500615
 20
-28.9102249155
 10
5.3065530587
 20
-28.8781255739
 10
5.2974116795
 20
-28.8445256491
 10
5.289948051
 20
-28.8095050716
 10
5.2841803549
 20
-28.7731479353
 10
5.2801225139
 20
-28.7355425323
 10
5.2777844159
 20
-28.6967797695
  0
LWPOLYLINE
  5
279
100
AcDbEntity
  8
0
100
AcDbPolyline
 62
7
  6
CONTINUOUS
 90
8
 70
0
 10
-24.0208490575
 20
12.7719462508
 10
-23.7769672094
 20
11.6797091785
 10
-23.5295390819
 20
10.5890612412
 10
-23.278846006
 20
9.5012624296
 10
-23.0248902489
 20
8.4163226212
 10
-22.7676738986
 20
7.3342508513
 10
-22.5071992535
 20
6.2550569762
 10
-22.2438047466
 20
5.180122356
  0
LWPOLYLINE
  5
27A
100
AcDbEntity
  8
ASSI
100
AcDbPolyline
 62
7
  6
CONTINUOUS
 90
10
 70
0
 10
-24.2498934975
 20
13.8138992788
 10
-24.0205600243
 20
12.7706314014
 10
-23.7765659021
 20
11.6779261893
 10
-23.5293087985
 20
10.5880541441
 10
-23.2787913704
 20
9.5010271994
 10
-23.0250158801
 20
8.4168552115
 10
-22.7679844116
 20
7.3355471986
 10
-22.5076992584
 20
6.2571129955
 10
-22.2441632607
 20
5.181564381
 10
-21.9913162522
 20
4.1645562827
  0
LINE
  5
27B
100
AcDbEntity
  8
0
100
AcDbLine
 62
7
  6
CONTINUOUS
 10
-24.2498934976
 20
13.813899279
 11
-24.0208490575
 21
12.7719462508
  0
LWPOLYLINE
  5
27C
100
AcDbEntity
  8
0
100
AcDbPolyline
 62
7
  6
CONTINUOUS
 90
8
 70
0
 10
-21.9576467476
 20
4.0230101186
 10
-21.9164461536
 20
3.8266083605
 10
-21.8803075121
 20
3.624079891
 10
-21.8495096791
 20
3.4166377449
 10
-21.8241086442
 20
3.2044739327
 10
-21.8041539101
 20
2.9878034363
 10
-21.7896843349
 20
2.7668261018
 10
-21.780783709
 20
2.5430537965
  0
LWPOLYLINE
  5
27D
100
AcDbEntity
  8
ASSI
100
AcDbPolyline
 62
250
  6
CONTINUOUS
 90
16
 70
0
 10
-24.1063127757
 20
13.6316981833
 10
-24.112143759
 20
13.6667455063
 10
-24.1147735352
 20
13.7041083425
 10
-24.1141781039
 20
13.743445703
 10
-24.1103628993
 20
13.784398579
 10
-24.1033627405
 20
13.8265932175
 10
-24.0932415139
 20
13.8696445328
 10
-24.08009159
 20
13.9131596208
 10
-24.0640329805
 20
13.9567413448
 10
-24.0452122427
 20
13.9999919602
 10
-24.0238011424
 20
14.042516744
 10
-23.9999950863
 20
14.0839275975
 10
-23.9740113382
 20
14.1238465879
 10
-23.9460870367
 20
14.161909398
 10
-23.9164770304
 20
14.1977686509
 10
-23.8854515525
 20
14.2310970802
  0
LWPOLYLINE
  5
27E
100
AcDbEntity
  8
0
100
AcDbPolyline
 62
250
  6
CONTINUOUS
 90
16
 70
0
 10
-24.1063127757
 20
13.6316981833
 10
-24.112143759
 20
13.6667455063
 10
-24.1147735352
 20
13.7041083425
 10
-24.1141781039
 20
13.743445703
 10
-24.1103628993
 20
13.784398579
 10
-24.1033627405
 20
13.8265932175
 10
-24.0932415139
 20
13.8696445328
 10
-24.08009159
 20
13.9131596208
 10
-24.0640329805
 20
13.9567413448
 10
-24.0452122427
 20
13.9999919602
 10
-24.0238011424
 20
14.042516744
 10
-23.9999950863
 20
14.0839275975
 10
-23.9740113382
 20
14.1238465879
 10
-23.9460870367
 20
14.161909398
 10
-23.9164770304
 20
14.1977686509
 10
-23.8854515525
 20
14.2310970802
  0
LWPOLYLINE
  5
27F
100
AcDbEntity
  8
CURVE
100
AcDbPolyline
 62
250
  6
CONTINUOUS
 90
7
 70
0
 10
-16.2372175387
 20
10.9576640703
 10
-16.0965711421
 20
11.0924229786
 10
-15.9556043932
 20
11.226231798
 10
-15.7435686429
 20
11.4251493569
 10
-15.6018311053
 20
11.5565545236
 10
-15.3886715129
 20
11.7518364538
 10
-15.2084901038
 20
11.9147317879
  0
LINE
  5
280
100
AcDbEntity
  8
RACCORDO
100
AcDbLine
 62
7
  6
CONTINUOUS
 10
-0.7190298919
 20
21.8336193449
 11
-4.3117419839
 21
19.6861868481
  0
LINE
  5
281
100
AcDbEntity
  8
RACCORDO
100
AcDbLine
 62
250
  6
CONTINUOUS
 10
1.7587681903
 20
-23.1043869661
 11
1.7408730749
 21
-23.0945264542
  0
LINE
  5
282
100
AcDbEntity
  8
RACCORDO
100
AcDbLine
 62
250
  6
CONTINUOUS
 10
-21.9456294695
 20
-9.91423707
 11
1.5307166229
 21
-23.4691850763
  0
LINE
  5
283
100
AcDbEntity
  8
RACCORDO
100
AcDbLine
 62
250
  6
CONTINUOUS
 10
-21.7354728773
 20
-9.5395785291
 11
1.7408730749
 21
-23.0945264542
  0
LINE
  5
284
100
AcDbEntity
  8
ASSI
100
AcDbLine
 62
7
  6
CONTINUOUS
 10
-21.2833859014
 20
-9.1905430565
 11
1.0369082539
 21
-22.0780011628
  0
LINE
  5
285
100
AcDbEntity
  8
0
100
AcDbLine
 62
7
  6
CONTINUOUS
 10
-21.2833859014
 20
-9.1905430565
 11
1.0369082539
 21
-22.0780011628
  0
LINE
  5
286
100
AcDbEntity
  8
ASSI
100
AcDbLine
 62
250
  6
CONTINUOUS
 10
-21.3866850095
 20
-8.9766429813
 11
0.9336091458
 21
-21.8641010876
  0
LINE
  5
287
100
AcDbEntity
  8
0
100
AcDbLine
 62
250
  6
CONTINUOUS
 10
-21.3866850095
 20
-8.9766429813
 11
0.9336091458
 21
-21.8641010876
  0
LWPOLYLINE
  5
288
100
AcDbEntity
  8
RACCORDO
100
AcDbPolyline
 62
250
  6
CONTINUOUS
 90
19
 70
0
 10
-21.7354728773
 20
-9.5395785291
 10
-21.7540250831
 20
-9.5284009209
 10
-21.7726300836
 20
-9.5154749463
 10
-21.7911520901
 20
-9.5008713996
 10
-21.809498997
 20
-9.4846443016
 10
-21.8274819251
 20
-9.4669222649
 10
-21.8448291905
 20
-9.4479377119
 10
-21.8613818874
 20
-9.4278930086
 10
-21.877062127
 20
-9.4069060293
 10
-21.8917400049
 20
-9.38511976
 10
-21.9053077453
 20
-9.3627170931
 10
-21.9176787657
 20
-9.3398645863
 10
-21.9287600748
 20
-9.3166842061
 10
-21.9384875066
 20
-9.2933103645
 10
-21.9467666301
 20
-9.2699741785
 10
-21.9534856268
 20
-9.2469419555
 10
-21.9585994063
 20
-9.2244182736
 10
-21.9621090748
 20
-9.2025470373
 10
-21.9640088985
 20
-9.1814919852
  0
LWPOLYLINE
  5
289
100
AcDbEntity
  8
RACCORDO
100
AcDbPolyline
 62
250
  6
CONTINUOUS
 90
19
 70
0
 10
-21.9456294695
 20
-9.91423707
 10
-21.9824979334
 20
-9.8911977388
 10
-22.0188524016
 20
-9.8649556062
 10
-22.0546927487
 20
-9.8355105949
 10
-22.0903622053
 20
-9.8025354696
 10
-22.1255170297
 20
-9.7663571503
 10
-22.1591265542
 20
-9.7279567406
 10
-22.1910690595
 20
-9.6873396127
 10
-22.2214653839
 20
-9.6444998512
 10
-22.2496487384
 20
-9.6004016543
 10
-22.2755654787
 20
-9.5550415495
 10
-22.2992682378
 20
-9.5084223861
 10
-22.3202498287
 20
-9.4615179612
 10
-22.3384714526
 20
-9.4142358601
 10
-22.3539709854
 20
-9.3666679293
 10
-22.3663566378
 20
-9.3200645944
 10
-22.3754977838
 20
-9.2748426462
 10
-22.3815246625
 20
-9.2305850563
 10
-22.3844370432
 20
-9.1872916834
  0
LWPOLYLINE
  5
28A
100
AcDbEntity
  8
RACCORDO
100
AcDbPolyline
 62
250
  6
CONTINUOUS
 90
9
 70
0
 10
1.9409496417
 20
-23.2325623984
 10
1.9201565656
 20
-23.2191876684
 10
1.9018579108
 20
-23.2045579357
 10
1.886249737
 20
-23.1888299497
 10
1.8734992772
 20
-23.172172227
 10
1.8637431452
 20
-23.1547632457
 10
1.8570858726
 20
-23.1367895332
 10
1.8535987883
 20
-23.1184436678
 10
1.853091744
 20
-23.1107427633
  0
LWPOLYLINE
  5
28B
100
AcDbEntity
  8
ASSI
100
AcDbPolyline
 62
250
  6
CONTINUOUS
 90
9
 70
0
 10
-21.2833859014
 20
-9.1905430565
 10
-21.3024155097
 20
-9.1777387921
 10
-21.3230762826
 20
-9.1588159838
 10
-21.3410931112
 20
-9.1362309406
 10
-21.3563015664
 20
-9.110189783
 10
-21.3685628495
 20
-9.0809301734
 10
-21.3777650591
 20
-9.048719147
 10
-21.3838242119
 20
-9.0138506749
 10
-21.3866850095
 20
-8.9766429813
  0
LWPOLYLINE
  5
28C
100
AcDbEntity
  8
0
100
AcDbPolyline
 62
250
  6
CONTINUOUS
 90
9
 70
0
 10
-21.2833859014
 20
-9.1905430565
 10
-21.3024155097
 20
-9.1777387921
 10
-21.3230762826
 20
-9.1588159838
 10
-21.3410931112
 20
-9.1362309406
 10
-21.3563015664
 20
-9.110189783
 10
-21.3685628495
 20
-9.0809301734
 10
-21.3777650591
 20
-9.048719147
 10
-21.3838242119
 20
-9.0138506749
 10
-21.3866850095
 20
-8.9766429813
  0
LWPOLYLINE
  5
28D
100
AcDbEntity
  8
ASSI
100
AcDbPolyline
 62
250
  6
CONTINUOUS
 90
7
 70
0
 10
-21.9913137682
 20
4.1645463623
 10
-21.9791163883
 20
4.1281024937
 10
-21.9623426466
 20
4.0952763723
 10
-21.9406818068
 20
4.0644939972
 10
-21.9143659871
 20
4.0360852333
 10
-21.8836771887
 20
4.0103545097
 10
-21.8489442736
 20
3.9875775577
  0
LWPOLYLINE
  5
28E
100
AcDbEntity
  8
0
100
AcDbPolyline
 62
250
  6
CONTINUOUS
 90
7
 70
0
 10
-21.991313608
 20
4.1645457224
 10
-21.9791163883
 20
4.1281024937
 10
-21.9623426466
 20
4.0952763723
 10
-21.9406818068
 20
4.0644939972
 10
-21.9143659871
 20
4.0360852333
 10
-21.8836771887
 20
4.0103545097
 10
-21.8489442736
 20
3.9875775577
  0
LINE
  5
28F
100
AcDbEntity
  8
0
100
AcDbLine
 62
7
  6
CONTINUOUS
 10
-22.2438047466
 20
5.180122356
 11
-21.9913162522
 21
4.1645562825
  0
LWPOLYLINE
  5
290
100
AcDbEntity
  8
ASSI
100
AcDbPolyline
 62
250
  6
CONTINUOUS
 90
10
 70
0
 10
-21.8489442736
 20
3.9875775577
 10
-22.11248289
 20
5.0479046924
 10
-22.3728459304
 20
6.111060789
 10
-22.6300309813
 20
7.1770357642
 10
-22.8840340556
 20
8.2458127784
 10
-23.134854446
 20
9.3173883919
 10
-23.3824945215
 20
10.3917727387
 10
-23.6269533513
 20
11.4689625698
 10
-23.8682269072
 20
12.5489410796
 10
-24.1063127757
 20
13.6316981833
  0
LWPOLYLINE
  5
291
100
AcDbEntity
  8
0
100
AcDbPolyline
 62
250
  6
CONTINUOUS
 90
10
 70
0
 10
-21.8489442736
 20
3.9875775577
 10
-22.11248289
 20
5.0479046924
 10
-22.3728459304
 20
6.111060789
 10
-22.6300309813
 20
7.1770357642
 10
-22.8840340556
 20
8.2458127784
 10
-23.134854446
 20
9.3173883919
 10
-23.3824945215
 20
10.3917727387
 10
-23.6269533513
 20
11.4689625698
 10
-23.8682269072
 20
12.5489410796
 10
-24.1063127757
 20
13.6316981833
  0
LWPOLYLINE
  5
292
100
AcDbEntity
  8
0
100
AcDbPolyline
 62
250
  6
CONTINUOUS
 90
8
 70
0
 10
-24.2497803021
 20
13.8133831001
 10
-24.2475647425
 20
13.8042010134
 10
-24.2358536962
 20
13.7702655329
 10
-24.2189096491
 20
13.7375894592
 10
-24.1973687459
 20
13.7074280632
 10
-24.1715844649
 20
13.6800475633
 10
-24.1413147675
 20
13.6548526299
 10
-24.1063127757
 20
13.6316981834
  0
LWPOLYLINE
  5
293
100
AcDbEntity
  8
ASSI
100
AcDbPolyline
 62
250
  6
CONTINUOUS
 90
8
 70
0
 10
-24.2497802929
 20
13.8133830581
 10
-24.2475647425
 20
13.8042010134
 10
-24.2358536962
 20
13.7702655329
 10
-24.2189096491
 20
13.7375894592
 10
-24.1973687459
 20
13.7074280632
 10
-24.1715844649
 20
13.6800475633
 10
-24.1413147675
 20
13.6548526299
 10
-24.1063127757
 20
13.6316981834
  0
LINE
  5
294
100
AcDbEntity
  8
0
100
AcDbLine
 62
7
  6
CONTINUOUS
 10
-21.991313608
 20
4.1645457224
 11
-21.9576467476
 21
4.0230101186
  0
LWPOLYLINE
  5
295
100
AcDbEntity
  8
ASSI
100
AcDbPolyline
 62
7
  6
CONTINUOUS
 90
9
 70
0
 10
-21.9913137682
 20
4.1645463623
 10
-21.9573149074
 20
4.0216150612
 10
-21.9161076112
 20
3.8248614646
 10
-21.8801428185
 20
3.6230708723
 10
-21.8494784969
 20
3.4164049325
 10
-21.8241699744
 20
3.2050535062
 10
-21.804266203
 20
2.9892292171
 10
-21.7898056291
 20
2.7691296486
 10
-21.7808190374
 20
2.544939613
  0
LWPOLYLINE
  5
296
100
AcDbEntity
  8
ASSI
100
AcDbPolyline
 62
7
  6
CONTINUOUS
 90
7
 70
0
 10
2.1074843763
 20
18.266238414
 10
2.3191554707
 20
18.3519186609
 10
2.5332604351
 20
18.4326771653
 10
2.7497992696
 20
18.5085139272
 10
2.9687719741
 20
18.5794289466
 10
3.1901785486
 20
18.6454222234
 10
3.4140189931
 20
18.7064937578
  0
LWPOLYLINE
  5
297
100
AcDbEntity
  8
ASSI
100
AcDbPolyline
 62
7
  6
CONTINUOUS
 90
5
 70
0
 10
0.333340299
 20
17.0041745545
 10
0.3751815291
 20
17.0161508041
 10
0.4171030385
 20
17.0279512758
 10
0.4591048271
 20
17.0395759697
 10
0.501186895
 20
17.0510248858
  0
LINE
  5
298
100
AcDbEntity
  8
0
100
AcDbLine
 62
250
  6
CONTINUOUS
 10
-10.3796458346
 20
-11.8248387198
 11
-10.3288889963
 21
-11.8524942751
  0
LINE
  5
299
100
AcDbEntity
  8
ASSI
100
AcDbLine
 62
7
  6
CONTINUOUS
 10
-10.2978257787
 20
-11.9336086188
 11
-10.2877234324
 21
-11.9393684161
  0
LINE
  5
29A
100
AcDbEntity
  8
0
100
AcDbLine
 62
7
  6
CONTINUOUS
 10
-10.2960872135
 20
-11.9345998523
 11
-10.2877387117
 21
-11.9393595225
  0
LINE
  5
29B
100
AcDbEntity
  8
0
100
AcDbLine
 62
7
  6
CONTINUOUS
 10
-10.2877387121
 20
-11.9393595222
 11
-10.2873780278
 21
-11.9395680242
  0
LINE
  5
29C
100
AcDbEntity
  8
ASSI
100
AcDbLine
 62
7
  6
CONTINUOUS
 10
-10.2877234328
 20
-11.9393684159
 11
-10.2873853851
 21
-11.9395638011
  0
LINE
  5
29D
100
AcDbEntity
  8
0
100
AcDbLine
 62
7
  6
CONTINUOUS
 10
-10.2873780278
 20
-11.9395680242
 11
-10.2785289111
 21
-11.9447506576
  0
LWPOLYLINE
  5
29E
100
AcDbEntity
  8
ASSI
100
AcDbPolyline
 62
7
  6
CONTINUOUS
 90
21
 70
0
 10
-10.2873853851
 20
-11.9395638011
 10
-10.2756895722
 20
-11.9464135365
 10
-10.2086302988
 20
-11.9892273334
 10
-10.1402063909
 20
-12.0390198651
 10
-10.0710225041
 20
-12.0956300247
 10
-10.0018132561
 20
-12.1587616153
 10
-9.9334455891
 20
-12.2279813818
 10
-9.866495544
 20
-12.3029739787
 10
-9.8015505865
 20
-12.3832186121
 10
-9.7394013627
 20
-12.4678493539
 10
-9.6806273652
 20
-12.5562257931
 10
-9.6257424769
 20
-12.6477109265
 10
-9.5753322362
 20
-12.7413523858
 10
-9.5297509449
 20
-12.8363434048
 10
-9.4893359495
 20
-12.931884042
 10
-9.4544975567
 20
-13.0269612014
 10
-9.425447354
 20
-13.1208167873
 10
-9.4023020987
 20
-13.2126960895
 10
-9.3851223681
 20
-13.3015767026
 10
-9.3738459334
 20
-13.386605009
 10
-9.3683585912
 20
-13.4671682901
  0
LWPOLYLINE
  5
29F
100
AcDbEntity
  8
ASSI
100
AcDbPolyline
 62
250
  6
CONTINUOUS
 90
3
 70
0
 10
-10.3288889963
 20
-11.8524942751
 10
-10.2871458247
 20
-11.8774874342
 10
-10.2449704212
 20
-11.9049134537
  0
LWPOLYLINE
  5
2A0
100
AcDbEntity
  8
0
100
AcDbPolyline
 62
250
  6
CONTINUOUS
 90
3
 70
0
 10
-10.3288889963
 20
-11.8524942751
 10
-10.2871458247
 20
-11.8774874342
 10
-10.2449704212
 20
-11.9049134537
  0
LWPOLYLINE
  5
2A1
100
AcDbEntity
  8
ASSI
100
AcDbPolyline
 62
250
  6
CONTINUOUS
 90
7
 70
0
 10
-10.1263963635
 20
-13.8830790921
 10
-10.1913726532
 20
-13.8427636645
 10
-10.2559118551
 20
-13.7971866286
 10
-10.3195846467
 20
-13.7467787297
 10
-10.3818712848
 20
-13.6920700903
 10
-10.442554069
 20
-13.6333589732
 10
-10.4795106143
 20
-13.5941355995
  0
LWPOLYLINE
  5
2A2
100
AcDbEntity
  8
0
100
AcDbPolyline
 62
250
  6
CONTINUOUS
 90
7
 70
0
 10
-10.1263963635
 20
-13.8830790921
 10
-10.1913726532
 20
-13.8427636645
 10
-10.2559118551
 20
-13.7971866286
 10
-10.3195846467
 20
-13.7467787297
 10
-10.3818712848
 20
-13.6920700903
 10
-10.442554069
 20
-13.6333589732
 10
-10.4795106143
 20
-13.5941355995
  0
LWPOLYLINE
  5
2A3
100
AcDbEntity
  8
ASSI
100
AcDbPolyline
 62
250
  6
CONTINUOUS
 90
22
 70
0
 10
-10.2667496241
 20
-14.1329263964
 10
-10.3433096646
 20
-14.0850696846
 10
-10.4183725417
 20
-14.0320732657
 10
-10.4919378599
 20
-13.973936896
 10
-10.5642490099
 20
-13.9103842026
 10
-10.6350610554
 20
-13.8416906059
 10
-10.703640818
 20
-13.7686833722
 10
-10.7701057287
 20
-13.6911856074
 10
-10.8343355693
 20
-13.6093724892
 10
-10.8952406645
 20
-13.5245993776
 10
-10.9527608424
 20
-13.4368062407
 10
-11.0069527931
 20
-13.3460509687
 10
-11.0569025188
 20
-13.2538660422
 10
-11.1025484613
 20
-13.1602044874
 10
-11.1439487141
 20
-13.0651111503
 10
-11.1803696139
 20
-12.9702567695
 10
-11.2117063534
 20
-12.8755867916
 10
-11.2380610198
 20
-12.7811541038
 10
-11.2590116775
 20
-12.6887914588
 10
-11.274417685
 20
-12.5991097787
 10
-11.2844187471
 20
-12.5114975731
 10
-11.2890142896
 20
-12.4259544935
  0
LWPOLYLINE
  5
2A4
100
AcDbEntity
  8
0
100
AcDbPolyline
 62
250
  6
CONTINUOUS
 90
22
 70
0
 10
-10.2667496241
 20
-14.1329263964
 10
-10.3433096646
 20
-14.0850696846
 10
-10.4183725417
 20
-14.0320732657
 10
-10.4919378599
 20
-13.973936896
 10
-10.5642490099
 20
-13.9103842026
 10
-10.6350610554
 20
-13.8416906059
 10
-10.703640818
 20
-13.7686833722
 10
-10.7701057287
 20
-13.6911856074
 10
-10.8343355693
 20
-13.6093724892
 10
-10.8952406645
 20
-13.5245993776
 10
-10.9527608424
 20
-13.4368062407
 10
-11.0069527931
 20
-13.3460509687
 10
-11.0569025188
 20
-13.2538660422
 10
-11.1025484613
 20
-13.1602044874
 10
-11.1439487141
 20
-13.0651111503
 10
-11.1803696139
 20
-12.9702567695
 10
-11.2117063534
 20
-12.8755867916
 10
-11.2380610198
 20
-12.7811541038
 10
-11.2590116775
 20
-12.6887914588
 10
-11.274417685
 20
-12.5991097787
 10
-11.2844187471
 20
-12.5114975731
 10
-11.2890142896
 20
-12.4259544935
  0
LWPOLYLINE
  5
2A5
100
AcDbEntity
  8
0
100
AcDbPolyline
 62
7
  6
CONTINUOUS
 90
20
 70
0
 10
-10.2785289111
 20
-11.9447506576
 10
-10.2116633436
 20
-11.9871624075
 10
-10.1429942523
 20
-12.0368710477
 10
-10.0735207749
 20
-12.0934748351
 10
-10.0039875307
 20
-12.1566750658
 10
-9.9352760514
 20
-12.226034188
 10
-9.8679723827
 20
-12.3012380626
 10
-9.8026729122
 20
-12.3817642552
 10
-9.7401813784
 20
-12.4667344243
 10
-9.6810866829
 20
-12.5554993868
 10
-9.6259113486
 20
-12.6474140271
 10
-9.5752514511
 20
-12.7415111961
 10
-9.529467131
 20
-12.8369725096
 10
-9.4889011946
 20
-12.9329863832
 10
-9.4539701991
 20
-13.0285236433
 10
-9.4248876078
 20
-13.1228148194
 10
-9.4017701901
 20
-13.2150935073
 10
-9.3846772322
 20
-13.3043200268
 10
-9.3735446042
 20
-13.3896280904
 10
-9.3682915031
 20
-13.4698228091
  0
LINE
  5
2A6
100
AcDbEntity
  8
ASSI
100
AcDbLine
 62
250
  6
CONTINUOUS
 10
-10.2449704212
 20
-11.9049134537
 11
-10.2023627406
 21
-11.9347723062
  0
LINE
  5
2A7
100
AcDbEntity
  8
0
100
AcDbLine
 62
250
  6
CONTINUOUS
 10
-10.2449704212
 20
-11.9049134537
 11
-10.2023627406
 21
-11.9347723062
  0
LWPOLYLINE
  5
2A8
100
AcDbEntity
  8
ASSI
100
AcDbPolyline
 62
250
  6
CONTINUOUS
 90
23
 70
0
 10
-10.2023627406
 20
-11.9347723062
 10
-10.1595657326
 20
-11.9666880965
 10
-10.1163362707
 20
-12.0010366118
 10
-10.0719451012
 20
-12.0389452907
 10
-10.0260426371
 20
-12.0805503006
 10
-9.9789779361
 20
-12.1257151511
 10
-9.9310694713
 20
-12.1751581473
 10
-9.8821581619
 20
-12.2289812623
 10
-9.8324018763
 20
-12.287081783
 10
-9.782594083
 20
-12.3498707239
 10
-9.7324077069
 20
-12.417859996
 10
-9.6821674725
 20
-12.4905362529
 10
-9.6336441858
 20
-12.5667724008
 10
-9.586864311
 20
-12.6469084062
 10
-9.5417981846
 20
-12.7306023469
 10
-9.5001326965
 20
-12.8157044646
 10
-9.4621319291
 20
-12.9021704991
 10
-9.4275289002
 20
-12.9900429346
 10
-9.39721493
 20
-13.0773027573
 10
-9.3714090233
 20
-13.1638212095
 10
-9.3498903813
 20
-13.2497259463
 10
-9.3328920134
 20
-13.3333834254
 10
-9.3204917945
 20
-13.4142492563
  0
LWPOLYLINE
  5
2A9
100
AcDbEntity
  8
0
100
AcDbPolyline
 62
250
  6
CONTINUOUS
 90
23
 70
0
 10
-10.2023627406
 20
-11.9347723062
 10
-10.1595657326
 20
-11.9666880965
 10
-10.1163362707
 20
-12.0010366118
 10
-10.0719451012
 20
-12.0389452907
 10
-10.0260426371
 20
-12.0805503006
 10
-9.9789779361
 20
-12.1257151511
 10
-9.9310694713
 20
-12.1751581473
 10
-9.8821581619
 20
-12.2289812623
 10
-9.8324018763
 20
-12.287081783
 10
-9.782594083
 20
-12.3498707239
 10
-9.7324077069
 20
-12.417859996
 10
-9.6821674725
 20
-12.4905362529
 10
-9.6336441858
 20
-12.5667724008
 10
-9.586864311
 20
-12.6469084062
 10
-9.5417981846
 20
-12.7306023469
 10
-9.5001326965
 20
-12.8157044646
 10
-9.4621319291
 20
-12.9021704991
 10
-9.4275289002
 20
-12.9900429346
 10
-9.39721493
 20
-13.0773027573
 10
-9.3714090233
 20
-13.1638212095
 10
-9.3498903813
 20
-13.2497259463
 10
-9.3328920134
 20
-13.3333834254
 10
-9.3204917945
 20
-13.4142492563
  0
LINE
  5
2AA
100
AcDbEntity
  8
0
100
AcDbLine
 62
7
  6
CONTINUOUS
 10
-13.7734399857
 20
26.0473699959
 11
-13.7734399857
 21
25.1492526914
  0
LINE
  5
2AB
100
AcDbEntity
  8
ASSI
100
AcDbLine
 62
7
  6
CONTINUOUS
 10
2.1074843763
 20
18.266238414
 11
4.935911501
 21
19.8993367873
  0
LINE
  5
2AC
100
AcDbEntity
  8
ASSI
100
AcDbLine
 62
7
  6
CONTINUOUS
 10
0.5855918684
 20
17.0733953845
 11
3.4140189931
 21
18.7064937578
  0
LINE
  5
2AD
100
AcDbEntity
  8
ASSI
100
AcDbLine
 62
7
  6
CONTINUOUS
 10
1.1066134089
 20
17.1944685115
 11
3.9350405337
 21
18.8275668848
  0
LINE
  5
2AE
100
AcDbEntity
  8
0
100
AcDbLine
 62
7
  6
CONTINUOUS
 10
1.4482091521
 20
17.2585805558
 11
4.2766362768
 21
18.8916789291
  0
LINE
  5
2AF
100
AcDbEntity
  8
0
100
AcDbLine
 62
7
  6
CONTINUOUS
 10
2.136462591
 20
16.861191646
 11
3.9042295439
 21
17.8818781293
  0
LWPOLYLINE
  5
2B0
100
AcDbEntity
  8
ASSI
100
AcDbPolyline
 62
7
  6
CONTINUOUS
 90
15
 70
0
 10
1.007564369
 20
16.897703208
 10
0.9866046528
 20
16.8875489693
 10
0.9606144045
 20
16.8792950237
 10
0.9328222363
 20
16.8750484736
 10
0.90327382
 20
16.8747076506
 10
0.8727301134
 20
16.8782808837
 10
0.8411657922
 20
16.8858695883
 10
0.8086061808
 20
16.8973723491
 10
0.775888209
 20
16.9124932487
 10
0.7430070315
 20
16.9313266977
 10
0.7099674938
 20
16.9537782855
 10
0.677621062
 20
16.979268863
 10
0.6462515582
 20
17.0076053805
 10
0.6155751603
 20
17.0389808876
 10
0.5855918684
 20
17.0733953845
  0
LINE
  5
2B1
100
AcDbEntity
  8
0
100
AcDbLine
 62
7
  6
CONTINUOUS
 10
6.0255498875
 20
18.1269454681
 11
6.44144428
 21
18.2950878516
  0
LWPOLYLINE
  5
2B2
100
AcDbEntity
  8
ASSI
100
AcDbPolyline
 62
250
  6
CONTINUOUS
 90
5
 70
0
 10
-10.89660781
 20
-12.9263731492
 10
-10.9123697947
 20
-12.8855240339
 10
-10.9395424268
 20
-12.8041596047
 10
-10.9622408509
 20
-12.723483247
 10
-10.9803079772
 20
-12.6440747686
  0
LWPOLYLINE
  5
2B3
100
AcDbEntity
  8
0
100
AcDbPolyline
 62
250
  6
CONTINUOUS
 90
5
 70
0
 10
-10.89660781
 20
-12.9263731492
 10
-10.9123697947
 20
-12.8855240339
 10
-10.9395424268
 20
-12.8041596047
 10
-10.9622408509
 20
-12.723483247
 10
-10.9803079772
 20
-12.6440747686
  0
LWPOLYLINE
  5
2B4
100
AcDbEntity
  8
ASSI
100
AcDbPolyline
 62
250
  6
CONTINUOUS
 90
4
 70
0
 10
-10.9803079772
 20
-12.6440747686
 10
-10.993684613
 20
-12.5664160648
 10
-11.0023570372
 20
-12.4908979323
 10
-11.0063263126
 20
-12.417923651
  0
LWPOLYLINE
  5
2B5
100
AcDbEntity
  8
0
100
AcDbPolyline
 62
250
  6
CONTINUOUS
 90
4
 70
0
 10
-10.9803079772
 20
-12.6440747686
 10
-10.993684613
 20
-12.5664160648
 10
-11.0023570372
 20
-12.4908979323
 10
-11.0063263126
 20
-12.417923651
  0
LWPOLYLINE
  5
2B6
100
AcDbEntity
  8
ASSI
100
AcDbPolyline
 62
250
  6
CONTINUOUS
 90
3
 70
0
 10
-9.3204917945
 20
-13.4142492563
 10
-9.3126116393
 20
-13.4928676952
 10
-9.3092513586
 20
-13.5692386235
  0
LWPOLYLINE
  5
2B7
100
AcDbEntity
  8
0
100
AcDbPolyline
 62
250
  6
CONTINUOUS
 90
3
 70
0
 10
-9.3204917945
 20
-13.4142492563
 10
-9.3126116393
 20
-13.4928676952
 10
-9.3092513586
 20
-13.5692386235
  0
LWPOLYLINE
  5
2B8
100
AcDbEntity
  8
ASSI
100
AcDbPolyline
 62
7
  6
CONTINUOUS
 90
12
 70
0
 10
-14.8032891678
 20
26.3806468614
 10
-14.7995770776
 20
26.3401337936
 10
-14.7989007967
 20
26.301791914
 10
-14.8012603251
 20
26.2656212224
 10
-14.8067282322
 20
26.2313459028
 10
-14.8152319486
 20
26.1992417714
 10
-14.8265537658
 20
26.1701362763
 10
-14.8407670845
 20
26.1441073148
 10
-14.8577985041
 20
26.1210769898
 10
-14.8772101137
 20
26.1016390575
 10
-14.8990639238
 20
26.085886992
 10
-14.9023382076
 20
26.0838815578
  0
LWPOLYLINE
  5
2B9
100
AcDbEntity
  8
ASSI
100
AcDbPolyline
 62
250
  6
CONTINUOUS
 90
7
 70
0
 10
-10.3288889954
 20
-11.8524943135
 10
-10.3269670332
 20
-11.8740077154
 10
-10.3223428051
 20
-11.8934333986
 10
-10.3151059568
 20
-11.9103949406
 10
-10.3053967669
 20
-11.9245636711
 10
-10.2934034095
 20
-11.9356650619
 10
-10.2877234328
 20
-11.9393684159
  0
LWPOLYLINE
  5
2BA
100
AcDbEntity
  8
0
100
AcDbPolyline
 62
250
  6
CONTINUOUS
 90
7
 70
0
 10
-10.3288889954
 20
-11.8524943135
 10
-10.3269670332
 20
-11.8740077154
 10
-10.3223428051
 20
-11.8934333986
 10
-10.3151059568
 20
-11.9103949406
 10
-10.3053967669
 20
-11.9245636711
 10
-10.2934034095
 20
-11.9356650619
 10
-10.2877387121
 20
-11.9393595222
  0
LWPOLYLINE
  5
2BB
100
AcDbEntity
  8
RACCORDO
100
AcDbPolyline
 62
250
  6
CONTINUOUS
 90
55
 70
0
 10
-10.9331103076
 20
-12.6287237767
 10
-10.9311319703
 20
-12.6715533816
 10
-10.9270116404
 20
-12.715482722
 10
-10.9207626888
 20
-12.7603641929
 10
-10.9124102455
 20
-12.8060241859
 10
-10.9019794151
 20
-12.852331247
 10
-10.8894849746
 20
-12.8991994442
 10
-10.8749433589
 20
-12.9465224497
 10
-10.8584065758
 20
-12.9940918416
 10
-10.8399541476
 20
-13.0416667242
 10
-10.8196525499
 20
-13.0890784286
 10
-10.7975689607
 20
-13.1361727764
 10
-10.7738095674
 20
-13.1827325177
 10
-10.7484872302
 20
-13.2285576248
 10
-10.7216714172
 20
-13.2735420761
 10
-10.6934093503
 20
-13.3176118196
 10
-10.6637742762
 20
-13.3606462673
 10
-10.6328835815
 20
-13.4024688831
 10
-10.6008514497
 20
-13.4429236868
 10
-10.5677869062
 20
-13.4818731881
 10
-10.5338007663
 20
-13.5191870414
 10
-10.4990170093
 20
-13.5547302559
 10
-10.4635761163
 20
-13.5883638442
 10
-10.4275762748
 20
-13.6199990987
 10
-10.3910794097
 20
-13.6495775743
 10
-10.3541710236
 20
-13.6770163726
 10
-10.3170106201
 20
-13.7021834052
 10
-10.2797723344
 20
-13.7249556208
 10
-10.2425968897
 20
-13.745248006
 10
-10.2055964342
 20
-13.7630003892
 10
-10.1689024687
 20
-13.7781499063
 10
-10.1326437038
 20
-13.790644663
 10
-10.0969388102
 20
-13.8004450252
 10
-10.0619021739
 20
-13.807519704
 10
-10.0276484312
 20
-13.8118444032
 10
-9.9942988471
 20
-13.8134026379
 10
-9.9619735675
 20
-13.8121889818
 10
-9.9307863424
 20
-13.808209378
 10
-9.9008378945
 20
-13.8014784089
 10
-9.8722232157
 20
-13.7920175721
 10
-9.8450355713
 20
-13.7798560426
 10
-9.8193724195
 20
-13.7650356795
 10
-9.7953274481
 20
-13.7476110025
 10
-9.772985694
 20
-13.7276466893
 10
-9.7524171866
 20
-13.7052085457
 10
-9.7336849317
 20
-13.6803652788
 10
-9.7168429677
 20
-13.6531813091
 10
-9.7019624201
 20
-13.6237635974
 10
-9.6891142787
 20
-13.5922649248
 10
-9.6783430476
 20
-13.5588371116
 10
-9.6696615376
 20
-13.5235699643
 10
-9.6630816529
 20
-13.4865346961
 10
-9.658623716
 20
-13.4478367153
 10
-9.6563061968
 20
-13.4076241065
 10
-9.656136687
 20
-13.366032341
  0
LWPOLYLINE
  5
2BC
100
AcDbEntity
  8
RACCORDO
100
AcDbPolyline
 62
250
  6
CONTINUOUS
 90
55
 70
0
 10
-9.656136687
 20
-13.366032341
 10
-9.6581149857
 20
-13.3232027127
 10
-9.6622352965
 20
-13.2792733607
 10
-9.6684842486
 20
-13.2343918902
 10
-9.6768367249
 20
-13.188731917
 10
-9.6872676077
 20
-13.1424248877
 10
-9.6997620815
 20
-13.0955567107
 10
-9.7143036895
 20
-13.0482337005
 10
-9.7308404456
 20
-13.0006642923
 10
-9.749292854
 20
-12.9530893976
 10
-9.7695944508
 20
-12.9056776928
 10
-9.7916780464
 20
-12.8585833488
 10
-9.8154374441
 20
-12.8120236103
 10
-9.8407597802
 20
-12.7661985024
 10
-9.8675755902
 20
-12.7212140493
 10
-9.8958376545
 20
-12.6771443042
 10
-9.9254727275
 20
-12.6341098558
 10
-9.9563634215
 20
-12.5922872396
 10
-9.9883955525
 20
-12.5518324355
 10
-10.0214600948
 20
-12.5128829334
 10
-10.0554462333
 20
-12.4755690794
 10
-10.0902299894
 20
-12.4400258642
 10
-10.1256708819
 20
-12.4063922756
 10
-10.1616707231
 20
-12.374757021
 10
-10.1981675878
 20
-12.3451785452
 10
-10.2350759733
 20
-12.3177397465
 10
-10.272236376
 20
-12.2925727133
 10
-10.309474661
 20
-12.2698004974
 10
-10.3466501054
 20
-12.249508112
 10
-10.3836505607
 20
-12.2317557286
 10
-10.4203445261
 20
-12.2166062115
 10
-10.4566032909
 20
-12.2041114547
 10
-10.4923081845
 20
-12.1943110925
 10
-10.5273448208
 20
-12.1872364138
 10
-10.5615985637
 20
-12.1829117147
 10
-10.5949481481
 20
-12.1813534801
 10
-10.6272734281
 20
-12.1825671365
 10
-10.6584606532
 20
-12.1865467403
 10
-10.6884091011
 20
-12.1932777095
 10
-10.7170237805
 20
-12.2027385466
 10
-10.7442114267
 20
-12.2149000771
 10
-10.7698745808
 20
-12.2297204416
 10
-10.793919553
 20
-12.2471451191
 10
-10.8162613039
 20
-12.2671094304
 10
-10.8368298067
 20
-12.2895475711
 10
-10.8555620618
 20
-12.3143908382
 10
-10.8724040391
 20
-12.341574816
 10
-10.8872846048
 20
-12.3709925385
 10
-10.9001327512
 20
-12.4024912142
 10
-10.9109039593
 20
-12.4359190135
 10
-10.9195854332
 20
-12.4711861389
 10
-10.9261652959
 20
-12.5082213938
 10
-10.930623234
 20
-12.5469193753
 10
-10.9329407684
 20
-12.5871319934
 10
-10.9331103076
 20
-12.6287237767
  0
LWPOLYLINE
  5
2BD
100
AcDbEntity
  8
RACCORDO
100
AcDbPolyline
 62
250
  6
CONTINUOUS
 90
42
 70
0
 10
-9.5217811708
 20
-13.3607616424
 10
-9.5239590253
 20
-13.3136170011
 10
-9.5284945617
 20
-13.2652619232
 10
-9.535373063
 20
-13.2158588603
 10
-9.5445668038
 20
-13.1655989146
 10
-9.556048226
 20
-13.1146267178
 10
-9.5698012661
 20
-13.0630367803
 10
-9.5858079336
 20
-13.010946148
 10
-9.6040108621
 20
-12.9585843051
 10
-9.624322388
 20
-12.9062164427
 10
-9.6466692906
 20
-12.8540282072
 10
-9.6709776832
 20
-12.8021892949
 10
-9.6971307202
 20
-12.7509388455
 10
-9.7250041839
 20
-12.7004970477
 10
-9.7545215908
 20
-12.6509806036
 10
-9.7856309526
 20
-12.6024710216
 10
-9.8182516409
 20
-12.5551010348
 10
-9.8522544465
 20
-12.5090649666
 10
-9.8875136841
 20
-12.4645345126
 10
-9.9239093449
 20
-12.4216610162
 10
-9.9613194484
 20
-12.380587954
 10
-9.9996075246
 20
-12.3414639145
 10
-10.0386189392
 20
-12.3044418861
 10
-10.0782456135
 20
-12.269619514
 10
-10.1184193843
 20
-12.2370611335
 10
-10.1590461349
 20
-12.2068579959
 10
-10.199950292
 20
-12.1791554958
 10
-10.2409401771
 20
-12.1540890798
 10
-10.2818608903
 20
-12.131752325
 10
-10.3225889847
 20
-12.1122114656
 10
-10.3629797116
 20
-12.0955356998
 10
-10.4028913933
 20
-12.0817821499
 10
-10.4421934036
 20
-12.070994443
 10
-10.4807598326
 20
-12.0632070198
 10
-10.5184644955
 20
-12.0584466239
 10
-10.5551739101
 20
-12.0567314012
 10
-10.5907558261
 20
-12.0580673258
 10
-10.6250850325
 20
-12.0624478573
 10
-10.6580506602
 20
-12.0698569426
 10
-10.6895481495
 20
-12.0802709149
 10
-10.7194748432
 20
-12.0936576545
 10
-10.741168479
 20
-12.1058324806
  0
LWPOLYLINE
  5
2BE
100
AcDbEntity
  8
CURVE
100
AcDbPolyline
 62
250
  6
CONTINUOUS
 90
4
 70
0
 10
-10.4313919488
 20
-6.364109061
 10
-10.4113002281
 20
-7.7773282332
 10
-10.3869012707
 20
-9.1879708002
 10
-10.3703686204
 20
-10.0246978339
  0
LWPOLYLINE
  5
2BF
100
AcDbEntity
  8
ASSI
100
AcDbPolyline
 62
250
  6
CONTINUOUS
 90
28
 70
0
 10
-11.2890142896
 20
-12.4259544935
 10
-11.2894188074
 20
-12.3463079272
 10
-11.2849721101
 20
-12.2706301139
 10
-11.2756748257
 20
-12.1989214417
 10
-11.261263007
 20
-12.1307181515
 10
-11.2420016199
 20
-12.0664846323
 10
-11.2186855878
 20
-12.0076140609
 10
-11.1911019751
 20
-11.954449932
 10
-11.1594666927
 20
-11.906650576
 10
-11.1252193129
 20
-11.8645822668
 10
-11.0883354532
 20
-11.8285913572
 10
-11.0488429936
 20
-11.7983336351
 10
-11.0082603249
 20
-11.7731397855
 10
-10.9667904684
 20
-11.7531681988
 10
-10.9242332353
 20
-11.7382622161
 10
-10.8815019105
 20
-11.7272797698
 10
-10.838980162
 20
-11.720118388
 10
-10.7962860793
 20
-11.716881616
 10
-10.7531840833
 20
-11.7167361091
 10
-10.7098492733
 20
-11.7194081746
 10
-10.6661074448
 20
-11.7251720512
 10
-10.6211987366
 20
-11.734016092
 10
-10.574753173
 20
-11.7459088608
 10
-10.5271412317
 20
-11.7608821
 10
-10.4787136365
 20
-11.7790188727
 10
-10.4295874076
 20
-11.8003469351
 10
-10.3796458346
 20
-11.8248387198
 10
-10.3288889963
 20
-11.8524942751
  0
LWPOLYLINE
  5
2C0
100
AcDbEntity
  8
0
100
AcDbPolyline
 62
250
  6
CONTINUOUS
 90
27
 70
0
 10
-11.2890142896
 20
-12.4259544935
 10
-11.2894188074
 20
-12.3463079272
 10
-11.2849721101
 20
-12.2706301139
 10
-11.2756748257
 20
-12.1989214417
 10
-11.261263007
 20
-12.1307181515
 10
-11.2420016199
 20
-12.0664846323
 10
-11.2186855878
 20
-12.0076140609
 10
-11.1911019751
 20
-11.954449932
 10
-11.1594666927
 20
-11.906650576
 10
-11.1252193129
 20
-11.8645822668
 10
-11.0883354532
 20
-11.8285913572
 10
-11.0488429936
 20
-11.7983336351
 10
-11.0082603249
 20
-11.7731397855
 10
-10.9667904684
 20
-11.7531681988
 10
-10.9242332353
 20
-11.7382622161
 10
-10.8815019105
 20
-11.7272797698
 10
-10.838980162
 20
-11.720118388
 10
-10.7962860793
 20
-11.716881616
 10
-10.7531840833
 20
-11.7167361091
 10
-10.7098492733
 20
-11.7194081746
 10
-10.6661074448
 20
-11.7251720512
 10
-10.6211987366
 20
-11.734016092
 10
-10.574753173
 20
-11.7459088608
 10
-10.5271412317
 20
-11.7608821
 10
-10.4787136365
 20
-11.7790188727
 10
-10.4295874076
 20
-11.8003469351
 10
-10.3796458346
 20
-11.8248387198
  0
LINE
  5
2C1
100
AcDbEntity
  8
0
100
AcDbLine
 62
7
  6
CONTINUOUS
 10
-12.0056730327
 20
26.2769126598
 11
-12.0056730327
 21
27.0680564792
  0
LWPOLYLINE
  5
2C2
100
AcDbEntity
  8
RACCORDO
100
AcDbPolyline
 62
7
  6
CONTINUOUS
 90
16
 70
0
 10
-10.9563016865
 20
-12.591917396
 10
-10.9561570983
 20
-12.5471425198
 10
-10.9537821678
 20
-12.5036590221
 10
-10.9491833682
 20
-12.4615549632
 10
-10.9423490311
 20
-12.4208223831
 10
-10.9332965625
 20
-12.3816532497
 10
-10.9221258768
 20
-12.3444004461
 10
-10.908913294
 20
-12.3091535631
 10
-10.8937106526
 20
-12.2759206008
 10
-10.8766611728
 20
-12.2448790555
 10
-10.8579132837
 20
-12.216128045
 10
-10.8375324999
 20
-12.1896159916
 10
-10.8155636913
 20
-12.1652984395
 10
-10.7920917858
 20
-12.1431961496
 10
-10.7672527586
 20
-12.1233662913
 10
-10.7411684783
 20
-12.1058324802
  0
LWPOLYLINE
  5
2C3
100
AcDbEntity
  8
ASSI
100
AcDbPolyline
 62
250
  6
CONTINUOUS
 90
12
 70
0
 10
-11.0064924111
 20
-12.4179757749
 10
-11.0058312922
 20
-12.349837192
 10
-11.0009949225
 20
-12.2844666247
 10
-10.9920057189
 20
-12.2221423718
 10
-10.9787923595
 20
-12.162875723
 10
-10.961436373
 20
-12.1072431304
 10
-10.9403516796
 20
-12.0562278639
 10
-10.9157777147
 20
-12.0099635752
 10
-10.887957156
 20
-11.9684170803
 10
-10.8575867547
 20
-11.9320158992
 10
-10.8251232625
 20
-11.9006639263
 10
-10.7986412797
 20
-11.8796271939
  0
LWPOLYLINE
  5
2C4
100
AcDbEntity
  8
0
100
AcDbPolyline
 62
250
  6
CONTINUOUS
 90
12
 70
0
 10
-11.0064924111
 20
-12.4179757749
 10
-11.0058312922
 20
-12.349837192
 10
-11.0009949225
 20
-12.2844666247
 10
-10.9920057189
 20
-12.2221423718
 10
-10.9787923595
 20
-12.162875723
 10
-10.961436373
 20
-12.1072431304
 10
-10.9403516796
 20
-12.0562278639
 10
-10.9157777147
 20
-12.0099635752
 10
-10.887957156
 20
-11.9684170803
 10
-10.8575867547
 20
-11.9320158992
 10
-10.8251232625
 20
-11.9006639263
 10
-10.7986412797
 20
-11.8796271939
  0
LINE
  5
2C5
100
AcDbEntity
  8
0
100
AcDbLine
 62
7
  6
CONTINUOUS
 10
2.136462591
 20
15.9630743415
 11
3.9042295439
 21
17.09073431
  0
LWPOLYLINE
  5
2C6
100
AcDbEntity
  8
CURVE
100
AcDbPolyline
 62
250
  6
CONTINUOUS
 90
87
 70
0
 10
-12.9535849226
 20
1.8798254181
 10
-12.9657818176
 20
1.9345568285
 10
-12.9757087527
 20
1.9876601463
 10
-12.9833726351
 20
2.0391806293
 10
-12.9887803722
 20
2.0891635351
 10
-12.9919388714
 20
2.1376541215
 10
-12.9928530045
 20
2.184668803
 10
-12.9915195001
 20
2.2301086218
 10
-12.9879330516
 20
2.2738457768
 10
-12.982088352
 20
2.3157524671
 10
-12.9739800945
 20
2.3557008916
 10
-12.9636095241
 20
2.3935773729
 10
-12.9510040932
 20
2.4293247278
 10
-12.9361978058
 20
2.4628998969
 10
-12.9192246661
 20
2.4942598204
 10
-12.9001186783
 20
2.5233614388
 10
-12.8789175838
 20
2.5501648646
 10
-12.8556740726
 20
2.5746428986
 10
-12.830444572
 20
2.5967715135
 10
-12.8032855092
 20
2.6165266822
 10
-12.7742533114
 20
2.6338843775
 10
-12.7433941904
 20
2.6488227721
 10
-12.7107134952
 20
2.6613288382
 10
-12.6762063593
 20
2.671391748
 10
-12.6398679165
 20
2.6790006735
 10
-12.6016933001
 20
2.684144787
 10
-12.5684872158
 20
2.6865388935
 10
-12.5340732521
 20
2.6871955374
 10
-12.4985220298
 20
2.6860964506
 10
-12.4618806631
 20
2.6832214671
 10
-12.4241022417
 20
2.6785428292
 10
-12.3851163488
 20
2.6720308815
 10
-12.3448926446
 20
2.6636629307
 10
-12.3035610973
 20
2.6534441332
 10
-12.2612917521
 20
2.641386608
 10
-12.2182847656
 20
2.627531527
 10
-12.1748607411
 20
2.6120362747
 10
-12.1313703931
 20
2.5950872891
 10
-12.0880692679
 20
2.5768319531
 10
-12.0448322379
 20
2.5572614311
 10
-12.001439007
 20
2.5363278327
 10
-11.9577091932
 20
2.5139918903
 10
-11.9136220723
 20
2.4902488282
 10
-11.8691968343
 20
2.4651024932
 10
-11.8244532763
 20
2.4385597279
 10
-11.7794136235
 20
2.4106393557
 10
-11.7341007083
 20
2.3813631957
 10
-11.6884888567
 20
2.3507102509
 10
-11.6423583695
 20
2.318488261
 10
-11.5954410413
 20
2.2844621501
 10
-11.5475740643
 20
2.2484742049
 10
-11.4990162224
 20
2.2106761638
 10
-11.4501316971
 20
2.1712971283
 10
-11.4012628613
 20
2.1305664473
 10
-11.3526648528
 20
2.088714461
 10
-11.3045710004
 20
2.0459717572
 10
-11.2571591004
 20
2.0025182292
 10
-11.210384818
 20
1.9583309914
 10
-11.1641482856
 20
1.9133364637
 10
-11.1183818497
 20
1.8674913714
 10
-11.0731467138
 20
1.8208736616
 10
-11.0285362954
 20
1.7735915871
 10
-10.9759329264
 20
1.7160983539
 10
-10.924362941
 20
1.6578101662
 10
-10.8738256085
 20
1.5987328709
 10
-10.8243201981
 20
1.5388723148
 10
-10.7758459788
 20
1.4782343447
 10
-10.7284170451
 20
1.4168419554
 10
-10.6821067922
 20
1.3547867328
 10
-10.6370034408
 20
1.2921774111
 10
-10.5931952115
 20
1.2291227241
 10
-10.5507703248
 20
1.1657314059
 10
-10.5098130143
 20
1.1021101188
 10
-10.4703915653
 20
1.038357239
 10
-10.4325702761
 20
0.9745690709
 10
-10.3964134448
 20
0.9108419192
 10
-10.3619853699
 20
0.8472720884
 10
-10.3293500712
 20
0.783965292
 10
-10.2985704558
 20
0.7210648793
 10
-10.2697091524
 20
0.6587236084
 10
-10.2428287898
 20
0.5970942376
 10
-10.2179919966
 20
0.536329525
 10
-10.1952494354
 20
0.4765494662
 10
-10.1746039037
 20
0.4177430063
 10
-10.1560462326
 20
0.3598663278
 10
-10.1395672536
 20
0.3028756131
 10
-10.1251577978
 20
0.2467270447
  0
LWPOLYLINE
  5
2C7
100
AcDbEntity
  8
0
100
AcDbPolyline
 62
250
  6
CONTINUOUS
 90
7
 70
0
 10
-9.3678355227
 20
-13.4878827309
 10
-9.3659938718
 20
-13.5025336296
 10
-9.3607398666
 20
-13.5189644811
 10
-9.3522420647
 20
-13.5342046999
 10
-9.3406721145
 20
-13.5476956701
 10
-9.3262434819
 20
-13.5594485683
 10
-9.3092206426
 20
-13.5692197244
  0
LWPOLYLINE
  5
2C8
100
AcDbEntity
  8
ASSI
100
AcDbPolyline
 62
250
  6
CONTINUOUS
 90
7
 70
0
 10
-9.3678360375
 20
-13.4878679756
 10
-9.3659938718
 20
-13.5025336296
 10
-9.3607398666
 20
-13.5189644811
 10
-9.3522420647
 20
-13.5342046999
 10
-9.3406721145
 20
-13.5476956701
 10
-9.3262434819
 20
-13.5594485683
 10
-9.3092206426
 20
-13.5692197244
  0
LINE
  5
2C9
100
AcDbEntity
  8
ASSI
100
AcDbLine
 62
7
  6
CONTINUOUS
 10
-9.3683585912
 20
-13.4671682901
 11
-9.3678360375
 21
-13.4878679756
  0
LINE
  5
2CA
100
AcDbEntity
  8
0
100
AcDbLine
 62
7
  6
CONTINUOUS
 10
-9.3682915031
 20
-13.4698228091
 11
-9.3678355227
 21
-13.4878827309
  0
LINE
  5
2CB
100
AcDbEntity
  8
0
100
AcDbLine
 62
7
  6
CONTINUOUS
 10
-9.3678351796
 20
-13.4878814389
 11
-9.3675227183
 21
-13.5481116032
  0
LWPOLYLINE
  5
2CC
100
AcDbEntity
  8
ASSI
100
AcDbPolyline
 62
7
  6
CONTINUOUS
 90
11
 70
0
 10
-9.3678356977
 20
-13.4878666927
 10
-9.3675517543
 20
-13.549309587
 10
-9.3707926883
 20
-13.60767393
 10
-9.3774179189
 20
-13.6621511925
 10
-9.3872900114
 20
-13.7127708972
 10
-9.4004515612
 20
-13.7599566158
 10
-9.4168989305
 20
-13.803403321
 10
-9.4363751313
 20
-13.8423496014
 10
-9.4585703485
 20
-13.8764130699
 10
-9.4829860614
 20
-13.9052060134
 10
-9.5096632339
 20
-13.929117771
  0
LINE
  5
2CD
100
AcDbEntity
  8
0
100
AcDbLine
 62
7
  6
CONTINUOUS
 10
-9.8843526892
 20
27.0680564792
 11
-9.8843526892
 21
27.313123818
  0
LINE
  5
2CE
100
AcDbEntity
  8
0
100
AcDbLine
 62
7
  6
CONTINUOUS
 10
-9.5307992986
 20
23.5977224359
 11
-9.5307992986
 21
22.6996051314
  0
LWPOLYLINE
  5
2CF
100
AcDbEntity
  8
ASSI
100
AcDbPolyline
 62
250
  6
CONTINUOUS
 90
22
 70
0
 10
-9.3092513586
 20
-13.5692386235
 10
-9.3094002852
 20
-13.6531438919
 10
-9.3149644325
 20
-13.7325381229
 10
-9.325944566
 20
-13.8074217823
 10
-9.3424675175
 20
-13.8781624316
 10
-9.3644077915
 20
-13.9443933228
 10
-9.3913883488
 20
-14.0050138795
 10
-9.4235319968
 20
-14.0599299312
 10
-9.4607186671
 20
-14.1092373261
 10
-9.5022082362
 20
-14.1521212727
 10
-9.5481827196
 20
-14.1884417904
 10
-9.5984635782
 20
-14.2183409949
 10
-9.6517707491
 20
-14.2414277885
 10
-9.7076079349
 20
-14.2575909765
 10
-9.7664750484
 20
-14.2669439778
 10
-9.8285865135
 20
-14.269432722
 10
-9.8941303801
 20
-14.2653070196
 10
-9.9629209896
 20
-14.2543185327
 10
-10.0346121246
 20
-14.2356659199
 10
-10.1090889947
 20
-14.2090824466
 10
-10.1864680192
 20
-14.1748358513
 10
-10.2667496241
 20
-14.1329263964
  0
LWPOLYLINE
  5
2D0
100
AcDbEntity
  8
0
100
AcDbPolyline
 62
250
  6
CONTINUOUS
 90
22
 70
0
 10
-9.3092513586
 20
-13.5692386235
 10
-9.3094002852
 20
-13.6531438919
 10
-9.3149644325
 20
-13.7325381229
 10
-9.325944566
 20
-13.8074217823
 10
-9.3424675175
 20
-13.8781624316
 10
-9.3644077915
 20
-13.9443933228
 10
-9.3913883488
 20
-14.0050138795
 10
-9.4235319968
 20
-14.0599299312
 10
-9.4607186671
 20
-14.1092373261
 10
-9.5022082362
 20
-14.1521212727
 10
-9.5481827196
 20
-14.1884417904
 10
-9.5984635782
 20
-14.2183409949
 10
-9.6517707491
 20
-14.2414277885
 10
-9.7076079349
 20
-14.2575909765
 10
-9.7664750484
 20
-14.2669439778
 10
-9.8285865135
 20
-14.269432722
 10
-9.8941303801
 20
-14.2653070196
 10
-9.9629209896
 20
-14.2543185327
 10
-10.0346121246
 20
-14.2356659199
 10
-10.1090889947
 20
-14.2090824466
 10
-10.1864680192
 20
-14.1748358513
 10
-10.2667496241
 20
-14.1329263964
  0
LWPOLYLINE
  5
2D1
100
AcDbEntity
  8
ASSI
100
AcDbPolyline
 62
250
  6
CONTINUOUS
 90
13
 70
0
 10
-10.2667496263
 20
-14.1329263419
 10
-10.2661332923
 20
-14.1108578654
 10
-10.2630262823
 20
-14.0876379561
 10
-10.2574836015
 20
-14.0636775885
 10
-10.2496033647
 20
-14.0394008431
 10
-10.2395250556
 20
-14.0152373865
 10
-10.2274270541
 20
-13.9916148681
 10
-10.2135234903
 20
-13.9689513769
 10
-10.1980604439
 20
-13.9476480172
 10
-10.1813115775
 20
-13.9280818026
 10
-10.1635733175
 20
-13.9105990196
 10
-10.1451596132
 20
-13.8955090931
 10
-10.1263963617
 20
-13.8830790902
  0
LWPOLYLINE
  5
2D2
100
AcDbEntity
  8
0
100
AcDbPolyline
 62
250
  6
CONTINUOUS
 90
13
 70
0
 10
-10.2667496263
 20
-14.1329263419
 10
-10.2661332923
 20
-14.1108578654
 10
-10.2630262823
 20
-14.0876379561
 10
-10.2574836015
 20
-14.0636775885
 10
-10.2496033647
 20
-14.0394008431
 10
-10.2395250556
 20
-14.0152373865
 10
-10.2274270541
 20
-13.9916148681
 10
-10.2135234903
 20
-13.9689513769
 10
-10.1980604439
 20
-13.9476480172
 10
-10.1813115775
 20
-13.9280818026
 10
-10.1635733175
 20
-13.9105990196
 10
-10.1451596132
 20
-13.8955090931
 10
-10.1263963617
 20
-13.8830790902
  0
LWPOLYLINE
  5
2D3
100
AcDbEntity
  8
0
100
AcDbPolyline
 62
7
  6
CONTINUOUS
 90
9
 70
0
 10
-9.3675227183
 20
-13.5481116032
 10
-9.3708042456
 20
-13.6078053485
 10
-9.3776257533
 20
-13.6634641636
 10
-9.3878445462
 20
-13.7151075266
 10
-9.401507207
 20
-13.7631574869
 10
-9.4186203705
 20
-13.8072972692
 10
-9.4388964846
 20
-13.8466924449
 10
-9.4619655729
 20
-13.8808944605
 10
-9.487286224
 20
-13.9095338403
  0
LWPOLYLINE
  5
2D4
100
AcDbEntity
  8
ASSI
100
AcDbPolyline
 62
7
  6
CONTINUOUS
 90
25
 70
0
 10
-5.6725229918
 20
24.3748536533
 10
-5.6762350819
 20
24.3386272142
 10
-5.6769113628
 20
24.3010662868
 10
-5.6745518344
 20
24.262170871
 10
-5.6690839273
 20
24.2215813494
 10
-5.660580211
 20
24.1796573394
 10
-5.6492583938
 20
24.1374776936
 10
-5.6350450751
 20
24.095035548
 10
-5.6180136555
 20
24.0523377666
 10
-5.5986020459
 20
24.0104837941
 10
-5.5767482358
 20
23.9694954964
 10
-5.5525142356
 20
23.9293510077
 10
-5.5265239874
 20
23.8910841749
 10
-5.4987318192
 20
23.8547439255
 10
-5.4691834029
 20
23.8202813321
 10
-5.4386396962
 20
23.7885834583
 10
-5.4070753751
 20
23.7597224761
 10
-5.3745157636
 20
23.7336262137
 10
-5.3417977919
 20
23.7109652196
 10
-5.3089166144
 20
23.691828309
 10
-5.2758770767
 20
23.6761266668
 10
-5.2435306448
 20
23.6642643957
 10
-5.212161141
 20
23.6563761965
 10
-5.1814847432
 20
23.6523273683
 10
-5.1515014512
 20
23.6521179111
  0
LINE
  5
2D5
100
AcDbEntity
  8
CURVE
100
AcDbLine
 62
7
  6
CONTINUOUS
 10
-6.9464476956
 20
6.8077482165
 11
-6.7330671235
 21
7.0211287887
  0
LWPOLYLINE
  5
2D6
100
AcDbEntity
  8
CURVE
100
AcDbPolyline
 62
250
  6
CONTINUOUS
 90
7
 70
0
 10
-6.7232087244
 20
7.0154366726
 10
-6.865748298
 20
6.8867359502
 10
-7.0080038559
 20
6.7570513335
 10
-7.2208395008
 20
6.5606934456
 10
-7.3623547175
 20
6.4285768496
 10
-7.5740474797
 20
6.2286010473
 10
-7.7519361594
 20
6.0583689552
  0
LINE
  5
2D7
100
AcDbEntity
  8
0
100
AcDbLine
 62
7
  6
CONTINUOUS
 10
6.3791032781
 20
14.411544086
 11
8.1468702311
 21
15.4322305693
  0
LINE
  5
2D8
100
AcDbEntity
  8
0
100
AcDbLine
 62
7
  6
CONTINUOUS
 10
7.067356717
 20
14.0141551762
 11
9.8957838417
 21
15.6472535496
  0
LINE
  5
2D9
100
AcDbEntity
  8
ASSI
100
AcDbLine
 62
7
  6
CONTINUOUS
 10
7.4089524602
 20
13.5555769302
 11
10.2373795849
 21
15.1886753035
  0
LINE
  5
2DA
100
AcDbEntity
  8
DRAFT
100
AcDbLine
 62
7
  6
CONTINUOUS
 10
12.1420235448
 20
-17.8427594989
 11
14.11168857
 21
-18.9800193987
  0
LINE
  5
2DB
100
AcDbEntity
  8
RACCORDO
100
AcDbLine
 62
250
  6
CONTINUOUS
 10
14.4776489262
 20
-18.7760302908
 11
15.1908726848
 21
-19.1878367503
  0
LINE
  5
2DC
100
AcDbEntity
  8
ASSI
100
AcDbLine
 62
250
  6
CONTINUOUS
 10
-21.6313185077
 20
2.1784485211
 11
0.7250011855
 21
-10.7298102793
  0
LINE
  5
2DD
100
AcDbEntity
  8
0
100
AcDbLine
 62
250
  6
CONTINUOUS
 10
-21.6313185077
 20
2.1784485211
 11
0.7250011855
 21
-10.7298102793
  0
LINE
  5
2DE
100
AcDbEntity
  8
RACCORDO
100
AcDbLine
 62
7
  6
CONTINUOUS
 10
14.7267306074
 20
-18.7542697797
 11
15.4356445713
 21
-19.1635878177
  0
LINE
  5
2DF
100
AcDbEntity
  8
ASSI
100
AcDbLine
 62
250
  6
CONTINUOUS
 10
-21.8489442736
 20
3.9875775577
 11
0.5073754196
 21
-8.9206812427
  0
LINE
  5
2E0
100
AcDbEntity
  8
0
100
AcDbLine
 62
250
  6
CONTINUOUS
 10
-21.8489442736
 20
3.9875775577
 11
0.5073754196
 21
-8.9206812427
  0
LWPOLYLINE
  5
2E1
100
AcDbEntity
  8
CURVE
100
AcDbPolyline
 62
250
  6
CONTINUOUS
 90
87
 70
0
 10
-10.1251577978
 20
0.2467270447
 10
-10.1129428303
 20
0.1919570952
 10
-10.102984289
 20
0.1388321378
 10
-10.0952752673
 20
0.0873065629
 10
-10.0898088589
 20
0.0373347609
 10
-10.0865781575
 20
-0.0111288779
 10
-10.0855784045
 20
-0.0581011297
 10
-10.0868134335
 20
-0.1034834368
 10
-10.0902892256
 20
-0.1471484083
 10
-10.0960117623
 20
-0.1889686532
 10
-10.1039870249
 20
-0.2288167806
 10
-10.1142144652
 20
-0.26657962
 10
-10.1266674165
 20
-0.3022008843
 10
-10.1413126824
 20
-0.3356385065
 10
-10.1581170668
 20
-0.3668504201
 10
-10.1770473732
 20
-0.3957945583
 10
-10.1980667583
 20
-0.422432105
 10
-10.22112379
 20
-0.4467372458
 10
-10.2461633892
 20
-0.4686874171
 10
-10.2731304768
 20
-0.4882600551
 10
-10.3019699736
 20
-0.5054325961
 10
-10.332636967
 20
-0.5201845579
 10
-10.3651272112
 20
-0.5325037842
 10
-10.399446627
 20
-0.5423802004
 10
-10.4356011351
 20
-0.5498037317
 10
-10.4735966564
 20
-0.5547643033
 10
-10.5066579627
 20
-0.5570074839
 10
-10.5409319139
 20
-0.5575158495
 10
-10.5763485618
 20
-0.5562719702
 10
-10.6128615281
 20
-0.5532563903
 10
-10.6505187142
 20
-0.5484415502
 10
-10.6893915909
 20
-0.5417978649
 10
-10.7295113771
 20
-0.5333028951
 10
-10.7707482826
 20
-0.5229627861
 10
-10.8129322651
 20
-0.5107908289
 10
-10.8558629121
 20
-0.496829471
 10
-10.899218331
 20
-0.4812377851
 10
-10.9426462591
 20
-0.4642040002
 10
-10.9858900143
 20
-0.4458768544
 10
-11.029075238
 20
-0.4262471219
 10
-11.0724231522
 20
-0.4052660863
 10
-11.1161146438
 20
-0.3828940264
 10
-11.160169258
 20
-0.3591272027
 10
-11.2045662053
 20
-0.3339708708
 10
-11.2492846945
 20
-0.3074328869
 10
-11.2943039302
 20
-0.2795315077
 10
-11.3396031158
 20
-0.2502875902
 10
-11.3852102356
 20
-0.2196789803
 10
-11.4313483981
 20
-0.187511479
 10
-11.4782894927
 20
-0.153547876
 10
-11.526198899
 20
-0.1176289015
 10
-11.5748159566
 20
-0.079907047
 10
-11.623773495
 20
-0.040612744
 10
-11.6727263673
 20
0.0000236002
 10
-11.7214175207
 20
0.0417716772
 10
-11.7696119257
 20
0.0844012033
 10
-11.8171304386
 20
0.1277326838
 10
-11.8640174581
 20
0.171789781
 10
-11.9103732682
 20
0.2166469466
 10
-11.9562657076
 20
0.2623482799
 10
-12.0016328326
 20
0.308816472
 10
-12.0463802539
 20
0.355943862
 10
-12.0991534589
 20
0.4132455157
 10
-12.1508985159
 20
0.4713367322
 10
-12.2016155708
 20
0.5302128612
 10
-12.2513047697
 20
0.5898692526
 10
-12.2999662585
 20
0.650301256
 10
-12.3475853114
 20
0.7114872141
 10
-12.3940877157
 20
0.7733374405
 10
-12.4393843869
 20
0.8357452417
 10
-12.4833862406
 20
0.8986039242
 10
-12.5260041922
 20
0.9618067944
 10
-12.56715306
 20
1.0252491162
 10
-12.6067632732
 20
1.0888339828
 10
-12.6447691634
 20
1.1524664449
 10
-12.6811050625
 20
1.2160515531
 10
-12.7157053023
 20
1.2794943579
 10
-12.748504509
 20
1.3426904749
 10
-12.7794384855
 20
1.4054977794
 10
-12.8084433296
 20
1.4677647117
 10
-12.8354551385
 20
1.5293397118
 10
-12.8604100098
 20
1.59007122
 10
-12.8832559706
 20
1.6498401056
 10
-12.9039887668
 20
1.7086569539
 10
-12.9226160738
 20
1.7665647792
 10
-12.9391455673
 20
1.8236065958
 10
-12.9535849226
 20
1.8798254181
  0
LINE
  5
2E2
100
AcDbEntity
  8
0
100
AcDbLine
 62
7
  6
CONTINUOUS
 10
-5.5002906458
 20
23.9653510626
 11
-5.5002906458
 21
24.7818213394
  0
LINE
  5
2E3
100
AcDbEntity
  8
0
100
AcDbLine
 62
7
  6
CONTINUOUS
 10
10.7008243196
 20
15.8357751993
 11
10.4096119309
 21
15.5956429895
  0
LINE
  5
2E4
100
AcDbEntity
  8
RACCORDO
100
AcDbLine
 62
250
  6
CONTINUOUS
 10
14.8463533834
 20
14.4664512701
 11
14.7873100763
 21
14.4317546703
  0
LINE
  5
2E5
100
AcDbEntity
  8
ASSI
100
AcDbLine
 62
7
  6
CONTINUOUS
 10
7.9299740007
 20
12.832841188
 11
10.7584011255
 21
14.4659395613
  0
LWPOLYLINE
  5
2E6
100
AcDbEntity
  8
IMPORT_IGES
100
AcDbPolyline
 62
250
  6
CONTINUOUS
 90
9
 70
0
 10
25.1953178102
 20
19.2194121249
 10
25.2311520407
 20
19.2362014438
 10
25.2664570885
 20
19.248498606
 10
25.3008670507
 20
19.2561761631
 10
25.3340253008
 20
19.2591545447
 10
25.3655881851
 20
19.2574028825
 10
25.3952285845
 20
19.2509393309
 10
25.4226393045
 20
19.2398308784
 10
25.4301046569
 20
19.2357705587
  0
LINE
  5
2E7
100
AcDbEntity
  8
0
100
AcDbLine
 62
7
  6
CONTINUOUS
 10
11.8074313967
 20
15.9318073199
 11
10.4096119309
 21
14.7791727127
  0
LINE
  5
2E8
100
AcDbEntity
  8
IMPORT_IGES
100
AcDbLine
 62
250
  6
CONTINUOUS
 10
25.1953178102
 20
19.2194121249
 11
15.5331007673
 21
13.1872810733
  0
LINE
  5
2E9
100
AcDbEntity
  8
ASSI
100
AcDbLine
 62
250
  6
CONTINUOUS
 10
5.9531019165
 20
6.7890802521
 11
11.7887392788
 21
10.3899707534
  0
LINE
  5
2EA
100
AcDbEntity
  8
RACCORDO
100
AcDbLine
 62
7
  6
CONTINUOUS
 10
15.1908726848
 20
12.6474409951
 11
11.5981605928
 21
10.5000084982
  0
LINE
  5
2EB
100
AcDbEntity
  8
ASSI
100
AcDbLine
 62
7
  6
CONTINUOUS
 10
12.0649357423
 20
12.5169307914
 11
14.8933628671
 21
14.1500291647
  0
LINE
  5
2EC
100
AcDbEntity
  8
RACCORDO
100
AcDbLine
 62
250
  6
CONTINUOUS
 10
-21.9640098337
 20
-9.1814925158
 11
-21.5053713601
 21
-8.9212242082
  0
LINE
  5
2ED
100
AcDbEntity
  8
RACCORDO
100
AcDbLine
 62
250
  6
CONTINUOUS
 10
-21.7354728773
 20
-9.5395785291
 11
-21.2026036381
 21
-9.2371857229
  0
LWPOLYLINE
  5
2EE
100
AcDbEntity
  8
RACCORDO
100
AcDbPolyline
 62
250
  6
CONTINUOUS
 90
16
 70
0
 10
-21.9640087392
 20
-9.1814918904
 10
-21.9874209137
 20
-9.1940924731
 10
-22.0128150918
 20
-9.2052229962
 10
-22.0399191832
 20
-9.2147642058
 10
-22.0684427701
 20
-9.2226138752
 10
-22.0980802419
 20
-9.228687907
 10
-22.1285140722
 20
-9.2329212287
 10
-22.1594181882
 20
-9.2352684834
 10
-22.190461462
 20
-9.2357045205
 10
-22.2213112832
 20
-9.2342246686
 10
-22.2516371137
 20
-9.2308447835
 10
-22.2811140298
 20
-9.2256010792
 10
-22.3094262035
 20
-9.218549739
 10
-22.3362702865
 20
-9.2097663142
 10
-22.36135866
 20
-9.1993449143
 10
-22.3844225169
 20
-9.1873971988
  0
LINE
  5
2EF
100
AcDbEntity
  8
RACCORDO
100
AcDbLine
 62
7
  6
CONTINUOUS
 10
14.5021111475
 20
-13.2826459104
 11
15.1968214778
 21
-13.6837629484
  0
LWPOLYLINE
  5
2F0
100
AcDbEntity
  8
ASSI
100
AcDbPolyline
 62
250
  6
CONTINUOUS
 90
9
 70
0
 10
0.9336091458
 20
-21.8641010876
 10
0.9364699434
 20
-21.9013087812
 10
0.9425290962
 20
-21.9361772533
 10
0.9517313058
 20
-21.9683882797
 10
0.9639925889
 20
-21.9976478893
 10
0.9792010441
 20
-22.0236890469
 10
0.9972178727
 20
-22.0462740901
 10
1.0178786456
 20
-22.0651968984
 10
1.0369082539
 20
-22.0780011628
  0
LWPOLYLINE
  5
2F1
100
AcDbEntity
  8
0
100
AcDbPolyline
 62
250
  6
CONTINUOUS
 90
9
 70
0
 10
0.9336091458
 20
-21.8641010876
 10
0.9364699434
 20
-21.9013087812
 10
0.9425290962
 20
-21.9361772533
 10
0.9517313058
 20
-21.9683882797
 10
0.9639925889
 20
-21.9976478893
 10
0.9792010441
 20
-22.0236890469
 10
0.9972178727
 20
-22.0462740901
 10
1.0178786456
 20
-22.0651968984
 10
1.0369082539
 20
-22.0780011628
  0
LINE
  5
2F2
100
AcDbEntity
  8
RACCORDO
100
AcDbLine
 62
7
  6
CONTINUOUS
 10
-0.3716202862
 20
23.1843310756
 11
-0.3716202862
 21
22.4459607573
  0
LWPOLYLINE
  5
2F3
100
AcDbEntity
  8
ASSI
100
AcDbPolyline
 62
250
  6
CONTINUOUS
 90
16
 70
0
 10
-1.5651573972
 20
1.3436389739
 10
-1.5961828751
 20
1.3103105446
 10
-1.6257928814
 20
1.2744512917
 10
-1.6537171829
 20
1.2363884817
 10
-1.679700931
 20
1.1964694912
 10
-1.7035069871
 20
1.1550586378
 10
-1.7249180874
 20
1.1125338539
 10
-1.7437388252
 20
1.0692832385
 10
-1.7597974347
 20
1.0257015145
 10
-1.7729473586
 20
0.9821864266
 10
-1.7830685852
 20
0.9391351112
 10
-1.790068744
 20
0.8969404727
 10
-1.7938839486
 20
0.8559875968
 10
-1.7944793799
 20
0.8166502362
 10
-1.7918496037
 20
0.7792874001
 10
-1.7860186204
 20
0.744240077
  0
LWPOLYLINE
  5
2F4
100
AcDbEntity
  8
0
100
AcDbPolyline
 62
250
  6
CONTINUOUS
 90
16
 70
0
 10
-1.5651573972
 20
1.3436389739
 10
-1.5961828751
 20
1.3103105446
 10
-1.6257928814
 20
1.2744512917
 10
-1.6537171829
 20
1.2363884817
 10
-1.679700931
 20
1.1964694912
 10
-1.7035069871
 20
1.1550586378
 10
-1.7249180874
 20
1.1125338539
 10
-1.7437388252
 20
1.0692832385
 10
-1.7597974347
 20
1.0257015145
 10
-1.7729473586
 20
0.9821864266
 10
-1.7830685852
 20
0.9391351112
 10
-1.790068744
 20
0.8969404727
 10
-1.7938839486
 20
0.8559875968
 10
-1.7944793799
 20
0.8166502362
 10
-1.7918496037
 20
0.7792874001
 10
-1.7860186204
 20
0.744240077
  0
LWPOLYLINE
  5
2F5
100
AcDbEntity
  8
ASSI
100
AcDbPolyline
 62
250
  6
CONTINUOUS
 90
7
 70
0
 10
1.8426802247
 20
3.4390331484
 10
1.6830940466
 20
3.3114384008
 10
1.155922939
 20
2.875842154
 10
0.6144742221
 20
2.4097008842
 10
0.0593583769
 20
1.9118276528
 10
-0.5100350775
 20
1.3834093984
 10
-1.0937061414
 20
0.8244461211
  0
LWPOLYLINE
  5
2F6
100
AcDbEntity
  8
0
100
AcDbPolyline
 62
250
  6
CONTINUOUS
 90
7
 70
0
 10
1.8426802247
 20
3.4390331484
 10
1.6830940466
 20
3.3114384008
 10
1.155922939
 20
2.875842154
 10
0.6144742221
 20
2.4097008842
 10
0.0593583769
 20
1.9118276528
 10
-0.5100350775
 20
1.3834093984
 10
-1.0937061414
 20
0.8244461211
  0
LWPOLYLINE
  5
2F7
100
AcDbEntity
  8
ASSI
100
AcDbPolyline
 62
250
  6
CONTINUOUS
 90
7
 70
0
 10
1.7071062494
 20
4.2327348599
 10
1.2536730495
 20
3.8703173854
 10
0.7188583869
 20
3.4269357065
 10
0.1687733086
 20
2.9537047147
 10
-0.3958732316
 20
2.4494351253
 10
-0.9741673499
 20
1.9130962962
 10
-1.5651573972
 20
1.3436389739
  0
LWPOLYLINE
  5
2F8
100
AcDbEntity
  8
0
100
AcDbPolyline
 62
250
  6
CONTINUOUS
 90
7
 70
0
 10
1.7071062494
 20
4.2327348599
 10
1.2536730495
 20
3.8703173854
 10
0.7188583869
 20
3.4269357065
 10
0.1687733086
 20
2.9537047147
 10
-0.3958732316
 20
2.4494351253
 10
-0.9741673499
 20
1.9130962962
 10
-1.5651573972
 20
1.3436389739
  0
LWPOLYLINE
  5
2F9
100
AcDbEntity
  8
ASSI
100
AcDbPolyline
 62
250
  6
CONTINUOUS
 90
16
 70
0
 10
-1.0937061414
 20
0.8244461211
 10
-1.1316671679
 20
0.7956342966
 10
-1.1732793233
 20
0.7698263878
 10
-1.217961671
 20
0.7471000998
 10
-1.2648971523
 20
0.7271881677
 10
-1.3135341423
 20
0.7103260939
 10
-1.3636780116
 20
0.6972542721
 10
-1.4147517349
 20
0.6877666553
 10
-1.4659082831
 20
0.6816913469
 10
-1.5167318563
 20
0.6797030212
 10
-1.567107311
 20
0.681615504
 10
-1.6160763009
 20
0.6869967855
 10
-1.6625120774
 20
0.6960842658
 10
-1.7062123701
 20
0.7088232819
 10
-1.7474165552
 20
0.7248964672
 10
-1.7860186204
 20
0.7442400771
  0
LWPOLYLINE
  5
2FA
100
AcDbEntity
  8
0
100
AcDbPolyline
 62
250
  6
CONTINUOUS
 90
16
 70
0
 10
-1.0937061414
 20
0.8244461211
 10
-1.1316671679
 20
0.7956342966
 10
-1.1732793233
 20
0.7698263878
 10
-1.217961671
 20
0.7471000998
 10
-1.2648971523
 20
0.7271881677
 10
-1.3135341423
 20
0.7103260939
 10
-1.3636780116
 20
0.6972542721
 10
-1.4147517349
 20
0.6877666553
 10
-1.4659082831
 20
0.6816913469
 10
-1.5167318563
 20
0.6797030212
 10
-1.567107311
 20
0.681615504
 10
-1.6160763009
 20
0.6869967855
 10
-1.6625120774
 20
0.6960842658
 10
-1.7062123701
 20
0.7088232819
 10
-1.7474165552
 20
0.7248964672
 10
-1.7860186204
 20
0.7442400771
  0
LINE
  5
2FB
100
AcDbEntity
  8
IMPORT_IGES
100
AcDbLine
 62
7
  6
CONTINUOUS
 10
16.75691125
 20
11.6866320375
 11
22.6274069572
 21
15.6693540475
  0
LINE
  5
2FC
100
AcDbEntity
  8
IMPORT_IGES
100
AcDbLine
 62
250
  6
CONTINUOUS
 10
14.5461866008
 20
11.7391352159
 11
25.5608622717
 21
18.6156570446
  0
LINE
  5
2FD
100
AcDbEntity
  8
ASSI
100
AcDbLine
 62
250
  6
CONTINUOUS
 10
6.3189346565
 20
6.1844194137
 11
12.1420235448
 21
9.7775668566
  0
LINE
  5
2FE
100
AcDbEntity
  8
IMPORT_IGES
100
AcDbLine
 62
7
  6
CONTINUOUS
 10
15.561383161
 20
10.0910929681
 11
15.3447401254
 21
9.9660059945
  0
LWPOLYLINE
  5
2FF
100
AcDbEntity
  8
IMPORT_IGES
100
AcDbPolyline
 62
7
  6
CONTINUOUS
 90
5
 70
0
 10
15.53613611
 20
8.0642156364
 10
15.3656734794
 20
7.9757182709
 10
15.1996891882
 20
7.9074321087
 10
15.0381832364
 20
7.8593571501
 10
14.8797828426
 20
7.8314231793
  0
LINE
  5
300
100
AcDbEntity
  8
ASSI
100
AcDbLine
 62
250
  6
CONTINUOUS
 10
-1.7860186204
 20
0.744240077
 11
-24.1063127757
 21
13.6316981833
  0
LINE
  5
301
100
AcDbEntity
  8
0
100
AcDbLine
 62
250
  6
CONTINUOUS
 10
-1.7860186204
 20
0.744240077
 11
-24.1063127757
 21
13.6316981833
  0
LWPOLYLINE
  5
302
100
AcDbEntity
  8
ASSI
100
AcDbPolyline
 62
250
  6
CONTINUOUS
 90
16
 70
0
 10
-1.0937061414
 20
0.8244461211
 10
-1.1081612616
 20
0.8584650408
 10
-1.126911496
 20
0.8940029035
 10
-1.1494599209
 20
0.9308799729
 10
-1.1748581041
 20
0.9691077981
 10
-1.2028142163
 20
1.0082062366
 10
-1.2337484547
 20
1.0473057803
 10
-1.2669962061
 20
1.0863352281
 10
-1.3017440628
 20
1.1249885501
 10
-1.3382420035
 20
1.1622502415
 10
-1.3762038133
 20
1.1982568434
 10
-1.4145546337
 20
1.2327863616
 10
-1.4527769942
 20
1.2645612522
 10
-1.4907335154
 20
1.2933182229
 10
-1.5282624664
 20
1.3196361452
 10
-1.5651574006
 20
1.3436389707
  0
LWPOLYLINE
  5
303
100
AcDbEntity
  8
0
100
AcDbPolyline
 62
250
  6
CONTINUOUS
 90
16
 70
0
 10
-1.0937061414
 20
0.8244461211
 10
-1.1081612616
 20
0.8584650408
 10
-1.126911496
 20
0.8940029035
 10
-1.1494599209
 20
0.9308799729
 10
-1.1748581041
 20
0.9691077981
 10
-1.2028142163
 20
1.0082062366
 10
-1.2337484547
 20
1.0473057803
 10
-1.2669962061
 20
1.0863352281
 10
-1.3017440628
 20
1.1249885501
 10
-1.3382420035
 20
1.1622502415
 10
-1.3762038133
 20
1.1982568434
 10
-1.4145546337
 20
1.2327863616
 10
-1.4527769942
 20
1.2645612522
 10
-1.4907335154
 20
1.2933182229
 10
-1.5282624664
 20
1.3196361452
 10
-1.5651574006
 20
1.3436389707
  0
LWPOLYLINE
  5
304
100
AcDbEntity
  8
ASSI
100
AcDbPolyline
 62
250
  6
CONTINUOUS
 90
28
 70
0
 10
0.2393650887
 20
-7.857748996
 10
0.5225664722
 20
-8.9817543281
 10
0.5371115127
 20
-9.0428288022
 10
0.5510209983
 20
-9.1038901328
 10
0.564269971
 20
-9.1647578155
 10
0.5769070588
 20
-9.2255817505
 10
0.5890406998
 20
-9.2868535816
 10
0.6007041435
 20
-9.3487604186
 10
0.6118572153
 20
-9.411110377
 10
0.6224874292
 20
-9.4738355078
 10
0.6325895741
 20
-9.5368991392
 10
0.6421688786
 20
-9.6003275528
 10
0.6512293961
 20
-9.6641465255
 10
0.6597742907
 20
-9.7283831297
 10
0.6677981563
 20
-9.7930016421
 10
0.675293031
 20
-9.857933046
 10
0.6822342342
 20
-9.9229223343
 10
0.6886518802
 20
-9.9882104124
 10
0.6946057494
 20
-10.0544822652
 10
0.7000766283
 20
-10.1216871319
 10
0.7050538784
 20
-10.1898857606
 10
0.7095733637
 20
-10.2599551355
 10
0.7136001872
 20
-10.3319415357
 10
0.7170942915
 20
-10.4058357861
 10
0.7200421637
 20
-10.4824578428
 10
0.7223896221
 20
-10.5621070484
 10
0.7240639425
 20
-10.6445478637
 10
0.7250011855
 20
-10.7298102793
  0
LWPOLYLINE
  5
305
100
AcDbEntity
  8
0
100
AcDbPolyline
 62
250
  6
CONTINUOUS
 90
28
 70
0
 10
0.2393650887
 20
-7.857748996
 10
0.5225664722
 20
-8.9817543281
 10
0.5371115127
 20
-9.0428288022
 10
0.5510209983
 20
-9.1038901328
 10
0.564269971
 20
-9.1647578155
 10
0.5769070588
 20
-9.2255817505
 10
0.5890406998
 20
-9.2868535816
 10
0.6007041435
 20
-9.3487604186
 10
0.6118572153
 20
-9.411110377
 10
0.6224874292
 20
-9.4738355078
 10
0.6325895741
 20
-9.5368991392
 10
0.6421688786
 20
-9.6003275528
 10
0.6512293961
 20
-9.6641465255
 10
0.6597742907
 20
-9.7283831297
 10
0.6677981563
 20
-9.7930016421
 10
0.675293031
 20
-9.857933046
 10
0.6822342342
 20
-9.9229223343
 10
0.6886518802
 20
-9.9882104124
 10
0.6946057494
 20
-10.0544822652
 10
0.7000766283
 20
-10.1216871319
 10
0.7050538784
 20
-10.1898857606
 10
0.7095733637
 20
-10.2599551355
 10
0.7136001872
 20
-10.3319415357
 10
0.7170942915
 20
-10.4058357861
 10
0.7200421637
 20
-10.4824578428
 10
0.7223896221
 20
-10.5621070484
 10
0.7240639425
 20
-10.6445478637
 10
0.7250011855
 20
-10.7298102793
  0
LWPOLYLINE
  5
306
100
AcDbEntity
  8
ASSI
100
AcDbPolyline
 62
250
  6
CONTINUOUS
 90
28
 70
0
 10
0.9296640996
 20
-7.7689331529
 10
1.2133382773
 20
-8.8949686451
 10
1.2286082051
 20
-8.959088278
 10
1.2432223007
 20
-9.0231795764
 10
1.2571396345
 20
-9.0870767309
 10
1.2704011361
 20
-9.150945551
 10
1.2831295943
 20
-9.2152834647
 10
1.2953710623
 20
-9.2802830902
 10
1.3070794869
 20
-9.3457518093
 10
1.318239497
 20
-9.4116091965
 10
1.3288449414
 20
-9.4778227495
 10
1.3389019713
 20
-9.5444249704
 10
1.3484136696
 20
-9.6114329402
 10
1.3573838868
 20
-9.6788800728
 10
1.3658087724
 20
-9.7467329542
 10
1.3736798568
 20
-9.8149084232
 10
1.380978525
 20
-9.883139161
 10
1.387723392
 20
-9.9516924864
 10
1.3939618339
 20
-10.0212871952
 10
1.3997155852
 20
-10.0918476252
 10
1.4049629113
 20
-10.1634494387
 10
1.4096859844
 20
-10.2370384178
 10
1.4139181164
 20
-10.3126256816
 10
1.4176259953
 20
-10.390200111
 10
1.4206918567
 20
-10.4706741317
 10
1.4230764458
 20
-10.5543518853
 10
1.4248190174
 20
-10.6409292301
 10
1.4259195715
 20
-10.7304061661
  0
LWPOLYLINE
  5
307
100
AcDbEntity
  8
0
100
AcDbPolyline
 62
250
  6
CONTINUOUS
 90
28
 70
0
 10
0.9296640996
 20
-7.7689331529
 10
1.2133382773
 20
-8.8949686451
 10
1.2286082051
 20
-8.959088278
 10
1.2432223007
 20
-9.0231795764
 10
1.2571396345
 20
-9.0870767309
 10
1.2704011361
 20
-9.150945551
 10
1.2831295943
 20
-9.2152834647
 10
1.2953710623
 20
-9.2802830902
 10
1.3070794869
 20
-9.3457518093
 10
1.318239497
 20
-9.4116091965
 10
1.3288449414
 20
-9.4778227495
 10
1.3389019713
 20
-9.5444249704
 10
1.3484136696
 20
-9.6114329402
 10
1.3573838868
 20
-9.6788800728
 10
1.3658087724
 20
-9.7467329542
 10
1.3736798568
 20
-9.8149084232
 10
1.380978525
 20
-9.883139161
 10
1.387723392
 20
-9.9516924864
 10
1.3939618339
 20
-10.0212871952
 10
1.3997155852
 20
-10.0918476252
 10
1.4049629113
 20
-10.1634494387
 10
1.4096859844
 20
-10.2370384178
 10
1.4139181164
 20
-10.3126256816
 10
1.4176259953
 20
-10.390200111
 10
1.4206918567
 20
-10.4706741317
 10
1.4230764458
 20
-10.5543518853
 10
1.4248190174
 20
-10.6409292301
 10
1.4259195715
 20
-10.7304061661
  0
LWPOLYLINE
  5
308
100
AcDbEntity
  8
ASSI
100
AcDbPolyline
 62
250
  6
CONTINUOUS
 90
6
 70
0
 10
-0.3596628496
 20
-2.4185076516
 10
-0.1083876832
 20
-3.494051
 10
0.146184133
 20
-4.5668720265
 10
0.404050292
 20
-5.6369605279
 10
0.6652100245
 20
-6.7043131029
 10
0.9296640996
 20
-7.7689331529
  0
LWPOLYLINE
  5
309
100
AcDbEntity
  8
0
100
AcDbPolyline
 62
250
  6
CONTINUOUS
 90
6
 70
0
 10
-0.3596628496
 20
-2.4185076516
 10
-0.1083876832
 20
-3.494051
 10
0.146184133
 20
-4.5668720265
 10
0.404050292
 20
-5.6369605279
 10
0.6652100245
 20
-6.7043131029
 10
0.9296640996
 20
-7.7689331529
  0
LWPOLYLINE
  5
30A
100
AcDbEntity
  8
ASSI
100
AcDbPolyline
 62
250
  6
CONTINUOUS
 90
3
 70
0
 10
-0.8523216941
 20
-0.2592607917
 10
-0.6076405968
 20
-1.3402453826
 10
-0.3596628496
 20
-2.4185076516
  0
LWPOLYLINE
  5
30B
100
AcDbEntity
  8
0
100
AcDbPolyline
 62
250
  6
CONTINUOUS
 90
3
 70
0
 10
-0.8523216941
 20
-0.2592607917
 10
-0.6076405968
 20
-1.3402453826
 10
-0.3596628496
 20
-2.4185076516
  0
LWPOLYLINE
  5
30C
100
AcDbEntity
  8
ASSI
100
AcDbPolyline
 62
250
  6
CONTINUOUS
 90
9
 70
0
 10
-1.7860186204
 20
0.744240077
 10
-1.5443982889
 20
-0.3405337541
 10
-1.2994733117
 20
-1.4226027338
 10
-1.0512460402
 20
-2.501956726
 10
-0.7997204277
 20
-3.5785788799
 10
-0.5448973559
 20
-4.652465887
 10
-0.2867744314
 20
-5.7236278065
 10
-0.0253523122
 20
-6.7920611381
 10
0.2393650887
 20
-7.857748996
  0
LWPOLYLINE
  5
30D
100
AcDbEntity
  8
0
100
AcDbPolyline
 62
250
  6
CONTINUOUS
 90
9
 70
0
 10
-1.7860186204
 20
0.744240077
 10
-1.5443982889
 20
-0.3405337541
 10
-1.2994733117
 20
-1.4226027338
 10
-1.0512460402
 20
-2.501956726
 10
-0.7997204277
 20
-3.5785788799
 10
-0.5448973559
 20
-4.652465887
 10
-0.2867744314
 20
-5.7236278065
 10
-0.0253523122
 20
-6.7920611381
 10
0.2393650887
 20
-7.857748996
  0
LINE
  5
30E
100
AcDbEntity
  8
ASSI
100
AcDbLine
 62
250
  6
CONTINUOUS
 10
-1.0937061414
 20
0.8244461211
 11
-0.8523216941
 21
-0.2592607917
  0
LINE
  5
30F
100
AcDbEntity
  8
0
100
AcDbLine
 62
250
  6
CONTINUOUS
 10
-1.0937061414
 20
0.8244461211
 11
-0.8523216941
 21
-0.2592607917
  0
LWPOLYLINE
  5
310
100
AcDbEntity
  8
ASSI
100
AcDbPolyline
 62
7
  6
CONTINUOUS
 90
12
 70
0
 10
1.1066134089
 20
17.1944685115
 10
1.1103254991
 20
17.1539554437
 10
1.11100178
 20
17.1156135641
 10
1.1086422516
 20
17.0794428725
 10
1.1031743445
 20
17.045167553
 10
1.0946706281
 20
17.0130634215
 10
1.0833488109
 20
16.9839579264
 10
1.0691354922
 20
16.957928965
 10
1.0521040726
 20
16.9348986399
 10
1.032692463
 20
16.9154607076
 10
1.0108386529
 20
16.8997086421
 10
1.007564369
 20
16.897703208
  0
LWPOLYLINE
  5
311
100
AcDbEntity
  8
RACCORDO
100
AcDbPolyline
 62
250
  6
CONTINUOUS
 90
9
 70
0
 10
1.8530807479
 20
3.8604196714
 10
1.8535989486
 20
3.8476634008
 10
1.8570860451
 20
3.8303846546
 10
1.863743326
 20
3.8133388456
 10
1.8734994616
 20
3.7967086098
 10
1.8862499205
 20
3.7806721304
 10
1.9018580884
 20
3.7654012291
 10
1.9201567325
 20
3.7510595245
 10
1.9409497931
 20
3.7378006797
  0
LINE
  5
312
100
AcDbEntity
  8
RACCORDO
100
AcDbLine
 62
250
  6
CONTINUOUS
 10
1.8588757024
 20
-19.9546551362
 11
1.9409382939
 21
-23.2326850813
  0
LWPOLYLINE
  5
313
100
AcDbEntity
  8
0
100
AcDbPolyline
 62
250
  6
CONTINUOUS
 90
5
 70
0
 10
1.5078328098
 20
-16.9296710539
 10
1.5343718179
 20
-18.1636128
 10
1.5642961507
 20
-19.3955716335
 10
1.5976058484
 20
-20.6255514612
 10
1.6343009111
 20
-21.8535522832
  0
LWPOLYLINE
  5
314
100
AcDbEntity
  8
RACCORDO
100
AcDbPolyline
 62
250
  6
CONTINUOUS
 90
9
 70
0
 10
1.530716554
 20
4.4811307191
 10
1.53114459
 20
4.4553280639
 10
1.5339665792
 20
4.4311075175
 10
1.5391505919
 20
4.4087431273
 10
1.5466379726
 20
4.388487939
 10
1.5563440041
 20
4.3705711333
 10
1.5681588659
 20
4.3551954328
 10
1.5819488769
 20
4.3425348084
 10
1.5927170045
 20
4.3353527761
  0
LWPOLYLINE
  5
315
100
AcDbEntity
  8
RACCORDO
100
AcDbPolyline
 62
7
  6
CONTINUOUS
 90
6
 70
0
 10
1.8530917415
 20
-23.1107427634
 10
1.8531797227
 20
-23.1196643144
 10
1.8527144719
 20
-23.1315524508
 10
1.8517700157
 20
-23.1406702464
 10
1.8506764537
 20
-23.1469727133
 10
1.8499687967
 20
-23.1498692136
  0
LWPOLYLINE
  5
316
100
AcDbEntity
  8
ASSI
100
AcDbPolyline
 62
250
  6
CONTINUOUS
 90
10
 70
0
 10
0.7250011855
 20
-10.7298102793
 10
0.7346243074
 20
-11.9748231346
 10
0.7476367087
 20
-13.2178900495
 10
0.7640381843
 20
-14.4589993344
 10
0.783828343
 20
-15.6981315342
 10
0.8070070296
 20
-16.9352828077
 10
0.8335745337
 20
-18.1704648015
 10
0.86353093
 20
-19.4036735352
 10
0.8968758691
 20
-20.6348895275
 10
0.9336091458
 20
-21.8641010876
  0
LWPOLYLINE
  5
317
100
AcDbEntity
  8
0
100
AcDbPolyline
 62
250
  6
CONTINUOUS
 90
10
 70
0
 10
0.7250011855
 20
-10.7298102793
 10
0.7346243074
 20
-11.9748231346
 10
0.7476367087
 20
-13.2178900495
 10
0.7640381843
 20
-14.4589993344
 10
0.783828343
 20
-15.6981315342
 10
0.8070070296
 20
-16.9352828077
 10
0.8335745337
 20
-18.1704648015
 10
0.86353093
 20
-19.4036735352
 10
0.8968758691
 20
-20.6348895275
 10
0.9336091458
 20
-21.8641010876
  0
LWPOLYLINE
  5
318
100
AcDbEntity
  8
ASSI
100
AcDbPolyline
 62
250
  6
CONTINUOUS
 90
10
 70
0
 10
1.4259195715
 20
-10.7304061661
 10
1.4355312317
 20
-11.9741921507
 10
1.4485283776
 20
-13.2160108505
 10
1.4649110092
 20
-14.4558622652
 10
1.4846791667
 20
-15.693750302
 10
1.5078328098
 20
-16.9296710539
 10
1.5343718179
 20
-18.1636128
 10
1.5642961507
 20
-19.3955716335
 10
1.5976058484
 20
-20.6255514612
 10
1.6343009111
 20
-21.8535522832
  0
LWPOLYLINE
  5
319
100
AcDbEntity
  8
0
100
AcDbPolyline
 62
250
  6
CONTINUOUS
 90
6
 70
0
 10
1.4259195715
 20
-10.7304061661
 10
1.4355312317
 20
-11.9741921507
 10
1.4485283776
 20
-13.2160108505
 10
1.4649110092
 20
-14.4558622652
 10
1.4846791667
 20
-15.693750302
 10
1.5078328098
 20
-16.9296710539
  0
LINE
  5
31A
100
AcDbEntity
  8
0
100
AcDbLine
 62
7
  6
CONTINUOUS
 10
2.136462591
 20
16.861191646
 11
2.136462591
 21
15.9630743415
  0
LWPOLYLINE
  5
31B
100
AcDbEntity
  8
RACCORDO
100
AcDbPolyline
 62
250
  6
CONTINUOUS
 90
19
 70
0
 10
1.9409382939
 20
-23.2326850813
 10
1.9405504507
 20
-23.2736703631
 10
1.9370010468
 20
-23.3121093966
 10
1.9302898845
 20
-23.3480023028
 10
1.9203083944
 20
-23.3816640791
 10
1.9071648274
 20
-23.4127799236
 10
1.8911839241
 20
-23.4404054387
 10
1.8723107389
 20
-23.4643669311
 10
1.8505992904
 20
-23.4848386646
 10
1.8265373452
 20
-23.501398437
 10
1.8000848382
 20
-23.5139732698
 10
1.7712808127
 20
-23.5226367711
 10
1.7407315112
 20
-23.5271867332
 10
1.7083149569
 20
-23.5275013606
 10
1.6741522483
 20
-23.5237029903
 10
1.6392142019
 20
-23.5159556378
 10
1.6038242358
 20
-23.5043140901
 10
1.5676584183
 20
-23.488723877
 10
1.5307166229
 20
-23.4691850763
  0
LWPOLYLINE
  5
31C
100
AcDbEntity
  8
RACCORDO
100
AcDbPolyline
 62
7
  6
CONTINUOUS
 90
8
 70
0
 10
1.7226074703
 20
-2.1724054223
 10
1.6847898288
 20
-5.2060163638
 10
1.6658723587
 20
-8.2285796897
 10
1.665855923
 20
-11.2399317437
 10
1.6847412544
 20
-14.2399087516
 10
1.7225271157
 20
-17.2283473286
 10
1.7792107552
 20
-20.2050844112
 10
1.8530885721
 20
-23.1106338211
  0
LWPOLYLINE
  5
31D
100
AcDbEntity
  8
RACCORDO
100
AcDbPolyline
 62
250
  6
CONTINUOUS
 90
7
 70
0
 10
1.8189009473
 20
-1.7732992736
 10
1.7796820425
 20
-4.6318316193
 10
1.7568866196
 20
-7.5552953343
 10
1.7518707972
 20
-10.5453055319
 10
1.7660769411
 20
-13.6084667522
 10
1.8011702077
 20
-16.746164143
 10
1.8588757024
 20
-19.9546551362
  0
LINE
  5
31E
100
AcDbEntity
  8
RACCORDO
100
AcDbLine
 62
7
  6
CONTINUOUS
 10
1.7793237688
 20
0.8720895201
 11
1.7226074703
 21
-2.1724054223
  0
LINE
  5
31F
100
AcDbEntity
  8
RACCORDO
100
AcDbLine
 62
7
  6
CONTINUOUS
 10
1.8530807479
 20
3.8604196714
 11
1.7793237688
 21
0.8720895201
  0
LWPOLYLINE
  5
320
100
AcDbEntity
  8
RACCORDO
100
AcDbPolyline
 62
250
  6
CONTINUOUS
 90
3
 70
0
 10
1.9409582445
 20
3.7376916569
 10
1.8731111737
 20
1.0168325064
 10
1.8189009473
 20
-1.7732992736
  0
LWPOLYLINE
  5
321
100
AcDbEntity
  8
IMPORT_IGES
100
AcDbPolyline
 62
7
  6
CONTINUOUS
 90
25
 70
0
 10
16.2432428757
 20
7.0843960584
 10
16.3833036957
 20
7.1707516861
 10
16.5215162475
 20
7.2663028497
 10
16.6578805311
 20
7.3710495492
 10
16.7929517379
 20
7.4855220071
 10
16.9261746766
 20
7.609190001
 10
17.0558837726
 20
7.7404628632
 10
17.1820336112
 20
7.8794290829
 10
17.3046696071
 20
8.0260001709
 10
17.4222624303
 20
8.1783199924
 10
17.5347505464
 20
8.3364570551
 10
17.6421954897
 20
8.5003428514
 10
17.7432525333
 20
8.6679157227
 10
17.8378443761
 20
8.839220262
 10
17.9260483191
 20
9.0142118765
 10
18.0067515392
 20
9.1906951291
 10
18.0798639173
 20
9.3686889978
 10
18.1454755723
 20
9.5481745047
 10
18.2027440381
 20
9.7268992792
 10
18.251569963
 20
9.9048583512
 10
18.2920526986
 20
10.0820566907
 10
18.3236478332
 20
10.2562568383
 10
18.3461738962
 20
10.4267129738
 10
18.3598123582
 20
10.5941709173
 10
18.3645632192
 20
10.7586306687
  0
LINE
  5
322
100
AcDbEntity
  8
IMPORT_IGES
100
AcDbLine
 62
250
  6
CONTINUOUS
 10
14.8854963568
 20
7.2803092589
 11
16.0074507657
 21
7.9281116732
  0
LINE
  5
323
100
AcDbEntity
  8
IMPORT_IGES
100
AcDbLine
 62
7
  6
CONTINUOUS
 10
15.4654254163
 20
7.533498111
 11
14.9062019465
 21
7.2106094882
  0
LINE
  5
324
100
AcDbEntity
  8
IMPORT_IGES
100
AcDbLine
 62
7
  6
CONTINUOUS
 10
16.2432428757
 20
7.0843960584
 11
22.6274069572
 21
10.7705323867
  0
LWPOLYLINE
  5
325
100
AcDbEntity
  8
IMPORT_IGES
100
AcDbPolyline
 62
7
  6
CONTINUOUS
 90
10
 70
0
 10
16.2432428757
 20
7.0843960584
 10
16.1031820556
 20
7.0090129618
 10
15.9649695038
 20
6.944959735
 10
15.8286052202
 20
6.8922363779
 10
15.6935340134
 20
6.8507319919
 10
15.5603110747
 20
6.8205574756
 10
15.4306019787
 20
6.802045525
 10
15.3044521402
 20
6.7953370732
 10
15.1818161442
 20
6.800291187
 10
15.109173616
 20
6.8105004182
  0
LINE
  5
326
100
AcDbEntity
  8
ASSI
100
AcDbLine
 62
250
  6
CONTINUOUS
 10
-1.5651573972
 20
1.3436389739
 11
-23.8854515525
 21
14.2310970802
  0
LINE
  5
327
100
AcDbEntity
  8
0
100
AcDbLine
 62
250
  6
CONTINUOUS
 10
-1.5651573972
 20
1.3436389739
 11
-23.8854515525
 21
14.2310970802
  0
LINE
  5
328
100
AcDbEntity
  8
CURVE
100
AcDbLine
 62
250
  6
CONTINUOUS
 10
-7.7519361644
 20
6.0583689503
 11
-16.2372175387
 21
10.9576640703
  0
LINE
  5
329
100
AcDbEntity
  8
CURVE
100
AcDbLine
 62
250
  6
CONTINUOUS
 10
-15.2084900986
 20
11.9147317925
 11
-6.7232087244
 21
7.0154366726
  0
LWPOLYLINE
  5
32A
100
AcDbEntity
  8
RACCORDO
100
AcDbPolyline
 62
250
  6
CONTINUOUS
 90
9
 70
0
 10
-21.8837052724
 20
17.890344815
 10
-21.8943970753
 20
17.8974827335
 10
-21.9081870862
 20
17.9101433578
 10
-21.920001948
 20
17.9255190583
 10
-21.9297079795
 20
17.9434358641
 10
-21.9371953602
 20
17.9636910524
 10
-21.9423793729
 20
17.9860554425
 10
-21.9452013621
 20
18.0102759889
 10
-21.9456293981
 20
18.0360786442
  0
LWPOLYLINE
  5
32B
100
AcDbEntity
  8
ASSI
100
AcDbPolyline
 62
250
  6
CONTINUOUS
 90
16
 70
0
 10
5.2777844159
 20
-28.6967797695
 10
5.1986550486
 20
-26.4538852006
 10
5.1308252478
 20
-24.2042208547
 10
5.0742971344
 20
-21.9478574091
 10
5.0290724271
 20
-19.684863943
 10
4.9951526185
 20
-17.4153133625
 10
4.9725388857
 20
-15.139282451
 10
4.9612319049
 20
-12.8568471263
 10
4.9612318969
 20
-10.5680748353
 10
4.9725388625
 20
-8.2730299456
 10
4.9951525824
 20
-5.9717802186
 10
5.0290723819
 20
-3.6644022919
 10
5.074297086
 20
-1.3509741258
 10
5.1308252047
 20
0.968429712
 10
5.1986550209
 20
3.2937380978
 10
5.2777844159
 20
5.6248779062
  0
LWPOLYLINE
  5
32C
100
AcDbEntity
  8
ASSI
100
AcDbPolyline
 62
250
  6
CONTINUOUS
 90
16
 70
0
 10
5.9783544754
 20
-28.6833309797
 10
5.8993103863
 20
-26.4429596238
 10
5.8315544102
 20
-24.1958341454
 10
5.7750865471
 20
-21.9419545445
 10
5.7299037642
 20
-19.6812188429
 10
5.6960090943
 20
-17.4137290188
 10
5.673411636
 20
-15.1397910066
 10
5.662114422
 20
-12.8594073734
 10
5.6621144195
 20
-10.5725755521
 10
5.6734116291
 20
-8.2795937761
 10
5.696009083
 20
-5.9804561075
 10
5.7299037489
 20
-3.6751684842
 10
5.7750865308
 20
-1.3640469532
 10
5.8315543964
 20
0.9528031363
 10
5.899310378
 20
3.2754871335
 10
5.9783544754
 20
5.6040050383
  0
LINE
  5
32D
100
AcDbEntity
  8
0
100
AcDbLine
 62
7
  6
CONTINUOUS
 10
3.9042295439
 20
17.09073431
 11
3.9042295439
 21
17.8818781293
  0
LWPOLYLINE
  5
32E
100
AcDbEntity
  8
ASSI
100
AcDbPolyline
 62
250
  6
CONTINUOUS
 90
31
 70
0
 10
5.2777844159
 20
5.6248779062
 10
5.2801225138
 20
5.6662935461
 10
5.2841803548
 20
5.7085038632
 10
5.2899480509
 20
5.7514065321
 10
5.2974116794
 20
5.7948967155
 10
5.3065530588
 20
5.8388697914
 10
5.3173500617
 20
5.8832216804
 10
5.3297771722
 20
5.9278456242
 10
5.3438044125
 20
5.9726327182
 10
5.3593973282
 20
6.017474697
 10
5.376518915
 20
6.0622632281
 10
5.3951278332
 20
6.1068892019
 10
5.4151774481
 20
6.1512433642
 10
5.43661913
 20
6.19521716
 10
5.4594016788
 20
6.2387048224
 10
5.4834695339
 20
6.2816026324
 10
5.5087650239
 20
6.3238064464
 10
5.5352273561
 20
6.3652137426
 10
5.562792036
 20
6.4057256373
 10
5.5913936693
 20
6.4452442453
 10
5.620962999
 20
6.4836728036
 10
5.6514259721
 20
6.5209177465
 10
5.6827090919
 20
6.5568883313
 10
5.7147375548
 20
6.5914973574
 10
5.7474322847
 20
6.6246613496
 10
5.7807141121
 20
6.6562988763
 10
5.8145037317
 20
6.6863339439
 10
5.8487198245
 20
6.7146965176
 10
5.8832802472
 20
6.7413182725
 10
5.9181021365
 20
6.766133093
 10
5.9531019165
 20
6.7890802521
  0
LWPOLYLINE
  5
32F
100
AcDbEntity
  8
ASSI
100
AcDbPolyline
 62
250
  6
CONTINUOUS
 90
9
 70
0
 10
1.6343009111
 20
-21.8535522832
 10
1.6291040412
 20
-21.8964980744
 10
1.6195233115
 20
-21.9371871513
 10
1.6059475151
 20
-21.9749003575
 10
1.5892211934
 20
-22.0087625144
 10
1.5695357523
 20
-22.0384189321
 10
1.546378159
 20
-22.0639673367
 10
1.5203495955
 20
-22.0849516374
 10
1.4899019654
 20
-22.1019401311
  0
LWPOLYLINE
  5
330
100
AcDbEntity
  8
0
100
AcDbPolyline
 62
250
  6
CONTINUOUS
 90
9
 70
0
 10
1.6343009111
 20
-21.8535522832
 10
1.6291040412
 20
-21.8964980744
 10
1.6195233115
 20
-21.9371871513
 10
1.6059475151
 20
-21.9749003575
 10
1.5892211934
 20
-22.0087625144
 10
1.5695357523
 20
-22.0384189321
 10
1.546378159
 20
-22.0639673367
 10
1.5203495955
 20
-22.0849516374
 10
1.4899019654
 20
-22.1019401311
  0
LWPOLYLINE
  5
331
100
AcDbEntity
  8
0
100
AcDbPolyline
 62
7
  6
CONTINUOUS
 90
3
 70
0
 10
-9.487286224
 20
-13.9095338403
 10
-9.514925651
 20
-13.9330834801
 10
-9.5346714596
 20
-13.946101047
  0
LINE
  5
332
100
AcDbEntity
  8
ASSI
100
AcDbLine
 62
7
  6
CONTINUOUS
 10
-10.7986412797
 20
-11.8796271939
 11
-10.7979430453
 21
-11.8791204989
  0
LINE
  5
333
100
AcDbEntity
  8
0
100
AcDbLine
 62
7
  6
CONTINUOUS
 10
-10.7986412797
 20
-11.8796271939
 11
-10.7977403681
 21
-11.8789738556
  0
LINE
  5
334
100
AcDbEntity
  8
IMPORT_IGES
100
AcDbLine
 62
7
  6
CONTINUOUS
 10
22.6274069572
 20
10.7705323867
 11
16.75691125
 21
6.7878103768
  0
LINE
  5
335
100
AcDbEntity
  8
0
100
AcDbLine
 62
7
  6
CONTINUOUS
 10
-10.7979191151
 20
-11.879109134
 11
-10.7799574235
 21
-11.8673474621
  0
LINE
  5
336
100
AcDbEntity
  8
ASSI
100
AcDbLine
 62
7
  6
CONTINUOUS
 10
-11.0064924111
 20
-12.4179757749
 11
-10.9290476161
 21
-12.3674835588
  0
LINE
  5
337
100
AcDbEntity
  8
0
100
AcDbLine
 62
7
  6
CONTINUOUS
 10
-11.0064924111
 20
-12.4179757749
 11
-10.9290476161
 21
-12.3674835588
  0
LWPOLYLINE
  5
338
100
AcDbEntity
  8
ASSI
100
AcDbPolyline
 62
7
  6
CONTINUOUS
 90
12
 70
0
 10
-10.7981239027
 20
-11.8792571032
 10
-10.7749504056
 20
-11.8644597384
 10
-10.7435774152
 20
-11.8496880996
 10
-10.7085171223
 20
-11.8388220876
 10
-10.6691372337
 20
-11.8321504621
 10
-10.6257770184
 20
-11.830201408
 10
-10.5784094426
 20
-11.8333999071
 10
-10.5271405589
 20
-11.8421522774
 10
-10.4726087507
 20
-11.8566593419
 10
-10.4157857641
 20
-11.876827398
 10
-10.3573682329
 20
-11.9025144197
 10
-10.2978257787
 20
-11.9336086188
  0
LINE
  5
339
100
AcDbEntity
  8
DRAFT
100
AcDbLine
 62
7
  6
CONTINUOUS
 10
-10.7411684793
 20
-12.1058324808
 11
-10.3881783414
 21
-11.8889907269
  0
LWPOLYLINE
  5
33A
100
AcDbEntity
  8
ASSI
100
AcDbPolyline
 62
250
  6
CONTINUOUS
 90
13
 70
0
 10
-11.0063102498
 20
-12.4187344332
 10
-11.0259946568
 20
-12.4298307751
 10
-11.0477589244
 20
-12.4392658087
 10
-11.0712273986
 20
-12.4468900758
 10
-11.0959950665
 20
-12.452522854
 10
-11.121637501
 20
-12.4561351368
 10
-11.1477185138
 20
-12.4578564537
 10
-11.1737871135
 20
-12.4578868005
 10
-11.1994017047
 20
-12.4560390532
 10
-11.2241418428
 20
-12.4518950239
 10
-11.2475908408
 20
-12.4453559088
 10
-11.2693420165
 20
-12.4366699855
 10
-11.2890231675
 20
-12.4259599303
  0
LWPOLYLINE
  5
33B
100
AcDbEntity
  8
0
100
AcDbPolyline
 62
250
  6
CONTINUOUS
 90
13
 70
0
 10
-11.0063102498
 20
-12.4187344332
 10
-11.0259946568
 20
-12.4298307751
 10
-11.0477589244
 20
-12.4392658087
 10
-11.0712273986
 20
-12.4468900758
 10
-11.0959950665
 20
-12.452522854
 10
-11.121637501
 20
-12.4561351368
 10
-11.1477185138
 20
-12.4578564537
 10
-11.1737871135
 20
-12.4578868005
 10
-11.1994017047
 20
-12.4560390532
 10
-11.2241418428
 20
-12.4518950239
 10
-11.2475908408
 20
-12.4453559088
 10
-11.2693420165
 20
-12.4366699855
 10
-11.2890231675
 20
-12.4259599303
  0
LWPOLYLINE
  5
33C
100
AcDbEntity
  8
RACCORDO
100
AcDbPolyline
 62
250
  6
CONTINUOUS
 90
16
 70
0
 10
-22.3844226736
 20
17.7829657014
 10
-22.3613587978
 20
17.7709021027
 10
-22.3362704032
 20
17.7601926807
 10
-22.309426298
 20
17.7509521808
 10
-22.2811141016
 20
17.7432796097
 10
-22.2516371634
 20
17.7372571747
 10
-22.2213113121
 20
17.7329494029
 10
-22.1904614722
 20
17.7304024497
 10
-22.1594181824
 20
17.7296436041
 10
-22.1285140541
 20
17.7306809968
 10
-22.0980802078
 20
17.7335035127
 10
-22.0684427249
 20
17.7380809102
 10
-22.0399191541
 20
17.7443641451
 10
-22.0128151093
 20
17.7522858961
 10
-21.9874209953
 20
17.7617612863
 10
-21.9640088959
 20
17.7726887921
  0
LINE
  5
33D
100
AcDbEntity
  8
DRAFT
100
AcDbLine
 62
7
  6
CONTINUOUS
 10
12.7077089697
 20
-3.028842497
 11
12.1420235448
 21
-2.7022228223
  0
LINE
  5
33E
100
AcDbEntity
  8
IMPORT_IGES
100
AcDbLine
 62
250
  6
CONTINUOUS
 10
16.3846642319
 20
-4.9992693463
 11
17.6021883218
 21
-5.7022524967
  0
LINE
  5
33F
100
AcDbEntity
  8
RACCORDO
100
AcDbLine
 62
7
  6
CONTINUOUS
 10
1.5927170045
 20
4.3353527761
 11
-21.8836289476
 21
17.8903007011
  0
LINE
  5
340
100
AcDbEntity
  8
RACCORDO
100
AcDbLine
 62
250
  6
CONTINUOUS
 10
1.5307166251
 20
4.481130667
 11
-21.9456294693
 21
18.0360786742
  0
LINE
  5
341
100
AcDbEntity
  8
DRAFT
100
AcDbLine
 62
7
  6
CONTINUOUS
 10
14.5021111475
 20
-2.8614613579
 11
13.7683691415
 21
-2.4378079195
  0
LWPOLYLINE
  5
342
100
AcDbEntity
  8
RACCORDO
100
AcDbPolyline
 62
7
  6
CONTINUOUS
 90
21
 70
0
 10
1.5927212312
 20
4.3353503358
 10
1.5953036439
 20
4.3338383213
 10
1.611556832
 20
4.3234182211
 10
1.6298765853
 20
4.309909728
 10
1.6496168404
 20
4.2933503464
 10
1.6703682453
 20
4.2737122778
 10
1.6917267553
 20
4.2510227154
 10
1.7130829996
 20
4.2256278678
 10
1.7340613472
 20
4.1977353805
 10
1.7542630191
 20
4.1676511543
 10
1.7731554559
 20
4.1360267333
 10
1.7904563249
 20
4.1032927033
 10
1.8059179852
 20
4.0699062956
 10
1.8192283924
 20
4.0366550739
 10
1.8302991467
 20
4.0040434284
 10
1.8391057903
 20
3.972529341
 10
1.8456251103
 20
3.9428456304
 10
1.8500052343
 20
3.9153765716
 10
1.8524399927
 20
3.8905044345
 10
1.8531889109
 20
3.8688673313
 10
1.8530811564
 20
3.8604398407
  0
LWPOLYLINE
  5
343
100
AcDbEntity
  8
RACCORDO
100
AcDbPolyline
 62
250
  6
CONTINUOUS
 90
5
 70
0
 10
1.5307166251
 20
4.481130667
 10
1.567477466
 20
4.4580291958
 10
1.6035094172
 20
4.4316008461
 10
1.638812604
 20
4.4018456852
 10
1.6737227791
 20
4.3684321603
  0
LWPOLYLINE
  5
344
100
AcDbEntity
  8
RACCORDO
100
AcDbPolyline
 62
250
  6
CONTINUOUS
 90
15
 70
0
 10
1.6737227791
 20
4.3684321603
 10
1.7079047009
 20
4.3316920993
 10
1.7403520876
 20
4.2926206857
 10
1.7709400952
 20
4.2512214878
 10
1.7997944487
 20
4.2074914116
 10
1.8262846772
 20
4.162415625
 10
1.850356045
 20
4.1159900252
 10
1.8720642993
 20
4.0682192598
 10
1.8909445068
 20
4.0201015224
 10
1.9069518742
 20
3.9715409374
 10
1.9201321179
 20
3.9226338781
 10
1.9301556841
 20
3.8746667043
 10
1.9369127511
 20
3.8280682187
 10
1.9405135278
 20
3.782409828
 10
1.9409582445
 20
3.7376916569
  0
LINE
  5
345
100
AcDbEntity
  8
0
100
AcDbLine
 62
7
  6
CONTINUOUS
 10
6.0255498875
 20
17.8818781293
 11
6.0255498875
 21
18.1269454681
  0
LINE
  5
346
100
AcDbEntity
  8
0
100
AcDbLine
 62
7
  6
CONTINUOUS
 10
6.3791032781
 20
14.411544086
 11
6.3791032781
 21
13.5134267815
  0
LWPOLYLINE
  5
347
100
AcDbEntity
  8
ASSI
100
AcDbPolyline
 62
250
  6
CONTINUOUS
 90
28
 70
0
 10
5.9783544754
 20
5.6040050383
 10
5.9796825107
 20
5.6267736725
 10
5.982068038
 20
5.6499801779
 10
5.9855110574
 20
5.6736245544
 10
5.9900243518
 20
5.6978008535
 10
5.9955951382
 20
5.7224150237
 10
6.0021850676
 20
5.7471849109
 10
6.0098134994
 20
5.7721104313
 10
6.0184610741
 20
5.7971916688
 10
6.0280313643
 20
5.8221467207
 10
6.038526321
 20
5.8469522563
 10
6.0499439933
 20
5.8716316062
 10
6.0621821011
 20
5.8959728605
 10
6.0752435206
 20
5.9199682918
 10
6.0891253757
 20
5.9436256274
 10
6.1037167579
 20
5.9667561388
 10
6.1190258981
 20
5.9893615737
 10
6.1350445653
 20
6.0114401845
 10
6.1516371584
 20
6.0327979994
 10
6.1688251276
 20
6.0534446797
 10
6.1865870225
 20
6.0733705641
 10
6.2047228907
 20
6.0923526971
 10
6.2232422657
 20
6.1103745895
 10
6.2421356139
 20
6.1274527305
 10
6.2611743824
 20
6.1434136322
 10
6.2802823868
 20
6.1581994653
 10
6.2995358115
 20
6.1718680592
 10
6.3189346565
 20
6.1844194137
  0
LWPOLYLINE
  5
348
100
AcDbEntity
  8
ASSI
100
AcDbPolyline
 62
250
  6
CONTINUOUS
 90
16
 70
0
 10
1.1974125174
 20
-8.8308206777
 10
1.1594999094
 20
-8.8601844617
 10
1.1182710332
 20
-8.8869986805
 10
1.0741676989
 20
-8.9109759922
 10
1.0276625193
 20
-8.9318594552
 10
0.9792538453
 20
-8.9494252818
 10
0.9294604257
 20
-8.9634852361
 10
0.8788158485
 20
-8.9738886514
 10
0.8278628223
 20
-8.9805240443
 10
0.7771473614
 20
-8.9833203099
 10
0.7272129341
 20
-8.9822474834
 10
0.6785946391
 20
-8.9773170613
 10
0.6318134716
 20
-8.9685818782
 10
0.5873707398
 20
-8.9561355405
 10
0.5457426933
 20
-8.9401114237
 10
0.5073754196
 20
-8.9206812427
  0
LWPOLYLINE
  5
349
100
AcDbEntity
  8
0
100
AcDbPolyline
 62
250
  6
CONTINUOUS
 90
16
 70
0
 10
1.1974125174
 20
-8.8308206777
 10
1.1594999094
 20
-8.8601844617
 10
1.1182710332
 20
-8.8869986805
 10
1.0741676989
 20
-8.9109759922
 10
1.0276625193
 20
-8.9318594552
 10
0.9792538453
 20
-8.9494252818
 10
0.9294604257
 20
-8.9634852361
 10
0.8788158485
 20
-8.9738886514
 10
0.8278628223
 20
-8.9805240443
 10
0.7771473614
 20
-8.9833203099
 10
0.7272129341
 20
-8.9822474834
 10
0.6785946391
 20
-8.9773170613
 10
0.6318134716
 20
-8.9685818782
 10
0.5873707398
 20
-8.9561355405
 10
0.5457426933
 20
-8.9401114237
 10
0.5073754196
 20
-8.9206812427
  0
LINE
  5
34A
100
AcDbEntity
  8
ASSI
100
AcDbLine
 62
7
  6
CONTINUOUS
 10
-9.5096632339
 20
-13.929117771
 11
-9.5350637596
 21
-13.9463316252
  0
LWPOLYLINE
  5
34B
100
AcDbEntity
  8
RACCORDO
100
AcDbPolyline
 62
250
  6
CONTINUOUS
 90
15
 70
0
 10
-9.7114325278
 20
-13.8061698934
 10
-9.7014621838
 20
-13.7999629163
 10
-9.6749947778
 20
-13.780782782
 10
-9.6504022026
 20
-13.7588071259
 10
-9.6277615304
 20
-13.7341084038
 10
-9.607142079
 20
-13.7067622849
 10
-9.5886032805
 20
-13.6768397248
 10
-9.5722234694
 20
-13.6444584032
 10
-9.5580808974
 20
-13.6097863911
 10
-9.5462246517
 20
-13.5729907391
 10
-9.5366687452
 20
-13.5341704009
 10
-9.529426108
 20
-13.4934038981
 10
-9.524519047
 20
-13.4508072813
 10
-9.5219679491
 20
-13.4065434951
 10
-9.5217811708
 20
-13.3607616424
  0
LINE
  5
34C
100
AcDbEntity
  8
DRAFT
100
AcDbLine
 62
7
  6
CONTINUOUS
 10
12.1420235448
 20
-0.3817800124
 11
14.5021111475
 21
1.0777335632
  0
LINE
  5
34D
100
AcDbEntity
  8
0
100
AcDbLine
 62
7
  6
CONTINUOUS
 10
-10.271629491
 20
-13.9681056333
 11
-10.0657092828
 21
-13.8433989485
  0
LINE
  5
34E
100
AcDbEntity
  8
DRAFT
100
AcDbLine
 62
7
  6
CONTINUOUS
 10
-9.7114325271
 20
-13.8061698929
 11
-9.3705209734
 21
-13.6026523888
  0
LINE
  5
34F
100
AcDbEntity
  8
0
100
AcDbLine
 62
7
  6
CONTINUOUS
 10
-9.5346601798
 20
-13.9460984496
 11
-9.5353969761
 21
-13.9465309444
  0
LINE
  5
350
100
AcDbEntity
  8
ASSI
100
AcDbLine
 62
7
  6
CONTINUOUS
 10
-9.5350519904
 20
-13.9463287236
 11
-9.5353969761
 21
-13.9465309444
  0
LINE
  5
351
100
AcDbEntity
  8
ASSI
100
AcDbLine
 62
250
  6
CONTINUOUS
 10
-10.0609603211
 20
-13.8447696481
 11
-10.1263963635
 21
-13.8830790921
  0
LINE
  5
352
100
AcDbEntity
  8
0
100
AcDbLine
 62
250
  6
CONTINUOUS
 10
-10.0609603211
 20
-13.8447696481
 11
-10.1263963635
 21
-13.8830790921
  0
LWPOLYLINE
  5
353
100
AcDbEntity
  8
ASSI
100
AcDbPolyline
 62
250
  6
CONTINUOUS
 90
12
 70
0
 10
-9.5353969761
 20
-13.9465309444
 10
-9.5543495698
 20
-13.9568990477
 10
-9.6000513007
 20
-13.9765059501
 10
-9.647931754
 20
-13.9901168806
 10
-9.6980362153
 20
-13.9980173306
 10
-9.7511552109
 20
-14.0002986768
 10
-9.8073042149
 20
-13.9967079916
 10
-9.8660298471
 20
-13.9870839045
 10
-9.9275786581
 20
-13.9711663792
 10
-9.9918446462
 20
-13.9486369444
 10
-10.058269449
 20
-13.9193296627
 10
-10.1263963635
 20
-13.8830790921
  0
LWPOLYLINE
  5
354
100
AcDbEntity
  8
0
100
AcDbPolyline
 62
250
  6
CONTINUOUS
 90
12
 70
0
 10
-9.5353969761
 20
-13.9465309444
 10
-9.5543495698
 20
-13.9568990477
 10
-9.6000513007
 20
-13.9765059501
 10
-9.647931754
 20
-13.9901168806
 10
-9.6980362153
 20
-13.9980173306
 10
-9.7511552109
 20
-14.0002986768
 10
-9.8073042149
 20
-13.9967079916
 10
-9.8660298471
 20
-13.9870839045
 10
-9.9275786581
 20
-13.9711663792
 10
-9.9918446462
 20
-13.9486369444
 10
-10.058269449
 20
-13.9193296627
 10
-10.1263963635
 20
-13.8830790921
  0
LWPOLYLINE
  5
355
100
AcDbEntity
  8
RACCORDO
100
AcDbPolyline
 62
7
  6
CONTINUOUS
 90
43
 70
0
 10
-9.711432526
 20
-13.8061698923
 10
-9.7401777556
 20
-13.8217103177
 10
-9.7705435325
 20
-13.8349232641
 10
-9.8024483202
 20
-13.845688298
 10
-9.8358100007
 20
-13.8538971715
 10
-9.8705281939
 20
-13.8594495881
 10
-9.9064964411
 20
-13.8622591926
 10
-9.9436676934
 20
-13.8622519503
 10
-9.9819181442
 20
-13.8593581181
 10
-10.0210378043
 20
-13.8535418128
 10
-10.0610046908
 20
-13.8447598988
 10
-10.1016754842
 20
-13.8329946005
 10
-10.1426479095
 20
-13.8183483332
 10
-10.183783943
 20
-13.8008888516
 10
-10.2250351023
 20
-13.7806504244
 10
-10.266113613
 20
-13.7577976916
 10
-10.3068735453
 20
-13.7324542946
 10
-10.3472642109
 20
-13.7046898978
 10
-10.3871262228
 20
-13.6746494914
 10
-10.4263395186
 20
-13.6424635242
 10
-10.4648270458
 20
-13.6082320515
 10
-10.5024848685
 20
-13.5720799617
 10
-10.5392062412
 20
-13.5341414166
 10
-10.5749071369
 20
-13.4945326257
 10
-10.6095121716
 20
-13.4533612278
 10
-10.6429277589
 20
-13.4107585933
 10
-10.6750660566
 20
-13.3668547745
 10
-10.7058571802
 20
-13.3217586259
 10
-10.7352153387
 20
-13.2756044797
 10
-10.7630576772
 20
-13.228529015
 10
-10.7893180807
 20
-13.1806452973
 10
-10.8139183441
 20
-13.1320913961
 10
-10.8367834499
 20
-13.0830073202
 10
-10.8578530455
 20
-13.0335070352
 10
-10.8770588479
 20
-12.9837254943
 10
-10.8943317572
 20
-12.9338091521
 10
-10.9096132108
 20
-12.8838837139
 10
-10.9228446468
 20
-12.8340794956
 10
-10.9339652105
 20
-12.7845464998
 10
-10.9429199049
 20
-12.7354288948
 10
-10.9496588375
 20
-12.6868612932
 10
-10.9541345052
 20
-12.6389781709
 10
-10.9563016865
 20
-12.591917396
  0
LWPOLYLINE
  5
356
100
AcDbEntity
  8
0
100
AcDbPolyline
 62
7
  6
CONTINUOUS
 90
11
 70
0
 10
-10.7799574235
 20
-11.8673474621
 10
-10.7484450234
 20
-11.8516356649
 10
-10.7131804995
 20
-11.8399734152
 10
-10.6734787396
 20
-11.8326384783
 10
-10.6296594478
 20
-11.8301727553
 10
-10.5816549767
 20
-11.8330221604
 10
-10.5295730902
 20
-11.841624513
 10
-10.4740810952
 20
-11.8562030928
 10
-10.4161803043
 20
-11.8766706126
 10
-10.3565996794
 20
-11.902884493
 10
-10.2960872135
 20
-11.9345998523
  0
LINE
  5
357
100
AcDbEntity
  8
IMPORT_IGES
100
AcDbLine
 62
7
  6
CONTINUOUS
 10
14.8797828426
 20
7.8314231793
 11
14.8083293416
 21
7.827838126
  0
LWPOLYLINE
  5
358
100
AcDbEntity
  8
IMPORT_IGES
100
AcDbPolyline
 62
7
  6
CONTINUOUS
 90
4
 70
0
 10
18.6625547163
 20
-0.4009265197
 10
18.5614085419
 20
-0.3500098453
 10
18.4539627098
 20
-0.3102018627
 10
18.3628965036
 20
-0.2873433758
  0
LWPOLYLINE
  5
359
100
AcDbEntity
  8
ASSI
100
AcDbPolyline
 62
250
  6
CONTINUOUS
 90
28
 70
0
 10
5.2778003262
 20
5.6248863225
 10
5.2987125783
 20
5.6134403234
 10
5.3207244309
 20
5.6026502233
 10
5.343763058
 20
5.5925517274
 10
5.3677522321
 20
5.5831782537
 10
5.3926125863
 20
5.5745608193
 10
5.4182618785
 20
5.5667279383
 10
5.4446152462
 20
5.5597055328
 10
5.4715854946
 20
5.5535168441
 10
5.4990833967
 20
5.548182353
 10
5.5270179714
 20
5.5437197167
 10
5.5552967889
 20
5.5401437079
 10
5.5838262856
 20
5.5374661653
 10
5.6125120676
 20
5.5356959555
 10
5.6412592122
 20
5.5348389433
 10
5.6699725873
 20
5.5348979717
 10
5.6985571867
 20
5.5358728517
 10
5.7269184194
 20
5.5377603635
 10
5.7549624122
 20
5.5405542648
 10
5.7825963682
 20
5.5442453144
 10
5.809728844
 20
5.548821302
 10
5.8362700289
 20
5.5542670833
 10
5.8621320985
 20
5.560564639
 10
5.8872294741
 20
5.5676931312
 10
5.9114790802
 20
5.5756289628
 10
5.9348006687
 20
5.5843458686
 10
5.957117081
 20
5.5938150055
 10
5.9783544753
 20
5.6040050384
  0
LINE
  5
35A
100
AcDbEntity
  8
ASSI
100
AcDbLine
 62
250
  6
CONTINUOUS
 10
-25.4821172584
 20
23.3852596208
 11
5.2777844159
 21
5.6248779062
  0
LINE
  5
35B
100
AcDbEntity
  8
ASSI
100
AcDbLine
 62
7
  6
CONTINUOUS
 10
-8.8425458597
 20
23.2003335261
 11
-8.7281315773
 21
23.0480423552
  0
LINE
  5
35C
100
AcDbEntity
  8
ASSI
100
AcDbLine
 62
7
  6
CONTINUOUS
 10
-8.7281315773
 20
23.0480423552
 11
-8.6142663296
 21
22.8951829399
  0
LINE
  5
35D
100
AcDbEntity
  8
ASSI
100
AcDbLine
 62
7
  6
CONTINUOUS
 10
-8.6142663296
 20
22.8951829399
 11
-8.5009501165
 21
22.74175528
  0
LINE
  5
35E
100
AcDbEntity
  8
ASSI
100
AcDbLine
 62
7
  6
CONTINUOUS
 10
-7.979928576
 20
22.0190195378
 11
-7.8955236026
 21
21.8991802916
  0
LINE
  5
35F
100
AcDbEntity
  8
ASSI
100
AcDbLine
 62
7
  6
CONTINUOUS
 10
-7.8955236026
 20
21.8991802916
 11
-7.8114397461
 21
21.7790087518
  0
LINE
  5
360
100
AcDbEntity
  8
ASSI
100
AcDbLine
 62
7
  6
CONTINUOUS
 10
-7.8114397461
 20
21.7790087518
 11
-7.7276770066
 21
21.6585049184
  0
LINE
  5
361
100
AcDbEntity
  8
0
100
AcDbLine
 62
7
  6
CONTINUOUS
 10
10.4096119309
 20
14.7791727127
 11
10.4096119309
 21
15.5956429895
  0
LWPOLYLINE
  5
362
100
AcDbEntity
  8
ASSI
100
AcDbPolyline
 62
7
  6
CONTINUOUS
 90
25
 70
0
 10
10.2373795849
 20
15.1886753035
 10
10.2336674948
 20
15.1524488644
 10
10.2329912139
 20
15.1148879369
 10
10.2353507423
 20
15.0759925212
 10
10.2408186494
 20
15.0354029995
 10
10.2493223657
 20
14.9934789895
 10
10.2606441829
 20
14.9512993438
 10
10.2748575016
 20
14.9088571981
 10
10.2918889212
 20
14.8661594167
 10
10.3113005308
 20
14.8243054442
 10
10.3331543409
 20
14.7833171466
 10
10.3573883411
 20
14.7431726579
 10
10.3833785893
 20
14.704905825
 10
10.4111707575
 20
14.6685655757
 10
10.4407191738
 20
14.6341029822
 10
10.4712628805
 20
14.6024051085
 10
10.5028272016
 20
14.5735441263
 10
10.5353868131
 20
14.5474478638
 10
10.5681047848
 20
14.5247868697
 10
10.6009859623
 20
14.5056499592
 10
10.6340255
 20
14.489948317
 10
10.6663719318
 20
14.4780860458
 10
10.6977414357
 20
14.4701978466
 10
10.7284178335
 20
14.4661490184
 10
10.7584011255
 20
14.4659395613
  0
LINE
  5
363
100
AcDbEntity
  8
IMPORT_IGES
100
AcDbLine
 62
7
  6
CONTINUOUS
 10
17.6021883218
 20
-0.8034308359
 11
22.6274069572
 21
2.6058296188
  0
LINE
  5
364
100
AcDbEntity
  8
DRAFT
100
AcDbLine
 62
7
  6
CONTINUOUS
 10
14.5021111475
 20
-2.8614613579
 11
12.1420235448
 21
-4.2241510397
  0
LINE
  5
365
100
AcDbEntity
  8
IMPORT_IGES
100
AcDbLine
 62
7
  6
CONTINUOUS
 10
16.363891783
 20
-2.5089308188
 11
16.1322730823
 21
-2.642806775
  0
LINE
  5
366
100
AcDbEntity
  8
DRAFT
100
AcDbLine
 62
7
  6
CONTINUOUS
 10
12.7077089697
 20
-3.028842497
 11
13.7683691415
 21
-2.4378079195
  0
LWPOLYLINE
  5
367
100
AcDbEntity
  8
ASSI
100
AcDbPolyline
 62
250
  6
CONTINUOUS
 90
16
 70
0
 10
1.4259195715
 20
-10.7304061661
 10
1.3868818943
 20
-10.7504172013
 10
1.3445400053
 20
-10.7679788962
 10
1.2993476413
 20
-10.7829030591
 10
1.2517890851
 20
-10.7950297621
 10
1.2023739757
 20
-10.8042290552
 10
1.1516318469
 20
-10.8104023584
 10
1.1001064528
 20
-10.8134835185
 10
1.0483499412
 20
-10.8134395176
 10
0.9969169364
 20
-10.8102708273
 10
0.9463585961
 20
-10.8040114033
 10
0.8972167049
 20
-10.7947283219
 10
0.8500178689
 20
-10.7825210607
 10
0.8052678722
 20
-10.7675204332
 10
0.7634462572
 20
-10.7498871866
 10
0.7250011855
 20
-10.7298102793
  0
LWPOLYLINE
  5
368
100
AcDbEntity
  8
0
100
AcDbPolyline
 62
250
  6
CONTINUOUS
 90
16
 70
0
 10
1.4259195715
 20
-10.7304061661
 10
1.3868818943
 20
-10.7504172013
 10
1.3445400053
 20
-10.7679788962
 10
1.2993476413
 20
-10.7829030591
 10
1.2517890851
 20
-10.7950297621
 10
1.2023739757
 20
-10.8042290552
 10
1.1516318469
 20
-10.8104023584
 10
1.1001064528
 20
-10.8134835185
 10
1.0483499412
 20
-10.8134395176
 10
0.9969169364
 20
-10.8102708273
 10
0.9463585961
 20
-10.8040114033
 10
0.8972167049
 20
-10.7947283219
 10
0.8500178689
 20
-10.7825210607
 10
0.8052678722
 20
-10.7675204332
 10
0.7634462572
 20
-10.7498871866
 10
0.7250011855
 20
-10.7298102793
  0
LINE
  5
369
100
AcDbEntity
  8
ASSI
100
AcDbLine
 62
250
  6
CONTINUOUS
 10
-24.8184854811
 20
24.5562091569
 11
5.9531019165
 21
6.7890802521
  0
LWPOLYLINE
  5
36A
100
AcDbEntity
  8
ASSI
100
AcDbPolyline
 62
250
  6
CONTINUOUS
 90
28
 70
0
 10
5.9531019165
 20
6.7890802521
 10
5.9733179358
 20
6.7763203863
 10
5.9935281758
 20
6.7622618939
 10
6.0136643303
 20
6.7469522879
 10
6.0336583455
 20
6.7304433081
 10
6.0534426432
 20
6.7127907516
 10
6.072950349
 20
6.6940542859
 10
6.0921155302
 20
6.6742972369
 10
6.1108734132
 20
6.6535863788
 10
6.1291605949
 20
6.6319917158
 10
6.1469152682
 20
6.6095862348
 10
6.1640774272
 20
6.5864456616
 10
6.1805890646
 20
6.5626482112
 10
6.1963943771
 20
6.5382743123
 10
6.2114399454
 20
6.5134063465
 10
6.2256749134
 20
6.4881283741
 10
6.2390511734
 20
6.4625258276
 10
6.2515235176
 20
6.4366852409
 10
6.2630497869
 20
6.4106939687
 10
6.2735910296
 20
6.3846398565
 10
6.283111624
 20
6.3586109596
 10
6.2915793933
 20
6.3326952648
 10
6.2989657255
 20
6.3069803595
 10
6.3052456648
 20
6.28155315
 10
6.3103979918
 20
6.2564995833
 10
6.3144053021
 20
6.2319043329
 10
6.3172540631
 20
6.2078505137
 10
6.3189346565
 20
6.1844194137
  0
LWPOLYLINE
  5
36B
100
AcDbEntity
  8
ASSI
100
AcDbPolyline
 62
7
  6
CONTINUOUS
 90
5
 70
0
 10
-12.4958835836
 20
27.8926721076
 10
-12.4659002916
 20
27.8582576108
 10
-12.4352238938
 20
27.8268821036
 10
-12.40385439
 20
27.7985455862
 10
-12.3800560268
 20
27.7797913067
  0
LINE
  5
36C
100
AcDbEntity
  8
ASSI
100
AcDbLine
 62
7
  6
CONTINUOUS
 10
-6.014118735
 20
24.8334318994
 11
-5.8997043078
 21
24.6811405342
  0
LINE
  5
36D
100
AcDbEntity
  8
ASSI
100
AcDbLine
 62
7
  6
CONTINUOUS
 10
-5.8997043078
 20
24.6811405342
 11
-5.78583906
 21
24.5282811188
  0
LINE
  5
36E
100
AcDbEntity
  8
ASSI
100
AcDbLine
 62
7
  6
CONTINUOUS
 10
-5.78583906
 20
24.5282811188
 11
-5.6725229918
 21
24.3748536533
  0
LWPOLYLINE
  5
36F
100
AcDbEntity
  8
ASSI
100
AcDbPolyline
 62
7
  6
CONTINUOUS
 90
7
 70
0
 10
-5.1515014512
 20
23.6521179111
 10
-4.9276610067
 20
23.3325610422
 10
-4.7062544322
 20
23.0108930029
 10
-4.4872817277
 20
22.6871137932
 10
-4.2707428933
 20
22.361223413
 10
-4.0566379288
 20
22.0332218623
 10
-3.8449668344
 20
21.7031091413
  0
LINE
  5
370
100
AcDbEntity
  8
ASSI
100
AcDbLine
 62
7
  6
CONTINUOUS
 10
12.1420235448
 20
9.7775668566
 11
12.1420235448
 21
-25.9834575651
  0
LINE
  5
371
100
AcDbEntity
  8
IMPORT_IGES
100
AcDbLine
 62
7
  6
CONTINUOUS
 10
13.0259070213
 20
-2.8515321238
 11
13.0259070213
 21
0.164826788
  0
LINE
  5
372
100
AcDbEntity
  8
IMPORT_IGES
100
AcDbLine
 62
250
  6
CONTINUOUS
 10
15.7525482638
 20
-5.2825902653
 11
16.9266895812
 21
-4.6046557841
  0
LINE
  5
373
100
AcDbEntity
  8
IMPORT_IGES
100
AcDbLine
 62
7
  6
CONTINUOUS
 10
16.3846642319
 20
-4.9992693463
 11
15.7758043554
 21
-5.3508174082
  0
LINE
  5
374
100
AcDbEntity
  8
IMPORT_IGES
100
AcDbLine
 62
7
  6
CONTINUOUS
 10
17.1624816912
 20
-5.448371399
 11
22.6274069572
 21
-2.292992042
  0
LWPOLYLINE
  5
375
100
AcDbEntity
  8
IMPORT_IGES
100
AcDbPolyline
 62
7
  6
CONTINUOUS
 90
10
 70
0
 10
17.1624816912
 20
-5.448371399
 10
17.0224208712
 20
-5.5237544955
 10
16.8842083194
 20
-5.5878077223
 10
16.7478440358
 20
-5.6405310794
 10
16.6127728289
 20
-5.6820354654
 10
16.4795498903
 20
-5.7122099817
 10
16.3498407943
 20
-5.7307219323
 10
16.2236909557
 20
-5.7374303842
 10
16.1010549597
 20
-5.7324762703
 10
15.9855001074
 20
-5.7162361114
  0
LWPOLYLINE
  5
376
100
AcDbEntity
  8
IMPORT_IGES
100
AcDbPolyline
 62
7
  6
CONTINUOUS
 90
6
 70
0
 10
16.3139535694
 20
-4.5502067396
 10
16.1579742731
 20
-4.6320106979
 10
16.0054622031
 20
-4.6968850061
 10
15.8564173591
 20
-4.7448296643
 10
15.7097647288
 20
-4.7759506735
 10
15.6595124851
 20
-4.7809312624
  0
LWPOLYLINE
  5
377
100
AcDbEntity
  8
ASSI
100
AcDbPolyline
 62
7
  6
CONTINUOUS
 90
25
 70
0
 10
7.9299740007
 20
12.832841188
 10
7.8999907088
 20
12.8330506451
 10
7.8693143109
 20
12.8370994733
 10
7.8379448071
 20
12.8449876725
 10
7.8055983753
 20
12.8568499436
 10
7.7725588375
 20
12.8725515858
 10
7.7396776601
 20
12.8916884964
 10
7.7069596883
 20
12.9143494905
 10
7.6744000768
 20
12.9404457529
 10
7.6428357557
 20
12.9693067351
 10
7.6122920491
 20
13.0010046089
 10
7.5827436328
 20
13.0354672024
 10
7.5549514645
 20
13.0718074517
 10
7.5289612163
 20
13.1100742845
 10
7.5047272162
 20
13.1502187733
 10
7.4828734061
 20
13.1912070709
 10
7.4634617964
 20
13.2330610434
 10
7.4464303769
 20
13.2757588248
 10
7.4322170582
 20
13.3182009704
 10
7.420895241
 20
13.3603806162
 10
7.4123915246
 20
13.4023046262
 10
7.4069236175
 20
13.4428941479
 10
7.4045640891
 20
13.4817895636
 10
7.40524037
 20
13.5193504911
 10
7.4089524602
 20
13.5555769302
  0
LINE
  5
378
100
AcDbEntity
  8
DRAFT
100
AcDbLine
 62
7
  6
CONTINUOUS
 10
14.5021111475
 20
12.235755096
 11
14.5021111475
 21
1.0777335632
  0
LINE
  5
379
100
AcDbEntity
  8
DRAFT
100
AcDbLine
 62
7
  6
CONTINUOUS
 10
14.5021111475
 20
-2.8614613579
 11
14.5021111475
 21
-14.4967818482
  0
LINE
  5
37A
100
AcDbEntity
  8
IMPORT_IGES
100
AcDbLine
 62
7
  6
CONTINUOUS
 10
14.5460510388
 20
-9.3274616743
 11
14.5461866008
 21
11.7391352159
  0
LINE
  5
37B
100
AcDbEntity
  8
RACCORDO
100
AcDbLine
 62
250
  6
CONTINUOUS
 10
15.2029379874
 20
-14.0849433256
 11
15.2029379874
 21
-14.8015826871
  0
LINE
  5
37C
100
AcDbEntity
  8
RACCORDO
100
AcDbLine
 62
7
  6
CONTINUOUS
 10
15.3432680872
 20
-13.8868567795
 11
15.3432680872
 21
-14.6010391686
  0
LINE
  5
37D
100
AcDbEntity
  8
RACCORDO
100
AcDbLine
 62
7
  6
CONTINUOUS
 10
15.5382822905
 20
13.9981527257
 11
15.5382822905
 21
13.2597824075
  0
LINE
  5
37E
100
AcDbEntity
  8
RACCORDO
100
AcDbLine
 62
7
  6
CONTINUOUS
 10
15.5382822905
 20
-19.391934526
 11
15.5382822905
 21
-20.1303048442
  0
LWPOLYLINE
  5
37F
100
AcDbEntity
  8
RACCORDO
100
AcDbPolyline
 62
250
  6
CONTINUOUS
 90
10
 70
0
 10
15.2029379874
 20
-14.8015826871
 10
15.2018264404
 20
-14.8363361788
 10
15.1979697363
 20
-14.8692937893
 10
15.1913961144
 20
-14.9002022782
 10
15.1821522815
 20
-14.9288300527
 10
15.1703090169
 20
-14.9549493863
 10
15.1559663947
 20
-14.9783439958
 10
15.1392479792
 20
-14.9988284826
 10
15.120277868
 20
-15.0162646248
 10
15.1030738968
 20
-15.0282404576
  0
LWPOLYLINE
  5
380
100
AcDbEntity
  8
IMPORT_IGES
100
AcDbPolyline
 62
7
  6
CONTINUOUS
 90
10
 70
0
 10
14.5460391772
 20
-9.3274548255
 10
14.545265823
 20
-9.3356665712
 10
14.5431669637
 20
-9.3445274112
 10
14.539742599
 20
-9.3540373455
 10
14.534682707
 20
-9.3645138835
 10
14.5282973097
 20
-9.3756395158
 10
14.5215164735
 20
-9.3864617139
 10
14.5143667846
 20
-9.3968699267
 10
14.5068216568
 20
-9.4069747054
 10
14.5021111475
 20
-9.4130738752
  0
LINE
  5
381
100
AcDbEntity
  8
IMPORT_IGES
100
AcDbLine
 62
7
  6
CONTINUOUS
 10
22.6274069572
 20
-2.292992042
 11
17.6021883218
 21
-5.7022524967
  0
LWPOLYLINE
  5
382
100
AcDbEntity
  8
IMPORT_IGES
100
AcDbPolyline
 62
7
  6
CONTINUOUS
 90
25
 70
0
 10
17.1624816912
 20
-5.448371399
 10
17.3025425112
 20
-5.3620157713
 10
17.440755063
 20
-5.2664646077
 10
17.5771193466
 20
-5.1617179082
 10
17.7121905535
 20
-5.0472454502
 10
17.8454134921
 20
-4.9235774563
 10
17.9751225881
 20
-4.7923045941
 10
18.1012724267
 20
-4.6533383745
 10
18.2239084226
 20
-4.5067672865
 10
18.3415012458
 20
-4.354447465
 10
18.4539893619
 20
-4.1963104022
 10
18.5614343052
 20
-4.032424606
 10
18.6624913489
 20
-3.8648517346
 10
18.7570831916
 20
-3.6935471953
 10
18.8452871347
 20
-3.5185555809
 10
18.9259903548
 20
-3.3420723283
 10
18.9991027328
 20
-3.1640784596
 10
19.0647143879
 20
-2.9845929527
 10
19.1219828536
 20
-2.8058681781
 10
19.1708087786
 20
-2.6279091062
 10
19.2112915142
 20
-2.4507107666
 10
19.2428866488
 20
-2.2765106191
 10
19.2654127118
 20
-2.1060544835
 10
19.2790511738
 20
-1.93859654
 10
19.2838020348
 20
-1.7741367886
  0
LINE
  5
383
100
AcDbEntity
  8
0
100
AcDbLine
 62
7
  6
CONTINUOUS
 10
10.7008243196
 20
15.8357751993
 11
11.8074313967
 21
15.9318073199
  0
LINE
  5
384
100
AcDbEntity
  8
IMPORT_IGES
100
AcDbLine
 62
250
  6
CONTINUOUS
 10
16.75691125
 20
6.7878103768
 11
15.4654254163
 21
7.533498111
  0
LINE
  5
385
100
AcDbEntity
  8
ASSI
100
AcDbLine
 62
7
  6
CONTINUOUS
 10
-19.1830759864
 20
28.2727087195
 11
-15.5765622777
 21
26.1903529044
  0
LINE
  5
386
100
AcDbEntity
  8
ASSI
100
AcDbLine
 62
7
  6
CONTINUOUS
 10
-7.7276770066
 20
21.6585049184
 11
0.333340299
 21
17.0041745545
  0
LINE
  5
387
100
AcDbEntity
  8
ASSI
100
AcDbLine
 62
7
  6
CONTINUOUS
 10
8.1822255701
 20
12.4723265686
 11
11.7887392788
 21
10.3899707534
  0
LINE
  5
388
100
AcDbEntity
  8
0
100
AcDbLine
 62
7
  6
CONTINUOUS
 10
8.1822255701
 20
12.4723265686
 11
6.3791032781
 21
13.5134267815
  0
LINE
  5
389
100
AcDbEntity
  8
0
100
AcDbLine
 62
7
  6
CONTINUOUS
 10
2.136462591
 20
15.9630743415
 11
0.333340299
 21
17.0041745545
  0
LINE
  5
38A
100
AcDbEntity
  8
0
100
AcDbLine
 62
7
  6
CONTINUOUS
 10
-7.7276770066
 20
21.6585049184
 11
-9.5307992986
 21
22.6996051314
  0
LINE
  5
38B
100
AcDbEntity
  8
0
100
AcDbLine
 62
7
  6
CONTINUOUS
 10
-13.7734399857
 20
25.1492526914
 11
-15.5765622777
 21
26.1903529044
  0
LINE
  5
38C
100
AcDbEntity
  8
0
100
AcDbLine
 62
7
  6
CONTINUOUS
 10
-14.4616934246
 20
26.4447589056
 11
-13.7734399857
 21
26.0473699959
  0
LINE
  5
38D
100
AcDbEntity
  8
0
100
AcDbLine
 62
7
  6
CONTINUOUS
 10
-9.5307992986
 20
23.5977224359
 11
-8.8425458597
 21
23.2003335261
  0
LINE
  5
38E
100
AcDbEntity
  8
0
100
AcDbLine
 62
7
  6
CONTINUOUS
 10
1.4482091521
 20
17.2585805558
 11
2.136462591
 21
16.861191646
  0
LINE
  5
38F
100
AcDbEntity
  8
0
100
AcDbLine
 62
7
  6
CONTINUOUS
 10
6.3791032781
 20
14.411544086
 11
7.067356717
 21
14.0141551762
  0
LWPOLYLINE
  5
390
100
AcDbEntity
  8
ASSI
100
AcDbPolyline
 62
7
  6
CONTINUOUS
 90
5
 70
0
 10
3.4140189931
 20
18.7064937578
 10
3.444002285
 20
18.6720792609
 10
3.4746786829
 20
18.6407037538
 10
3.5060481867
 20
18.6123672363
 10
3.5298465499
 20
18.5936129568
  0
LINE
  5
391
100
AcDbEntity
  8
ASSI
100
AcDbLine
 62
7
  6
CONTINUOUS
 10
7.067356717
 20
14.0141551762
 11
7.1817709994
 21
13.8618640054
  0
LINE
  5
392
100
AcDbEntity
  8
ASSI
100
AcDbLine
 62
7
  6
CONTINUOUS
 10
7.1817709994
 20
13.8618640054
 11
7.2956362471
 21
13.70900459
  0
LINE
  5
393
100
AcDbEntity
  8
ASSI
100
AcDbLine
 62
7
  6
CONTINUOUS
 10
7.2956362471
 20
13.70900459
 11
7.4089524602
 21
13.5555769302
  0
LINE
  5
394
100
AcDbEntity
  8
ASSI
100
AcDbLine
 62
7
  6
CONTINUOUS
 10
7.9299740007
 20
12.832841188
 11
8.0143789741
 21
12.7130019417
  0
LINE
  5
395
100
AcDbEntity
  8
ASSI
100
AcDbLine
 62
7
  6
CONTINUOUS
 10
8.0143789741
 20
12.7130019417
 11
8.0984628306
 21
12.5928304019
  0
LINE
  5
396
100
AcDbEntity
  8
ASSI
100
AcDbLine
 62
7
  6
CONTINUOUS
 10
8.0984628306
 20
12.5928304019
 11
8.1822255701
 21
12.4723265686
  0
LWPOLYLINE
  5
397
100
AcDbEntity
  8
IMPORT_IGES
100
AcDbPolyline
 62
7
  6
CONTINUOUS
 90
9
 70
0
 10
18.2742060025
 20
-0.3475136968
 10
18.2868969286
 20
-0.3675754949
 10
18.3441653943
 20
-0.4801680807
 10
18.3929913192
 20
-0.6017441984
 10
18.4334740549
 20
-0.7321940896
 10
18.4650691895
 20
-0.8699089676
 10
18.4875952525
 20
-1.0143525703
 10
18.5012337145
 20
-1.1660611597
 10
18.5059845755
 20
-1.325034736
  0
LWPOLYLINE
  5
398
100
AcDbEntity
  8
IMPORT_IGES
100
AcDbPolyline
 62
7
  6
CONTINUOUS
 90
25
 70
0
 10
17.8596308581
 20
-0.6287740255
 10
17.9157356373
 20
-0.7210665695
 10
17.9750548259
 20
-0.8521361813
 10
18.0214463532
 20
-0.9946831305
 10
18.054619307
 20
-1.1489756042
 10
18.0748645996
 20
-1.3147454152
 10
18.0817205047
 20
-1.4882468347
 10
18.0748793146
 20
-1.6696575522
 10
18.0546487369
 20
-1.8587998782
 10
18.0214901687
 20
-2.051395015
 10
17.9751126878
 20
-2.2475107442
 10
17.9158072162
 20
-2.4470792842
 10
17.8449079173
 20
-2.6456184919
 10
17.7621499071
 20
-2.8431126873
 10
17.6677980695
 20
-3.0395775503
 10
17.5639812194
 20
-3.2305779772
 10
17.4504851002
 20
-3.4159875549
 10
17.3275239684
 20
-3.5959326964
 10
17.1978694086
 20
-3.7663575375
 10
17.0613700847
 20
-3.9270457459
 10
16.9181773328
 20
-4.078213654
 10
16.771516746
 20
-4.2164543941
 10
16.622463522
 20
-4.3406323438
 10
16.4699424631
 20
-4.4518831257
 10
16.3139535694
 20
-4.5502067396
  0
LWPOLYLINE
  5
399
100
AcDbEntity
  8
IMPORT_IGES
100
AcDbPolyline
 62
7
  6
CONTINUOUS
 90
12
 70
0
 10
16.5945159453
 20
11.5669740438
 10
16.5967832572
 20
11.5288151922
 10
16.586100684
 20
11.3745191994
 10
16.5551186171
 20
11.2210067539
 10
16.502765554
 20
11.0667295076
 10
16.4285650563
 20
10.912390713
 10
16.3323476501
 20
10.7598016116
 10
16.2130733003
 20
10.6095240402
 10
16.0701332082
 20
10.4625883289
 10
15.9039131974
 20
10.3207256538
 10
15.7149736659
 20
10.1855918965
 10
15.5614044357
 20
10.0911052523
  0
LWPOLYLINE
  5
39A
100
AcDbEntity
  8
IMPORT_IGES
100
AcDbPolyline
 62
7
  6
CONTINUOUS
 90
25
 70
0
 10
17.5867457599
 20
11.2077327214
 10
17.5819943615
 20
11.0432662294
 10
17.5683549154
 20
10.8758020176
 10
17.5458274215
 20
10.7053400861
 10
17.5142303016
 20
10.5311345344
 10
17.473745134
 20
10.3539312629
 10
17.424916654
 20
10.1759679726
 10
17.3676455156
 20
9.9972397413
 10
17.3020310647
 20
9.8177514912
 10
17.2289160741
 20
9.6397556901
 10
17.1482104422
 20
9.4632713661
 10
17.0600042706
 20
9.2882794911
 10
16.965410637
 20
9.1169754491
 10
16.864352267
 20
8.9494038799
 10
16.756906435
 20
8.7855201437
 10
16.6444180408
 20
8.6273857052
 10
16.5268255847
 20
8.4750691123
 10
16.4041905665
 20
8.3285018171
 10
16.2780423852
 20
8.1895396403
 10
16.1483356649
 20
8.0582711001
 10
16.0151157814
 20
7.9346076784
 10
15.8800482621
 20
7.8201396419
 10
15.7436882827
 20
7.7153970797
 10
15.6054806675
 20
7.6198499027
 10
15.4654254163
 20
7.533498111
  0
LWPOLYLINE
  5
39B
100
AcDbEntity
  8
IMPORT_IGES
100
AcDbPolyline
 62
7
  6
CONTINUOUS
 90
25
 70
0
 10
18.5059845755
 20
-1.325034736
 10
18.501233177
 20
-1.4895012279
 10
18.4875937309
 20
-1.6569654397
 10
18.4650662371
 20
-1.8274273713
 10
18.4334691172
 20
-2.001632923
 10
18.3929839496
 20
-2.1788361945
 10
18.3441554695
 20
-2.3567994847
 10
18.2868843311
 20
-2.5355277161
 10
18.2212698802
 20
-2.7150159662
 10
18.1481548896
 20
-2.8930117673
 10
18.0674492578
 20
-3.0694960913
 10
17.9792430862
 20
-3.2444879663
 10
17.8846494525
 20
-3.4157920082
 10
17.7835910826
 20
-3.5833635774
 10
17.6761452505
 20
-3.7472473136
 10
17.5636568563
 20
-3.9053817522
 10
17.4460644003
 20
-4.0576983451
 10
17.323429382
 20
-4.2042656403
 10
17.1972812008
 20
-4.343227817
 10
17.0675744804
 20
-4.4744963572
 10
16.9343545969
 20
-4.598159779
 10
16.7992870777
 20
-4.7126278154
 10
16.6629270982
 20
-4.8173703777
 10
16.524719483
 20
-4.9129175546
 10
16.3846642319
 20
-4.9992693463
  0
LWPOLYLINE
  5
39C
100
AcDbEntity
  8
RACCORDO
100
AcDbPolyline
 62
250
  6
CONTINUOUS
 90
10
 70
0
 10
15.3432680872
 20
-14.6010394598
 10
15.3418424356
 20
-14.6228245043
 10
15.3367233913
 20
-14.6475963047
 10
15.3279140701
 20
-14.6720326412
 10
15.3154670749
 20
-14.6959629957
 10
15.2994740218
 20
-14.7191937868
 10
15.2800634768
 20
-14.7415352153
 10
15.2573878366
 20
-14.7628157114
 10
15.2316145421
 20
-14.7828814192
 10
15.2029379874
 20
-14.8015826871
  0
LWPOLYLINE
  5
39D
100
AcDbEntity
  8
IMPORT_IGES
100
AcDbPolyline
 62
7
  6
CONTINUOUS
 90
9
 70
0
 10
25.6800925768
 20
14.8815299398
 10
25.7165022212
 20
14.9543506939
 10
25.7735512499
 20
15.0922121156
 10
25.8225874915
 20
15.2383583471
 10
25.8632031516
 20
15.3923736256
 10
25.894870094
 20
15.5526635098
 10
25.9174802922
 20
15.7184002089
 10
25.9310844997
 20
15.8896919817
 10
25.9356310311
 20
16.066200382
  0
LWPOLYLINE
  5
39E
100
AcDbEntity
  8
IMPORT_IGES
100
AcDbPolyline
 62
250
  6
CONTINUOUS
 90
8
 70
0
 10
25.4755702484
 20
-1.4752496039
 10
25.4966142103
 20
-1.4571606305
 10
25.5170076202
 20
-1.4328606433
 10
25.533727313
 20
-1.4046250792
 10
25.5465980779
 20
-1.3727402955
 10
25.5554733872
 20
-1.3375399467
 10
25.5602452941
 20
-1.2994095492
 10
25.5608536911
 20
-1.2587614931
  0
LWPOLYLINE
  5
39F
100
AcDbEntity
  8
IMPORT_IGES
100
AcDbPolyline
 62
250
  6
CONTINUOUS
 90
8
 70
0
 10
25.5608622717
 20
-1.2590052548
 10
25.5911319189
 20
-1.2362721446
 10
25.6173463593
 20
-1.2119173568
 10
25.6392469682
 20
-1.1861811694
 10
25.6566176798
 20
-1.1593174888
 10
25.6692871193
 20
-1.1315913452
 10
25.6771302933
 20
-1.1032762773
 10
25.6800925768
 20
-1.0718974678
  0
LINE
  5
3A0
100
AcDbEntity
  8
IMPORT_IGES
100
AcDbLine
 62
250
  6
CONTINUOUS
 10
25.5608622717
 20
-1.2590052548
 11
14.5460510388
 21
-9.3274616743
  0
LINE
  5
3A1
100
AcDbEntity
  8
IMPORT_IGES
100
AcDbLine
 62
7
  6
CONTINUOUS
 10
14.5021111475
 20
-9.5139132281
 11
25.4755702484
 21
-1.4752496039
  0
LINE
  5
3A2
100
AcDbEntity
  8
ASSI
100
AcDbLine
 62
7
  6
CONTINUOUS
 10
0.501186895
 20
17.0510248858
 11
0.5855918684
 21
17.0733953845
  0
LWPOLYLINE
  5
3A3
100
AcDbEntity
  8
ASSI
100
AcDbPolyline
 62
7
  6
CONTINUOUS
 90
7
 70
0
 10
1.1066134089
 20
17.1944685115
 10
1.1632028861
 20
17.2059052622
 10
1.2199296219
 20
17.2170414489
 10
1.2767936165
 20
17.2278770716
 10
1.3337948697
 20
17.2384121303
 10
1.3909333815
 20
17.248646625
 10
1.4482091521
 20
17.2585805558
  0
LWPOLYLINE
  5
3A4
100
AcDbEntity
  8
ASSI
100
AcDbPolyline
 62
7
  6
CONTINUOUS
 90
7
 70
0
 10
3.9350405337
 20
18.8275668848
 10
3.9916299204
 20
18.8390036185
 10
4.0483566019
 20
18.850139795
 10
4.1052205783
 20
18.8609754144
 10
4.1622218496
 20
18.8715104765
 10
4.2193604158
 20
18.8817449814
 10
4.2766362768
 20
18.8916789291
  0
LWPOLYLINE
  5
3A5
100
AcDbEntity
  8
RACCORDO
100
AcDbPolyline
 62
7
  6
CONTINUOUS
 90
9
 70
0
 10
-21.922403515
 20
17.9071060148
 10
-21.9229438972
 20
17.9071103103
 10
-21.9239862567
 20
17.9071564646
 10
-21.922119253
 20
17.9068338144
 10
-21.917562006
 20
17.9056769196
 10
-21.9106592807
 20
17.9033615142
 10
-21.9017162862
 20
17.8996556101
 10
-21.8909232301
 20
17.8943423269
 10
-21.8837052724
 20
17.890344815
  0
LINE
  5
3A6
100
AcDbEntity
  8
0
100
AcDbLine
 62
7
  6
CONTINUOUS
 10
3.9042295439
 20
17.09073431
 11
7.4617637259
 21
15.0366586597
  0
LINE
  5
3A7
100
AcDbEntity
  8
0
100
AcDbLine
 62
7
  6
CONTINUOUS
 10
-8.4481388508
 20
24.2228370095
 11
-12.0056730327
 21
26.2769126598
  0
LINE
  5
3A8
100
AcDbEntity
  8
0
100
AcDbLine
 62
7
  6
CONTINUOUS
 10
3.9042295439
 20
17.8818781293
 11
8.1468702311
 21
15.4322305693
  0
LINE
  5
3A9
100
AcDbEntity
  8
0
100
AcDbLine
 62
7
  6
CONTINUOUS
 10
-7.7630323456
 20
24.6184089192
 11
-12.0056730327
 21
27.0680564792
  0
LINE
  5
3AA
100
AcDbEntity
  8
0
100
AcDbLine
 62
7
  6
CONTINUOUS
 10
10.4096119309
 20
14.7791727127
 11
10.303933255
 21
14.8401902557
  0
LINE
  5
3AB
100
AcDbEntity
  8
0
100
AcDbLine
 62
7
  6
CONTINUOUS
 10
-5.5002906458
 20
23.9653510626
 11
-5.6059693217
 21
24.0263686056
  0
LINE
  5
3AC
100
AcDbEntity
  8
0
100
AcDbLine
 62
7
  6
CONTINUOUS
 10
-11.6332662999
 20
28.0778572789
 11
-6.014118735
 21
24.8334318994
  0
LINE
  5
3AD
100
AcDbEntity
  8
0
100
AcDbLine
 62
7
  6
CONTINUOUS
 10
4.2766362768
 20
18.8916789291
 11
9.8957838417
 21
15.6472535496
  0
LINE
  5
3AE
100
AcDbEntity
  8
ASSI
100
AcDbLine
 62
7
  6
CONTINUOUS
 10
9.8957838417
 20
15.6472535496
 11
10.0101982689
 21
15.4949621843
  0
LINE
  5
3AF
100
AcDbEntity
  8
ASSI
100
AcDbLine
 62
7
  6
CONTINUOUS
 10
10.0101982689
 20
15.4949621843
 11
10.1240635167
 21
15.342102769
  0
LINE
  5
3B0
100
AcDbEntity
  8
ASSI
100
AcDbLine
 62
7
  6
CONTINUOUS
 10
10.1240635167
 20
15.342102769
 11
10.2373795849
 21
15.1886753035
  0
LWPOLYLINE
  5
3B1
100
AcDbEntity
  8
ASSI
100
AcDbPolyline
 62
7
  6
CONTINUOUS
 90
7
 70
0
 10
10.7584011255
 20
14.4659395613
 10
10.98224157
 20
14.1463826924
 10
11.2036481445
 20
13.824714653
 10
11.422620849
 20
13.5009354433
 10
11.6391596834
 20
13.1750450631
 10
11.8532646479
 20
12.8470435125
 10
12.0649357423
 20
12.5169307914
  0
LWPOLYLINE
  5
3B2
100
AcDbEntity
  8
IMPORT_IGES
100
AcDbPolyline
 62
7
  6
CONTINUOUS
 90
13
 70
0
 10
17.3689067786
 20
-0.9793238878
 10
17.3729572457
 20
-1.0136485897
 10
17.3725028855
 20
-1.1539183632
 10
17.3549477223
 20
-1.2950614187
 10
17.3203639922
 20
-1.4363670061
 10
17.2683789051
 20
-1.5769522939
 10
17.1977310253
 20
-1.7176130524
 10
17.107883793
 20
-1.8577182293
 10
16.9988493377
 20
-1.9957640865
 10
16.8700145111
 20
-2.1309777477
 10
16.7210430594
 20
-2.2624146519
 10
16.552201909
 20
-2.3888180092
 10
16.363891783
 20
-2.5089308188
  0
LWPOLYLINE
  5
3B3
100
AcDbEntity
  8
IMPORT_IGES
100
AcDbPolyline
 62
7
  6
CONTINUOUS
 90
13
 70
0
 10
18.3645632192
 20
10.7586306687
 10
18.3598118208
 20
10.9176103649
 10
18.3461723747
 20
11.0693240862
 10
18.3236448809
 20
11.2137718326
 10
18.2920477609
 20
11.3514898222
 10
18.2515625934
 20
11.481941837
 10
18.2027341133
 20
11.6035192224
 10
18.1454629749
 20
11.7161121786
 10
18.079848524
 20
11.8198305056
 10
18.0067335334
 20
11.9133949482
 10
17.9260279015
 20
11.9966824315
 10
17.83782173
 20
12.0698160305
 10
17.7433159008
 20
12.1318409377
  0
LWPOLYLINE
  5
3B4
100
AcDbEntity
  8
IMPORT_IGES
100
AcDbPolyline
 62
7
  6
CONTINUOUS
 90
13
 70
0
 10
19.2838020348
 20
-1.7741367886
 10
19.2790506363
 20
-1.6151570924
 10
19.2654111902
 20
-1.4634433712
 10
19.2428836964
 20
-1.3189956248
 10
19.2112865765
 20
-1.1812776351
 10
19.1708014089
 20
-1.0508256204
 10
19.1219729288
 20
-0.929248235
 10
19.0647017904
 20
-0.8166552787
 10
18.9990873395
 20
-0.7129369518
 10
18.9259723489
 20
-0.6193725092
 10
18.8452667171
 20
-0.5360850259
 10
18.7570605455
 20
-0.4629514269
 10
18.6625547163
 20
-0.4009265197
  0
LWPOLYLINE
  5
3B5
100
AcDbEntity
  8
IMPORT_IGES
100
AcDbPolyline
 62
250
  6
CONTINUOUS
 90
6
 70
0
 10
25.6800925768
 20
15.0672603442
 10
25.7000363283
 20
15.1316592648
 10
25.7389130451
 20
15.301732986
 10
25.7668016545
 20
15.4806748163
 10
25.7835827331
 20
15.6677184993
 10
25.7891844217
 20
15.8620630853
  0
LWPOLYLINE
  5
3B6
100
AcDbEntity
  8
RACCORDO
100
AcDbPolyline
 62
250
  6
CONTINUOUS
 90
16
 70
0
 10
1.7408730749
 20
-23.0945264542
 10
1.7183517683
 20
-23.1091426784
 10
1.6961062284
 20
-23.1263527525
 10
1.6743881558
 20
-23.14596195
 10
1.6534432833
 20
-23.1677483995
 10
1.6335085952
 20
-23.1914655945
 10
1.6148096458
 20
-23.216845183
 10
1.5975580075
 20
-23.2436000033
 10
1.5819488769
 20
-23.2714273337
 10
1.5681588659
 20
-23.300012317
 10
1.5563440041
 20
-23.3290315238
 10
1.5466379726
 20
-23.3581566115
 10
1.5391505919
 20
-23.3870580393
 10
1.5339665792
 20
-23.4154087973
 10
1.53114459
 20
-23.4428881062
 10
1.530716554
 20
-23.4691850466
  0
LINE
  5
3B7
100
AcDbEntity
  8
RACCORDO
100
AcDbLine
 62
250
  6
CONTINUOUS
 10
12.1420235448
 20
-16.663101777
 11
15.2029379874
 21
-14.8015826871
  0
LINE
  5
3B8
100
AcDbEntity
  8
RACCORDO
100
AcDbLine
 62
250
  6
CONTINUOUS
 10
1.8509764576
 20
-23.0275662197
 11
1.7408730749
 21
-23.0945264542
  0
LINE
  5
3B9
100
AcDbEntity
  8
RACCORDO
100
AcDbLine
 62
7
  6
CONTINUOUS
 10
12.1420235448
 20
-16.8290264187
 11
15.1030738968
 21
-15.0282404576
  0
LINE
  5
3BA
100
AcDbEntity
  8
RACCORDO
100
AcDbLine
 62
7
  6
CONTINUOUS
 10
14.5021111475
 20
-14.4967818482
 11
15.2029379874
 21
-14.0849433256
  0
LWPOLYLINE
  5
3BB
100
AcDbEntity
  8
ASSI
100
AcDbPolyline
 62
250
  6
CONTINUOUS
 90
16
 70
0
 10
1.6343009111
 20
-21.8535522832
 10
1.5953468041
 20
-21.8741086539
 10
1.5529002187
 20
-21.8929799776
 10
1.5074776626
 20
-21.9095529468
 10
1.4597492437
 20
-21.9228732153
 10
1.4102827121
 20
-21.9328393309
 10
1.3594405942
 20
-21.9401066406
 10
1.3077163266
 20
-21.9441863289
 10
1.2558865428
 20
-21.9446650744
 10
1.2045373168
 20
-21.9422836645
 10
1.1537304249
 20
-21.9367846276
 10
1.1043188257
 20
-21.9277238944
 10
1.0575549092
 20
-21.915908509
 10
1.0136765121
 20
-21.9016888014
 10
0.9723430844
 20
-21.884541095
 10
0.9336091458
 20
-21.8641010877
  0
LWPOLYLINE
  5
3BC
100
AcDbEntity
  8
0
100
AcDbPolyline
 62
250
  6
CONTINUOUS
 90
16
 70
0
 10
1.6343009111
 20
-21.8535522832
 10
1.5953468041
 20
-21.8741086539
 10
1.5529002187
 20
-21.8929799776
 10
1.5074776626
 20
-21.9095529468
 10
1.4597492437
 20
-21.9228732153
 10
1.4102827121
 20
-21.9328393309
 10
1.3594405942
 20
-21.9401066406
 10
1.3077163266
 20
-21.9441863289
 10
1.2558865428
 20
-21.9446650744
 10
1.2045373168
 20
-21.9422836645
 10
1.1537304249
 20
-21.9367846276
 10
1.1043188257
 20
-21.9277238944
 10
1.0575549092
 20
-21.915908509
 10
1.0136765121
 20
-21.9016888014
 10
0.9723430844
 20
-21.884541095
 10
0.9336091458
 20
-21.8641010877
  0
LINE
  5
3BD
100
AcDbEntity
  8
ASSI
100
AcDbLine
 62
250
  6
CONTINUOUS
 10
1.6343009111
 20
-21.8535522832
 11
1.8189633958
 21
-21.7685207219
  0
LINE
  5
3BE
100
AcDbEntity
  8
0
100
AcDbLine
 62
250
  6
CONTINUOUS
 10
1.6343009111
 20
-21.8535522832
 11
1.8189633958
 21
-21.7685207219
  0
LINE
  5
3BF
100
AcDbEntity
  8
ASSI
100
AcDbLine
 62
7
  6
CONTINUOUS
 10
1.4897412384
 20
-22.1020114973
 11
1.8235624937
 21
-21.9493991887
  0
LINE
  5
3C0
100
AcDbEntity
  8
0
100
AcDbLine
 62
7
  6
CONTINUOUS
 10
1.4897410782
 20
-22.1020115684
 11
1.8235631456
 21
-21.949424828
  0
LINE
  5
3C1
100
AcDbEntity
  8
ASSI
100
AcDbLine
 62
7
  6
CONTINUOUS
 10
1.4899019654
 20
-22.1019401311
 11
1.4898606632
 21
-22.1019584662
  0
LINE
  5
3C2
100
AcDbEntity
  8
0
100
AcDbLine
 62
7
  6
CONTINUOUS
 10
1.4899019654
 20
-22.1019401311
 11
1.4898605037
 21
-22.101958537
  0
LINE
  5
3C3
100
AcDbEntity
  8
0
100
AcDbLine
 62
7
  6
CONTINUOUS
 10
6.44144428
 20
18.2950878516
 11
8.0218429714
 21
18.1175586321
  0
LWPOLYLINE
  5
3C4
100
AcDbEntity
  8
RACCORDO
100
AcDbPolyline
 62
250
  6
CONTINUOUS
 90
10
 70
0
 10
15.0932801673
 20
14.4894559919
 10
15.0711400225
 20
14.500152416
 10
15.0467498402
 20
14.5077839315
 10
15.0208541918
 20
14.5119870179
 10
14.9936546279
 20
14.5127447677
 10
14.9653623379
 20
14.5100663024
 10
14.9362539805
 20
14.5040022892
 10
14.9065755581
 20
14.4946404683
 10
14.8765337712
 20
14.4820815536
 10
14.8463533834
 20
14.4664512701
  0
LWPOLYLINE
  5
3C5
100
AcDbEntity
  8
IMPORT_IGES
100
AcDbPolyline
 62
7
  6
CONTINUOUS
 90
3
 70
0
 10
17.7433159008
 20
12.1318409377
 10
17.6421697263
 20
12.1827576121
 10
17.5425813879
 20
12.2196544443
  0
LINE
  5
3C6
100
AcDbEntity
  8
0
100
AcDbLine
 62
7
  6
CONTINUOUS
 10
10.4096119309
 20
15.5956429895
 11
6.0255498875
 21
18.1269454681
  0
LINE
  5
3C7
100
AcDbEntity
  8
0
100
AcDbLine
 62
7
  6
CONTINUOUS
 10
-5.5002906458
 20
24.7818213394
 11
-9.8843526892
 21
27.313123818
  0
LINE
  5
3C8
100
AcDbEntity
  8
0
100
AcDbLine
 62
7
  6
CONTINUOUS
 10
-9.4684582967
 20
27.4812662015
 11
-5.2090782571
 21
25.0219535492
  0
LINE
  5
3C9
100
AcDbEntity
  8
0
100
AcDbLine
 62
7
  6
CONTINUOUS
 10
6.44144428
 20
18.2950878516
 11
10.7008243196
 21
15.8357751993
  0
LINE
  5
3CA
100
AcDbEntity
  8
ASSI
100
AcDbLine
 62
7
  6
CONTINUOUS
 10
14.8933628671
 20
14.1500291647
 11
11.8074313967
 21
15.9318073199
  0
LINE
  5
3CB
100
AcDbEntity
  8
ASSI
100
AcDbLine
 62
7
  6
CONTINUOUS
 10
8.0218429714
 20
18.1175586321
 11
4.935911501
 21
19.8993367873
  0
LINE
  5
3CC
100
AcDbEntity
  8
ASSI
100
AcDbLine
 62
7
  6
CONTINUOUS
 10
-1.0165397096
 20
23.3362075146
 11
-4.10247118
 21
25.1179856698
  0
LINE
  5
3CD
100
AcDbEntity
  8
ASSI
100
AcDbLine
 62
7
  6
CONTINUOUS
 10
-7.8880596053
 20
27.303736982
 11
-10.9739910757
 21
29.0855151372
  0
LINE
  5
3CE
100
AcDbEntity
  8
DRAFT
100
AcDbLine
 62
7
  6
CONTINUOUS
 10
5.0970938082
 20
20.0267640966
 11
15.5382822905
 21
13.9981527257
  0
LINE
  5
3CF
100
AcDbEntity
  8
DRAFT
100
AcDbLine
 62
7
  6
CONTINUOUS
 10
-0.3716202862
 20
23.1843310756
 11
-10.8128087685
 21
29.2129424465
  0
LINE
  5
3D0
100
AcDbEntity
  8
RACCORDO
100
AcDbLine
 62
250
  6
CONTINUOUS
 10
-5.9710635313
 20
26.4861668931
 11
14.8463533834
 21
14.4664512701
  0
LINE
  5
3D1
100
AcDbEntity
  8
RACCORDO
100
AcDbLine
 62
7
  6
CONTINUOUS
 10
-5.7241367475
 20
26.509171615
 11
15.0932801673
 21
14.4894559919
  0
LWPOLYLINE
  5
3D2
100
AcDbEntity
  8
RACCORDO
100
AcDbPolyline
 62
250
  6
CONTINUOUS
 90
8
 70
0
 10
14.8463533834
 20
14.4664512701
 10
14.8776858703
 20
14.4474091239
 10
14.9087564679
 20
14.4253921214
 10
14.9393287559
 20
14.4005677926
 10
14.9691701058
 20
14.3731250292
 10
14.9980534511
 20
14.3432726466
 10
15.0257590146
 20
14.3112377956
 10
15.0498085554
 20
14.2801913383
  0
LWPOLYLINE
  5
3D3
100
AcDbEntity
  8
IMPORT_IGES
100
AcDbPolyline
 62
7
  6
CONTINUOUS
 90
23
 70
0
 10
17.1152107656
 20
11.929713276
 10
17.1440661252
 20
11.8819458112
 10
17.2062424142
 20
11.7379815113
 10
17.2539431297
 20
11.5780202563
 10
17.2858884936
 20
11.4063364988
 10
17.3016519875
 20
11.2226053123
 10
17.30166013
 20
11.0271516234
 10
17.2859126988
 20
10.8252246649
 10
17.2539831641
 20
10.6166567695
 10
17.2062980558
 20
10.4016156044
 10
17.1441367411
 20
10.1858534047
 10
17.0671085951
 20
9.9693494929
 10
16.9756042427
 20
9.7521245465
 10
16.8720749257
 20
9.539992833
 10
16.7561954631
 20
9.3330917541
 10
16.6282910359
 20
9.1312839081
 10
16.4917884288
 20
8.9399713569
 10
16.3464568837
 20
8.7594394444
 10
16.1925271587
 20
8.5894028267
 10
16.0341183129
 20
8.4344075341
 10
15.8726033661
 20
8.2959689098
 10
15.7066092984
 20
8.1725716106
 10
15.53613611
 20
8.0642156364
  0
LWPOLYLINE
  5
3D4
100
AcDbEntity
  8
IMPORT_IGES
100
AcDbPolyline
 62
7
  6
CONTINUOUS
 90
8
 70
0
 10
17.3919391782
 20
12.1174542087
 10
17.4249265788
 20
12.0525993767
 10
17.4737525037
 20
11.931023259
 10
17.5142352393
 20
11.8005733678
 10
17.5458303739
 20
11.6628584897
 10
17.5683564369
 20
11.5184148871
 10
17.5819948989
 20
11.3667062977
 10
17.5867457599
 20
11.2077327214
  0
LINE
  5
3D5
100
AcDbEntity
  8
IMPORT_IGES
100
AcDbLine
 62
7
  6
CONTINUOUS
 10
22.6274069572
 20
-2.292992042
 11
22.6274069572
 21
2.6058296188
  0
LINE
  5
3D6
100
AcDbEntity
  8
IMPORT_IGES
100
AcDbLine
 62
7
  6
CONTINUOUS
 10
22.6274069572
 20
10.7705323867
 11
22.6274069572
 21
15.6693540475
  0
LWPOLYLINE
  5
3D7
100
AcDbEntity
  8
IMPORT_IGES
100
AcDbPolyline
 62
7
  6
CONTINUOUS
 90
9
 70
0
 10
25.6800925768
 20
1.8180055112
 10
25.7165022212
 20
1.8908262652
 10
25.7735512499
 20
2.0286876869
 10
25.8225874915
 20
2.1748339184
 10
25.8632031516
 20
2.328849197
 10
25.894870094
 20
2.4891390812
 10
25.9174802922
 20
2.6548757802
 10
25.9310844997
 20
2.826167553
 10
25.9356310311
 20
3.0026759533
  0
LINE
  5
3D8
100
AcDbEntity
  8
RACCORDO
100
AcDbLine
 62
7
  6
CONTINUOUS
 10
14.4776489262
 20
-18.7760302908
 11
12.1420235448
 21
-20.0779257825
  0
LWPOLYLINE
  5
3D9
100
AcDbEntity
  8
ASSI
100
AcDbPolyline
 62
7
  6
CONTINUOUS
 90
25
 70
0
 10
-7.979928576
 20
22.0190195378
 10
-8.0099118679
 20
22.019228995
 10
-8.0405882658
 20
22.0232778231
 10
-8.0719577696
 20
22.0311660224
 10
-8.1043042014
 20
22.0430282935
 10
-8.1373437392
 20
22.0587299357
 10
-8.1702249166
 20
22.0778668462
 10
-8.2029428884
 20
22.1005278404
 10
-8.2355024999
 20
22.1266241028
 10
-8.267066821
 20
22.155485085
 10
-8.2976105276
 20
22.1871829587
 10
-8.3271589439
 20
22.2216455522
 10
-8.3549511121
 20
22.2579858016
 10
-8.3809413604
 20
22.2962526344
 10
-8.4051753605
 20
22.3363971231
 10
-8.4270291706
 20
22.3773854208
 10
-8.4464407803
 20
22.4192393933
 10
-8.4634721998
 20
22.4619371747
 10
-8.4776855185
 20
22.5043793203
 10
-8.4890073357
 20
22.5465589661
 10
-8.4975110521
 20
22.5884829761
 10
-8.5029789592
 20
22.6290724977
 10
-8.5053384876
 20
22.6679679135
 10
-8.5046622067
 20
22.7055288409
 10
-8.5009501165
 20
22.74175528
  0
LWPOLYLINE
  5
3DA
100
AcDbEntity
  8
IMPORT_IGES
100
AcDbPolyline
 62
250
  6
CONTINUOUS
 90
6
 70
0
 10
25.7891844217
 20
2.7985386567
 10
25.7835827331
 20
2.9993519323
 10
25.7668016545
 20
3.2057739842
 10
25.7389130451
 20
3.4169208815
 10
25.7000363283
 20
3.6318884608
 10
25.6800925768
 20
3.7193179257
  0
LWPOLYLINE
  5
3DB
100
AcDbEntity
  8
IMPORT_IGES
100
AcDbPolyline
 62
7
  6
CONTINUOUS
 90
8
 70
0
 10
25.9356310311
 20
3.0026759533
 10
25.9300070873
 20
3.2042585109
 10
25.913305012
 20
3.4092893755
 10
25.8857884371
 20
3.6170439498
 10
25.8477127088
 20
3.8269004083
 10
25.7993637429
 20
4.0380921429
 10
25.7411141496
 20
4.2496356532
 10
25.6800925768
 20
4.4396909701
  0
LWPOLYLINE
  5
3DC
100
AcDbEntity
  8
IMPORT_IGES
100
AcDbPolyline
 62
250
  6
CONTINUOUS
 90
6
 70
0
 10
25.7891844217
 20
15.8620630853
 10
25.7835827331
 20
16.0628763609
 10
25.7668016545
 20
16.2692984129
 10
25.7389130451
 20
16.4804453102
 10
25.7000363283
 20
16.6954128895
 10
25.6800925768
 20
16.7828423544
  0
LWPOLYLINE
  5
3DD
100
AcDbEntity
  8
IMPORT_IGES
100
AcDbPolyline
 62
7
  6
CONTINUOUS
 90
8
 70
0
 10
25.9356310311
 20
16.066200382
 10
25.9300070873
 20
16.2677829396
 10
25.913305012
 20
16.4728138042
 10
25.8857884371
 20
16.6805683785
 10
25.8477127088
 20
16.890424837
 10
25.7993637429
 20
17.1016165716
 10
25.7411141496
 20
17.3131600819
 10
25.6800925768
 20
17.5032153988
  0
LWPOLYLINE
  5
3DE
100
AcDbEntity
  8
IMPORT_IGES
100
AcDbPolyline
 62
250
  6
CONTINUOUS
 90
16
 70
0
 10
25.5608622717
 20
18.6156570446
 10
25.5602365157
 20
18.6601986978
 10
25.5554644746
 20
18.706295991
 10
25.5465980163
 20
18.7534461894
 10
25.5337336378
 20
18.8011351508
 10
25.5170115054
 20
18.8488425891
 10
25.4966140213
 20
18.8960477535
 10
25.472763593
 20
18.9422357229
 10
25.4457203308
 20
18.9869025953
 10
25.4157794572
 20
19.0295606958
 10
25.3832683277
 20
19.0697438535
 10
25.3485409745
 20
19.1070146995
 10
25.3119741378
 20
19.1409684839
 10
25.2739657553
 20
19.1712347507
 10
25.2349309966
 20
19.1974819796
 10
25.1952956814
 20
19.2194230833
  0
LINE
  5
3DF
100
AcDbEntity
  8
IMPORT_IGES
100
AcDbLine
 62
250
  6
CONTINUOUS
 10
25.5608622717
 20
-1.2590052548
 11
25.5608622717
 21
18.6156570446
  0
LINE
  5
3E0
100
AcDbEntity
  8
IMPORT_IGES
100
AcDbLine
 62
7
  6
CONTINUOUS
 10
25.6800925768
 20
18.8027648315
 11
25.6800925768
 21
-1.0718974678
  0
LWPOLYLINE
  5
3E1
100
AcDbEntity
  8
IMPORT_IGES
100
AcDbPolyline
 62
250
  6
CONTINUOUS
 90
8
 70
0
 10
25.6800925768
 20
18.8027648315
 10
25.6771302933
 20
18.771386022
 10
25.6692871193
 20
18.7430709542
 10
25.6566176798
 20
18.7153448105
 10
25.6392469682
 20
18.68848113
 10
25.6173463593
 20
18.6627449425
 10
25.5911319189
 20
18.6383901547
 10
25.5608622717
 20
18.6156570446
  0
LWPOLYLINE
  5
3E2
100
AcDbEntity
  8
IMPORT_IGES
100
AcDbPolyline
 62
250
  6
CONTINUOUS
 90
6
 70
0
 10
25.6800925768
 20
2.0037359155
 10
25.7000363283
 20
2.0681348361
 10
25.7389130451
 20
2.2382085573
 10
25.7668016545
 20
2.4171503876
 10
25.7835827331
 20
2.6041940707
 10
25.7891844217
 20
2.7985386567
  0
LINE
  5
3E3
100
AcDbEntity
  8
RACCORDO
100
AcDbLine
 62
7
  6
CONTINUOUS
 10
15.1908726848
 20
-19.1878367503
 11
12.1420235448
 21
-20.948207028
  0
LINE
  5
3E4
100
AcDbEntity
  8
0
100
AcDbLine
 62
7
  6
CONTINUOUS
 10
-5.2090782571
 20
25.0219535492
 11
-4.10247118
 21
25.1179856698
  0
LINE
  5
3E5
100
AcDbEntity
  8
0
100
AcDbLine
 62
7
  6
CONTINUOUS
 10
-9.4684582967
 20
27.4812662015
 11
-7.8880596053
 21
27.303736982
  0
LWPOLYLINE
  5
3E6
100
AcDbEntity
  8
ASSI
100
AcDbPolyline
 62
250
  6
CONTINUOUS
 90
16
 70
0
 10
6.1945322638
 20
-29.123830339
 10
6.1963944114
 20
-29.1228891366
 10
6.2114399799
 20
-29.1142239358
 10
6.2256749476
 20
-29.1040785804
 10
6.2390512069
 20
-29.0924873624
 10
6.2515235501
 20
-29.0794894618
 10
6.2630498178
 20
-29.0651288231
 10
6.2735910585
 20
-29.0494539889
 10
6.2831116506
 20
-29.0325179416
 10
6.291579417
 20
-29.0143779383
 10
6.2989657461
 20
-28.9950952954
 10
6.3052456818
 20
-28.9747351896
 10
6.310398005
 20
-28.9533664501
 10
6.3144053112
 20
-28.9310613082
 10
6.3172540678
 20
-28.9078951513
 10
6.3189346565
 20
-28.8839462792
  0
LINE
  5
3E7
100
AcDbEntity
  8
ASSI
100
AcDbLine
 62
250
  6
CONTINUOUS
 10
12.1420235448
 20
-25.9834575651
 11
6.3189346565
 21
-28.8839462792
  0
LINE
  5
3E8
100
AcDbEntity
  8
ASSI
100
AcDbLine
 62
7
  6
CONTINUOUS
 10
12.0293951093
 20
-26.2174770003
 11
6.1945322638
 21
-29.123830339
  0
LWPOLYLINE
  5
3E9
100
AcDbEntity
  8
ASSI
100
AcDbPolyline
 62
250
  6
CONTINUOUS
 90
28
 70
0
 10
6.3189346565
 20
-28.8839462792
 10
6.2995358103
 20
-28.893027609
 10
6.2802823843
 20
-28.9008295335
 10
6.2611743786
 20
-28.9073520527
 10
6.2421356087
 20
-28.9126222945
 10
6.2232422591
 20
-28.916613131
 10
6.2047228831
 20
-28.9192431784
 10
6.1865870146
 20
-28.9204853163
 10
6.1688251197
 20
-28.9203666652
 10
6.1516371508
 20
-28.918887203
 10
6.1350445582
 20
-28.9160326706
 10
6.1190258916
 20
-28.9118173272
 10
6.103716752
 20
-28.9062839282
 10
6.0891253702
 20
-28.8994250427
 10
6.0752435153
 20
-28.8912481017
 10
6.062182096
 20
-28.8818181535
 10
6.0499439884
 20
-28.8711242634
 10
6.0385263163
 20
-28.8591773662
 10
6.0280313599
 20
-28.8460753144
 10
6.01846107
 20
-28.8317926018
 10
6.0098134958
 20
-28.8163547346
 10
6.0021850646
 20
-28.7999360843
 10
5.9955951359
 20
-28.7825149785
 10
5.9900243503
 20
-28.7641130897
 10
5.9855110566
 20
-28.7449698065
 10
5.9820680376
 20
-28.7251649253
 10
5.9796825106
 20
-28.7046186496
 10
5.9783544754
 20
-28.6833309797
  0
LWPOLYLINE
  5
3EA
100
AcDbEntity
  8
ASSI
100
AcDbPolyline
 62
7
  6
CONTINUOUS
 90
7
 70
0
 10
-14.8032891678
 20
26.3806468614
 10
-14.7466996906
 20
26.3920836121
 10
-14.6899729548
 20
26.4032197988
 10
-14.6331089602
 20
26.4140554215
 10
-14.576107707
 20
26.4245904802
 10
-14.5189691952
 20
26.4348249749
 10
-14.4616934246
 20
26.4447589056
  0
LWPOLYLINE
  5
3EB
100
AcDbEntity
  8
RACCORDO
100
AcDbPolyline
 62
250
  6
CONTINUOUS
 90
8
 70
0
 10
-6.1686839522
 20
26.5314829821
 10
-6.1441668389
 20
26.5351192268
 10
-6.1170905089
 20
26.5354393458
 10
-6.0889652453
 20
26.5322634114
 10
-6.0600677778
 20
26.5256473367
 10
-6.0306441097
 20
26.5156842736
 10
-6.0009011926
 20
26.502480188
 10
-5.9710635313
 20
26.4861668931
  0
LINE
  5
3EC
100
AcDbEntity
  8
ASSI
100
AcDbLine
 62
7
  6
CONTINUOUS
 10
-15.4087156817
 20
26.2372032356
 11
-15.3243107083
 21
26.2595737343
  0
LWPOLYLINE
  5
3ED
100
AcDbEntity
  8
ASSI
100
AcDbPolyline
 62
7
  6
CONTINUOUS
 90
7
 70
0
 10
-11.974862043
 20
28.0137452347
 10
-11.9182726563
 20
28.0251819684
 10
-11.8615459748
 20
28.0363181449
 10
-11.8046819983
 20
28.0471537642
 10
-11.7476807271
 20
28.0576888263
 10
-11.6905421609
 20
28.0679233312
 10
-11.6332662999
 20
28.0778572789
  0
LWPOLYLINE
  5
3EE
100
AcDbEntity
  8
IMPORT_IGES
100
AcDbPolyline
 62
250
  6
CONTINUOUS
 90
8
 70
0
 10
8.680310752
 20
28.906641554
 10
8.652900032
 20
28.9177500064
 10
8.6232596326
 20
28.924213558
 10
8.5916967483
 20
28.9259652202
 10
8.5585384982
 20
28.9229868387
 10
8.5241285361
 20
28.9153092816
 10
8.4888234882
 20
28.9030121194
 10
8.4529892577
 20
28.8862228004
  0
LWPOLYLINE
  5
3EF
100
AcDbEntity
  8
IMPORT_IGES
100
AcDbPolyline
 62
7
  6
CONTINUOUS
 90
4
 70
0
 10
23.4226464926
 20
20.4185368663
 10
23.2672915175
 20
20.5029552093
 10
23.1120285958
 20
20.5768465605
 10
23.0963476944
 20
20.58325258
  0
LWPOLYLINE
  5
3F0
100
AcDbEntity
  8
IMPORT_IGES
100
AcDbPolyline
 62
7
  6
CONTINUOUS
 90
4
 70
0
 10
12.1089379936
 20
26.9509303595
 10
11.9535830185
 20
27.0353487026
 10
11.7983200968
 20
27.1092400538
 10
11.7826391954
 20
27.1156460733
  0
LINE
  5
3F1
100
AcDbEntity
  8
IMPORT_IGES
100
AcDbLine
 62
250
  6
CONTINUOUS
 10
8.6877761044
 20
28.9025812343
 11
8.680310752
 21
28.906641554
  0
LINE
  5
3F2
100
AcDbEntity
  8
IMPORT_IGES
100
AcDbLine
 62
250
  6
CONTINUOUS
 10
25.1953178102
 20
19.2194121249
 11
8.4529892577
 21
28.8862228004
  0
LINE
  5
3F3
100
AcDbEntity
  8
IMPORT_IGES
100
AcDbLine
 62
7
  6
CONTINUOUS
 10
25.4301046569
 20
19.2357705587
 11
8.6877761044
 21
28.9025812343
  0
LWPOLYLINE
  5
3F4
100
AcDbEntity
  8
IMPORT_IGES
100
AcDbPolyline
 62
250
  6
CONTINUOUS
 90
8
 70
0
 10
8.4530080964
 20
28.8862101047
 10
8.41911207
 20
28.9067250731
 10
8.3854214215
 20
28.9224685609
 10
8.3523037245
 20
28.9332695651
 10
8.3201207889
 20
28.9390109931
 10
8.2892229077
 20
28.9396312866
 10
8.259945304
 20
28.9351241221
 10
8.2343571243
 20
28.9263310577
  0
LWPOLYLINE
  5
3F5
100
AcDbEntity
  8
IMPORT_IGES
100
AcDbPolyline
 62
7
  6
CONTINUOUS
 90
3
 70
0
 10
12.4322283968
 20
26.7405814097
 10
12.2800951018
 20
26.8456781003
 10
12.1089379936
 20
26.9509303595
  0
LWPOLYLINE
  5
3F6
100
AcDbEntity
  8
IMPORT_IGES
100
AcDbPolyline
 62
7
  6
CONTINUOUS
 90
3
 70
0
 10
23.7459368958
 20
20.2081879164
 10
23.5938036008
 20
20.313284607
 10
23.4226464926
 20
20.4185368663
  0
ARC
  5
3F7
100
AcDbEntity
  8
IMPORT_IGES
100
AcDbCircle
 62
7
  6
CONTINUOUS
 10
8.4377640244
 20
28.469575507
 40
0.5
100
AcDbArc
 50
59.9984015652
 51
114.030414844
  0
ARC
  5
3F8
100
AcDbEntity
  8
IMPORT_IGES
100
AcDbCircle
 62
7
  6
CONTINUOUS
 10
25.1800925768
 20
-1.0718974678
 40
0.5
100
AcDbArc
 50
306.1566792054
 51
360.0
  0
ARC
  5
3F9
100
AcDbEntity
  8
IMPORT_IGES
100
AcDbCircle
 62
7
  6
CONTINUOUS
 10
25.1800925768
 20
18.8027648315
 40
0.5
100
AcDbArc
 50
0.0
 51
59.9984015652
  0
ARC
  5
3FA
100
AcDbEntity
  8
ASSI
100
AcDbCircle
 62
7
  6
CONTINUOUS
 10
-21.0333738214
 20
-8.7575373292
 40
0.5
100
AcDbArc
 50
181.9347748265
 51
239.9984015651
  0
ARC
  5
3FB
100
AcDbEntity
  8
ASSI
100
AcDbCircle
 62
7
  6
CONTINUOUS
 10
-23.7613808738
 20
13.9204610751
 40
0.5
100
AcDbArc
 50
136.1026432342
 51
192.3691572866
  0
ARC
  5
3FC
100
AcDbEntity
  8
ASSI
100
AcDbCircle
 62
7
  6
CONTINUOUS
 10
1.2869203339
 20
-21.6449954355
 40
0.5
100
AcDbArc
 50
239.9984015653
 51
293.9365550411
  0
ARC
  5
3FD
100
AcDbEntity
  8
0
100
AcDbCircle
 62
7
  6
CONTINUOUS
 10
-21.0333738214
 20
-8.7575373292
 40
0.5
100
AcDbArc
 50
181.9347748265
 51
239.9984015651
  0
ARC
  5
3FE
100
AcDbEntity
  8
0
100
AcDbCircle
 62
7
  6
CONTINUOUS
 10
-23.7613808738
 20
13.9204610751
 40
0.5
100
AcDbArc
 50
136.1026433644
 51
192.3691523714
  0
ARC
  5
3FF
100
AcDbEntity
  8
0
100
AcDbCircle
 62
7
  6
CONTINUOUS
 10
1.2869203339
 20
-21.6449954355
 40
0.5
100
AcDbArc
 50
239.9984015653
 51
293.9365550411
  0
ARC
  5
400
100
AcDbEntity
  8
RACCORDO
100
AcDbCircle
 62
7
  6
CONTINUOUS
 10
14.8432680872
 20
14.0564502646
 40
0.5
100
AcDbArc
 50
6.4782644771
 51
59.9984007798
  0
ARC
  5
401
100
AcDbEntity
  8
RACCORDO
100
AcDbCircle
 62
7
  6
CONTINUOUS
 10
-5.9741488275
 20
26.0761658877
 40
0.5
100
AcDbArc
 50
59.9984015652
 51
113.549034709
  0
ARC
  5
402
100
AcDbEntity
  8
RACCORDO
100
AcDbCircle
 62
7
  6
CONTINUOUS
 10
14.8432680872
 20
-14.6010391686
 40
0.5
100
AcDbArc
 50
301.3061094705
 51
359.9999666312
  0
ELLIPSE
  5
403
100
AcDbEntity
  8
IMPORT_IGES
100
AcDbEllipse
 62
7
  6
CONTINUOUS
 10
10.1378225653
 20
9.411793987
 30
0.0
 11
4.405105539
 21
2.3413287507
 31
0.0
 40
0.0723801844
 41
-0.0384513557
 42
0.1028556697
  0
ELLIPSE
  5
404
100
AcDbEntity
  8
IMPORT_IGES
100
AcDbEllipse
 62
7
  6
CONTINUOUS
 10
16.75691125
 20
9.2372212072
 30
0.0
 11
1.3314307423
 21
2.6933820475
 31
0.0
 40
0.52929096
 41
0.7512614239
 42
3.8928540775
  0
ELLIPSE
  5
405
100
AcDbEntity
  8
IMPORT_IGES
100
AcDbEllipse
 62
7
  6
CONTINUOUS
 10
17.6021883218
 20
-3.2528416663
 30
0.0
 11
1.3314307423
 21
2.6933820475
 31
0.0
 40
0.52929096
 41
0.7512614239
 42
3.8928540775
  0
ELLIPSE
  5
406
100
AcDbEntity
  8
ASSI
100
AcDbEllipse
 62
7
  6
CONTINUOUS
 10
11.7884162981
 20
-25.7789157836
 30
0.0
 11
-0.2498600223
 21
0.43379745
 31
0.0
 40
0.5768037941
 41
-3.1764860668
 42
-2.355482613
  0
ELLIPSE
  5
407
100
AcDbEntity
  8
ASSI
100
AcDbEllipse
 62
7
  6
CONTINUOUS
 10
11.7884162981
 20
9.9813618602
 30
0.0
 11
-0.2496303025
 21
0.4334023309
 31
0.0
 40
0.5778584463
 41
-2.3545649475
 42
-0.7846820092
  0
ELLIPSE
  5
408
100
AcDbEntity
  8
ASSI
100
AcDbEllipse
 62
7
  6
CONTINUOUS
 10
-19.1827530057
 20
27.8637268563
 30
0.0
 11
-0.2498600223
 21
0.43379745
 31
0.0
 40
0.5768037941
 41
-0.7837728977
 42
0.0348934132
  0
ELLIPSE
  5
409
100
AcDbEntity
  8
DRAFT
100
AcDbEllipse
 62
7
  6
CONTINUOUS
 10
1512.1307137039
 20
876.2624268512
 30
0.0
 11
2248.9183648843
 21
1321.4619366683
 31
0.0
 40
0.0075564663
 41
-2.305378816
 42
-2.3033538064
  0
ELLIPSE
  5
40A
100
AcDbEntity
  8
RACCORDO
100
AcDbEllipse
 62
7
  6
CONTINUOUS
 10
15.1878143136
 20
13.0538636316
 30
0.0
 11
0.2467654307
 21
0.4348749944
 31
0.0
 40
0.5722717666
 41
-2.3517073555
 42
-0.7896376749
  0
ELLIPSE
  5
40B
100
AcDbEntity
  8
DRAFT
100
AcDbEllipse
 62
7
  6
CONTINUOUS
 10
1528.0406162806
 20
867.0762485013
 30
0.0
 11
2288.5174754264
 21
1298.5961659699
 31
0.0
 40
0.0075564991
 41
8.5778111385
 42
8.5807442707
  0
ELLIPSE
  5
40C
100
AcDbEntity
  8
RACCORDO
100
AcDbEllipse
 62
7
  6
CONTINUOUS
 10
-0.7220882631
 20
22.2400419815
 30
0.0
 11
0.2467654307
 21
0.4348749944
 31
0.0
 40
0.5722717666
 41
-2.3517073555
 42
-0.7896376749
  0
ELLIPSE
  5
40D
100
AcDbEntity
  8
DRAFT
100
AcDbEllipse
 62
7
  6
CONTINUOUS
 10
1512.1307137039
 20
876.2624268512
 30
0.0
 11
2288.5174754264
 21
1298.5961659699
 31
0.0
 40
0.0075564991
 41
8.5778111385
 42
8.5807442707
  0
ELLIPSE
  5
40E
100
AcDbEntity
  8
RACCORDO
100
AcDbEllipse
 62
7
  6
CONTINUOUS
 10
14.474536705
 20
-19.1860157501
 30
0.0
 11
0.2533110813
 21
0.431095234
 31
0.0
 40
0.5823475934
 41
0.0044401419
 42
0.7811599806
  0
ELLIPSE
  5
40F
100
AcDbEntity
  8
DRAFT
100
AcDbEllipse
 62
7
  6
CONTINUOUS
 10
1512.1307137039
 20
876.2624268512
 30
0.0
 11
2248.9183648843
 21
1321.4619366683
 31
0.0
 40
0.0075564663
 41
2.2944735223
 42
2.2974066544
  0
ELLIPSE
  5
410
100
AcDbEntity
  8
RACCORDO
100
AcDbEllipse
 62
7
  6
CONTINUOUS
 10
14.8432680872
 20
-13.884337631
 30
0.0
 11
0.4999954027
 21
-0.0037463081
 31
0.0
 40
0.5723275643
 41
-0.763656627
 42
0.7896864073
  0
ELLIPSE
  5
411
100
AcDbEntity
  8
DRAFT
100
AcDbEllipse
 62
7
  6
CONTINUOUS
 10
1496.2208111272
 20
885.448605201
 30
0.0
 11
2248.9183648844
 21
1321.4619366683
 31
0.0
 40
0.0075564663
 41
2.2944735223
 42
2.2974066544
  0
ELLIPSE
  5
412
100
AcDbEntity
  8
RACCORDO
100
AcDbEllipse
 62
7
  6
CONTINUOUS
 10
15.1878143136
 20
-19.5978533018
 30
0.0
 11
0.2467654307
 21
0.4348749944
 31
0.0
 40
0.5722717666
 41
5.4935476323
 42
7.0556173128
  0
ELLIPSE
  5
413
100
AcDbEntity
  8
DRAFT
100
AcDbEllipse
 62
7
  6
CONTINUOUS
 10
46.3518496186
 20
11.5677245523
 30
0.0
 11
42.4848942423
 21
-6.6610389019
 31
0.0
 40
0.220321463
 41
2.9324828481
 42
2.948732077
  0
ELLIPSE
  5
414
100
AcDbEntity
  8
DRAFT
100
AcDbEllipse
 62
7
  6
CONTINUOUS
 10
30.4419470419
 20
20.7539029022
 30
0.0
 11
42.4848942423
 21
-6.6610389019
 31
0.0
 40
0.220321463
 41
-1.9107170129
 42
-1.894467784
  0
ELLIPSE
  5
415
100
AcDbEntity
  8
DRAFT
100
AcDbEllipse
 62
7
  6
CONTINUOUS
 10
14.5320444652
 20
29.940081252
 30
0.0
 11
42.4848942423
 21
-6.6610389019
 31
0.0
 40
0.220321463
 41
-1.9107170129
 42
-1.894467784
  0
ELLIPSE
  5
416
100
AcDbEntity
  8
DRAFT
100
AcDbEllipse
 62
7
  6
CONTINUOUS
 10
30.4419470419
 20
20.7539029022
 30
0.0
 11
42.4848942423
 21
-6.6610389019
 31
0.0
 40
0.220321463
 41
2.9324828481
 42
2.948732077
  0
ENDSEC
  0
SECTION
  2
OBJECTS
  0
DICTIONARY
  5
C
100
AcDbDictionary
280
0
281
1
  3
ACAD_GROUP
350
D
  3
ACAD_MLINESTYLE
350
17
  3
ACAD_LAYOUT
350
1A
  3
ACAD_PLOTSETTINGS
350
19
  3
ACAD_PLOTSTYLENAME
350
E
  0
DICTIONARY
  5
D
102
{ACAD_REACTORS
330
C
102
}
100
AcDbDictionary
280
0
281
1
  0
ACDBDICTIONARYWDFLT
  5
E
102
{ACAD_REACTORS
330
C
102
}
100
AcDbDictionary
281
1
  3
Normal
350
F
100
AcDbDictionaryWithDefault
340
F
  0
DICTIONARY
  5
17
102
{ACAD_REACTORS
330
C
102
}
100
AcDbDictionary
280
0
281
1
  3
Standard
350
18
  0
DICTIONARY
  5
19
102
{ACAD_REACTORS
330
C
102
}
100
AcDbDictionary
281
1
  0
DICTIONARY
  5
1A
102
{ACAD_REACTORS
330
C
102
}
100
AcDbDictionary
281
1
  3
Model
350
417
  3
Layout1
350
418
  0
ACDBPLACEHOLDER
  5
F
102
{ACAD_REACTORS
330
E
102
}
  0
MLINESTYLE
  5
18
102
{ACAD_REACTORS
330
17
102
}
100
AcDbMlineStyle
  2
STANDARD
 70
0
  3

 62
256
 51
90.0
 52
90.0
 71
2
 49
0.5
 62
256
  6
BYLAYER
 49
-0.5
 62
256
  6
BYLAYER
  0
LAYOUT
  5
417
102
{ACAD_REACTORS
330
1A
102
}
100
AcDbPlotSettings
  1

  2
none_device
  4
ISO_A4_(297.00_x_210.00_MM)
  6

 40
0.0
 41
0.0
 42
0.0
 43
0.0
 44
297.0
 45
210.0
 46
0.0
 47
0.0
 48
0.0
 49
0.0
140
0.0
141
0.0
142
1.0
143
1.0
 70
1024
 72
1
 73
0
 74
0
  7

 75
0
147
1.0
148
0.0
149
0.0
100
AcDbLayout
  1
Model
 70
0
 71
0
 10
0.0
 20
0.0
 11
297.0
 21
210.0
 12
0.0
 22
0.0
 32
0.0
 14
0.0
 24
0.0
 34
0.0
 15
0.0
 25
0.0
 35
0.0
146
0.0
 13
0.0
 23
0.0
 33
0.0
 16
1.0
 26
0.0
 36
0.0
 17
0.0
 27
1.0
 37
0.0
 76
0
330
226
345
0
346
0
  0
LAYOUT
  5
418
102
{ACAD_REACTORS
330
1A
102
}
100
AcDbPlotSettings
  1

  2
none_device
  4
ISO_A4_(297.00_x_210.00_MM)
  6

 40
0.0
 41
0.0
 42
0.0
 43
0.0
 44
297.0
 45
210.0
 46
0.0
 47
0.0
 48
0.0
 49
0.0
140
0.0
141
0.0
142
1.0
143
1.0
 70
0
 72
1
 73
0
 74
0
  7

 75
0
147
1.0
148
0.0
149
0.0
100
AcDbLayout
  1
Layout1
 70
0
 71
1
 10
0.0
 20
0.0
 11
297.0
 21
210.0
 12
0.0
 22
0.0
 32
0.0
 14
0.0
 24
0.0
 34
0.0
 15
0.0
 25
0.0
 35
0.0
146
0.0
 13
0.0
 23
0.0
 33
0.0
 16
1.0
 26
0.0
 36
0.0
 17
0.0
 27
1.0
 37
0.0
 76
0
330
227
345
0
346
0
  0
ENDSEC
  0
EOF
