  0
SECTION
  2
HEADER
  9
$ACADVER
  1
AC1024
  9
$DWGCODEPAGE
  3
ANSI_1252
  9
$EXTMAX
 10
297.0
 20
210.0
 30
0.0
  9
$EXTMIN
 10
0.0
 20
0.0
 30
0.0
  9
$LIMMIN
 10
0.0
 20
0.0
  9
$LIMMAX
 10
297.0
 20
210.0
  9
$VIEWCTR
 10
148.5
 20
105.0
  9
$VIEWSIZE
 40
210.0
  9
$CLAYER
  8
0
  9
$LTSCALE
 40
16.335
  9
$CELTYPE
  6
BYLAYER
  9
$DIMSCALE
 40
1.0
  9
$DIMASZ
 40
3.0
  9
$DIMEXO
 40
0.5
  9
$DIMDLI
 40
11.286
  9
$DIMEXE
 40
1.5
  9
$DIMCEN
 40
2.673
  9
$DIMLFAC
 40
1.0
  9
$DIMBLK
  1
_FILLED
  9
$DIMALT
 70
0
  9
$DIMALTF
 40
0.0393700787
  9
$DIMTXT
 40
3.0
  9
$DIMTOL
 70
1
  9
$DIMLIM
 70
0
  9
$DIMTFAC
 40
1.0
  9
$DIMTP
 40
0.01
  9
$DIMTM
 40
0.01
  9
$DIMGAP
 40
0.625
  9
$DIMDSEP
 70
44
  9
$AUNITS
 70
0
  9
$PDMODE
 70
3
  9
$PDSIZE
 40
3.0
  9
$HANDSEED
  5
4E3
  9
$TILEMODE
 70
1
  9
$MEASUREMENT
 70
1
  9
$INSUNITS
 70
4
  0
ENDSEC
  0
SECTION
  2
CLASSES
  0
CLASS
  1
ACDBDICTIONARYWDFLT
  2
AcDbDictionaryWithDefault
  3
AutoCAD 2000
 90
0
 91
1
280
0
281
0
  0
CLASS
  1
ACDBPLACEHOLDER
  2
AcDbPlaceHolder
  3
AutoCAD 2000
 90
0
 91
1
280
0
281
0
  0
CLASS
  1
LAYOUT
  2
AcDbLayout
  3
AutoCAD 2000
 90
0
 91
0
280
0
281
0
  0
ENDSEC
  0
SECTION
  2
TABLES
  0
TABLE
  2
VPORT
  5
8
100
AcDbSymbolTable
 70
2
  0
VPORT
  5
1F4
100
AcDbSymbolTableRecord
100
AcDbViewportTableRecord
  2
*ACTIVE
 70
0
 10
0.0
 20
0.0
 11
1.0
 21
1.0
 12
148.5
 22
105.0
 13
0.0
 23
0.0
 14
1.0
 24
1.0
 15
0.0
 25
0.0
 16
0.0
 26
0.0
 36
1.0
 17
0.0
 27
0.0
 37
0.0
 40
210.0
 41
1.4142857143
 42
50.0
 43
0.0
 44
0.0
 50
0.0
 51
0.0
 71
0
 72
100
 73
1
 74
1
 75
0
 76
0
 77
0
 78
0
  0
ENDTAB
  0
TABLE
  2
LTYPE
  5
5
100
AcDbSymbolTable
 70
6
  0
LTYPE
  5
14
100
AcDbSymbolTableRecord
100
AcDbLinetypeTableRecord
  2
BYBLOCK
 70
0
  3

 72
65
 73
0
 40
0.0
  0
LTYPE
  5
15
100
AcDbSymbolTableRecord
100
AcDbLinetypeTableRecord
  2
BYLAYER
 70
0
  3

 72
65
 73
0
 40
0.0
  0
LTYPE
  5
16
100
AcDbSymbolTableRecord
100
AcDbLinetypeTableRecord
  2
CONTINUOUS
 70
64
  3
Solid line
 72
65
 73
0
 40
0.0
  0
LTYPE
  5
1F5
100
AcDbSymbolTableRecord
100
AcDbLinetypeTableRecord
  2
CENTER
 70
64
  3
____ _ ____ _ ____ _ ____ _ ____ _ ____ _ ____
 72
65
 73
4
 40
0.6
 49
0.375
 74
0
 49
-0.075
 74
0
 49
0.075
 74
0
 49
-0.075
 74
0
  0
LTYPE
  5
1F6
100
AcDbSymbolTableRecord
100
AcDbLinetypeTableRecord
  2
HIDDEN
 70
64
  3
- - - - - - - - - - - - - - - - - - - -
 72
65
 73
2
 40
0.2
 49
0.1
 74
0
 49
-0.1
 74
0
  0
LTYPE
  5
1F7
100
AcDbSymbolTableRecord
100
AcDbLinetypeTableRecord
  2
PHANTOM
 70
64
  3
_____ _ _ _____ _ _ _____ _ _ _____
 72
65
 73
6
 40
0.8
 49
0.45
 74
0
 49
-0.05
 74
0
 49
0.1
 74
0
 49
-0.05
 74
0
 49
0.1
 74
0
 49
-0.05
 74
0
  0
LTYPE
  5
1F8
100
AcDbSymbolTableRecord
100
AcDbLinetypeTableRecord
  2
DOT
 70
64
  3
. . . . . . . . . . . . . . . . . . . .
 72
65
 73
2
 40
0.2
 49
0.1
 74
0
 49
-0.1
 74
0
  0
LTYPE
  5
1F9
100
AcDbSymbolTableRecord
100
AcDbLinetypeTableRecord
  2
DASHED
 70
64
  3
- - - - - - - - - - - - - - - - - - - -
 72
65
 73
2
 40
0.2
 49
0.1
 74
0
 49
-0.1
 74
0
  0
ENDTAB
  0
TABLE
  2
LAYER
  5
2
100
AcDbSymbolTable
 70
36
  0
LAYER
  5
10
100
AcDbSymbolTableRecord
100
AcDbLayerTableRecord
  2
0
 70
0
 62
7
  6
CONTINUOUS
370
-3
390
F
  0
LAYER
  5
1FA
100
AcDbSymbolTableRecord
100
AcDbLayerTableRecord
  2
DEFAULT_1
 70
0
 62
7
  6
CENTER
370
-3
390
F
  0
LAYER
  5
1FB
100
AcDbSymbolTableRecord
100
AcDbLayerTableRecord
  2
DEFAULT_2
 70
0
 62
7
  6
HIDDEN
370
-3
390
F
  0
LAYER
  5
1FC
100
AcDbSymbolTableRecord
100
AcDbLayerTableRecord
  2
DEFAULT_3
 70
0
 62
7
  6
PHANTOM
370
-3
390
F
  0
LAYER
  5
1FD
100
AcDbSymbolTableRecord
100
AcDbLayerTableRecord
  2
ASSI
 70
0
 62
7
  6
CONTINUOUS
370
-3
390
F
  0
LAYER
  5
1FE
100
AcDbSymbolTableRecord
100
AcDbLayerTableRecord
  2
COORDINATE
 70
0
 62
7
  6
CONTINUOUS
370
-3
390
F
  0
LAYER
  5
1FF
100
AcDbSymbolTableRecord
100
AcDbLayerTableRecord
  2
COORD_ORIGINE
 70
0
 62
7
  6
CONTINUOUS
370
-3
390
F
  0
LAYER
  5
200
100
AcDbSymbolTableRecord
100
AcDbLayerTableRecord
  2
COPY_PUBLISH
 70
0
 62
7
  6
CONTINUOUS
370
-3
390
F
  0
LAYER
  5
201
100
AcDbSymbolTableRecord
100
AcDbLayerTableRecord
  2
COSMETIC
 70
0
 62
7
  6
CONTINUOUS
370
-3
390
F
  0
LAYER
  5
202
100
AcDbSymbolTableRecord
100
AcDbLayerTableRecord
  2
COSMETICHE
 70
0
 62
7
  6
CONTINUOUS
370
-3
390
F
  0
LAYER
  5
203
100
AcDbSymbolTableRecord
100
AcDbLayerTableRecord
  2
CURVE
 70
0
 62
7
  6
CONTINUOUS
370
-3
390
F
  0
LAYER
  5
204
100
AcDbSymbolTableRecord
100
AcDbLayerTableRecord
  2
DRAFT
 70
0
 62
7
  6
CONTINUOUS
370
-3
390
F
  0
LAYER
  5
205
100
AcDbSymbolTableRecord
100
AcDbLayerTableRecord
  2
ESTENSIONE
 70
0
 62
7
  6
CONTINUOUS
370
-3
390
F
  0
LAYER
  5
206
100
AcDbSymbolTableRecord
100
AcDbLayerTableRecord
  2
IMPORT_IGES
 70
0
 62
7
  6
CONTINUOUS
370
-3
390
F
  0
LAYER
  5
207
100
AcDbSymbolTableRecord
100
AcDbLayerTableRecord
  2
INTFCLR_1
 70
0
 62
7
  6
CONTINUOUS
370
-3
390
F
  0
LAYER
  5
208
100
AcDbSymbolTableRecord
100
AcDbLayerTableRecord
  2
INTF_1
 70
0
 62
7
  6
CONTINUOUS
370
-3
390
F
  0
LAYER
  5
209
100
AcDbSymbolTableRecord
100
AcDbLayerTableRecord
  2
INTF_11
 70
0
 62
7
  6
CONTINUOUS
370
-3
390
F
  0
LAYER
  5
20A
100
AcDbSymbolTableRecord
100
AcDbLayerTableRecord
  2
INTF_13
 70
0
 62
7
  6
CONTINUOUS
370
-3
390
F
  0
LAYER
  5
20B
100
AcDbSymbolTableRecord
100
AcDbLayerTableRecord
  2
INTF_2
 70
0
 62
7
  6
CONTINUOUS
370
-3
390
F
  0
LAYER
  5
20C
100
AcDbSymbolTableRecord
100
AcDbLayerTableRecord
  2
INTF_YELLOW
 70
0
 62
7
  6
CONTINUOUS
370
-3
390
F
  0
LAYER
  5
20D
100
AcDbSymbolTableRecord
100
AcDbLayerTableRecord
  2
NOTE
 70
0
 62
7
  6
CONTINUOUS
370
-3
390
F
  0
LAYER
  5
20E
100
AcDbSymbolTableRecord
100
AcDbLayerTableRecord
  2
PIANI
 70
0
 62
7
  6
CONTINUOUS
370
-3
390
F
  0
LAYER
  5
20F
100
AcDbSymbolTableRecord
100
AcDbLayerTableRecord
  2
PIANI_ORIGINE
 70
0
 62
7
  6
CONTINUOUS
370
-3
390
F
  0
LAYER
  5
210
100
AcDbSymbolTableRecord
100
AcDbLayerTableRecord
  2
PUNTI
 70
0
 62
7
  6
CONTINUOUS
370
-3
390
F
  0
LAYER
  5
211
100
AcDbSymbolTableRecord
100
AcDbLayerTableRecord
  2
RACCORDO
 70
0
 62
7
  6
CONTINUOUS
370
-3
390
F
  0
LAYER
  5
212
100
AcDbSymbolTableRecord
100
AcDbLayerTableRecord
  2
RGB__255__255__255__
 70
0
 62
7
  6
CONTINUOUS
370
-3
390
F
  0
LAYER
  5
213
100
AcDbSymbolTableRecord
100
AcDbLayerTableRecord
  2
RGB____0____0____0__
 70
0
 62
7
  6
CONTINUOUS
370
-3
390
F
  0
LAYER
  5
214
100
AcDbSymbolTableRecord
100
AcDbLayerTableRecord
  2
SMUSSO
 70
0
 62
7
  6
CONTINUOUS
370
-3
390
F
  0
LAYER
  5
215
100
AcDbSymbolTableRecord
100
AcDbLayerTableRecord
  2
SNAPLINE
 70
0
 62
7
  6
CONTINUOUS
370
-3
390
F
  0
LAYER
  5
216
100
AcDbSymbolTableRecord
100
AcDbLayerTableRecord
  2
SUPERFICI
 70
0
 62
7
  6
CONTINUOUS
370
-3
390
F
  0
LAYER
  5
217
100
AcDbSymbolTableRecord
100
AcDbLayerTableRecord
  2
SUP_ASS_ANCORINA
 70
0
 62
7
  6
CONTINUOUS
370
-3
390
F
  0
LAYER
  5
218
100
AcDbSymbolTableRecord
100
AcDbLayerTableRecord
  2
TRASH
 70
0
 62
7
  6
CONTINUOUS
370
-3
390
F
  0
LAYER
  5
219
100
AcDbSymbolTableRecord
100
AcDbLayerTableRecord
  2
XSEC_DATUMS
 70
0
 62
7
  6
CONTINUOUS
370
-3
390
F
  0
ENDTAB
  0
TABLE
  2
STYLE
  5
3
100
AcDbSymbolTable
 70
1
  0
STYLE
  5
11
100
AcDbSymbolTableRecord
100
AcDbTextStyleTableRecord
  2
STANDARD
 70
0
 40
0.0
 41
0.8
 50
0.0
 71
0
 42
0.2
  3
txt
  4

  0
STYLE
  5
21A
100
AcDbSymbolTableRecord
100
AcDbTextStyleTableRecord
  2
TEXTSTYLE_1
 70
0
 40
0.0
 41
0.8
 50
0.0
 71
0
 42
0.2
  3
gdt
  4

  0
ENDTAB
  0
TABLE
  2
VIEW
  5
6
100
AcDbSymbolTable
 70
0
  0
ENDTAB
  0
TABLE
  2
UCS
  5
7
100
AcDbSymbolTable
 70
0
  0
ENDTAB
  0
TABLE
  2
APPID
  5
9
100
AcDbSymbolTable
 70
1
  0
APPID
  5
21B
100
AcDbSymbolTableRecord
100
AcDbRegAppTableRecord
  2
ACAD
 70
0
  0
ENDTAB
  0
TABLE
  2
BLOCK_RECORD
  5
1
100
AcDbSymbolTable
 70
0
  0
BLOCK_RECORD
  5
21C
100
AcDbSymbolTableRecord
100
AcDbBlockTableRecord
  2
*Model_Space
  0
BLOCK_RECORD
  5
21D
100
AcDbSymbolTableRecord
100
AcDbBlockTableRecord
  2
*Paper_Space
  0
BLOCK_RECORD
  5
21E
100
AcDbSymbolTableRecord
100
AcDbBlockTableRecord
  2
_FILLED
  0
ENDTAB
  0
TABLE
  2
DIMSTYLE
  5
A
100
AcDbSymbolTable
 70
1
100
AcDbDimStyleTable
 71
0
  0
DIMSTYLE
105
21F
100
AcDbSymbolTableRecord
100
AcDbDimStyleTableRecord
  2
STANDARD
 70
0
  3

  4

 40
1.0
 41
3.0
 42
0.5
 43
0.38
 44
1.5
 45
0.0
 46
0.0
 47
0.01
 48
0.01
140
3.0
141
0.09
142
0.0
143
25.4
144
1.0
145
0.0
146
1.0
147
0.625
 71
1
 72
0
 73
0
 74
0
 75
0
 76
0
 77
1
 78
8
 79
2
170
0
171
1
172
0
173
0
174
0
175
0
176
0
177
0
178
0
270
2
179
2
271
2
272
2
273
2
274
2
275
0
280
0
281
0
282
0
283
1
284
8
285
0
286
0
287
3
288
0
340
11
278
44
341
21E
342
21E
343
21E
344
21E
  0
ENDTAB
  0
ENDSEC
  0
SECTION
  2
BLOCKS
  0
BLOCK
  5
20
100
AcDbEntity
  8
0
100
AcDbBlockBegin
  2
*Model_Space
 70
0
 10
0.0
 20
0.0
 30
0.0
  3
*Model_Space
  1

  0
ENDBLK
  5
21
100
AcDbEntity
  8
0
100
AcDbBlockEnd
  0
BLOCK
  5
1C
100
AcDbEntity
  8
0
100
AcDbBlockBegin
  2
*Paper_Space
 70
0
 10
0.0
 20
0.0
 30
0.0
  3
*Paper_Space
  1

  0
ENDBLK
  5
1D
100
AcDbEntity
  8
0
100
AcDbBlockEnd
  0
BLOCK
  5
220
100
AcDbEntity
  8
0
100
AcDbBlockBegin
  2
_FILLED
 70
64
 10
0.0
 20
0.0
  3
_FILLED
  1

  0
SOLID
  5
221
100
AcDbEntity
  8
0
  6
BYBLOCK
 62
0
100
AcDbTrace
 10
0.0
 20
0.0
 11
-1.0
 21
0.3166666667
 12
-1.0
 22
-0.3166666667
 13
-1.0
 23
-0.3166666667
  0
ENDBLK
  5
222
100
AcDbEntity
  8
0
  6
BYBLOCK
 62
0
100
AcDbBlockEnd
  0
ENDSEC
  0
SECTION
  2
ENTITIES
  0
LWPOLYLINE
  5
223
100
AcDbEntity
  8
RACCORDO
100
AcDbPolyline
 62
7
  6
CONTINUOUS
 90
10
 70
0
 10
-48.9027622202
 20
-43.5202935557
 10
-48.8811107092
 20
-43.5949043215
 10
-48.8533527777
 20
-43.6653023137
 10
-48.8196663204
 20
-43.7314775977
 10
-48.7803821407
 20
-43.7929871768
 10
-48.7360069368
 20
-43.8492663342
 10
-48.6869800378
 20
-43.9000524929
 10
-48.6336623804
 20
-43.9451798457
 10
-48.576680651
 20
-43.984278522
 10
-48.5251348337
 20
-44.0129332596
  0
LWPOLYLINE
  5
224
100
AcDbEntity
  8
RACCORDO
100
AcDbPolyline
 62
7
  6
CONTINUOUS
 90
4
 70
0
 10
-48.9283309952
 20
-43.279465749
 10
-48.9264761587
 20
-43.3616845016
 10
-48.9179638378
 20
-43.4421385662
 10
-48.9027622202
 20
-43.5202935557
  0
LWPOLYLINE
  5
225
100
AcDbEntity
  8
RACCORDO
100
AcDbPolyline
 62
250
  6
CONTINUOUS
 90
13
 70
0
 10
-48.7812919254
 20
-43.4335510236
 10
-48.7815745561
 20
-43.5059444105
 10
-48.7769735503
 20
-43.5756298542
 10
-48.7675210623
 20
-43.6421210736
 10
-48.7532841899
 20
-43.7049554172
 10
-48.7343616598
 20
-43.7636920028
 10
-48.7108849218
 20
-43.8179164227
 10
-48.6830229146
 20
-43.8672478564
 10
-48.6509708404
 20
-43.9113464459
 10
-48.614946312
 20
-43.9499106097
 10
-48.5752046574
 20
-43.9826696858
 10
-48.5320240985
 20
-44.0093958172
 10
-48.5250455914
 20
-44.0129841788
  0
LINE
  5
226
100
AcDbEntity
  8
RACCORDO
100
AcDbLine
 62
7
  6
CONTINUOUS
 10
-48.9277463897
 20
-43.2581031387
 11
-48.9283309952
 21
-43.279465749
  0
LWPOLYLINE
  5
227
100
AcDbEntity
  8
RACCORDO
100
AcDbPolyline
 62
7
  6
CONTINUOUS
 90
10
 70
0
 10
-46.3728135872
 20
-6.2139934268
 10
-46.763817967
 20
-10.2657322178
 10
-47.1391867368
 20
-14.4474318463
 10
-47.4848140721
 20
-18.6178802985
 10
-47.8006640719
 20
-22.7766702127
 10
-48.0867117477
 20
-26.9234638314
 10
-48.3429351427
 20
-31.057949957
 10
-48.5693117296
 20
-35.179792084
 10
-48.7658206447
 20
-39.2885892102
 10
-48.9277613196
 20
-43.2581342984
  0
LWPOLYLINE
  5
228
100
AcDbEntity
  8
RACCORDO
100
AcDbPolyline
 62
250
  6
CONTINUOUS
 90
10
 70
0
 10
-46.2259126888
 20
-6.383368281
 10
-46.6272918494
 20
-10.546476859
 10
-46.9993741533
 20
-14.6987995806
 10
-47.3421278597
 20
-18.8399837679
 10
-47.6555237604
 20
-22.9696776254
 10
-47.9395351927
 20
-27.0875303956
 10
-48.1941380381
 20
-31.1931923874
 10
-48.4193107131
 20
-35.2863148387
 10
-48.6150341738
 20
-39.3665499469
 10
-48.7812919254
 20
-43.4335510236
  0
LWPOLYLINE
  5
229
100
AcDbEntity
  8
0
100
AcDbPolyline
 62
250
  6
CONTINUOUS
 90
5
 70
0
 10
-40.7300357786
 20
-2.2739170693
 10
-40.7191703208
 20
-2.2528334784
 10
-40.7070789847
 20
-2.2346546798
 10
-40.6938336589
 20
-2.2196306008
 10
-40.6793624548
 20
-2.2075113139
  0
LWPOLYLINE
  5
22A
100
AcDbEntity
  8
RACCORDO
100
AcDbPolyline
 62
250
  6
CONTINUOUS
 90
16
 70
0
 10
-45.6622935124
 20
-5.3577335214
 10
-45.7192767217
 20
-5.4032833645
 10
-45.7749454134
 20
-5.4539799473
 10
-45.8289086654
 20
-5.509457423
 10
-45.8807830469
 20
-5.569322403
 10
-45.9302100924
 20
-5.633163443
 10
-45.9768582566
 20
-5.700541145
 10
-46.0204014356
 20
-5.7709891281
 10
-46.0605317835
 20
-5.8440166035
 10
-46.0969759765
 20
-5.9191174073
 10
-46.1294796639
 20
-5.9957738057
 10
-46.1578105933
 20
-6.0734486404
 10
-46.1817706763
 20
-6.1515901352
 10
-46.2011929907
 20
-6.2296504112
 10
-46.2159412922
 20
-6.3070895712
 10
-46.2259126888
 20
-6.383368281
  0
LWPOLYLINE
  5
22B
100
AcDbEntity
  8
0
100
AcDbPolyline
 62
250
  6
CONTINUOUS
 90
10
 70
0
 10
-40.402829272
 20
-2.0252160668
 10
-40.4205362197
 20
-2.0370530723
 10
-40.4375827001
 20
-2.0521589893
 10
-40.4534846385
 20
-2.0701048495
 10
-40.4677904616
 20
-2.090381038
 10
-40.4800939225
 20
-2.1124117645
 10
-40.4900456369
 20
-2.1355714146
 10
-40.4973630029
 20
-2.1592023154
 10
-40.5018382263
 20
-2.1826334123
 10
-40.5033442228
 20
-2.2051993241
  0
LWPOLYLINE
  5
22C
100
AcDbEntity
  8
0
100
AcDbPolyline
 62
250
  6
CONTINUOUS
 90
11
 70
0
 10
-40.6793624548
 20
-2.2075113139
 10
-40.6644129436
 20
-2.1977744821
 10
-40.6492661107
 20
-2.1904110425
 10
-40.6336409709
 20
-2.185430058
 10
-40.6174421398
 20
-2.1823363789
 10
-40.6008106617
 20
-2.1808619223
 10
-40.5836054924
 20
-2.1812747712
 10
-40.5653081155
 20
-2.1838840258
 10
-40.5457456922
 20
-2.1887927195
 10
-40.5250910613
 20
-2.195897819
 10
-40.5033442228
 20
-2.2051993241
  0
LWPOLYLINE
  5
22D
100
AcDbEntity
  8
0
100
AcDbPolyline
 62
7
  6
CONTINUOUS
 90
9
 70
0
 10
-40.6368426981
 20
-2.0168342616
 10
-40.65324777
 20
-2.0272018384
 10
-40.6851433706
 20
-2.0524261823
 10
-40.7135880283
 20
-2.0822794816
 10
-40.7382068838
 20
-2.1164636343
 10
-40.7586058454
 20
-2.1544684995
 10
-40.7745925985
 20
-2.1959628429
 10
-40.7860005847
 20
-2.2407064205
 10
-40.7926942535
 20
-2.2883081378
  0
LINE
  5
22E
100
AcDbEntity
  8
0
100
AcDbLine
 62
7
  6
CONTINUOUS
 10
-40.6368746792
 20
-2.0168521919
 11
-40.2493376597
 21
-1.7908822217
  0
LINE
  5
22F
100
AcDbEntity
  8
0
100
AcDbLine
 62
250
  6
CONTINUOUS
 10
-40.402829272
 20
-2.0252160668
 11
-40.0152547973
 21
-1.799224649
  0
LWPOLYLINE
  5
230
100
AcDbEntity
  8
0
100
AcDbPolyline
 62
250
  6
CONTINUOUS
 90
11
 70
0
 10
-40.6363687266
 20
-2.0165569509
 10
-40.6327943616
 20
-2.01453155
 10
-40.6111057634
 20
-2.0043326777
 10
-40.5890638446
 20
-1.9971898786
 10
-40.5660482466
 20
-1.9926841338
 10
-40.5422523241
 20
-1.9907956462
 10
-40.5177802467
 20
-1.991487556
 10
-40.4916295059
 20
-1.9949291321
 10
-40.4634808282
 20
-2.0015274785
 10
-40.433826125
 20
-2.0115353578
 10
-40.4028292984
 20
-2.0252160822
  0
LWPOLYLINE
  5
231
100
AcDbEntity
  8
RACCORDO
100
AcDbPolyline
 62
7
  6
CONTINUOUS
 90
3
 70
0
 10
-37.8835961165
 20
-4.3336667522
 10
-38.2451097034
 20
-4.532150977
 10
-38.5751713903
 20
-4.7288657761
  0
LWPOLYLINE
  5
232
100
AcDbEntity
  8
RACCORDO
100
AcDbPolyline
 62
7
  6
CONTINUOUS
 90
9
 70
0
 10
-37.728459597
 20
-4.7779096212
 10
-37.757097178
 20
-4.7935997153
 10
-37.7962996199
 20
-4.8199912462
 10
-37.8337601336
 20
-4.8516940064
 10
-37.8689563031
 20
-4.8891403746
 10
-37.900435881
 20
-4.9316962599
 10
-37.9271263525
 20
-4.9785521945
 10
-37.9484559367
 20
-5.0292653635
 10
-37.9517006827
 20
-5.0406011298
  0
LINE
  5
233
100
AcDbEntity
  8
RACCORDO
100
AcDbLine
 62
7
  6
CONTINUOUS
 10
-37.8790035144
 20
-4.3312303163
 11
-37.88359418
 21
-4.3336549407
  0
LINE
  5
234
100
AcDbEntity
  8
DRAFT
100
AcDbLine
 62
7
  6
CONTINUOUS
 10
-37.7469592837
 20
-4.2615229069
 11
-37.8805725136
 21
-4.3320586058
  0
LINE
  5
235
100
AcDbEntity
  8
0
100
AcDbLine
 62
250
  6
CONTINUOUS
 10
-37.0156636443
 20
-3.9105255299
 11
-37.0850418852
 21
-3.9468251192
  0
LINE
  5
236
100
AcDbEntity
  8
0
100
AcDbLine
 62
250
  6
CONTINUOUS
 10
-36.7003761465
 20
-3.8764426296
 11
-36.8697604349
 21
-3.9650766192
  0
LWPOLYLINE
  5
237
100
AcDbEntity
  8
RACCORDO
100
AcDbPolyline
 62
7
  6
CONTINUOUS
 90
14
 70
0
 10
-45.7114319816
 20
-5.2407230959
 10
-45.7937700542
 20
-5.2823846689
 10
-45.8744291668
 20
-5.3341072483
 10
-45.9528792242
 20
-5.3960235452
 10
-46.0255496722
 20
-5.4652532432
 10
-46.0918679037
 20
-5.5404003633
 10
-46.1525124223
 20
-5.6217095981
 10
-46.2065521563
 20
-5.7075544048
 10
-46.2538113548
 20
-5.797270226
 10
-46.2942081944
 20
-5.8905870087
 10
-46.3271091548
 20
-5.9861905572
 10
-46.3522121174
 20
-6.0834703476
 10
-46.3692074218
 20
-6.1824447936
 10
-46.3728198511
 20
-6.2141915818
  0
LWPOLYLINE
  5
238
100
AcDbEntity
  8
RACCORDO
100
AcDbPolyline
 62
250
  6
CONTINUOUS
 90
4
 70
0
 10
-45.4874944573
 20
-5.2549312965
 10
-45.5459934509
 20
-5.2833029184
 10
-45.604396685
 20
-5.3176492297
 10
-45.6622935124
 20
-5.3577335214
  0
LINE
  5
239
100
AcDbEntity
  8
RACCORDO
100
AcDbLine
 62
7
  6
CONTINUOUS
 10
-41.4798509585
 20
-3.3722448281
 11
-45.7114385116
 21
-5.2407083092
  0
LINE
  5
23A
100
AcDbEntity
  8
RACCORDO
100
AcDbLine
 62
250
  6
CONTINUOUS
 10
-41.2580626237
 20
-3.3874201594
 11
-45.4874944573
 21
-5.2549312965
  0
LINE
  5
23B
100
AcDbEntity
  8
0
100
AcDbLine
 62
7
  6
CONTINUOUS
 10
-40.7945771918
 20
-3.6191628753
 11
-40.7945771918
 21
-2.3317644768
  0
LINE
  5
23C
100
AcDbEntity
  8
0
100
AcDbLine
 62
250
  6
CONTINUOUS
 10
-40.7506432089
 20
-3.6411298667
 11
-40.7506432089
 21
-2.3847974566
  0
LINE
  5
23D
100
AcDbEntity
  8
0
100
AcDbLine
 62
7
  6
CONTINUOUS
 10
-40.7926942535
 20
-2.2883081378
 11
-40.7945771915
 21
-2.3317596988
  0
LWPOLYLINE
  5
23E
100
AcDbEntity
  8
0
100
AcDbPolyline
 62
250
  6
CONTINUOUS
 90
5
 70
0
 10
-40.7506432089
 20
-2.3847974566
 10
-40.7488552956
 20
-2.3530802931
 10
-40.7448782659
 20
-2.3240404766
 10
-40.73871212
 20
-2.2976780071
 10
-40.7300357786
 20
-2.2739170693
  0
LINE
  5
23F
100
AcDbEntity
  8
RACCORDO
100
AcDbLine
 62
7
  6
CONTINUOUS
 10
-35.3125080697
 20
-4.7437028018
 11
-34.7454480054
 21
-4.4341280449
  0
LINE
  5
240
100
AcDbEntity
  8
DRAFT
100
AcDbLine
 62
7
  6
CONTINUOUS
 10
-30.7165315
 20
-3.6146213479
 11
-35.5538616051
 21
-6.0519373842
  0
LINE
  5
241
100
AcDbEntity
  8
ASSI
100
AcDbLine
 62
7
  6
CONTINUOUS
 10
-37.3392764525
 20
-4.5833180145
 11
-37.7283633972
 21
-4.7778614868
  0
LINE
  5
242
100
AcDbEntity
  8
ASSI
100
AcDbLine
 62
7
  6
CONTINUOUS
 10
-36.9588410923
 20
-5.5111343231
 11
-36.9847376942
 21
-5.5240826241
  0
LINE
  5
243
100
AcDbEntity
  8
DRAFT
100
AcDbLine
 62
7
  6
CONTINUOUS
 10
-32.8153396785
 20
-2.0801868681
 11
-33.1667647908
 21
-2.2471451889
  0
LINE
  5
244
100
AcDbEntity
  8
DRAFT
100
AcDbLine
 62
7
  6
CONTINUOUS
 10
-33.1667647908
 20
-2.2471451889
 11
-34.3645931409
 21
-2.8158569693
  0
LWPOLYLINE
  5
245
100
AcDbEntity
  8
DRAFT
100
AcDbPolyline
 62
7
  6
CONTINUOUS
 90
3
 70
0
 10
-34.3645931409
 20
-2.8158569693
 10
-34.9952249955
 20
-3.115122578
 10
-35.6319232041
 20
-3.4172104939
  0
LINE
  5
246
100
AcDbEntity
  8
DRAFT
100
AcDbLine
 62
7
  6
CONTINUOUS
 10
-32.320373456
 20
-1.9260763693
 11
-35.1632551951
 21
-3.2725965059
  0
LINE
  5
247
100
AcDbEntity
  8
DRAFT
100
AcDbLine
 62
7
  6
CONTINUOUS
 10
-32.2054863224
 20
-1.7328146309
 11
-33.3959689728
 21
-2.2960263179
  0
LINE
  5
248
100
AcDbEntity
  8
DRAFT
100
AcDbLine
 62
7
  6
CONTINUOUS
 10
-31.8676505016
 20
-4.1140609134
 11
-30.7165315
 21
-3.570341867
  0
LINE
  5
249
100
AcDbEntity
  8
DRAFT
100
AcDbLine
 62
7
  6
CONTINUOUS
 10
-35.4274980578
 20
-3.270270562
 11
-36.0795944019
 21
-3.5778850534
  0
LINE
  5
24A
100
AcDbEntity
  8
DRAFT
100
AcDbLine
 62
7
  6
CONTINUOUS
 10
-34.4584376632
 20
-2.8132903918
 11
-35.4274980578
 21
-3.270270562
  0
LINE
  5
24B
100
AcDbEntity
  8
DRAFT
100
AcDbLine
 62
7
  6
CONTINUOUS
 10
-33.1833309569
 20
-2.2122633493
 11
-34.4584376632
 21
-2.8132903918
  0
LWPOLYLINE
  5
24C
100
AcDbEntity
  8
RACCORDO
100
AcDbPolyline
 62
250
  6
CONTINUOUS
 90
3
 70
0
 10
-37.0850418852
 20
-3.9468251192
 10
-37.5590124552
 20
-4.1680479002
 10
-37.8790035144
 20
-4.3312303163
  0
LWPOLYLINE
  5
24D
100
AcDbEntity
  8
RACCORDO
100
AcDbPolyline
 62
250
  6
CONTINUOUS
 90
4
 70
0
 10
-37.1372124793
 20
-4.1752505275
 10
-37.6085637743
 20
-4.3953092147
 10
-38.0711429636
 20
-4.6350103431
 10
-38.3939378797
 20
-4.8194825314
  0
LWPOLYLINE
  5
24E
100
AcDbEntity
  8
0
100
AcDbPolyline
 62
7
  6
CONTINUOUS
 90
3
 70
0
 10
-37.0564540751
 20
-3.9286443979
 10
-37.4859450962
 20
-4.1283945233
 10
-37.7474443087
 20
-4.2618037136
  0
LINE
  5
24F
100
AcDbEntity
  8
DRAFT
100
AcDbLine
 62
7
  6
CONTINUOUS
 10
-31.8676505016
 20
-2.1524378465
 11
-34.7454480054
 21
-3.4815001007
  0
LWPOLYLINE
  5
250
100
AcDbEntity
  8
0
100
AcDbPolyline
 62
7
  6
CONTINUOUS
 90
4
 70
0
 10
-37.0156636342
 20
-3.9105255254
 10
-37.0432880094
 20
-3.9228641201
 10
-37.0499311358
 20
-3.9257991664
 10
-37.0564540751
 20
-3.9286443979
  0
LWPOLYLINE
  5
251
100
AcDbEntity
  8
DRAFT
100
AcDbPolyline
 62
7
  6
CONTINUOUS
 90
14
 70
0
 10
-35.7609249551
 20
-3.655609852
 10
-35.7817547313
 20
-3.6645181015
 10
-35.8035778689
 20
-3.6708641225
 10
-35.8264867259
 20
-3.674743043
 10
-35.8501109142
 20
-3.6761017466
 10
-35.8744549833
 20
-3.6749036765
 10
-35.8995143837
 20
-3.6711853894
 10
-35.9249050786
 20
-3.6650034399
 10
-35.9506414247
 20
-3.6563175268
 10
-35.9767090653
 20
-3.6451679511
 10
-36.0026808939
 20
-3.6317321702
 10
-36.0284145418
 20
-3.6160693365
 10
-36.0540523778
 20
-3.5981202976
 10
-36.0795944019
 20
-3.5778850534
  0
LINE
  5
252
100
AcDbEntity
  8
DRAFT
100
AcDbLine
 62
7
  6
CONTINUOUS
 10
-36.2438185893
 20
-3.6426094016
 11
-36.290512073
 21
-3.6615960111
  0
LINE
  5
253
100
AcDbEntity
  8
DRAFT
100
AcDbLine
 62
7
  6
CONTINUOUS
 10
-36.1970236749
 20
-3.6238422311
 11
-36.2438185893
 21
-3.6426094016
  0
LINE
  5
254
100
AcDbEntity
  8
DRAFT
100
AcDbLine
 62
7
  6
CONTINUOUS
 10
-36.1501274824
 20
-3.60529456
 11
-36.1970236749
 21
-3.6238422311
  0
LWPOLYLINE
  5
255
100
AcDbEntity
  8
DRAFT
100
AcDbPolyline
 62
7
  6
CONTINUOUS
 90
7
 70
0
 10
-33.1833309569
 20
-2.2122633493
 10
-33.3314527604
 20
-2.2698256085
 10
-33.4785437713
 20
-2.3295608082
 10
-33.6246039896
 20
-2.3914689484
 10
-33.7696458639
 20
-2.4555557566
 10
-33.9136569456
 20
-2.5218155053
 10
-36.2968042391
 20
-3.6482849361
  0
LWPOLYLINE
  5
256
100
AcDbEntity
  8
DRAFT
100
AcDbPolyline
 62
7
  6
CONTINUOUS
 90
3
 70
0
 10
-36.0795944019
 20
-3.5778850534
 10
-36.1031306213
 20
-3.5869666303
 10
-36.1501274824
 20
-3.60529456
  0
LINE
  5
257
100
AcDbEntity
  8
0
100
AcDbLine
 62
7
  6
CONTINUOUS
 10
-30.7165315
 20
-2.6619934037
 11
-30.3006371076
 21
-2.5163872093
  0
LWPOLYLINE
  5
258
100
AcDbEntity
  8
DRAFT
100
AcDbPolyline
 62
7
  6
CONTINUOUS
 90
10
 70
0
 10
-32.320373456
 20
-1.9260763693
 10
-32.3758564164
 20
-1.9420516541
 10
-32.4312181621
 20
-1.9583141093
 10
-32.4864586929
 20
-1.9748637347
 10
-32.541578627
 20
-1.991700723
 10
-32.5965773463
 20
-2.0088248815
 10
-32.6514529966
 20
-2.0262356331
 10
-32.7062049596
 20
-2.0439327851
 10
-32.7608338536
 20
-2.0619165301
 10
-32.8153396785
 20
-2.0801868681
  0
LWPOLYLINE
  5
259
100
AcDbEntity
  8
DRAFT
100
AcDbPolyline
 62
7
  6
CONTINUOUS
 90
10
 70
0
 10
-35.1632551951
 20
-3.2725965059
 10
-35.215762827
 20
-3.2876398252
 10
-35.2681624975
 20
-3.3029394905
 10
-35.3204542065
 20
-3.3184955018
 10
-35.3726384752
 20
-3.3343080198
 10
-35.4247147824
 20
-3.3503768837
 10
-35.4766815652
 20
-3.3667016113
 10
-35.5285383026
 20
-3.3832820419
 10
-35.5802855155
 20
-3.4001183361
 10
-35.6319232041
 20
-3.4172104939
  0
LWPOLYLINE
  5
25A
100
AcDbEntity
  8
RACCORDO
100
AcDbPolyline
 62
7
  6
CONTINUOUS
 90
9
 70
0
 10
-18.0649746693
 20
-59.243004674
 10
-18.000841494
 20
-59.2712366819
 10
-17.9339093414
 20
-59.2929783092
 10
-17.864103328
 20
-59.3080932876
 10
-17.7921982844
 20
-59.3161965571
 10
-17.7187795912
 20
-59.3170806327
 10
-17.6445675631
 20
-59.3106190664
 10
-17.5704013759
 20
-59.296816473
 10
-17.4904793429
 20
-59.2736136148
  0
LINE
  5
25B
100
AcDbEntity
  8
RACCORDO
100
AcDbLine
 62
250
  6
CONTINUOUS
 10
-18.3258681502
 20
-58.6612629112
 11
-48.7812919254
 21
-43.4335510236
  0
LINE
  5
25C
100
AcDbEntity
  8
RACCORDO
100
AcDbLine
 62
7
  6
CONTINUOUS
 10
-48.5250455914
 20
-44.0129841788
 11
-18.0639983575
 21
-59.2435078794
  0
LWPOLYLINE
  5
25D
100
AcDbEntity
  8
RACCORDO
100
AcDbPolyline
 62
250
  6
CONTINUOUS
 90
8
 70
0
 10
-48.7812753298
 20
-43.433543658
 10
-48.8239569144
 20
-43.4093720581
 10
-48.8600148372
 20
-43.3829818046
 10
-48.8888457603
 20
-43.3548144718
 10
-48.9099672713
 20
-43.3253413687
 10
-48.9230259551
 20
-43.2950556529
 10
-48.9278033078
 20
-43.2644640793
 10
-48.9277475734
 20
-43.2581348085
  0
LWPOLYLINE
  5
25E
100
AcDbEntity
  8
0
100
AcDbPolyline
 62
250
  6
CONTINUOUS
 90
6
 70
0
 10
-40.7945771918
 20
-2.3317648034
 10
-40.7938999285
 20
-2.3388834749
 10
-40.7892362881
 20
-2.3515997119
 10
-40.7802746014
 20
-2.3637262193
 10
-40.7672814626
 20
-2.3749027918
 10
-40.7506432089
 20
-2.3847974566
  0
LWPOLYLINE
  5
25F
100
AcDbEntity
  8
RACCORDO
100
AcDbPolyline
 62
250
  6
CONTINUOUS
 90
17
 70
0
 10
-37.1528733417
 20
-5.4400148004
 10
-37.1512032096
 20
-5.4018795382
 10
-37.1531388391
 20
-5.355635472
 10
-37.1589292681
 20
-5.307959945
 10
-37.1685106626
 20
-5.2593772565
 10
-37.181777322
 20
-5.2104210878
 10
-37.1985836571
 20
-5.1616270434
 10
-37.2187458004
 20
-5.1135284551
 10
-37.2420436202
 20
-5.0666509036
 10
-37.2682210922
 20
-5.0215099124
 10
-37.2969890507
 20
-4.9786033679
 10
-37.3280317614
 20
-4.9384008399
 10
-37.3610085012
 20
-4.9013423489
 10
-37.3955546372
 20
-4.8678358066
 10
-37.431290126
 20
-4.8382472067
 10
-37.4678241691
 20
-4.812897601
 10
-37.5047565994
 20
-4.7920623804
  0
LINE
  5
260
100
AcDbEntity
  8
RACCORDO
100
AcDbLine
 62
7
  6
CONTINUOUS
 10
-35.4477947974
 20
-4.9608845587
 11
-35.5538616051
 21
-6.0519373842
  0
LWPOLYLINE
  5
261
100
AcDbEntity
  8
DRAFT
100
AcDbPolyline
 62
7
  6
CONTINUOUS
 90
12
 70
0
 10
-35.6319232041
 20
-3.4172104939
 10
-35.6348986405
 20
-3.4477283317
 10
-35.6397071256
 20
-3.4766468779
 10
-35.6463486596
 20
-3.5039661325
 10
-35.6548796078
 20
-3.5298181691
 10
-35.6652436047
 20
-3.5540709142
 10
-35.6772715543
 20
-3.5763281471
 10
-35.6909918814
 20
-3.5965561368
 10
-35.7063761611
 20
-3.6147886143
 10
-35.723170023
 20
-3.6307305523
 10
-35.7413966312
 20
-3.6443424619
 10
-35.7609249551
 20
-3.655609852
  0
LWPOLYLINE
  5
262
100
AcDbEntity
  8
RACCORDO
100
AcDbPolyline
 62
250
  6
CONTINUOUS
 90
10
 70
0
 10
-37.002726236
 20
-4.1834188394
 10
-36.9983774603
 20
-4.1549348643
 10
-36.9907616171
 20
-4.1259560685
 10
-36.9800615528
 20
-4.0971784949
 10
-36.9665341978
 20
-4.06929337
 10
-36.9505044163
 20
-4.0429705375
 10
-36.9323572171
 20
-4.0188423595
 10
-36.9125284786
 20
-3.9974884731
 10
-36.8914944697
 20
-3.9794218734
 10
-36.8697604367
 20
-3.9650766183
  0
LINE
  5
263
100
AcDbEntity
  8
0
100
AcDbLine
 62
7
  6
CONTINUOUS
 10
-26.041257068
 20
-4.6460772291
 11
-26.3324694567
 21
-4.8540244254
  0
LINE
  5
264
100
AcDbEntity
  8
DRAFT
100
AcDbLine
 62
7
  6
CONTINUOUS
 10
-25.4224271047
 20
-5.1243442398
 11
-26.2230086176
 21
-5.6856301403
  0
LWPOLYLINE
  5
265
100
AcDbEntity
  8
RACCORDO
100
AcDbPolyline
 62
250
  6
CONTINUOUS
 90
10
 70
0
 10
-29.213500074
 20
-7.7932067997
 10
-29.2352353138
 20
-7.8075529142
 10
-29.2562701488
 20
-7.8256205032
 10
-29.276099309
 20
-7.8469753127
 10
-29.2942465577
 20
-7.8711041978
 10
-29.3102760603
 20
-7.8974273746
 10
-29.3238028746
 20
-7.9253123324
 10
-29.3345022711
 20
-7.9540891706
 10
-29.3421174953
 20
-7.9830667149
 10
-29.346465875
 20
-8.0115490199
  0
LINE
  5
266
100
AcDbEntity
  8
0
100
AcDbLine
 62
250
  6
CONTINUOUS
 10
-28.9991176557
 20
-7.989787234
 11
-28.9351892978
 21
-7.9507627032
  0
LINE
  5
267
100
AcDbEntity
  8
0
100
AcDbLine
 62
250
  6
CONTINUOUS
 10
-29.2135000741
 20
-7.7932067996
 11
-29.0571403517
 21
-7.698060527
  0
LINE
  5
268
100
AcDbEntity
  8
RACCORDO
100
AcDbLine
 62
7
  6
CONTINUOUS
 10
-30.7707524393
 20
-7.014580617
 11
-30.2231489006
 21
-6.6952775973
  0
LWPOLYLINE
  5
269
100
AcDbEntity
  8
DRAFT
100
AcDbPolyline
 62
7
  6
CONTINUOUS
 90
10
 70
0
 10
-26.1284116996
 20
-5.739722978
 10
-26.4289845381
 20
-5.8973058101
 10
-26.7311074301
 20
-6.0552869039
 10
-27.0347834306
 20
-6.2136776488
 10
-27.3400365525
 20
-6.3724909471
 10
-27.6468475039
 20
-6.531737422
 10
-27.9551541614
 20
-6.6914220974
 10
-28.2649371699
 20
-6.8515510059
 10
-28.5762195022
 20
-7.0121344669
 10
-28.8890025041
 20
-7.1731810023
  0
LINE
  5
26A
100
AcDbEntity
  8
DRAFT
100
AcDbLine
 62
7
  6
CONTINUOUS
 10
-27.4440921549
 20
-4.3642170198
 11
-30.2231489006
 21
-5.7426496532
  0
LINE
  5
26B
100
AcDbEntity
  8
DRAFT
100
AcDbLine
 62
7
  6
CONTINUOUS
 10
-26.9913692005
 20
-4.5905784971
 11
-29.8053417109
 21
-5.951553248
  0
LWPOLYLINE
  5
26C
100
AcDbEntity
  8
DRAFT
100
AcDbPolyline
 62
7
  6
CONTINUOUS
 90
10
 70
0
 10
-26.4964029781
 20
-5.2396552183
 10
-26.8072698311
 20
-5.3832493906
 10
-27.1193023529
 20
-5.5277641697
 10
-27.4325094186
 20
-5.6732030359
 10
-27.746907562
 20
-5.8195890549
 10
-28.0624985127
 20
-5.9669042834
 10
-28.3792666684
 20
-6.1150905275
 10
-28.6972102322
 20
-6.2641299596
 10
-29.01634371
 20
-6.4140444049
 10
-29.3366737019
 20
-6.564835245
  0
LINE
  5
26D
100
AcDbEntity
  8
0
100
AcDbLine
 62
7
  6
CONTINUOUS
 10
-9.3045961878
 20
-56.290485554
 11
-9.26632786
 21
-56.2825636388
  0
LWPOLYLINE
  5
26E
100
AcDbEntity
  8
0
100
AcDbPolyline
 62
250
  6
CONTINUOUS
 90
5
 70
0
 10
-9.4738377473
 20
-56.1949703504
 10
-9.4905901422
 20
-56.1919168139
 10
-9.5081219099
 20
-56.1870497663
 10
-9.5263583959
 20
-56.1804343092
 10
-9.5452996002
 20
-56.1720704428
  0
LINE
  5
26F
100
AcDbEntity
  8
DRAFT
100
AcDbLine
 62
7
  6
CONTINUOUS
 10
-34.7454480054
 20
-3.4815001007
 11
-34.7454480054
 21
-4.4341280449
  0
LWPOLYLINE
  5
270
100
AcDbEntity
  8
0
100
AcDbPolyline
 62
250
  6
CONTINUOUS
 90
10
 70
0
 10
-25.3546872262
 20
-9.5492870898
 10
-25.3723957837
 20
-9.5611253451
 10
-25.389443362
 20
-9.5762327314
 10
-25.4053458423
 20
-9.5941799872
 10
-25.4196517157
 20
-9.6144573073
 10
-25.4319547704
 20
-9.6364886562
 10
-25.441905683
 20
-9.6596480915
 10
-25.4492220873
 20
-9.6832778304
 10
-25.4536965133
 20
-9.7067069728
 10
-25.4552021769
 20
-9.7292703471
  0
LWPOLYLINE
  5
271
100
AcDbEntity
  8
RACCORDO
100
AcDbPolyline
 62
7
  6
CONTINUOUS
 90
9
 70
0
 10
-29.9502850039
 20
-8.6669969177
 10
-29.978922585
 20
-8.6826870118
 10
-30.0181250268
 20
-8.7090785427
 10
-30.0555855405
 20
-8.7407813029
 10
-30.0907817101
 20
-8.7782276711
 10
-30.122261288
 20
-8.8207835564
 10
-30.1489517594
 20
-8.867639491
 10
-30.1702813436
 20
-8.91835266
 10
-30.1735260897
 20
-8.9296884264
  0
LINE
  5
272
100
AcDbEntity
  8
DRAFT
100
AcDbLine
 62
7
  6
CONTINUOUS
 10
-21.6562203415
 20
-7.3398870828
 11
-24.1791237217
 21
-8.6736028515
  0
LINE
  5
273
100
AcDbEntity
  8
DRAFT
100
AcDbLine
 62
7
  6
CONTINUOUS
 10
-21.8948855231
 20
-6.9666167077
 11
-24.4352770871
 21
-8.2573344067
  0
LINE
  5
274
100
AcDbEntity
  8
DRAFT
100
AcDbLine
 62
7
  6
CONTINUOUS
 10
-22.6337971113
 20
-6.5186592364
 11
-24.8327601144
 21
-7.631506107
  0
LINE
  5
275
100
AcDbEntity
  8
ASSI
100
AcDbLine
 62
7
  6
CONTINUOUS
 10
-29.5611018594
 20
-8.472405311
 11
-29.9501888041
 21
-8.6669487834
  0
LINE
  5
276
100
AcDbEntity
  8
ASSI
100
AcDbLine
 62
7
  6
CONTINUOUS
 10
-29.1806664992
 20
-9.4002216197
 11
-29.2065631012
 21
-9.4131699206
  0
LWPOLYLINE
  5
277
100
AcDbEntity
  8
RACCORDO
100
AcDbPolyline
 62
250
  6
CONTINUOUS
 90
10
 70
0
 10
-28.999117858
 20
-7.9897874615
 10
-29.0245110799
 20
-8.0007031829
 10
-29.0514161674
 20
-8.0137797214
 10
-29.0791301852
 20
-8.0286754328
 10
-29.1069290632
 20
-8.0450011443
 10
-29.1340865144
 20
-8.0623303226
 10
-29.1598930101
 20
-8.0802102174
 10
-29.1836743172
 20
-8.0981736899
 10
-29.2048091136
 20
-8.1157514177
 10
-29.2227452214
 20
-8.1324841564
  0
LWPOLYLINE
  5
278
100
AcDbEntity
  8
0
100
AcDbPolyline
 62
7
  6
CONTINUOUS
 90
6
 70
0
 10
-9.5062709123
 20
-56.2532238431
 10
-9.4686682498
 20
-56.2697608716
 10
-9.4272017104
 20
-56.2829011812
 10
-9.385697171
 20
-56.2907695961
 10
-9.3445894106
 20
-56.2932891363
 10
-9.3045961878
 20
-56.290485554
  0
LINE
  5
279
100
AcDbEntity
  8
0
100
AcDbLine
 62
7
  6
CONTINUOUS
 10
-9.5062709123
 20
-56.2532238431
 11
-12.7528529669
 21
-54.6299328406
  0
LINE
  5
27A
100
AcDbEntity
  8
0
100
AcDbLine
 62
250
  6
CONTINUOUS
 10
-9.5452996002
 20
-56.1720704428
 11
-12.7487433928
 21
-54.5703485465
  0
LWPOLYLINE
  5
27B
100
AcDbEntity
  8
0
100
AcDbPolyline
 62
250
  6
CONTINUOUS
 90
7
 70
0
 10
-9.5063156223
 20
-56.2532015129
 10
-9.5097458327
 20
-56.2513349625
 10
-9.5220492956
 20
-56.2416076994
 10
-9.5320010119
 20
-56.2283997658
 10
-9.5393183791
 20
-56.2120862318
 10
-9.5437936033
 20
-56.1931303586
 10
-9.5452996002
 20
-56.1720704428
  0
LINE
  5
27C
100
AcDbEntity
  8
DRAFT
100
AcDbLine
 62
7
  6
CONTINUOUS
 10
-31.8676505016
 20
-2.1524378465
 11
-31.8676505016
 21
-4.1140609134
  0
LINE
  5
27D
100
AcDbEntity
  8
DRAFT
100
AcDbLine
 62
7
  6
CONTINUOUS
 10
-30.7165315
 20
-3.6146213479
 11
-30.7165315
 21
-2.6619934037
  0
LINE
  5
27E
100
AcDbEntity
  8
RACCORDO
100
AcDbLine
 62
7
  6
CONTINUOUS
 10
-30.9013973136
 20
-7.2340833006
 11
-31.0038248392
 21
-8.3269557672
  0
LWPOLYLINE
  5
27F
100
AcDbEntity
  8
0
100
AcDbPolyline
 62
7
  6
CONTINUOUS
 90
3
 70
0
 10
-24.8320621592
 20
-10.0775949886
 10
-24.8615135809
 20
-10.1413832245
 10
-24.8792643922
 20
-10.2137779379
  0
LWPOLYLINE
  5
280
100
AcDbEntity
  8
0
100
AcDbPolyline
 62
250
  6
CONTINUOUS
 90
7
 70
0
 10
-24.8146480437
 20
-10.2171803712
 10
-24.8220821434
 20
-10.233253536
 10
-24.8283579822
 20
-10.2506455764
 10
-24.8333720968
 20
-10.2699334244
 10
-24.8370899995
 20
-10.2913093904
 10
-24.839546178
 20
-10.3145811639
 10
-24.8407406322
 20
-10.3397487449
  0
LWPOLYLINE
  5
281
100
AcDbEntity
  8
0
100
AcDbPolyline
 62
7
  6
CONTINUOUS
 90
4
 70
0
 10
-24.7281214421
 20
-9.9724858303
 10
-24.7431338604
 20
-9.9820121389
 10
-24.7921996967
 20
-10.0241588347
 10
-24.8320621592
 20
-10.0775949886
  0
LINE
  5
282
100
AcDbEntity
  8
0
100
AcDbLine
 62
7
  6
CONTINUOUS
 10
-24.7267380491
 20
-9.9716666135
 11
-24.3398112636
 21
-9.7460528577
  0
LINE
  5
283
100
AcDbEntity
  8
0
100
AcDbLine
 62
250
  6
CONTINUOUS
 10
-24.4929266953
 20
-9.9801673552
 11
-24.1053522206
 21
-9.7541759373
  0
LINE
  5
284
100
AcDbEntity
  8
0
100
AcDbLine
 62
250
  6
CONTINUOUS
 10
-24.9533421087
 20
-9.3301809933
 11
-25.3546872262
 21
-9.5492870898
  0
LINE
  5
285
100
AcDbEntity
  8
0
100
AcDbLine
 62
250
  6
CONTINUOUS
 10
-24.8183405176
 20
-10.0592009481
 11
-24.997638418
 21
-10.1570849421
  0
LWPOLYLINE
  5
286
100
AcDbEntity
  8
0
100
AcDbPolyline
 62
250
  6
CONTINUOUS
 90
10
 70
0
 10
-24.997638418
 20
-10.1570849421
 10
-25.0177172398
 20
-10.1652308231
 10
-25.0402956602
 20
-10.1715315303
 10
-25.064702768
 20
-10.1757998398
 10
-25.0902133133
 20
-10.1779089209
 10
-25.1160692577
 20
-10.1777961024
 10
-25.1415022999
 20
-10.1754647349
 10
-25.1657567046
 20
-10.1709840939
 10
-25.1881117595
 20
-10.1644873209
 10
-25.2079031907
 20
-10.1561674656
  0
LWPOLYLINE
  5
287
100
AcDbEntity
  8
RACCORDO
100
AcDbPolyline
 62
250
  6
CONTINUOUS
 90
10
 70
0
 10
-10.0963815147
 20
-51.3830301552
 10
-10.0634203585
 20
-51.3964407161
 10
-10.0262242129
 20
-51.4060612598
 10
-9.985898535
 20
-51.4116058668
 10
-9.9436417904
 20
-51.4129097535
 10
-9.9007098357
 20
-51.4099341686
 10
-9.8583785941
 20
-51.4027675453
 10
-9.8179061363
 20
-51.3916228732
 10
-9.7804952901
 20
-51.3768313683
 10
-9.7472578935
 20
-51.3588326291
  0
LINE
  5
288
100
AcDbEntity
  8
DRAFT
100
AcDbLine
 62
7
  6
CONTINUOUS
 10
-30.2231489006
 20
-5.7426496532
 11
-30.2231489006
 21
-6.6952775973
  0
LWPOLYLINE
  5
289
100
AcDbEntity
  8
RACCORDO
100
AcDbPolyline
 62
250
  6
CONTINUOUS
 90
17
 70
0
 10
-29.3746987487
 20
-9.3291020969
 10
-29.3730286165
 20
-9.2909668347
 10
-29.374964246
 20
-9.2447227685
 10
-29.3807546751
 20
-9.1970472416
 10
-29.3903360696
 20
-9.148464553
 10
-29.403602729
 20
-9.0995083844
 10
-29.4204090641
 20
-9.0507143399
 10
-29.4405712074
 20
-9.0026157517
 10
-29.4638690271
 20
-8.9557382001
 10
-29.4900464991
 20
-8.9105972089
 10
-29.5188144576
 20
-8.8676906644
 10
-29.5498571684
 20
-8.8274881364
 10
-29.5828339081
 20
-8.7904296455
 10
-29.6173800442
 20
-8.7569231031
 10
-29.653115533
 20
-8.7273345032
 10
-29.689649576
 20
-8.7019848975
 10
-29.7265820064
 20
-8.681149677
  0
LWPOLYLINE
  5
28A
100
AcDbEntity
  8
SUPERFICI
100
AcDbPolyline
 62
7
  6
CONTINUOUS
 90
4
 70
0
 10
-19.7800289135
 20
-11.5502037765
 10
-19.8023699823
 20
-11.5758503538
 10
-19.8276640841
 20
-11.596726265
 10
-19.8508498213
 20
-11.6102609267
  0
LINE
  5
28B
100
AcDbEntity
  8
RACCORDO
100
AcDbLine
 62
250
  6
CONTINUOUS
 10
-20.9709604853
 20
-11.91446338
 11
-20.9437937026
 21
-11.8965324117
  0
LINE
  5
28C
100
AcDbEntity
  8
RACCORDO
100
AcDbLine
 62
250
  6
CONTINUOUS
 10
-22.1493802886
 20
-12.6170229756
 11
-22.4532056395
 21
-12.7898486515
  0
LWPOLYLINE
  5
28D
100
AcDbEntity
  8
RACCORDO
100
AcDbPolyline
 62
7
  6
CONTINUOUS
 90
3
 70
0
 10
-21.7666687982
 20
-12.1649291596
 10
-22.24274417
 20
-12.4183538692
 10
-22.6813500865
 20
-12.675776428
  0
LINE
  5
28E
100
AcDbEntity
  8
SUPERFICI
100
AcDbLine
 62
7
  6
CONTINUOUS
 10
-18.8236273057
 20
-12.3084358544
 11
-18.9078482542
 21
-12.3529279205
  0
LINE
  5
28F
100
AcDbEntity
  8
DRAFT
100
AcDbLine
 62
7
  6
CONTINUOUS
 10
-21.8301980576
 20
-12.7310632906
 11
-21.4412346374
 21
-12.52572579
  0
LWPOLYLINE
  5
290
100
AcDbEntity
  8
RACCORDO
100
AcDbPolyline
 62
7
  6
CONTINUOUS
 90
4
 70
0
 10
-21.7148409573
 20
-12.1388454073
 10
-22.0884899779
 20
-12.3335279249
 10
-22.5431497643
 20
-12.5921650578
 10
-22.679050608
 20
-12.6769261672
  0
LINE
  5
291
100
AcDbEntity
  8
RACCORDO
100
AcDbLine
 62
250
  6
CONTINUOUS
 10
-21.6903024612
 20
-12.3801186211
 11
-22.1493802886
 21
-12.6170229756
  0
LINE
  5
292
100
AcDbEntity
  8
RACCORDO
100
AcDbLine
 62
7
  6
CONTINUOUS
 10
-21.7133087626
 20
-12.1380792016
 11
-21.7666687982
 21
-12.1649291596
  0
LINE
  5
293
100
AcDbEntity
  8
ASSI
100
AcDbLine
 62
7
  6
CONTINUOUS
 10
-21.7149009108
 20
-12.1388752748
 11
-21.6364000088
 21
-12.0996248238
  0
LINE
  5
294
100
AcDbEntity
  8
0
100
AcDbLine
 62
7
  6
CONTINUOUS
 10
-21.6369025772
 20
-12.0999119381
 11
-21.5882027937
 21
-12.0757177651
  0
LINE
  5
295
100
AcDbEntity
  8
SUPERFICI
100
AcDbLine
 62
7
  6
CONTINUOUS
 10
-16.1501318076
 20
-10.0111971935
 11
-17.6091365991
 21
-10.734874326
  0
LINE
  5
296
100
AcDbEntity
  8
0
100
AcDbLine
 62
250
  6
CONTINUOUS
 10
-21.1205586102
 20
-11.8587014022
 11
-21.1545009375
 21
-11.875527372
  0
LINE
  5
297
100
AcDbEntity
  8
0
100
AcDbLine
 62
250
  6
CONTINUOUS
 10
-20.8013912951
 20
-11.8259350553
 11
-20.9437937026
 21
-11.8965324117
  0
LINE
  5
298
100
AcDbEntity
  8
RACCORDO
100
AcDbLine
 62
7
  6
CONTINUOUS
 10
-21.6254977827
 20
-12.094598081
 11
-21.7133087626
 21
-12.1380792016
  0
LINE
  5
299
100
AcDbEntity
  8
0
100
AcDbLine
 62
7
  6
CONTINUOUS
 10
-7.7938360353
 20
-7.6448468043
 11
-11.7297255369
 21
-9.528639863
  0
LINE
  5
29A
100
AcDbEntity
  8
SUPERFICI
100
AcDbLine
 62
7
  6
CONTINUOUS
 10
-16.8925939363
 20
-9.9260050237
 11
-18.4558836433
 21
-10.6670488106
  0
LINE
  5
29B
100
AcDbEntity
  8
SUPERFICI
100
AcDbLine
 62
7
  6
CONTINUOUS
 10
-18.4558836433
 20
-10.6670488106
 11
-19.4065719092
 21
-11.1175170139
  0
LINE
  5
29C
100
AcDbEntity
  8
SUPERFICI
100
AcDbLine
 62
250
  6
CONTINUOUS
 10
-16.7208568078
 20
-9.8705236174
 11
-19.5637199659
 21
-11.2166788904
  0
LINE
  5
29D
100
AcDbEntity
  8
SUPERFICI
100
AcDbLine
 62
250
  6
CONTINUOUS
 10
-16.3295891977
 20
-9.9214684985
 11
-19.172912519
 21
-11.2677678439
  0
LWPOLYLINE
  5
29E
100
AcDbEntity
  8
SUPERFICI
100
AcDbPolyline
 62
7
  6
CONTINUOUS
 90
8
 70
0
 10
-19.8508498213
 20
-11.6102609267
 10
-19.8562280258
 20
-11.6128071174
 10
-19.8877450005
 20
-11.6241173036
 10
-19.9207851952
 20
-11.6301433227
 10
-19.9551390339
 20
-11.6306706132
 10
-19.9910160927
 20
-11.6259137366
 10
-20.0276152864
 20
-11.6160028751
 10
-20.0651950003
 20
-11.6007190079
  0
LINE
  5
29F
100
AcDbEntity
  8
RACCORDO
100
AcDbLine
 62
7
  6
CONTINUOUS
 10
-15.9234358052
 20
-9.4145592548
 11
-17.3669274225
 21
-10.0962635127
  0
LINE
  5
2A0
100
AcDbEntity
  8
RACCORDO
100
AcDbLine
 62
250
  6
CONTINUOUS
 10
-15.6913230672
 20
-9.4242010634
 11
-16.5987029656
 21
-9.8527277107
  0
LINE
  5
2A1
100
AcDbEntity
  8
SUPERFICI
100
AcDbLine
 62
7
  6
CONTINUOUS
 10
-18.6379202296
 20
-10.6961735188
 11
-20.2465869425
 21
-11.4556495963
  0
LINE
  5
2A2
100
AcDbEntity
  8
SUPERFICI
100
AcDbLine
 62
7
  6
CONTINUOUS
 10
-17.3665104953
 20
-10.0960993579
 11
-18.6379202296
 21
-10.6961735188
  0
LINE
  5
2A3
100
AcDbEntity
  8
RACCORDO
100
AcDbLine
 62
7
  6
CONTINUOUS
 10
-12.8995220933
 20
-8.7355712892
 11
-14.9242616929
 21
-9.6878318656
  0
LINE
  5
2A4
100
AcDbEntity
  8
RACCORDO
100
AcDbLine
 62
250
  6
CONTINUOUS
 10
-14.8011867164
 20
-9.7493693539
 11
-13.060011439
 21
-8.930392113
  0
LINE
  5
2A5
100
AcDbEntity
  8
RACCORDO
100
AcDbLine
 62
250
  6
CONTINUOUS
 10
-13.060011439
 20
-8.930392113
 11
-11.9092131369
 21
-8.389467752
  0
LINE
  5
2A6
100
AcDbEntity
  8
RACCORDO
100
AcDbLine
 62
7
  6
CONTINUOUS
 10
-11.5843889866
 20
-8.1175439633
 11
-12.8995220933
 21
-8.7355712892
  0
LINE
  5
2A7
100
AcDbEntity
  8
RACCORDO
100
AcDbLine
 62
250
  6
CONTINUOUS
 10
-11.9092131369
 20
-8.389467752
 11
-10.1773507821
 21
-7.575984523
  0
LINE
  5
2A8
100
AcDbEntity
  8
RACCORDO
100
AcDbLine
 62
7
  6
CONTINUOUS
 10
-9.237594991
 20
-7.0156537969
 11
-9.5618004467
 21
-7.1678077577
  0
LWPOLYLINE
  5
2A9
100
AcDbEntity
  8
RACCORDO
100
AcDbPolyline
 62
7
  6
CONTINUOUS
 90
3
 70
0
 10
-9.5618004467
 20
-7.1678077577
 10
-10.2426498042
 20
-7.4874118336
 10
-11.5843889866
 20
-8.1175439633
  0
LINE
  5
2AA
100
AcDbEntity
  8
RACCORDO
100
AcDbLine
 62
250
  6
CONTINUOUS
 10
-10.1773507821
 20
-7.575984523
 11
-9.0190112485
 21
-7.0322591977
  0
LINE
  5
2AB
100
AcDbEntity
  8
SUPERFICI
100
AcDbLine
 62
7
  6
CONTINUOUS
 10
-17.078349519
 20
-10.6555355665
 11
-17.444249266
 21
-10.8261390835
  0
LINE
  5
2AC
100
AcDbEntity
  8
0
100
AcDbLine
 62
7
  6
CONTINUOUS
 10
-21.5882027937
 20
-12.0757177651
 11
-21.1607569122
 21
-11.8764929794
  0
LINE
  5
2AD
100
AcDbEntity
  8
RACCORDO
100
AcDbLine
 62
7
  6
CONTINUOUS
 10
-21.1545009375
 20
-11.875527372
 11
-21.6254977827
 21
-12.094598081
  0
LINE
  5
2AE
100
AcDbEntity
  8
RACCORDO
100
AcDbLine
 62
250
  6
CONTINUOUS
 10
-21.2227067569
 20
-12.1626029688
 11
-21.6903024612
 21
-12.3801186211
  0
LWPOLYLINE
  5
2AF
100
AcDbEntity
  8
0
100
AcDbPolyline
 62
7
  6
CONTINUOUS
 90
3
 70
0
 10
-21.1205586102
 20
-11.8587014022
 10
-21.1544010083
 20
-11.8736983211
 10
-21.1607569122
 20
-11.8764929794
  0
LINE
  5
2B0
100
AcDbEntity
  8
RACCORDO
100
AcDbLine
 62
7
  6
CONTINUOUS
 10
-15.8711265626
 20
-9.3913505042
 11
-15.9118724358
 21
-9.4085246849
  0
LINE
  5
2B1
100
AcDbEntity
  8
SUPERFICI
100
AcDbLine
 62
7
  6
CONTINUOUS
 10
-20.2465869425
 20
-11.4556495963
 11
-20.4949512793
 21
-11.559376408
  0
LINE
  5
2B2
100
AcDbEntity
  8
SUPERFICI
100
AcDbLine
 62
7
  6
CONTINUOUS
 10
-16.1501318076
 20
-10.9642148583
 11
-16.319685652
 21
-11.0348675
  0
LWPOLYLINE
  5
2B3
100
AcDbEntity
  8
RACCORDO
100
AcDbPolyline
 62
250
  6
CONTINUOUS
 90
8
 70
0
 10
-14.4268001756
 20
-9.4537995883
 10
-14.4065649725
 20
-9.4456632023
 10
-14.3763962573
 20
-9.4381120931
 10
-14.3446088648
 20
-9.4352255974
 10
-14.3115195421
 20
-9.4370324778
 10
-14.2774580092
 20
-9.4435147296
 10
-14.2427636742
 20
-9.4546077601
 10
-14.2077822503
 20
-9.4702010322
  0
LINE
  5
2B4
100
AcDbEntity
  8
RACCORDO
100
AcDbLine
 62
7
  6
CONTINUOUS
 10
-9.1785889054
 20
-6.9924078616
 11
-9.2375949894
 21
-7.0156537962
  0
LWPOLYLINE
  5
2B5
100
AcDbEntity
  8
RACCORDO
100
AcDbPolyline
 62
250
  6
CONTINUOUS
 90
3
 70
0
 10
-9.0190112485
 20
-7.0322591977
 10
-8.9590783803
 20
-7.0098625705
 10
-8.9008483084
 20
-7.0007705026
  0
LINE
  5
2B6
100
AcDbEntity
  8
SUPERFICI
100
AcDbLine
 62
7
  6
CONTINUOUS
 10
-14.3452234437
 20
-10.459095449
 11
-14.8066289233
 21
-10.6169446921
  0
LINE
  5
2B7
100
AcDbEntity
  8
SUPERFICI
100
AcDbLine
 62
7
  6
CONTINUOUS
 10
-16.8354823556
 20
-9.9071991228
 11
-16.8925939363
 21
-9.9260050237
  0
LINE
  5
2B8
100
AcDbEntity
  8
SUPERFICI
100
AcDbLine
 62
7
  6
CONTINUOUS
 10
-19.6717353513
 20
-11.2510492893
 11
-19.7255654019
 21
-11.2686487195
  0
LINE
  5
2B9
100
AcDbEntity
  8
SUPERFICI
100
AcDbLine
 62
7
  6
CONTINUOUS
 10
-16.7782366461
 20
-9.8887053208
 11
-16.8354823556
 21
-9.9071991228
  0
LINE
  5
2BA
100
AcDbEntity
  8
SUPERFICI
100
AcDbLine
 62
7
  6
CONTINUOUS
 10
-19.6177868726
 20
-11.2337260129
 11
-19.6717353513
 21
-11.2510492893
  0
LINE
  5
2BB
100
AcDbEntity
  8
SUPERFICI
100
AcDbLine
 62
7
  6
CONTINUOUS
 10
-16.7208568078
 20
-9.8705236174
 11
-16.7782366461
 21
-9.8887053208
  0
LINE
  5
2BC
100
AcDbEntity
  8
SUPERFICI
100
AcDbLine
 62
7
  6
CONTINUOUS
 10
-19.5637199659
 20
-11.2166788904
 11
-19.6177868726
 21
-11.2337260129
  0
LWPOLYLINE
  5
2BD
100
AcDbEntity
  8
RACCORDO
100
AcDbPolyline
 62
250
  6
CONTINUOUS
 90
10
 70
0
 10
-37.1372124793
 20
-4.1752505275
 10
-37.1470814629
 20
-4.1446152427
 10
-37.1530252979
 20
-4.1134981996
 10
-37.1548886927
 20
-4.0827123773
 10
-37.1526229633
 20
-4.0530621009
 10
-37.1462873054
 20
-4.025322028
 10
-37.1360472474
 20
-4.000216909
 10
-37.1221703261
 20
-3.9784026526
 10
-37.1050190964
 20
-3.9604491884
 10
-37.0850416599
 20
-3.9468255774
  0
LINE
  5
2BE
100
AcDbEntity
  8
DRAFT
100
AcDbLine
 62
7
  6
CONTINUOUS
 10
-26.3324694567
 20
-5.5807582383
 11
-26.3324694567
 21
-4.8540244254
  0
LINE
  5
2BF
100
AcDbEntity
  8
0
100
AcDbLine
 62
250
  6
CONTINUOUS
 10
-25.2079031907
 20
-10.1561674656
 11
-25.2079031907
 21
-11.4124998758
  0
LINE
  5
2C0
100
AcDbEntity
  8
0
100
AcDbLine
 62
250
  6
CONTINUOUS
 10
-24.997638418
 20
-10.1570849421
 11
-24.997638418
 21
-11.5176322622
  0
LINE
  5
2C1
100
AcDbEntity
  8
0
100
AcDbLine
 62
7
  6
CONTINUOUS
 10
-24.8846746151
 20
-10.2867157363
 11
-24.8846746151
 21
-11.5741141637
  0
LINE
  5
2C2
100
AcDbEntity
  8
0
100
AcDbLine
 62
250
  6
CONTINUOUS
 10
-24.8407406322
 20
-10.3397487449
 11
-24.8407406322
 21
-11.5960811551
  0
LWPOLYLINE
  5
2C3
100
AcDbEntity
  8
0
100
AcDbPolyline
 62
250
  6
CONTINUOUS
 90
10
 70
0
 10
-24.5934416461
 20
-10.1601506125
 10
-24.5919356571
 20
-10.1375847584
 10
-24.5874604514
 20
-10.1141537062
 10
-24.5801431067
 20
-10.0905228321
 10
-24.5701914093
 20
-10.0673631875
 10
-24.5578879562
 20
-10.0453324475
 10
-24.5435821313
 20
-10.0250562335
 10
-24.5276801812
 20
-10.0071103413
 10
-24.5106336772
 20
-9.9920043902
 10
-24.4929266953
 20
-9.9801673552
  0
LINE
  5
2C4
100
AcDbEntity
  8
0
100
AcDbLine
 62
7
  6
CONTINUOUS
 10
-24.8792643922
 20
-10.2137779379
 11
-24.8846745455
 21
-10.2866435093
  0
LWPOLYLINE
  5
2C5
100
AcDbEntity
  8
RACCORDO
100
AcDbPolyline
 62
7
  6
CONTINUOUS
 90
6
 70
0
 10
-22.0456585242
 20
-12.9936222091
 10
-22.037292001
 20
-12.9641829028
 10
-21.9950559664
 20
-12.8819661979
 10
-21.937631497
 20
-12.810718209
 10
-21.8664972297
 20
-12.7525129294
 10
-21.8317327817
 20
-12.7318824848
  0
LWPOLYLINE
  5
2C6
100
AcDbEntity
  8
0
100
AcDbPolyline
 62
7
  6
CONTINUOUS
 90
3
 70
0
 10
-11.6000605775
 20
-10.3420836697
 10
-11.8111361855
 20
-10.5157603988
 10
-11.9687069102
 20
-10.7030961962
  0
LINE
  5
2C7
100
AcDbEntity
  8
0
100
AcDbLine
 62
7
  6
CONTINUOUS
 10
-11.3400911591
 20
-10.1858600809
 11
-11.6000605775
 21
-10.3420836697
  0
LINE
  5
2C8
100
AcDbEntity
  8
SUPERFICI
100
AcDbLine
 62
7
  6
CONTINUOUS
 10
-12.5349083277
 20
-12.9272561621
 11
-12.8761153619
 21
-13.1102060356
  0
LINE
  5
2C9
100
AcDbEntity
  8
DRAFT
100
AcDbLine
 62
7
  6
CONTINUOUS
 10
-10.623145922
 20
-10.5560638378
 11
-11.3400911591
 21
-10.9309106183
  0
LINE
  5
2CA
100
AcDbEntity
  8
0
100
AcDbLine
 62
7
  6
CONTINUOUS
 10
-7.1403024071
 20
-8.0113557988
 11
-11.3400911591
 21
-10.1858600809
  0
LINE
  5
2CB
100
AcDbEntity
  8
ASSI
100
AcDbLine
 62
7
  6
CONTINUOUS
 10
-10.3498333816
 20
-10.4525619708
 11
-7.1381614465
 21
-8.7896701474
  0
LINE
  5
2CC
100
AcDbEntity
  8
DRAFT
100
AcDbLine
 62
7
  6
CONTINUOUS
 10
-10.3095428452
 20
-10.4085399801
 11
-10.6115929147
 21
-10.5616421425
  0
LINE
  5
2CD
100
AcDbEntity
  8
0
100
AcDbLine
 62
7
  6
CONTINUOUS
 10
-10.7336938637
 20
-11.5268502945
 11
-10.2387191169
 21
-11.2793629211
  0
LINE
  5
2CE
100
AcDbEntity
  8
RACCORDO
100
AcDbLine
 62
7
  6
CONTINUOUS
 10
-7.8252165432
 20
-11.1969114164
 11
-8.9475296213
 21
-11.7580679554
  0
LINE
  5
2CF
100
AcDbEntity
  8
SUPERFICI
100
AcDbLine
 62
250
  6
CONTINUOUS
 10
-13.9758792336
 20
-13.8662844866
 11
-11.1623483054
 21
-12.5050889446
  0
LINE
  5
2D0
100
AcDbEntity
  8
SUPERFICI
100
AcDbLine
 62
250
  6
CONTINUOUS
 10
-13.5850717868
 20
-14.20600298
 11
-10.7710806953
 21
-12.8454116737
  0
LWPOLYLINE
  5
2D1
100
AcDbEntity
  8
SUPERFICI
100
AcDbPolyline
 62
7
  6
CONTINUOUS
 90
5
 70
0
 10
-12.159749889
 20
-13.8151156878
 10
-12.4743561747
 20
-13.9654097581
 10
-12.7898014341
 20
-14.1162883756
 10
-13.1060907095
 20
-14.2677576138
 10
-13.4232263507
 20
-14.4198182452
  0
LWPOLYLINE
  5
2D2
100
AcDbEntity
  8
SUPERFICI
100
AcDbPolyline
 62
7
  6
CONTINUOUS
 90
6
 70
0
 10
-10.5993435668
 20
-13.0726302084
 10
-10.9097455597
 20
-13.2199220377
 10
-11.2209838146
 20
-13.3678143959
 10
-11.5330611583
 20
-13.5163084117
 10
-11.8459830732
 20
-13.6654103223
 10
-12.159749889
 20
-13.8151156878
  0
LINE
  5
2D3
100
AcDbEntity
  8
SUPERFICI
100
AcDbLine
 62
7
  6
CONTINUOUS
 10
-11.3418056955
 20
-12.4153602495
 11
-12.8526493851
 21
-13.113117933
  0
LWPOLYLINE
  5
2D4
100
AcDbEntity
  8
RACCORDO
100
AcDbPolyline
 62
7
  6
CONTINUOUS
 90
11
 70
0
 10
-7.1186466594
 20
-11.5507332556
 10
-7.1066430439
 20
-11.5453111886
 10
-7.0948208305
 20
-11.5411529107
 10
-7.0831800192
 20
-11.538258422
 10
-7.0716015427
 20
-11.5366241017
 10
-7.0602044683
 20
-11.5362535707
 10
-7.0493459979
 20
-11.5371576904
 10
-7.0391028445
 20
-11.5393688025
 10
-7.029398295
 20
-11.5428545654
 10
-7.0203594123
 20
-11.5475288161
 10
-7.0130567517
 20
-11.5525501825
  0
LWPOLYLINE
  5
2D5
100
AcDbEntity
  8
RACCORDO
100
AcDbPolyline
 62
7
  6
CONTINUOUS
 90
8
 70
0
 10
-10.2880661101
 20
-11.1914543536
 10
-10.396420074
 20
-11.2289637891
 10
-10.5011297954
 20
-11.269677439
 10
-10.6018759059
 20
-11.3135385769
 10
-10.6984559542
 20
-11.3605431906
 10
-10.7904664739
 20
-11.4105909447
 10
-10.8773824231
 20
-11.4634741873
 10
-10.9591119917
 20
-11.5192209625
  0
LWPOLYLINE
  5
2D6
100
AcDbEntity
  8
RACCORDO
100
AcDbPolyline
 62
250
  6
CONTINUOUS
 90
25
 70
0
 10
-10.2933174303
 20
-11.2312092605
 10
-10.1997109355
 20
-11.19994998
 10
-10.1028449667
 20
-11.1710182748
 10
-10.0035270679
 20
-11.1446412288
 10
-9.9017991892
 20
-11.1208502381
 10
-9.7976193807
 20
-11.0996139064
 10
-9.6916693368
 20
-11.081065129
 10
-9.5839926644
 20
-11.0652124538
 10
-9.4745457568
 20
-11.0520473328
 10
-9.3638794878
 20
-11.0416770171
 10
-9.2517934449
 20
-11.0341082398
 10
-9.1384880405
 20
-11.0293342678
 10
-9.0251153866
 20
-11.027442153
 10
-8.9114306306
 20
-11.028520393
 10
-8.797678625
 20
-11.0324804901
 10
-8.6857460386
 20
-11.0391440035
 10
-8.5756749426
 20
-11.0486378116
 10
-8.4674232658
 20
-11.0608350358
 10
-8.3627514636
 20
-11.0751766
 10
-8.261809406
 20
-11.09178087
 10
-8.164447223
 20
-11.11052948
 10
-8.0719757607
 20
-11.1305082569
 10
-7.9848319676
 20
-11.1514124765
 10
-7.9025788951
 20
-11.1735468629
 10
-7.8252165432
 20
-11.1969114164
  0
LWPOLYLINE
  5
2D7
100
AcDbEntity
  8
ASSI
100
AcDbPolyline
 62
7
  6
CONTINUOUS
 90
14
 70
0
 10
-10.3498333816
 20
-10.4525619708
 10
-9.9659196586
 20
-10.3309087981
 10
-9.5668846533
 20
-10.2431213084
 10
-9.1527283655
 20
-10.1891995016
 10
-8.7114264535
 20
-10.1691401438
 10
-8.2550032591
 20
-10.182946469
 10
-7.8195318079
 20
-10.230628179
 10
-7.4072790013
 20
-10.315109625
 10
-7.0159779379
 20
-10.4334664559
 10
-6.6749009397
 20
-10.5769353194
 10
-6.3879632127
 20
-10.7474738185
 10
-6.1512495509
 20
-10.9431243502
 10
-5.9822866587
 20
-11.1492507535
 10
-5.9158713456
 20
-11.3008915651
  0
LWPOLYLINE
  5
2D8
100
AcDbEntity
  8
RACCORDO
100
AcDbPolyline
 62
250
  6
CONTINUOUS
 90
10
 70
0
 10
-10.2683951819
 20
-52.1422353108
 10
-10.2408021087
 20
-52.173007783
 10
-10.2091406094
 20
-52.1997912909
 10
-10.1742820615
 20
-52.2218487057
 10
-10.1371858308
 20
-52.2385729686
 10
-10.0988728684
 20
-52.249503799
 10
-10.0603976125
 20
-52.2543403623
 10
-10.0228189678
 20
-52.2529495477
 10
-9.9871711618
 20
-52.2453696315
 10
-9.9544352827
 20
-52.2318092252
  0
LINE
  5
2D9
100
AcDbEntity
  8
DRAFT
100
AcDbLine
 62
7
  6
CONTINUOUS
 10
-21.6562203415
 20
-7.3398870828
 11
-21.6562203415
 21
-7.1405409753
  0
LINE
  5
2DA
100
AcDbEntity
  8
RACCORDO
100
AcDbLine
 62
250
  6
CONTINUOUS
 10
-21.243397042
 20
-13.3947529502
 11
-21.2413860434
 21
-13.3616966463
  0
LWPOLYLINE
  5
2DB
100
AcDbEntity
  8
RACCORDO
100
AcDbPolyline
 62
250
  6
CONTINUOUS
 90
9
 70
0
 10
-21.1100009538
 20
-12.169460187
 10
-21.1045647668
 20
-12.133854066
 10
-21.0950445825
 20
-12.097629709
 10
-21.0816690771
 20
-12.0616572354
 10
-21.0647595328
 20
-12.0268007145
 10
-21.0447221207
 20
-11.9938974109
 10
-21.0220381446
 20
-11.9637376729
 10
-20.9972524799
 20
-11.9370459477
 10
-20.9709604853
 20
-11.91446338
  0
LWPOLYLINE
  5
2DC
100
AcDbEntity
  8
RACCORDO
100
AcDbPolyline
 62
250
  6
CONTINUOUS
 90
10
 70
0
 10
-13.3229310342
 20
-16.1124908301
 10
-13.3002329617
 20
-16.0912905212
 10
-13.273447805
 20
-16.0690161793
 10
-13.2432921951
 20
-16.0462637498
 10
-13.2105729388
 20
-16.0236419688
 10
-13.1761654326
 20
-16.0017560773
 10
-13.1409902418
 20
-15.9811916274
 10
-13.105988471
 20
-15.9624988164
 10
-13.0720965849
 20
-15.9461777664
 10
-13.0402213535
 20
-15.9326651434
  0
LINE
  5
2DD
100
AcDbEntity
  8
RACCORDO
100
AcDbLine
 62
250
  6
CONTINUOUS
 10
-10.9324226096
 20
-11.5798282038
 11
-10.9062764353
 21
-11.5573682808
  0
LINE
  5
2DE
100
AcDbEntity
  8
RACCORDO
100
AcDbLine
 62
7
  6
CONTINUOUS
 10
-10.9591119917
 20
-11.5192209625
 11
-10.9964007063
 21
-11.5478391554
  0
LWPOLYLINE
  5
2DF
100
AcDbEntity
  8
RACCORDO
100
AcDbPolyline
 62
250
  6
CONTINUOUS
 90
9
 70
0
 10
-10.9062764353
 20
-11.5573682808
 10
-10.8447139261
 20
-11.5101263451
 10
-10.778636327
 20
-11.464605746
 10
-10.7080099827
 20
-11.420817946
 10
-10.6328685484
 20
-11.3787514825
 10
-10.5537725259
 20
-11.3387254707
 10
-10.4706770442
 20
-11.3007505744
 10
-10.3836269743
 20
-11.2648161297
 10
-10.2933174303
 20
-11.2312092605
  0
LINE
  5
2E0
100
AcDbEntity
  8
SUPERFICI
100
AcDbLine
 62
7
  6
CONTINUOUS
 10
-10.1068683939
 20
-12.5782729739
 11
-10.42256688
 21
-12.8089757137
  0
LINE
  5
2E1
100
AcDbEntity
  8
RACCORDO
100
AcDbLine
 62
7
  6
CONTINUOUS
 10
-9.0604532823
 20
-12.7396359558
 11
-10.3254076938
 21
-13.6307430141
  0
LINE
  5
2E2
100
AcDbEntity
  8
0
100
AcDbLine
 62
250
  6
CONTINUOUS
 10
-13.0402193391
 20
-15.9326680408
 11
-13.0107175941
 21
-15.9136219103
  0
LINE
  5
2E3
100
AcDbEntity
  8
0
100
AcDbLine
 62
250
  6
CONTINUOUS
 10
-13.2604096633
 20
-15.7382244313
 11
-13.1363200497
 21
-15.658470678
  0
LINE
  5
2E4
100
AcDbEntity
  8
SUPERFICI
100
AcDbLine
 62
7
  6
CONTINUOUS
 10
-14.1624061933
 20
-14.6390464106
 11
-14.2409434984
 21
-14.6863802984
  0
LINE
  5
2E5
100
AcDbEntity
  8
DRAFT
100
AcDbLine
 62
7
  6
CONTINUOUS
 10
-14.0520234646
 20
-16.6201505871
 11
-13.6630600443
 21
-16.4148130865
  0
LWPOLYLINE
  5
2E6
100
AcDbEntity
  8
SUPERFICI
100
AcDbPolyline
 62
7
  6
CONTINUOUS
 90
10
 70
0
 10
-10.1254270078
 20
-13.7166411016
 10
-10.4297909003
 20
-13.8721381778
 10
-10.7351985998
 20
-14.0279537476
 10
-11.0416510949
 20
-14.1840914378
 10
-11.3491547824
 20
-14.3405562424
 10
-11.6577048962
 20
-14.4973506468
 10
-11.9672857619
 20
-14.6544738206
 10
-12.2778927942
 20
-14.811927163
 10
-12.5895322454
 20
-14.9697151029
 10
-12.9022048101
 20
-15.1278406625
  0
LINE
  5
2E7
100
AcDbEntity
  8
RACCORDO
100
AcDbLine
 62
7
  6
CONTINUOUS
 10
-7.1180856858
 20
-11.5504527688
 11
-8.2404228401
 21
-12.111621346
  0
LINE
  5
2E8
100
AcDbEntity
  8
RACCORDO
100
AcDbLine
 62
250
  6
CONTINUOUS
 10
-8.8709211074
 20
-15.4802078502
 11
-6.1849777265
 21
-14.1773737338
  0
LINE
  5
2E9
100
AcDbEntity
  8
RACCORDO
100
AcDbLine
 62
250
  6
CONTINUOUS
 10
-8.638968491
 20
-15.7024202348
 11
-5.9526999886
 21
-14.399927085
  0
LINE
  5
2EA
100
AcDbEntity
  8
0
100
AcDbLine
 62
7
  6
CONTINUOUS
 10
-3.1394620731
 20
-9.9720337854
 11
-7.0753306446
 21
-11.8558373092
  0
LINE
  5
2EB
100
AcDbEntity
  8
0
100
AcDbLine
 62
7
  6
CONTINUOUS
 10
-0.7227682234
 20
-11.1803807102
 11
-4.658657725
 21
-13.064173769
  0
LWPOLYLINE
  5
2EC
100
AcDbEntity
  8
RACCORDO
100
AcDbPolyline
 62
250
  6
CONTINUOUS
 90
9
 70
0
 10
-6.1849777572
 20
-14.1773737184
 10
-6.1548938081
 20
-14.1645483739
 10
-6.1250666733
 20
-14.1549829063
 10
-6.09571344
 20
-14.1487490664
 10
-6.0670458847
 20
-14.1458943575
 10
-6.0392753766
 20
-14.1464424176
 10
-6.0126105975
 20
-14.1503902752
 10
-5.9872475214
 20
-14.1577085191
 10
-5.9675533545
 20
-14.1661860353
  0
LWPOLYLINE
  5
2ED
100
AcDbEntity
  8
RACCORDO
100
AcDbPolyline
 62
7
  6
CONTINUOUS
 90
8
 70
0
 10
-3.2169982983
 20
-14.7269882595
 10
-3.3253522621
 20
-14.7644976951
 10
-3.4300619835
 20
-14.8052113449
 10
-3.5308080941
 20
-14.8490724828
 10
-3.6273881423
 20
-14.8960770966
 10
-3.719398662
 20
-14.9461248506
 10
-3.8063146113
 20
-14.9990080932
 10
-3.8880441798
 20
-15.0547548684
  0
LWPOLYLINE
  5
2EE
100
AcDbEntity
  8
RACCORDO
100
AcDbPolyline
 62
250
  6
CONTINUOUS
 90
25
 70
0
 10
-3.2222496185
 20
-14.7667431664
 10
-3.1286431237
 20
-14.7354838859
 10
-3.0317771548
 20
-14.7065521808
 10
-2.9324592561
 20
-14.6801751347
 10
-2.8307313774
 20
-14.656384144
 10
-2.7265515688
 20
-14.6351478123
 10
-2.6206015249
 20
-14.6165990349
 10
-2.5129248526
 20
-14.6007463597
 10
-2.4034779449
 20
-14.5875812387
 10
-2.2928116759
 20
-14.577210923
 10
-2.180725633
 20
-14.5696421457
 10
-2.0674202287
 20
-14.5648681737
 10
-1.9540475747
 20
-14.5629760589
 10
-1.8403628187
 20
-14.5640542989
 10
-1.7266108131
 20
-14.5680143961
 10
-1.6146782268
 20
-14.5746779095
 10
-1.5046071307
 20
-14.5841717175
 10
-1.3963554539
 20
-14.5963689417
 10
-1.2916836517
 20
-14.610710506
 10
-1.1907415941
 20
-14.6273147759
 10
-1.0933794112
 20
-14.6460633859
 10
-1.0009079488
 20
-14.6660421629
 10
-0.9137641557
 20
-14.6869463824
 10
-0.8315110832
 20
-14.7090807689
 10
-0.7541487314
 20
-14.7324453223
  0
LWPOLYLINE
  5
2EF
100
AcDbEntity
  8
ASSI
100
AcDbPolyline
 62
7
  6
CONTINUOUS
 90
14
 70
0
 10
-3.2787655697
 20
-13.9880958767
 10
-2.8948518468
 20
-13.866442704
 10
-2.4958168414
 20
-13.7786552143
 10
-2.0816605537
 20
-13.7247334075
 10
-1.6403586416
 20
-13.7046740498
 10
-1.1839354472
 20
-13.7184803749
 10
-0.7484639961
 20
-13.7661620849
 10
-0.3362111894
 20
-13.850643531
 10
0.055089874
 20
-13.9690003619
 10
0.3961668722
 20
-14.1124692254
 10
0.6831045992
 20
-14.2830077244
 10
0.9198182609
 20
-14.4786582561
 10
1.0887811531
 20
-14.6847846595
 10
1.1551964662
 20
-14.836425471
  0
LWPOLYLINE
  5
2F0
100
AcDbEntity
  8
RACCORDO
100
AcDbPolyline
 62
250
  6
CONTINUOUS
 90
10
 70
0
 10
-11.5097105231
 20
-38.2097024694
 10
-11.4767493459
 20
-38.2231130371
 10
-11.43955318
 20
-38.2327335818
 10
-11.3992274855
 20
-38.2382781855
 10
-11.3569707294
 20
-38.2395820657
 10
-11.3140387706
 20
-38.2366064731
 10
-11.2717075356
 20
-38.2294398436
 10
-11.2312350948
 20
-38.2182951698
 10
-11.1938242723
 20
-38.2035036697
 10
-11.1605869018
 20
-38.1855049433
  0
LWPOLYLINE
  5
2F1
100
AcDbEntity
  8
RACCORDO
100
AcDbPolyline
 62
250
  6
CONTINUOUS
 90
10
 70
0
 10
-11.5097105231
 20
-37.8930766274
 10
-11.4767493668
 20
-37.9074283812
 10
-11.4395532211
 20
-37.9195304815
 10
-11.399227543
 20
-37.9290232579
 10
-11.3569707985
 20
-37.9356245884
 10
-11.3140388438
 20
-37.9391382835
 10
-11.2717076023
 20
-37.9394599174
 10
-11.2312351445
 20
-37.9365799312
 10
-11.1938242984
 20
-37.9305839172
 10
-11.1605869018
 20
-37.921650075
  0
LINE
  5
2F2
100
AcDbEntity
  8
RACCORDO
100
AcDbLine
 62
250
  6
CONTINUOUS
 10
-11.6166493828
 20
-38.1562330395
 11
-11.5097105231
 21
-38.2097024694
  0
LWPOLYLINE
  5
2F3
100
AcDbEntity
  8
DRAFT
100
AcDbPolyline
 62
7
  6
CONTINUOUS
 90
25
 70
0
 10
-26.4964029781
 20
-5.2396552183
 10
-26.4903734582
 20
-5.2665645072
 10
-26.4832932672
 20
-5.2933867056
 10
-26.4751624052
 20
-5.3201218135
 10
-26.4659469429
 20
-5.3468571706
 10
-26.4556808095
 20
-5.3735054372
 10
-26.4444657931
 20
-5.3998045946
 10
-26.4322925644
 20
-5.4257511048
 10
-26.4191704526
 20
-5.4513485058
 10
-26.405229234
 20
-5.4763453931
 10
-26.3904609025
 20
-5.5007357074
 10
-26.374873464
 20
-5.5245255079
 10
-26.3586207134
 20
-5.5474815681
 10
-26.3416964643
 20
-5.5695953202
 10
-26.3241069031
 20
-5.590875332
 10
-26.306024383
 20
-5.6111140798
 10
-26.2874441608
 20
-5.6303014568
 10
-26.2683709798
 20
-5.6484475698
 10
-26.2489914233
 20
-5.6653752162
 10
-26.2293025624
 20
-5.6810725844
 10
-26.209307326
 20
-5.695551486
 10
-26.1892010844
 20
-5.708670153
 10
-26.1690489612
 20
-5.7203813293
 10
-26.148785833
 20
-5.730732271
 10
-26.1284116996
 20
-5.739722978
  0
LWPOLYLINE
  5
2F4
100
AcDbEntity
  8
SUPERFICI
100
AcDbPolyline
 62
7
  6
CONTINUOUS
 90
8
 70
0
 10
-19.7255654019
 20
-11.2686487195
 10
-19.7215609101
 20
-11.3171879759
 10
-19.7215285397
 20
-11.3630931626
 10
-19.7254682905
 20
-11.4063642796
 10
-19.733560061
 20
-11.4475179659
 10
-19.7456239529
 20
-11.4860375825
 10
-19.7611202706
 20
-11.5203732124
 10
-19.7800289135
 20
-11.5502037765
  0
LWPOLYLINE
  5
2F5
100
AcDbEntity
  8
RACCORDO
100
AcDbPolyline
 62
250
  6
CONTINUOUS
 90
19
 70
0
 10
-21.2413860434
 20
-13.3616966463
 10
-21.2429516081
 20
-13.3199304711
 10
-21.2479183687
 20
-13.2750060773
 10
-21.2566752304
 20
-13.2272116507
 10
-21.2695513215
 20
-13.1770451433
 10
-21.2868640602
 20
-13.1249572612
 10
-21.3089668738
 20
-13.0713657735
 10
-21.3361444565
 20
-13.0169679727
 10
-21.368420546
 20
-12.9629444715
 10
-21.4055964806
 20
-12.9106557583
 10
-21.4476044618
 20
-12.861171319
 10
-21.4938223853
 20
-12.8161497965
 10
-21.5427892994
 20
-12.7776283715
 10
-21.5935510015
 20
-12.7467270307
 10
-21.645165237
 20
-12.724385431
 10
-21.6959264414
 20
-12.7115587418
 10
-21.7446136455
 20
-12.7085611535
 10
-21.7903657028
 20
-12.7154516137
 10
-21.8302001831
 20
-12.7310644127
  0
LINE
  5
2F6
100
AcDbEntity
  8
RACCORDO
100
AcDbLine
 62
7
  6
CONTINUOUS
 10
-19.0279293115
 20
-12.3529279205
 11
-19.0279293115
 21
-12.2062848515
  0
LWPOLYLINE
  5
2F7
100
AcDbEntity
  8
RACCORDO
100
AcDbPolyline
 62
250
  6
CONTINUOUS
 90
19
 70
0
 10
-17.6253326859
 20
-58.6836569165
 10
-17.6253597632
 20
-58.7202484762
 10
-17.6229384801
 20
-58.7550637124
 10
-17.6180688365
 20
-58.7881026253
 10
-17.6106811831
 20
-58.8195778772
 10
-17.6008451694
 20
-58.8492768057
 10
-17.5887697429
 20
-58.8765614231
 10
-17.5744117253
 20
-58.9013709894
 10
-17.5578142949
 20
-58.9237662445
 10
-17.5393159352
 20
-58.9432914213
 10
-17.5188748881
 20
-58.9598895635
 10
-17.4965329117
 20
-58.9736176275
 10
-17.4727537627
 20
-58.9841907149
 10
-17.4474941359
 20
-58.9915388759
 10
-17.4207973366
 20
-58.9957320604
 10
-17.3932570382
 20
-58.9966952202
 10
-17.3650711321
 20
-58.9944033393
 10
-17.3360417269
 20
-58.9888814337
 10
-17.3061688227
 20
-58.9801295034
  0
LWPOLYLINE
  5
2F8
100
AcDbEntity
  8
RACCORDO
100
AcDbPolyline
 62
250
  6
CONTINUOUS
 90
13
 70
0
 10
-18.3258681502
 20
-58.6612629112
 10
-18.3260627152
 20
-58.733684816
 10
-18.3212930147
 20
-58.8034479962
 10
-18.3115896998
 20
-58.8700654553
 10
-18.2970140672
 20
-58.9330798729
 10
-18.2776669904
 20
-58.9920420629
 10
-18.2536937596
 20
-59.0465191212
 10
-18.2252690453
 20
-59.0961247142
 10
-18.1925874355
 20
-59.1405302279
 10
-18.1558706164
 20
-59.179439848
 10
-18.1153641824
 20
-59.2125862305
 10
-18.0713518045
 20
-59.2397317526
 10
-18.0648800631
 20
-59.243065672
  0
LWPOLYLINE
  5
2F9
100
AcDbEntity
  8
0
100
AcDbPolyline
 62
7
  6
CONTINUOUS
 90
3
 70
0
 10
-11.9687069102
 20
-10.7030961962
 10
-12.0693305247
 20
-10.8999985993
 10
-12.0900552248
 20
-11.0010118962
  0
LINE
  5
2FA
100
AcDbEntity
  8
0
100
AcDbLine
 62
7
  6
CONTINUOUS
 10
-8.2733533176
 20
-12.1420331941
 11
-8.2404228401
 21
-12.111621346
  0
LWPOLYLINE
  5
2FB
100
AcDbEntity
  8
0
100
AcDbPolyline
 62
7
  6
CONTINUOUS
 90
3
 70
0
 10
-4.5289927657
 20
-13.8776175756
 10
-4.7400683737
 20
-14.0512943047
 10
-4.8976390983
 20
-14.2386301021
  0
LINE
  5
2FC
100
AcDbEntity
  8
0
100
AcDbLine
 62
7
  6
CONTINUOUS
 10
-4.2690233473
 20
-13.7213939868
 11
-4.5289927657
 21
-13.8776175756
  0
LINE
  5
2FD
100
AcDbEntity
  8
0
100
AcDbLine
 62
250
  6
CONTINUOUS
 10
-9.043439532
 20
-17.2851322816
 11
-9.4447846495
 21
-17.5042383781
  0
LINE
  5
2FE
100
AcDbEntity
  8
0
100
AcDbLine
 62
250
  6
CONTINUOUS
 10
-8.6901552661
 20
-17.8949853082
 11
-9.0877358413
 21
-18.1120362304
  0
LINE
  5
2FF
100
AcDbEntity
  8
DRAFT
100
AcDbLine
 62
7
  6
CONTINUOUS
 10
-3.5520781101
 20
-14.0915977438
 11
-4.2690233473
 21
-14.4664445242
  0
LINE
  5
300
100
AcDbEntity
  8
0
100
AcDbLine
 62
7
  6
CONTINUOUS
 10
-0.0692345952
 20
-11.5468897047
 11
-4.2690233473
 21
-13.7213939868
  0
LINE
  5
301
100
AcDbEntity
  8
ASSI
100
AcDbLine
 62
7
  6
CONTINUOUS
 10
-3.2787655697
 20
-13.9880958767
 11
-0.0670936347
 21
-12.3252040533
  0
LINE
  5
302
100
AcDbEntity
  8
DRAFT
100
AcDbLine
 62
7
  6
CONTINUOUS
 10
-3.2384750333
 20
-13.944073886
 11
-3.5405251029
 21
-14.0971760485
  0
LINE
  5
303
100
AcDbEntity
  8
0
100
AcDbLine
 62
7
  6
CONTINUOUS
 10
-3.6626260518
 20
-15.0623842004
 11
-3.167651305
 21
-14.814896827
  0
LINE
  5
304
100
AcDbEntity
  8
RACCORDO
100
AcDbLine
 62
7
  6
CONTINUOUS
 10
-0.7541487314
 20
-14.7324453223
 11
-1.8764618094
 21
-15.2936018613
  0
LINE
  5
305
100
AcDbEntity
  8
RACCORDO
100
AcDbLine
 62
7
  6
CONTINUOUS
 10
-2.7052159833
 20
-15.7079789483
 11
-2.900117056
 21
-15.8054294846
  0
LINE
  5
306
100
AcDbEntity
  8
SMUSSO
100
AcDbLine
 62
7
  6
CONTINUOUS
 10
-4.1802966199
 20
-15.2537844396
 11
-4.0701340743
 21
-15.1998806046
  0
LWPOLYLINE
  5
307
100
AcDbEntity
  8
RACCORDO
100
AcDbPolyline
 62
250
  6
CONTINUOUS
 90
19
 70
0
 10
-15.0200617935
 20
-20.4886476284
 10
-15.0796054498
 20
-20.5165020663
 10
-15.1390279331
 20
-20.5503426348
 10
-15.1979185656
 20
-20.5899319926
 10
-15.2558747475
 20
-20.6349921237
 10
-15.3124912632
 20
-20.6852083374
 10
-15.3673634005
 20
-20.7402304036
 10
-15.4201117564
 20
-20.7996728875
 10
-15.4703723118
 20
-20.8631190531
 10
-15.5177862747
 20
-20.930124226
 10
-15.5620205712
 20
-21.0002097445
 10
-15.6027779343
 20
-21.0728937538
 10
-15.6397832051
 20
-21.1476967744
 10
-15.672784447
 20
-21.2241159269
 10
-15.7015424032
 20
-21.301601116
 10
-15.7258428842
 20
-21.3795862827
 10
-15.7455159016
 20
-21.4575185221
 10
-15.7604317134
 20
-21.5348627758
 10
-15.7704889136
 20
-21.6110801686
  0
LWPOLYLINE
  5
308
100
AcDbEntity
  8
RACCORDO
100
AcDbPolyline
 62
250
  6
CONTINUOUS
 90
19
 70
0
 10
-14.6942930464
 20
-21.1108091976
 10
-14.7245234654
 20
-21.1247446996
 10
-14.7543227555
 20
-21.1414290875
 10
-14.7836909166
 20
-21.1608623613
 10
-14.8128399623
 20
-21.1832242654
 10
-14.841557879
 20
-21.2083350553
 10
-14.8692086259
 20
-21.235655498
 10
-14.895756489
 20
-21.265225716
 10
-14.9212371822
 20
-21.2970055868
 10
-14.9451218058
 20
-21.3303355101
 10
-14.9673744362
 20
-21.3652431197
 10
-14.9880309969
 20
-21.4017007819
 10
-15.0066703592
 20
-21.4389659958
 10
-15.023255639
 20
-21.47706928
 10
-15.0378237204
 20
-21.5159801159
 10
-15.0500641277
 20
-21.5548644472
 10
-15.0598733688
 20
-21.593444255
 10
-15.0673549358
 20
-21.6319975582
 10
-15.0725088286
 20
-21.6705243566
  0
LWPOLYLINE
  5
309
100
AcDbEntity
  8
RACCORDO
100
AcDbPolyline
 62
7
  6
CONTINUOUS
 90
11
 70
0
 10
-0.0475788475
 20
-15.0862671615
 10
-0.0355752321
 20
-15.0808450945
 10
-0.0237530187
 20
-15.0766868167
 10
-0.0121122074
 20
-15.0737923279
 10
-0.0005337309
 20
-15.0721580077
 10
0.0108633435
 20
-15.0717874766
 10
0.021721814
 20
-15.0726915963
 10
0.0319649674
 20
-15.0749027084
 10
0.0416695168
 20
-15.0783884713
 10
0.0507083996
 20
-15.083062722
 10
0.0580110602
 20
-15.0880840884
  0
LINE
  5
30A
100
AcDbEntity
  8
RACCORDO
100
AcDbLine
 62
250
  6
CONTINUOUS
 10
-10.640123619
 20
-18.6963896617
 11
-15.0200617935
 21
-20.4886476284
  0
LINE
  5
30B
100
AcDbEntity
  8
RACCORDO
100
AcDbLine
 62
250
  6
CONTINUOUS
 10
-10.317488607
 20
-19.3198335462
 11
-14.6942930464
 21
-21.1108091976
  0
LINE
  5
30C
100
AcDbEntity
  8
RACCORDO
100
AcDbLine
 62
250
  6
CONTINUOUS
 10
-11.5955394424
 20
-37.8501621677
 11
-11.5097105231
 21
-37.8930766274
  0
LWPOLYLINE
  5
30D
100
AcDbEntity
  8
0
100
AcDbPolyline
 62
7
  6
CONTINUOUS
 90
4
 70
0
 10
-28.9351893051
 20
-7.9507626899
 10
-28.9459629306
 20
-7.9293322821
 10
-28.9564653991
 20
-7.9075315342
 10
-28.9667492332
 20
-7.8855095649
  0
LWPOLYLINE
  5
30E
100
AcDbEntity
  8
0
100
AcDbPolyline
 62
7
  6
CONTINUOUS
 90
6
 70
0
 10
-29.0069391654
 20
-7.7977866174
 10
-29.0169691082
 20
-7.7763892242
 10
-29.0269237242
 20
-7.7555556497
 10
-29.0368283543
 20
-7.7354612087
 10
-29.0468601367
 20
-7.7162467431
 10
-29.0571403517
 20
-7.698060527
  0
LINE
  5
30F
100
AcDbEntity
  8
0
100
AcDbLine
 62
7
  6
CONTINUOUS
 10
-28.9667492332
 20
-7.8855095649
 11
-29.0069391654
 21
-7.7977866174
  0
LWPOLYLINE
  5
310
100
AcDbEntity
  8
RACCORDO
100
AcDbPolyline
 62
250
  6
CONTINUOUS
 90
13
 70
0
 10
-14.6942930464
 20
-21.1108091976
 10
-14.6944671277
 20
-21.0514623245
 10
-14.7005778007
 20
-20.9900662982
 10
-14.7125206731
 20
-20.9276709391
 10
-14.7300916245
 20
-20.8653431715
 10
-14.7529902813
 20
-20.8041488216
 10
-14.7808251382
 20
-20.7451343883
 10
-14.8131202877
 20
-20.689309063
 10
-14.8493235217
 20
-20.6376275549
 10
-14.8888157354
 20
-20.5909737811
 10
-14.9309215915
 20
-20.5501456315
 10
-14.9749210844
 20
-20.5158413446
 10
-15.0200617945
 20
-20.4886476288
  0
LINE
  5
311
100
AcDbEntity
  8
SUPERFICI
100
AcDbLine
 62
7
  6
CONTINUOUS
 10
-16.1501318076
 20
-10.0111971935
 11
-16.1501318076
 21
-10.9642148583
  0
LINE
  5
312
100
AcDbEntity
  8
RACCORDO
100
AcDbLine
 62
7
  6
CONTINUOUS
 10
-16.1501318076
 20
-10.9642148583
 11
-16.1501318076
 21
-11.1196444222
  0
LINE
  5
313
100
AcDbEntity
  8
SUPERFICI
100
AcDbLine
 62
7
  6
CONTINUOUS
 10
-14.8066289233
 20
-10.6169446921
 11
-14.8066289233
 21
-11.5071565433
  0
LWPOLYLINE
  5
314
100
AcDbEntity
  8
RACCORDO
100
AcDbPolyline
 62
250
  6
CONTINUOUS
 90
10
 70
0
 10
-15.7704889136
 20
-21.6110801686
 10
-16.1760573171
 20
-25.7720941266
 10
-16.5512815531
 20
-29.9228458831
 10
-16.8961298808
 20
-34.0629827603
 10
-17.2105730921
 20
-38.1921529625
 10
-17.4945845242
 20
-42.3100057323
 10
-17.7481400589
 20
-46.416191379
 10
-17.9712181125
 20
-50.5103611405
 10
-18.1637996413
 20
-54.592167214
 10
-18.3258681502
 20
-58.6612629112
  0
LWPOLYLINE
  5
315
100
AcDbEntity
  8
RACCORDO
100
AcDbPolyline
 62
250
  6
CONTINUOUS
 90
10
 70
0
 10
-15.0725088286
 20
-21.6705243566
 10
-15.4777209557
 20
-25.8279435903
 10
-15.8525601512
 20
-29.9744160396
 10
-16.197026415
 20
-34.1099417046
 10
-16.5111441822
 20
-38.2348745227
 10
-16.7948890178
 20
-42.3488605564
 10
-17.0481876164
 20
-46.4508379938
 10
-17.2710155431
 20
-50.5404528977
 10
-17.4633972329
 20
-54.6180592052
 10
-17.6253326859
 20
-58.6836569165
  0
LWPOLYLINE
  5
316
100
AcDbEntity
  8
RACCORDO
100
AcDbPolyline
 62
250
  6
CONTINUOUS
 90
10
 70
0
 10
-13.4266169145
 20
-16.0111522066
 10
-13.4211807249
 20
-15.9755460688
 10
-13.4116605355
 20
-15.9393216991
 10
-13.3982850241
 20
-15.9033492178
 10
-13.3813754745
 20
-15.8684926947
 10
-13.3613380593
 20
-15.835589394
 10
-13.3386540832
 20
-15.805429663
 10
-13.313868422
 20
-15.7787379474
 10
-13.2875764349
 20
-15.7561553902
 10
-13.2604096633
 20
-15.7382244313
  0
LWPOLYLINE
  5
317
100
AcDbEntity
  8
RACCORDO
100
AcDbPolyline
 62
7
  6
CONTINUOUS
 90
6
 70
0
 10
-14.2674839312
 20
-16.8827095056
 10
-14.259117408
 20
-16.8532701993
 10
-14.2168813733
 20
-16.7710534944
 10
-14.1594569039
 20
-16.6998055055
 10
-14.0883226366
 20
-16.641600226
 10
-14.0535581886
 20
-16.6209697813
  0
LINE
  5
318
100
AcDbEntity
  8
RACCORDO
100
AcDbLine
 62
7
  6
CONTINUOUS
 10
-4.0340366883
 20
-15.173802049
 11
-4.097492138
 21
-15.2364518369
  0
LINE
  5
319
100
AcDbEntity
  8
RACCORDO
100
AcDbLine
 62
250
  6
CONTINUOUS
 10
-3.8917965064
 20
-15.1415119556
 11
-3.8352086234
 21
-15.0929021867
  0
LWPOLYLINE
  5
31A
100
AcDbEntity
  8
RACCORDO
100
AcDbPolyline
 62
7
  6
CONTINUOUS
 90
3
 70
0
 10
-3.8880441798
 20
-15.0547548684
 10
-3.9641990786
 20
-15.1132019242
 10
-4.0340366883
 20
-15.173802049
  0
LWPOLYLINE
  5
31B
100
AcDbEntity
  8
RACCORDO
100
AcDbPolyline
 62
250
  6
CONTINUOUS
 90
9
 70
0
 10
-3.8352086234
 20
-15.0929021867
 10
-3.7736461142
 20
-15.0456602511
 10
-3.7075685151
 20
-15.0001396519
 10
-3.6369421708
 20
-14.9563518519
 10
-3.5618007365
 20
-14.9142853884
 10
-3.482704714
 20
-14.8742593766
 10
-3.3996092324
 20
-14.8362844803
 10
-3.3125591625
 20
-14.8003500357
 10
-3.2222496185
 20
-14.7667431664
  0
LINE
  5
31C
100
AcDbEntity
  8
RACCORDO
100
AcDbLine
 62
250
  6
CONTINUOUS
 10
5.5482632405
 20
-14.3986514595
 11
5.4479993046
 21
-14.4529180474
  0
LINE
  5
31D
100
AcDbEntity
  8
RACCORDO
100
AcDbLine
 62
250
  6
CONTINUOUS
 10
-0.6633620656
 20
-17.4056845962
 11
-2.0842800687
 21
-18.137188729
  0
LWPOLYLINE
  5
31E
100
AcDbEntity
  8
RACCORDO
100
AcDbPolyline
 62
250
  6
CONTINUOUS
 90
6
 70
0
 10
-2.0842800687
 20
-18.137188729
 10
-3.4418893854
 20
-18.8348226554
 10
-4.830621743
 20
-19.5471066823
 10
-6.219001126
 20
-20.2578609822
 10
-7.6070285588
 20
-20.9670808216
 10
-8.6901552661
 20
-21.5194486169
  0
LINE
  5
31F
100
AcDbEntity
  8
RACCORDO
100
AcDbLine
 62
250
  6
CONTINUOUS
 10
5.6975260461
 20
-15.5602554028
 11
-8.6901552661
 21
-22.9007091212
  0
LINE
  5
320
100
AcDbEntity
  8
RACCORDO
100
AcDbLine
 62
7
  6
CONTINUOUS
 10
-0.0470178739
 20
-15.0859866748
 11
-1.1693550282
 21
-15.6471552519
  0
LINE
  5
321
100
AcDbEntity
  8
RACCORDO
100
AcDbLine
 62
250
  6
CONTINUOUS
 10
0.3377038894
 20
-16.9064019572
 11
-0.6633772512
 21
-17.4056924846
  0
LINE
  5
322
100
AcDbEntity
  8
RACCORDO
100
AcDbLine
 62
250
  6
CONTINUOUS
 10
5.1567809519
 20
-14.1201552979
 11
3.4529005974
 21
-14.9515720897
  0
LINE
  5
323
100
AcDbEntity
  8
RACCORDO
100
AcDbLine
 62
250
  6
CONTINUOUS
 10
3.4529005974
 20
-14.9515720897
 11
2.3199309203
 21
-15.5040397805
  0
LWPOLYLINE
  5
324
100
AcDbEntity
  8
RACCORDO
100
AcDbPolyline
 62
250
  6
CONTINUOUS
 90
3
 70
0
 10
2.3199309203
 20
-15.5040397805
 10
0.6248790947
 20
-16.3300131836
 10
0.0610348637
 20
-16.6046095892
  0
LINE
  5
325
100
AcDbEntity
  8
RACCORDO
100
AcDbLine
 62
250
  6
CONTINUOUS
 10
0.0610348637
 20
-16.6046095892
 11
-0.9447657988
 21
-17.0943637948
  0
LINE
  5
326
100
AcDbEntity
  8
RACCORDO
100
AcDbLine
 62
250
  6
CONTINUOUS
 10
5.4480070639
 20
-14.452935638
 11
4.3084257613
 21
-15.0007437856
  0
LINE
  5
327
100
AcDbEntity
  8
RACCORDO
100
AcDbLine
 62
250
  6
CONTINUOUS
 10
4.3084257613
 20
-15.0007437856
 11
3.1711147699
 21
-15.5470736918
  0
LINE
  5
328
100
AcDbEntity
  8
RACCORDO
100
AcDbLine
 62
250
  6
CONTINUOUS
 10
3.1711147699
 20
-15.5470736918
 11
1.4693847275
 21
-16.3637899872
  0
LINE
  5
329
100
AcDbEntity
  8
RACCORDO
100
AcDbLine
 62
250
  6
CONTINUOUS
 10
1.4693847275
 20
-16.3637899872
 11
0.3377038894
 21
-16.9064019572
  0
LINE
  5
32A
100
AcDbEntity
  8
0
100
AcDbLine
 62
7
  6
CONTINUOUS
 10
3.9316057387
 20
-13.5075676913
 11
-0.0042628327
 21
-15.3913712151
  0
LINE
  5
32B
100
AcDbEntity
  8
0
100
AcDbLine
 62
250
  6
CONTINUOUS
 10
-9.0877358413
 20
-23.0825383316
 11
-9.7472578935
 21
-23.3834864307
  0
LINE
  5
32C
100
AcDbEntity
  8
0
100
AcDbLine
 62
250
  6
CONTINUOUS
 10
-9.4992662702
 20
-21.9026089197
 11
-9.9544259687
 21
-22.1087113466
  0
LWPOLYLINE
  5
32D
100
AcDbEntity
  8
RACCORDO
100
AcDbPolyline
 62
250
  6
CONTINUOUS
 90
10
 70
0
 10
-10.2683951879
 20
-22.2353407536
 10
-10.2408033648
 20
-22.2229131701
 10
-10.2091408923
 20
-22.209138974
 10
-10.1742794299
 20
-22.1943973653
 10
-10.1371787048
 20
-22.1790941767
 10
-10.0988600903
 20
-22.1636507011
 10
-10.0603784878
 20
-22.1484920931
 10
-10.0227932859
 20
-22.1340356656
 10
-9.9871391955
 20
-22.1206794
 10
-9.9543977644
 20
-22.1087909911
  0
LWPOLYLINE
  5
32E
100
AcDbEntity
  8
0
100
AcDbPolyline
 62
7
  6
CONTINUOUS
 90
7
 70
0
 10
-28.4726013035
 20
-8.6350664196
 10
-28.9083957795
 20
-7.9965602885
 10
-28.9143739409
 20
-7.9873103197
 10
-28.9200343617
 20
-7.9780909566
 10
-28.9253849197
 20
-7.9689171503
 10
-28.930433771
 20
-7.9598031908
 10
-28.9351893051
 20
-7.9507626899
  0
LWPOLYLINE
  5
32F
100
AcDbEntity
  8
0
100
AcDbPolyline
 62
7
  6
CONTINUOUS
 90
4
 70
0
 10
-27.4029486601
 20
-10.3149771412
 10
-27.643909367
 20
-9.9194920855
 10
-28.0532069843
 20
-9.2729553571
 10
-28.4726013035
 20
-8.6350664196
  0
LWPOLYLINE
  5
330
100
AcDbEntity
  8
RACCORDO
100
AcDbPolyline
 62
250
  6
CONTINUOUS
 90
5
 70
0
 10
-28.9991176557
 20
-7.989787234
 10
-28.6082120112
 20
-8.6434469066
 10
-28.2283056428
 20
-9.307611333
 10
-27.8597294691
 20
-9.9817835072
 10
-27.7857012067
 20
-10.1236008679
  0
LWPOLYLINE
  5
331
100
AcDbEntity
  8
RACCORDO
100
AcDbPolyline
 62
250
  6
CONTINUOUS
 90
4
 70
0
 10
-29.2227452214
 20
-8.1324841564
 10
-28.8344496447
 20
-8.7823612309
 10
-28.4577065775
 20
-9.4417174211
 10
-28.1979328421
 20
-9.9174850502
  0
LWPOLYLINE
  5
332
100
AcDbEntity
  8
RACCORDO
100
AcDbPolyline
 62
250
  6
CONTINUOUS
 90
10
 70
0
 10
-21.2227067569
 20
-12.1626029688
 10
-21.2351413116
 20
-12.1238363158
 10
-21.2425489024
 20
-12.0844657817
 10
-21.2447313465
 20
-12.0455446856
 10
-21.2416302551
 20
-12.0081143222
 10
-21.2333285945
 20
-11.9731761033
 10
-21.2200484674
 20
-11.9416647658
 10
-21.2021451702
 20
-11.9144233641
 10
-21.1800976878
 20
-11.8921807142
 10
-21.1544958782
 20
-11.8755318961
  0
LINE
  5
333
100
AcDbEntity
  8
RACCORDO
100
AcDbLine
 62
7
  6
CONTINUOUS
 10
-12.1737629704
 20
-46.2337660855
 11
-11.6135884029
 21
-51.4550295675
  0
LINE
  5
334
100
AcDbEntity
  8
RACCORDO
100
AcDbLine
 62
7
  6
CONTINUOUS
 10
-11.8492984478
 20
-41.5293880877
 11
-11.8405378527
 21
-41.6110436602
  0
LINE
  5
335
100
AcDbEntity
  8
RACCORDO
100
AcDbLine
 62
250
  6
CONTINUOUS
 10
-10.0963815147
 20
-51.3830301552
 11
-11.5097105231
 21
-38.2097024694
  0
LINE
  5
336
100
AcDbEntity
  8
RACCORDO
100
AcDbLine
 62
250
  6
CONTINUOUS
 10
-9.7472578935
 20
-51.3588326291
 11
-11.1605869018
 21
-38.1855049433
  0
LWPOLYLINE
  5
337
100
AcDbEntity
  8
RACCORDO
100
AcDbPolyline
 62
250
  6
CONTINUOUS
 90
10
 70
0
 10
-11.1605869018
 20
-38.1855049433
 10
-11.1632365155
 20
-38.1574725327
 10
-11.1652235157
 20
-38.129113284
 10
-11.1665479023
 20
-38.1004271973
 10
-11.1672093955
 20
-38.0714067541
 10
-11.1672082751
 20
-38.0420594728
 10
-11.1665453816
 20
-38.0124079087
 10
-11.1652209949
 20
-37.9824595803
 10
-11.163234835
 20
-37.952206969
 10
-11.1605869018
 20
-37.921650075
  0
LWPOLYLINE
  5
338
100
AcDbEntity
  8
RACCORDO
100
AcDbPolyline
 62
250
  6
CONTINUOUS
 90
10
 70
0
 10
-11.5097105231
 20
-38.2097024694
 10
-11.5128826595
 20
-38.1761106918
 10
-11.515260256
 20
-38.142072429
 10
-11.5168436149
 20
-38.1076140371
 10
-11.5176334337
 20
-38.0727784458
 10
-11.5176320911
 20
-38.0375763912
 10
-11.5168399992
 20
-38.0019845734
 10
-11.5152555838
 20
-37.9660116995
 10
-11.5128789297
 20
-37.9297002876
 10
-11.5097105231
 20
-37.8930766274
  0
LWPOLYLINE
  5
339
100
AcDbEntity
  8
RACCORDO
100
AcDbPolyline
 62
250
  6
CONTINUOUS
 90
19
 70
0
 10
-13.4632114504
 20
-17.2507839429
 10
-13.464777015
 20
-17.2090177677
 10
-13.4697437756
 20
-17.1640933739
 10
-13.4785006374
 20
-17.1162989472
 10
-13.4913767285
 20
-17.0661324398
 10
-13.5086894672
 20
-17.0140445578
 10
-13.5307922807
 20
-16.96045307
 10
-13.5579698635
 20
-16.9060552692
 10
-13.590245953
 20
-16.852031768
 10
-13.6274218875
 20
-16.7997430548
 10
-13.6694298688
 20
-16.7502586155
 10
-13.7156477922
 20
-16.705237093
 10
-13.7646147063
 20
-16.666715668
 10
-13.8153764085
 20
-16.6358143272
 10
-13.866990644
 20
-16.6134727275
 10
-13.9177518483
 20
-16.6006460384
 10
-13.9664390524
 20
-16.59764845
 10
-14.0121911098
 20
-16.6045389102
 10
-14.05202559
 20
-16.6201517092
  0
LINE
  5
33A
100
AcDbEntity
  8
RACCORDO
100
AcDbLine
 62
7
  6
CONTINUOUS
 10
-14.1208624412
 20
-14.6598182866
 11
-14.1208624412
 21
-14.746420827
  0
LINE
  5
33B
100
AcDbEntity
  8
0
100
AcDbLine
 62
250
  6
CONTINUOUS
 10
-11.3400911591
 20
-10.1858600809
 11
-11.3400911591
 21
-10.9309106183
  0
LINE
  5
33C
100
AcDbEntity
  8
RACCORDO
100
AcDbLine
 62
250
  6
CONTINUOUS
 10
-13.465222449
 20
-17.2838402467
 11
-13.4632114504
 21
-17.2507839429
  0
LWPOLYLINE
  5
33D
100
AcDbEntity
  8
RACCORDO
100
AcDbPolyline
 62
250
  6
CONTINUOUS
 90
9
 70
0
 10
-17.3061688227
 20
-58.9801295034
 10
-17.3143820433
 20
-59.0373381802
 10
-17.3283946638
 20
-59.0905047942
 10
-17.3479670636
 20
-59.1387201782
 10
-17.372764548
 20
-59.1811598327
 10
-17.4023630716
 20
-59.2170980252
 10
-17.4362564895
 20
-59.2459202004
 10
-17.4738652129
 20
-59.2671334892
 10
-17.4901968247
 20
-59.2735377425
  0
LWPOLYLINE
  5
33E
100
AcDbEntity
  8
0
100
AcDbPolyline
 62
7
  6
CONTINUOUS
 90
4
 70
0
 10
-4.8976390983
 20
-14.2386301021
 10
-4.9982627129
 20
-14.4355325052
 10
-5.0397410343
 20
-14.6377000633
 10
-5.0408388963
 20
-14.6765492462
  0
LINE
  5
33F
100
AcDbEntity
  8
RACCORDO
100
AcDbLine
 62
250
  6
CONTINUOUS
 10
-4.0550431279
 20
-15.330529118
 11
-4.0312528625
 21
-15.2951947579
  0
LWPOLYLINE
  5
340
100
AcDbEntity
  8
RACCORDO
100
AcDbPolyline
 62
250
  6
CONTINUOUS
 90
4
 70
0
 10
-4.0312528625
 20
-15.2951947579
 10
-3.989980999
 20
-15.2428610834
 10
-3.9433760658
 20
-15.1915026029
 10
-3.8917965064
 20
-15.1415119556
  0
LINE
  5
341
100
AcDbEntity
  8
RACCORDO
100
AcDbLine
 62
7
  6
CONTINUOUS
 10
-4.097492138
 20
-15.2364518369
 11
-4.1544706979
 21
-15.3010210033
  0
LINE
  5
342
100
AcDbEntity
  8
0
100
AcDbLine
 62
7
  6
CONTINUOUS
 10
-2.6722855058
 20
-15.6775671001
 11
-2.7052159833
 21
-15.7079789483
  0
LINE
  5
343
100
AcDbEntity
  8
0
100
AcDbLine
 62
7
  6
CONTINUOUS
 10
-1.2022855058
 20
-15.6775671001
 11
-1.1693550282
 21
-15.6471552519
  0
LINE
  5
344
100
AcDbEntity
  8
RACCORDO
100
AcDbLine
 62
250
  6
CONTINUOUS
 10
5.8378561459
 20
-18.9406317333
 11
6.7756916327
 21
-18.4550531953
  0
LWPOLYLINE
  5
345
100
AcDbEntity
  8
DRAFT
100
AcDbPolyline
 62
7
  6
CONTINUOUS
 90
10
 70
0
 10
-29.3366737019
 20
-6.564835245
 10
-29.3883113905
 20
-6.4961053986
 10
-29.4400586035
 20
-6.4275218914
 10
-29.4919153409
 20
-6.3590847235
 10
-29.5438821236
 20
-6.2907932131
 10
-29.5959584309
 20
-6.2226480419
 10
-29.6481426995
 20
-6.1546512553
 10
-29.7004344085
 20
-6.086803535
 10
-29.752834079
 20
-6.0191041992
 10
-29.8053417109
 20
-5.951553248
  0
LINE
  5
346
100
AcDbEntity
  8
DRAFT
100
AcDbLine
 62
7
  6
CONTINUOUS
 10
-28.8184694236
 20
-7.2711235894
 11
-28.8890025041
 21
-7.1731810023
  0
LINE
  5
347
100
AcDbEntity
  8
DRAFT
100
AcDbLine
 62
7
  6
CONTINUOUS
 10
-28.748163076
 20
-7.369333771
 11
-28.8184694236
 21
-7.2711235894
  0
LINE
  5
348
100
AcDbEntity
  8
DRAFT
100
AcDbLine
 62
7
  6
CONTINUOUS
 10
-28.6780848331
 20
-7.4678096311
 11
-28.748163076
 21
-7.369333771
  0
LWPOLYLINE
  5
349
100
AcDbEntity
  8
DRAFT
100
AcDbPolyline
 62
7
  6
CONTINUOUS
 90
10
 70
0
 10
-24.8327601144
 20
-7.631506107
 10
-24.9724861937
 20
-7.4169029762
 10
-25.1132804115
 20
-7.2033874646
 10
-25.2551427677
 20
-6.9909595721
 10
-25.398085711
 20
-6.7796011226
 10
-25.5420967926
 20
-6.5693302922
 10
-25.6871386669
 20
-6.3602016097
 10
-25.8331988852
 20
-6.1522332513
 10
-25.9802898961
 20
-5.9454070407
 10
-26.1284116996
 20
-5.739722978
  0
LINE
  5
34A
100
AcDbEntity
  8
RACCORDO
100
AcDbLine
 62
7
  6
CONTINUOUS
 10
-24.1623597453
 20
-8.7008455715
 11
-24.4352770871
 21
-8.2573344067
  0
LWPOLYLINE
  5
34B
100
AcDbEntity
  8
RACCORDO
100
AcDbPolyline
 62
7
  6
CONTINUOUS
 90
5
 70
0
 10
-23.3216047277
 20
-10.1460496838
 10
-23.3732791395
 20
-10.0526216715
 10
-23.6314080738
 20
-9.5984021644
 10
-23.8944034075
 20
-9.1478681574
 10
-24.1623597453
 20
-8.7008455715
  0
LWPOLYLINE
  5
34C
100
AcDbEntity
  8
SUPERFICI
100
AcDbPolyline
 62
7
  6
CONTINUOUS
 90
10
 70
0
 10
-10.5993435668
 20
-13.0726302084
 10
-10.5971450768
 20
-13.1206215416
 10
-10.5911650767
 20
-13.1689738628
 10
-10.5814035667
 20
-13.217687172
 10
-10.5676618731
 20
-13.2673247453
 10
-10.5501386696
 20
-13.3173233066
 10
-10.5294299765
 20
-13.3659930277
 10
-10.5054339133
 20
-13.4132757695
 10
-10.4782523606
 20
-13.459229671
 10
-10.4487869804
 20
-13.5023393211
  0
LWPOLYLINE
  5
34D
100
AcDbEntity
  8
0
100
AcDbPolyline
 62
250
  6
CONTINUOUS
 90
11
 70
0
 10
-9.0877358413
 20
-18.1120362304
 10
-9.088427733
 20
-18.0907519061
 10
-9.0900387428
 20
-18.0683104794
 10
-9.0926555591
 20
-18.0447291983
 10
-9.0963536204
 20
-18.0200706779
 10
-9.1012247028
 20
-17.994344902
 10
-9.1073903671
 20
-17.9675070841
 10
-9.1149260606
 20
-17.9396719854
 10
-9.1239285014
 20
-17.9108867068
 10
-9.1345861152
 20
-17.881030977
 10
-9.1472058424
 20
-17.8497610493
  0
LWPOLYLINE
  5
34E
100
AcDbEntity
  8
0
100
AcDbPolyline
 62
250
  6
CONTINUOUS
 90
25
 70
0
 10
-9.2980006141
 20
-18.111118754
 10
-9.2981915873
 20
-18.0960792794
 10
-9.299144913
 20
-18.0802680624
 10
-9.3008605913
 20
-18.0636851031
 10
-9.3032689681
 20
-18.0463126847
 10
-9.3064396974
 20
-18.028168524
 10
-9.3105817408
 20
-18.0093057708
 10
-9.3156773989
 20
-17.9897139856
 10
-9.3217443711
 20
-17.9694036079
 10
-9.3290447175
 20
-17.948459107
 10
-9.3377847259
 20
-17.9265155819
 10
-9.3477581085
 20
-17.9039379336
 10
-9.3586080618
 20
-17.8819053342
 10
-9.3703106049
 20
-17.8606827049
 10
-9.3828897187
 20
-17.8400051245
 10
-9.3960605432
 20
-17.8202570013
 10
-9.4096892348
 20
-17.8016009651
 10
-9.4239096371
 20
-17.7838743862
 10
-9.4388384209
 20
-17.7669737832
 10
-9.4544485828
 20
-17.7508086276
 10
-9.4707671263
 20
-17.735469448
 10
-9.4879917316
 20
-17.7211243486
 10
-9.5061882925
 20
-17.7078293641
 10
-9.5252909154
 20
-17.6955284597
 10
-9.5452996002
 20
-17.6842216354
  0
LINE
  5
34F
100
AcDbEntity
  8
DRAFT
100
AcDbLine
 62
250
  6
CONTINUOUS
 10
-10.6346989143
 20
-10.5504834072
 11
-10.6346989143
 21
-11.3295132306
  0
LINE
  5
350
100
AcDbEntity
  8
SUPERFICI
100
AcDbLine
 62
7
  6
CONTINUOUS
 10
-10.42256688
 20
-12.8089757137
 11
-10.42256688
 21
-13.5354383332
  0
LINE
  5
351
100
AcDbEntity
  8
0
100
AcDbLine
 62
7
  6
CONTINUOUS
 10
-9.5317501768
 20
-11.6328473912
 11
-9.5317501768
 21
-12.2801644202
  0
LINE
  5
352
100
AcDbEntity
  8
0
100
AcDbLine
 62
250
  6
CONTINUOUS
 10
-9.2980006141
 20
-22.4260214712
 11
-9.2980006141
 21
-18.111118754
  0
LINE
  5
353
100
AcDbEntity
  8
0
100
AcDbLine
 62
250
  6
CONTINUOUS
 10
-9.2980006141
 20
-51.6775695932
 11
-9.2980006141
 21
-55.9924723104
  0
LINE
  5
354
100
AcDbEntity
  8
0
100
AcDbLine
 62
250
  6
CONTINUOUS
 10
-9.0877358413
 20
-23.0825383316
 11
-9.0877358413
 21
-18.1120362304
  0
LINE
  5
355
100
AcDbEntity
  8
0
100
AcDbLine
 62
250
  6
CONTINUOUS
 10
-9.0877358413
 20
-51.0228876856
 11
-9.0877358413
 21
-55.9933897868
  0
LINE
  5
356
100
AcDbEntity
  8
0
100
AcDbLine
 62
7
  6
CONTINUOUS
 10
-9.0083533176
 20
-11.7745331941
 11
-9.0083533176
 21
-12.2911077764
  0
LINE
  5
357
100
AcDbEntity
  8
0
100
AcDbLine
 62
7
  6
CONTINUOUS
 10
-8.9475296213
 20
-11.7580679554
 11
-8.9475296213
 21
-12.2872100188
  0
LINE
  5
358
100
AcDbEntity
  8
SUPERFICI
100
AcDbLine
 62
7
  6
CONTINUOUS
 10
-8.6901552661
 20
-50.8207777975
 11
-8.6901552661
 21
-22.9007091212
  0
LINE
  5
359
100
AcDbEntity
  8
0
100
AcDbLine
 62
7
  6
CONTINUOUS
 10
-8.6901552661
 20
-17.8949853082
 11
-8.6901552661
 21
-55.8265016105
  0
LINE
  5
35A
100
AcDbEntity
  8
0
100
AcDbLine
 62
7
  6
CONTINUOUS
 10
-8.2733533176
 20
-12.1420331941
 11
-8.2733533176
 21
-12.2155906138
  0
LWPOLYLINE
  5
35B
100
AcDbEntity
  8
0
100
AcDbPolyline
 62
250
  6
CONTINUOUS
 90
21
 70
0
 10
-9.2980006141
 20
-55.9924723104
 10
-9.298277339
 20
-56.008069036
 10
-9.2992989997
 20
-56.0234294979
 10
-9.301065596
 20
-56.0385536961
 10
-9.3035013419
 20
-56.0534312865
 10
-9.3066820234
 20
-56.0680726131
 10
-9.3108349988
 20
-56.0825087086
 10
-9.315962435
 20
-56.0968904466
 10
-9.3220621651
 20
-56.1110669533
 10
-9.3293550467
 20
-56.1246166409
 10
-9.3379305243
 20
-56.1376118738
 10
-9.3476991534
 20
-56.1499802875
 10
-9.3586134577
 20
-56.1610832
 10
-9.3708739217
 20
-56.1708492091
 10
-9.3842800609
 20
-56.179349717
 10
-9.3981829461
 20
-56.1861602477
 10
-9.4123715981
 20
-56.1910936849
 10
-9.4270569961
 20
-56.1943371448
 10
-9.4422231486
 20
-56.1960275004
 10
-9.4577900707
 20
-56.1962754776
 10
-9.4738377473
 20
-56.1949703504
  0
LWPOLYLINE
  5
35C
100
AcDbEntity
  8
0
100
AcDbPolyline
 62
250
  6
CONTINUOUS
 90
3
 70
0
 10
-9.0877358413
 20
-55.9933897868
 10
-9.0884900156
 20
-56.0156289955
 10
-9.0902223864
 20
-56.0377241759
  0
LWPOLYLINE
  5
35D
100
AcDbEntity
  8
RACCORDO
100
AcDbPolyline
 62
250
  6
CONTINUOUS
 90
10
 70
0
 10
-10.0963815147
 20
-23.3549129831
 10
-10.0889987909
 20
-23.2194962916
 10
-10.0887307905
 20
-23.0863941981
 10
-10.0955775133
 20
-22.9556067024
 10
-10.1101934726
 20
-22.8265466763
 10
-10.1319241553
 20
-22.6998012481
 10
-10.1588060221
 20
-22.5771318031
 10
-10.1901845599
 20
-22.45912547
 10
-10.2267142819
 20
-22.3451951202
 10
-10.268395188
 20
-22.2353407536
  0
LWPOLYLINE
  5
35E
100
AcDbEntity
  8
RACCORDO
100
AcDbPolyline
 62
250
  6
CONTINUOUS
 90
10
 70
0
 10
-9.7472578935
 20
-23.3834864307
 10
-9.7389306071
 20
-23.2306034377
 10
-9.7403699051
 20
-23.0782915771
 10
-9.7507206195
 20
-22.9278045443
 10
-9.7690597331
 20
-22.7804673099
 10
-9.794541206
 20
-22.6370058078
 10
-9.8265250865
 20
-22.4975457771
 10
-9.8643485449
 20
-22.3625394927
 10
-9.9072176601
 20
-22.2327761624
 10
-9.9544258503
 20
-22.108711293
  0
LWPOLYLINE
  5
35F
100
AcDbEntity
  8
0
100
AcDbPolyline
 62
250
  6
CONTINUOUS
 90
10
 70
0
 10
-9.5452996002
 20
-17.6842216354
 10
-9.5437936034
 20
-17.6616557227
 10
-9.5393183792
 20
-17.6382246253
 10
-9.5320010121
 20
-17.6145937241
 10
-9.5220492961
 20
-17.5914340742
 10
-9.5097458333
 20
-17.5694033481
 10
-9.4954400095
 20
-17.5491271602
 10
-9.479538072
 20
-17.5311813005
 10
-9.4624915937
 20
-17.5160753838
 10
-9.4447846495
 20
-17.5042383781
  0
LINE
  5
360
100
AcDbEntity
  8
RACCORDO
100
AcDbLine
 62
7
  6
CONTINUOUS
 10
-10.317488607
 20
-19.3198335462
 11
-12.9490290396
 21
-57.4742696979
  0
LINE
  5
361
100
AcDbEntity
  8
RACCORDO
100
AcDbLine
 62
250
  6
CONTINUOUS
 10
-11.5097105231
 20
-37.8930766274
 11
-10.0963815147
 21
-23.3549129831
  0
LINE
  5
362
100
AcDbEntity
  8
RACCORDO
100
AcDbLine
 62
250
  6
CONTINUOUS
 10
-11.1605869018
 20
-37.921650075
 11
-9.7472578935
 21
-23.3834864307
  0
LINE
  5
363
100
AcDbEntity
  8
RACCORDO
100
AcDbLine
 62
250
  6
CONTINUOUS
 10
-5.93917141
 20
-14.359669652
 11
-5.9527820363
 21
-14.3999667864
  0
LINE
  5
364
100
AcDbEntity
  8
RACCORDO
100
AcDbLine
 62
7
  6
CONTINUOUS
 10
5.8378561459
 20
-22.0651804815
 11
6.7756916327
 21
-21.6000071663
  0
LINE
  5
365
100
AcDbEntity
  8
RACCORDO
100
AcDbLine
 62
250
  6
CONTINUOUS
 10
5.8378561459
 20
-22.2271859684
 11
9.1652295286
 21
-20.5767842408
  0
LINE
  5
366
100
AcDbEntity
  8
RACCORDO
100
AcDbLine
 62
250
  6
CONTINUOUS
 10
5.6975260461
 20
-23.0818256349
 11
9.5187290713
 21
-21.1864807641
  0
LWPOLYLINE
  5
367
100
AcDbEntity
  8
RACCORDO
100
AcDbPolyline
 62
250
  6
CONTINUOUS
 90
5
 70
0
 10
9.1652295286
 20
-20.5767842408
 10
9.2237877151
 20
-20.5547579679
 10
9.2812028132
 20
-20.5453930295
 10
9.3357537664
 20
-20.5494108383
 10
9.3819117067
 20
-20.5652275604
  0
LINE
  5
368
100
AcDbEntity
  8
RACCORDO
100
AcDbLine
 62
250
  6
CONTINUOUS
 10
-46.2259126888
 20
-6.383368281
 11
-15.7704889136
 21
-21.6110801686
  0
LWPOLYLINE
  5
369
100
AcDbEntity
  8
RACCORDO
100
AcDbPolyline
 62
250
  6
CONTINUOUS
 90
8
 70
0
 10
-46.225912683
 20
-6.383368279
 10
-46.2686219295
 20
-6.3595896122
 10
-46.3047494688
 20
-6.3342055517
 10
-46.3336907784
 20
-6.3076408493
 10
-46.354961583
 20
-6.2803400125
 10
-46.368205958
 20
-6.2527598664
 10
-46.3732022851
 20
-6.22536191
 10
-46.3728330072
 20
-6.2141902799
  0
LWPOLYLINE
  5
36A
100
AcDbEntity
  8
DRAFT
100
AcDbPolyline
 62
7
  6
CONTINUOUS
 90
10
 70
0
 10
-26.4964029781
 20
-5.2396552183
 10
-26.5509088029
 20
-5.1668790554
 10
-26.6055376969
 20
-5.0942664165
 10
-26.66028966
 20
-5.0218173014
 10
-26.7151653102
 20
-4.9495308996
 10
-26.7701640295
 20
-4.8774080217
 10
-26.8252839637
 20
-4.8054510993
 10
-26.8805244945
 20
-4.7336609431
 10
-26.9358862401
 20
-4.6620367423
 10
-26.9913692005
 20
-4.5905784971
  0
LWPOLYLINE
  5
36B
100
AcDbEntity
  8
0
100
AcDbPolyline
 62
7
  6
CONTINUOUS
 90
6
 70
0
 10
-13.0697371268
 20
-15.7902190312
 10
-13.0834251038
 20
-15.7612427766
 10
-13.096743774
 20
-15.7333266913
 10
-13.1097564637
 20
-15.7066944159
 10
-13.1228621172
 20
-15.6816713641
 10
-13.1363200497
 20
-15.658470678
  0
LWPOLYLINE
  5
36C
100
AcDbEntity
  8
RACCORDO
100
AcDbPolyline
 62
250
  6
CONTINUOUS
 90
3
 70
0
 10
-9.9544259687
 20
-22.1087113466
 10
-10.2487820217
 20
-21.389970111
 10
-10.4311218346
 20
-20.9673901156
  0
LINE
  5
36D
100
AcDbEntity
  8
RACCORDO
100
AcDbLine
 62
250
  6
CONTINUOUS
 10
-10.268395188
 20
-22.2353407536
 11
-10.482467949
 21
-21.7118521881
  0
LWPOLYLINE
  5
36E
100
AcDbEntity
  8
0
100
AcDbPolyline
 62
7
  6
CONTINUOUS
 90
10
 70
0
 10
-9.0877358413
 20
-23.0825383316
 10
-9.1072779534
 20
-23.0092092955
 10
-9.1291998179
 20
-22.9361929049
 10
-9.1528797172
 20
-22.863316626
 10
-9.1774157448
 20
-22.7903875821
 10
-9.2023404897
 20
-22.7174595616
 10
-9.2276456865
 20
-22.6446397736
 10
-9.2527523433
 20
-22.5718302392
 10
-9.2765250646
 20
-22.4989386051
 10
-9.2980006141
 20
-22.4260214712
  0
LINE
  5
36F
100
AcDbEntity
  8
RACCORDO
100
AcDbLine
 62
7
  6
CONTINUOUS
 10
-7.6414437742
 20
-11.812131813
 11
-7.6814998023
 21
-11.2831623092
  0
LINE
  5
370
100
AcDbEntity
  8
RACCORDO
100
AcDbLine
 62
7
  6
CONTINUOUS
 10
-7.1381614465
 20
-8.0582478175
 11
-7.1381614465
 21
-8.7896701474
  0
LWPOLYLINE
  5
371
100
AcDbEntity
  8
0
100
AcDbPolyline
 62
250
  6
CONTINUOUS
 90
13
 70
0
 10
-9.0902223864
 20
-56.0377241759
 10
-9.0929768
 20
-56.0595823419
 10
-9.0967576469
 20
-56.0809436287
 10
-9.1016246271
 20
-56.101878637
 10
-9.1077675856
 20
-56.1227255075
 10
-9.1153319507
 20
-56.1434254988
 10
-9.1243787461
 20
-56.1636456421
 10
-9.1350397829
 20
-56.1832217933
 10
-9.1474739562
 20
-56.2020113907
 10
-9.1616978445
 20
-56.2196357974
 10
-9.1775660045
 20
-56.235622669
 10
-9.1952128255
 20
-56.2498740328
 10
-9.2144906103
 20
-56.2620551563
  0
LWPOLYLINE
  5
372
100
AcDbEntity
  8
RACCORDO
100
AcDbPolyline
 62
250
  6
CONTINUOUS
 90
10
 70
0
 10
-1.3149546208
 20
-17.3021913937
 10
-1.3004680747
 20
-17.2532211045
 10
-1.2903140203
 20
-17.2070398536
 10
-1.2846419603
 20
-17.1643276047
 10
-1.2835354046
 20
-17.1257132517
 10
-1.2870106401
 20
-17.0917653336
 10
-1.2950165
 20
-17.0629836745
 10
-1.3074351141
 20
-17.0397920531
 10
-1.3240836352
 20
-17.0225319529
 10
-1.329668144
 20
-17.0186753898
  0
LWPOLYLINE
  5
373
100
AcDbEntity
  8
RACCORDO
100
AcDbPolyline
 62
250
  6
CONTINUOUS
 90
13
 70
0
 10
-15.0725088286
 20
-21.6705243566
 10
-15.1214646633
 20
-21.6840785197
 10
-15.1754135756
 20
-21.694407918
 10
-15.2334528376
 20
-21.7013397095
 10
-15.2946112777
 20
-21.7047579045
 10
-15.3578655309
 20
-21.7046053063
 10
-15.4221571631
 20
-21.7008844682
 10
-15.4864103817
 20
-21.6936576512
 10
-15.5495500368
 20
-21.6830457816
 10
-15.6105196119
 20
-21.6692264283
 10
-15.6682989023
 20
-21.6524308308
 10
-15.7219210865
 20
-21.6329400298
 10
-15.7704889038
 20
-21.6110801653
  0
LWPOLYLINE
  5
374
100
AcDbEntity
  8
RACCORDO
100
AcDbPolyline
 62
250
  6
CONTINUOUS
 90
10
 70
0
 10
-10.0963815147
 20
-23.3549129831
 10
-10.0634303665
 20
-23.3692609733
 10
-10.0262432762
 20
-23.3813615433
 10
-9.9859241174
 20
-23.3908546476
 10
-9.9436698429
 20
-23.3974576323
 10
-9.9007362186
 20
-23.4009734678
 10
-9.8584005433
 20
-23.4012969612
 10
-9.8179218065
 20
-23.3984180762
 10
-9.7805032621
 20
-23.3924219527
 10
-9.747257893
 20
-23.3834864156
  0
LINE
  5
375
100
AcDbEntity
  8
RACCORDO
100
AcDbLine
 62
250
  6
CONTINUOUS
 10
-45.4874944573
 20
-5.2549312965
 11
-15.0200617935
 21
-20.4886476284
  0
LWPOLYLINE
  5
376
100
AcDbEntity
  8
SUPERFICI
100
AcDbPolyline
 62
7
  6
CONTINUOUS
 90
10
 70
0
 10
-13.5850717868
 20
-14.20600298
 10
-13.6245083571
 20
-14.1565229401
 10
-13.665080695
 20
-14.109855328
 10
-13.7067888006
 20
-14.0660001435
 10
-13.7498182041
 20
-14.0247961101
 10
-13.7939833753
 20
-13.9864045043
 10
-13.838727723
 20
-13.9513091561
 10
-13.8838657167
 20
-13.9196713421
 10
-13.9295828869
 20
-13.8913297856
 10
-13.9758792336
 20
-13.8662844866
  0
LWPOLYLINE
  5
377
100
AcDbEntity
  8
ASSI
100
AcDbPolyline
 62
7
  6
CONTINUOUS
 90
10
 70
0
 10
-17.9886094387
 20
-12.8125473283
 10
-18.0326698668
 20
-12.7564462322
 10
-18.078270307
 20
-12.7080928507
 10
-18.125410759
 20
-12.6674871837
 10
-18.1751178977
 20
-12.6341158939
 10
-18.2263650484
 20
-12.6084923185
 10
-18.2760721871
 20
-12.5921564697
 10
-18.3232126391
 20
-12.5856216846
 10
-18.3688130793
 20
-12.588374626
 10
-18.4128735074
 20
-12.6004152939
  0
LWPOLYLINE
  5
378
100
AcDbEntity
  8
ASSI
100
AcDbPolyline
 62
7
  6
CONTINUOUS
 90
10
 70
0
 10
-14.7359182452
 20
-14.438892925
 10
-14.7799786734
 20
-14.382791829
 10
-14.8255791135
 20
-14.3344384474
 10
-14.8727195656
 20
-14.2938327804
 10
-14.9224267043
 20
-14.2604614906
 10
-14.9736738549
 20
-14.2348379153
 10
-15.0233809936
 20
-14.2185020664
 10
-15.0705214457
 20
-14.2119672814
 10
-15.1161218858
 20
-14.2147202228
 10
-15.1601823139
 20
-14.2267608906
  0
LINE
  5
379
100
AcDbEntity
  8
SUPERFICI
100
AcDbLine
 62
7
  6
CONTINUOUS
 10
-13.5040158372
 20
-14.312733171
 11
-13.5850717868
 21
-14.20600298
  0
LINE
  5
37A
100
AcDbEntity
  8
SUPERFICI
100
AcDbLine
 62
7
  6
CONTINUOUS
 10
-13.4232263507
 20
-14.4198182452
 11
-13.5040158372
 21
-14.312733171
  0
LWPOLYLINE
  5
37B
100
AcDbEntity
  8
RACCORDO
100
AcDbPolyline
 62
250
  6
CONTINUOUS
 90
13
 70
0
 10
-13.0402191293
 20
-15.9326679054
 10
-13.053576104
 20
-15.9142686236
 10
-13.0678401068
 20
-15.8959120438
 10
-13.0830146914
 20
-15.8776911929
 10
-13.0990727355
 20
-15.8597184078
 10
-13.1160277848
 20
-15.8420876189
 10
-13.1339370121
 20
-15.8248823264
 10
-13.1527697672
 20
-15.808235103
 10
-13.1724993752
 20
-15.7922802671
 10
-13.1931799109
 20
-15.7771345287
 10
-13.2147897253
 20
-15.7629549849
 10
-13.237227485
 20
-15.7499251981
 10
-13.2604096633
 20
-15.7382244313
  0
LINE
  5
37C
100
AcDbEntity
  8
SUPERFICI
100
AcDbLine
 62
7
  6
CONTINUOUS
 10
-12.6538404734
 20
-15.4799318109
 11
-12.9022048101
 21
-15.1278406625
  0
LWPOLYLINE
  5
37D
100
AcDbEntity
  8
0
100
AcDbPolyline
 62
7
  6
CONTINUOUS
 90
7
 70
0
 10
-12.5505384526
 20
-16.5945499356
 10
-12.9841203034
 20
-15.9588275234
 10
-12.9899841889
 20
-15.9497794113
 10
-12.9955759251
 20
-15.9407348624
 10
-13.0008954472
 20
-15.931693808
 10
-13.0059426912
 20
-15.9226561797
 10
-13.0107175941
 20
-15.9136219103
  0
LWPOLYLINE
  5
37E
100
AcDbEntity
  8
0
100
AcDbPolyline
 62
7
  6
CONTINUOUS
 90
4
 70
0
 10
-12.5505384526
 20
-16.5945499356
 10
-12.1330965199
 20
-17.2297914567
 10
-11.7256585359
 20
-17.8736038318
 10
-11.4803580909
 20
-18.2762724258
  0
LWPOLYLINE
  5
37F
100
AcDbEntity
  8
RACCORDO
100
AcDbPolyline
 62
250
  6
CONTINUOUS
 90
13
 70
0
 10
-13.3229310342
 20
-16.1124908301
 10
-13.3290046204
 20
-16.1028097652
 10
-13.3355385043
 20
-16.0932539002
 10
-13.342532686
 20
-16.0838232352
 10
-13.349981684
 20
-16.0744604242
 10
-13.3578909797
 20
-16.0652228132
 10
-13.3662770182
 20
-16.0562824405
 10
-13.375146052
 20
-16.0476253216
 10
-13.3844918286
 20
-16.0392654411
 10
-13.3943120344
 20
-16.0314167901
 10
-13.4046058985
 20
-16.0241506993
 10
-13.4153741918
 20
-16.0173958382
 10
-13.4266169145
 20
-16.0111522066
  0
LWPOLYLINE
  5
380
100
AcDbEntity
  8
RACCORDO
100
AcDbPolyline
 62
250
  6
CONTINUOUS
 90
4
 70
0
 10
-12.318862835
 20
-17.8570200537
 10
-12.5634543972
 20
-17.410056559
 10
-12.9375514701
 20
-16.7565337396
 10
-13.3229310342
 20
-16.1124908301
  0
LWPOLYLINE
  5
381
100
AcDbEntity
  8
0
100
AcDbPolyline
 62
7
  6
CONTINUOUS
 90
4
 70
0
 10
-10.3780932575
 20
-20.1985341878
 10
-10.1977578017
 20
-20.5314825171
 10
-9.843057133
 20
-21.2135301301
 10
-9.4992662702
 20
-21.9026089197
  0
LWPOLYLINE
  5
382
100
AcDbEntity
  8
RACCORDO
100
AcDbPolyline
 62
250
  6
CONTINUOUS
 90
5
 70
0
 10
-11.7983081316
 20
-18.1172974054
 10
-11.906609016
 20
-17.9104379011
 10
-12.2735070055
 20
-17.2410212047
 10
-12.6514863623
 20
-16.5816047112
 10
-13.0402193391
 20
-15.9326680408
  0
LWPOLYLINE
  5
383
100
AcDbEntity
  8
0
100
AcDbPolyline
 62
7
  6
CONTINUOUS
 90
4
 70
0
 10
-13.0107176056
 20
-15.9136218897
 10
-13.0267069743
 20
-15.8823489314
 10
-13.0416706045
 20
-15.8510821001
 10
-13.0697371268
 20
-15.7902190312
  0
LWPOLYLINE
  5
384
100
AcDbEntity
  8
0
100
AcDbPolyline
 62
7
  6
CONTINUOUS
 90
7
 70
0
 10
-9.4992662702
 20
-21.9026089197
 10
-9.4581435734
 20
-21.9904103949
 10
-9.420052245
 20
-22.0779854502
 10
-9.3849922848
 20
-22.1653340854
 10
-9.3529636929
 20
-22.2524563007
 10
-9.3239664693
 20
-22.3393520959
 10
-9.2980006141
 20
-22.4260214712
  0
LWPOLYLINE
  5
385
100
AcDbEntity
  8
0
100
AcDbPolyline
 62
250
  6
CONTINUOUS
 90
14
 70
0
 10
-9.1472058424
 20
-17.8497610493
 10
-9.1617074569
 20
-17.8177415911
 10
-9.1775581612
 20
-17.7863574369
 10
-9.1944886318
 20
-17.7560814763
 10
-9.2125643595
 20
-17.7267172038
 10
-9.2315759851
 20
-17.6985691493
 10
-9.2512217583
 20
-17.671987104
 10
-9.2715610221
 20
-17.6468041485
 10
-9.292955915
 20
-17.6225969448
 10
-9.3153160194
 20
-17.5995422606
 10
-9.3385753125
 20
-17.5777981717
 10
-9.3631976597
 20
-17.557110161
 10
-9.389283135
 20
-17.5376559618
 10
-9.4165290198
 20
-17.5199179657
  0
LINE
  5
386
100
AcDbEntity
  8
0
100
AcDbLine
 62
7
  6
CONTINUOUS
 10
-10.0372197589
 20
-11.8750873469
 11
-10.2387191169
 21
-11.2793629211
  0
LWPOLYLINE
  5
387
100
AcDbEntity
  8
RACCORDO
100
AcDbPolyline
 62
7
  6
CONTINUOUS
 90
12
 70
0
 10
-7.6814998023
 20
-11.2831623092
 10
-7.6829577759
 20
-11.2700002471
 10
-7.6853639471
 20
-11.2575617187
 10
-7.6887183159
 20
-11.2458467238
 10
-7.693068678
 20
-11.234735838
 10
-7.6983672377
 20
-11.2243484858
 10
-7.7044706078
 20
-11.2150429411
 10
-7.7113773739
 20
-11.2069030683
 10
-7.7190889503
 20
-11.199845003
 10
-7.7274661935
 20
-11.1939754255
 10
-7.7365050762
 20
-11.1893011748
 10
-7.7437659299
 20
-11.1865585077
  0
LINE
  5
388
100
AcDbEntity
  8
0
100
AcDbLine
 62
250
  6
CONTINUOUS
 10
-4.2690233473
 20
-13.7213939868
 11
-4.2690233473
 21
-14.4664445242
  0
LINE
  5
389
100
AcDbEntity
  8
DRAFT
100
AcDbLine
 62
250
  6
CONTINUOUS
 10
-3.5636311025
 20
-14.0860173132
 11
-3.5636311025
 21
-14.8650471366
  0
LINE
  5
38A
100
AcDbEntity
  8
0
100
AcDbLine
 62
7
  6
CONTINUOUS
 10
-2.7052159833
 20
-15.7079789483
 11
-2.7052159833
 21
-15.8200257093
  0
LINE
  5
38B
100
AcDbEntity
  8
0
100
AcDbLine
 62
7
  6
CONTINUOUS
 10
-2.6722855058
 20
-15.6775671001
 11
-2.6722855058
 21
-15.8224918868
  0
LINE
  5
38C
100
AcDbEntity
  8
0
100
AcDbLine
 62
7
  6
CONTINUOUS
 10
-2.4606823649
 20
-15.1683812971
 11
-2.4606823649
 21
-15.8336131301
  0
LINE
  5
38D
100
AcDbEntity
  8
0
100
AcDbLine
 62
7
  6
CONTINUOUS
 10
-1.9372855058
 20
-15.3100671001
 11
-1.9372855058
 21
-15.8266443488
  0
LINE
  5
38E
100
AcDbEntity
  8
0
100
AcDbLine
 62
7
  6
CONTINUOUS
 10
-1.8764618094
 20
-15.2936018613
 11
-1.8764618094
 21
-15.8227465034
  0
LINE
  5
38F
100
AcDbEntity
  8
0
100
AcDbLine
 62
7
  6
CONTINUOUS
 10
-1.2022855058
 20
-15.6775671001
 11
-1.2022855058
 21
-15.751125207
  0
LINE
  5
390
100
AcDbEntity
  8
0
100
AcDbLine
 62
7
  6
CONTINUOUS
 10
-1.8764618094
 20
-15.2936018613
 11
-1.9372855058
 21
-15.3100671001
  0
LWPOLYLINE
  5
391
100
AcDbEntity
  8
RACCORDO
100
AcDbPolyline
 62
250
  6
CONTINUOUS
 90
4
 70
0
 10
-1.0012231482
 20
-17.1117687982
 10
-0.9818290418
 20
-17.1077530965
 10
-0.9629984586
 20
-17.1019748682
 10
-0.9447657191
 20
-17.0943638347
  0
LWPOLYLINE
  5
392
100
AcDbEntity
  8
RACCORDO
100
AcDbPolyline
 62
250
  6
CONTINUOUS
 90
6
 70
0
 10
-45.4874944573
 20
-5.2549312965
 10
-45.5346108915
 20
-5.2359964103
 10
-45.5812905604
 20
-5.2249610401
 10
-45.626735207
 20
-5.2220138306
 10
-45.6701677223
 20
-5.227205114
 10
-45.7110420997
 20
-5.2405327899
  0
LWPOLYLINE
  5
393
100
AcDbEntity
  8
0
100
AcDbPolyline
 62
250
  6
CONTINUOUS
 90
10
 70
0
 10
-9.2980006141
 20
-18.111118754
 10
-9.2782091818
 20
-18.11943861
 10
-9.2558541261
 20
-18.1259353839
 10
-9.2315997206
 20
-18.130416026
 10
-9.2061666779
 20
-18.1327473954
 10
-9.1803107332
 20
-18.132860216
 10
-9.1548001881
 20
-18.1307511356
 10
-9.1303930811
 20
-18.1264828247
 10
-9.1078146618
 20
-18.1201821151
 10
-9.0877358413
 20
-18.1120362304
  0
LWPOLYLINE
  5
394
100
AcDbEntity
  8
RACCORDO
100
AcDbPolyline
 62
250
  6
CONTINUOUS
 90
8
 70
0
 10
-29.7265820064
 20
-8.681149677
 10
-29.7635428916
 20
-8.6650419016
 10
-29.800089627
 20
-8.6538581647
 10
-29.8358223574
 20
-8.647717218
 10
-29.8703431597
 20
-8.6466821356
 10
-29.9032835099
 20
-8.6507584736
 10
-29.9343044948
 20
-8.65990557
 10
-29.9501825775
 20
-8.6669456702
  0
LWPOLYLINE
  5
395
100
AcDbEntity
  8
0
100
AcDbPolyline
 62
250
  6
CONTINUOUS
 90
16
 70
0
 10
-24.5934416461
 20
-10.1601506125
 10
-24.6096308946
 20
-10.1525714928
 10
-24.6259401884
 20
-10.1464135037
 10
-24.6423695276
 20
-10.1416766451
 10
-24.658926078
 20
-10.1382089611
 10
-24.6756026737
 20
-10.1361624077
 10
-24.6923778169
 20
-10.1359928523
 10
-24.7095982504
 20
-10.1378154734
 10
-24.7269172314
 20
-10.1415150924
 10
-24.7432730338
 20
-10.1472020414
 10
-24.7584750675
 20
-10.1551389478
 10
-24.7727139226
 20
-10.165063184
 10
-24.7854996433
 20
-10.1762971996
 10
-24.79657062
 20
-10.188612112
 10
-24.8061884622
 20
-10.2022368038
 10
-24.8146480437
 20
-10.2171803712
  0
LWPOLYLINE
  5
396
100
AcDbEntity
  8
RACCORDO
100
AcDbPolyline
 62
250
  6
CONTINUOUS
 90
13
 70
0
 10
-21.1100009538
 20
-12.169460187
 10
-21.1181621589
 20
-12.1655497251
 10
-21.1265848058
 20
-12.1621407996
 10
-21.1352688943
 20
-12.1592334107
 10
-21.1442333955
 20
-12.1567655024
 10
-21.1534593384
 20
-12.1547991307
 10
-21.16288981
 20
-12.1535204631
 10
-21.1725409194
 20
-12.1529196892
 10
-21.1823965576
 20
-12.1530066196
 10
-21.1923514844
 20
-12.1539968528
 10
-21.2023706199
 20
-12.1559622552
 10
-21.2124890441
 20
-12.1588309606
 10
-21.2227067569
 20
-12.1626029688
  0
LINE
  5
397
100
AcDbEntity
  8
RACCORDO
100
AcDbLine
 62
7
  6
CONTINUOUS
 10
-10.640123619
 20
-18.6963896617
 11
-41.2580626237
 21
-3.3874201594
  0
LINE
  5
398
100
AcDbEntity
  8
DRAFT
100
AcDbLine
 62
7
  6
CONTINUOUS
 10
-31.0038248392
 20
-8.3269557672
 11
-35.5538616051
 21
-6.0519373842
  0
LINE
  5
399
100
AcDbEntity
  8
RACCORDO
100
AcDbLine
 62
250
  6
CONTINUOUS
 10
-13.4266169145
 20
-16.0111522066
 11
-21.1100009538
 21
-12.169460187
  0
LINE
  5
39A
100
AcDbEntity
  8
RACCORDO
100
AcDbLine
 62
250
  6
CONTINUOUS
 10
-30.9013973136
 20
-7.2340833006
 11
-29.346465875
 21
-8.0115490199
  0
LINE
  5
39B
100
AcDbEntity
  8
RACCORDO
100
AcDbLine
 62
250
  6
CONTINUOUS
 10
-35.4477947974
 20
-4.9608845587
 11
-37.002726236
 21
-4.1834188394
  0
LINE
  5
39C
100
AcDbEntity
  8
0
100
AcDbLine
 62
250
  6
CONTINUOUS
 10
-40.5033442228
 20
-2.2051993241
 11
-37.0564540751
 21
-3.9286443979
  0
LINE
  5
39D
100
AcDbEntity
  8
0
100
AcDbLine
 62
250
  6
CONTINUOUS
 10
-28.9020923246
 20
-8.0058252732
 11
-25.4552021769
 21
-9.7292703471
  0
LINE
  5
39E
100
AcDbEntity
  8
0
100
AcDbLine
 62
250
  6
CONTINUOUS
 10
-9.5452996002
 20
-17.6842216354
 11
-12.9779843341
 21
-15.9678792685
  0
LINE
  5
39F
100
AcDbEntity
  8
0
100
AcDbLine
 62
250
  6
CONTINUOUS
 10
-21.1607569122
 20
-11.8764929794
 11
-24.5934416461
 21
-10.1601506125
  0
LINE
  5
3A0
100
AcDbEntity
  8
RACCORDO
100
AcDbLine
 62
250
  6
CONTINUOUS
 10
-30.7707524393
 20
-7.014580617
 11
-29.2135000741
 21
-7.7932067996
  0
LINE
  5
3A1
100
AcDbEntity
  8
RACCORDO
100
AcDbLine
 62
250
  6
CONTINUOUS
 10
-35.3125080697
 20
-4.7437028018
 11
-36.8697604349
 21
-3.9650766192
  0
LINE
  5
3A2
100
AcDbEntity
  8
RACCORDO
100
AcDbLine
 62
250
  6
CONTINUOUS
 10
-13.2604096633
 20
-15.7382244313
 11
-20.9437937026
 21
-11.8965324117
  0
LINE
  5
3A3
100
AcDbEntity
  8
0
100
AcDbLine
 62
250
  6
CONTINUOUS
 10
-40.402829272
 20
-2.0252160668
 11
-36.7003761465
 21
-3.8764426296
  0
LINE
  5
3A4
100
AcDbEntity
  8
0
100
AcDbLine
 62
250
  6
CONTINUOUS
 10
-29.0571403517
 20
-7.698060527
 11
-25.3546872262
 21
-9.5492870898
  0
LINE
  5
3A5
100
AcDbEntity
  8
0
100
AcDbLine
 62
250
  6
CONTINUOUS
 10
-9.4447846495
 20
-17.5042383781
 11
-13.1363200497
 21
-15.658470678
  0
LINE
  5
3A6
100
AcDbEntity
  8
0
100
AcDbLine
 62
250
  6
CONTINUOUS
 10
-20.8013912951
 20
-11.8259350553
 11
-24.4929266953
 21
-9.9801673552
  0
LINE
  5
3A7
100
AcDbEntity
  8
0
100
AcDbLine
 62
7
  6
CONTINUOUS
 10
-40.0152547973
 20
-1.799224649
 11
-36.2905121003
 21
-3.6615959975
  0
LINE
  5
3A8
100
AcDbEntity
  8
0
100
AcDbLine
 62
7
  6
CONTINUOUS
 10
-28.6780848057
 20
-7.4678096448
 11
-24.9533421087
 21
-9.3301809933
  0
LINE
  5
3A9
100
AcDbEntity
  8
0
100
AcDbLine
 62
7
  6
CONTINUOUS
 10
-24.1053522206
 20
-9.7541759373
 11
-18.9078482542
 21
-12.3529279205
  0
LINE
  5
3AA
100
AcDbEntity
  8
ASSI
100
AcDbLine
 62
7
  6
CONTINUOUS
 10
-18.4128735074
 20
-12.6004152939
 11
-17.9886094387
 21
-12.8125473283
  0
LINE
  5
3AB
100
AcDbEntity
  8
ASSI
100
AcDbLine
 62
7
  6
CONTINUOUS
 10
-15.1601823139
 20
-14.2267608906
 11
-14.7359182452
 21
-14.438892925
  0
LINE
  5
3AC
100
AcDbEntity
  8
0
100
AcDbLine
 62
7
  6
CONTINUOUS
 10
-14.2409434984
 20
-14.6863802984
 11
-9.043439532
 21
-17.2851322816
  0
LINE
  5
3AD
100
AcDbEntity
  8
0
100
AcDbLine
 62
7
  6
CONTINUOUS
 10
-28.6784904234
 20
-7.4676068359
 11
-30.2231489006
 21
-6.6952775973
  0
LINE
  5
3AE
100
AcDbEntity
  8
0
100
AcDbLine
 62
7
  6
CONTINUOUS
 10
-34.7454480054
 20
-4.4341280449
 11
-36.2901064827
 21
-3.6617988063
  0
LWPOLYLINE
  5
3AF
100
AcDbEntity
  8
RACCORDO
100
AcDbPolyline
 62
250
  6
CONTINUOUS
 90
13
 70
0
 10
-20.9437937026
 20
-11.8965324117
 10
-20.9593982176
 20
-11.8886015631
 10
-20.9755257736
 20
-11.8813952786
 10
-20.9921332077
 20
-11.8750233043
 10
-21.0091480131
 20
-11.8696020586
 10
-21.0265359895
 20
-11.86524286
 10
-21.044298488
 20
-11.8620637316
 10
-21.0623594888
 20
-11.8601981664
 10
-21.0806351154
 20
-11.8597797577
 10
-21.0990951432
 20
-11.8609537849
 10
-21.1176516549
 20
-11.8638736588
 10
-21.1361635314
 20
-11.8686839464
 10
-21.1545006777
 20
-11.8755272432
  0
LWPOLYLINE
  5
3B0
100
AcDbEntity
  8
SUPERFICI
100
AcDbPolyline
 62
7
  6
CONTINUOUS
 90
6
 70
0
 10
-20.0651950003
 20
-11.6007190079
 10
-20.1034968492
 20
-11.580281156
 10
-20.140944592
 20
-11.5554765643
 10
-20.177012815
 20
-11.526567648
 10
-20.2122269318
 20
-11.493291992
 10
-20.2465869425
 20
-11.4556495963
  0
LWPOLYLINE
  5
3B1
100
AcDbEntity
  8
RACCORDO
100
AcDbPolyline
 62
250
  6
CONTINUOUS
 90
7
 70
0
 10
-29.213500074
 20
-7.7932067997
 10
-29.1747427277
 20
-7.8146429826
 10
-29.1365816172
 20
-7.8410511647
 10
-29.0994843917
 20
-7.8721394157
 10
-29.0639118922
 20
-7.9075623519
 10
-29.0303126756
 20
-7.9469249941
 10
-28.9991176557
 20
-7.989787234
  0
LINE
  5
3B2
100
AcDbEntity
  8
0
100
AcDbLine
 62
250
  6
CONTINUOUS
 10
-9.4165290198
 20
-17.5199179657
 11
-9.4447846495
 21
-17.5042383781
  0
LWPOLYLINE
  5
3B3
100
AcDbEntity
  8
0
100
AcDbPolyline
 62
250
  6
CONTINUOUS
 90
19
 70
0
 10
-25.354687298
 20
-9.549287129
 10
-25.316292276
 20
-9.5712738553
 10
-25.2793003834
 20
-9.5973287881
 10
-25.2440913858
 20
-9.6267864746
 10
-25.2109019602
 20
-9.6590957505
 10
-25.180046913
 20
-9.69355434
 10
-25.1518873954
 20
-9.7292415996
 10
-25.1266110411
 20
-9.7653909068
 10
-25.1040931226
 20
-9.8016410557
 10
-25.0841295496
 20
-9.837733443
 10
-25.0668107861
 20
-9.8729593065
 10
-25.0518655796
 20
-9.9073346178
 10
-25.0386960821
 20
-9.9418451109
 10
-25.0273681878
 20
-9.9761725671
 10
-25.0178695886
 20
-10.0102506378
 10
-25.0098817931
 20
-10.0454921202
 10
-25.0035916969
 20
-10.0821828656
 10
-24.9994170475
 20
-10.1194946843
 10
-24.997638418
 20
-10.1570849421
  0
LWPOLYLINE
  5
3B4
100
AcDbEntity
  8
RACCORDO
100
AcDbPolyline
 62
250
  6
CONTINUOUS
 90
7
 70
0
 10
-29.346465875
 20
-8.0115490199
 10
-29.3231921456
 20
-8.025036462
 10
-29.3009798644
 20
-8.0411912697
 10
-29.2798290314
 20
-8.0600134429
 10
-29.2597396466
 20
-8.0815029818
 10
-29.2407117099
 20
-8.1056598863
 10
-29.2227452214
 20
-8.1324841564
  0
LWPOLYLINE
  5
3B5
100
AcDbEntity
  8
0
100
AcDbPolyline
 62
250
  6
CONTINUOUS
 90
19
 70
0
 10
-25.4552021769
 20
-9.7292703471
 10
-25.427852038
 20
-9.7453503177
 10
-25.4019753811
 20
-9.7633947679
 10
-25.3775722063
 20
-9.7834036977
 10
-25.3544901739
 20
-9.8058701243
 10
-25.3328816236
 20
-9.8303010304
 10
-25.3132035742
 20
-9.8552173645
 10
-25.2956676174
 20
-9.8803984934
 10
-25.2800621615
 20
-9.9060650503
 10
-25.266209451
 20
-9.9313998828
 10
-25.2541985709
 20
-9.9560293256
 10
-25.2439404363
 20
-9.980327044
 10
-25.2349900361
 20
-10.0045968817
 10
-25.2271974351
 20
-10.0287205134
 10
-25.2207125686
 20
-10.0528162643
 10
-25.2155402314
 20
-10.0775429531
 10
-25.2116820219
 20
-10.1031201861
 10
-25.2091363416
 20
-10.1293283569
 10
-25.2079031907
 20
-10.1561674656
  0
LWPOLYLINE
  5
3B6
100
AcDbEntity
  8
0
100
AcDbPolyline
 62
250
  6
CONTINUOUS
 90
6
 70
0
 10
-24.8407406322
 20
-10.3397487449
 10
-24.8573803441
 20
-10.3298530289
 10
-24.8703738919
 20
-10.3186755011
 10
-24.8793351761
 20
-10.3065482985
 10
-24.8839979148
 20
-10.2938317771
 10
-24.8846746151
 20
-10.2867157363
  0
LINE
  5
3B7
100
AcDbEntity
  8
DRAFT
100
AcDbLine
 62
7
  6
CONTINUOUS
 10
-25.4224271047
 20
-5.1243442398
 11
-26.041257068
 21
-4.6460772291
  0
LWPOLYLINE
  5
3B8
100
AcDbEntity
  8
SUPERFICI
100
AcDbPolyline
 62
7
  6
CONTINUOUS
 90
3
 70
0
 10
-17.3665104953
 20
-10.0960993579
 10
-17.3297650354
 20
-10.1279130514
 10
-17.3253161772
 20
-10.1311714661
  0
LWPOLYLINE
  5
3B9
100
AcDbEntity
  8
SUPERFICI
100
AcDbPolyline
 62
7
  6
CONTINUOUS
 90
10
 70
0
 10
-10.4487869804
 20
-13.5023393211
 10
-10.4169618933
 20
-13.5425138027
 10
-10.3828529787
 20
-13.5798440328
 10
-10.3475895362
 20
-13.6130873509
 10
-10.3111256061
 20
-13.6421108583
 10
-10.273507148
 20
-13.6670474536
 10
-10.2360013413
 20
-13.687053172
 10
-10.1990305789
 20
-13.701846692
 10
-10.1621724677
 20
-13.7117093352
 10
-10.1254270078
 20
-13.7166411016
  0
LWPOLYLINE
  5
3BA
100
AcDbEntity
  8
RACCORDO
100
AcDbPolyline
 62
7
  6
CONTINUOUS
 90
7
 70
0
 10
5.9801724135
 20
-35.7887017928
 10
5.9999881149
 20
-35.8146732345
 10
6.1919304587
 20
-36.1139567726
 10
6.3649577057
 20
-36.4390493628
 10
6.5132401226
 20
-36.7834146594
 10
6.6291098012
 20
-37.1302368424
 10
6.7108640378
 20
-37.4695054348
  0
LINE
  5
3BB
100
AcDbEntity
  8
SUPERFICI
100
AcDbLine
 62
7
  6
CONTINUOUS
 10
-10.7137008571
 20
-12.9209732153
 11
-10.7710806953
 21
-12.8454116737
  0
LINE
  5
3BC
100
AcDbEntity
  8
SUPERFICI
100
AcDbLine
 62
7
  6
CONTINUOUS
 10
-10.6564551476
 20
-12.9967127269
 11
-10.7137008571
 21
-12.9209732153
  0
LINE
  5
3BD
100
AcDbEntity
  8
SUPERFICI
100
AcDbLine
 62
7
  6
CONTINUOUS
 10
-10.5993435668
 20
-13.0726302084
 11
-10.6564551476
 21
-12.9967127269
  0
LINE
  5
3BE
100
AcDbEntity
  8
RACCORDO
100
AcDbLine
 62
7
  6
CONTINUOUS
 10
-8.9437160158
 20
-15.4370548399
 11
-8.9706092929
 21
-15.3993883916
  0
LWPOLYLINE
  5
3BF
100
AcDbEntity
  8
RACCORDO
100
AcDbPolyline
 62
7
  6
CONTINUOUS
 90
7
 70
0
 10
-9.3445473178
 20
-14.8357990445
 10
-9.4726167501
 20
-14.647031467
 10
-9.6015371615
 20
-14.459130833
 10
-9.7312811346
 20
-14.2721374489
 10
-9.8618395305
 20
-14.08606475
 10
-9.9932214883
 20
-13.9008993009
 10
-10.1254270078
 20
-13.7166411016
  0
LWPOLYLINE
  5
3C0
100
AcDbEntity
  8
RACCORDO
100
AcDbPolyline
 62
7
  6
CONTINUOUS
 90
3
 70
0
 10
-9.0909796688
 20
-15.2159081592
 10
-9.2173380038
 20
-15.0254201301
 10
-9.3445473178
 20
-14.8357990445
  0
LWPOLYLINE
  5
3C1
100
AcDbEntity
  8
RACCORDO
100
AcDbPolyline
 62
250
  6
CONTINUOUS
 90
16
 70
0
 10
-8.6389684909
 20
-15.7024202348
 10
-8.6494410738
 20
-15.6865129738
 10
-8.6605826523
 20
-15.6704535053
 10
-8.672407964
 20
-15.6543017346
 10
-8.6849192046
 20
-15.638137411
 10
-8.6981337578
 20
-15.6220153474
 10
-8.7120867476
 20
-15.6059700549
 10
-8.7267812974
 20
-15.5900874349
 10
-8.742215022
 20
-15.574459316
 10
-8.7584122022
 20
-15.559147519
 10
-8.7753572219
 20
-15.5442653544
 10
-8.7930348893
 20
-15.5299252631
 10
-8.8114638746
 20
-15.5162111833
 10
-8.8306259541
 20
-15.5032493201
 10
-8.850462951
 20
-15.4911981164
 10
-8.8709211074
 20
-15.4802078502
  0
LINE
  5
3C2
100
AcDbEntity
  8
RACCORDO
100
AcDbLine
 62
7
  6
CONTINUOUS
 10
6.2597790764
 20
-36.0827129052
 11
6.0441765708
 21
-35.7541700816
  0
LINE
  5
3C3
100
AcDbEntity
  8
RACCORDO
100
AcDbLine
 62
7
  6
CONTINUOUS
 10
-8.9654723128
 20
-15.4072631319
 11
-9.0909796688
 21
-15.2159081592
  0
LINE
  5
3C4
100
AcDbEntity
  8
0
100
AcDbLine
 62
250
  6
CONTINUOUS
 10
-11.7297255369
 20
-9.528639863
 11
-11.3400911591
 21
-10.1858600809
  0
LINE
  5
3C5
100
AcDbEntity
  8
0
100
AcDbLine
 62
7
  6
CONTINUOUS
 10
-5.0408388963
 20
-14.6765492462
 11
-5.0342389225
 21
-14.7316303758
  0
LINE
  5
3C6
100
AcDbEntity
  8
RACCORDO
100
AcDbLine
 62
7
  6
CONTINUOUS
 10
-0.5703759623
 20
-15.3476657189
 11
-0.6104319904
 21
-14.8186962151
  0
LINE
  5
3C7
100
AcDbEntity
  8
RACCORDO
100
AcDbLine
 62
7
  6
CONTINUOUS
 10
-0.0670936347
 20
-11.5937817234
 11
-0.0670936347
 21
-12.3252040533
  0
LWPOLYLINE
  5
3C8
100
AcDbEntity
  8
0
100
AcDbPolyline
 62
7
  6
CONTINUOUS
 90
10
 70
0
 10
-9.2980006141
 20
-51.6775695932
 10
-9.2764218011
 20
-51.622165964
 10
-9.2525538362
 20
-51.5622785037
 10
-9.2273773305
 20
-51.4978572394
 10
-9.2020409684
 20
-51.4288715971
 10
-9.1771258593
 20
-51.355560366
 10
-9.1526324917
 20
-51.2782181333
 10
-9.1290209603
 20
-51.1969287286
 10
-9.1071858545
 20
-51.1117596587
 10
-9.0877358413
 20
-51.0228876856
  0
LWPOLYLINE
  5
3C9
100
AcDbEntity
  8
0
100
AcDbPolyline
 62
7
  6
CONTINUOUS
 90
7
 70
0
 10
-9.2980006141
 20
-51.6775695932
 10
-9.3240166315
 20
-51.7383538642
 10
-9.3530439523
 20
-51.7963008865
 10
-9.3850825766
 20
-51.8514106601
 10
-9.4201325044
 20
-51.903683185
 10
-9.4581937356
 20
-51.9531184611
 10
-9.4992662702
 20
-51.9997164885
  0
LWPOLYLINE
  5
3CA
100
AcDbEntity
  8
RACCORDO
100
AcDbPolyline
 62
250
  6
CONTINUOUS
 90
8
 70
0
 10
-10.1774937362
 20
-52.0011526575
 10
-10.1439559571
 20
-51.9236946452
 10
-10.1188464027
 20
-51.8408508009
 10
-10.1016788128
 20
-51.7533958341
 10
-10.0909944071
 20
-51.6636538733
 10
-10.0863069255
 20
-51.572399628
 10
-10.088102628
 20
-51.4788583886
 10
-10.0963815147
 20
-51.3830301552
  0
LWPOLYLINE
  5
3CB
100
AcDbEntity
  8
RACCORDO
100
AcDbPolyline
 62
7
  6
CONTINUOUS
 90
6
 70
0
 10
5.6975260461
 20
-23.0818256349
 10
5.7522805013
 20
-22.9785489961
 10
5.7929646244
 20
-22.8743148547
 10
5.8198233115
 20
-22.7712287967
 10
5.8349714884
 20
-22.6717990331
 10
5.8383951217
 20
-22.6147747643
  0
LWPOLYLINE
  5
3CC
100
AcDbEntity
  8
RACCORDO
100
AcDbPolyline
 62
250
  6
CONTINUOUS
 90
3
 70
0
 10
5.2749510933
 20
-14.0886663155
 10
5.2167183611
 20
-14.0977574588
 10
5.156780952
 20
-14.1201552979
  0
LWPOLYLINE
  5
3CD
100
AcDbEntity
  8
SUPERFICI
100
AcDbPolyline
 62
7
  6
CONTINUOUS
 90
22
 70
0
 10
-12.9022048101
 20
-15.1278406625
 10
-12.9365648208
 20
-15.1311230475
 10
-12.9717789377
 20
-15.1291845867
 10
-13.0078471606
 20
-15.12202528
 10
-13.0452949034
 20
-15.1093821289
 10
-13.0835967523
 20
-15.0915181319
 10
-13.1211764663
 20
-15.0692222851
 10
-13.15777566
 20
-15.0425339529
 10
-13.1936527187
 20
-15.0114137708
 10
-13.2280065574
 20
-14.9765326415
 10
-13.2610467522
 20
-14.9374664278
 10
-13.2925637269
 20
-14.8946392668
 10
-13.3211276685
 20
-14.8499944728
 10
-13.3464217704
 20
-14.8038244598
 10
-13.3687628391
 20
-14.7558368136
 10
-13.387671482
 20
-14.7070976068
 10
-13.4031677998
 20
-14.6572656591
 10
-13.4152316916
 20
-14.6066821506
 10
-13.4233234622
 20
-14.5574366938
 10
-13.427263213
 20
-14.510225826
 10
-13.4272308425
 20
-14.4643530098
 10
-13.4232263507
 20
-14.4198182452
  0
LWPOLYLINE
  5
3CE
100
AcDbEntity
  8
RACCORDO
100
AcDbPolyline
 62
250
  6
CONTINUOUS
 90
15
 70
0
 10
-1.1644887746
 20
-17.3824459219
 10
-1.1287401048
 20
-17.3968337991
 10
-1.0933644846
 20
-17.4092918983
 10
-1.0583507311
 20
-17.4199397118
 10
-1.0237042266
 20
-17.4286550551
 10
-0.9889756256
 20
-17.435465517
 10
-0.9540794573
 20
-17.4404999436
 10
-0.9190971332
 20
-17.4436276455
 10
-0.8838299409
 20
-17.4444870424
 10
-0.8482992449
 20
-17.4427928422
 10
-0.8124799248
 20
-17.4388287601
 10
-0.7761040373
 20
-17.4330869392
 10
-0.7390818713
 20
-17.4257312758
 10
-0.7015014587
 20
-17.4165972428
 10
-0.6633620656
 20
-17.4056845962
  0
LWPOLYLINE
  5
3CF
100
AcDbEntity
  8
RACCORDO
100
AcDbPolyline
 62
250
  6
CONTINUOUS
 90
8
 70
0
 10
-37.5047565994
 20
-4.7920623804
 10
-37.5417174847
 20
-4.7759546051
 10
-37.57826422
 20
-4.7647708682
 10
-37.6139969505
 20
-4.7586299215
 10
-37.6485177527
 20
-4.7575948391
 10
-37.681458103
 20
-4.761671177
 10
-37.7124790878
 20
-4.7708182735
 10
-37.7283571706
 20
-4.7778583737
  0
LWPOLYLINE
  5
3D0
100
AcDbEntity
  8
RACCORDO
100
AcDbPolyline
 62
250
  6
CONTINUOUS
 90
10
 70
0
 10
-37.002726236
 20
-4.1834188394
 10
-37.018208583
 20
-4.1764454733
 10
-37.0336196148
 20
-4.1709805522
 10
-37.0489593313
 20
-4.1670240762
 10
-37.0643124557
 20
-4.1645653799
 10
-37.0795942648
 20
-4.1636151287
 10
-37.0945505888
 20
-4.1642053182
 10
-37.1090967042
 20
-4.1663466138
 10
-37.1233173344
 20
-4.1700283503
 10
-37.1372124793
 20
-4.1752505275
  0
LWPOLYLINE
  5
3D1
100
AcDbEntity
  8
0
100
AcDbPolyline
 62
250
  6
CONTINUOUS
 90
5
 70
0
 10
-24.4929266953
 20
-9.9801673552
 10
-24.5159422118
 20
-9.9696778424
 10
-24.5393647322
 20
-9.9608739248
 10
-24.5630745833
 20
-9.9539222793
 10
-24.5867607526
 20
-9.9490120791
  0
LWPOLYLINE
  5
3D2
100
AcDbEntity
  8
SUPERFICI
100
AcDbPolyline
 62
7
  6
CONTINUOUS
 90
10
 70
0
 10
-19.172912519
 20
-11.2677678439
 10
-19.2192088657
 20
-11.2465167962
 10
-19.2649260359
 20
-11.2291411825
 10
-19.3100640296
 20
-11.2156410028
 10
-19.3548083773
 20
-11.2059920033
 10
-19.3989735485
 20
-11.2002184379
 10
-19.4420029521
 20
-11.1983930677
 10
-19.4837110576
 20
-11.2005401467
 10
-19.5242833956
 20
-11.2066354209
 10
-19.5637199659
 20
-11.2166788904
  0
LWPOLYLINE
  5
3D3
100
AcDbEntity
  8
RACCORDO
100
AcDbPolyline
 62
250
  6
CONTINUOUS
 90
10
 70
0
 10
-36.869760435
 20
-3.9650766192
 10
-36.8949804182
 20
-3.9532307081
 10
-36.9201670983
 20
-3.9437605858
 10
-36.9451934029
 20
-3.9367193786
 10
-36.9699380082
 20
-3.9321524898
 10
-36.994274146
 20
-3.9300833384
 10
-37.0180692924
 20
-3.9305166897
 10
-37.0412017436
 20
-3.9334556561
 10
-37.0635622054
 20
-3.9388981189
 10
-37.0850418852
 20
-3.9468251192
  0
LINE
  5
3D4
100
AcDbEntity
  8
SUPERFICI
100
AcDbLine
 62
7
  6
CONTINUOUS
 10
-14.1208624412
 20
-14.6598182866
 11
-19.0279293115
 21
-12.2062848515
  0
LINE
  5
3D5
100
AcDbEntity
  8
SUPERFICI
100
AcDbLine
 62
7
  6
CONTINUOUS
 10
-19.172912519
 20
-11.2677678439
 11
-13.9758792336
 21
-13.8662844866
  0
LINE
  5
3D6
100
AcDbEntity
  8
DRAFT
100
AcDbLine
 62
7
  6
CONTINUOUS
 10
-29.8053417109
 20
-5.951553248
 11
-30.2231489006
 21
-5.7426496532
  0
LINE
  5
3D7
100
AcDbEntity
  8
DRAFT
100
AcDbLine
 62
7
  6
CONTINUOUS
 10
-34.7454480054
 20
-3.4815001007
 11
-35.1632551951
 21
-3.2725965059
  0
LINE
  5
3D8
100
AcDbEntity
  8
SUPERFICI
100
AcDbLine
 62
7
  6
CONTINUOUS
 10
-17.6091365991
 20
-10.734874326
 11
-12.8526493851
 21
-13.113117933
  0
LINE
  5
3D9
100
AcDbEntity
  8
SUPERFICI
100
AcDbLine
 62
7
  6
CONTINUOUS
 10
-17.078349519
 20
-10.6555355665
 11
-12.5349083277
 21
-12.9272561621
  0
LINE
  5
3DA
100
AcDbEntity
  8
DRAFT
100
AcDbLine
 62
7
  6
CONTINUOUS
 10
-28.3342703056
 20
-4.8057519451
 11
-30.7165315
 21
-3.6146213479
  0
LINE
  5
3DB
100
AcDbEntity
  8
SUPERFICI
100
AcDbLine
 62
7
  6
CONTINUOUS
 10
-14.8066289233
 20
-11.5071565433
 11
-12.198719306
 21
-12.811111352
  0
LWPOLYLINE
  5
3DC
100
AcDbEntity
  8
SUPERFICI
100
AcDbPolyline
 62
7
  6
CONTINUOUS
 90
4
 70
0
 10
-11.1623483054
 20
-12.5050889446
 10
-11.1159894483
 20
-12.5301707325
 10
-11.0702120737
 20
-12.5585569817
 10
-11.0250161814
 20
-12.5902476924
  0
LWPOLYLINE
  5
3DD
100
AcDbEntity
  8
DRAFT
100
AcDbPolyline
 62
7
  6
CONTINUOUS
 90
4
 70
0
 10
-33.1833309569
 20
-2.2122633493
 10
-33.1629552804
 20
-2.2236479064
 10
-33.1426897457
 20
-2.2335610156
 10
-33.140283712
 20
-2.2345687321
  0
LWPOLYLINE
  5
3DE
100
AcDbEntity
  8
RACCORDO
100
AcDbPolyline
 62
7
  6
CONTINUOUS
 90
6
 70
0
 10
-8.638968491
 20
-15.7024202348
 10
-8.6830500028
 20
-15.6719653913
 10
-8.7256638553
 20
-15.6408039189
 10
-8.7668098606
 20
-15.6089360822
 10
-8.8069408289
 20
-15.576492343
 10
-8.8340902914
 20
-15.5535152906
  0
LINE
  5
3DF
100
AcDbEntity
  8
DRAFT
100
AcDbLine
 62
7
  6
CONTINUOUS
 10
-21.8948855231
 20
-6.9666167077
 11
-21.6562203415
 21
-7.1405409753
  0
LINE
  5
3E0
100
AcDbEntity
  8
RACCORDO
100
AcDbLine
 62
7
  6
CONTINUOUS
 10
-9.2482797981
 20
-12.4218996096
 11
-8.8623416978
 21
-12.7216226397
  0
LWPOLYLINE
  5
3E1
100
AcDbEntity
  8
SUPERFICI
100
AcDbPolyline
 62
7
  6
CONTINUOUS
 90
7
 70
0
 10
-11.0250161814
 20
-12.5902476924
 10
-10.9802155221
 20
-12.6254048633
 10
-10.9359963453
 20
-12.6638664956
 10
-10.8929173993
 20
-12.7051465925
 10
-10.8511649337
 20
-12.749083155
 10
-10.8105526991
 20
-12.7958381821
 10
-10.7710806953
 20
-12.8454116737
  0
LWPOLYLINE
  5
3E2
100
AcDbEntity
  8
RACCORDO
100
AcDbPolyline
 62
7
  6
CONTINUOUS
 90
5
 70
0
 10
-8.8340902914
 20
-15.5535152906
 10
-8.8456037269
 20
-15.5433428617
 10
-8.8814389076
 20
-15.5090970247
 10
-8.9139922676
 20
-15.4736243259
 10
-8.9437160158
 20
-15.4370548399
  0
LINE
  5
3E3
100
AcDbEntity
  8
0
100
AcDbLine
 62
7
  6
CONTINUOUS
 10
-10.0267249236
 20
-11.8803347646
 11
-9.7433533176
 21
-12.1420331941
  0
LINE
  5
3E4
100
AcDbEntity
  8
0
100
AcDbLine
 62
7
  6
CONTINUOUS
 10
-8.2060703476
 20
-12.2041701452
 11
-8.2733533176
 21
-12.1420331941
  0
LWPOLYLINE
  5
3E5
100
AcDbEntity
  8
RACCORDO
100
AcDbPolyline
 62
250
  6
CONTINUOUS
 90
9
 70
0
 10
-5.9527820363
 20
-14.3999667864
 10
-5.9745563985
 20
-14.3673329496
 10
-5.9977028431
 20
-14.3362579559
 10
-6.0220747393
 20
-14.306938662
 10
-6.0475176934
 20
-14.2795608024
 10
-6.0738705269
 20
-14.2542978129
 10
-6.1009662971
 20
-14.231309732
 10
-6.1286333555
 20
-14.2107421869
 10
-6.1566964343
 20
-14.1927254709
  0
LINE
  5
3E6
100
AcDbEntity
  8
0
100
AcDbLine
 62
250
  6
CONTINUOUS
 10
-4.658657725
 20
-13.064173769
 11
-4.2690233473
 21
-13.7213939868
  0
LWPOLYLINE
  5
3E7
100
AcDbEntity
  8
RACCORDO
100
AcDbPolyline
 62
7
  6
CONTINUOUS
 90
6
 70
0
 10
5.8383756525
 20
-35.8621802348
 10
5.835011735
 20
-35.8555087643
 10
5.8199280753
 20
-35.8372234615
 10
5.7930891569
 20
-35.8103561021
 10
5.7523750755
 20
-35.7776046281
 10
5.6975260461
 20
-35.7407811399
  0
LINE
  5
3E8
100
AcDbEntity
  8
0
100
AcDbLine
 62
7
  6
CONTINUOUS
 10
-2.9661519471
 20
-15.4106212528
 11
-3.167651305
 21
-14.814896827
  0
LWPOLYLINE
  5
3E9
100
AcDbEntity
  8
RACCORDO
100
AcDbPolyline
 62
7
  6
CONTINUOUS
 90
12
 70
0
 10
-0.6104319904
 20
-14.8186962151
 10
-0.611889964
 20
-14.805534153
 10
-0.6142961352
 20
-14.7930956246
 10
-0.617650504
 20
-14.7813806298
 10
-0.6220008662
 20
-14.7702697439
 10
-0.6272994259
 20
-14.7598823917
 10
-0.633402796
 20
-14.750576847
 10
-0.640309562
 20
-14.7424369742
 10
-0.6480211385
 20
-14.7353789089
 10
-0.6563983816
 20
-14.7295093314
 10
-0.6654372644
 20
-14.7248350807
 10
-0.672698118
 20
-14.7220924137
  0
LWPOLYLINE
  5
3EA
100
AcDbEntity
  8
RACCORDO
100
AcDbPolyline
 62
250
  6
CONTINUOUS
 90
6
 70
0
 10
5.8378554618
 20
-15.3871970471
 10
5.8363526165
 20
-15.4061565979
 10
5.8222920805
 20
-15.4486741731
 10
5.7938366752
 20
-15.4893526852
 10
5.7518319443
 20
-15.5269833844
 10
5.6975260461
 20
-15.5604480857
  0
LWPOLYLINE
  5
3EB
100
AcDbEntity
  8
RACCORDO
100
AcDbPolyline
 62
250
  6
CONTINUOUS
 90
3
 70
0
 10
-10.268395188
 20
-52.1422353147
 10
-10.2189734798
 20
-52.0739995474
 10
-10.1774937362
 20
-52.0011526575
  0
LWPOLYLINE
  5
3EC
100
AcDbEntity
  8
RACCORDO
100
AcDbPolyline
 62
250
  6
CONTINUOUS
 90
10
 70
0
 10
-9.9544000349
 20
-52.2318753958
 10
-9.8961806744
 20
-52.1555184227
 10
-9.8477364297
 20
-52.0711665739
 10
-9.8087755632
 20
-51.9802245123
 10
-9.7790377918
 20
-51.8842429392
 10
-9.7579293035
 20
-51.7843046366
 10
-9.7446660795
 20
-51.6808980466
 10
-9.7387323624
 20
-51.5747919866
 10
-9.739762146
 20
-51.4671479659
 10
-9.7472578935
 20
-51.3588326291
  0
LWPOLYLINE
  5
3ED
100
AcDbEntity
  8
RACCORDO
100
AcDbPolyline
 62
250
  6
CONTINUOUS
 90
3
 70
0
 10
9.5187290713
 20
-33.6791544429
 10
9.5736262893
 20
-33.645252242
 10
9.6158924074
 20
-33.6071060328
  0
LWPOLYLINE
  5
3EE
100
AcDbEntity
  8
RACCORDO
100
AcDbPolyline
 62
7
  6
CONTINUOUS
 90
7
 70
0
 10
9.3958190556
 20
-33.9458804186
 10
9.4459685294
 20
-33.9149803881
 10
9.5115830037
 20
-33.8600698095
 10
9.5671256376
 20
-33.7944219029
 10
9.610789042
 20
-33.7198262201
 10
9.6410881621
 20
-33.6383358208
 10
9.6568612818
 20
-33.5523133277
  0
LINE
  5
3EF
100
AcDbEntity
  8
RACCORDO
100
AcDbLine
 62
250
  6
CONTINUOUS
 10
9.5187290713
 20
-33.6791544429
 11
5.6975260461
 21
-35.7407811399
  0
LINE
  5
3F0
100
AcDbEntity
  8
RACCORDO
100
AcDbLine
 62
7
  6
CONTINUOUS
 10
9.3964710814
 20
-33.9455302858
 11
5.8292925915
 21
-35.8701049182
  0
LINE
  5
3F1
100
AcDbEntity
  8
0
100
AcDbLine
 62
7
  6
CONTINUOUS
 10
-8.9475296213
 20
-11.7580679554
 11
-9.0083533176
 21
-11.7745331941
  0
LINE
  5
3F2
100
AcDbEntity
  8
SUPERFICI
100
AcDbLine
 62
7
  6
CONTINUOUS
 10
-9.2482797981
 20
-12.4218996096
 11
-10.1068683939
 21
-12.5782729739
  0
LWPOLYLINE
  5
3F3
100
AcDbEntity
  8
0
100
AcDbPolyline
 62
7
  6
CONTINUOUS
 90
10
 70
0
 10
-20.8013912951
 20
-11.8259350553
 10
-20.8432546514
 20
-11.8213526729
 10
-20.8841506095
 20
-11.8192835557
 10
-20.9238185792
 20
-11.8195356124
 10
-20.9620507076
 20
-11.8217368954
 10
-20.9985728022
 20
-11.8257443521
 10
-21.0329842906
 20
-11.8317172648
 10
-21.0649382333
 20
-11.8395190241
 10
-21.0942143071
 20
-11.8486493843
 10
-21.1205585944
 20
-11.8587013953
  0
LWPOLYLINE
  5
3F4
100
AcDbEntity
  8
RACCORDO
100
AcDbPolyline
 62
7
  6
CONTINUOUS
 90
16
 70
0
 10
-1.3674715958
 20
-14.5715180524
 10
-1.4927759655
 20
-14.5575471628
 10
-1.6191638641
 20
-14.5470611248
 10
-1.7463676258
 20
-14.5400681822
 10
-1.874043437
 20
-14.536578983
 10
-2.0018396741
 20
-14.5365969869
 10
-2.1294748228
 20
-14.5401206347
 10
-2.2566005924
 20
-14.5471435261
 10
-2.3828716692
 20
-14.5576518831
 10
-2.5080141069
 20
-14.5716334172
 10
-2.6316847039
 20
-14.5890656951
 10
-2.7535431236
 20
-14.6099192694
 10
-2.8733283477
 20
-14.634174443
 10
-2.9907115037
 20
-14.6617969366
 10
-3.105354443
 20
-14.6927434461
 10
-3.2169982983
 20
-14.7269882595
  0
LWPOLYLINE
  5
3F5
100
AcDbEntity
  8
RACCORDO
100
AcDbPolyline
 62
7
  6
CONTINUOUS
 90
16
 70
0
 10
-8.4385394077
 20
-11.0359841465
 10
-8.5638437774
 20
-11.0220132569
 10
-8.690231676
 20
-11.0115272189
 10
-8.8174354377
 20
-11.0045342763
 10
-8.9451112489
 20
-11.0010450771
 10
-9.072907486
 20
-11.001063081
 10
-9.2005426347
 20
-11.0045867288
 10
-9.3276684043
 20
-11.0116096201
 10
-9.453939481
 20
-11.0221179772
 10
-9.5790819188
 20
-11.0360995113
 10
-9.7027525158
 20
-11.0535317892
 10
-9.8246109354
 20
-11.0743853635
 10
-9.9443961596
 20
-11.0986405371
 10
-10.0617793155
 20
-11.1262630307
 10
-10.1764222549
 20
-11.1572095402
 10
-10.2880661101
 20
-11.1914543536
  0
LWPOLYLINE
  5
3F6
100
AcDbEntity
  8
0
100
AcDbPolyline
 62
250
  6
CONTINUOUS
 90
7
 70
0
 10
-24.5867607526
 20
-9.9490120791
 10
-24.6104643116
 20
-9.9462488862
 10
-24.6345343811
 20
-9.9458138782
 10
-24.6592226419
 20
-9.9480817191
 10
-24.6837450028
 20
-9.9533883114
 10
-24.706956312
 20
-9.9616605201
 10
-24.7268563994
 20
-9.9717357728
  0
LWPOLYLINE
  5
3F7
100
AcDbEntity
  8
0
100
AcDbPolyline
 62
7
  6
CONTINUOUS
 90
5
 70
0
 10
-0.6022909109
 20
-14.926162964
 10
-0.5794191365
 20
-14.9306726928
 10
-0.4340934551
 20
-14.9632117223
 10
-0.2918983845
 20
-14.999042119
 10
-0.1528146053
 20
-15.0381435716
  0
LWPOLYLINE
  5
3F8
100
AcDbEntity
  8
0
100
AcDbPolyline
 62
7
  6
CONTINUOUS
 90
5
 70
0
 10
-7.6733587228
 20
-11.3906290581
 10
-7.6504869484
 20
-11.3951387868
 10
-7.505161267
 20
-11.4276778164
 10
-7.3629661963
 20
-11.463508213
 10
-7.2238824172
 20
-11.5026096657
  0
LWPOLYLINE
  5
3F9
100
AcDbEntity
  8
DRAFT
100
AcDbPolyline
 62
7
  6
CONTINUOUS
 90
25
 70
0
 10
-28.8890025041
 20
-7.1731810023
 10
-28.9145604423
 20
-7.1678748458
 10
-28.9402244924
 20
-7.1601745934
 10
-28.9659946544
 20
-7.150080245
 10
-28.9920174271
 20
-7.1375076562
 10
-29.0181463118
 20
-7.1225409714
 10
-29.043941812
 20
-7.1054326242
 10
-29.0693898028
 20
-7.0861521888
 10
-29.0945044092
 20
-7.0647300909
 10
-29.1188885093
 20
-7.0415100414
 10
-29.142533334
 20
-7.0164607093
 10
-29.1654476524
 20
-6.9896134256
 10
-29.1872606501
 20
-6.961405894
 10
-29.207953074
 20
-6.9318175309
 10
-29.2275441772
 20
-6.90086892
 10
-29.2457209044
 20
-6.8690595159
 10
-29.2624596988
 20
-6.8363785906
 10
-29.2777841171
 20
-6.8028368721
 10
-29.2914517751
 20
-6.7689659983
 10
-29.303437703
 20
-6.7347600905
 10
-29.3137668706
 20
-6.7002250274
 10
-29.3222718018
 20
-6.6659100838
 10
-29.3288966715
 20
-6.6319983513
 10
-29.3336973049
 20
-6.5983067384
 10
-29.3366737019
 20
-6.564835245
  0
LWPOLYLINE
  5
3FA
100
AcDbEntity
  8
RACCORDO
100
AcDbPolyline
 62
7
  6
CONTINUOUS
 90
8
 70
0
 10
-7.7462096257
 20
-11.1858154119
 10
-7.7564527791
 20
-11.1836042998
 10
-7.7673112495
 20
-11.1827001801
 10
-7.7787083239
 20
-11.1830707112
 10
-7.7902868004
 20
-11.1847050314
 10
-7.8019276117
 20
-11.1875995201
 10
-7.8137498251
 20
-11.191757798
 10
-7.8257534406
 20
-11.197179865
  0
LINE
  5
3FB
100
AcDbEntity
  8
0
100
AcDbLine
 62
7
  6
CONTINUOUS
 10
-1.9372855058
 20
-15.3100671001
 11
-2.4606823649
 21
-15.1683812971
  0
LINE
  5
3FC
100
AcDbEntity
  8
0
100
AcDbLine
 62
7
  6
CONTINUOUS
 10
-9.0083533176
 20
-11.7745331941
 11
-9.5317501768
 21
-11.6328473912
  0
LWPOLYLINE
  5
3FD
100
AcDbEntity
  8
RACCORDO
100
AcDbPolyline
 62
250
  6
CONTINUOUS
 90
8
 70
0
 10
-15.4935817576
 20
-9.4045399062
 10
-15.5189383811
 20
-9.397221425
 10
-15.5455942273
 20
-9.3932719624
 10
-15.5733553398
 20
-9.392720256
 10
-15.6020197201
 20
-9.3955703201
 10
-15.6313787969
 20
-9.4018014168
 10
-15.6612189445
 20
-9.4113682067
 10
-15.6913230364
 20
-9.4242010788
  0
LWPOLYLINE
  5
3FE
100
AcDbEntity
  8
RACCORDO
100
AcDbPolyline
 62
7
  6
CONTINUOUS
 90
9
 70
0
 10
-0.672698118
 20
-14.7220924137
 10
-0.6751418138
 20
-14.7213493178
 10
-0.6853849672
 20
-14.7191382057
 10
-0.6962434377
 20
-14.718234086
 10
-0.7076405121
 20
-14.7186046171
 10
-0.7192189886
 20
-14.7202389373
 10
-0.7308597999
 20
-14.7231334261
 10
-0.7426820132
 20
-14.7272917039
 10
-0.7546856287
 20
-14.732713771
  0
LWPOLYLINE
  5
3FF
100
AcDbEntity
  8
RACCORDO
100
AcDbPolyline
 62
7
  6
CONTINUOUS
 90
7
 70
0
 10
-0.6726999054
 20
-14.7220965693
 10
-0.7690024855
 20
-14.6928051179
 10
-0.8838303866
 20
-14.6618042895
 10
-1.0014244885
 20
-14.6341346845
 10
-1.1214478445
 20
-14.6098409144
 10
-1.2435726241
 20
-14.5889587527
 10
-1.3674715958
 20
-14.5715180524
  0
LWPOLYLINE
  5
400
100
AcDbEntity
  8
RACCORDO
100
AcDbPolyline
 62
7
  6
CONTINUOUS
 90
7
 70
0
 10
-7.7437677173
 20
-11.1865626633
 10
-7.8400702973
 20
-11.157271212
 10
-7.9548981985
 20
-11.1262703836
 10
-8.0724923003
 20
-11.0986007786
 10
-8.1925156564
 20
-11.0743070085
 10
-8.314640436
 20
-11.0534248468
 10
-8.4385394077
 20
-11.0359841465
  0
LINE
  5
401
100
AcDbEntity
  8
0
100
AcDbLine
 62
7
  6
CONTINUOUS
 10
-0.1528146053
 20
-15.0381435716
 11
-0.0263161102
 21
-15.0775883438
  0
LINE
  5
402
100
AcDbEntity
  8
0
100
AcDbLine
 62
7
  6
CONTINUOUS
 10
-7.2238824172
 20
-11.5026096657
 11
-7.097383922
 21
-11.5420544379
  0
LWPOLYLINE
  5
403
100
AcDbEntity
  8
0
100
AcDbPolyline
 62
7
  6
CONTINUOUS
 90
4
 70
0
 10
0.0970654498
 20
-15.1198200816
 10
0.1134088916
 20
-15.12545157
 10
0.2405486094
 20
-15.1736581157
 10
0.3529035627
 20
-15.2204225917
  0
LWPOLYLINE
  5
404
100
AcDbEntity
  8
0
100
AcDbPolyline
 62
7
  6
CONTINUOUS
 90
4
 70
0
 10
-6.974002362
 20
-11.5842861757
 10
-6.9576589202
 20
-11.5899176641
 10
-6.8305192025
 20
-11.6381242098
 10
-6.7181642492
 20
-11.6848886858
  0
LWPOLYLINE
  5
405
100
AcDbEntity
  8
RACCORDO
100
AcDbPolyline
 62
7
  6
CONTINUOUS
 90
8
 70
0
 10
-15.4738865962
 20
-9.413019414
 10
-15.5264083748
 20
-9.3904148679
 10
-15.5818245788
 20
-9.3737968056
 10
-15.6392654072
 20
-9.363635082
 10
-15.6975902342
 20
-9.3602330429
 10
-15.7560163041
 20
-9.363669812
 10
-15.8141388577
 20
-9.3740295173
 10
-15.8711265626
 20
-9.3913505042
  0
LWPOLYLINE
  5
406
100
AcDbEntity
  8
RACCORDO
100
AcDbPolyline
 62
250
  6
CONTINUOUS
 90
5
 70
0
 10
-15.6913230364
 20
-9.4242010788
 10
-15.7193259871
 20
-9.4113858559
 10
-15.7471293159
 20
-9.40148034
 10
-15.77459178
 20
-9.39449699
 10
-15.8015787484
 20
-9.3904324384
  0
LWPOLYLINE
  5
407
100
AcDbEntity
  8
RACCORDO
100
AcDbPolyline
 62
250
  6
CONTINUOUS
 90
14
 70
0
 10
-1.2803139412
 20
-17.0464895461
 10
-1.2649960817
 20
-17.0539727597
 10
-1.2401887724
 20
-17.0653531461
 10
-1.216272493
 20
-17.0754150955
 10
-1.1929377268
 20
-17.0843182786
 10
-1.1701987615
 20
-17.0920759316
 10
-1.148085723
 20
-17.0986837623
 10
-1.1262866542
 20
-17.1042090357
 10
-1.1047265978
 20
-17.1086512791
 10
-1.0835016038
 20
-17.1119416777
 10
-1.0625368156
 20
-17.1139741214
 10
-1.0417394941
 20
-17.114705171
 10
-1.0212242796
 20
-17.1140436114
 10
-1.0012231482
 20
-17.1117687982
  0
LINE
  5
408
100
AcDbEntity
  8
RACCORDO
100
AcDbLine
 62
7
  6
CONTINUOUS
 10
-1.2806428918
 20
-17.0463251324
 11
-1.2803139412
 21
-17.0464895461
  0
LINE
  5
409
100
AcDbEntity
  8
SUPERFICI
100
AcDbLine
 62
7
  6
CONTINUOUS
 10
-16.3295891977
 20
-9.9214684985
 11
-16.1501318076
 21
-10.0111971935
  0
LINE
  5
40A
100
AcDbEntity
  8
SUPERFICI
100
AcDbLine
 62
7
  6
CONTINUOUS
 10
-11.3418056955
 20
-12.4153602495
 11
-11.1623483054
 21
-12.5050889446
  0
LINE
  5
40B
100
AcDbEntity
  8
DRAFT
100
AcDbLine
 62
7
  6
CONTINUOUS
 10
-26.9913692005
 20
-4.5905784971
 11
-27.4440921549
 21
-4.3642170198
  0
LINE
  5
40C
100
AcDbEntity
  8
DRAFT
100
AcDbLine
 62
7
  6
CONTINUOUS
 10
-31.8676505016
 20
-2.1524378465
 11
-32.320373456
 21
-1.9260763693
  0
LINE
  5
40D
100
AcDbEntity
  8
SUPERFICI
100
AcDbLine
 62
7
  6
CONTINUOUS
 10
-14.8066289233
 20
-10.6169446921
 11
-10.42256688
 21
-12.8089757137
  0
LINE
  5
40E
100
AcDbEntity
  8
0
100
AcDbLine
 62
7
  6
CONTINUOUS
 10
-26.3324694567
 20
-4.8540244254
 11
-30.7165315
 21
-2.6619934037
  0
LINE
  5
40F
100
AcDbEntity
  8
DRAFT
100
AcDbLine
 62
7
  6
CONTINUOUS
 10
-22.6337971113
 20
-6.5186592364
 11
-25.4224271047
 21
-5.1243442398
  0
LINE
  5
410
100
AcDbEntity
  8
DRAFT
100
AcDbLine
 62
7
  6
CONTINUOUS
 10
-30.499262305
 20
-2.5859266396
 11
-32.2054863224
 21
-1.7328146309
  0
LINE
  5
411
100
AcDbEntity
  8
0
100
AcDbLine
 62
7
  6
CONTINUOUS
 10
-30.3006371076
 20
-2.5163872093
 11
-26.041257068
 21
-4.6460772291
  0
LINE
  5
412
100
AcDbEntity
  8
SUPERFICI
100
AcDbLine
 62
7
  6
CONTINUOUS
 10
-14.3452234437
 20
-10.459095449
 11
-10.1068683939
 21
-12.5782729739
  0
LINE
  5
413
100
AcDbEntity
  8
0
100
AcDbLine
 62
250
  6
CONTINUOUS
 10
-0.9447657988
 20
-17.0943637948
 11
-2.2786670197
 21
-16.4274131844
  0
LINE
  5
414
100
AcDbEntity
  8
RACCORDO
100
AcDbLine
 62
250
  6
CONTINUOUS
 10
-6.1849777265
 20
-14.1773737338
 11
-9.0604532823
 21
-12.7396359558
  0
LINE
  5
415
100
AcDbEntity
  8
RACCORDO
100
AcDbLine
 62
250
  6
CONTINUOUS
 10
-13.5699298708
 20
-10.4848976616
 11
-15.6913230672
 21
-9.4242010634
  0
LINE
  5
416
100
AcDbEntity
  8
RACCORDO
100
AcDbLine
 62
7
  6
CONTINUOUS
 10
-5.967541317
 20
-14.1661920536
 11
-8.883468112
 21
-12.708228656
  0
LINE
  5
417
100
AcDbEntity
  8
RACCORDO
100
AcDbLine
 62
7
  6
CONTINUOUS
 10
-13.3130305916
 20
-10.4934474162
 11
-15.4738865962
 21
-9.413019414
  0
LINE
  5
418
100
AcDbEntity
  8
SUPERFICI
100
AcDbLine
 62
7
  6
CONTINUOUS
 10
-13.0903631882
 20
-10.5008579145
 11
-9.2482797981
 21
-12.4218996096
  0
LINE
  5
419
100
AcDbEntity
  8
0
100
AcDbLine
 62
7
  6
CONTINUOUS
 10
-2.9556571117
 20
-15.4158686705
 11
-3.6626260518
 21
-15.0623842004
  0
LINE
  5
41A
100
AcDbEntity
  8
0
100
AcDbLine
 62
7
  6
CONTINUOUS
 10
-10.0267249236
 20
-11.8803347646
 11
-10.7336938637
 21
-11.5268502945
  0
LINE
  5
41B
100
AcDbEntity
  8
0
100
AcDbLine
 62
7
  6
CONTINUOUS
 10
-2.4606823649
 20
-15.1683812971
 11
-3.167651305
 21
-14.814896827
  0
LINE
  5
41C
100
AcDbEntity
  8
0
100
AcDbLine
 62
7
  6
CONTINUOUS
 10
-9.5317501768
 20
-11.6328473912
 11
-10.2387191169
 21
-11.2793629211
  0
LINE
  5
41D
100
AcDbEntity
  8
RACCORDO
100
AcDbLine
 62
250
  6
CONTINUOUS
 10
9.1652295286
 20
-20.5767842408
 11
6.8318236726
 21
-19.4100813128
  0
LINE
  5
41E
100
AcDbEntity
  8
RACCORDO
100
AcDbLine
 62
7
  6
CONTINUOUS
 10
9.3826659689
 20
-20.565602576
 11
6.8318236726
 21
-19.2901814279
  0
LWPOLYLINE
  5
41F
100
AcDbEntity
  8
RACCORDO
100
AcDbPolyline
 62
250
  6
CONTINUOUS
 90
3
 70
0
 10
-1.2386949565
 20
-17.3465846005
 10
-1.2010863118
 20
-17.3657388846
 10
-1.1644887746
 20
-17.3824459219
  0
LWPOLYLINE
  5
420
100
AcDbEntity
  8
RACCORDO
100
AcDbPolyline
 62
7
  6
CONTINUOUS
 90
4
 70
0
 10
-1.2806413803
 20
-17.0463258211
 10
-1.2899055238
 20
-17.0415763986
 10
-1.317455216
 20
-17.0261297309
 10
-1.3296691667
 20
-17.0186747504
  0
LWPOLYLINE
  5
421
100
AcDbEntity
  8
RACCORDO
100
AcDbPolyline
 62
7
  6
CONTINUOUS
 90
4
 70
0
 10
-5.9675533545
 20
-14.1661860353
 10
-5.9582687577
 20
-14.1709497698
 10
-5.9418369964
 20
-14.1799959512
 10
-5.9314289557
 20
-14.1861516749
  0
LINE
  5
422
100
AcDbEntity
  8
RACCORDO
100
AcDbLine
 62
250
  6
CONTINUOUS
 10
-6.1566964343
 20
-14.1927254709
 11
-6.1849777572
 21
-14.1773737184
  0
LWPOLYLINE
  5
423
100
AcDbEntity
  8
RACCORDO
100
AcDbPolyline
 62
250
  6
CONTINUOUS
 90
10
 70
0
 10
-0.944765719
 20
-17.0943638347
 10
-0.9092699883
 20
-17.1140072979
 10
-0.8741890271
 20
-17.1377958011
 10
-0.8398720571
 20
-17.1654925379
 10
-0.8066606956
 20
-17.1968217961
 10
-0.7748855535
 20
-17.2314717028
 10
-0.7448629447
 20
-17.2690973288
 10
-0.7168917377
 20
-17.3093241218
 10
-0.6912503799
 20
-17.3517516354
 10
-0.6681941262
 20
-17.3959575148
  0
LWPOLYLINE
  5
424
100
AcDbEntity
  8
RACCORDO
100
AcDbPolyline
 62
7
  6
CONTINUOUS
 90
3
 70
0
 10
9.3819117067
 20
-20.5652275604
 10
9.4415714169
 20
-20.6002799274
 10
9.5084793191
 20
-20.6551773031
  0
LINE
  5
425
100
AcDbEntity
  8
RACCORDO
100
AcDbLine
 62
250
  6
CONTINUOUS
 10
9.2275795352
 20
-20.6135797944
 11
9.1652295286
 21
-20.5767842408
  0
LWPOLYLINE
  5
426
100
AcDbEntity
  8
RACCORDO
100
AcDbPolyline
 62
250
  6
CONTINUOUS
 90
3
 70
0
 10
-1.3164935685
 20
-17.301335087
 10
-1.2771622722
 20
-17.3251158084
 10
-1.2386949565
 20
-17.3465846005
  0
LINE
  5
427
100
AcDbEntity
  8
RACCORDO
100
AcDbLine
 62
7
  6
CONTINUOUS
 10
-5.8013560743
 20
-14.2650038559
 11
-5.9320297142
 21
-14.1857873881
  0
LWPOLYLINE
  5
428
100
AcDbEntity
  8
RACCORDO
100
AcDbPolyline
 62
7
  6
CONTINUOUS
 90
4
 70
0
 10
-4.0032064728
 20
-15.362290208
 10
-4.6068527318
 20
-14.9924271622
 10
-5.2063448696
 20
-14.6266090184
 10
-5.8013560743
 20
-14.2650038559
  0
LINE
  5
429
100
AcDbEntity
  8
RACCORDO
100
AcDbLine
 62
7
  6
CONTINUOUS
 10
-3.3957374918
 20
-15.7360255389
 11
-4.0032064728
 21
-15.362290208
  0
LINE
  5
42A
100
AcDbEntity
  8
RACCORDO
100
AcDbLine
 62
250
  6
CONTINUOUS
 10
-5.9526999886
 20
-14.399927085
 11
-5.4452310114
 21
-14.7127075729
  0
LWPOLYLINE
  5
42B
100
AcDbEntity
  8
RACCORDO
100
AcDbPolyline
 62
250
  6
CONTINUOUS
 90
8
 70
0
 10
-5.4452310114
 20
-14.7127075729
 10
-4.9354420382
 20
-15.0281523863
 10
-4.4234851626
 20
-15.346151342
 10
-3.9094505554
 20
-15.666575528
 10
-3.3935548335
 20
-15.9893185264
 10
-2.8761393359
 20
-16.3142956086
 10
-2.3574194714
 20
-16.6413891493
 10
-1.8374862643
 20
-16.9704493804
  0
LWPOLYLINE
  5
42C
100
AcDbEntity
  8
RACCORDO
100
AcDbPolyline
 62
7
  6
CONTINUOUS
 90
4
 70
0
 10
-1.5539531994
 20
-16.8785672977
 10
-2.1707365021
 20
-16.4943655403
 10
-2.7847926288
 20
-16.1134491386
 10
-3.3957374918
 20
-15.7360255389
  0
LINE
  5
42D
100
AcDbEntity
  8
RACCORDO
100
AcDbLine
 62
7
  6
CONTINUOUS
 10
-1.3296675462
 20
-17.0186754984
 11
-1.5539531994
 21
-16.8785672977
  0
LINE
  5
42E
100
AcDbEntity
  8
RACCORDO
100
AcDbLine
 62
250
  6
CONTINUOUS
 10
-1.8374862643
 20
-16.9704493804
 11
-1.3164935685
 21
-17.301335087
  0
LWPOLYLINE
  5
42F
100
AcDbEntity
  8
RACCORDO
100
AcDbPolyline
 62
250
  6
CONTINUOUS
 90
9
 70
0
 10
-5.9314289557
 20
-14.1861516749
 10
-5.9286616995
 20
-14.1880582754
 10
-5.920059753
 20
-14.1986451832
 10
-5.9151410677
 20
-14.2141142187
 10
-5.9132213556
 20
-14.2346570144
 10
-5.9143024026
 20
-14.2599760439
 10
-5.9191648572
 20
-14.2894268682
 10
-5.9277661777
 20
-14.3226981219
 10
-5.93917141
 20
-14.359669652
  0
LWPOLYLINE
  5
430
100
AcDbEntity
  8
RACCORDO
100
AcDbPolyline
 62
250
  6
CONTINUOUS
 90
7
 70
0
 10
-7.1180856858
 20
-11.5504527688
 10
-7.0714037783
 20
-11.5891055807
 10
-7.0271709189
 20
-11.630206007
 10
-6.9853871076
 20
-11.6737540476
 10
-6.9454408399
 20
-11.7199676011
 10
-6.9079436202
 20
-11.7686287691
 10
-6.9043930963
 20
-11.7740223934
  0
LINE
  5
431
100
AcDbEntity
  8
0
100
AcDbLine
 62
7
  6
CONTINUOUS
 10
-2.9556571117
 20
-15.4158686705
 11
-2.6722855058
 21
-15.6775671001
  0
LINE
  5
432
100
AcDbEntity
  8
0
100
AcDbLine
 62
7
  6
CONTINUOUS
 10
-1.1350030779
 20
-15.7397035504
 11
-1.2022855058
 21
-15.6775671001
  0
LWPOLYLINE
  5
433
100
AcDbEntity
  8
RACCORDO
100
AcDbPolyline
 62
7
  6
CONTINUOUS
 90
5
 70
0
 10
-6.8193164686
 20
-11.7333026265
 10
-6.8406677447
 20
-11.7088873614
 10
-6.8952170765
 20
-11.6536661917
 10
-6.9548651996
 20
-11.5998404478
 10
-7.0130541116
 20
-11.5525457574
  0
LWPOLYLINE
  5
434
100
AcDbEntity
  8
RACCORDO
100
AcDbPolyline
 62
250
  6
CONTINUOUS
 90
10
 70
0
 10
0.3377038892
 20
-16.9064019572
 10
0.3146475239
 20
-16.8621678622
 10
0.2890025381
 20
-16.8197121767
 10
0.2610244724
 20
-16.7794579523
 10
0.2309921158
 20
-16.7418063043
 10
0.199204727
 20
-16.7071324144
 10
0.165979053
 20
-16.6757817922
 10
0.1316461727
 20
-16.6480668324
 10
0.0965481978
 20
-16.6242637023
 10
0.0610348637
 20
-16.6046095892
  0
LWPOLYLINE
  5
435
100
AcDbEntity
  8
RACCORDO
100
AcDbPolyline
 62
7
  6
CONTINUOUS
 90
5
 70
0
 10
6.8073773241
 20
-37.6559737496
 10
6.7351851102
 20
-37.2564197515
 10
6.6176128264
 20
-36.8549452843
 10
6.4578509599
 20
-36.460751833
 10
6.2597790764
 20
-36.0827129052
  0
LINE
  5
436
100
AcDbEntity
  8
RACCORDO
100
AcDbLine
 62
7
  6
CONTINUOUS
 10
6.7108640378
 20
-37.4695054348
 11
6.7596128246
 21
-37.7991187033
  0
LINE
  5
437
100
AcDbEntity
  8
RACCORDO
100
AcDbLine
 62
7
  6
CONTINUOUS
 10
6.8318236726
 20
-38.0443640242
 11
6.8073773241
 21
-37.6559737496
  0
LINE
  5
438
100
AcDbEntity
  8
RACCORDO
100
AcDbLine
 62
7
  6
CONTINUOUS
 10
6.8318236726
 20
-18.3855873583
 11
6.8073773241
 21
-17.9971970837
  0
LINE
  5
439
100
AcDbEntity
  8
RACCORDO
100
AcDbLine
 62
7
  6
CONTINUOUS
 10
6.7596128246
 20
-37.7991187033
 11
6.7756916327
 21
-38.1138298612
  0
LINE
  5
43A
100
AcDbEntity
  8
RACCORDO
100
AcDbLine
 62
7
  6
CONTINUOUS
 10
6.7596128246
 20
-18.1403420374
 11
6.7756916327
 21
-18.4550531953
  0
LWPOLYLINE
  5
43B
100
AcDbEntity
  8
RACCORDO
100
AcDbPolyline
 62
7
  6
CONTINUOUS
 90
3
 70
0
 10
5.8378517838
 20
-15.3871970354
 10
5.8298199393
 20
-15.2008258147
 10
5.7993366483
 20
-14.973199767
  0
LINE
  5
43C
100
AcDbEntity
  8
RACCORDO
100
AcDbLine
 62
250
  6
CONTINUOUS
 10
5.6915725137
 20
-15.3967423042
 11
5.6975265721
 21
-15.5602551256
  0
LINE
  5
43D
100
AcDbEntity
  8
RACCORDO
100
AcDbLine
 62
250
  6
CONTINUOUS
 10
5.6975260461
 20
-43.262158689
 11
5.6975260461
 21
-35.7407811399
  0
LINE
  5
43E
100
AcDbEntity
  8
RACCORDO
100
AcDbLine
 62
250
  6
CONTINUOUS
 10
5.6975260461
 20
-23.0818256349
 11
5.6975260461
 21
-15.5602554028
  0
LINE
  5
43F
100
AcDbEntity
  8
RACCORDO
100
AcDbLine
 62
7
  6
CONTINUOUS
 10
5.8378561459
 20
-43.088494126
 11
5.8378561459
 21
-35.8534520321
  0
LINE
  5
440
100
AcDbEntity
  8
RACCORDO
100
AcDbLine
 62
7
  6
CONTINUOUS
 10
5.8378561459
 20
-15.3867834928
 11
5.8378561459
 21
-22.6218109594
  0
LINE
  5
441
100
AcDbEntity
  8
RACCORDO
100
AcDbLine
 62
250
  6
CONTINUOUS
 10
6.7756916327
 20
-18.4550531953
 11
6.7756916327
 21
-21.6000071663
  0
LINE
  5
442
100
AcDbEntity
  8
RACCORDO
100
AcDbLine
 62
250
  6
CONTINUOUS
 10
6.7756916327
 20
-38.1138298612
 11
6.7756916327
 21
-39.672675588
  0
LINE
  5
443
100
AcDbEntity
  8
RACCORDO
100
AcDbLine
 62
7
  6
CONTINUOUS
 10
6.8318236726
 20
-18.3855873583
 11
6.8318236726
 21
-21.5325547903
  0
LINE
  5
444
100
AcDbEntity
  8
RACCORDO
100
AcDbLine
 62
7
  6
CONTINUOUS
 10
6.8318236726
 20
-38.0443640242
 11
6.8318236726
 21
-39.603209751
  0
LINE
  5
445
100
AcDbEntity
  8
RACCORDO
100
AcDbLine
 62
250
  6
CONTINUOUS
 10
6.7756916327
 20
-39.672675588
 11
6.769680588
 21
-39.8574154293
  0
LINE
  5
446
100
AcDbEntity
  8
RACCORDO
100
AcDbLine
 62
7
  6
CONTINUOUS
 10
5.8317531399
 20
-43.2450773934
 11
5.837695765
 21
-43.0883784879
  0
LINE
  5
447
100
AcDbEntity
  8
RACCORDO
100
AcDbLine
 62
250
  6
CONTINUOUS
 10
5.6890447464
 20
-43.4492066587
 11
5.6975260461
 21
-43.2621586891
  0
LINE
  5
448
100
AcDbEntity
  8
RACCORDO
100
AcDbLine
 62
7
  6
CONTINUOUS
 10
6.8056605071
 20
-39.9809784229
 11
6.8318236726
 21
-39.603209751
  0
LWPOLYLINE
  5
449
100
AcDbEntity
  8
RACCORDO
100
AcDbPolyline
 62
250
  6
CONTINUOUS
 90
6
 70
0
 10
6.8318236726
 20
-18.3855873586
 10
6.8312222596
 20
-18.3933366082
 10
6.8255980385
 20
-18.4103436459
 10
6.8142158714
 20
-18.4266150496
 10
6.7974139803
 20
-18.4416673235
 10
6.7756916327
 20
-18.4550531953
  0
LWPOLYLINE
  5
44A
100
AcDbEntity
  8
RACCORDO
100
AcDbPolyline
 62
250
  6
CONTINUOUS
 90
6
 70
0
 10
6.8318236726
 20
-38.0443640245
 10
6.8312222596
 20
-38.0521132741
 10
6.8255980385
 20
-38.0691203118
 10
6.8142158714
 20
-38.0853917155
 10
6.7974139803
 20
-38.1004439894
 10
6.7756916327
 20
-38.1138298612
  0
LWPOLYLINE
  5
44B
100
AcDbEntity
  8
RACCORDO
100
AcDbPolyline
 62
250
  6
CONTINUOUS
 90
6
 70
0
 10
6.8318236726
 20
-39.603209751
 10
6.8312222608
 20
-39.6109589934
 10
6.825598046
 20
-39.627966024
 10
6.8142158836
 20
-39.6442374287
 10
6.7974139914
 20
-39.6592897081
 10
6.7756916327
 20
-39.6726755881
  0
LWPOLYLINE
  5
44C
100
AcDbEntity
  8
RACCORDO
100
AcDbPolyline
 62
250
  6
CONTINUOUS
 90
10
 70
0
 10
6.769680588
 20
-39.8574154293
 10
6.7508083991
 20
-40.0412964893
 10
6.7178577609
 20
-40.2222365372
 10
6.6697953869
 20
-40.3976085951
 10
6.6055486152
 20
-40.5652609713
 10
6.5237766264
 20
-40.7232742306
 10
6.4235801037
 20
-40.8684610428
 10
6.304291257
 20
-40.9974779725
 10
6.1648182972
 20
-41.1073135069
 10
6.0838492178
 20
-41.155733518
  0
LINE
  5
44D
100
AcDbEntity
  8
RACCORDO
100
AcDbLine
 62
7
  6
CONTINUOUS
 10
-10.2487679263
 20
-52.5528502313
 11
-9.9544000672
 21
-52.2318754123
  0
LWPOLYLINE
  5
44E
100
AcDbEntity
  8
0
100
AcDbPolyline
 62
7
  6
CONTINUOUS
 90
3
 70
0
 10
-9.4992662702
 20
-51.9997164885
 10
-9.843057133
 20
-52.3450044154
 10
-10.1977578017
 20
-52.6723513597
  0
LWPOLYLINE
  5
44F
100
AcDbEntity
  8
0
100
AcDbPolyline
 62
7
  6
CONTINUOUS
 90
4
 70
0
 10
-10.1977578017
 20
-52.6723513597
 10
-10.5633682763
 20
-52.9817573213
 10
-10.9401905093
 20
-53.2734335738
 10
-11.3279225483
 20
-53.5471688436
  0
LWPOLYLINE
  5
450
100
AcDbEntity
  8
RACCORDO
100
AcDbPolyline
 62
250
  6
CONTINUOUS
 90
5
 70
0
 10
-11.5083611868
 20
-53.3106262385
 10
-11.1799578141
 20
-53.0445583369
 10
-10.8639718103
 20
-52.7612310564
 10
-10.5601176016
 20
-52.4604567157
 10
-10.268395188
 20
-52.1422353147
  0
LWPOLYLINE
  5
451
100
AcDbEntity
  8
RACCORDO
100
AcDbPolyline
 62
250
  6
CONTINUOUS
 90
6
 70
0
 10
9.3961153927
 20
-33.9457216965
 10
9.4365168492
 20
-33.9166592161
 10
9.4725108629
 20
-33.8725120579
 10
9.4986298131
 20
-33.8170871739
 10
9.5142000464
 20
-33.7519620036
 10
9.5187290713
 20
-33.6791544429
  0
LINE
  5
452
100
AcDbEntity
  8
RACCORDO
100
AcDbLine
 62
250
  6
CONTINUOUS
 10
5.8378561459
 20
-38.5994083992
 11
6.7756916327
 21
-38.1138298612
  0
LINE
  5
453
100
AcDbEntity
  8
RACCORDO
100
AcDbLine
 62
250
  6
CONTINUOUS
 10
5.8378561459
 20
-40.158254126
 11
6.7756916327
 21
-39.672675588
  0
LWPOLYLINE
  5
454
100
AcDbEntity
  8
SUPERFICI
100
AcDbPolyline
 62
7
  6
CONTINUOUS
 90
5
 70
0
 10
-16.7208568078
 20
-9.8705236174
 10
-16.6813848041
 20
-9.8604221295
 10
-16.6407725694
 20
-9.8542793371
 10
-16.5990201038
 20
-9.8520952402
 10
-16.5559411579
 20
-9.8538940893
  0
LINE
  5
455
100
AcDbEntity
  8
SUPERFICI
100
AcDbLine
 62
7
  6
CONTINUOUS
 10
-13.0903631882
 20
-10.5008579145
 11
-14.3452234437
 21
-10.459095449
  0
LWPOLYLINE
  5
456
100
AcDbEntity
  8
RACCORDO
100
AcDbPolyline
 62
250
  6
CONTINUOUS
 90
6
 70
0
 10
-15.8015787484
 20
-9.3904324384
 10
-15.8279374586
 20
-9.3893309528
 10
-15.8534833379
 20
-9.3912343621
 10
-15.8780386049
 20
-9.3961140819
 10
-15.901442068
 20
-9.4039181128
 10
-15.9118724358
 20
-9.4085246849
  0
LWPOLYLINE
  5
457
100
AcDbEntity
  8
SUPERFICI
100
AcDbPolyline
 62
7
  6
CONTINUOUS
 90
6
 70
0
 10
-16.5559411579
 20
-9.8538940893
 10
-16.511721981
 20
-9.8596516339
 10
-16.4669213217
 20
-9.8692951222
 10
-16.4217254295
 20
-9.8828003038
 10
-16.3759480548
 20
-9.9001914293
 10
-16.3295891977
 20
-9.9214684985
  0
LWPOLYLINE
  5
458
100
AcDbEntity
  8
RACCORDO
100
AcDbPolyline
 62
250
  6
CONTINUOUS
 90
3
 70
0
 10
5.3736771484
 20
-14.1087045972
 10
5.329743189
 20
-14.0933016707
 10
5.2749510933
 20
-14.0886663155
  0
LWPOLYLINE
  5
459
100
AcDbEntity
  8
RACCORDO
100
AcDbPolyline
 62
250
  6
CONTINUOUS
 90
6
 70
0
 10
-9.019011248
 20
-7.032259198
 10
-9.0432581654
 20
-7.0209578125
 10
-9.0681360407
 20
-7.011562209
 10
-9.0935047351
 20
-7.0043196786
 10
-9.1192021458
 20
-6.9994782956
 10
-9.1450440853
 20
-6.9972832223
  0
LWPOLYLINE
  5
45A
100
AcDbEntity
  8
RACCORDO
100
AcDbPolyline
 62
7
  6
CONTINUOUS
 90
8
 70
0
 10
-8.8008572785
 20
-7.0214382206
 10
-8.8127477376
 20
-7.0156643258
 10
-8.870393834
 20
-6.9928537028
 10
-8.9303102899
 20
-6.9773742618
 10
-8.9916902488
 20
-6.9694141039
 10
-9.0542484673
 20
-6.9691367259
 10
-9.1170591054
 20
-6.9768059402
 10
-9.1785889054
 20
-6.9924078616
  0
LINE
  5
45B
100
AcDbEntity
  8
ASSI
100
AcDbLine
 62
7
  6
CONTINUOUS
 10
-7.1381614465
 20
-8.7896701474
 11
-3.9742929655
 21
-10.371604388
  0
LINE
  5
45C
100
AcDbEntity
  8
ASSI
100
AcDbLine
 62
7
  6
CONTINUOUS
 10
-0.0670936347
 20
-12.3252040533
 11
3.0967748464
 21
-13.9071382939
  0
LINE
  5
45D
100
AcDbEntity
  8
0
100
AcDbLine
 62
250
  6
CONTINUOUS
 10
-3.1394620731
 20
-9.9720337854
 11
-0.7227682234
 21
-11.1803807102
  0
LINE
  5
45E
100
AcDbEntity
  8
0
100
AcDbLine
 62
250
  6
CONTINUOUS
 10
3.9316057387
 20
-13.5075676913
 11
5.1567809519
 21
-14.1201552979
  0
LINE
  5
45F
100
AcDbEntity
  8
0
100
AcDbLine
 62
250
  6
CONTINUOUS
 10
-7.7938360353
 20
-7.6448468043
 11
-9.0190112485
 21
-7.0322591977
  0
LINE
  5
460
100
AcDbEntity
  8
RACCORDO
100
AcDbLine
 62
7
  6
CONTINUOUS
 10
-3.0047089414
 20
-9.9195104663
 11
-0.6748082694
 21
-11.0844608023
  0
LINE
  5
461
100
AcDbEntity
  8
RACCORDO
100
AcDbLine
 62
7
  6
CONTINUOUS
 10
4.0663588705
 20
-13.4550443722
 11
5.3742173922
 21
-14.1089736331
  0
LINE
  5
462
100
AcDbEntity
  8
RACCORDO
100
AcDbLine
 62
7
  6
CONTINUOUS
 10
-7.7458760813
 20
-7.5489268963
 11
-8.8015748082
 21
-7.0210775329
  0
LWPOLYLINE
  5
463
100
AcDbEntity
  8
RACCORDO
100
AcDbPolyline
 62
250
  6
CONTINUOUS
 90
9
 70
0
 10
5.156780952
 20
-14.1201552979
 10
5.1900399583
 20
-14.1383875543
 10
5.2241431254
 20
-14.1611232624
 10
5.258715049
 20
-14.1885493419
 10
5.29326232
 20
-14.2207248096
 10
5.3273405047
 20
-14.2577167509
 10
5.3605289076
 20
-14.2996408748
 10
5.39221438
 20
-14.3464094044
 10
5.4216271694
 20
-14.3976576983
  0
LWPOLYLINE
  5
464
100
AcDbEntity
  8
RACCORDO
100
AcDbPolyline
 62
7
  6
CONTINUOUS
 90
3
 70
0
 10
5.3736771484
 20
-14.1087045972
 10
5.418219316
 20
-14.133830503
 10
5.4640769477
 20
-14.1666505225
  0
LWPOLYLINE
  5
465
100
AcDbEntity
  8
RACCORDO
100
AcDbPolyline
 62
250
  6
CONTINUOUS
 90
7
 70
0
 10
-0.0470178739
 20
-15.0859866748
 10
-0.0003359664
 20
-15.1246394866
 10
0.043896893
 20
-15.1657399129
 10
0.0856807043
 20
-15.2092879535
 10
0.125626972
 20
-15.2555015071
 10
0.1631241917
 20
-15.304162675
 10
0.1666747156
 20
-15.3095562993
  0
LWPOLYLINE
  5
466
100
AcDbEntity
  8
RACCORDO
100
AcDbPolyline
 62
250
  6
CONTINUOUS
 90
3
 70
0
 10
9.3442055641
 20
-20.7220627329
 10
9.2878483905
 20
-20.6625012514
 10
9.2275795352
 20
-20.6135797944
  0
LWPOLYLINE
  5
467
100
AcDbEntity
  8
RACCORDO
100
AcDbPolyline
 62
7
  6
CONTINUOUS
 90
5
 70
0
 10
0.2517513432
 20
-15.2688365324
 10
0.2304000672
 20
-15.2444212673
 10
0.1758507354
 20
-15.1892000976
 10
0.1162026122
 20
-15.1353743537
 10
0.0580137003
 20
-15.0880796634
  0
LINE
  5
468
100
AcDbEntity
  8
RACCORDO
100
AcDbLine
 62
250
  6
CONTINUOUS
 10
5.5918282147
 20
-14.849121574
 11
5.6397587378
 21
-15.0397982541
  0
LWPOLYLINE
  5
469
100
AcDbEntity
  8
RACCORDO
100
AcDbPolyline
 62
7
  6
CONTINUOUS
 90
4
 70
0
 10
5.7993366483
 20
-14.973199767
 10
5.7467532452
 20
-14.7434022457
 10
5.6736209076
 20
-14.5165598812
 10
5.6084291407
 20
-14.3551407493
  0
LWPOLYLINE
  5
46A
100
AcDbEntity
  8
RACCORDO
100
AcDbPolyline
 62
250
  6
CONTINUOUS
 90
5
 70
0
 10
5.6081751387
 20
-14.3546068095
 10
5.60836986
 20
-14.355625603
 10
5.6016365431
 20
-14.3653219042
 10
5.5813901232
 20
-14.3798706307
 10
5.5482632405
 20
-14.3986514595
  0
LWPOLYLINE
  5
46B
100
AcDbEntity
  8
RACCORDO
100
AcDbPolyline
 62
7
  6
CONTINUOUS
 90
6
 70
0
 10
6.8073773241
 20
-17.9971970837
 10
6.7351851102
 20
-17.5976430856
 10
6.6176128264
 20
-17.1961686184
 10
6.4578509599
 20
-16.8019751671
 10
6.2597790764
 20
-16.4239362393
 10
6.0278254917
 20
-16.0704770555
  0
LWPOLYLINE
  5
46C
100
AcDbEntity
  8
RACCORDO
100
AcDbPolyline
 62
250
  6
CONTINUOUS
 90
3
 70
0
 10
5.6397587378
 20
-15.0397982541
 10
5.6726838998
 20
-15.2228553069
 10
5.6915725137
 20
-15.3967423042
  0
LINE
  5
46D
100
AcDbEntity
  8
RACCORDO
100
AcDbLine
 62
7
  6
CONTINUOUS
 10
6.7108640378
 20
-17.8107287689
 11
6.7596128246
 21
-18.1403420374
  0
LWPOLYLINE
  5
46E
100
AcDbEntity
  8
RACCORDO
100
AcDbPolyline
 62
250
  6
CONTINUOUS
 90
7
 70
0
 10
9.5187290713
 20
-21.1864807641
 10
9.514319237
 20
-21.1081326245
 10
9.4991191805
 20
-21.0268894629
 10
9.4735905692
 20
-20.9452188568
 10
9.438508777
 20
-20.8656013665
 10
9.3949393342
 20
-20.7904551934
 10
9.3442055641
 20
-20.7220627329
  0
LINE
  5
46F
100
AcDbEntity
  8
RACCORDO
100
AcDbLine
 62
7
  6
CONTINUOUS
 10
9.6568372924
 20
-20.9657403865
 11
9.6590573511
 21
-21.0121416223
  0
LINE
  5
470
100
AcDbEntity
  8
RACCORDO
100
AcDbLine
 62
250
  6
CONTINUOUS
 10
9.5187290713
 20
-33.6791544429
 11
9.5187290713
 21
-21.1864807641
  0
LINE
  5
471
100
AcDbEntity
  8
RACCORDO
100
AcDbLine
 62
7
  6
CONTINUOUS
 10
9.6590577789
 20
-33.5060798139
 11
9.6590573511
 21
-21.0121416223
  0
LINE
  5
472
100
AcDbEntity
  8
RACCORDO
100
AcDbLine
 62
7
  6
CONTINUOUS
 10
9.6568612818
 20
-33.5523133277
 11
9.6590577789
 21
-33.5060798139
  0
LWPOLYLINE
  5
473
100
AcDbEntity
  8
RACCORDO
100
AcDbPolyline
 62
250
  6
CONTINUOUS
 90
6
 70
0
 10
9.6590588532
 20
-21.0130981281
 10
9.6570854466
 20
-21.0350075491
 10
9.6419873701
 20
-21.0775856757
 10
9.6129872774
 20
-21.1176365826
 10
9.5713653548
 20
-21.1542407194
 10
9.5187290713
 20
-21.1864807641
  0
LINE
  5
474
100
AcDbEntity
  8
RACCORDO
100
AcDbLine
 62
7
  6
CONTINUOUS
 10
6.7288781422
 20
-40.3217111394
 11
6.8056605071
 21
-39.9809784229
  0
LWPOLYLINE
  5
475
100
AcDbEntity
  8
RACCORDO
100
AcDbPolyline
 62
7
  6
CONTINUOUS
 90
3
 70
0
 10
5.7713821634
 20
-43.5856396758
 10
5.8094834
 20
-43.4209365484
 10
5.8317531399
 20
-43.2450773934
  0
LWPOLYLINE
  5
476
100
AcDbEntity
  8
RACCORDO
100
AcDbPolyline
 62
250
  6
CONTINUOUS
 90
3
 70
0
 10
5.6196779838
 20
-43.7908337137
 10
5.663082331
 20
-43.6262253558
 10
5.6890447464
 20
-43.4492066587
  0
LWPOLYLINE
  5
477
100
AcDbEntity
  8
RACCORDO
100
AcDbPolyline
 62
7
  6
CONTINUOUS
 90
3
 70
0
 10
5.6505342955
 20
-43.8795757284
 10
5.7181482145
 20
-43.7388529703
 10
5.7713821634
 20
-43.5856396758
  0
LWPOLYLINE
  5
478
100
AcDbEntity
  8
RACCORDO
100
AcDbPolyline
 62
250
  6
CONTINUOUS
 90
4
 70
0
 10
9.6158924074
 20
-33.6071060328
 10
9.6442522666
 20
-33.5658795434
 10
9.6578772868
 20
-33.522668962
 10
9.6590577789
 20
-33.5060798139
  0
LWPOLYLINE
  5
479
100
AcDbEntity
  8
RACCORDO
100
AcDbPolyline
 62
7
  6
CONTINUOUS
 90
4
 70
0
 10
-11.2074070694
 20
-53.4117726398
 10
-10.8755760278
 20
-53.1430387206
 10
-10.5559207247
 20
-52.8566505685
 10
-10.2487679263
 20
-52.5528502313
  0
LWPOLYLINE
  5
47A
100
AcDbEntity
  8
RACCORDO
100
AcDbPolyline
 62
250
  6
CONTINUOUS
 90
3
 70
0
 10
5.3886824286
 20
-44.188031451
 10
5.4443783321
 20
-44.1504241741
 10
5.4657236625
 20
-44.1304034661
  0
LWPOLYLINE
  5
47B
100
AcDbEntity
  8
RACCORDO
100
AcDbPolyline
 62
250
  6
CONTINUOUS
 90
3
 70
0
 10
-3.1682421656
 20
-49.1360766194
 10
-3.1917132219
 20
-49.1517016054
 10
-3.19736261
 20
-49.1547855567
  0
LWPOLYLINE
  5
47C
100
AcDbEntity
  8
RACCORDO
100
AcDbPolyline
 62
250
  6
CONTINUOUS
 90
3
 70
0
 10
-12.2007065955
 20
-53.7898578169
 10
-11.8488963547
 20
-53.5592470798
 10
-11.5083611868
 20
-53.3106262385
  0
LWPOLYLINE
  5
47D
100
AcDbEntity
  8
0
100
AcDbPolyline
 62
7
  6
CONTINUOUS
 90
3
 70
0
 10
-11.3279225483
 20
-53.5471688436
 10
-11.7256585359
 20
-53.8023293107
 10
-12.1330965199
 20
-54.0387037018
  0
LINE
  5
47E
100
AcDbEntity
  8
RACCORDO
100
AcDbLine
 62
7
  6
CONTINUOUS
 10
-3.8507709992
 20
-49.5432431962
 11
-3.851103796
 21
-49.5434566471
  0
LWPOLYLINE
  5
47F
100
AcDbEntity
  8
RACCORDO
100
AcDbPolyline
 62
7
  6
CONTINUOUS
 90
5
 70
0
 10
6.0838490051
 20
-41.1557336303
 10
6.2317665954
 20
-41.0613612553
 10
6.4374299132
 20
-40.8666858798
 10
6.6045911279
 20
-40.6190388087
 10
6.7288781422
 20
-40.3217111394
  0
LINE
  5
480
100
AcDbEntity
  8
RACCORDO
100
AcDbLine
 62
250
  6
CONTINUOUS
 10
-3.8121771093
 20
-49.5170446946
 11
-3.858087238
 21
-49.5461277817
  0
LWPOLYLINE
  5
481
100
AcDbEntity
  8
RACCORDO
100
AcDbPolyline
 62
7
  6
CONTINUOUS
 90
8
 70
0
 10
-3.8507037765
 20
-49.543202646
 10
-3.8247816743
 20
-49.5267904746
 10
-3.698369132
 20
-49.447512413
 10
-3.5737815334
 20
-49.3709088226
 10
-3.4539879395
 20
-49.2991097617
 10
-3.3432079413
 20
-49.2348506912
 10
-3.2464179943
 20
-49.1809907309
 10
-3.1981855072
 20
-49.1552149613
  0
LWPOLYLINE
  5
482
100
AcDbEntity
  8
RACCORDO
100
AcDbPolyline
 62
250
  6
CONTINUOUS
 90
4
 70
0
 10
-3.858087238
 20
-49.5461277817
 10
-4.2103591369
 20
-49.7673484907
 10
-4.5614366434
 20
-49.9827371504
 10
-4.9112658604
 20
-50.1923131978
  0
LWPOLYLINE
  5
483
100
AcDbEntity
  8
RACCORDO
100
AcDbPolyline
 62
250
  6
CONTINUOUS
 90
6
 70
0
 10
5.6975260461
 20
-43.2621586891
 10
5.751831952
 20
-43.2286940039
 10
5.7938366847
 20
-43.1910633137
 10
5.8222920877
 20
-43.1503848042
 10
5.8363526188
 20
-43.1078672232
 10
5.8378561459
 20
-43.088494126
  0
LWPOLYLINE
  5
484
100
AcDbEntity
  8
RACCORDO
100
AcDbPolyline
 62
250
  6
CONTINUOUS
 90
8
 70
0
 10
-3.5051127094
 20
-49.3274833621
 10
-3.5465005599
 20
-49.3524143901
 10
-3.5888666394
 20
-49.3781688047
 10
-3.6323238554
 20
-49.4048101274
 10
-3.6767692657
 20
-49.4322583704
 10
-3.7216216383
 20
-49.4601579611
 10
-3.7666905491
 20
-49.4883847168
 10
-3.8121771093
 20
-49.5170446946
  0
LINE
  5
485
100
AcDbEntity
  8
RACCORDO
100
AcDbLine
 62
250
  6
CONTINUOUS
 10
-12.5635063354
 20
-54.0022707685
 11
-12.2007065955
 21
-53.7898578169
  0
LWPOLYLINE
  5
486
100
AcDbEntity
  8
RACCORDO
100
AcDbPolyline
 62
7
  6
CONTINUOUS
 90
4
 70
0
 10
-12.2735082691
 20
-54.1103216307
 10
-11.9066106967
 20
-53.8955656048
 10
-11.5511512191
 20
-53.6626616194
 10
-11.2074070694
 20
-53.4117726398
  0
LINE
  5
487
100
AcDbEntity
  8
RACCORDO
100
AcDbLine
 62
250
  6
CONTINUOUS
 10
-4.9112658604
 20
-50.1923131978
 11
-5.259793201
 21
-50.3960970553
  0
LINE
  5
488
100
AcDbEntity
  8
RACCORDO
100
AcDbLine
 62
250
  6
CONTINUOUS
 10
-5.259793201
 20
-50.3960970553
 11
-5.6069654018
 21
-50.5941101071
  0
LINE
  5
489
100
AcDbEntity
  8
RACCORDO
100
AcDbLine
 62
250
  6
CONTINUOUS
 10
-5.6069654018
 20
-50.5941101071
 11
-5.952729536
 21
-50.7863746761
  0
LWPOLYLINE
  5
48A
100
AcDbEntity
  8
RACCORDO
100
AcDbPolyline
 62
7
  6
CONTINUOUS
 90
8
 70
0
 10
-5.9506040336
 20
-50.7853202686
 10
-5.7265945814
 20
-50.661379063
 10
-5.3987011338
 20
-50.476266332
 10
-5.0692133621
 20
-50.2858372506
 10
-4.7381896943
 20
-50.0900673769
 10
-4.4056935099
 20
-49.8889372466
 10
-4.0717863808
 20
-49.6824284375
 10
-3.851103796
 20
-49.5434566471
  0
LINE
  5
48B
100
AcDbEntity
  8
RACCORDO
100
AcDbLine
 62
7
  6
CONTINUOUS
 10
-8.6829372372
 20
-52.2290728169
 11
-8.638968491
 21
-52.2049693897
  0
LINE
  5
48C
100
AcDbEntity
  8
RACCORDO
100
AcDbLine
 62
250
  6
CONTINUOUS
 10
6.0838492178
 20
-41.155733518
 11
6.0805763638
 21
-41.1574871628
  0
LINE
  5
48D
100
AcDbEntity
  8
0
100
AcDbLine
 62
7
  6
CONTINUOUS
 10
4.1599457148
 20
-45.2852437614
 11
3.1480847313
 21
-45.8213792522
  0
LWPOLYLINE
  5
48E
100
AcDbEntity
  8
RACCORDO
100
AcDbPolyline
 62
250
  6
CONTINUOUS
 90
11
 70
0
 10
-3.1682393607
 20
-49.1360827316
 10
-3.1948942843
 20
-49.1501689525
 10
-3.2231467683
 20
-49.1653885789
 10
-3.2529972273
 20
-49.1817411273
 10
-3.2844746606
 20
-49.1992268379
 10
-3.3175517891
 20
-49.217843026
 10
-3.3521452624
 20
-49.2375837611
 10
-3.3883270679
 20
-49.2584908897
 10
-3.426029503
 20
-49.2805158987
 10
-3.4649606041
 20
-49.3035157839
 10
-3.5051127094
 20
-49.3274833621
  0
LINE
  5
48F
100
AcDbEntity
  8
RACCORDO
100
AcDbLine
 62
7
  6
CONTINUOUS
 10
-5.952729536
 20
-50.7863746761
 11
-8.638968491
 21
-52.2049693897
  0
LINE
  5
490
100
AcDbEntity
  8
DRAFT
100
AcDbLine
 62
7
  6
CONTINUOUS
 10
6.0765616658
 20
-41.1596178044
 11
5.8378561459
 21
-41.2856327258
  0
LINE
  5
491
100
AcDbEntity
  8
RACCORDO
100
AcDbLine
 62
7
  6
CONTINUOUS
 10
-12.5794754259
 20
-54.2711633248
 11
-12.2735082691
 21
-54.1103216307
  0
LWPOLYLINE
  5
492
100
AcDbEntity
  8
0
100
AcDbPolyline
 62
7
  6
CONTINUOUS
 90
4
 70
0
 10
1.9008103277
 20
-46.4791482539
 10
2.1706004062
 20
-46.3373967403
 10
2.658861161
 20
-46.0801174429
 10
3.1480847313
 20
-45.8213792522
  0
LINE
  5
493
100
AcDbEntity
  8
RACCORDO
100
AcDbLine
 62
250
  6
CONTINUOUS
 10
5.6975260461
 20
-43.262158689
 11
-8.6901552661
 21
-50.8207777975
  0
LINE
  5
494
100
AcDbEntity
  8
RACCORDO
100
AcDbLine
 62
250
  6
CONTINUOUS
 10
5.3886824285
 20
-44.1880314511
 11
-6.6040752669
 21
-50.4866777747
  0
LINE
  5
495
100
AcDbEntity
  8
RACCORDO
100
AcDbLine
 62
250
  6
CONTINUOUS
 10
-6.6040752669
 20
-50.4866777747
 11
-8.6901552661
 21
-51.5822337001
  0
LINE
  5
496
100
AcDbEntity
  8
0
100
AcDbLine
 62
7
  6
CONTINUOUS
 10
-12.1330965199
 20
-54.0387037018
 11
-12.5018386691
 21
-54.2323091172
  0
LINE
  5
497
100
AcDbEntity
  8
0
100
AcDbLine
 62
250
  6
CONTINUOUS
 10
3.1480853399
 20
-45.8213789297
 11
-2.116712644
 21
-48.5843199521
  0
LINE
  5
498
100
AcDbEntity
  8
0
100
AcDbLine
 62
250
  6
CONTINUOUS
 10
-2.116712644
 20
-48.5843199521
 11
-3.1682393607
 21
-49.1360827316
  0
LINE
  5
499
100
AcDbEntity
  8
RACCORDO
100
AcDbLine
 62
7
  6
CONTINUOUS
 10
1.900809395
 20
-46.4791466877
 11
-3.1981855072
 21
-49.1552149613
  0
LINE
  5
49A
100
AcDbEntity
  8
RACCORDO
100
AcDbLine
 62
250
  6
CONTINUOUS
 10
-12.7149924127
 20
-54.0809965307
 11
-12.5635063354
 21
-54.0022707685
  0
LINE
  5
49B
100
AcDbEntity
  8
RACCORDO
100
AcDbLine
 62
250
  6
CONTINUOUS
 10
-5.9527820333
 20
-50.7864024014
 11
-5.9504744785
 21
-50.7852031465
  0
LINE
  5
49C
100
AcDbEntity
  8
0
100
AcDbLine
 62
250
  6
CONTINUOUS
 10
-9.9544000672
 20
-52.2318754123
 11
-9.4992662702
 21
-51.9997164885
  0
LINE
  5
49D
100
AcDbEntity
  8
0
100
AcDbLine
 62
250
  6
CONTINUOUS
 10
-9.7472578935
 20
-51.3588326291
 11
-9.0877358413
 21
-51.0228876856
  0
LINE
  5
49E
100
AcDbEntity
  8
RACCORDO
100
AcDbLine
 62
250
  6
CONTINUOUS
 10
-11.6135884029
 20
-51.4550295675
 11
-12.5641563806
 21
-51.8940402947
  0
LINE
  5
49F
100
AcDbEntity
  8
RACCORDO
100
AcDbLine
 62
7
  6
CONTINUOUS
 10
-11.8165346084
 20
-51.9697650652
 11
-12.5941484969
 21
-52.3288929281
  0
LINE
  5
4A0
100
AcDbEntity
  8
RACCORDO
100
AcDbLine
 62
250
  6
CONTINUOUS
 10
-3.851103796
 20
-49.5434566471
 11
-3.8610138729
 21
-49.5479676843
  0
LWPOLYLINE
  5
4A1
100
AcDbEntity
  8
RACCORDO
100
AcDbPolyline
 62
250
  6
CONTINUOUS
 90
5
 70
0
 10
-9.1450440853
 20
-6.9972832223
 10
-9.1708241557
 20
-6.9979728918
 10
-9.1963158031
 20
-7.0017751612
 10
-9.2212665476
 20
-7.0089015071
 10
-9.2375941943
 20
-7.015653423
  0
LINE
  5
4A2
100
AcDbEntity
  8
RACCORDO
100
AcDbLine
 62
250
  6
CONTINUOUS
 10
-8.9008483084
 20
-7.0007705026
 11
-8.8460569523
 21
-7.0054038256
  0
LWPOLYLINE
  5
4A3
100
AcDbEntity
  8
0
100
AcDbPolyline
 62
7
  6
CONTINUOUS
 90
13
 70
0
 10
-36.7003761465
 20
-3.8764426296
 10
-36.7334203605
 20
-3.8728436829
 10
-36.7656419239
 20
-3.870827948
 10
-36.7969196589
 20
-3.8702607088
 10
-36.8272174734
 20
-3.8709571596
 10
-36.8563615341
 20
-3.8728091181
 10
-36.88403931
 20
-3.8757897741
 10
-36.9100712302
 20
-3.8797402285
 10
-36.9345001864
 20
-3.884509487
 10
-36.9573372494
 20
-3.8901000472
 10
-36.978529196
 20
-3.8964229362
 10
-36.9979890099
 20
-3.9032814685
 10
-37.0156636342
 20
-3.9105255254
  0
LINE
  5
4A4
100
AcDbEntity
  8
RACCORDO
100
AcDbLine
 62
250
  6
CONTINUOUS
 10
-8.8460569523
 20
-7.0054038256
 11
-8.8016937125
 21
-7.0210181334
  0
LWPOLYLINE
  5
4A5
100
AcDbEntity
  8
RACCORDO
100
AcDbPolyline
 62
7
  6
CONTINUOUS
 90
6
 70
0
 10
5.4640769477
 20
-14.1666505225
 10
5.5060431972
 20
-14.2045231206
 10
5.5435564723
 20
-14.2470052326
 10
5.5761806401
 20
-14.2937179233
 10
5.6034095734
 20
-14.3441196529
 10
5.6081510283
 20
-14.354553408
  0
LWPOLYLINE
  5
4A6
100
AcDbEntity
  8
RACCORDO
100
AcDbPolyline
 62
7
  6
CONTINUOUS
 90
5
 70
0
 10
9.5084793191
 20
-20.6551773031
 10
9.5651767583
 20
-20.721151177
 10
9.6097790087
 20
-20.7963639369
 10
9.6407383177
 20
-20.8787072615
 10
9.6568372924
 20
-20.9657403865
  0
LINE
  5
4A7
100
AcDbEntity
  8
RACCORDO
100
AcDbLine
 62
7
  6
CONTINUOUS
 10
6.0278254917
 20
-16.0704770555
 11
5.8378561459
 21
-15.8368840048
  0
LINE
  5
4A8
100
AcDbEntity
  8
RACCORDO
100
AcDbLine
 62
7
  6
CONTINUOUS
 10
5.8378561459
 20
-15.9433983641
 11
5.9999881149
 21
-16.1558965686
  0
LWPOLYLINE
  5
4A9
100
AcDbEntity
  8
RACCORDO
100
AcDbPolyline
 62
7
  6
CONTINUOUS
 90
6
 70
0
 10
5.9999881149
 20
-16.1558965686
 10
6.1919304587
 20
-16.4551801067
 10
6.3649577057
 20
-16.7802726969
 10
6.5132401226
 20
-17.1246379935
 10
6.6291098012
 20
-17.4714601765
 10
6.7108640378
 20
-17.8107287689
  0
LINE
  5
4AA
100
AcDbEntity
  8
RACCORDO
100
AcDbLine
 62
250
  6
CONTINUOUS
 10
5.4216271694
 20
-14.3976576983
 11
5.4479993046
 21
-14.4529180474
  0
LINE
  5
4AB
100
AcDbEntity
  8
RACCORDO
100
AcDbLine
 62
250
  6
CONTINUOUS
 10
5.4480070639
 20
-14.452935638
 11
5.5281004403
 21
-14.652738758
  0
LINE
  5
4AC
100
AcDbEntity
  8
RACCORDO
100
AcDbLine
 62
250
  6
CONTINUOUS
 10
5.5281004403
 20
-14.652738758
 11
5.5918282147
 21
-14.849121574
  0
LWPOLYLINE
  5
4AD
100
AcDbEntity
  8
RACCORDO
100
AcDbPolyline
 62
250
  6
CONTINUOUS
 90
4
 70
0
 10
5.3886824287
 20
-44.1880314514
 10
5.481855519
 20
-44.0738093428
 10
5.5591009821
 20
-43.9407466371
 10
5.6196779838
 20
-43.7908337137
  0
LWPOLYLINE
  5
4AE
100
AcDbEntity
  8
RACCORDO
100
AcDbPolyline
 62
7
  6
CONTINUOUS
 90
4
 70
0
 10
5.466311623
 20
-44.1294265162
 10
5.4778764232
 20
-44.1172838897
 10
5.5698935843
 20
-44.0060520261
 10
5.6505342955
 20
-43.8795757284
  0
LWPOLYLINE
  5
4AF
100
AcDbEntity
  8
RACCORDO
100
AcDbPolyline
 62
7
  6
CONTINUOUS
 90
4
 70
0
 10
5.4657236625
 20
-44.1304034661
 10
5.3322147205
 20
-44.2663064932
 10
5.1969871238
 20
-44.3995620208
 10
5.060058821
 20
-44.5301569439
  0
LWPOLYLINE
  5
4B0
100
AcDbEntity
  8
RACCORDO
100
AcDbPolyline
 62
7
  6
CONTINUOUS
 90
3
 70
0
 10
5.060058821
 20
-44.5301569439
 10
4.9214498759
 20
-44.6580767578
 10
4.7811767545
 20
-44.7833108572
  0
LWPOLYLINE
  5
4B1
100
AcDbEntity
  8
0
100
AcDbPolyline
 62
250
  6
CONTINUOUS
 90
4
 70
0
 10
4.7911026217
 20
-44.7627501183
 10
4.9940928455
 20
-44.5769143747
 10
5.1933022444
 20
-44.3853244863
 10
5.3886824285
 20
-44.1880314511
  0
LWPOLYLINE
  5
4B2
100
AcDbEntity
  8
RACCORDO
100
AcDbPolyline
 62
7
  6
CONTINUOUS
 90
5
 70
0
 10
4.7811767545
 20
-44.7833108572
 10
4.6392521493
 20
-44.9058521175
 10
4.4956927236
 20
-45.02568999
 10
4.350519284
 20
-45.1428109242
 10
4.2042086917
 20
-45.2568527467
  0
LWPOLYLINE
  5
4B3
100
AcDbEntity
  8
0
100
AcDbPolyline
 62
250
  6
CONTINUOUS
 90
4
 70
0
 10
4.1599457148
 20
-45.2852437614
 10
4.3739782085
 20
-45.1169622523
 10
4.584380955
 20
-44.942782131
 10
4.7911026217
 20
-44.7627501183
  0
LINE
  5
4B4
100
AcDbEntity
  8
0
100
AcDbLine
 62
7
  6
CONTINUOUS
 10
4.1599457148
 20
-45.2852437614
 11
4.2035460223
 21
-45.2559776264
  0
LINE
  5
4B5
100
AcDbEntity
  8
ASSI
100
AcDbLine
 62
7
  6
CONTINUOUS
 10
-12.5808421395
 20
-54.2718466825
 11
-12.5023412375
 21
-54.2325962315
  0
LINE
  5
4B6
100
AcDbEntity
  8
RACCORDO
100
AcDbLine
 62
7
  6
CONTINUOUS
 10
-12.6514870315
 20
-54.3067447583
 11
-12.5794754259
 21
-54.2711633248
  0
LINE
  5
4B7
100
AcDbEntity
  8
RACCORDO
100
AcDbLine
 62
7
  6
CONTINUOUS
 10
-12.7331402895
 20
-54.3441207434
 11
-12.6514870315
 21
-54.3067447583
  0
LINE
  5
4B8
100
AcDbEntity
  8
0
100
AcDbLine
 62
250
  6
CONTINUOUS
 10
-9.2144906103
 20
-56.2620551563
 11
-9.2316219032
 21
-56.2704165931
  0
LINE
  5
4B9
100
AcDbEntity
  8
0
100
AcDbLine
 62
250
  6
CONTINUOUS
 10
-9.0877358413
 20
-55.9933897868
 11
-8.6901552661
 21
-55.8265016105
  0
LINE
  5
4BA
100
AcDbEntity
  8
0
100
AcDbLine
 62
7
  6
CONTINUOUS
 10
-9.2327729101
 20
-56.2709041213
 11
-8.8318576563
 21
-56.1026161824
  0
LWPOLYLINE
  5
4BB
100
AcDbEntity
  8
0
100
AcDbPolyline
 62
250
  6
CONTINUOUS
 90
10
 70
0
 10
-9.0877358413
 20
-55.9933897868
 10
-9.107814691
 20
-56.0015356816
 10
-9.1303931381
 20
-56.0078363944
 10
-9.1548002675
 20
-56.0121047026
 10
-9.1803108274
 20
-56.0142137767
 10
-9.2061667766
 20
-56.0141009476
 10
-9.2315998097
 20
-56.0117695707
 10
-9.2558541921
 20
-56.0072889252
 10
-9.2782092164
 20
-56.0007921545
 10
-9.2980006141
 20
-55.9924723104
  0
LWPOLYLINE
  5
4BC
100
AcDbEntity
  8
RACCORDO
100
AcDbPolyline
 62
250
  6
CONTINUOUS
 90
13
 70
0
 10
-17.6253326859
 20
-58.6836569164
 10
-17.6746179696
 20
-58.7019936028
 10
-17.7288906206
 20
-58.7170255249
 10
-17.7872425123
 20
-58.7285011586
 10
-17.8486972614
 20
-58.7362284859
 10
-17.9122265657
 20
-58.7400782079
 10
-17.9767674099
 20
-58.7399859086
 10
-18.0412398531
 20
-58.7359531322
 10
-18.1045650988
 20
-58.7280473578
 10
-18.1656835462
 20
-58.71640087
 10
-18.2235725203
 20
-58.7012085453
 10
-18.2772633836
 20
-58.682724592
 10
-18.3258577443
 20
-58.661258296
  0
LINE
  5
4BD
100
AcDbEntity
  8
0
100
AcDbLine
 62
7
  6
CONTINUOUS
 10
-9.26632786
 20
-56.2825636388
 11
-9.2316343578
 21
-56.2704216646
  0
LINE
  5
4BE
100
AcDbEntity
  8
RACCORDO
100
AcDbLine
 62
250
  6
CONTINUOUS
 10
-17.3061688227
 20
-58.9801295034
 11
-12.9490290396
 21
-57.4742696979
  0
LINE
  5
4BF
100
AcDbEntity
  8
RACCORDO
100
AcDbLine
 62
7
  6
CONTINUOUS
 10
-13.1280633304
 20
-57.7659520733
 11
-17.4904727273
 21
-59.2736328859
  0
ELLIPSE
  5
4C0
100
AcDbEntity
  8
0
100
AcDbEllipse
 62
7
  6
CONTINUOUS
 10
-24.9536650895
 20
-9.763626448
 30
0.0
 11
-0.2230998035
 21
0.4477110033
 31
0.0
 40
0.6127700112
 41
-2.1605292834
 42
-0.6836588249
  0
ELLIPSE
  5
4C1
100
AcDbEntity
  8
0
100
AcDbEllipse
 62
7
  6
CONTINUOUS
 10
-40.0149318166
 20
-2.2329930845
 30
0.0
 11
-0.2234618187
 21
0.4480306886
 31
0.0
 40
0.6116748051
 41
-0.6831523243
 42
0.0394965165
  0
ELLIPSE
  5
4C2
100
AcDbEntity
  8
RACCORDO
100
AcDbEllipse
 62
7
  6
CONTINUOUS
 10
-30.7634802097
 20
-7.1837830191
 30
0.0
 11
0.0869927845
 21
0.180102834
 31
0.0
 40
0.6016116119
 41
0.7288497708
 42
2.1251131724
  0
ELLIPSE
  5
4C3
100
AcDbEntity
  8
DRAFT
100
AcDbEllipse
 62
7
  6
CONTINUOUS
 10
-20.7664923463
 20
-10.7354073228
 30
0.0
 11
27.3775602615
 21
-16.9207334468
 31
0.0
 40
0.0815186111
 41
1.6623118437
 42
1.6893084912
  0
ELLIPSE
  5
4C4
100
AcDbEntity
  8
RACCORDO
100
AcDbEllipse
 62
7
  6
CONTINUOUS
 10
-35.3049774555
 20
-4.9130343962
 30
0.0
 11
0.0919907694
 21
0.1776025845
 31
0.0
 40
0.6229838795
 41
0.7459652997
 42
2.1422287013
  0
ELLIPSE
  5
4C5
100
AcDbEntity
  8
ASSI
100
AcDbEllipse
 62
7
  6
CONTINUOUS
 10
-37.1490587724
 20
-5.0472261688
 30
0.0
 11
-0.1618715941
 21
0.4757775884
 31
0.0
 40
0.6669175362
 41
3.2318597726
 42
6.3734524261
  0
ELLIPSE
  5
4C6
100
AcDbEntity
  8
ASSI
100
AcDbEllipse
 62
7
  6
CONTINUOUS
 10
-29.3708841793
 20
-8.9363134653
 30
0.0
 11
-0.1618715941
 21
0.4757775884
 31
0.0
 40
0.6669175362
 41
3.2318597726
 42
6.3734524261
  0
ELLIPSE
  5
4C7
100
AcDbEntity
  8
0
100
AcDbEllipse
 62
7
  6
CONTINUOUS
 10
-24.1050292399
 20
-10.1879443728
 30
0.0
 11
-0.2234618187
 21
0.4480306886
 31
0.0
 40
0.6116748051
 41
-0.6831523243
 42
0.0385587115
  0
ELLIPSE
  5
4C8
100
AcDbEntity
  8
0
100
AcDbEllipse
 62
7
  6
CONTINUOUS
 10
-9.0437625128
 20
-55.6493019356
 30
0.0
 11
-0.2234618187
 21
0.4480306886
 31
0.0
 40
0.6116748051
 41
-3.1838623171
 42
-2.2548620396
  0
ELLIPSE
  5
4C9
100
AcDbEntity
  8
0
100
AcDbEllipse
 62
7
  6
CONTINUOUS
 10
-9.0437625128
 20
-17.7185777364
 30
0.0
 11
-0.2230998035
 21
0.4477110033
 31
0.0
 40
0.6127700112
 41
-2.2535417632
 42
-0.6836588249
  0
ELLIPSE
  5
4CA
100
AcDbEntity
  8
RACCORDO
100
AcDbEllipse
 62
7
  6
CONTINUOUS
 10
-12.0173482181
 20
-41.5225790073
 30
0.0
 11
-0.1356545802
 21
0.2119531092
 31
0.0
 40
0.5451249042
 41
-2.9410775077
 42
-2.3115524019
  0
ELLIPSE
  5
4CB
100
AcDbEntity
  8
RACCORDO
100
AcDbEllipse
 62
7
  6
CONTINUOUS
 10
-12.3208298645
 20
-51.1011709558
 30
0.0
 11
-0.542618321
 21
0.8478124368
 31
0.0
 40
0.5451249042
 41
-3.2187424969
 42
-2.3115524019
  0
ELLIPSE
  5
4CC
100
AcDbEntity
  8
DRAFT
100
AcDbEllipse
 62
7
  6
CONTINUOUS
 10
-21.2390602234
 20
-13.001172172
 30
0.0
 11
-0.1669739853
 21
0.4907788
 31
0.0
 40
0.6669169639
 41
-3.0648673448
 42
0.1071717966
  0
ELLIPSE
  5
4CD
100
AcDbEntity
  8
DRAFT
100
AcDbEllipse
 62
7
  6
CONTINUOUS
 10
-13.4608856304
 20
-16.8902594685
 30
0.0
 11
-0.1669739853
 21
0.4907788
 31
0.0
 40
0.6669169639
 41
-3.0648673448
 42
0.1071717966
  0
ELLIPSE
  5
4CE
100
AcDbEntity
  8
0
100
AcDbEllipse
 62
7
  6
CONTINUOUS
 10
3.5717742867
 20
-13.7667690747
 30
0.0
 11
0.5036919259
 21
0.306310147
 31
0.0
 40
0.0884706031
 41
0.054836011
 42
0.7227707278
  0
ELLIPSE
  5
4CF
100
AcDbEntity
  8
0
100
AcDbEllipse
 62
7
  6
CONTINUOUS
 10
-0.4144757279
 20
-11.7736440674
 30
0.0
 11
0.2174819613
 21
0.4502570851
 31
0.0
 40
0.6016116119
 41
-0.8943064336
 42
-0.7832256542
  0
ELLIPSE
  5
4D0
100
AcDbEntity
  8
0
100
AcDbEllipse
 62
7
  6
CONTINUOUS
 10
-3.4992935252
 20
-10.2312351688
 30
0.0
 11
0.5036919259
 21
0.306310147
 31
0.0
 40
0.0884706031
 41
0.054836011
 42
0.7227707278
  0
ELLIPSE
  5
4D1
100
AcDbEntity
  8
0
100
AcDbEllipse
 62
7
  6
CONTINUOUS
 10
-7.4855435398
 20
-8.2381101615
 30
0.0
 11
0.2174819613
 21
0.4502570851
 31
0.0
 40
0.6016116119
 41
-0.8943064336
 42
-0.7832256542
  0
ELLIPSE
  5
4D2
100
AcDbEntity
  8
DRAFT
100
AcDbEllipse
 62
7
  6
CONTINUOUS
 10
-1.5837321152
 20
-15.9419922106
 30
0.0
 11
2.7999828534
 21
-0.0198105105
 31
0.0
 40
0.4946372042
 41
0.671511892
 42
1.5215429372
  0
ELLIPSE
  5
4D3
100
AcDbEntity
  8
DRAFT
100
AcDbEllipse
 62
7
  6
CONTINUOUS
 10
-8.654799927
 20
-12.4064583047
 30
0.0
 11
2.7999828534
 21
-0.0198105105
 31
0.0
 40
0.4946372042
 41
0.671511892
 42
1.5215429357
  0
ELLIPSE
  5
4D4
100
AcDbEntity
  8
DRAFT
100
AcDbEllipse
 62
7
  6
CONTINUOUS
 10
-2.2908388963
 20
-15.4219625082
 30
0.0
 11
2.7499831596
 21
-0.0194567514
 31
0.0
 40
0.4946372042
 41
8.6603327454
 42
9.018798278
  0
ELLIPSE
  5
4D5
100
AcDbEntity
  8
DRAFT
100
AcDbEllipse
 62
7
  6
CONTINUOUS
 10
-9.3619067082
 20
-11.8864286023
 30
0.0
 11
2.7499831596
 21
-0.0194567514
 31
0.0
 40
0.4946372042
 41
8.6603327454
 42
8.8945313964
  0
ELLIPSE
  5
4D6
100
AcDbEntity
  8
0
100
AcDbEllipse
 62
7
  6
CONTINUOUS
 10
-2.3314664685
 20
-14.2277754546
 30
0.0
 11
3.2913282349
 21
-0.045931058
 31
0.0
 40
0.4892385245
 41
-1.8922459233
 42
-0.7786443829
  0
ELLIPSE
  5
4D7
100
AcDbEntity
  8
0
100
AcDbEllipse
 62
7
  6
CONTINUOUS
 10
-9.4025342804
 20
-10.6922415486
 30
0.0
 11
3.2913282349
 21
-0.045931058
 31
0.0
 40
0.4892385245
 41
4.6908651711
 42
5.5045409243
  0
ELLIPSE
  5
4D8
100
AcDbEntity
  8
0
100
AcDbEllipse
 62
7
  6
CONTINUOUS
 10
-9.4025342804
 20
-10.6922415486
 30
0.0
 11
3.2913282349
 21
-0.045931058
 31
0.0
 40
0.4892385245
 41
8.6461282593
 42
9.4598032674
  0
ELLIPSE
  5
4D9
100
AcDbEntity
  8
0
100
AcDbEllipse
 62
7
  6
CONTINUOUS
 10
-2.3314664685
 20
-14.2277754546
 30
0.0
 11
3.2913282349
 21
-0.045931058
 31
0.0
 40
0.4892385245
 41
2.3629429521
 42
3.2738634677
  0
ELLIPSE
  5
4DA
100
AcDbEntity
  8
0
100
AcDbEllipse
 62
7
  6
CONTINUOUS
 10
-0.3752774863
 20
-11.7932431882
 30
0.0
 11
-0.3666079879
 21
0.6025072791
 31
0.0
 40
0.5537410481
 41
4.7852939187
 42
6.2275561736
  0
ELLIPSE
  5
4DB
100
AcDbEntity
  8
RACCORDO
100
AcDbEllipse
 62
7
  6
CONTINUOUS
 10
-9.0654666978
 20
-13.1762463575
 30
0.0
 11
0.1677841941
 21
0.4740861062
 31
0.0
 40
0.4918293396
 41
-0.0600479345
 42
0.6062934277
  0
ELLIPSE
  5
4DC
100
AcDbEntity
  8
0
100
AcDbEllipse
 62
7
  6
CONTINUOUS
 10
-7.4463452982
 20
-8.2577092823
 30
0.0
 11
-0.3666079879
 21
0.6025072791
 31
0.0
 40
0.5537410481
 41
4.7852939187
 42
6.2275561736
  0
ELLIPSE
  5
4DD
100
AcDbEntity
  8
RACCORDO
100
AcDbEllipse
 62
7
  6
CONTINUOUS
 10
6.6318236726
 20
-21.5304885653
 30
0.0
 11
0.1999952731
 21
-0.00281057
 31
0.0
 40
0.4892375088
 41
-0.7610696355
 42
0.006677093
  0
ELLIPSE
  5
4DE
100
AcDbEntity
  8
RACCORDO
100
AcDbEllipse
 62
7
  6
CONTINUOUS
 10
-41.2887258492
 20
-3.8344261444
 30
0.0
 11
-0.1828920694
 21
0.4656153856
 31
0.0
 40
0.6532976604
 41
-0.6278386123
 42
0.0270449705
  0
ELLIPSE
  5
4DF
100
AcDbEntity
  8
RACCORDO
100
AcDbEllipse
 62
7
  6
CONTINUOUS
 10
-13.302622204
 20
-57.2972618964
 30
0.0
 11
-0.1828920694
 21
0.4656153856
 31
0.0
 40
0.6532976604
 41
-3.1687922231
 42
-2.1990917899
  0
ELLIPSE
  5
4E0
100
AcDbEntity
  8
RACCORDO
100
AcDbEllipse
 62
7
  6
CONTINUOUS
 10
-10.671109936
 20
-19.143234101
 30
0.0
 11
-0.1826623061
 21
0.4654722043
 31
0.0
 40
0.6538654528
 41
-2.1982822863
 42
-0.6279428103
  0
ENDSEC
  0
SECTION
  2
OBJECTS
  0
DICTIONARY
  5
C
100
AcDbDictionary
280
0
281
1
  3
ACAD_GROUP
350
D
  3
ACAD_MLINESTYLE
350
17
  3
ACAD_LAYOUT
350
1A
  3
ACAD_PLOTSETTINGS
350
19
  3
ACAD_PLOTSTYLENAME
350
E
  0
DICTIONARY
  5
D
102
{ACAD_REACTORS
330
C
102
}
100
AcDbDictionary
280
0
281
1
  0
ACDBDICTIONARYWDFLT
  5
E
102
{ACAD_REACTORS
330
C
102
}
100
AcDbDictionary
281
1
  3
Normal
350
F
100
AcDbDictionaryWithDefault
340
F
  0
DICTIONARY
  5
17
102
{ACAD_REACTORS
330
C
102
}
100
AcDbDictionary
280
0
281
1
  3
Standard
350
18
  0
DICTIONARY
  5
19
102
{ACAD_REACTORS
330
C
102
}
100
AcDbDictionary
281
1
  0
DICTIONARY
  5
1A
102
{ACAD_REACTORS
330
C
102
}
100
AcDbDictionary
281
1
  3
Model
350
4E1
  3
Layout1
350
4E2
  0
ACDBPLACEHOLDER
  5
F
102
{ACAD_REACTORS
330
E
102
}
  0
MLINESTYLE
  5
18
102
{ACAD_REACTORS
330
17
102
}
100
AcDbMlineStyle
  2
STANDARD
 70
0
  3

 62
256
 51
90.0
 52
90.0
 71
2
 49
0.5
 62
256
  6
BYLAYER
 49
-0.5
 62
256
  6
BYLAYER
  0
LAYOUT
  5
4E1
102
{ACAD_REACTORS
330
1A
102
}
100
AcDbPlotSettings
  1

  2
none_device
  4
ISO_A4_(297.00_x_210.00_MM)
  6

 40
0.0
 41
0.0
 42
0.0
 43
0.0
 44
297.0
 45
210.0
 46
0.0
 47
0.0
 48
0.0
 49
0.0
140
0.0
141
0.0
142
1.0
143
1.0
 70
1024
 72
1
 73
0
 74
0
  7

 75
0
147
1.0
148
0.0
149
0.0
100
AcDbLayout
  1
Model
 70
0
 71
0
 10
0.0
 20
0.0
 11
297.0
 21
210.0
 12
0.0
 22
0.0
 32
0.0
 14
0.0
 24
0.0
 34
0.0
 15
0.0
 25
0.0
 35
0.0
146
0.0
 13
0.0
 23
0.0
 33
0.0
 16
1.0
 26
0.0
 36
0.0
 17
0.0
 27
1.0
 37
0.0
 76
0
330
21C
345
0
346
0
  0
LAYOUT
  5
4E2
102
{ACAD_REACTORS
330
1A
102
}
100
AcDbPlotSettings
  1

  2
none_device
  4
ISO_A4_(297.00_x_210.00_MM)
  6

 40
0.0
 41
0.0
 42
0.0
 43
0.0
 44
297.0
 45
210.0
 46
0.0
 47
0.0
 48
0.0
 49
0.0
140
0.0
141
0.0
142
1.0
143
1.0
 70
0
 72
1
 73
0
 74
0
  7

 75
0
147
1.0
148
0.0
149
0.0
100
AcDbLayout
  1
Layout1
 70
0
 71
1
 10
0.0
 20
0.0
 11
297.0
 21
210.0
 12
0.0
 22
0.0
 32
0.0
 14
0.0
 24
0.0
 34
0.0
 15
0.0
 25
0.0
 35
0.0
146
0.0
 13
0.0
 23
0.0
 33
0.0
 16
1.0
 26
0.0
 36
0.0
 17
0.0
 27
1.0
 37
0.0
 76
0
330
21D
345
0
346
0
  0
ENDSEC
  0
EOF
