  0
SECTION
  2
HEADER
  9
$ACADVER
  1
AC1024
  9
$DWGCODEPAGE
  3
ANSI_1252
  9
$EXTMAX
 10
297.0
 20
210.0
 30
0.0
  9
$EXTMIN
 10
0.0
 20
0.0
 30
0.0
  9
$LIMMIN
 10
0.0
 20
0.0
  9
$LIMMAX
 10
297.0
 20
210.0
  9
$VIEWCTR
 10
148.5
 20
105.0
  9
$VIEWSIZE
 40
210.0
  9
$CLAYER
  8
0
  9
$LTSCALE
 40
16.335
  9
$CELTYPE
  6
BYLAYER
  9
$DIMSCALE
 40
1.0
  9
$DIMASZ
 40
3.0
  9
$DIMEXO
 40
0.5
  9
$DIMDLI
 40
11.286
  9
$DIMEXE
 40
1.5
  9
$DIMCEN
 40
2.673
  9
$DIMLFAC
 40
1.0
  9
$DIMBLK
  1
_FILLED
  9
$DIMALT
 70
0
  9
$DIMALTF
 40
0.0393700787
  9
$DIMTXT
 40
3.0
  9
$DIMTOL
 70
1
  9
$DIMLIM
 70
0
  9
$DIMTFAC
 40
1.0
  9
$DIMTP
 40
0.01
  9
$DIMTM
 40
0.01
  9
$DIMGAP
 40
0.625
  9
$DIMDSEP
 70
44
  9
$AUNITS
 70
0
  9
$PDMODE
 70
3
  9
$PDSIZE
 40
3.0
  9
$HANDSEED
  5
53B
  9
$TILEMODE
 70
1
  9
$MEASUREMENT
 70
1
  9
$INSUNITS
 70
4
  0
ENDSEC
  0
SECTION
  2
CLASSES
  0
CLASS
  1
ACDBDICTIONARYWDFLT
  2
AcDbDictionaryWithDefault
  3
AutoCAD 2000
 90
0
 91
1
280
0
281
0
  0
CLASS
  1
ACDBPLACEHOLDER
  2
AcDbPlaceHolder
  3
AutoCAD 2000
 90
0
 91
1
280
0
281
0
  0
CLASS
  1
LAYOUT
  2
AcDbLayout
  3
AutoCAD 2000
 90
0
 91
0
280
0
281
0
  0
ENDSEC
  0
SECTION
  2
TABLES
  0
TABLE
  2
VPORT
  5
8
100
AcDbSymbolTable
 70
2
  0
VPORT
  5
1F4
100
AcDbSymbolTableRecord
100
AcDbViewportTableRecord
  2
*ACTIVE
 70
0
 10
0.0
 20
0.0
 11
1.0
 21
1.0
 12
148.5
 22
105.0
 13
0.0
 23
0.0
 14
1.0
 24
1.0
 15
0.0
 25
0.0
 16
0.0
 26
0.0
 36
1.0
 17
0.0
 27
0.0
 37
0.0
 40
210.0
 41
1.4142857143
 42
50.0
 43
0.0
 44
0.0
 50
0.0
 51
0.0
 71
0
 72
100
 73
1
 74
1
 75
0
 76
0
 77
0
 78
0
  0
ENDTAB
  0
TABLE
  2
LTYPE
  5
5
100
AcDbSymbolTable
 70
6
  0
LTYPE
  5
14
100
AcDbSymbolTableRecord
100
AcDbLinetypeTableRecord
  2
BYBLOCK
 70
0
  3

 72
65
 73
0
 40
0.0
  0
LTYPE
  5
15
100
AcDbSymbolTableRecord
100
AcDbLinetypeTableRecord
  2
BYLAYER
 70
0
  3

 72
65
 73
0
 40
0.0
  0
LTYPE
  5
16
100
AcDbSymbolTableRecord
100
AcDbLinetypeTableRecord
  2
CONTINUOUS
 70
64
  3
Solid line
 72
65
 73
0
 40
0.0
  0
LTYPE
  5
1F5
100
AcDbSymbolTableRecord
100
AcDbLinetypeTableRecord
  2
CENTER
 70
64
  3
____ _ ____ _ ____ _ ____ _ ____ _ ____ _ ____
 72
65
 73
4
 40
0.6
 49
0.375
 74
0
 49
-0.075
 74
0
 49
0.075
 74
0
 49
-0.075
 74
0
  0
LTYPE
  5
1F6
100
AcDbSymbolTableRecord
100
AcDbLinetypeTableRecord
  2
HIDDEN
 70
64
  3
- - - - - - - - - - - - - - - - - - - -
 72
65
 73
2
 40
0.2
 49
0.1
 74
0
 49
-0.1
 74
0
  0
LTYPE
  5
1F7
100
AcDbSymbolTableRecord
100
AcDbLinetypeTableRecord
  2
PHANTOM
 70
64
  3
_____ _ _ _____ _ _ _____ _ _ _____
 72
65
 73
6
 40
0.8
 49
0.45
 74
0
 49
-0.05
 74
0
 49
0.1
 74
0
 49
-0.05
 74
0
 49
0.1
 74
0
 49
-0.05
 74
0
  0
LTYPE
  5
1F8
100
AcDbSymbolTableRecord
100
AcDbLinetypeTableRecord
  2
DOT
 70
64
  3
. . . . . . . . . . . . . . . . . . . .
 72
65
 73
2
 40
0.2
 49
0.1
 74
0
 49
-0.1
 74
0
  0
LTYPE
  5
1F9
100
AcDbSymbolTableRecord
100
AcDbLinetypeTableRecord
  2
DASHED
 70
64
  3
- - - - - - - - - - - - - - - - - - - -
 72
65
 73
2
 40
0.2
 49
0.1
 74
0
 49
-0.1
 74
0
  0
ENDTAB
  0
TABLE
  2
LAYER
  5
2
100
AcDbSymbolTable
 70
36
  0
LAYER
  5
10
100
AcDbSymbolTableRecord
100
AcDbLayerTableRecord
  2
0
 70
0
 62
7
  6
CONTINUOUS
370
-3
390
F
  0
LAYER
  5
1FA
100
AcDbSymbolTableRecord
100
AcDbLayerTableRecord
  2
DEFAULT_1
 70
0
 62
7
  6
CENTER
370
-3
390
F
  0
LAYER
  5
1FB
100
AcDbSymbolTableRecord
100
AcDbLayerTableRecord
  2
DEFAULT_2
 70
0
 62
7
  6
HIDDEN
370
-3
390
F
  0
LAYER
  5
1FC
100
AcDbSymbolTableRecord
100
AcDbLayerTableRecord
  2
DEFAULT_3
 70
0
 62
7
  6
PHANTOM
370
-3
390
F
  0
LAYER
  5
1FD
100
AcDbSymbolTableRecord
100
AcDbLayerTableRecord
  2
ASSI
 70
0
 62
7
  6
CONTINUOUS
370
-3
390
F
  0
LAYER
  5
1FE
100
AcDbSymbolTableRecord
100
AcDbLayerTableRecord
  2
COORDINATE
 70
0
 62
7
  6
CONTINUOUS
370
-3
390
F
  0
LAYER
  5
1FF
100
AcDbSymbolTableRecord
100
AcDbLayerTableRecord
  2
COORD_ORIGINE
 70
0
 62
7
  6
CONTINUOUS
370
-3
390
F
  0
LAYER
  5
200
100
AcDbSymbolTableRecord
100
AcDbLayerTableRecord
  2
COPY-PUBBLISH
 70
0
 62
7
  6
CONTINUOUS
370
-3
390
F
  0
LAYER
  5
201
100
AcDbSymbolTableRecord
100
AcDbLayerTableRecord
  2
COPY_PUBLISH
 70
0
 62
7
  6
CONTINUOUS
370
-3
390
F
  0
LAYER
  5
202
100
AcDbSymbolTableRecord
100
AcDbLayerTableRecord
  2
COSMETIC
 70
0
 62
7
  6
CONTINUOUS
370
-3
390
F
  0
LAYER
  5
203
100
AcDbSymbolTableRecord
100
AcDbLayerTableRecord
  2
COSMETICHE
 70
0
 62
7
  6
CONTINUOUS
370
-3
390
F
  0
LAYER
  5
204
100
AcDbSymbolTableRecord
100
AcDbLayerTableRecord
  2
CURVE
 70
0
 62
7
  6
CONTINUOUS
370
-3
390
F
  0
LAYER
  5
205
100
AcDbSymbolTableRecord
100
AcDbLayerTableRecord
  2
CURVE1
 70
0
 62
7
  6
CONTINUOUS
370
-3
390
F
  0
LAYER
  5
206
100
AcDbSymbolTableRecord
100
AcDbLayerTableRecord
  2
DRAFT
 70
0
 62
7
  6
CONTINUOUS
370
-3
390
F
  0
LAYER
  5
207
100
AcDbSymbolTableRecord
100
AcDbLayerTableRecord
  2
IMPORT
 70
0
 62
7
  6
CONTINUOUS
370
-3
390
F
  0
LAYER
  5
208
100
AcDbSymbolTableRecord
100
AcDbLayerTableRecord
  2
IMPORT_IGES
 70
0
 62
7
  6
CONTINUOUS
370
-3
390
F
  0
LAYER
  5
209
100
AcDbSymbolTableRecord
100
AcDbLayerTableRecord
  2
INTF_1
 70
0
 62
7
  6
CONTINUOUS
370
-3
390
F
  0
LAYER
  5
20A
100
AcDbSymbolTableRecord
100
AcDbLayerTableRecord
  2
INTF_2
 70
0
 62
7
  6
CONTINUOUS
370
-3
390
F
  0
LAYER
  5
20B
100
AcDbSymbolTableRecord
100
AcDbLayerTableRecord
  2
INTF_6
 70
0
 62
7
  6
CONTINUOUS
370
-3
390
F
  0
LAYER
  5
20C
100
AcDbSymbolTableRecord
100
AcDbLayerTableRecord
  2
NOTE
 70
0
 62
7
  6
CONTINUOUS
370
-3
390
F
  0
LAYER
  5
20D
100
AcDbSymbolTableRecord
100
AcDbLayerTableRecord
  2
PIANI
 70
0
 62
7
  6
CONTINUOUS
370
-3
390
F
  0
LAYER
  5
20E
100
AcDbSymbolTableRecord
100
AcDbLayerTableRecord
  2
PIANI_ORIGINE
 70
0
 62
7
  6
CONTINUOUS
370
-3
390
F
  0
LAYER
  5
20F
100
AcDbSymbolTableRecord
100
AcDbLayerTableRecord
  2
PUNTI
 70
0
 62
7
  6
CONTINUOUS
370
-3
390
F
  0
LAYER
  5
210
100
AcDbSymbolTableRecord
100
AcDbLayerTableRecord
  2
RACCORDO
 70
0
 62
7
  6
CONTINUOUS
370
-3
390
F
  0
LAYER
  5
211
100
AcDbSymbolTableRecord
100
AcDbLayerTableRecord
  2
RGB____0____0____0__
 70
0
 62
7
  6
CONTINUOUS
370
-3
390
F
  0
LAYER
  5
212
100
AcDbSymbolTableRecord
100
AcDbLayerTableRecord
  2
SMUSSO
 70
0
 62
7
  6
CONTINUOUS
370
-3
390
F
  0
LAYER
  5
213
100
AcDbSymbolTableRecord
100
AcDbLayerTableRecord
  2
SNAPLINE
 70
0
 62
7
  6
CONTINUOUS
370
-3
390
F
  0
LAYER
  5
214
100
AcDbSymbolTableRecord
100
AcDbLayerTableRecord
  2
SUPERFICI
 70
0
 62
7
  6
CONTINUOUS
370
-3
390
F
  0
LAYER
  5
215
100
AcDbSymbolTableRecord
100
AcDbLayerTableRecord
  2
TRASH
 70
0
 62
7
  6
CONTINUOUS
370
-3
390
F
  0
LAYER
  5
216
100
AcDbSymbolTableRecord
100
AcDbLayerTableRecord
  2
XSEC_DATUMS
 70
0
 62
7
  6
CONTINUOUS
370
-3
390
F
  0
ENDTAB
  0
TABLE
  2
STYLE
  5
3
100
AcDbSymbolTable
 70
1
  0
STYLE
  5
11
100
AcDbSymbolTableRecord
100
AcDbTextStyleTableRecord
  2
STANDARD
 70
0
 40
0.0
 41
0.8
 50
0.0
 71
0
 42
0.2
  3
txt
  4

  0
STYLE
  5
217
100
AcDbSymbolTableRecord
100
AcDbTextStyleTableRecord
  2
TEXTSTYLE_1
 70
0
 40
0.0
 41
0.8
 50
0.0
 71
0
 42
0.2
  3
gdt
  4

  0
ENDTAB
  0
TABLE
  2
VIEW
  5
6
100
AcDbSymbolTable
 70
0
  0
ENDTAB
  0
TABLE
  2
UCS
  5
7
100
AcDbSymbolTable
 70
0
  0
ENDTAB
  0
TABLE
  2
APPID
  5
9
100
AcDbSymbolTable
 70
1
  0
APPID
  5
218
100
AcDbSymbolTableRecord
100
AcDbRegAppTableRecord
  2
ACAD
 70
0
  0
ENDTAB
  0
TABLE
  2
BLOCK_RECORD
  5
1
100
AcDbSymbolTable
 70
0
  0
BLOCK_RECORD
  5
219
100
AcDbSymbolTableRecord
100
AcDbBlockTableRecord
  2
*Model_Space
  0
BLOCK_RECORD
  5
21A
100
AcDbSymbolTableRecord
100
AcDbBlockTableRecord
  2
*Paper_Space
  0
BLOCK_RECORD
  5
21B
100
AcDbSymbolTableRecord
100
AcDbBlockTableRecord
  2
_FILLED
  0
ENDTAB
  0
TABLE
  2
DIMSTYLE
  5
A
100
AcDbSymbolTable
 70
1
100
AcDbDimStyleTable
 71
0
  0
DIMSTYLE
105
21C
100
AcDbSymbolTableRecord
100
AcDbDimStyleTableRecord
  2
STANDARD
 70
0
  3

  4

 40
1.0
 41
3.0
 42
0.5
 43
0.38
 44
1.5
 45
0.0
 46
0.0
 47
0.01
 48
0.01
140
3.0
141
0.09
142
0.0
143
25.4
144
1.0
145
0.0
146
1.0
147
0.625
 71
1
 72
0
 73
0
 74
0
 75
0
 76
0
 77
1
 78
8
 79
2
170
0
171
1
172
0
173
0
174
0
175
0
176
0
177
0
178
0
270
2
179
2
271
2
272
2
273
2
274
2
275
0
280
0
281
0
282
0
283
1
284
8
285
0
286
0
287
3
288
0
340
11
278
44
341
21B
342
21B
343
21B
344
21B
  0
ENDTAB
  0
ENDSEC
  0
SECTION
  2
BLOCKS
  0
BLOCK
  5
20
100
AcDbEntity
  8
0
100
AcDbBlockBegin
  2
*Model_Space
 70
0
 10
0.0
 20
0.0
 30
0.0
  3
*Model_Space
  1

  0
ENDBLK
  5
21
100
AcDbEntity
  8
0
100
AcDbBlockEnd
  0
BLOCK
  5
1C
100
AcDbEntity
  8
0
100
AcDbBlockBegin
  2
*Paper_Space
 70
0
 10
0.0
 20
0.0
 30
0.0
  3
*Paper_Space
  1

  0
ENDBLK
  5
1D
100
AcDbEntity
  8
0
100
AcDbBlockEnd
  0
BLOCK
  5
21D
100
AcDbEntity
  8
0
100
AcDbBlockBegin
  2
_FILLED
 70
64
 10
0.0
 20
0.0
  3
_FILLED
  1

  0
SOLID
  5
21E
100
AcDbEntity
  8
0
  6
BYBLOCK
 62
0
100
AcDbTrace
 10
0.0
 20
0.0
 11
-1.0
 21
0.3166666667
 12
-1.0
 22
-0.3166666667
 13
-1.0
 23
-0.3166666667
  0
ENDBLK
  5
21F
100
AcDbEntity
  8
0
  6
BYBLOCK
 62
0
100
AcDbBlockEnd
  0
ENDSEC
  0
SECTION
  2
ENTITIES
  0
LINE
  5
220
100
AcDbEntity
  8
SMUSSO
100
AcDbLine
 62
7
  6
CONTINUOUS
 10
-2.8298453986
 20
-23.88271128
 11
-3.2601477673
 21
-23.7884949513
  0
LWPOLYLINE
  5
221
100
AcDbEntity
  8
0
100
AcDbPolyline
 62
7
  6
CONTINUOUS
 90
4
 70
0
 10
-6.8242922337
 20
-23.0737469895
 10
-6.8396391664
 20
-23.0694847258
 10
-6.8821300191
 20
-23.0526819644
 10
-6.8957899401
 20
-23.0461816951
  0
LINE
  5
222
100
AcDbEntity
  8
SMUSSO
100
AcDbLine
 62
7
  6
CONTINUOUS
 10
-6.1230922589
 20
24.1565419998
 11
-11.3151267728
 21
19.3709738077
  0
LWPOLYLINE
  5
223
100
AcDbEntity
  8
RACCORDO
100
AcDbPolyline
 62
7
  6
CONTINUOUS
 90
4
 70
0
 10
-14.8583257364
 20
16.7573152684
 10
-14.8784224468
 20
16.7413592598
 10
-14.9323443884
 20
16.6856125957
 10
-14.9777672752
 20
16.6179208298
  0
LWPOLYLINE
  5
224
100
AcDbEntity
  8
RACCORDO
100
AcDbPolyline
 62
7
  6
CONTINUOUS
 90
6
 70
0
 10
-16.9546253871
 20
15.2388767317
 10
-16.9727173403
 20
15.2245746497
 10
-17.0162622945
 20
15.1761818245
 10
-17.0451423733
 20
15.1196013302
 10
-17.0582116055
 20
15.0575316485
 10
-17.0590346377
 20
15.0349024279
  0
LINE
  5
225
100
AcDbEntity
  8
RACCORDO
100
AcDbLine
 62
7
  6
CONTINUOUS
 10
-14.8590557212
 20
16.7576301044
 11
-16.955150272
 21
15.2384963288
  0
LINE
  5
226
100
AcDbEntity
  8
RACCORDO
100
AcDbLine
 62
250
  6
CONTINUOUS
 10
-15.0218855286
 20
16.101573249
 11
-16.9125950892
 21
14.7312911917
  0
LINE
  5
227
100
AcDbEntity
  8
RACCORDO
100
AcDbLine
 62
7
  6
CONTINUOUS
 10
-14.8178584674
 20
16.7830240269
 11
-14.8583257364
 21
16.7573152684
  0
LINE
  5
228
100
AcDbEntity
  8
DRAFT
100
AcDbLine
 62
7
  6
CONTINUOUS
 10
-11.9752027384
 20
18.9932164865
 11
-11.6948283569
 21
19.1358720082
  0
LINE
  5
229
100
AcDbEntity
  8
SMUSSO
100
AcDbLine
 62
7
  6
CONTINUOUS
 10
2.3621891153
 20
-23.4762449582
 11
-2.8298453986
 21
-23.88271128
  0
LINE
  5
22A
100
AcDbEntity
  8
SMUSSO
100
AcDbLine
 62
7
  6
CONTINUOUS
 10
2.4542736952
 20
-23.1026654257
 11
-2.7377608187
 21
-23.5091317476
  0
LINE
  5
22B
100
AcDbEntity
  8
RACCORDO
100
AcDbLine
 62
7
  6
CONTINUOUS
 10
-11.0778507517
 20
-21.0322468741
 11
-10.8813914073
 21
-21.0677456697
  0
LINE
  5
22C
100
AcDbEntity
  8
SMUSSO
100
AcDbLine
 62
7
  6
CONTINUOUS
 10
-2.7377608187
 20
-23.5091317476
 11
-3.2509303349
 21
-23.3967713439
  0
LWPOLYLINE
  5
22D
100
AcDbEntity
  8
RACCORDO
100
AcDbPolyline
 62
250
  6
CONTINUOUS
 90
13
 70
0
 10
-7.4129545417
 20
-21.6515269949
 10
-7.2652854838
 20
-21.7162698512
 10
-7.1011294822
 20
-21.7710518879
 10
-6.9231184419
 20
-21.8147673594
 10
-6.733305948
 20
-21.8465985524
 10
-6.5357493284
 20
-21.8655664876
 10
-6.3366920498
 20
-21.8711563358
 10
-6.1407295654
 20
-21.8636994904
 10
-5.9501316784
 20
-21.8437384596
 10
-5.7676146601
 20
-21.811875857
 10
-5.595920551
 20
-21.7688655445
 10
-5.4377449096
 20
-21.7156713164
 10
-5.295343055
 20
-21.6533749614
  0
LINE
  5
22E
100
AcDbEntity
  8
RACCORDO
100
AcDbLine
 62
250
  6
CONTINUOUS
 10
-6.2770045536
 20
-22.9350635011
 11
-7.039142943
 21
-22.5994178759
  0
LWPOLYLINE
  5
22F
100
AcDbEntity
  8
RACCORDO
100
AcDbPolyline
 62
7
  6
CONTINUOUS
 90
3
 70
0
 10
-11.28492267
 20
-20.9530775278
 10
-11.2624068212
 20
-20.9640829953
 10
-11.0778507517
 20
-21.0322468741
  0
LINE
  5
230
100
AcDbEntity
  8
RACCORDO
100
AcDbLine
 62
7
  6
CONTINUOUS
 10
-4.6732497343
 20
-24.2589246483
 11
-6.4742214141
 21
-23.3584388083
  0
LINE
  5
231
100
AcDbEntity
  8
RACCORDO
100
AcDbLine
 62
7
  6
CONTINUOUS
 10
-11.2825080641
 20
-20.9542954834
 11
-13.0834797924
 21
-20.0538096192
  0
LINE
  5
232
100
AcDbEntity
  8
0
100
AcDbLine
 62
7
  6
CONTINUOUS
 10
-6.8957681861
 20
-23.0461925729
 11
-10.996987517
 21
-20.9955829075
  0
LINE
  5
233
100
AcDbEntity
  8
RACCORDO
100
AcDbLine
 62
250
  6
CONTINUOUS
 10
-13.3181575601
 20
-19.4144869978
 11
-12.6557785784
 21
-19.7456764887
  0
LINE
  5
234
100
AcDbEntity
  8
RACCORDO
100
AcDbLine
 62
250
  6
CONTINUOUS
 10
-6.2770045536
 20
-22.9350635011
 11
-5.6146255718
 21
-23.266252992
  0
LINE
  5
235
100
AcDbEntity
  8
RACCORDO
100
AcDbLine
 62
7
  6
CONTINUOUS
 10
-16.9102553843
 20
-17.5192673849
 11
-7.0231147632
 21
-22.4628376955
  0
LINE
  5
236
100
AcDbEntity
  8
RACCORDO
100
AcDbLine
 62
250
  6
CONTINUOUS
 10
-5.3286528322
 20
-22.9039050804
 11
-5.6761508007
 21
-22.7301560961
  0
LINE
  5
237
100
AcDbEntity
  8
RACCORDO
100
AcDbLine
 62
250
  6
CONTINUOUS
 10
-17.3000951628
 20
-16.7079566843
 11
-7.4129545417
 21
-21.6515269949
  0
LINE
  5
238
100
AcDbEntity
  8
RACCORDO
100
AcDbLine
 62
7
  6
CONTINUOUS
 10
-5.1975722126
 20
-22.6927548239
 11
-3.7909262778
 21
-23.3960777913
  0
LINE
  5
239
100
AcDbEntity
  8
RACCORDO
100
AcDbLine
 62
250
  6
CONTINUOUS
 10
-5.3286528322
 20
-22.4217509103
 11
-4.0343099265
 21
-23.0689223631
  0
LINE
  5
23A
100
AcDbEntity
  8
RACCORDO
100
AcDbLine
 62
250
  6
CONTINUOUS
 10
-6.4742183032
 20
-23.3584403638
 11
-6.4971683029
 21
-23.3465542072
  0
LWPOLYLINE
  5
23B
100
AcDbEntity
  8
RACCORDO
100
AcDbPolyline
 62
7
  6
CONTINUOUS
 90
7
 70
0
 10
-3.7907770001
 20
-23.3961524246
 10
-3.805267267
 20
-23.3884655846
 10
-3.866148427
 20
-23.3458475834
 10
-3.9202119991
 20
-23.2907146009
 10
-3.9661583526
 20
-23.2250385142
 10
-4.0042152734
 20
-23.1504318158
 10
-4.0343099265
 20
-23.0689223631
  0
LWPOLYLINE
  5
23C
100
AcDbEntity
  8
0
100
AcDbPolyline
 62
7
  6
CONTINUOUS
 90
15
 70
0
 10
-10.997009271
 20
-20.9955720297
 10
-11.0239195724
 20
-20.9808623465
 10
-11.0620609981
 20
-20.9555124722
 10
-11.0977425062
 20
-20.9259709242
 10
-11.1309952176
 20
-20.8922894543
 10
-11.161404329
 20
-20.8548905868
 10
-11.1889341752
 20
-20.8137278663
 10
-11.2136204214
 20
-20.7688477482
 10
-11.2351552591
 20
-20.7208121232
 10
-11.2534992114
 20
-20.6695815653
 10
-11.2686917552
 20
-20.6151955004
 10
-11.2805435118
 20
-20.5583340983
 10
-11.2889913552
 20
-20.4992240819
 10
-11.2940984114
 20
-20.4376387281
 10
-11.2958646805
 20
-20.373578037
  0
LWPOLYLINE
  5
23D
100
AcDbEntity
  8
0
100
AcDbPolyline
 62
7
  6
CONTINUOUS
 90
8
 70
0
 10
-6.8957899401
 20
-23.0461816951
 10
-6.9227002415
 20
-23.031472012
 10
-6.9608416672
 20
-23.0061221376
 10
-6.9965231753
 20
-22.9765805896
 10
-7.0297758867
 20
-22.9428991197
 10
-7.0601849981
 20
-22.9055002523
 10
-7.0877148444
 20
-22.8643375317
 10
-7.1124010906
 20
-22.8194574136
  0
LWPOLYLINE
  5
23E
100
AcDbEntity
  8
RACCORDO
100
AcDbPolyline
 62
250
  6
CONTINUOUS
 90
3
 70
0
 10
-11.8658691331
 20
-20.1860556889
 10
-12.5245239159
 20
-19.8189578833
 10
-12.6557785784
 20
-19.7456764887
  0
LWPOLYLINE
  5
23F
100
AcDbEntity
  8
RACCORDO
100
AcDbPolyline
 62
250
  6
CONTINUOUS
 90
7
 70
0
 10
-17.3000951628
 20
-16.7079566843
 10
-17.4295789097
 20
-16.6341234366
 10
-17.5391424811
 20
-16.5520462962
 10
-17.6265739353
 20
-16.4630410117
 10
-17.690237449
 20
-16.3681339657
 10
-17.7281741642
 20
-16.269354013
 10
-17.7394295244
 20
-16.1796514413
  0
LINE
  5
240
100
AcDbEntity
  8
RACCORDO
100
AcDbLine
 62
250
  6
CONTINUOUS
 10
-5.7208799116
 20
-22.7035135532
 11
-5.6761508007
 21
-22.7301560961
  0
LINE
  5
241
100
AcDbEntity
  8
RACCORDO
100
AcDbLine
 62
250
  6
CONTINUOUS
 10
-16.981593253
 20
-17.4767691277
 11
-16.9102553843
 21
-17.5192673849
  0
LINE
  5
242
100
AcDbEntity
  8
RACCORDO
100
AcDbLine
 62
250
  6
CONTINUOUS
 10
-6.4971683029
 20
-23.3465542072
 11
-6.5694193457
 21
-23.3034183288
  0
LINE
  5
243
100
AcDbEntity
  8
RACCORDO
100
AcDbLine
 62
250
  6
CONTINUOUS
 10
-7.0614659929
 20
-22.5853802209
 11
-7.0391450759
 21
-22.5994074189
  0
LWPOLYLINE
  5
244
100
AcDbEntity
  8
RACCORDO
100
AcDbPolyline
 62
250
  6
CONTINUOUS
 90
5
 70
0
 10
-6.5694193457
 20
-23.3034183288
 10
-6.6400644257
 20
-23.2517883278
 10
-6.7087894286
 20
-23.1908967829
 10
-6.7748503693
 20
-23.1202283917
 10
-6.8374988473
 20
-23.0392799693
  0
LWPOLYLINE
  5
245
100
AcDbEntity
  8
RACCORDO
100
AcDbPolyline
 62
250
  6
CONTINUOUS
 90
6
 70
0
 10
-12.96882834
 20
-18.4404266711
 10
-13.1059840826
 20
-18.3180792664
 10
-13.2334764828
 20
-18.1928517745
 10
-13.3527563128
 20
-18.0636986185
 10
-13.4644354519
 20
-17.9337089628
 10
-13.5684319055
 20
-17.8032443479
  0
LWPOLYLINE
  5
246
100
AcDbEntity
  8
RACCORDO
100
AcDbPolyline
 62
250
  6
CONTINUOUS
 90
3
 70
0
 10
-11.3469957847
 20
-20.6152319254
 10
-11.292929595
 20
-20.6745597117
 10
-11.2329616431
 20
-20.7293800141
  0
LWPOLYLINE
  5
247
100
AcDbEntity
  8
RACCORDO
100
AcDbPolyline
 62
7
  6
CONTINUOUS
 90
7
 70
0
 10
-14.9777672752
 20
16.6179208298
 10
-15.0124510572
 20
16.540355036
 10
-15.0357797623
 20
16.4556321023
 10
-15.0487305379
 20
16.3669919458
 10
-15.051256254
 20
16.2770798243
 10
-15.0423321959
 20
16.1879066946
 10
-15.0218855286
 20
16.101573249
  0
LWPOLYLINE
  5
248
100
AcDbEntity
  8
0
100
AcDbPolyline
 62
7
  6
CONTINUOUS
 90
22
 70
0
 10
-10.6517600136
 20
17.0358994058
 10
-10.7033103543
 20
16.9944850304
 10
-10.753513791
 20
16.9499087453
 10
-10.8023703237
 20
16.9021705504
 10
-10.8500711943
 20
16.8510453295
 10
-10.8964251609
 20
16.7967581988
 10
-10.9408584972
 20
16.7399845074
 10
-10.9833493499
 20
16.6806908933
 10
-11.0239195723
 20
16.6189107185
 10
-11.0620609981
 20
16.5554194184
 10
-11.0977425062
 20
16.4901963623
 10
-11.1309952176
 20
16.423262181
 10
-11.161404329
 20
16.3554542022
 10
-11.1889341752
 20
16.2867616353
 10
-11.2136204214
 20
16.217195271
 10
-11.235155259
 20
16.1476248085
 10
-11.2534992114
 20
16.0780502982
 10
-11.2686917552
 20
16.0084716896
 10
-11.2805435118
 20
15.9397585308
 10
-11.2889913552
 20
15.872200671
 10
-11.2940984114
 20
15.805508261
 10
-11.2958646805
 20
15.7396813008
  0
LWPOLYLINE
  5
249
100
AcDbEntity
  8
0
100
AcDbPolyline
 62
7
  6
CONTINUOUS
 90
10
 70
0
 10
-9.6009235766
 20
17.8348793086
 10
-9.6004546721
 20
17.8352399146
 10
-9.5999873802
 20
17.8356074442
 10
-9.599521701
 20
17.8359818973
 10
-9.5990575493
 20
17.8363633456
 10
-9.5985950102
 20
17.8367517173
 10
-9.5981343394
 20
17.837146798
 10
-9.5976756222
 20
17.837548516
 10
-9.5972187732
 20
17.837956943
 10
-9.5967637925
 20
17.8383720789
  0
LINE
  5
24A
100
AcDbEntity
  8
0
100
AcDbLine
 62
7
  6
CONTINUOUS
 10
-9.6009235766
 20
17.8348793086
 11
-10.6517600136
 21
17.0358994058
  0
LWPOLYLINE
  5
24B
100
AcDbEntity
  8
0
100
AcDbPolyline
 62
7
  6
CONTINUOUS
 90
10
 70
0
 10
-4.5076395811
 20
21.4057260792
 10
-4.4948018642
 20
21.4137795411
 10
-4.4830167512
 20
21.4235396111
 10
-4.472284242
 20
21.4350062891
 10
-4.4623474835
 20
21.4486225813
 10
-4.4534633289
 20
21.4639454815
 10
-4.4464023375
 20
21.4796459712
 10
-4.4414213627
 20
21.4952810442
 10
-4.4382635512
 20
21.5112937067
 10
-4.436928903
 20
21.5276839586
  0
LWPOLYLINE
  5
24C
100
AcDbEntity
  8
RACCORDO
100
AcDbPolyline
 62
7
  6
CONTINUOUS
 90
13
 70
0
 10
-6.2893879713
 20
20.5148518841
 10
-6.3028893515
 20
20.5076308942
 10
-6.3153256346
 20
20.5000540668
 10
-6.3266968207
 20
20.4921214018
 10
-6.3370423682
 20
20.4837959886
 10
-6.3463228187
 20
20.4751147377
 10
-6.3544197967
 20
20.4661883817
 10
-6.3613181423
 20
20.4570137808
 10
-6.3670330155
 20
20.4475940748
 10
-6.3714915211
 20
20.4380494152
 10
-6.3746775652
 20
20.4283782014
 10
-6.3766072418
 20
20.4185820342
 10
-6.377255937
 20
20.4087858669
  0
LINE
  5
24D
100
AcDbEntity
  8
RACCORDO
100
AcDbLine
 62
7
  6
CONTINUOUS
 10
-14.8178584674
 20
16.7830240269
 11
-13.2999219851
 21
17.5637820388
  0
LWPOLYLINE
  5
24E
100
AcDbEntity
  8
RACCORDO
100
AcDbPolyline
 62
250
  6
CONTINUOUS
 90
25
 70
0
 10
-10.1465413315
 20
18.0788647527
 10
-10.2274118115
 20
18.0375151627
 10
-10.3078581358
 20
17.9920075335
 10
-10.3877230375
 20
17.942475176
 10
-10.4666725858
 20
17.8891875339
 10
-10.5447406615
 20
17.8321784285
 10
-10.6223129548
 20
17.7711562723
 10
-10.6990502224
 20
17.7063579104
 10
-10.7749735561
 20
17.6377330077
 10
-10.8509432681
 20
17.5643465287
 10
-10.9266135751
 20
17.4863010612
 10
-11.0018690776
 20
17.4034688573
 10
-11.0777480067
 20
17.3142700763
 10
-11.1542231607
 20
17.2181088749
 10
-11.2304807736
 20
17.1153290742
 10
-11.3062039517
 20
17.0056166934
 10
-11.3808100437
 20
16.8890522475
 10
-11.4537753073
 20
16.7656170748
 10
-11.524732711
 20
16.6348843265
 10
-11.5929451464
 20
16.4970792473
 10
-11.6576573363
 20
16.3524504909
 10
-11.7182683676
 20
16.2006895884
 10
-11.7738880869
 20
16.0420620014
 10
-11.8234345682
 20
15.8774499643
 10
-11.8658694311
 20
15.7076603023
  0
LWPOLYLINE
  5
24F
100
AcDbEntity
  8
RACCORDO
100
AcDbPolyline
 62
250
  6
CONTINUOUS
 90
11
 70
0
 10
-10.0075882905
 20
17.8337360388
 10
-10.0823308754
 20
17.7955304842
 10
-10.1563977936
 20
17.7537543604
 10
-10.2297890452
 20
17.7084076674
 10
-10.3024827829
 20
17.6595096482
 10
-10.374500854
 20
17.6070410598
 10
-10.4459087998
 20
17.5509441725
 10
-10.5165874332
 20
17.4914645453
 10
-10.5866559412
 20
17.4283566192
 10
-10.6565374265
 20
17.3608259885
 10
-10.7262542681
 20
17.2891294278
  0
LINE
  5
250
100
AcDbEntity
  8
RACCORDO
100
AcDbLine
 62
7
  6
CONTINUOUS
 10
-15.151791201
 20
14.6206900259
 11
-16.9185806639
 21
13.7235265997
  0
LINE
  5
251
100
AcDbEntity
  8
RACCORDO
100
AcDbLine
 62
7
  6
CONTINUOUS
 10
-6.2893879713
 20
20.5148518841
 11
-4.5076395811
 21
21.4057260792
  0
LINE
  5
252
100
AcDbEntity
  8
RACCORDO
100
AcDbLine
 62
250
  6
CONTINUOUS
 10
-9.8587402142
 20
18.2178279369
 11
-10.1465413618
 21
18.078864768
  0
LINE
  5
253
100
AcDbEntity
  8
RACCORDO
100
AcDbLine
 62
250
  6
CONTINUOUS
 10
-9.7172973155
 20
17.9739014068
 11
-10.0075882905
 21
17.8337360388
  0
LINE
  5
254
100
AcDbEntity
  8
RACCORDO
100
AcDbLine
 62
7
  6
CONTINUOUS
 10
-10.8813914073
 20
-21.0677456697
 11
-10.8518716317
 21
-21.0681408501
  0
LWPOLYLINE
  5
255
100
AcDbEntity
  8
ASSI
100
AcDbPolyline
 62
7
  6
CONTINUOUS
 90
8
 70
0
 10
-10.2911722009
 20
-17.6419896027
 10
-10.4040075852
 20
-17.5783766841
 10
-10.6483067825
 20
-17.4343936021
 10
-10.8922880457
 20
-17.2843400289
 10
-11.1356346791
 20
-17.1284107389
 10
-11.3782411176
 20
-16.9666706568
 10
-11.6202129264
 20
-16.7990548578
 10
-11.8615501055
 20
-16.625563342
  0
LINE
  5
256
100
AcDbEntity
  8
ASSI
100
AcDbLine
 62
7
  6
CONTINUOUS
 10
-10.6936169739
 20
-17.4070051087
 11
-10.2912018662
 21
-17.6421312558
  0
LINE
  5
257
100
AcDbEntity
  8
ASSI
100
AcDbLine
 62
7
  6
CONTINUOUS
 10
-11.12174093
 20
-17.137456664
 11
-10.6936169739
 21
-17.4070051087
  0
LINE
  5
258
100
AcDbEntity
  8
ASSI
100
AcDbLine
 62
7
  6
CONTINUOUS
 10
-11.5484928992
 20
-16.8493349344
 11
-11.12174093
 21
-17.137456664
  0
LINE
  5
259
100
AcDbEntity
  8
ASSI
100
AcDbLine
 62
7
  6
CONTINUOUS
 10
-11.8606299105
 20
-16.6242870495
 11
-11.5484928992
 21
-16.8493349344
  0
LINE
  5
25A
100
AcDbEntity
  8
RACCORDO
100
AcDbLine
 62
250
  6
CONTINUOUS
 10
-5.755699983
 20
-22.6733989572
 11
-5.7208799116
 21
-22.7035135532
  0
LWPOLYLINE
  5
25B
100
AcDbEntity
  8
RACCORDO
100
AcDbPolyline
 62
7
  6
CONTINUOUS
 90
4
 70
0
 10
-6.7631689146
 20
-23.1454243433
 10
-6.6572375536
 20
-23.2415805056
 10
-6.5420228032
 20
-23.3213027839
 10
-6.4718317527
 20
-23.3596288077
  0
LWPOLYLINE
  5
25C
100
AcDbEntity
  8
RACCORDO
100
AcDbPolyline
 62
250
  6
CONTINUOUS
 90
45
 70
0
 10
-12.9410000464
 20
-17.8915780833
 10
-13.0487188476
 20
-17.7756694791
 10
-13.1495233112
 20
-17.6580823951
 10
-13.2434975049
 20
-17.5397395635
 10
-13.33065464
 20
-17.4216403467
 10
-13.4115677637
 20
-17.3039656271
 10
-13.4863243129
 20
-17.1874881742
 10
-13.555156184
 20
-17.0727506091
 10
-13.6187862535
 20
-16.9593587785
 10
-13.6772136692
 20
-16.8480721119
 10
-13.7307982495
 20
-16.7389756226
 10
-13.7806071983
 20
-16.6304593312
 10
-13.826785195
 20
-16.5225684555
 10
-13.8693045614
 20
-16.4157442531
 10
-13.9087281541
 20
-16.3088420913
 10
-13.9451111025
 20
-16.2018108776
 10
-13.9783470769
 20
-16.0950692815
 10
-14.0086025501
 20
-15.9881405482
 10
-14.0358148153
 20
-15.8812130811
 10
-14.059932393
 20
-15.7744521605
 10
-14.0810298559
 20
-15.6673520829
 10
-14.0990152558
 20
-15.5600005526
 10
-14.1137615611
 20
-15.4527038857
 10
-14.1252006204
 20
-15.3453117774
 10
-14.1332209712
 20
-15.2377042255
 10
-14.1376510528
 20
-15.1304765042
 10
-14.138374913
 20
-15.0245454546
 10
-14.1353397737
 20
-14.9199867993
 10
-14.1285029857
 20
-14.817173255
 10
-14.117963723
 20
-14.717367088
 10
-14.1038455457
 20
-14.6208894148
 10
-14.0862306563
 20
-14.527678078
 10
-14.0653363627
 20
-14.4382919271
 10
-14.0414276261
 20
-14.3531383425
 10
-14.0145860986
 20
-14.2718918285
 10
-13.9847391532
 20
-14.1940149145
 10
-13.9519962241
 20
-14.1196275752
 10
-13.9164419071
 20
-14.0487725925
 10
-13.8778226743
 20
-13.9809352762
 10
-13.8361643815
 20
-13.9162651208
 10
-13.7915041556
 20
-13.8549170453
 10
-13.7434644719
 20
-13.7965601542
 10
-13.691876469
 20
-13.7412905032
 10
-13.6368608506
 20
-13.6895259699
 10
-13.5784174063
 20
-13.6415156313
  0
LINE
  5
25D
100
AcDbEntity
  8
RACCORDO
100
AcDbLine
 62
7
  6
CONTINUOUS
 10
-6.8587978403
 20
-23.0332833726
 11
-6.7631689146
 21
-23.1454243433
  0
LWPOLYLINE
  5
25E
100
AcDbEntity
  8
RACCORDO
100
AcDbPolyline
 62
250
  6
CONTINUOUS
 90
6
 70
0
 10
-13.5684319055
 20
-17.8032443479
 10
-13.6648276681
 20
-17.6719432333
 10
-13.754480602
 20
-17.5418101617
 10
-13.8372903414
 20
-17.4132587343
 10
-13.9133572522
 20
-17.2858753498
 10
-13.9838402943
 20
-17.1604237472
  0
LWPOLYLINE
  5
25F
100
AcDbEntity
  8
RACCORDO
100
AcDbPolyline
 62
7
  6
CONTINUOUS
 90
11
 70
0
 10
-12.7442120746
 20
-17.1313164402
 10
-12.9586492488
 20
-16.796993235
 10
-13.1492674623
 20
-16.4353457096
 10
-13.3050025599
 20
-16.0674543888
 10
-13.423780111
 20
-15.6929633126
 10
-13.5076745461
 20
-15.312228441
 10
-13.5518450007
 20
-14.9473981788
 10
-13.5536087522
 20
-14.5991729481
 10
-13.5156485232
 20
-14.2668523267
 10
-13.4411716176
 20
-13.9704834535
 10
-13.3312471367
 20
-13.7167487082
  0
LWPOLYLINE
  5
260
100
AcDbEntity
  8
RACCORDO
100
AcDbPolyline
 62
250
  6
CONTINUOUS
 90
4
 70
0
 10
-11.4782441412
 20
-20.4221179023
 10
-11.4396530579
 20
-20.4890110207
 10
-11.3959233078
 20
-20.553290812
 10
-11.3469957847
 20
-20.6152319254
  0
LWPOLYLINE
  5
261
100
AcDbEntity
  8
RACCORDO
100
AcDbPolyline
 62
250
  6
CONTINUOUS
 90
11
 70
0
 10
-13.9838402943
 20
-17.1604237472
 10
-14.0486464693
 20
-17.0375028639
 10
-14.1078687756
 20
-16.9165137625
 10
-14.1629451687
 20
-16.7964233701
 10
-14.2141309718
 20
-16.6771487651
 10
-14.2611708616
 20
-16.558772869
 10
-14.3047368241
 20
-16.4405113741
 10
-14.3450198453
 20
-16.3221443378
 10
-14.3818289392
 20
-16.2038917027
 10
-14.4152631335
 20
-16.0856289887
 10
-14.4453885669
 20
-15.9673622309
  0
LWPOLYLINE
  5
262
100
AcDbEntity
  8
RACCORDO
100
AcDbPolyline
 62
250
  6
CONTINUOUS
 90
7
 70
0
 10
-17.3000951628
 20
-16.7079566843
 10
-17.29100349
 20
-16.8731327915
 10
-17.2637075254
 20
-17.0271034397
 10
-17.218417476
 20
-17.16700777
 10
-17.1553424211
 20
-17.2906912731
 10
-17.0755320452
 20
-17.3949951953
 10
-16.981593253
 20
-17.4767691277
  0
LWPOLYLINE
  5
263
100
AcDbEntity
  8
RACCORDO
100
AcDbPolyline
 62
250
  6
CONTINUOUS
 90
13
 70
0
 10
-17.3000951628
 20
11.855750756
 10
-17.2910039971
 20
12.0300135693
 10
-17.2637090684
 20
12.2112773501
 10
-17.2184198541
 20
12.3964713535
 10
-17.1553443996
 20
12.583232948
 10
-17.07553195
 20
12.7673525816
 10
-16.9815903704
 20
12.9430700083
 10
-16.8761489641
 20
13.1066622426
 10
-16.7608853735
 20
13.2565648458
 10
-16.6377625228
 20
13.3908700511
 10
-16.5089064308
 20
13.507759754
 10
-16.3766282512
 20
13.6056096104
 10
-16.2431374032
 20
13.6832598443
  0
LWPOLYLINE
  5
264
100
AcDbEntity
  8
RACCORDO
100
AcDbPolyline
 62
250
  6
CONTINUOUS
 90
12
 70
0
 10
-10.9358642233
 20
17.0424073598
 10
-11.0064145409
 20
16.9479238223
 10
-11.0759487534
 20
16.8470940291
 10
-11.1445858822
 20
16.7398458396
 10
-11.2122069059
 20
16.6262513943
 10
-11.2772697128
 20
16.5061682939
 10
-11.3399740955
 20
16.3793946074
 10
-11.4001202613
 20
16.2461322657
 10
-11.4555667206
 20
16.1068446625
 10
-11.5055996436
 20
15.9616862624
 10
-11.5509328601
 20
15.8105026008
 10
-11.5915663701
 20
15.6532936776
  0
LINE
  5
265
100
AcDbEntity
  8
RACCORDO
100
AcDbLine
 62
7
  6
CONTINUOUS
 10
-12.058898175
 20
15.5042147126
 11
-12.3892382965
 21
15.107420545
  0
LINE
  5
266
100
AcDbEntity
  8
RACCORDO
100
AcDbLine
 62
250
  6
CONTINUOUS
 10
-10.8040830268
 20
15.0212241853
 11
-11.2250943039
 21
14.5253485487
  0
LWPOLYLINE
  5
267
100
AcDbEntity
  8
RACCORDO
100
AcDbPolyline
 62
250
  6
CONTINUOUS
 90
10
 70
0
 10
-11.2250943039
 20
14.5253485487
 10
-11.2391870825
 20
14.5095629605
 10
-11.2538182911
 20
14.4943881334
 10
-11.2689543273
 20
14.4798942107
 10
-11.2845704502
 20
14.4661427357
 10
-11.3006137224
 20
14.4532144959
 10
-11.3170012481
 20
14.4412022529
 10
-11.3336710697
 20
14.43017538
 10
-11.3505840252
 20
14.4201864245
 10
-11.3676855768
 20
14.4112940946
  0
LWPOLYLINE
  5
268
100
AcDbEntity
  8
RACCORDO
100
AcDbPolyline
 62
250
  6
CONTINUOUS
 90
4
 70
0
 10
-10.7262542681
 20
17.2891294278
 10
-10.7957840869
 20
17.2130101625
 10
-10.8654828483
 20
17.130903463
 10
-10.9358642233
 20
17.0424073598
  0
LWPOLYLINE
  5
269
100
AcDbEntity
  8
0
100
AcDbPolyline
 62
7
  6
CONTINUOUS
 90
16
 70
0
 10
-4.1984812373
 20
22.4119205739
 10
-4.2259580873
 20
22.3849450129
 10
-4.2521204571
 20
22.3561665024
 10
-4.2769683466
 20
22.3255850423
 10
-4.3006526206
 20
22.2929685033
 10
-4.3230224143
 20
22.2585490148
 10
-4.3436251333
 20
22.2230229652
 10
-4.3624247828
 20
22.1863678144
 10
-4.3794573575
 20
22.1486061025
 10
-4.3943782479
 20
22.1105018394
 10
-4.4071444393
 20
22.0720480473
 10
-4.4177989463
 20
22.0332517039
 10
-4.4261262028
 20
21.994897752
 10
-4.4320543534
 20
21.9572478391
 10
-4.4356552535
 20
21.9200403178
 10
-4.436928903
 20
21.8832751879
  0
LWPOLYLINE
  5
26A
100
AcDbEntity
  8
RACCORDO
100
AcDbPolyline
 62
7
  6
CONTINUOUS
 90
4
 70
0
 10
-6.4070112439
 20
20.0099181482
 10
-6.419751427
 20
19.9975067182
 10
-6.4314361406
 20
19.9848050982
 10
-6.4386253172
 20
19.9760179807
  0
LINE
  5
26B
100
AcDbEntity
  8
RACCORDO
100
AcDbLine
 62
7
  6
CONTINUOUS
 10
-9.5967637925
 20
17.8383720789
 11
-9.5576744389
 21
17.8744012629
  0
LINE
  5
26C
100
AcDbEntity
  8
RACCORDO
100
AcDbLine
 62
7
  6
CONTINUOUS
 10
-6.4990958238
 20
20.2914131008
 11
-6.377255937
 21
20.4037145667
  0
LINE
  5
26D
100
AcDbEntity
  8
RACCORDO
100
AcDbLine
 62
7
  6
CONTINUOUS
 10
-6.2178981312
 20
20.5505968041
 11
-4.1984812373
 21
22.4119205739
  0
LINE
  5
26E
100
AcDbEntity
  8
RACCORDO
100
AcDbLine
 62
7
  6
CONTINUOUS
 10
-6.4070112439
 20
20.0099181482
 11
-6.373903576
 21
20.040433932
  0
LINE
  5
26F
100
AcDbEntity
  8
RACCORDO
100
AcDbLine
 62
7
  6
CONTINUOUS
 10
-5.3491316115
 20
20.984980064
 11
-4.436928903
 21
21.8257695955
  0
LINE
  5
270
100
AcDbEntity
  8
RACCORDO
100
AcDbLine
 62
250
  6
CONTINUOUS
 10
-14.4778516577
 20
14.5796596762
 11
-16.243137386
 21
13.6832598359
  0
LINE
  5
271
100
AcDbEntity
  8
RACCORDO
100
AcDbLine
 62
7
  6
CONTINUOUS
 10
-12.5286764556
 20
14.991789534
 11
-12.8153482579
 21
14.8463974859
  0
LINE
  5
272
100
AcDbEntity
  8
RACCORDO
100
AcDbLine
 62
7
  6
CONTINUOUS
 10
-2.7538540654
 20
18.7470849311
 11
-2.6823642253
 21
18.7828298512
  0
LINE
  5
273
100
AcDbEntity
  8
RACCORDO
100
AcDbLine
 62
7
  6
CONTINUOUS
 10
-10.3285624294
 20
14.7834638866
 11
-10.8608543749
 21
14.5208580749
  0
LINE
  5
274
100
AcDbEntity
  8
RACCORDO
100
AcDbLine
 62
250
  6
CONTINUOUS
 10
-11.4539103433
 20
15.4963618799
 11
-11.2839142266
 21
15.5786307424
  0
LINE
  5
275
100
AcDbEntity
  8
RACCORDO
100
AcDbLine
 62
250
  6
CONTINUOUS
 10
-4.3526040943
 20
18.9330073693
 11
-4.2967977736
 21
18.9600145893
  0
LINE
  5
276
100
AcDbEntity
  8
RACCORDO
100
AcDbLine
 62
7
  6
CONTINUOUS
 10
-11.5057189538
 20
15.3882692736
 11
-11.2695656947
 21
15.5025545902
  0
LINE
  5
277
100
AcDbEntity
  8
RACCORDO
100
AcDbLine
 62
7
  6
CONTINUOUS
 10
-4.2682294445
 20
18.8908200444
 11
-4.2124231238
 21
18.9178272644
  0
LINE
  5
278
100
AcDbEntity
  8
RACCORDO
100
AcDbLine
 62
7
  6
CONTINUOUS
 10
-4.6362630085
 20
19.0748368264
 11
-4.579790576
 21
19.1015109905
  0
LINE
  5
279
100
AcDbEntity
  8
RACCORDO
100
AcDbLine
 62
7
  6
CONTINUOUS
 10
-4.1910097815
 20
18.8522102129
 11
-4.1339204818
 21
18.8785759434
  0
LINE
  5
27A
100
AcDbEntity
  8
RACCORDO
100
AcDbLine
 62
250
  6
CONTINUOUS
 10
-4.147006957
 20
18.8302088007
 11
-4.0899176572
 21
18.8565745311
  0
LWPOLYLINE
  5
27B
100
AcDbEntity
  8
RACCORDO
100
AcDbPolyline
 62
250
  6
CONTINUOUS
 90
7
 70
0
 10
-12.8153482579
 20
15.762314191
 10
-12.8687891211
 20
15.7400427858
 10
-12.9291394592
 20
15.7227379805
 10
-12.9945736799
 20
15.7109232452
 10
-13.0631124024
 20
15.7049559766
 10
-13.1326823358
 20
15.7050166849
 10
-13.2011789965
 20
15.7111035334
  0
LWPOLYLINE
  5
27C
100
AcDbEntity
  8
RACCORDO
100
AcDbPolyline
 62
7
  6
CONTINUOUS
 90
8
 70
0
 10
-10.845679308
 20
-18.4124478706
 10
-11.1176531644
 20
-18.3749584987
 10
-11.3986288445
 20
-18.2822887257
 10
-11.6880752633
 20
-18.1375655163
 10
-11.9690509434
 20
-17.9492596092
 10
-12.2410247998
 20
-17.7147751247
 10
-12.5045279175
 20
-17.4367079426
 10
-12.7442120746
 20
-17.1313164402
  0
LINE
  5
27D
100
AcDbEntity
  8
0
100
AcDbLine
 62
250
  6
CONTINUOUS
 10
-0.1967142787
 20
-21.7771714388
 11
2.4542736952
 21
-23.1026654257
  0
LINE
  5
27E
100
AcDbEntity
  8
ASSI
100
AcDbLine
 62
7
  6
CONTINUOUS
 10
-11.8615501055
 20
-15.6219558619
 11
-12.4272355304
 21
-15.3391131494
  0
LINE
  5
27F
100
AcDbEntity
  8
0
100
AcDbLine
 62
250
  6
CONTINUOUS
 10
0.7192013837
 20
-21.3322667408
 11
2.915653328
 21
-22.430492713
  0
LINE
  5
280
100
AcDbEntity
  8
SMUSSO
100
AcDbLine
 62
7
  6
CONTINUOUS
 10
1.1363014212
 20
-21.1158476317
 11
2.6708285892
 21
-21.8831112157
  0
LINE
  5
281
100
AcDbEntity
  8
SMUSSO
100
AcDbLine
 62
7
  6
CONTINUOUS
 10
1.3910140988
 20
-20.9312459249
 11
2.9525949998
 21
-21.7120363755
  0
LWPOLYLINE
  5
282
100
AcDbEntity
  8
RACCORDO
100
AcDbPolyline
 62
7
  6
CONTINUOUS
 90
6
 70
0
 10
-5.6146255718
 20
-23.266252992
 10
-5.665805149
 20
-23.1949892999
 10
-5.7080415938
 20
-23.1183502331
 10
-5.7405960706
 20
-23.0374635738
 10
-5.764572272
 20
-22.9538189873
 10
-5.7747073515
 20
-22.9005628574
  0
LWPOLYLINE
  5
283
100
AcDbEntity
  8
RACCORDO
100
AcDbPolyline
 62
250
  6
CONTINUOUS
 90
10
 70
0
 10
-13.9392601223
 20
-13.4888727604
 10
-13.9099293338
 20
-13.5314158592
 10
-13.8751666612
 20
-13.5695430902
 10
-13.8360050648
 20
-13.6021215131
 10
-13.7936082176
 20
-13.6281830685
 10
-13.7492359285
 20
-13.6469533424
 10
-13.7042067074
 20
-13.6578745791
 10
-13.6598585846
 20
-13.660622255
 10
-13.6175093522
 20
-13.6551147216
 10
-13.5784174063
 20
-13.6415156314
  0
LWPOLYLINE
  5
284
100
AcDbEntity
  8
RACCORDO
100
AcDbPolyline
 62
250
  6
CONTINUOUS
 90
3
 70
0
 10
-6.8374988473
 20
-23.0392799693
 10
-6.8962074968
 20
-22.9471789072
 10
-6.9501106803
 20
-22.8433127715
  0
LWPOLYLINE
  5
285
100
AcDbEntity
  8
RACCORDO
100
AcDbPolyline
 62
7
  6
CONTINUOUS
 90
19
 70
0
 10
-12.426361543
 20
-16.0264756358
 10
-12.3443313792
 20
-16.1952983796
 10
-12.2556670449
 20
-16.3606641338
 10
-12.1608403023
 20
-16.5216998087
 10
-12.0603246168
 20
-16.6776358357
 10
-11.9546266359
 20
-16.8277354972
 10
-11.8443446611
 20
-16.9712221501
 10
-11.7300712977
 20
-17.1074226779
 10
-11.6123978035
 20
-17.2357427418
 10
-11.4919932588
 20
-17.3555793505
 10
-11.3695564603
 20
-17.4663885116
 10
-11.2457170059
 20
-17.5677661121
 10
-11.1211120343
 20
-17.6593597819
 10
-10.99666616
 20
-17.7406977504
 10
-10.872864002
 20
-17.8116902047
 10
-10.7497760973
 20
-17.8724413568
 10
-10.6284203345
 20
-17.9225768236
 10
-10.509247196
 20
-17.9620680342
 10
-10.3932684527
 20
-17.9907021366
  0
LWPOLYLINE
  5
286
100
AcDbEntity
  8
RACCORDO
100
AcDbPolyline
 62
250
  6
CONTINUOUS
 90
22
 70
0
 10
-12.5774421845
 20
-16.0207671511
 10
-12.5162900347
 20
-16.1537852218
 10
-12.4484071066
 20
-16.2893852153
 10
-12.3737619188
 20
-16.4265268553
 10
-12.2930091233
 20
-16.5631665222
 10
-12.2061611434
 20
-16.6986397333
 10
-12.1132661466
 20
-16.8322498539
 10
-12.0153589645
 20
-16.9620599988
 10
-11.9127962253
 20
-17.0873274153
 10
-11.8057672226
 20
-17.2075589318
 10
-11.6952898648
 20
-17.321436547
 10
-11.5818412484
 20
-17.4284012523
 10
-11.465765479
 20
-17.5280628612
 10
-11.3479964066
 20
-17.6196061439
 10
-11.2292270176
 20
-17.7025659763
 10
-11.1096927101
 20
-17.7768504305
 10
-10.9896657247
 20
-17.8423142276
 10
-10.869615527
 20
-17.8987051416
 10
-10.7499884593
 20
-17.9458173357
 10
-10.6310220826
 20
-17.983534526
 10
-10.5129592308
 20
-18.0117055068
 10
-10.407102367
 20
-18.0284154739
  0
LWPOLYLINE
  5
287
100
AcDbEntity
  8
RACCORDO
100
AcDbPolyline
 62
7
  6
CONTINUOUS
 90
6
 70
0
 10
-17.0590346377
 20
15.0349024279
 10
-17.0556998087
 20
14.9920480872
 10
-17.0391018048
 20
14.924480578
 10
-17.0093391083
 20
14.8568319006
 10
-16.9667972115
 20
14.7917381102
 10
-16.9125950892
 20
14.7312911917
  0
LINE
  5
288
100
AcDbEntity
  8
RACCORDO
100
AcDbLine
 62
250
  6
CONTINUOUS
 10
-17.7394295244
 20
-16.1796514413
 11
-17.7394349911
 21
-16.1776265984
  0
LINE
  5
289
100
AcDbEntity
  8
RACCORDO
100
AcDbLine
 62
7
  6
CONTINUOUS
 10
-17.7394349911
 20
12.3860808419
 11
-17.7394349911
 21
-16.1776265984
  0
LINE
  5
28A
100
AcDbEntity
  8
RACCORDO
100
AcDbLine
 62
250
  6
CONTINUOUS
 10
-17.3000951628
 20
11.855750756
 11
-17.3000951628
 21
-16.7079566843
  0
LINE
  5
28B
100
AcDbEntity
  8
RACCORDO
100
AcDbLine
 62
7
  6
CONTINUOUS
 10
-17.0590416986
 20
15.034894371
 11
-17.0590416986
 21
13.6360618929
  0
LINE
  5
28C
100
AcDbEntity
  8
RACCORDO
100
AcDbLine
 62
250
  6
CONTINUOUS
 10
-16.9125950892
 20
14.7312911917
 11
-16.9125950892
 21
13.7235265717
  0
LWPOLYLINE
  5
28D
100
AcDbEntity
  8
RACCORDO
100
AcDbPolyline
 62
250
  6
CONTINUOUS
 90
7
 70
0
 10
-13.3181575601
 20
16.3606100394
 10
-13.3369905424
 20
16.2584410985
 10
-13.3524495623
 20
16.1570244342
 10
-13.3645045738
 20
16.056557881
 10
-13.3731321507
 20
15.9572374094
 10
-13.3783155319
 20
15.8592567432
 10
-13.3800446543
 20
15.762806982
  0
LINE
  5
28E
100
AcDbEntity
  8
ASSI
100
AcDbLine
 62
7
  6
CONTINUOUS
 10
-13.0463111574
 20
8.9617674707
 11
-13.1162144344
 21
8.8609116144
  0
LWPOLYLINE
  5
28F
100
AcDbEntity
  8
RACCORDO
100
AcDbPolyline
 62
7
  6
CONTINUOUS
 90
4
 70
0
 10
-13.2675822264
 20
8.9238722652
 10
-13.3606365378
 20
8.793777483
 10
-13.440520025
 20
8.6478309085
 10
-13.507547113
 20
8.4863393629
  0
LINE
  5
290
100
AcDbEntity
  8
RACCORDO
100
AcDbLine
 62
7
  6
CONTINUOUS
 10
-13.3050025599
 20
8.8465014543
 11
-13.1735613049
 21
9.0255624411
  0
LINE
  5
291
100
AcDbEntity
  8
RACCORDO
100
AcDbLine
 62
250
  6
CONTINUOUS
 10
-10.5457122953
 20
14.8920388195
 11
-10.8608543749
 21
14.5208580749
  0
LWPOLYLINE
  5
292
100
AcDbEntity
  8
RACCORDO
100
AcDbPolyline
 62
7
  6
CONTINUOUS
 90
15
 70
0
 10
-2.9635619179
 20
18.5236461478
 10
-2.9772427006
 20
18.5117050175
 10
-2.9916447859
 20
18.5003620834
 10
-3.0067681737
 20
18.4896173455
 10
-3.0226835998
 20
18.4794300328
 10
-3.0393203284
 20
18.4698409163
 10
-3.0564661524
 20
18.4609723085
 10
-3.074127593
 20
18.4528334389
 10
-3.0922981289
 20
18.445415078
 10
-3.1107459886
 20
18.4388118495
 10
-3.1294747245
 20
18.4330341952
 10
-3.1484807841
 20
18.4280716734
 10
-3.1675217386
 20
18.4239875827
 10
-3.1865980349
 20
18.4207931757
 10
-3.2057092261
 20
18.4184771998
  0
LWPOLYLINE
  5
293
100
AcDbEntity
  8
0
100
AcDbPolyline
 62
7
  6
CONTINUOUS
 90
10
 70
0
 10
-5.4997042458
 20
15.7842696431
 10
-5.4992353412
 20
15.7846302492
 10
-5.4987680493
 20
15.7849977788
 10
-5.4983023701
 20
15.7853722319
 10
-5.4978382184
 20
15.7857536801
 10
-5.4973756793
 20
15.7861420519
 10
-5.4969150085
 20
15.7865371326
 10
-5.4964562913
 20
15.7869388506
 10
-5.4959994423
 20
15.7873472776
 10
-5.4955444616
 20
15.7877624134
  0
LINE
  5
294
100
AcDbEntity
  8
0
100
AcDbLine
 62
7
  6
CONTINUOUS
 10
-5.4997042458
 20
15.7842696431
 11
-6.5505406827
 21
14.9852897404
  0
LWPOLYLINE
  5
295
100
AcDbEntity
  8
RACCORDO
100
AcDbPolyline
 62
7
  6
CONTINUOUS
 90
5
 70
0
 10
-5.6751678912
 20
15.5733256915
 10
-5.8968638022
 20
15.4070611922
 10
-6.109890119
 20
15.2102909405
 10
-6.3111618178
 20
14.9861339654
 10
-6.4969594594
 20
14.739100747
  0
LINE
  5
296
100
AcDbEntity
  8
RACCORDO
100
AcDbLine
 62
250
  6
CONTINUOUS
 10
-5.6584221083
 20
15.516779131
 11
-5.5191219772
 21
15.6102774736
  0
LINE
  5
297
100
AcDbEntity
  8
RACCORDO
100
AcDbLine
 62
7
  6
CONTINUOUS
 10
-5.4656719391
 20
15.6972404101
 11
-5.6751678912
 21
15.5733256915
  0
LINE
  5
298
100
AcDbEntity
  8
RACCORDO
100
AcDbLine
 62
250
  6
CONTINUOUS
 10
-5.5191219772
 20
15.6102774736
 11
-5.3741415846
 21
15.6926859096
  0
LINE
  5
299
100
AcDbEntity
  8
RACCORDO
100
AcDbLine
 62
7
  6
CONTINUOUS
 10
-5.4660995519
 20
15.6970863812
 11
-5.1866438186
 21
15.8417788228
  0
LINE
  5
29A
100
AcDbEntity
  8
RACCORDO
100
AcDbLine
 62
250
  6
CONTINUOUS
 10
-5.3741415846
 20
15.6926859096
 11
-5.09623591
 21
15.8365757848
  0
LWPOLYLINE
  5
29B
100
AcDbEntity
  8
RACCORDO
100
AcDbPolyline
 62
250
  6
CONTINUOUS
 90
10
 70
0
 10
9.0249558751
 20
20.966712681
 10
9.0824284144
 20
20.9895057273
 10
9.1492985884
 20
21.0074654556
 10
9.2190368471
 20
21.0176037372
 10
9.2912581507
 20
21.0198651386
 10
9.3655560198
 20
21.0142372048
 10
9.4414992717
 20
21.0007533567
 10
9.5186586643
 20
20.9794948277
 10
9.5966102669
 20
20.9505858543
 10
9.6749207007
 20
20.9141931866
  0
LINE
  5
29C
100
AcDbEntity
  8
0
100
AcDbLine
 62
250
  6
CONTINUOUS
 10
3.1974197386
 20
19.5323048505
 11
2.915653328
 21
19.4216132802
  0
LINE
  5
29D
100
AcDbEntity
  8
SMUSSO
100
AcDbLine
 62
7
  6
CONTINUOUS
 10
3.1832155592
 20
19.3263599032
 11
2.9014491486
 21
19.2156683328
  0
LINE
  5
29E
100
AcDbEntity
  8
SMUSSO
100
AcDbLine
 62
7
  6
CONTINUOUS
 10
2.9525949998
 20
19.1643626832
 11
2.6708285892
 21
19.0536711128
  0
LWPOLYLINE
  5
29F
100
AcDbEntity
  8
RACCORDO
100
AcDbPolyline
 62
250
  6
CONTINUOUS
 90
5
 70
0
 10
-5.4656986017
 20
15.6972925049
 10
-5.4460755693
 20
15.7042137462
 10
-5.4233473289
 20
15.7059990806
 10
-5.3991239961
 20
15.7021171517
 10
-5.3741415846
 20
15.6926859096
  0
LWPOLYLINE
  5
2A0
100
AcDbEntity
  8
RACCORDO
100
AcDbPolyline
 62
7
  6
CONTINUOUS
 90
3
 70
0
 10
-10.8155346845
 20
-18.4211799788
 10
-10.6630112657
 20
-18.4009822147
 10
-10.6591380153
 20
-18.3999099371
  0
LINE
  5
2A1
100
AcDbEntity
  8
ASSI
100
AcDbLine
 62
7
  6
CONTINUOUS
 10
-10.6142640891
 20
-18.265766345
 11
-10.533451756
 21
-18.2558787076
  0
LWPOLYLINE
  5
2A2
100
AcDbEntity
  8
RACCORDO
100
AcDbPolyline
 62
250
  6
CONTINUOUS
 90
23
 70
0
 10
-12.137586254
 20
-11.1168818936
 10
-12.0583111048
 20
-11.1709672313
 10
-11.9786700918
 20
-11.2301727923
 10
-11.8982389804
 20
-11.2949137359
 10
-11.8174420052
 20
-11.3647749028
 10
-11.7377607695
 20
-11.4389087855
 10
-11.6591979483
 20
-11.5175937611
 10
-11.5817508665
 20
-11.6005514524
 10
-11.5068931023
 20
-11.6860992202
 10
-11.4348821011
 20
-11.7741879828
 10
-11.3654604174
 20
-11.8648668218
 10
-11.2993292926
 20
-11.9566003425
 10
-11.2368686733
 20
-12.0488491321
 10
-11.1776986129
 20
-12.1421526035
 10
-11.1213805129
 20
-12.2365936001
 10
-11.0678885798
 20
-12.3319769882
 10
-11.017248607
 20
-12.4284979016
 10
-10.9690993773
 20
-12.5268245853
 10
-10.9232774256
 20
-12.6270126827
 10
-10.8799462169
 20
-12.7290065504
 10
-10.8392349289
 20
-12.8333075035
 10
-10.800898302
 20
-12.9405694
 10
-10.7651815958
 20
-13.0501383818
  0
LWPOLYLINE
  5
2A3
100
AcDbEntity
  8
RACCORDO
100
AcDbPolyline
 62
250
  6
CONTINUOUS
 90
8
 70
0
 10
-10.798573543
 20
-14.8611400593
 10
-10.8279863956
 20
-14.8232778024
 10
-10.8502218183
 20
-14.7833888896
 10
-10.8646190911
 20
-14.7426586072
 10
-10.870750402
 20
-14.7022972431
 10
-10.8684335592
 20
-14.6635041234
 10
-10.8577374058
 20
-14.6274319749
 10
-10.85459653
 20
-14.6205996947
  0
LINE
  5
2A4
100
AcDbEntity
  8
RACCORDO
100
AcDbLine
 62
250
  6
CONTINUOUS
 10
-10.7737895823
 20
-15.0716080304
 11
-10.6765475567
 21
-15.2544912769
  0
LWPOLYLINE
  5
2A5
100
AcDbEntity
  8
RACCORDO
100
AcDbPolyline
 62
7
  6
CONTINUOUS
 90
3
 70
0
 10
-7.0150396688
 20
-22.7643777318
 10
-6.9430808952
 20
-22.905925776
 10
-6.8587978403
 20
-23.0332833726
  0
LWPOLYLINE
  5
2A6
100
AcDbEntity
  8
RACCORDO
100
AcDbPolyline
 62
250
  6
CONTINUOUS
 90
3
 70
0
 10
-10.6765475567
 20
-15.2544912769
 10
-10.5886326574
 20
-15.4335769957
 10
-10.5100448845
 20
-15.6088651868
  0
LWPOLYLINE
  5
2A7
100
AcDbEntity
  8
0
100
AcDbPolyline
 62
7
  6
CONTINUOUS
 90
3
 70
0
 10
-7.1124010906
 20
-22.8194574136
 10
-7.1339359282
 20
-22.7714217887
 10
-7.1522798805
 20
-22.7201912307
  0
LINE
  5
2A8
100
AcDbEntity
  8
RACCORDO
100
AcDbLine
 62
7
  6
CONTINUOUS
 10
-12.5013826383
 20
-15.8549884615
 11
-12.426361543
 21
-16.0264756358
  0
LWPOLYLINE
  5
2A9
100
AcDbEntity
  8
RACCORDO
100
AcDbPolyline
 62
250
  6
CONTINUOUS
 90
27
 70
0
 10
-13.5162632966
 20
-13.1778767667
 10
-13.562685689
 20
-13.0302680069
 10
-13.6004412972
 20
-12.8873804863
 10
-13.6300577307
 20
-12.7498964093
 10
-13.6520727488
 20
-12.6185856882
 10
-13.6671409728
 20
-12.4936300508
 10
-13.6759129201
 20
-12.3746674484
 10
-13.678921764
 20
-12.2618127099
 10
-13.6766951913
 20
-12.155333201
 10
-13.6697458782
 20
-12.055019326
 10
-13.6585827415
 20
-11.9609972799
 10
-13.6436870875
 20
-11.8731283031
 10
-13.6254006557
 20
-11.7907968751
 10
-13.6041875726
 20
-11.7141824051
 10
-13.5803729702
 20
-11.6429180168
 10
-13.5538325378
 20
-11.5757260063
 10
-13.5247035181
 20
-11.5124827623
 10
-13.4932348646
 20
-11.4533117728
 10
-13.4592057639
 20
-11.3975428018
 10
-13.4226900407
 20
-11.3452062778
 10
-13.3838193274
 20
-11.2964071219
 10
-13.3422962276
 20
-11.2507790699
 10
-13.2981542762
 20
-11.2084556647
 10
-13.2514568899
 20
-11.169589633
 10
-13.201831896
 20
-11.1340301209
 10
-13.1490934041
 20
-11.1018988961
 10
-13.1001593572
 20
-11.0767046521
  0
LWPOLYLINE
  5
2AA
100
AcDbEntity
  8
RACCORDO
100
AcDbPolyline
 62
250
  6
CONTINUOUS
 90
13
 70
0
 10
-11.8658691331
 20
-20.1860556889
 10
-11.8415165248
 20
-20.2642564104
 10
-11.8130514527
 20
-20.3417011171
 10
-11.7802420623
 20
-20.4179557999
 10
-11.7429690284
 20
-20.4923726605
 10
-11.7009377846
 20
-20.5646688345
 10
-11.6535902815
 20
-20.6348206605
 10
-11.6005949685
 20
-20.7022657255
 10
-11.5417798821
 20
-20.7662159486
 10
-11.4767453775
 20
-20.8261085307
 10
-11.4053291105
 20
-20.8811029511
 10
-11.3273289842
 20
-20.9303947487
 10
-11.2848993633
 20
-20.9530957004
  0
LWPOLYLINE
  5
2AB
100
AcDbEntity
  8
RACCORDO
100
AcDbPolyline
 62
250
  6
CONTINUOUS
 90
30
 70
0
 10
-13.9144761616
 20
-13.30318875
 10
-13.966162081
 20
-13.1343676958
 10
-14.0092769219
 20
-12.9721504136
 10
-14.0438206842
 20
-12.8165369034
 10
-14.0691300275
 20
-12.6673845437
 10
-14.0858682923
 20
-12.524835956
 10
-14.0960254997
 20
-12.3893190045
 10
-14.0996811976
 20
-12.2609829237
 10
-14.0967558381
 20
-12.1396784792
 10
-14.0890007985
 20
-12.0253858322
 10
-14.0765379106
 20
-11.9183630256
 10
-14.0592453426
 20
-11.8183520166
 10
-14.0385089766
 20
-11.7245588382
 10
-14.0146152116
 20
-11.6372359942
 10
-13.9872776487
 20
-11.5561309809
 10
-13.9570229737
 20
-11.4796923203
 10
-13.9239940468
 20
-11.4076334066
 10
-13.8880480079
 20
-11.3402408456
 10
-13.8492829624
 20
-11.2768229775
 10
-13.8077852794
 20
-11.2172084602
 10
-13.7634685898
 20
-11.1615686357
 10
-13.7161718922
 20
-11.1097258701
 10
-13.6659563013
 20
-11.0615350519
 10
-13.6127607024
 20
-11.0171412926
 10
-13.5562407499
 20
-10.9768022925
 10
-13.4961729899
 20
-10.9403339823
 10
-13.4327808763
 20
-10.9079204313
 10
-13.3663904257
 20
-10.8803715475
 10
-13.29671898
 20
-10.8577786297
 10
-13.2240491972
 20
-10.8400503791
  0
LWPOLYLINE
  5
2AC
100
AcDbEntity
  8
RACCORDO
100
AcDbPolyline
 62
250
  6
CONTINUOUS
 90
5
 70
0
 10
-11.5777845771
 20
-20.1855027885
 10
-11.5694548229
 20
-20.2128933131
 10
-11.5431450238
 20
-20.2840590485
 10
-11.5126369727
 20
-20.3536816661
 10
-11.4782441412
 20
-20.4221179023
  0
LINE
  5
2AD
100
AcDbEntity
  8
RACCORDO
100
AcDbLine
 62
7
  6
CONTINUOUS
 10
-12.9886442374
 20
-12.999899605
 11
-13.0890958493
 21
-12.6533929648
  0
LINE
  5
2AE
100
AcDbEntity
  8
RACCORDO
100
AcDbLine
 62
7
  6
CONTINUOUS
 10
-13.0199624181
 20
-12.577697861
 11
-12.9219977503
 21
-12.9236114073
  0
LWPOLYLINE
  5
2AF
100
AcDbEntity
  8
RACCORDO
100
AcDbPolyline
 62
250
  6
CONTINUOUS
 90
9
 70
0
 10
-14.4453885669
 20
-15.9673622309
 10
-14.4721391006
 20
-15.8490853943
 10
-14.4954153463
 20
-15.7306558936
 10
-14.515296322
 20
-15.6119228988
 10
-14.5317030097
 20
-15.4930372399
 10
-14.5442989668
 20
-15.3743088223
 10
-14.5530781492
 20
-15.255336997
 10
-14.5580466011
 20
-15.136522413
 10
-14.5588860128
 20
-15.0193769231
  0
LWPOLYLINE
  5
2B0
100
AcDbEntity
  8
RACCORDO
100
AcDbPolyline
 62
250
  6
CONTINUOUS
 90
3
 70
0
 10
-13.3419530412
 20
-19.3034185565
 10
-13.3369881327
 20
-19.3310529126
 10
-13.3181575601
 20
-19.4144869978
  0
LWPOLYLINE
  5
2B1
100
AcDbEntity
  8
RACCORDO
100
AcDbPolyline
 62
7
  6
CONTINUOUS
 90
3
 70
0
 10
-12.9702419134
 20
-13.1238578205
 10
-12.9761434581
 20
-13.0632884865
 10
-12.9886442374
 20
-12.999899605
  0
LWPOLYLINE
  5
2B2
100
AcDbEntity
  8
DRAFT
100
AcDbPolyline
 62
7
  6
CONTINUOUS
 90
11
 70
0
 10
-13.6311684476
 20
-3.5534595406
 10
-13.6035198955
 20
-3.9465644437
 10
-13.5367159505
 20
-4.3345007483
 10
-13.4307566126
 20
-4.7172684542
 10
-13.2814038127
 20
-5.1027448682
 10
-13.0928956199
 20
-5.4830526836
 10
-12.8779462418
 20
-5.8345599801
 10
-12.6351175457
 20
-6.1553574157
 10
-12.3658476642
 20
-6.4473543324
 10
-12.0871652023
 20
-6.6926468353
 10
-11.7984713083
 20
-6.8884044862
  0
LWPOLYLINE
  5
2B3
100
AcDbEntity
  8
RACCORDO
100
AcDbPolyline
 62
250
  6
CONTINUOUS
 90
18
 70
0
 10
-14.1385498477
 20
-3.7984458018
 10
-14.1337450457
 20
-3.6315651957
 10
-14.1199555202
 20
-3.47530492
 10
-14.0981214406
 20
-3.3298234501
 10
-14.0692288143
 20
-3.1953501295
 10
-14.0341658877
 20
-3.0715547808
 10
-13.9935988931
 20
-2.9576642648
 10
-13.9482542283
 20
-2.853398672
 10
-13.8988966182
 20
-2.7585715655
 10
-13.8460566145
 20
-2.6725858397
 10
-13.7903675998
 20
-2.5951202515
 10
-13.732417779
 20
-2.5257924758
 10
-13.6725285169
 20
-2.463968248
 10
-13.6113625255
 20
-2.4094239973
 10
-13.549216937
 20
-2.3615951062
 10
-13.4856633277
 20
-2.3195547084
 10
-13.4209995011
 20
-2.283071335
 10
-13.3860080174
 20
-2.2657319816
  0
LWPOLYLINE
  5
2B4
100
AcDbEntity
  8
RACCORDO
100
AcDbPolyline
 62
250
  6
CONTINUOUS
 90
19
 70
0
 10
-14.5588860128
 20
-15.0193769231
 10
-14.5554343845
 20
-14.9038097839
 10
-14.547853716
 20
-14.7899117388
 10
-14.5363116976
 20
-14.6794668711
 10
-14.5206902522
 20
-14.5727948876
 10
-14.5011074568
 20
-14.4695760815
 10
-14.4780852331
 20
-14.3706354154
 10
-14.4517297931
 20
-14.2763950948
 10
-14.4219349246
 20
-14.1864329142
 10
-14.388903913
 20
-14.1003072195
 10
-14.352750432
 20
-14.0179730833
 10
-14.3133608078
 20
-13.9394754329
 10
-14.2705973043
 20
-13.8645073962
 10
-14.2245484254
 20
-13.7929420365
 10
-14.1751256671
 20
-13.7249062904
 10
-14.1219257824
 20
-13.660474096
 10
-14.0648143555
 20
-13.5996700991
 10
-14.0039258022
 20
-13.5424696539
 10
-13.9392601223
 20
-13.4888727604
  0
LWPOLYLINE
  5
2B5
100
AcDbEntity
  8
RACCORDO
100
AcDbPolyline
 62
250
  6
CONTINUOUS
 90
22
 70
0
 10
-14.5590793932
 20
-3.796610849
 10
-14.5520385622
 20
-3.6118312985
 10
-14.5371189126
 20
-3.4389348897
 10
-14.5143204444
 20
-3.2779216226
 10
-14.4827791926
 20
-3.1291850933
 10
-14.4433591223
 20
-2.9923317057
 10
-14.3986521283
 20
-2.8661806714
 10
-14.3488249363
 20
-2.7507728169
 10
-14.2937108207
 20
-2.6460673158
 10
-14.2354014994
 20
-2.5507609004
 10
-14.1740761804
 20
-2.4649216055
 10
-14.1095556558
 20
-2.3884813963
 10
-14.0433940193
 20
-2.3199329019
 10
-13.9759841851
 20
-2.2593422208
 10
-13.906933239
 20
-2.2066432544
 10
-13.8366165326
 20
-2.1601303353
 10
-13.7652356491
 20
-2.1195699937
 10
-13.6925890054
 20
-2.0851956994
 10
-13.6184472036
 20
-2.0560021937
 10
-13.5428302569
 20
-2.0317499384
 10
-13.4657181522
 20
-2.0126784718
 10
-13.3868214527
 20
-1.9985011497
  0
LWPOLYLINE
  5
2B6
100
AcDbEntity
  8
RACCORDO
100
AcDbPolyline
 62
7
  6
CONTINUOUS
 90
7
 70
0
 10
-12.6557785784
 20
16.0294205486
 10
-12.6634775325
 20
15.9543416295
 10
-12.6596548253
 20
15.8843232149
 10
-12.6444071205
 20
15.8222370396
 10
-12.6182759839
 20
15.770613873
 10
-12.5823330737
 20
15.7315850912
 10
-12.5546811302
 20
15.7139014847
  0
LWPOLYLINE
  5
2B7
100
AcDbEntity
  8
RACCORDO
100
AcDbPolyline
 62
250
  6
CONTINUOUS
 90
17
 70
0
 10
-11.8658697609
 20
15.7076604287
 10
-11.8698950795
 20
15.6850245783
 10
-11.8729948409
 20
15.6617581689
 10
-11.8750419218
 20
15.6379831698
 10
-11.875912353
 20
15.613894884
 10
-11.8754787666
 20
15.5896012233
 10
-11.8735846938
 20
15.5651373548
 10
-11.8700868303
 20
15.5407410739
 10
-11.8648400354
 20
15.5166507148
 10
-11.8576357354
 20
15.4929833313
 10
-11.8483147142
 20
15.4700654922
 10
-11.8367427392
 20
15.4482916761
 10
-11.822719969
 20
15.4279835371
 10
-11.8061175858
 20
15.4095835395
 10
-11.7868893178
 20
15.3936198286
 10
-11.7649995146
 20
15.3806012778
 10
-11.7573461129
 20
15.3771028792
  0
LWPOLYLINE
  5
2B8
100
AcDbEntity
  8
RACCORDO
100
AcDbPolyline
 62
250
  6
CONTINUOUS
 90
17
 70
0
 10
-11.5915663701
 20
15.6532936776
 10
-11.5939446834
 20
15.6419690593
 10
-11.5957328839
 20
15.6304679735
 10
-11.5969309717
 20
15.6187904202
 10
-11.5976124727
 20
15.6068655107
 10
-11.5977038609
 20
15.5947641336
 10
-11.5969845589
 20
15.5826989556
 10
-11.5954668657
 20
15.5706224345
 10
-11.5931384823
 20
15.5585821124
 10
-11.5897419335
 20
15.5469332821
 10
-11.5852668246
 20
15.535602814
 10
-11.5797235504
 20
15.5246638377
 10
-11.5728858202
 20
15.5146910355
 10
-11.5646910245
 20
15.5056285024
 10
-11.5552017727
 20
15.4975321434
 10
-11.5443796026
 20
15.4911443558
 10
-11.5321179165
 20
15.4864837366
  0
LINE
  5
2B9
100
AcDbEntity
  8
RACCORDO
100
AcDbLine
 62
7
  6
CONTINUOUS
 10
-13.0720700101
 20
4.8536515276
 11
-13.0199624181
 21
5.0717047847
  0
LINE
  5
2BA
100
AcDbEntity
  8
RACCORDO
100
AcDbLine
 62
7
  6
CONTINUOUS
 10
-12.9886281207
 20
5.2505828524
 11
-12.9761229337
 21
5.3015667098
  0
LWPOLYLINE
  5
2BB
100
AcDbEntity
  8
RACCORDO
100
AcDbPolyline
 62
7
  6
CONTINUOUS
 90
12
 70
0
 10
-13.507547113
 20
8.4863393629
 10
-13.5602646947
 20
8.3128468421
 10
-13.5983635211
 20
8.1270275157
 10
-13.6221528413
 20
7.9292072142
 10
-13.6311072951
 20
7.7239074246
 10
-13.6248976783
 20
7.511045324
 10
-13.6038531952
 20
7.2907037353
 10
-13.5684360986
 20
7.0676526151
 10
-13.518252367
 20
6.8416414817
 10
-13.4536960219
 20
6.6129208167
 10
-13.3764113807
 20
6.3870120219
 10
-13.2869465492
 20
6.1657555645
  0
LINE
  5
2BC
100
AcDbEntity
  8
RACCORDO
100
AcDbLine
 62
7
  6
CONTINUOUS
 10
-12.9219977503
 20
5.3196536631
 11
-12.9402482451
 21
5.2728515129
  0
LINE
  5
2BD
100
AcDbEntity
  8
RACCORDO
100
AcDbLine
 62
7
  6
CONTINUOUS
 10
-13.0199624181
 20
5.0717047847
 11
-12.9402482451
 21
5.2728515129
  0
LWPOLYLINE
  5
2BE
100
AcDbEntity
  8
RACCORDO
100
AcDbPolyline
 62
7
  6
CONTINUOUS
 90
3
 70
0
 10
-12.9886281207
 20
5.2505828524
 10
-13.0890958493
 20
5.0044012853
 10
-13.1427394364
 20
4.7889655667
  0
LWPOLYLINE
  5
2BF
100
AcDbEntity
  8
RACCORDO
100
AcDbPolyline
 62
7
  6
CONTINUOUS
 90
10
 70
0
 10
-12.6444847963
 20
9.035418093
 10
-12.691361697
 20
8.9256621791
 10
-12.7310179341
 20
8.8085693465
 10
-12.7637141486
 20
8.683361917
 10
-12.7892004821
 20
8.5502518325
 10
-12.8071089442
 20
8.4103224539
 10
-12.8172801193
 20
8.2636797029
 10
-12.8194892574
 20
8.1107752152
 10
-12.8135507931
 20
7.9525623605
 10
-12.7993623343
 20
7.7898333081
  0
LWPOLYLINE
  5
2C0
100
AcDbEntity
  8
ASSI
100
AcDbPolyline
 62
7
  6
CONTINUOUS
 90
10
 70
0
 10
-13.1782773073
 20
8.7513583294
 10
-13.2323938503
 20
8.6329901114
 10
-13.2786699891
 20
8.5059244648
 10
-13.316483325
 20
8.3718703808
 10
-13.3457195232
 20
8.2307334439
 10
-13.3664929185
 20
8.0826080697
 10
-13.3785241154
 20
7.9294864958
 10
-13.3817199821
 20
7.7720328014
 10
-13.3761736504
 20
7.6095829073
 10
-13.3618851204
 20
7.4421368136
  0
LWPOLYLINE
  5
2C1
100
AcDbEntity
  8
RACCORDO
100
AcDbPolyline
 62
250
  6
CONTINUOUS
 90
16
 70
0
 10
-13.5164575045
 20
4.9583216585
 10
-13.5073661712
 20
4.9780740578
 10
-13.4992299803
 20
5.000003871
 10
-13.4922418562
 20
5.024179085
 10
-13.4866102552
 20
5.0505887982
 10
-13.4825260336
 20
5.0793012208
 10
-13.4801960819
 20
5.1104857118
 10
-13.4798644305
 20
5.144129849
 10
-13.4817763579
 20
5.1801414559
 10
-13.4861976984
 20
5.2185365483
 10
-13.4933885446
 20
5.2591659765
 10
-13.5035826494
 20
5.3017514335
 10
-13.5170173178
 20
5.3460244545
 10
-13.5338893565
 20
5.3915965437
 10
-13.5543319309
 20
5.4379540096
 10
-13.5784291751
 20
5.4845127005
  0
LINE
  5
2C2
100
AcDbEntity
  8
RACCORDO
100
AcDbLine
 62
7
  6
CONTINUOUS
 10
-13.423780111
 20
8.5907879292
 11
-13.3050025599
 21
8.8465014543
  0
LWPOLYLINE
  5
2C3
100
AcDbEntity
  8
RACCORDO
100
AcDbPolyline
 62
250
  6
CONTINUOUS
 90
18
 70
0
 10
-12.7178135312
 20
8.9828219846
 10
-12.7565144333
 20
8.9012856494
 10
-12.7901671941
 20
8.8187556019
 10
-12.8190940899
 20
8.7358250383
 10
-12.8436400424
 20
8.6529995978
 10
-12.8642264865
 20
8.5703970935
 10
-12.8811518972
 20
8.4884308333
 10
-12.8947145067
 20
8.4074768157
 10
-12.9052549396
 20
8.3274805604
 10
-12.9130268819
 20
8.248735357
 10
-12.9182811272
 20
8.1714995192
 10
-12.9212738266
 20
8.0955774257
 10
-12.9222101182
 20
8.021179945
 10
-12.9212912504
 20
7.9484715556
 10
-12.9186888679
 20
7.8771203554
 10
-12.914547423
 20
7.8070909371
 10
-12.9090235584
 20
7.7386641398
 10
-12.9022657126
 20
7.6719465175
  0
LWPOLYLINE
  5
2C4
100
AcDbEntity
  8
RACCORDO
100
AcDbPolyline
 62
250
  6
CONTINUOUS
 90
16
 70
0
 10
-13.9144761616
 20
5.0653638205
 10
-13.910642313
 20
5.0732636599
 10
-13.9073549008
 20
5.0820700238
 10
-13.9046139249
 20
5.0917829122
 10
-13.9023310235
 20
5.1023839458
 10
-13.9005945585
 20
5.1138915039
 10
-13.8996696151
 20
5.1263607246
 10
-13.899542792
 20
5.1398448139
 10
-13.9002274906
 20
5.1542905659
 10
-13.9020290006
 20
5.1695935006
 10
-13.9049617355
 20
5.1858436506
 10
-13.9090112818
 20
5.2029509833
 10
-13.9144396887
 20
5.2205409215
 10
-13.9213343059
 20
5.2384886061
 10
-13.9296077838
 20
5.2569188961
 10
-13.9392601223
 20
5.2758317916
  0
LINE
  5
2C5
100
AcDbEntity
  8
RACCORDO
100
AcDbLine
 62
250
  6
CONTINUOUS
 10
-12.6842180429
 20
9.0437418764
 11
-12.7178135312
 21
8.9828219846
  0
LINE
  5
2C6
100
AcDbEntity
  8
ASSI
100
AcDbLine
 62
7
  6
CONTINUOUS
 10
-13.1162144344
 20
8.8609116144
 11
-13.1782773073
 21
8.7513583294
  0
LWPOLYLINE
  5
2C7
100
AcDbEntity
  8
RACCORDO
100
AcDbPolyline
 62
250
  6
CONTINUOUS
 90
4
 70
0
 10
-6.2496274915
 20
14.9464103734
 10
-6.1459166086
 20
15.0694080092
 10
-6.0349370138
 20
15.1891829368
 10
-5.9168333696
 20
15.3044122483
  0
LINE
  5
2C8
100
AcDbEntity
  8
ASSI
100
AcDbLine
 62
7
  6
CONTINUOUS
 10
-12.9695076524
 20
9.0525694201
 11
-13.0463111574
 21
8.9617674707
  0
LINE
  5
2C9
100
AcDbEntity
  8
RACCORDO
100
AcDbLine
 62
7
  6
CONTINUOUS
 10
-13.1616715158
 20
9.0384220762
 11
-13.2675822264
 21
8.9238722652
  0
LWPOLYLINE
  5
2CA
100
AcDbEntity
  8
0
100
AcDbPolyline
 62
7
  6
CONTINUOUS
 90
16
 70
0
 10
-6.595787771
 20
14.5823904024
 10
-6.6210677549
 20
14.555295619
 10
-6.6512986026
 20
14.5198909685
 10
-6.6802768654
 20
14.4828646481
 10
-6.7079882911
 20
14.4441948997
 10
-6.7344471318
 20
14.4039034814
 10
-6.7593219747
 20
14.3624961118
 10
-6.7825925235
 20
14.3199593361
 10
-6.8042790744
 20
14.2763066091
 10
-6.8241111035
 20
14.2320840142
 10
-6.8420653511
 20
14.1872845141
 10
-6.8581650769
 20
14.1419151461
 10
-6.8722095362
 20
14.0965431053
 10
-6.8841729834
 20
14.0511684247
 10
-6.8940811641
 20
14.0057910712
 10
-6.8957640435
 20
13.9960342089
  0
LINE
  5
2CB
100
AcDbEntity
  8
ASSI
100
AcDbLine
 62
7
  6
CONTINUOUS
 10
-12.9429394819
 20
9.0781278542
 11
-12.9695076524
 21
9.0525694201
  0
LINE
  5
2CC
100
AcDbEntity
  8
RACCORDO
100
AcDbLine
 62
7
  6
CONTINUOUS
 10
-0.6629473313
 20
20.6441536209
 11
-2.9635619179
 21
18.5236461478
  0
LINE
  5
2CD
100
AcDbEntity
  8
RACCORDO
100
AcDbLine
 62
7
  6
CONTINUOUS
 10
-5.4955444616
 20
15.7877624134
 11
-5.456455108
 21
15.8237915975
  0
LWPOLYLINE
  5
2CE
100
AcDbEntity
  8
RACCORDO
100
AcDbPolyline
 62
250
  6
CONTINUOUS
 90
3
 70
0
 10
-5.9168333696
 20
15.3044122483
 10
-5.7912626098
 20
15.4141405922
 10
-5.6584221083
 20
15.516779131
  0
LWPOLYLINE
  5
2CF
100
AcDbEntity
  8
RACCORDO
100
AcDbPolyline
 62
7
  6
CONTINUOUS
 90
25
 70
0
 10
-5.456455108
 20
15.8237915975
 10
-5.4496147167
 20
15.8297621626
 10
-5.442413674
 20
15.8354336297
 10
-5.4348519801
 20
15.8408059987
 10
-5.4268942671
 20
15.845899655
 10
-5.4185759027
 20
15.8506942132
 10
-5.4100029908
 20
15.8551285172
 10
-5.4011722705
 20
15.8591979519
 10
-5.3920870025
 20
15.8629071324
 10
-5.3828630727
 20
15.8662087466
 10
-5.3734987047
 20
15.8690975738
 10
-5.3639956749
 20
15.8715788347
 10
-5.3544751977
 20
15.8736208801
 10
-5.3449370495
 20
15.8752180836
 10
-5.3353814539
 20
15.8763760715
 10
-5.3259302959
 20
15.8770800733
 10
-5.3165849132
 20
15.8773242736
 10
-5.307343968
 20
15.8771144877
 10
-5.2983253318
 20
15.8764533916
 10
-5.2895318524
 20
15.8753352041
 10
-5.280960682
 20
15.8737657063
 10
-5.2727211489
 20
15.8717649178
 10
-5.2648496958
 20
15.8693395118
 10
-5.2573098799
 20
15.866482815
 10
-5.2501017013
 20
15.8631948275
  0
LINE
  5
2D0
100
AcDbEntity
  8
RACCORDO
100
AcDbLine
 62
7
  6
CONTINUOUS
 10
-13.1290305463
 20
9.0654561884
 11
-13.1616715158
 21
9.0384220762
  0
LWPOLYLINE
  5
2D1
100
AcDbEntity
  8
0
100
AcDbPolyline
 62
7
  6
CONTINUOUS
 90
22
 70
0
 10
-6.5505406827
 20
14.9852897404
 10
-6.6020910234
 20
14.943875365
 10
-6.6522944601
 20
14.8992990799
 10
-6.7011509928
 20
14.851560885
 10
-6.7488518634
 20
14.8004356641
 10
-6.79520583
 20
14.7461485333
 10
-6.8396391663
 20
14.689374842
 10
-6.8821300191
 20
14.6300812278
 10
-6.9227002415
 20
14.568301053
 10
-6.9608416672
 20
14.504809753
 10
-6.9965231753
 20
14.4395866969
 10
-7.0297758867
 20
14.3726525155
 10
-7.0601849981
 20
14.3048445367
 10
-7.0877148444
 20
14.2361519699
 10
-7.1124010906
 20
14.1665856056
 10
-7.1339359282
 20
14.0970151431
 10
-7.1522798805
 20
14.0274406327
 10
-7.1674724243
 20
13.9578620241
 10
-7.1793241809
 20
13.8891488653
 10
-7.1877720243
 20
13.8215910056
 10
-7.1928790805
 20
13.7548985956
 10
-7.1946453496
 20
13.6890716354
  0
LINE
  5
2D2
100
AcDbEntity
  8
SMUSSO
100
AcDbLine
 62
7
  6
CONTINUOUS
 10
2.9014491486
 20
19.2156683328
 11
2.6708285892
 21
19.0536711128
  0
LINE
  5
2D3
100
AcDbEntity
  8
SMUSSO
100
AcDbLine
 62
7
  6
CONTINUOUS
 10
3.1832155592
 20
19.3263599032
 11
2.9525949998
 21
19.1643626832
  0
LINE
  5
2D4
100
AcDbEntity
  8
RACCORDO
100
AcDbLine
 62
7
  6
CONTINUOUS
 10
0.7494185014
 20
17.4698363988
 11
-0.67571252
 21
16.7474558782
  0
LINE
  5
2D5
100
AcDbEntity
  8
0
100
AcDbLine
 62
250
  6
CONTINUOUS
 10
-7.1946453496
 20
13.6890716354
 11
-6.9696551419
 21
13.8015667392
  0
LINE
  5
2D6
100
AcDbEntity
  8
DRAFT
100
AcDbLine
 62
7
  6
CONTINUOUS
 10
-3.5454588107
 20
14.7783445227
 11
-3.2601477673
 21
14.9185317134
  0
LINE
  5
2D7
100
AcDbEntity
  8
RACCORDO
100
AcDbLine
 62
250
  6
CONTINUOUS
 10
6.5836011839
 20
18.9775585806
 11
10.1109129
 21
20.6961970869
  0
LWPOLYLINE
  5
2D8
100
AcDbEntity
  8
RACCORDO
100
AcDbPolyline
 62
7
  6
CONTINUOUS
 90
3
 70
0
 10
9.0249558751
 20
20.966712681
 10
5.4710314233
 20
19.325404154
 10
4.8265097904
 20
19.0275773702
  0
LINE
  5
2D9
100
AcDbEntity
  8
RACCORDO
100
AcDbLine
 62
250
  6
CONTINUOUS
 10
9.6749207007
 20
20.9141931866
 11
6.1884969126
 21
19.3040794533
  0
LWPOLYLINE
  5
2DA
100
AcDbEntity
  8
RACCORDO
100
AcDbPolyline
 62
250
  6
CONTINUOUS
 90
3
 70
0
 10
6.1884969126
 20
19.3040794533
 10
5.4046558583
 20
18.9420804661
 10
4.6136628244
 20
18.5767365738
  0
LWPOLYLINE
  5
2DB
100
AcDbEntity
  8
RACCORDO
100
AcDbPolyline
 62
7
  6
CONTINUOUS
 90
4
 70
0
 10
4.8265097904
 20
19.0275773702
 10
4.5173747296
 20
18.8853461294
 10
4.2176114187
 20
18.7458247316
 10
3.979897496
 20
18.6358511421
  0
LWPOLYLINE
  5
2DC
100
AcDbEntity
  8
RACCORDO
100
AcDbPolyline
 62
250
  6
CONTINUOUS
 90
22
 70
0
 10
4.6136628244
 20
18.5767365738
 10
4.5790436556
 20
18.5610543996
 10
4.5442894159
 20
18.5460778582
 10
4.5094001054
 20
18.5318069497
 10
4.4744093786
 20
18.5182840369
 10
4.4392835809
 20
18.505466757
 10
4.4039217481
 20
18.4932280213
 10
4.3683423705
 20
18.4815571159
 10
4.3325269577
 20
18.4704647547
 10
4.2963190748
 20
18.4598559907
 10
4.2597030006
 20
18.4497182743
 10
4.2226944563
 20
18.4400641552
 10
4.1851841705
 20
18.4308363356
 10
4.1471748981
 20
18.4220198348
 10
4.1086638842
 20
18.4136296334
 10
4.0695335929
 20
18.4056533762
 10
4.029770888
 20
18.3980840662
 10
3.9893889057
 20
18.3909287002
 10
3.9483095188
 20
18.3841959138
 10
3.9064814148
 20
18.3778743969
 10
3.8639559063
 20
18.3719754594
 10
3.8268998171
 20
18.3673087478
  0
LINE
  5
2DD
100
AcDbEntity
  8
RACCORDO
100
AcDbLine
 62
7
  6
CONTINUOUS
 10
3.9678170033
 20
18.6311788679
 11
3.948710248
 21
18.6225249288
  0
LINE
  5
2DE
100
AcDbEntity
  8
RACCORDO
100
AcDbLine
 62
7
  6
CONTINUOUS
 10
3.9796383816
 20
18.6364330146
 11
3.9678170033
 21
18.6311788679
  0
LWPOLYLINE
  5
2DF
100
AcDbEntity
  8
RACCORDO
100
AcDbPolyline
 62
7
  6
CONTINUOUS
 90
10
 70
0
 10
3.948710248
 20
18.6225249288
 10
3.9190563895
 20
18.6104438833
 10
3.885107075
 20
18.5984538362
 10
3.842666375
 20
18.5853298293
 10
3.7924900523
 20
18.571939327
 10
3.7342650654
 20
18.5587168862
 10
3.669036514
 20
18.5463579825
 10
3.5983575363
 20
18.5354882582
 10
3.5233372053
 20
18.5264729225
 10
3.510782246
 20
18.5253675333
  0
LWPOLYLINE
  5
2E0
100
AcDbEntity
  8
DRAFT
100
AcDbPolyline
 62
7
  6
CONTINUOUS
 90
4
 70
0
 10
7.3121046125
 20
16.9894530565
 10
7.3642712217
 20
17.006881196
 10
7.5251168126
 20
17.0553766692
 10
7.6324240648
 20
17.0845359614
  0
LWPOLYLINE
  5
2E1
100
AcDbEntity
  8
0
100
AcDbPolyline
 62
7
  6
CONTINUOUS
 90
37
 70
0
 10
7.7248566095
 20
17.6003302278
 10
7.8250592126
 20
17.6332880204
 10
7.9646462446
 20
17.6750140333
 10
8.1076082128
 20
17.7130771608
 10
8.2536469076
 20
17.7474395817
 10
8.4025043882
 20
17.7780729744
 10
8.5538338173
 20
17.8049319208
 10
8.7072875295
 20
17.8279783477
 10
8.8625992548
 20
17.8471903408
 10
9.0194367657
 20
17.8625389124
 10
9.1774244195
 20
17.8739978037
 10
9.3362253232
 20
17.8815515893
 10
9.495462884
 20
17.8851898614
 10
9.6547964806
 20
17.8849109886
 10
9.8139412371
 20
17.8807169192
 10
9.9725561433
 20
17.8726134298
 10
10.1302670055
 20
17.8606150839
 10
10.2867420374
 20
17.8447409261
 10
10.4416141712
 20
17.8250201774
 10
10.5945482447
 20
17.8014859178
 10
10.745267258
 20
17.7741660702
 10
10.8934265128
 20
17.7431036043
 10
11.0386872976
 20
17.7083477811
 10
11.1807907843
 20
17.6699327069
 10
11.3194449593
 20
17.6279008443
 10
11.4542795334
 20
17.582324335
 10
11.5849417344
 20
17.5332821686
 10
11.7111251175
 20
17.4808462056
 10
11.8325279569
 20
17.4250932133
 10
11.9488457305
 20
17.3661091324
 10
12.059908932
 20
17.303910511
 10
12.1653251998
 20
17.2386380924
 10
12.2645518911
 20
17.1705763754
 10
12.3574724717
 20
17.09976399
 10
12.4438026809
 20
17.0263647756
 10
12.522946947
 20
16.9508963814
 10
12.5348475511
 20
16.938084819
  0
LWPOLYLINE
  5
2E2
100
AcDbEntity
  8
0
100
AcDbPolyline
 62
7
  6
CONTINUOUS
 90
11
 70
0
 10
7.7248583537
 20
17.6003262503
 10
7.7316876769
 20
17.6023249309
 10
7.7393521931
 20
17.6038062236
 10
7.7472972955
 20
17.6045849879
 10
7.7554389184
 20
17.6046558121
 10
7.7637811473
 20
17.604011706
 10
7.7723198967
 20
17.6026596599
 10
7.7809588444
 20
17.6006152326
 10
7.7896658829
 20
17.5978836105
 10
7.7984731196
 20
17.5944596072
 10
7.8073805546
 20
17.5903432229
  0
LWPOLYLINE
  5
2E3
100
AcDbEntity
  8
RACCORDO
100
AcDbPolyline
 62
250
  6
CONTINUOUS
 90
3
 70
0
 10
-12.6031938994
 20
-10.8884935534
 10
-12.5259835437
 20
-10.9157957889
 10
-12.4487303129
 20
-10.9473651113
  0
LWPOLYLINE
  5
2E4
100
AcDbEntity
  8
RACCORDO
100
AcDbPolyline
 62
250
  6
CONTINUOUS
 90
5
 70
0
 10
-12.4487303129
 20
-10.9473651113
 10
-12.3714692598
 20
-10.9829975349
 10
-12.2941653314
 20
-11.0228970454
 10
-12.2162866393
 20
-11.0675188098
 10
-12.137586254
 20
-11.1168818936
  0
LWPOLYLINE
  5
2E5
100
AcDbEntity
  8
RACCORDO
100
AcDbPolyline
 62
250
  6
CONTINUOUS
 90
3
 70
0
 10
-6.9501106803
 20
-22.8433127715
 10
-6.9981019558
 20
-22.7274696128
 10
-7.039142943
 20
-22.5994178759
  0
LWPOLYLINE
  5
2E6
100
AcDbEntity
  8
RACCORDO
100
AcDbPolyline
 62
250
  6
CONTINUOUS
 90
18
 70
0
 10
-10.5100448845
 20
-15.6088651868
 10
-10.4413254158
 20
-15.7807526346
 10
-10.3819330734
 20
-15.9488425547
 10
-10.3302443235
 20
-16.1119445939
 10
-10.2862078184
 20
-16.2698943019
 10
-10.2498749058
 20
-16.4228561291
 10
-10.2197760942
 20
-16.5701330735
 10
-10.1958773316
 20
-16.7114773501
 10
-10.1782126701
 20
-16.8471367439
 10
-10.1654147749
 20
-16.9771576085
 10
-10.1573413358
 20
-17.100953045
 10
-10.1541346629
 20
-17.2191099523
 10
-10.1548543519
 20
-17.33343538
 10
-10.1592869567
 20
-17.4442616943
 10
-10.1676459235
 20
-17.5512565289
 10
-10.1796311857
 20
-17.6552298349
 10
-10.1951752036
 20
-17.7564550141
 10
-10.2143455169
 20
-17.8546586646
  0
LINE
  5
2E7
100
AcDbEntity
  8
RACCORDO
100
AcDbLine
 62
7
  6
CONTINUOUS
 10
-7.0740686565
 20
-22.609603128
 11
-7.0150396688
 21
-22.7643777318
  0
LWPOLYLINE
  5
2E8
100
AcDbEntity
  8
RACCORDO
100
AcDbPolyline
 62
250
  6
CONTINUOUS
 90
4
 70
0
 10
-7.0965032437
 20
-22.5350383816
 10
-7.0915124322
 20
-22.5485758018
 10
-7.0790965744
 20
-22.5682666785
 10
-7.0614659929
 20
-22.5853802209
  0
LWPOLYLINE
  5
2E9
100
AcDbEntity
  8
RACCORDO
100
AcDbPolyline
 62
250
  6
CONTINUOUS
 90
11
 70
0
 10
-10.7651815958
 20
-13.0501383818
 10
-10.732949767
 20
-13.1605541889
 10
-10.7043060933
 20
-13.2720488981
 10
-10.6791472969
 20
-13.3843904325
 10
-10.6580285018
 20
-13.4954223015
 10
-10.6411688392
 20
-13.6049660718
 10
-10.6283491778
 20
-13.7132001767
 10
-10.6194672479
 20
-13.8185034258
 10
-10.6146180905
 20
-13.9203417917
 10
-10.6137066646
 20
-14.0192493018
 10
-10.6163455771
 20
-14.1152068479
  0
LINE
  5
2EA
100
AcDbEntity
  8
RACCORDO
100
AcDbLine
 62
7
  6
CONTINUOUS
 10
-13.1427394364
 20
-12.384313659
 11
-13.0890958493
 21
-12.6533929648
  0
LWPOLYLINE
  5
2EB
100
AcDbEntity
  8
RACCORDO
100
AcDbPolyline
 62
7
  6
CONTINUOUS
 90
5
 70
0
 10
-13.0199624181
 20
-12.577697861
 10
-13.0720700101
 20
-12.3075370119
 10
-13.096571021
 20
-12.048076215
 10
-13.0930795268
 20
-11.7945448977
 10
-13.0619814516
 20
-11.5517136326
  0
LWPOLYLINE
  5
2EC
100
AcDbEntity
  8
RACCORDO
100
AcDbPolyline
 62
7
  6
CONTINUOUS
 90
5
 70
0
 10
-12.9219977503
 20
-12.9236114073
 10
-12.9101189156
 20
-12.9858681235
 10
-12.9046117412
 20
-13.0453289111
 10
-12.9056067978
 20
-13.1029657947
 10
-12.9129735147
 20
-13.1578067495
  0
LWPOLYLINE
  5
2ED
100
AcDbEntity
  8
RACCORDO
100
AcDbPolyline
 62
7
  6
CONTINUOUS
 90
3
 70
0
 10
-12.6557785784
 20
-19.7456764887
 10
-12.6634770712
 20
-19.6816032501
 10
-12.6614338473
 20
-19.6436781534
  0
LWPOLYLINE
  5
2EE
100
AcDbEntity
  8
0
100
AcDbPolyline
 62
7
  6
CONTINUOUS
 90
3
 70
0
 10
-13.5080797469
 20
-4.0581579016
 10
-13.5513173486
 20
-3.6744212956
 10
-13.5513173486
 20
-3.3002168502
  0
LINE
  5
2EF
100
AcDbEntity
  8
RACCORDO
100
AcDbLine
 62
7
  6
CONTINUOUS
 10
-13.7275426229
 20
15.9365559663
 11
-13.7275426229
 21
15.4544017962
  0
LINE
  5
2F0
100
AcDbEntity
  8
RACCORDO
100
AcDbLine
 62
250
  6
CONTINUOUS
 10
-13.3800446543
 20
15.762806982
 11
-13.3800446543
 21
14.8438777538
  0
LINE
  5
2F1
100
AcDbEntity
  8
RACCORDO
100
AcDbLine
 62
250
  6
CONTINUOUS
 10
-12.8153482579
 20
15.762314191
 11
-12.8153482579
 21
14.8463974859
  0
LINE
  5
2F2
100
AcDbEntity
  8
ASSI
100
AcDbLine
 62
7
  6
CONTINUOUS
 10
-12.4272355304
 20
-15.9047985743
 11
-12.4272355304
 21
-11.1122551961
  0
LINE
  5
2F3
100
AcDbEntity
  8
0
100
AcDbLine
 62
7
  6
CONTINUOUS
 10
-12.4272355304
 20
4.4886657175
 11
-12.4272355304
 21
7.3364659716
  0
LINE
  5
2F4
100
AcDbEntity
  8
0
100
AcDbLine
 62
7
  6
CONTINUOUS
 10
-12.4272355304
 20
8.5171178124
 11
-12.4272355304
 21
8.960843151
  0
LINE
  5
2F5
100
AcDbEntity
  8
ASSI
100
AcDbLine
 62
7
  6
CONTINUOUS
 10
-11.8615501055
 20
-16.625563342
 11
-11.8615501055
 21
-15.6219558619
  0
LWPOLYLINE
  5
2F6
100
AcDbEntity
  8
RACCORDO
100
AcDbPolyline
 62
250
  6
CONTINUOUS
 90
9
 70
0
 10
-12.4494352281
 20
4.6456397992
 10
-12.4496536473
 20
4.630889707
 10
-12.4536502841
 20
4.6156084237
 10
-12.4614118809
 20
4.6002320179
 10
-12.472853399
 20
4.5849289564
 10
-12.4878494826
 20
4.5698669022
 10
-12.5062358313
 20
4.5552108779
 10
-12.527811
 20
4.5411214579
 10
-12.5523386065
 20
4.5277530086
  0
LWPOLYLINE
  5
2F7
100
AcDbEntity
  8
RACCORDO
100
AcDbPolyline
 62
250
  6
CONTINUOUS
 90
5
 70
0
 10
-12.8137049295
 20
15.8434133844
 10
-12.8142103236
 20
15.8281603866
 10
-12.8147834744
 20
15.8056119809
 10
-12.8151627858
 20
15.783663249
 10
-12.8153482579
 20
15.762314191
  0
LWPOLYLINE
  5
2F8
100
AcDbEntity
  8
RACCORDO
100
AcDbPolyline
 62
250
  6
CONTINUOUS
 90
8
 70
0
 10
-12.7993623343
 20
7.7898333081
 10
-12.8001568448
 20
7.7716205847
 10
-12.8059155487
 20
7.7543235574
 10
-12.8164369699
 20
7.7369818218
 10
-12.8315742854
 20
7.7198373761
 10
-12.8511162589
 20
7.7031294654
 10
-12.8747901886
 20
7.6870912432
 10
-12.9022657126
 20
7.6719465175
  0
LWPOLYLINE
  5
2F9
100
AcDbEntity
  8
RACCORDO
100
AcDbPolyline
 62
250
  6
CONTINUOUS
 90
7
 70
0
 10
-11.4539103433
 20
15.4963618799
 10
-11.4558609138
 20
15.4683099017
 10
-11.4617014254
 20
15.4430972895
 10
-11.4712660212
 20
15.421440022
 10
-11.4842830892
 20
15.4039531148
 10
-11.5003829754
 20
15.3911331549
 10
-11.5057189537
 20
15.3882692736
  0
LWPOLYLINE
  5
2FA
100
AcDbEntity
  8
ASSI
100
AcDbPolyline
 62
7
  6
CONTINUOUS
 90
33
 70
0
 10
-13.3618851204
 20
-14.3940751533
 10
-13.3761736504
 20
-14.547232717
 10
-13.3817199821
 20
-14.7041362794
 10
-13.3785241154
 20
-14.8647858404
 10
-13.3664929185
 20
-15.0299386112
 10
-13.3457195232
 20
-15.1988373807
 10
-13.316483325
 20
-15.3692105159
 10
-13.2786699891
 20
-15.5410779357
 10
-13.2323938503
 20
-15.7144197212
 10
-13.1782773073
 20
-15.8869044822
 10
-13.1162144344
 20
-16.05852064
 10
-13.0463111574
 20
-16.2292797733
 10
-12.9695076524
 20
-16.3968852278
 10
-12.8857106956
 20
-16.5612943965
 10
-12.7950135109
 20
-16.7225498863
 10
-12.6986359455
 20
-16.8784828638
 10
-12.5965012563
 20
-17.0290214206
 10
-12.4886861864
 20
-17.1742374651
 10
-12.3766408133
 20
-17.3121778891
 10
-12.2603079844
 20
-17.4427443973
 10
-12.1397448523
 20
-17.566035285
 10
-12.0165729515
 20
-17.6803923303
 10
-11.8907570369
 20
-17.7856948347
 10
-11.7623323536
 20
-17.8820634967
 10
-11.6330261715
 20
-17.9682021893
 10
-11.5028265813
 20
-18.0439727032
 10
-11.3717454922
 20
-18.1095132477
 10
-11.241545902
 20
-18.163942324
 10
-11.1122397199
 20
-18.2071098135
 10
-10.9838150366
 20
-18.2391658349
 10
-10.857999122
 20
-18.2596792451
 10
-10.7348272212
 20
-18.2684941006
 10
-10.6142640891
 20
-18.265766345
  0
LWPOLYLINE
  5
2FB
100
AcDbEntity
  8
RACCORDO
100
AcDbPolyline
 62
7
  6
CONTINUOUS
 90
4
 70
0
 10
-12.9761229337
 20
5.3015667098
 10
-12.9702286903
 20
5.3562994708
 10
-12.9710883921
 20
5.415956867
 10
-12.9785590375
 20
5.4793631667
  0
LWPOLYLINE
  5
2FC
100
AcDbEntity
  8
RACCORDO
100
AcDbPolyline
 62
7
  6
CONTINUOUS
 90
17
 70
0
 10
-13.1427394364
 20
4.7889655667
 10
-13.1686750127
 20
4.5570407427
 10
-13.166342072
 20
4.3034520815
 10
-13.1363011204
 20
4.033374315
 10
-13.0802336761
 20
3.762331638
 10
-12.9967569266
 20
3.490811574
 10
-12.8872536845
 20
3.2183265995
 10
-12.7575539052
 20
2.9589383397
 10
-12.606544233
 20
2.7131517261
 10
-12.4353380236
 20
2.4804618271
 10
-12.2531053004
 20
2.2734154729
 10
-12.0592272332
 20
2.0934177998
 10
-11.8543226522
 20
1.9390636715
 10
-11.6494180711
 20
1.8186845095
 10
-11.44451349
 20
1.7341590904
 10
-11.239608909
 20
1.6836086376
 10
-11.0457308418
 20
1.6697282435
  0
LWPOLYLINE
  5
2FD
100
AcDbEntity
  8
0
100
AcDbPolyline
 62
7
  6
CONTINUOUS
 90
3
 70
0
 10
-13.5513173486
 20
-3.3002168502
 10
-13.5080797469
 20
-2.959717846
 10
-13.4187499643
 20
-2.6551495415
  0
LINE
  5
2FE
100
AcDbEntity
  8
RACCORDO
100
AcDbLine
 62
7
  6
CONTINUOUS
 10
-6.8110704655
 20
14.1939543563
 11
-6.9353932779
 21
13.9034247798
  0
LWPOLYLINE
  5
2FF
100
AcDbEntity
  8
RACCORDO
100
AcDbPolyline
 62
250
  6
CONTINUOUS
 90
4
 70
0
 10
-6.7822569597
 20
14.0715883749
 10
-6.7252965091
 20
14.1934263665
 10
-6.6623190781
 20
14.3173249164
 10
-6.5931632486
 20
14.442605385
  0
LINE
  5
300
100
AcDbEntity
  8
RACCORDO
100
AcDbLine
 62
7
  6
CONTINUOUS
 10
-6.6642654017
 20
14.4738066078
 11
-6.8110704655
 21
14.1939543563
  0
LWPOLYLINE
  5
301
100
AcDbEntity
  8
RACCORDO
100
AcDbPolyline
 62
250
  6
CONTINUOUS
 90
5
 70
0
 10
-6.5931632486
 20
14.442605385
 10
-6.5176259976
 20
14.5686658713
 10
-6.4352456012
 20
14.6952724853
 10
-6.345931933
 20
14.8215088784
 10
-6.2496274915
 20
14.9464103734
  0
LINE
  5
302
100
AcDbEntity
  8
RACCORDO
100
AcDbLine
 62
7
  6
CONTINUOUS
 10
-6.4969594594
 20
14.739100747
 11
-6.6642654017
 21
14.4738066078
  0
LINE
  5
303
100
AcDbEntity
  8
RACCORDO
100
AcDbLine
 62
7
  6
CONTINUOUS
 10
-6.4986475394
 20
12.1367514165
 11
-6.4871456366
 21
12.1522099089
  0
LINE
  5
304
100
AcDbEntity
  8
RACCORDO
100
AcDbLine
 62
7
  6
CONTINUOUS
 10
-6.4873649798
 20
12.1522543136
 11
-6.1844467916
 21
12.5270955187
  0
LINE
  5
305
100
AcDbEntity
  8
RACCORDO
100
AcDbLine
 62
250
  6
CONTINUOUS
 10
-6.4181348869
 20
12.1218688402
 11
-6.1277125706
 21
12.4812472309
  0
LINE
  5
306
100
AcDbEntity
  8
SMUSSO
100
AcDbLine
 62
7
  6
CONTINUOUS
 10
2.3621891153
 20
19.9139013127
 11
-2.8298453986
 21
15.1283331206
  0
LINE
  5
307
100
AcDbEntity
  8
SMUSSO
100
AcDbLine
 62
7
  6
CONTINUOUS
 10
2.4542736952
 20
19.6324063602
 11
-2.7377608187
 21
14.8468381681
  0
LWPOLYLINE
  5
308
100
AcDbEntity
  8
RACCORDO
100
AcDbPolyline
 62
7
  6
CONTINUOUS
 90
7
 70
0
 10
-5.6146255718
 20
12.5088440453
 10
-5.6658048857
 20
12.472211151
 10
-5.7080411843
 20
12.4355430416
 10
-5.7405955816
 20
12.4007063616
 10
-5.7645717377
 20
12.3709478237
 10
-5.7782432724
 20
12.3470188478
 10
-5.7795787901
 20
12.3405313542
  0
LWPOLYLINE
  5
309
100
AcDbEntity
  8
RACCORDO
100
AcDbPolyline
 62
250
  6
CONTINUOUS
 90
10
 70
0
 10
-13.9392601223
 20
5.2758317917
 10
-13.909928132
 20
5.2953483174
 10
-13.8751642697
 20
5.3174365899
 10
-13.8360017371
 20
5.3414401599
 10
-13.7936044444
 20
5.3666456666
 10
-13.7492322613
 20
5.392304131
 10
-13.7042035566
 20
5.4176532161
 10
-13.6598562614
 20
5.4419397404
 10
-13.6175081273
 20
5.4644420573
 10
-13.5784174078
 20
5.4844915889
  0
LWPOLYLINE
  5
30A
100
AcDbEntity
  8
RACCORDO
100
AcDbPolyline
 62
250
  6
CONTINUOUS
 90
10
 70
0
 10
-6.5534498526
 20
12.0041762325
 10
-6.5385440453
 20
12.0127039919
 10
-6.5234642655
 20
12.0223676158
 10
-6.5082607334
 20
12.0331829197
 10
-6.4929708969
 20
12.045176383
 10
-6.4776700875
 20
12.0583396219
 10
-6.4624685942
 20
12.0726172449
 10
-6.4474440576
 20
12.0879727042
 10
-6.4326441121
 20
12.1043997314
 10
-6.4181348869
 20
12.1218688402
  0
LINE
  5
30B
100
AcDbEntity
  8
RACCORDO
100
AcDbLine
 62
7
  6
CONTINUOUS
 10
11.1592322399
 20
19.340541659
 11
9.7197590944
 21
18.6081324016
  0
LINE
  5
30C
100
AcDbEntity
  8
RACCORDO
100
AcDbLine
 62
7
  6
CONTINUOUS
 10
-4.9751262491
 20
11.8616579177
 11
-0.3357095721
 21
14.1903869092
  0
LINE
  5
30D
100
AcDbEntity
  8
ASSI
100
AcDbLine
 62
250
  6
CONTINUOUS
 10
-12.4663055834
 20
8.973896758
 11
-12.7175750821
 21
8.8482620086
  0
LINE
  5
30E
100
AcDbEntity
  8
RACCORDO
100
AcDbLine
 62
7
  6
CONTINUOUS
 10
-12.8130828222
 20
8.3241941665
 11
-12.4272355304
 21
8.5171178124
  0
LINE
  5
30F
100
AcDbEntity
  8
RACCORDO
100
AcDbLine
 62
7
  6
CONTINUOUS
 10
-12.8184880956
 20
8.1800701735
 11
-11.8842976499
 21
8.6471653964
  0
LINE
  5
310
100
AcDbEntity
  8
RACCORDO
100
AcDbLine
 62
250
  6
CONTINUOUS
 10
-13.3618851204
 20
7.4421368136
 11
-12.9022657126
 21
7.6719465175
  0
LINE
  5
311
100
AcDbEntity
  8
ASSI
100
AcDbLine
 62
7
  6
CONTINUOUS
 10
-11.7201287492
 20
8.1493665551
 11
-11.4703400456
 21
8.2742609069
  0
LINE
  5
312
100
AcDbEntity
  8
ASSI
100
AcDbLine
 62
7
  6
CONTINUOUS
 10
-11.3571231247
 20
8.1545084588
 11
-11.7201287492
 21
7.9730056466
  0
LINE
  5
313
100
AcDbEntity
  8
RACCORDO
100
AcDbLine
 62
7
  6
CONTINUOUS
 10
-12.7319493906
 20
7.1841090415
 11
-11.7201287492
 21
7.6900193622
  0
LINE
  5
314
100
AcDbEntity
  8
DRAFT
100
AcDbLine
 62
7
  6
CONTINUOUS
 10
5.2717780582
 20
17.6448696272
 11
-0.3357095721
 21
14.8522207065
  0
LINE
  5
315
100
AcDbEntity
  8
RACCORDO
100
AcDbLine
 62
7
  6
CONTINUOUS
 10
-0.3357095721
 20
14.1903869092
 11
5.2717780582
 21
16.9830358299
  0
LINE
  5
316
100
AcDbEntity
  8
DRAFT
100
AcDbLine
 62
7
  6
CONTINUOUS
 10
7.2845109181
 20
17.4032568006
 11
9.7197590944
 21
18.6160625417
  0
LINE
  5
317
100
AcDbEntity
  8
RACCORDO
100
AcDbLine
 62
7
  6
CONTINUOUS
 10
0.3713972091
 20
13.8368335186
 11
5.2840656281
 21
16.283447593
  0
LINE
  5
318
100
AcDbEntity
  8
RACCORDO
100
AcDbLine
 62
250
  6
CONTINUOUS
 10
7.2846341415
 20
17.7551001261
 11
11.1592322399
 21
19.6429495776
  0
LINE
  5
319
100
AcDbEntity
  8
RACCORDO
100
AcDbLine
 62
7
  6
CONTINUOUS
 10
-0.3357095721
 20
14.8522207065
 11
-2.5530946011
 21
13.7862063959
  0
LINE
  5
31A
100
AcDbEntity
  8
RACCORDO
100
AcDbLine
 62
7
  6
CONTINUOUS
 10
-13.1685581578
 20
9.0627645993
 11
-13.3860080695
 21
8.9925982429
  0
LWPOLYLINE
  5
31B
100
AcDbEntity
  8
0
100
AcDbPolyline
 62
7
  6
CONTINUOUS
 90
10
 70
0
 10
-11.5433520539
 20
-6.959474121
 10
-11.8540566244
 20
-6.7715843407
 10
-12.1455186519
 20
-6.5443780246
 10
-12.4177381363
 20
-6.2778551728
 10
-12.6758588515
 20
-5.964419967
 10
-12.9147370237
 20
-5.6116682254
 10
-13.1189413315
 20
-5.2423874026
 10
-13.2861825801
 20
-4.8554862362
 10
-13.4187499643
 20
-4.4520559886
 10
-13.5080797469
 20
-4.0581579016
  0
LWPOLYLINE
  5
31C
100
AcDbEntity
  8
RACCORDO
100
AcDbPolyline
 62
250
  6
CONTINUOUS
 90
36
 70
0
 10
-12.2993551398
 20
-7.148793231
 10
-12.3873976453
 20
-7.094138998
 10
-12.4737404004
 20
-7.0358033345
 10
-12.5578966904
 20
-6.9743455371
 10
-12.6400893909
 20
-6.9098313437
 10
-12.7204706412
 20
-6.8423183011
 10
-12.7986762769
 20
-6.7722882879
 10
-12.8748717228
 20
-6.6997691387
 10
-12.9499658719
 20
-6.6239639414
 10
-13.0238674661
 20
-6.5449419369
 10
-13.0964053193
 20
-6.4628628355
 10
-13.168270171
 20
-6.3768437284
 10
-13.2394959338
 20
-6.2866319961
 10
-13.3096480609
 20
-6.1925575749
 10
-13.3786386798
 20
-6.0945195551
 10
-13.4465378782
 20
-5.9921353645
 10
-13.5127935795
 20
-5.8859399956
 10
-13.5764533955
 20
-5.7773025966
 10
-13.6373564375
 20
-5.6664528036
 10
-13.6953738397
 20
-5.5535780077
 10
-13.749797473
 20
-5.4401261497
 10
-13.8004945528
 20
-5.3266015337
 10
-13.8475650692
 20
-5.2130196783
 10
-13.8908092374
 20
-5.1001472697
 10
-13.9301275169
 20
-4.9886614809
 10
-13.9657520387
 20
-4.8783486054
 10
-13.9979720942
 20
-4.7686223269
 10
-14.0267717306
 20
-4.6597703196
 10
-14.0521959158
 20
-4.5518799053
 10
-14.074472359
 20
-4.4440569171
 10
-14.0935338494
 20
-4.3364799502
 10
-14.1093144009
 20
-4.2293488025
 10
-14.1218579911
 20
-4.1218397536
 10
-14.1310342252
 20
-4.013849133
 10
-14.1366470832
 20
-3.9059649665
 10
-14.1385498477
 20
-3.7984458018
  0
LWPOLYLINE
  5
31D
100
AcDbEntity
  8
RACCORDO
100
AcDbPolyline
 62
250
  6
CONTINUOUS
 90
33
 70
0
 10
-12.809874251
 20
-7.3111090863
 10
-12.900915546
 20
-7.2395230635
 10
-12.9898390302
 20
-7.1648778266
 10
-13.0763652917
 20
-7.0875527548
 10
-13.1607737426
 20
-7.007168469
 10
-13.2438051913
 20
-6.9232481187
 10
-13.3255735367
 20
-6.8358958725
 10
-13.40596488
 20
-6.745007562
 10
-13.4853783344
 20
-6.6497938316
 10
-13.5641356361
 20
-6.5499791229
 10
-13.6419150489
 20
-6.4458389944
 10
-13.7181504766
 20
-6.3374107657
 10
-13.793140847
 20
-6.2240961603
 10
-13.8665872322
 20
-6.1064934549
 10
-13.9370267529
 20
-5.9864347986
 10
-14.0042940108
 20
-5.8638282846
 10
-14.068554404
 20
-5.7387658199
 10
-14.1288412474
 20
-5.6133552743
 10
-14.1848949719
 20
-5.487837297
 10
-14.2369751465
 20
-5.3619712389
 10
-14.2848937927
 20
-5.2371430225
 10
-14.3284579377
 20
-5.1138751346
 10
-14.3678605543
 20
-4.9916450885
 10
-14.4034925832
 20
-4.8702713463
 10
-14.4354207623
 20
-4.7498823337
 10
-14.4635783537
 20
-4.630349625
 10
-14.4881560832
 20
-4.511106406
 10
-14.5092822455
 20
-4.3921112162
 10
-14.526828546
 20
-4.2734055161
 10
-14.5406008267
 20
-4.1545468725
 10
-14.5505343686
 20
-4.035387808
 10
-14.5566938907
 20
-3.9160758002
 10
-14.5590793932
 20
-3.796610849
  0
LWPOLYLINE
  5
31E
100
AcDbEntity
  8
RACCORDO
100
AcDbPolyline
 62
250
  6
CONTINUOUS
 90
7
 70
0
 10
-11.5721548125
 20
-6.0324905225
 10
-11.7449452291
 20
-5.8135514662
 10
-11.9115015722
 20
-5.5898528089
 10
-12.0718238417
 20
-5.3613945505
 10
-12.226324431
 20
-5.1275316994
 10
-12.3745909467
 20
-4.8889092472
 10
-12.5068902309
 20
-4.6620317568
  0
LWPOLYLINE
  5
31F
100
AcDbEntity
  8
0
100
AcDbPolyline
 62
7
  6
CONTINUOUS
 90
14
 70
0
 10
-12.7757046673
 20
-3.8197159312
 10
-12.7339453161
 20
-3.9349287661
 10
-12.6474426827
 20
-4.1525307517
 10
-12.5539032432
 20
-4.3685291061
 10
-12.4535117719
 20
-4.5824792925
 10
-12.3464754916
 20
-4.7939123666
 10
-12.233015922
 20
-5.0023587586
 10
-12.1133534302
 20
-5.207375691
 10
-11.9877254191
 20
-5.408512294
 10
-11.8563872878
 20
-5.6053123382
 10
-11.7195993213
 20
-5.7973358095
 10
-11.5776308063
 20
-5.9841512667
 10
-11.4307637613
 20
-6.1653313109
 10
-11.3179454405
 20
-6.2957659084
  0
LINE
  5
320
100
AcDbEntity
  8
RACCORDO
100
AcDbLine
 62
7
  6
CONTINUOUS
 10
-7.09650432
 20
-22.5350386841
 11
-7.0740686565
 21
-22.609603128
  0
LWPOLYLINE
  5
321
100
AcDbEntity
  8
RACCORDO
100
AcDbPolyline
 62
250
  6
CONTINUOUS
 90
20
 70
0
 10
-13.9478681087
 20
3.254362143
 10
-13.9800999375
 20
3.36477795
 10
-14.0087436113
 20
3.4762726592
 10
-14.0339024076
 20
3.5886141937
 10
-14.0550212027
 20
3.6996460627
 10
-14.0718808654
 20
3.809189833
 10
-14.0847005268
 20
3.9174239378
 10
-14.0935824567
 20
4.0227271869
 10
-14.098431614
 20
4.1245655528
 10
-14.0993430399
 20
4.223473063
 10
-14.0967041275
 20
4.319430609
 10
-14.0906113372
 20
4.4122688776
 10
-14.0809682085
 20
4.502157182
 10
-14.0678727532
 20
4.5895843539
 10
-14.0514510131
 20
4.6746421313
 10
-14.0315769463
 20
4.7572387761
 10
-14.0079704391
 20
4.8375879057
 10
-13.9805381203
 20
4.9157607258
 10
-13.9493733611
 20
4.9916860308
 10
-13.9144761616
 20
5.0653638205
  0
LWPOLYLINE
  5
322
100
AcDbEntity
  8
0
100
AcDbPolyline
 62
7
  6
CONTINUOUS
 90
5
 70
0
 10
-7.1522798805
 20
-22.7201912307
 10
-7.1674724243
 20
-22.6658051659
 10
-7.1793241809
 20
-22.6089437637
 10
-7.1877720243
 20
-22.5498337473
 10
-7.1928790805
 20
-22.4882483936
  0
LINE
  5
323
100
AcDbEntity
  8
RACCORDO
100
AcDbLine
 62
7
  6
CONTINUOUS
 10
-7.0965650067
 20
-22.5348143469
 11
-7.0965032437
 21
-22.5350383816
  0
LWPOLYLINE
  5
324
100
AcDbEntity
  8
RACCORDO
100
AcDbPolyline
 62
250
  6
CONTINUOUS
 90
4
 70
0
 10
-7.0391426537
 20
-22.5994180225
 10
-7.0440108354
 20
-22.5812289224
 10
-7.0480151816
 20
-22.5615145667
 10
-7.0510197868
 20
-22.5402654107
  0
LWPOLYLINE
  5
325
100
AcDbEntity
  8
ASSI
100
AcDbPolyline
 62
7
  6
CONTINUOUS
 90
27
 70
0
 10
-13.0119580142
 20
4.2979433047
 10
-12.9926280944
 20
4.1569618986
 10
-12.9664098505
 20
4.0155897857
 10
-12.9333032825
 20
3.8738269659
 10
-12.8930925193
 20
3.7310171027
 10
-12.8459934321
 20
3.5878165325
 10
-12.7926536339
 20
3.4461942654
 10
-12.7329869197
 20
3.3061721028
 10
-12.6670794945
 20
3.1677282431
 10
-12.5958375864
 20
3.0327662914
 10
-12.5191875083
 20
2.9013343443
 10
-12.4372029472
 20
2.7733843051
 10
-12.351011192
 20
2.6506754886
 10
-12.2605541273
 20
2.5332802936
 10
-12.1658898684
 20
2.4211263213
 10
-12.0683200503
 20
2.3157556904
 10
-11.9678045374
 20
2.2172621014
 10
-11.8643834653
 20
2.1255518537
 10
-11.7594788751
 20
2.0418859646
 10
-11.6530702744
 20
1.9663755534
 10
-11.5451781556
 20
1.8989095007
 10
-11.4372860367
 20
1.8404154658
 10
-11.3293939179
 20
1.7910173819
 10
-11.2215017991
 20
1.7505913158
 10
-11.1150931984
 20
1.7196931263
 10
-11.0101886082
 20
1.6984544251
 10
-10.9514458632
 20
1.6918027248
  0
LWPOLYLINE
  5
326
100
AcDbEntity
  8
RACCORDO
100
AcDbPolyline
 62
250
  6
CONTINUOUS
 90
36
 70
0
 10
-12.5523386065
 20
4.5277530086
 10
-12.5462567056
 20
4.4772510982
 10
-12.5390455479
 20
4.4252809173
 10
-12.530641494
 20
4.3718567202
 10
-12.5210114487
 20
4.3171629138
 10
-12.5100674021
 20
4.261058287
 10
-12.4976337016
 20
4.203070505
 10
-12.4836131847
 20
4.1432156655
 10
-12.4679146843
 20
4.0815456738
 10
-12.4503127177
 20
4.0176467322
 10
-12.4306834695
 20
3.9515728566
 10
-12.408904517
 20
3.8833947141
 10
-12.3846937093
 20
3.8127425752
 10
-12.3578980571
 20
3.7397144647
 10
-12.3283692247
 20
3.6644352493
 10
-12.2957736425
 20
3.5866136526
 10
-12.2599360287
 20
3.5064211331
 10
-12.2206903817
 20
3.4240652272
 10
-12.1776636138
 20
3.3393724203
 10
-12.1306735313
 20
3.2526251279
 10
-12.0795548027
 20
3.1641522694
 10
-12.0239180469
 20
3.0739461999
 10
-11.9635438775
 20
2.9823602768
 10
-11.8983547531
 20
2.8899835184
 10
-11.8281749336
 20
2.797273463
 10
-11.7528011898
 20
2.7046961131
 10
-11.6723275118
 20
2.6131026764
 10
-11.5871095275
 20
2.5235748816
 10
-11.4971496289
 20
2.4367634965
 10
-11.4026972248
 20
2.3535600276
 10
-11.3046269682
 20
2.2752962147
 10
-11.2028453251
 20
2.2024297818
 10
-11.0981010497
 20
2.1360331659
 10
-10.9926879982
 20
2.0778227057
 10
-10.8870447152
 20
2.0280777085
 10
-10.7920767246
 20
1.9911194743
  0
LWPOLYLINE
  5
327
100
AcDbEntity
  8
RACCORDO
100
AcDbPolyline
 62
7
  6
CONTINUOUS
 90
5
 70
0
 10
-12.9129735147
 20
5.5448247698
 10
-12.9056067978
 20
5.4826170981
 10
-12.9046117412
 20
5.4239851579
 10
-12.9101189156
 20
5.3700315448
 10
-12.9219977503
 20
5.3196536631
  0
LINE
  5
328
100
AcDbEntity
  8
RACCORDO
100
AcDbLine
 62
7
  6
CONTINUOUS
 10
-11.5721442518
 20
-6.032582663
 11
-11.5680043487
 21
-6.0687028403
  0
LINE
  5
329
100
AcDbEntity
  8
ASSI
100
AcDbLine
 62
7
  6
CONTINUOUS
 10
-13.3618851204
 20
7.4421368136
 11
-13.232017439
 21
6.275239155
  0
LINE
  5
32A
100
AcDbEntity
  8
ASSI
100
AcDbLine
 62
7
  6
CONTINUOUS
 10
-13.0729090388
 20
4.8456054104
 11
-13.0119580142
 21
4.2979433047
  0
LINE
  5
32B
100
AcDbEntity
  8
RACCORDO
100
AcDbLine
 62
250
  6
CONTINUOUS
 10
-12.9022657126
 20
7.6719465175
 11
-12.5523386065
 21
4.5277530086
  0
LINE
  5
32C
100
AcDbEntity
  8
RACCORDO
100
AcDbLine
 62
7
  6
CONTINUOUS
 10
-12.7993623343
 20
7.7898333081
 11
-12.4494352281
 21
4.6456397992
  0
LWPOLYLINE
  5
32D
100
AcDbEntity
  8
RACCORDO
100
AcDbPolyline
 62
7
  6
CONTINUOUS
 90
18
 70
0
 10
-10.241838277
 20
-5.8930993751
 10
-10.2567187013
 20
-5.5865292222
 10
-10.3015707089
 20
-5.2660887565
 10
-10.3762422908
 20
-4.937045366
 10
-10.4799930623
 20
-4.6047933548
 10
-10.611382101
 20
-4.2751127912
 10
-10.7682347198
 20
-3.9539265442
 10
-10.9479720485
 20
-3.6465828458
 10
-11.1475611528
 20
-3.3581445697
 10
-11.3632572583
 20
-3.0936543644
 10
-11.5907061454
 20
-2.8577274372
 10
-11.8262003696
 20
-2.6533600834
 10
-12.0661973917
 20
-2.4829456495
 10
-12.3043522672
 20
-2.349895296
 10
-12.5377989825
 20
-2.2544850025
 10
-12.7670827582
 20
-2.1964955556
 10
-12.9885451529
 20
-2.1781769103
 10
-13.1959441291
 20
-2.2011587216
  0
LINE
  5
32E
100
AcDbEntity
  8
SMUSSO
100
AcDbLine
 62
7
  6
CONTINUOUS
 10
-11.3151267728
 20
19.3709738077
 11
-11.2979038526
 21
18.9374097561
  0
LWPOLYLINE
  5
32F
100
AcDbEntity
  8
0
100
AcDbPolyline
 62
7
  6
CONTINUOUS
 90
4
 70
0
 10
-11.2958646805
 20
15.7396813008
 10
-11.2940629191
 20
15.6750036266
 10
-11.2888571245
 20
15.6128565424
 10
-11.2802472967
 20
15.5532400482
  0
LINE
  5
330
100
AcDbEntity
  8
RACCORDO
100
AcDbLine
 62
250
  6
CONTINUOUS
 10
-10.1563558138
 20
-5.8797004387
 11
-10.1539703114
 21
-5.9991653899
  0
LINE
  5
331
100
AcDbEntity
  8
0
100
AcDbLine
 62
7
  6
CONTINUOUS
 10
-11.7201287492
 20
7.6900193622
 11
-11.7201287492
 21
8.5113254367
  0
LINE
  5
332
100
AcDbEntity
  8
0
100
AcDbLine
 62
7
  6
CONTINUOUS
 10
-11.2958646805
 20
-20.373578037
 11
-11.2946048092
 21
-20.3270926725
  0
LWPOLYLINE
  5
333
100
AcDbEntity
  8
RACCORDO
100
AcDbPolyline
 62
250
  6
CONTINUOUS
 90
3
 70
0
 10
-10.1539703114
 20
-5.9991653899
 10
-10.1610111424
 20
-6.1839449404
 10
-10.175930792
 20
-6.3568413491
  0
LWPOLYLINE
  5
334
100
AcDbEntity
  8
RACCORDO
100
AcDbPolyline
 62
7
  6
CONTINUOUS
 90
12
 70
0
 10
-12.7999272871
 20
-14.0419806329
 10
-12.8136996412
 20
-14.1865566529
 10
-12.8195074379
 20
-14.3374467333
 10
-12.8171732055
 20
-14.4939366239
 10
-12.8065815493
 20
-14.6552105892
 10
-12.7876733503
 20
-14.820512007
 10
-12.7604136611
 20
-14.9892035719
 10
-12.7248117548
 20
-15.1605411045
 10
-12.6809566221
 20
-15.3336215482
 10
-12.6289793922
 20
-15.5076018974
 10
-12.5690389749
 20
-15.6816948364
 10
-12.5013826383
 20
-15.8549884615
  0
LWPOLYLINE
  5
335
100
AcDbEntity
  8
RACCORDO
100
AcDbPolyline
 62
250
  6
CONTINUOUS
 90
5
 70
0
 10
-11.8713197566
 20
-20.0387351988
 10
-11.8751630025
 20
-20.0764656326
 10
-11.8757427912
 20
-20.1143953662
 10
-11.872717726
 20
-20.1511354932
 10
-11.8658695014
 20
-20.1860555044
  0
LINE
  5
336
100
AcDbEntity
  8
ASSI
100
AcDbLine
 62
7
  6
CONTINUOUS
 10
-12.4170099241
 20
-15.3442259525
 11
-11.9789385577
 21
-11.3445994953
  0
LWPOLYLINE
  5
337
100
AcDbEntity
  8
RACCORDO
100
AcDbPolyline
 62
250
  6
CONTINUOUS
 90
21
 70
0
 10
-12.9022657126
 20
-14.1642654494
 10
-12.9089647069
 20
-14.2236395853
 10
-12.914453701
 20
-14.2858898242
 10
-12.9185892988
 20
-14.3510565058
 10
-12.9212199477
 20
-14.419014269
 10
-12.922206686
 20
-14.4899421365
 10
-12.9213841833
 20
-14.5643430384
 10
-12.9185573906
 20
-14.6422533585
 10
-12.9135274456
 20
-14.7236684302
 10
-12.9060455589
 20
-14.8090423701
 10
-12.8958677731
 20
-14.8983695727
 10
-12.8827471483
 20
-14.9916139755
 10
-12.8663508665
 20
-15.0891770351
 10
-12.8463868076
 20
-15.1909899782
 10
-12.8225634989
 20
-15.2969418512
 10
-12.7944696093
 20
-15.4073373507
 10
-12.7617723331
 20
-15.5220089396
 10
-12.7241511151
 20
-15.6407160116
 10
-12.6811427066
 20
-15.7635845782
 10
-12.6323248584
 20
-15.8904734178
 10
-12.5774421845
 20
-16.0207671511
  0
LINE
  5
338
100
AcDbEntity
  8
DRAFT
100
AcDbLine
 62
7
  6
CONTINUOUS
 10
-10.6528277514
 20
7.0708394525
 11
-10.7217305344
 21
6.4645455696
  0
LINE
  5
339
100
AcDbEntity
  8
RACCORDO
100
AcDbLine
 62
7
  6
CONTINUOUS
 10
-10.854118865
 20
5.6712244443
 11
-11.237332629
 21
2.3578563095
  0
LWPOLYLINE
  5
33A
100
AcDbEntity
  8
RACCORDO
100
AcDbPolyline
 62
250
  6
CONTINUOUS
 90
3
 70
0
 10
-10.624048906
 20
2.2296095934
 10
-10.636511794
 20
2.1225867868
 10
-10.653804362
 20
2.0225757777
  0
LINE
  5
33B
100
AcDbEntity
  8
ASSI
100
AcDbLine
 62
7
  6
CONTINUOUS
 10
-13.0119580142
 20
-11.5998087505
 11
-13.0843292869
 21
-12.1777137262
  0
LINE
  5
33C
100
AcDbEntity
  8
ASSI
100
AcDbLine
 62
7
  6
CONTINUOUS
 10
-13.2646626253
 20
-13.6177261747
 11
-13.3618851204
 21
-14.3940751533
  0
LINE
  5
33D
100
AcDbEntity
  8
RACCORDO
100
AcDbLine
 62
250
  6
CONTINUOUS
 10
-12.5523386065
 20
-11.3699990466
 11
-12.9022657126
 21
-14.1642654494
  0
LINE
  5
33E
100
AcDbEntity
  8
RACCORDO
100
AcDbLine
 62
7
  6
CONTINUOUS
 10
-12.4500001809
 20
-11.2477142301
 11
-12.7999272871
 21
-14.0419806329
  0
LINE
  5
33F
100
AcDbEntity
  8
ASSI
100
AcDbLine
 62
7
  6
CONTINUOUS
 10
-11.8615501055
 20
-15.6457109507
 11
-11.3973109908
 21
-11.938630995
  0
LWPOLYLINE
  5
340
100
AcDbEntity
  8
RACCORDO
100
AcDbPolyline
 62
7
  6
CONTINUOUS
 90
6
 70
0
 10
-10.7478780997
 20
2.1307274373
 10
-10.7102662198
 20
2.3673356627
 10
-10.7023812042
 20
2.6298440459
 10
-10.72620429
 20
2.9148664594
 10
-10.7824751172
 20
3.2131226052
 10
-10.8704799776
 20
3.5169272563
  0
LWPOLYLINE
  5
341
100
AcDbEntity
  8
RACCORDO
100
AcDbPolyline
 62
250
  6
CONTINUOUS
 90
8
 70
0
 10
-12.4500001809
 20
-11.2477142301
 10
-12.4536502696
 20
-11.2656039801
 10
-12.4614118597
 20
-11.2859174631
 10
-12.4728533745
 20
-11.3053358876
 10
-12.4878494583
 20
-11.3236465014
 10
-12.506235811
 20
-11.3406486894
 10
-12.5278109878
 20
-11.3561561723
 10
-12.5523386065
 20
-11.3699990466
  0
LWPOLYLINE
  5
342
100
AcDbEntity
  8
RACCORDO
100
AcDbPolyline
 62
7
  6
CONTINUOUS
 90
3
 70
0
 10
-12.4234643503
 20
-11.0941492504
 10
-12.4353511956
 20
-11.1512196023
 10
-12.4500001809
 20
-11.2477142301
  0
LINE
  5
343
100
AcDbEntity
  8
RACCORDO
100
AcDbLine
 62
7
  6
CONTINUOUS
 10
-7.0992492658
 20
13.3541461876
 11
-7.0993002095
 21
13.3539128956
  0
LWPOLYLINE
  5
344
100
AcDbEntity
  8
RACCORDO
100
AcDbPolyline
 62
250
  6
CONTINUOUS
 90
11
 70
0
 10
-10.653804362
 20
2.0225757777
 10
-10.6745407279
 20
1.9287825994
 10
-10.698434493
 20
1.8414597554
 10
-10.7257720559
 20
1.760354742
 10
-10.7560267308
 20
1.6839160815
 10
-10.7890556577
 20
1.6118571677
 10
-10.8250016967
 20
1.5444646068
 10
-10.8637667421
 20
1.4810467386
 10
-10.9052644252
 20
1.4214322213
 10
-10.9495811148
 20
1.3657923969
 10
-10.9968778124
 20
1.3139496313
  0
LWPOLYLINE
  5
345
100
AcDbEntity
  8
RACCORDO
100
AcDbPolyline
 62
250
  6
CONTINUOUS
 90
3
 70
0
 10
-7.0391426461
 20
13.2942984127
 10
-7.0155481781
 20
13.3964726725
 10
-6.9879853323
 20
13.5019313381
  0
LINE
  5
346
100
AcDbEntity
  8
RACCORDO
100
AcDbLine
 62
250
  6
CONTINUOUS
 10
-6.9879853323
 20
13.5019313381
 11
-6.9562222542
 21
13.6104722551
  0
LWPOLYLINE
  5
347
100
AcDbEntity
  8
RACCORDO
100
AcDbPolyline
 62
250
  6
CONTINUOUS
 90
3
 70
0
 10
-6.9562222542
 20
13.6104722551
 10
-6.9201288842
 20
13.7215723176
 10
-6.8794213902
 20
13.8352378605
  0
LWPOLYLINE
  5
348
100
AcDbEntity
  8
RACCORDO
100
AcDbPolyline
 62
250
  6
CONTINUOUS
 90
11
 70
0
 10
-10.2613199115
 20
4.480618856
 10
-10.2911147799
 20
4.3906566754
 10
-10.3241457916
 20
4.3045309806
 10
-10.3602992726
 20
4.2221968444
 10
-10.3996888968
 20
4.1436991941
 10
-10.4424524002
 20
4.0687311574
 10
-10.4885012792
 20
3.9971657977
 10
-10.5379240374
 20
3.9291300516
 10
-10.5911239221
 20
3.8646978571
 10
-10.648235349
 20
3.8038938603
 10
-10.7091239024
 20
3.7466934151
  0
LWPOLYLINE
  5
349
100
AcDbEntity
  8
RACCORDO
100
AcDbPolyline
 62
7
  6
CONTINUOUS
 90
3
 70
0
 10
-6.9353932779
 20
13.9034247798
 10
-7.0352675546
 20
13.6065057879
 10
-7.0993002095
 20
13.3539128956
  0
LWPOLYLINE
  5
34A
100
AcDbEntity
  8
RACCORDO
100
AcDbPolyline
 62
7
  6
CONTINUOUS
 90
33
 70
0
 10
-12.7069594908
 20
-2.2569168978
 10
-12.748312227
 20
-2.3678241199
 10
-12.7832062018
 20
-2.4861606207
 10
-12.8114329582
 20
-2.6115211868
 10
-12.8327441026
 20
-2.7430784739
 10
-12.8470797585
 20
-2.8810701575
 10
-12.8542336458
 20
-3.0252211028
 10
-12.8540025526
 20
-3.1746117285
 10
-12.8462655551
 20
-3.3286680204
 10
-12.8309436519
 20
-3.4867233743
 10
-12.8080042551
 20
-3.648089546
 10
-12.7774322594
 20
-3.8121962038
 10
-12.7392435118
 20
-3.9784211825
 10
-12.6935334441
 20
-4.1459545678
 10
-12.6404595149
 20
-4.31396345
 10
-12.5801937207
 20
-4.4817258562
 10
-12.5129568126
 20
-4.6484925899
 10
-12.4390619892
 20
-4.813408254
 10
-12.3588279839
 20
-4.9757301621
 10
-12.2725843572
 20
-5.1347787152
 10
-12.1807313441
 20
-5.2898216491
 10
-12.0836664462
 20
-5.4402110951
 10
-11.9818379599
 20
-5.5852879164
 10
-11.8757864081
 20
-5.7243436265
 10
-11.7660354216
 20
-5.8567794886
 10
-11.6530832315
 20
-5.9820919727
 10
-11.5374933542
 20
-6.0997632353
 10
-11.419845121
 20
-6.2093268583
 10
-11.300697762
 20
-6.3103966996
 10
-11.1806424727
 20
-6.4026160562
 10
-11.0602959556
 20
-6.4856714243
 10
-10.9402636338
 20
-6.559321185
 10
-10.8211418705
 20
-6.6233895128
  0
LWPOLYLINE
  5
34B
100
AcDbEntity
  8
DRAFT
100
AcDbPolyline
 62
7
  6
CONTINUOUS
 90
4
 70
0
 10
-13.4307566126
 20
-2.590062462
 10
-13.5367159505
 20
-2.86687083
 10
-13.6035198955
 20
-3.1880031895
 10
-13.6311684476
 20
-3.5534595406
  0
LWPOLYLINE
  5
34C
100
AcDbEntity
  8
RACCORDO
100
AcDbPolyline
 62
250
  6
CONTINUOUS
 90
3
 70
0
 10
-6.8794213902
 20
13.8352378605
 10
-6.8335739262
 20
13.9519871701
 10
-6.7822569597
 20
14.0715883749
  0
LWPOLYLINE
  5
34D
100
AcDbEntity
  8
RACCORDO
100
AcDbPolyline
 62
250
  6
CONTINUOUS
 90
44
 70
0
 10
-12.7661399822
 20
-2.2740086044
 10
-12.8141365814
 20
-2.3840964629
 10
-12.8559682005
 20
-2.502513067
 10
-12.8911964039
 20
-2.6291142453
 10
-12.9192195783
 20
-2.7627528358
 10
-12.9397698689
 20
-2.9030213307
 10
-12.9526073865
 20
-3.0494849654
 10
-12.9575118463
 20
-3.2006653925
 10
-12.9544540491
 20
-3.3559595343
 10
-12.9434368129
 20
-3.514747524
 10
-12.9246424801
 20
-3.6753431439
 10
-12.8982865022
 20
-3.8370709281
 10
-12.864612874
 20
-3.9992547752
 10
-12.8241884305
 20
-4.1601471655
 10
-12.7774322661
 20
-4.3191529934
 10
-12.7247908095
 20
-4.4756579119
 10
-12.6671802334
 20
-4.6279473048
 10
-12.6051750432
 20
-4.7755829786
 10
-12.539342782
 20
-4.9181749859
 10
-12.4708379671
 20
-5.0542486187
 10
-12.4004571361
 20
-5.1833320482
 10
-12.3286480853
 20
-5.3056142276
 10
-12.2561331358
 20
-5.420788631
 10
-12.183590513
 20
-5.5286770831
 10
-12.1113674067
 20
-5.629593483
 10
-12.039620091
 20
-5.7240360305
 10
-11.9687474628
 20
-5.8121180029
 10
-11.899067721
 20
-5.8940413046
 10
-11.8305112027
 20
-5.9704115059
 10
-11.7633317928
 20
-6.0414061489
 10
-11.6977566363
 20
-6.1072202313
 10
-11.6335952603
 20
-6.1684274809
 10
-11.5710167714
 20
-6.2252020597
 10
-11.5101657674
 20
-6.2777322925
 10
-11.4507587397
 20
-6.3265415393
 10
-11.3929033098
 20
-6.3717830429
 10
-11.3366910863
 20
-6.4136170201
 10
-11.2817771263
 20
-6.4524995852
 10
-11.2282401027
 20
-6.4885452984
 10
-11.1761263867
 20
-6.5218875355
 10
-11.1250192434
 20
-6.5529288521
 10
-11.0748045847
 20
-6.5818409638
 10
-11.0256758959
 20
-6.6086125097
 10
-10.977666629
 20
-6.6333301384
  0
LWPOLYLINE
  5
34E
100
AcDbEntity
  8
ASSI
100
AcDbPolyline
 62
7
  6
CONTINUOUS
 90
32
 70
0
 10
-13.2130368586
 20
-2.4781335405
 10
-13.2664741876
 20
-2.5957166289
 10
-13.3120009458
 20
-2.7212680822
 10
-13.3497171846
 20
-2.8546871181
 10
-13.3791418202
 20
-2.9942719302
 10
-13.4001686387
 20
-3.1401015011
 10
-13.412903854
 20
-3.2920968482
 10
-13.4171850241
 20
-3.448319218
 10
-13.412903854
 20
-3.6088227578
 10
-13.4001686387
 20
-3.7735533203
 10
-13.3791418202
 20
-3.9404097096
 10
-13.3497171846
 20
-4.1094191574
 10
-13.3120009458
 20
-4.280554432
 10
-13.2664741876
 20
-4.4516326435
 10
-13.2130368586
 20
-4.6226530609
 10
-13.1517890103
 20
-4.7936164151
 10
-13.0835118801
 20
-4.962342009
 10
-13.0081154244
 20
-5.1288011773
 10
-12.925689687
 20
-5.2930225853
 10
-12.8372860367
 20
-5.4529115316
 10
-12.7428278978
 20
-5.6084125183
 10
-12.6423918461
 20
-5.7595810434
 10
-12.5372589785
 20
-5.9044888996
 10
-12.4273691296
 20
-6.043055889
 10
-12.3127824648
 20
-6.1753622096
 10
-12.1949605769
 20
-6.2997202481
 10
-12.0738620234
 20
-6.4160281885
 10
-11.9495282468
 20
-6.5243878468
 10
-11.8235451677
 20
-6.6234170579
 10
-11.6964414265
 20
-6.7126551
 10
-11.5676883828
 20
-6.7925626947
 10
-11.4372860367
 20
-6.8631398422
  0
LINE
  5
34F
100
AcDbEntity
  8
RACCORDO
100
AcDbLine
 62
7
  6
CONTINUOUS
 10
-12.6882533945
 20
-2.2164327326
 11
-12.7069594908
 21
-2.2569168978
  0
LINE
  5
350
100
AcDbEntity
  8
0
100
AcDbLine
 62
7
  6
CONTINUOUS
 10
-13.4187499643
 20
-2.6551495415
 11
-13.2861825801
 21
-2.3842866781
  0
LINE
  5
351
100
AcDbEntity
  8
RACCORDO
100
AcDbLine
 62
250
  6
CONTINUOUS
 10
-12.730122104
 20
-2.2058434822
 11
-12.7661399822
 21
-2.2740086044
  0
LINE
  5
352
100
AcDbEntity
  8
DRAFT
100
AcDbLine
 62
7
  6
CONTINUOUS
 10
-13.2814038127
 20
-2.3539388478
 11
-13.4307566126
 21
-2.590062462
  0
LWPOLYLINE
  5
353
100
AcDbEntity
  8
RACCORDO
100
AcDbPolyline
 62
7
  6
CONTINUOUS
 90
19
 70
0
 10
-10.7440161512
 20
4.0373753424
 10
-10.5798143238
 20
4.1978644675
 10
-10.4442927253
 20
4.4062218927
 10
-10.3411426143
 20
4.6583986813
 10
-10.2738201852
 20
4.9464494769
 10
-10.2435945305
 20
5.2635036859
 10
-10.2512008397
 20
5.6072396128
 10
-10.2980014347
 20
5.9725362617
 10
-10.3838638479
 20
6.3491855319
 10
-10.5075905021
 20
6.7291602997
 10
-10.6671746564
 20
7.1045913885
 10
-10.8592912223
 20
7.4667335355
 10
-11.0793278138
 20
7.80685691
 10
-11.3217478517
 20
8.117091123
 10
-11.581345582
 20
8.3916743168
 10
-11.8526321333
 20
8.6255624771
 10
-12.1269978304
 20
8.8127408544
 10
-12.3994994319
 20
8.9515763059
 10
-12.6685243385
 20
9.0414596088
  0
LWPOLYLINE
  5
354
100
AcDbEntity
  8
RACCORDO
100
AcDbPolyline
 62
7
  6
CONTINUOUS
 90
9
 70
0
 10
-10.7470516548
 20
4.0350006834
 10
-10.772524163
 20
4.0131782235
 10
-10.8242147431
 20
3.9538221043
 10
-10.8642976093
 20
3.8826836587
 10
-10.8909146856
 20
3.7997541551
 10
-10.9013331922
 20
3.7091622865
 10
-10.8953257227
 20
3.6184219038
 10
-10.8746978522
 20
3.5298067293
 10
-10.8704633765
 20
3.5168773294
  0
LINE
  5
355
100
AcDbEntity
  8
RACCORDO
100
AcDbLine
 62
250
  6
CONTINUOUS
 10
-10.7470518169
 20
4.0350008847
 11
-10.7440161512
 21
4.0373753424
  0
LWPOLYLINE
  5
356
100
AcDbEntity
  8
RACCORDO
100
AcDbPolyline
 62
7
  6
CONTINUOUS
 90
6
 70
0
 10
5.2840656281
 20
16.283447593
 10
5.3972787668
 20
16.3529774186
 10
5.4820010657
 20
16.4263474685
 10
5.5382325249
 20
16.5035577427
 10
5.5661179382
 20
16.5869644784
 10
5.5694097073
 20
16.628631785
  0
LWPOLYLINE
  5
357
100
AcDbEntity
  8
RACCORDO
100
AcDbPolyline
 62
7
  6
CONTINUOUS
 90
10
 70
0
 10
-3.5374007989
 20
11.1427951927
 10
-3.6035369636
 20
11.1031776813
 10
-3.6720378625
 20
11.0548384621
 10
-3.7403488739
 20
10.9992116292
 10
-3.8055027183
 20
10.9370003124
 10
-3.8656707846
 20
10.8703353026
 10
-3.9202119991
 20
10.8027326764
 10
-3.9677437381
 20
10.7361278419
 10
-4.0061979288
 20
10.6708453739
 10
-4.0343099265
 20
10.607785448
  0
LWPOLYLINE
  5
358
100
AcDbEntity
  8
RACCORDO
100
AcDbPolyline
 62
250
  6
CONTINUOUS
 90
9
 70
0
 10
11.1592322399
 20
19.6429495776
 10
11.1937299736
 20
19.6624344529
 10
11.2239899108
 20
19.6836067863
 10
11.2496841882
 20
19.7062371763
 10
11.2705344115
 20
19.7300804242
 10
11.2863146708
 20
19.7548781894
 10
11.296853989
 20
19.7803617878
 10
11.3020381756
 20
19.8062551058
 10
11.3026070153
 20
19.8181755212
  0
LWPOLYLINE
  5
359
100
AcDbEntity
  8
RACCORDO
100
AcDbPolyline
 62
250
  6
CONTINUOUS
 90
8
 70
0
 10
11.1592075044
 20
19.658049826
 10
11.193676358
 20
19.677483047
 10
11.2239091571
 20
19.6985214579
 10
11.2495784853
 20
19.7209372106
 10
11.2704063477
 20
19.7444875406
 10
11.2861671819
 20
19.7689173946
 10
11.2966903008
 20
19.7939621932
 10
11.3018617407
 20
19.8193506974
  0
LINE
  5
35A
100
AcDbEntity
  8
RACCORDO
100
AcDbLine
 62
7
  6
CONTINUOUS
 10
1.1378565495
 20
13.3690496413
 11
5.2840656281
 21
15.5233617429
  0
LINE
  5
35B
100
AcDbEntity
  8
RACCORDO
100
AcDbLine
 62
7
  6
CONTINUOUS
 10
-3.5374007989
 20
11.1427951927
 11
1.0785039903
 21
13.483280128
  0
LINE
  5
35C
100
AcDbEntity
  8
RACCORDO
100
AcDbLine
 62
250
  6
CONTINUOUS
 10
-6.3559967649
 20
8.7396895254
 11
-4.5783437973
 21
9.629905746
  0
LINE
  5
35D
100
AcDbEntity
  8
RACCORDO
100
AcDbLine
 62
250
  6
CONTINUOUS
 10
-13.1079141621
 20
5.7399941042
 11
-13.001848145
 21
5.7930271128
  0
LINE
  5
35E
100
AcDbEntity
  8
0
100
AcDbLine
 62
7
  6
CONTINUOUS
 10
10.7941511638
 20
17.1505470222
 11
10.0908946603
 21
16.7989187705
  0
LINE
  5
35F
100
AcDbEntity
  8
RACCORDO
100
AcDbLine
 62
250
  6
CONTINUOUS
 10
-12.9896029195
 20
5.2481741757
 11
-12.9402482451
 21
5.2728515129
  0
LINE
  5
360
100
AcDbEntity
  8
0
100
AcDbLine
 62
7
  6
CONTINUOUS
 10
11.2891259106
 20
16.9030596488
 11
10.5858694072
 21
16.5514313971
  0
LINE
  5
361
100
AcDbEntity
  8
RACCORDO
100
AcDbLine
 62
250
  6
CONTINUOUS
 10
6.2826772909
 20
15.5503294002
 11
1.3100737442
 21
13.0838813825
  0
LINE
  5
362
100
AcDbEntity
  8
RACCORDO
100
AcDbLine
 62
250
  6
CONTINUOUS
 10
-13.069831998
 20
5.7316782604
 11
-13.5784293243
 21
5.484512628
  0
LINE
  5
363
100
AcDbEntity
  8
RACCORDO
100
AcDbLine
 62
250
  6
CONTINUOUS
 10
-13.0077442513
 20
5.2033478982
 11
-13.5164575045
 21
4.9583216585
  0
LINE
  5
364
100
AcDbEntity
  8
RACCORDO
100
AcDbLine
 62
7
  6
CONTINUOUS
 10
15.1870538646
 20
18.1850344147
 11
11.3781749529
 21
16.3942687436
  0
LINE
  5
365
100
AcDbEntity
  8
RACCORDO
100
AcDbLine
 62
250
  6
CONTINUOUS
 10
15.4054106033
 20
18.0489482353
 11
11.8159921236
 21
16.3613631107
  0
LWPOLYLINE
  5
366
100
AcDbEntity
  8
RACCORDO
100
AcDbPolyline
 62
7
  6
CONTINUOUS
 90
35
 70
0
 10
11.3780073208
 20
16.3941946444
 10
11.3143314069
 20
16.36523868
 10
11.1860382848
 20
16.3122187209
 10
11.0460319166
 20
16.2612859518
 10
10.8945497066
 20
16.213078572
 10
10.7324275001
 20
16.1683466923
 10
10.5610743108
 20
16.1278585608
 10
10.3812982393
 20
16.0921074655
 10
10.1939403858
 20
16.0615300527
 10
10.0005388649
 20
16.0365910586
 10
9.8021056913
 20
16.0175820189
 10
9.5997055301
 20
16.0047421287
 10
9.3949946517
 20
15.9982661342
 10
9.1891196975
 20
15.9982345828
 10
8.9831977161
 20
16.004673045
 10
8.7788496091
 20
16.017515623
 10
8.5771985927
 20
16.0366360681
 10
8.3793562537
 20
16.0618536529
 10
8.1868990511
 20
16.0928442667
 10
8.0008767155
 20
16.1292667495
 10
7.8222214466
 20
16.1707415119
 10
7.6522794982
 20
16.2167027815
 10
7.4918153648
 20
16.2666355787
 10
7.3416185881
 20
16.3199492804
 10
7.2029750193
 20
16.3757400482
 10
7.0763116923
 20
16.4332903414
 10
6.9620710222
 20
16.491791606
 10
6.8613423749
 20
16.5498975415
 10
6.7741399563
 20
16.6066112915
 10
6.7002215322
 20
16.6609837847
 10
6.639922096
 20
16.7113938648
 10
6.5928185097
 20
16.7564195116
 10
6.5575001896
 20
16.7953910203
 10
6.5327740327
 20
16.8273780345
 10
6.5251824738
 20
16.8385654413
  0
LWPOLYLINE
  5
367
100
AcDbEntity
  8
RACCORDO
100
AcDbPolyline
 62
250
  6
CONTINUOUS
 90
11
 70
0
 10
11.8159921236
 20
16.3613631107
 10
11.6390770071
 20
16.2835171939
 10
11.4530611838
 20
16.2119658598
 10
11.2579446537
 20
16.1467091083
 10
11.0525995665
 20
16.0874458627
 10
10.8381537725
 20
16.0344771997
 10
10.6179908233
 20
15.9887063498
 10
10.3923419257
 20
15.950320731
 10
10.1609758728
 20
15.9191329253
 10
9.9265825951
 20
15.8954839097
 10
9.6890237413
 20
15.8794491223
  0
LWPOLYLINE
  5
368
100
AcDbEntity
  8
RACCORDO
100
AcDbPolyline
 62
250
  6
CONTINUOUS
 90
10
 70
0
 10
-13.9144761616
 20
-13.30318875
 10
-13.8787598302
 20
-13.2978910567
 10
-13.8378013599
 20
-13.28959906
 10
-13.7928178242
 20
-13.2785591562
 10
-13.7451459001
 20
-13.2650993953
 10
-13.6962021452
 20
-13.2496197315
 10
-13.6474409046
 20
-13.232580138
 10
-13.6003111018
 20
-13.214486941
 10
-13.556213184
 20
-13.195877775
 10
-13.5164575045
 20
-13.1773056053
  0
LINE
  5
369
100
AcDbEntity
  8
RACCORDO
100
AcDbLine
 62
250
  6
CONTINUOUS
 10
-13.0731034387
 20
-10.8210719359
 11
-12.994827463
 21
-10.8198217432
  0
LWPOLYLINE
  5
36A
100
AcDbEntity
  8
RACCORDO
100
AcDbPolyline
 62
250
  6
CONTINUOUS
 90
6
 70
0
 10
-12.994827463
 20
-10.8198217432
 10
-12.9163005966
 20
-10.823680178
 10
-12.8378357431
 20
-10.8327781397
 10
-12.7591199991
 20
-10.8469847288
 10
-12.6807881095
 20
-10.8656151955
 10
-12.6031938994
 20
-10.8884935534
  0
LWPOLYLINE
  5
36B
100
AcDbEntity
  8
RACCORDO
100
AcDbPolyline
 62
250
  6
CONTINUOUS
 90
10
 70
0
 10
-10.8811726647
 20
-6.6786955382
 10
-10.8313617535
 20
-6.6998530226
 10
-10.7807119001
 20
-6.7197797679
 10
-10.7291071668
 20
-6.7384251878
 10
-10.6761277049
 20
-6.7558117494
 10
-10.6218174062
 20
-6.7717676545
 10
-10.5662525626
 20
-6.786107798
 10
-10.5090843993
 20
-6.7987310311
 10
-10.4504008606
 20
-6.8093950846
 10
-10.4265156902
 20
-6.8127551436
  0
LWPOLYLINE
  5
36C
100
AcDbEntity
  8
ASSI
100
AcDbPolyline
 62
7
  6
CONTINUOUS
 90
7
 70
0
 10
-11.4372860367
 20
-6.8631398422
 10
-11.3068836907
 20
-6.9229650408
 10
-11.178130647
 20
-6.9718104897
 10
-11.0510269057
 20
-7.0096761889
 10
-10.9250438267
 20
-7.0366300569
 10
-10.8007100501
 20
-7.0526041752
 10
-10.6796114965
 20
-7.0573947883
  0
LWPOLYLINE
  5
36D
100
AcDbEntity
  8
RACCORDO
100
AcDbPolyline
 62
7
  6
CONTINUOUS
 90
6
 70
0
 10
-10.8211418705
 20
-6.6233895128
 10
-10.7220945936
 20
-6.6697701139
 10
-10.6237085986
 20
-6.7095365522
 10
-10.526391404
 20
-6.7425209093
 10
-10.430921964
 20
-6.7685096577
 10
-10.4090023099
 20
-6.7729717894
  0
LWPOLYLINE
  5
36E
100
AcDbEntity
  8
RACCORDO
100
AcDbPolyline
 62
250
  6
CONTINUOUS
 90
3
 70
0
 10
-10.977666629
 20
-6.6333301384
 10
-10.9299518281
 20
-6.6564832644
 10
-10.8811726647
 20
-6.6786955382
  0
LWPOLYLINE
  5
36F
100
AcDbEntity
  8
DRAFT
100
AcDbPolyline
 62
7
  6
CONTINUOUS
 90
3
 70
0
 10
-11.7984713083
 20
-6.8884044862
 10
-11.5003648339
 20
-7.0374577234
 10
-11.2116709399
 20
-7.1303939665
  0
LWPOLYLINE
  5
370
100
AcDbEntity
  8
RACCORDO
100
AcDbPolyline
 62
250
  6
CONTINUOUS
 90
40
 70
0
 10
-13.9392601223
 20
5.2758317916
 10
-14.0365021479
 20
5.4587150381
 10
-14.1244170471
 20
5.6378007569
 10
-14.2030048201
 20
5.813088948
 10
-14.2717242888
 20
5.9849763958
 10
-14.3311166312
 20
6.1530663159
 10
-14.3828053811
 20
6.3161683551
 10
-14.4268418862
 20
6.4741180631
 10
-14.4631747988
 20
6.6270798903
 10
-14.4932736104
 20
6.7743568347
 10
-14.5171723729
 20
6.9157011113
 10
-14.5348370344
 20
7.0513605051
 10
-14.5476349297
 20
7.1813813696
 10
-14.5557083688
 20
7.3051768062
 10
-14.5589150417
 20
7.4233337135
 10
-14.5581953527
 20
7.5376591412
 10
-14.5537627478
 20
7.6484854554
 10
-14.5454037811
 20
7.75548029
 10
-14.5334185188
 20
7.8594535961
 10
-14.517874501
 20
7.9606787752
 10
-14.4987041877
 20
8.0588824258
 10
-14.4760050255
 20
8.1540542936
 10
-14.449804425
 20
8.2462562446
 10
-14.4200749757
 20
8.3354264129
 10
-14.3868318922
 20
8.4213689463
 10
-14.3501822195
 20
8.504025881
 10
-14.3100189127
 20
8.5834551807
 10
-14.2660360515
 20
8.659634885
 10
-14.2185234781
 20
8.7325380262
 10
-14.1671913504
 20
8.802191572
 10
-14.1108642211
 20
8.8686544645
 10
-14.0495148954
 20
8.9323998392
 10
-13.983170568
 20
8.9929545607
 10
-13.9107373769
 20
9.0489581646
 10
-13.8320435615
 20
9.1007309892
 10
-13.7472608824
 20
9.1479526962
 10
-13.6558107589
 20
9.1883018071
 10
-13.5577601394
 20
9.2219335672
 10
-13.4530420756
 20
9.2486927312
 10
-13.3408771418
 20
9.2657920846
  0
LWPOLYLINE
  5
371
100
AcDbEntity
  8
RACCORDO
100
AcDbPolyline
 62
7
  6
CONTINUOUS
 90
4
 70
0
 10
-12.9706922088
 20
5.7308502595
 10
-12.9455162201
 20
5.6689413505
 10
-12.9263201791
 20
5.6073003859
 10
-12.9129735147
 20
5.5448247698
  0
LWPOLYLINE
  5
372
100
AcDbEntity
  8
RACCORDO
100
AcDbPolyline
 62
7
  6
CONTINUOUS
 90
8
 70
0
 10
-13.1848059791
 20
6.1578161959
 10
-13.3312471367
 20
6.5220403505
 10
-13.4411716176
 20
6.8856995767
 10
-13.5156485232
 20
7.2565453555
 10
-13.5536087522
 20
7.6268262058
 10
-13.5518450007
 20
7.9732876852
 10
-13.5076745461
 20
8.2939474927
 10
-13.423780111
 20
8.5907879292
  0
LWPOLYLINE
  5
373
100
AcDbEntity
  8
RACCORDO
100
AcDbPolyline
 62
250
  6
CONTINUOUS
 90
3
 70
0
 10
-5.6146255718
 20
-23.266252992
 10
-5.6333485134
 20
-23.182862013
 10
-5.6487173845
 20
-23.0968592941
  0
LWPOLYLINE
  5
374
100
AcDbEntity
  8
RACCORDO
100
AcDbPolyline
 62
7
  6
CONTINUOUS
 90
4
 70
0
 10
-12.9785590375
 20
5.4793631667
 10
-12.9922116213
 20
5.5429911753
 10
-13.0119031417
 20
5.6056651614
 10
-13.0377766007
 20
5.6685608564
  0
LWPOLYLINE
  5
375
100
AcDbEntity
  8
RACCORDO
100
AcDbPolyline
 62
250
  6
CONTINUOUS
 90
7
 70
0
 10
-10.6692290204
 20
3.0207606646
 10
-10.6439196771
 20
2.8716083049
 10
-10.6271814123
 20
2.7290597171
 10
-10.6170242049
 20
2.5935427657
 10
-10.613368507
 20
2.4652066848
 10
-10.6162938665
 20
2.3439022403
 10
-10.624048906
 20
2.2296095934
  0
LWPOLYLINE
  5
376
100
AcDbEntity
  8
RACCORDO
100
AcDbPolyline
 62
7
  6
CONTINUOUS
 90
6
 70
0
 10
-6.2770045536
 20
-22.9350635011
 10
-6.2879968659
 20
-22.8693302152
 10
-6.287112259
 20
-22.7969581436
 10
-6.2744473967
 20
-22.7209156847
 10
-6.250619324
 20
-22.6443129136
 10
-6.2359038844
 20
-22.6122815365
  0
LWPOLYLINE
  5
377
100
AcDbEntity
  8
RACCORDO
100
AcDbPolyline
 62
250
  6
CONTINUOUS
 90
5
 70
0
 10
-10.2037674591
 20
-5.4036650226
 10
-10.1862211586
 20
-5.5223707228
 10
-10.1724488778
 20
-5.6412293663
 10
-10.162515336
 20
-5.7603884308
 10
-10.1563558138
 20
-5.8797004387
  0
LWPOLYLINE
  5
378
100
AcDbEntity
  8
RACCORDO
100
AcDbPolyline
 62
7
  6
CONTINUOUS
 90
25
 70
0
 10
-12.4494352281
 20
4.6456397992
 10
-12.4318727888
 20
4.5146229512
 10
-12.4080431783
 20
4.3812357822
 10
-12.3779790247
 20
4.24607838
 10
-12.3417538669
 20
4.1097732202
 10
-12.2994768045
 20
3.9729399243
 10
-12.2512840893
 20
3.8361772848
 10
-12.197336695
 20
3.7000693376
 10
-12.1378575044
 20
3.5652723368
 10
-12.0731277938
 20
3.4324735368
 10
-12.0034243619
 20
3.3022607809
 10
-11.9290641032
 20
3.1752293
 10
-11.8504531605
 20
3.0520464513
 10
-11.7679743852
 20
2.9332590784
 10
-11.682020691
 20
2.8193691256
 10
-11.5930750172
 20
2.71093357
 10
-11.5016044094
 20
2.6084165937
 10
-11.4080539639
 20
2.5122019887
 10
-11.3129286631
 20
2.4226830943
 10
-11.2167768342
 20
2.3402288493
 10
-11.1200514976
 20
2.265068884
 10
-11.0231697576
 20
2.1973732654
 10
-10.9268149713
 20
2.1374431161
 10
-10.8313520632
 20
2.0853125338
 10
-10.7712085421
 20
2.0570347478
  0
LWPOLYLINE
  5
379
100
AcDbEntity
  8
RACCORDO
100
AcDbPolyline
 62
250
  6
CONTINUOUS
 90
4
 70
0
 10
-5.7933080883
 20
-22.5887347453
 10
-5.7917314079
 20
-22.6064749433
 10
-5.7795577123
 20
-22.6407232744
 10
-5.755699983
 20
-22.6733989572
  0
LWPOLYLINE
  5
37A
100
AcDbEntity
  8
RACCORDO
100
AcDbPolyline
 62
250
  6
CONTINUOUS
 90
5
 70
0
 10
-7.0510197868
 20
-22.5402654107
 10
-7.0528781313
 20
-22.5175415126
 10
-7.0534628655
 20
-22.493323426
 10
-7.0526391657
 20
-22.4675006711
 10
-7.0510072282
 20
-22.448891463
  0
LWPOLYLINE
  5
37B
100
AcDbEntity
  8
RACCORDO
100
AcDbPolyline
 62
250
  6
CONTINUOUS
 90
7
 70
0
 10
-10.0075882905
 20
17.8337360388
 10
-10.0096989765
 20
17.8649056374
 10
-10.0159669015
 20
17.8973138383
 10
-10.0262016163
 20
17.929975934
 10
-10.0400921424
 20
17.9618995025
 10
-10.0572164223
 20
17.992114563
 10
-10.0770541434
 20
18.0197030484
  0
LWPOLYLINE
  5
37C
100
AcDbEntity
  8
RACCORDO
100
AcDbPolyline
 62
250
  6
CONTINUOUS
 90
8
 70
0
 10
-7.4129545417
 20
-21.6515269949
 10
-7.403863376
 20
-21.8166986424
 10
-7.3765684473
 20
-21.9706674945
 10
-7.331279233
 20
-22.1105722837
 10
-7.2682037785
 20
-22.2342584236
 10
-7.1883913289
 20
-22.3385656077
 10
-7.0944497493
 20
-22.4203414547
 10
-7.0231147635
 20
-22.4628376953
  0
LINE
  5
37D
100
AcDbEntity
  8
0
100
AcDbLine
 62
7
  6
CONTINUOUS
 10
-7.1928790805
 20
-22.4882483936
 11
-7.1946453496
 21
-22.4241877024
  0
LINE
  5
37E
100
AcDbEntity
  8
RACCORDO
100
AcDbLine
 62
7
  6
CONTINUOUS
 10
-9.7172973155
 20
17.7463971478
 11
-9.7172973155
 21
17.9739014068
  0
LWPOLYLINE
  5
37F
100
AcDbEntity
  8
RACCORDO
100
AcDbPolyline
 62
250
  6
CONTINUOUS
 90
9
 70
0
 10
-10.6163455771
 20
-14.1152068479
 10
-10.6224383674
 20
-14.2080451164
 10
-10.632081496
 20
-14.2979334209
 10
-10.6451769513
 20
-14.3853605927
 10
-10.6615986915
 20
-14.4704183701
 10
-10.6814727583
 20
-14.5530150149
 10
-10.7050792655
 20
-14.6333641445
 10
-10.7325115843
 20
-14.7115369647
 10
-10.7636763434
 20
-14.7874622696
  0
LWPOLYLINE
  5
380
100
AcDbEntity
  8
RACCORDO
100
AcDbPolyline
 62
7
  6
CONTINUOUS
 90
8
 70
0
 10
-7.0992563983
 20
13.35414772
 10
-7.1089825717
 20
13.2837258504
 10
-7.1069363744
 20
13.2112795739
 10
-7.0913921921
 20
13.1412500981
 10
-7.0630418217
 20
13.0793196442
 10
-7.0249743789
 20
13.029001451
 10
-6.9785382471
 20
12.989630093
 10
-6.9641198501
 20
12.9805596104
  0
LINE
  5
381
100
AcDbEntity
  8
RACCORDO
100
AcDbLine
 62
250
  6
CONTINUOUS
 10
-10.175930792
 20
-6.3568413491
 11
-10.1987292602
 21
-6.5178546162
  0
LWPOLYLINE
  5
382
100
AcDbEntity
  8
RACCORDO
100
AcDbPolyline
 62
7
  6
CONTINUOUS
 90
7
 70
0
 10
-6.2770045536
 20
12.8400335362
 10
-6.2879959459
 20
12.766615355
 10
-6.2871143174
 20
12.6980711151
 10
-6.274452781
 20
12.6372736472
 10
-6.2506230241
 20
12.5867913169
 10
-6.2166190455
 20
12.548726514
 10
-6.1978268735
 20
12.5357830405
  0
LINE
  5
383
100
AcDbEntity
  8
RACCORDO
100
AcDbLine
 62
250
  6
CONTINUOUS
 10
-5.633346116
 20
12.4066344017
 11
-5.6146255718
 21
12.5088440453
  0
LWPOLYLINE
  5
384
100
AcDbEntity
  8
RACCORDO
100
AcDbPolyline
 62
250
  6
CONTINUOUS
 90
8
 70
0
 10
-12.7999272871
 20
-14.0419806329
 10
-12.8035773925
 20
-14.0598704419
 10
-12.8113389903
 20
-14.0801839165
 10
-12.8227805089
 20
-14.0996023308
 10
-12.8377765924
 20
-14.1179129337
 10
-12.8561629405
 20
-14.1349151113
 10
-12.877738108
 20
-14.150422584
 10
-12.9022657126
 20
-14.1642654494
  0
LWPOLYLINE
  5
385
100
AcDbEntity
  8
RACCORDO
100
AcDbPolyline
 62
7
  6
CONTINUOUS
 90
4
 70
0
 10
-10.3153635944
 20
-6.510347384
 10
-10.2746910506
 20
-6.3172471806
 10
-10.2500698158
 20
-6.1107049094
 10
-10.241838277
 20
-5.8930993752
  0
LINE
  5
386
100
AcDbEntity
  8
RACCORDO
100
AcDbLine
 62
250
  6
CONTINUOUS
 10
-10.1987292602
 20
-6.5178546162
 11
-10.2302705119
 21
-6.6665911455
  0
LWPOLYLINE
  5
387
100
AcDbEntity
  8
RACCORDO
100
AcDbPolyline
 62
7
  6
CONTINUOUS
 90
5
 70
0
 10
-13.0802336761
 20
-11.4201854907
 10
-13.1363011204
 20
-11.6351607233
 10
-13.166342072
 20
-11.8751975383
 10
-13.1686750127
 20
-12.1264532587
 10
-13.1427394364
 20
-12.384313659
  0
LINE
  5
388
100
AcDbEntity
  8
RACCORDO
100
AcDbLine
 62
7
  6
CONTINUOUS
 10
-13.0619814516
 20
-11.5517136326
 11
-13.0044345672
 21
-11.3338941372
  0
LWPOLYLINE
  5
389
100
AcDbEntity
  8
RACCORDO
100
AcDbPolyline
 62
7
  6
CONTINUOUS
 90
4
 70
0
 10
-12.9129735147
 20
-13.1578067495
 10
-12.9263201791
 20
-13.2069357012
 10
-12.9455162201
 20
-13.2493806248
 10
-12.9706922088
 20
-13.2861135451
  0
LWPOLYLINE
  5
38A
100
AcDbEntity
  8
RACCORDO
100
AcDbPolyline
 62
7
  6
CONTINUOUS
 90
7
 70
0
 10
-6.5534498526
 20
12.0041762325
 10
-6.5468204654
 20
12.0277214141
 10
-6.5391893456
 20
12.0506868686
 10
-6.530556493
 20
12.0730725962
 10
-6.5209219078
 20
12.0948785967
 10
-6.51028559
 20
12.1161048701
 10
-6.4986475394
 20
12.1367514165
  0
LWPOLYLINE
  5
38B
100
AcDbEntity
  8
RACCORDO
100
AcDbPolyline
 62
250
  6
CONTINUOUS
 90
4
 70
0
 10
-10.2302705119
 20
-6.6665911455
 10
-10.2696905823
 20
-6.8034445332
 10
-10.3143975763
 20
-6.9295955674
 10
-10.3642247682
 20
-7.0450034219
  0
LWPOLYLINE
  5
38C
100
AcDbEntity
  8
RACCORDO
100
AcDbPolyline
 62
250
  6
CONTINUOUS
 90
8
 70
0
 10
-12.4883942122
 20
-11.0698764454
 10
-12.4968554575
 20
-11.097337448
 10
-12.5095155915
 20
-11.1434364909
 10
-12.5206412546
 20
-11.189114139
 10
-12.5304123872
 20
-11.2346559263
 10
-12.5389217664
 20
-11.2801079848
 10
-12.5462076883
 20
-11.3252497749
 10
-12.5523386065
 20
-11.3699990466
  0
LINE
  5
38D
100
AcDbEntity
  8
RACCORDO
100
AcDbLine
 62
7
  6
CONTINUOUS
 10
-10.3710760517
 20
-6.6868185892
 11
-10.3153635944
 21
-6.510347384
  0
LWPOLYLINE
  5
38E
100
AcDbEntity
  8
ASSI
100
AcDbPolyline
 62
7
  6
CONTINUOUS
 90
3
 70
0
 10
-13.0835118801
 20
-2.2679695709
 10
-13.1517890103
 20
-2.3684180346
 10
-13.2130368586
 20
-2.4781335405
  0
LINE
  5
38F
100
AcDbEntity
  8
0
100
AcDbLine
 62
7
  6
CONTINUOUS
 10
-13.2861825801
 20
-2.3842866781
 11
-13.2000740799
 21
-2.2711890648
  0
LINE
  5
390
100
AcDbEntity
  8
ASSI
100
AcDbLine
 62
7
  6
CONTINUOUS
 10
-13.0112500684
 20
-2.1806928344
 11
-13.0835118801
 21
-2.2679695709
  0
LINE
  5
391
100
AcDbEntity
  8
DRAFT
100
AcDbLine
 62
7
  6
CONTINUOUS
 10
-13.1233381313
 20
-2.1931132752
 11
-13.2814038127
 21
-2.3539388478
  0
LINE
  5
392
100
AcDbEntity
  8
RACCORDO
100
AcDbLine
 62
250
  6
CONTINUOUS
 10
-10.9968778124
 20
1.3139496313
 11
-11.0470934033
 21
1.2657588131
  0
LWPOLYLINE
  5
393
100
AcDbEntity
  8
RACCORDO
100
AcDbPolyline
 62
250
  6
CONTINUOUS
 90
44
 70
0
 10
-11.0470934033
 20
1.2657588131
 10
-11.1002890022
 20
1.2213650538
 10
-11.1568089547
 20
1.1810260536
 10
-11.2168767147
 20
1.1445577434
 10
-11.2802688283
 20
1.1121441925
 10
-11.3466592788
 20
1.0845953087
 10
-11.4163307246
 20
1.0620023909
 10
-11.4890005073
 20
1.0442741403
 10
-11.5634946361
 20
1.0319465686
 10
-11.6399462658
 20
1.025295697
 10
-11.7182222416
 20
1.0240455044
 10
-11.796749108
 20
1.0279039392
 10
-11.8752139614
 20
1.0370019008
 10
-11.9539297055
 20
1.05120849
 10
-12.0322615951
 20
1.0698389567
 10
-12.1098558052
 20
1.0927173146
 10
-12.1870661608
 20
1.12001955
 10
-12.2643193917
 20
1.1515888725
 10
-12.3415804448
 20
1.187221296
 10
-12.4188843731
 20
1.2271208066
 10
-12.4967630652
 20
1.2717425709
 10
-12.5754634506
 20
1.3211056548
 10
-12.6547385998
 20
1.3751909924
 10
-12.7343796128
 20
1.4343965535
 10
-12.8148107241
 20
1.499137497
 10
-12.8956076993
 20
1.5689986639
 10
-12.9752889351
 20
1.6431325466
 10
-13.0538517563
 20
1.7218175222
 10
-13.1312988381
 20
1.8047752136
 10
-13.2061566023
 20
1.8903229813
 10
-13.2781676035
 20
1.9784117439
 10
-13.3475892872
 20
2.0690905829
 10
-13.413720412
 20
2.1608241036
 10
-13.4761810313
 20
2.2530728933
 10
-13.5353510917
 20
2.3463763646
 10
-13.5916691916
 20
2.4408173613
 10
-13.6451611248
 20
2.5362007493
 10
-13.6958010975
 20
2.6327216627
 10
-13.7439503273
 20
2.7310483464
 10
-13.789772279
 20
2.8312364438
 10
-13.8331034877
 20
2.9332303116
 10
-13.8738147756
 20
3.0375312646
 10
-13.9121514026
 20
3.1447931612
 10
-13.9478681087
 20
3.254362143
  0
LINE
  5
394
100
AcDbEntity
  8
RACCORDO
100
AcDbLine
 62
250
  6
CONTINUOUS
 10
-10.7091239024
 20
3.7466934151
 11
-10.7737895823
 21
3.6930965216
  0
LWPOLYLINE
  5
395
100
AcDbEntity
  8
RACCORDO
100
AcDbPolyline
 62
250
  6
CONTINUOUS
 90
16
 70
0
 10
-10.7737895823
 20
3.6930965216
 10
-10.7798509574
 20
3.6881623933
 10
-10.7855451706
 20
3.6822397787
 10
-10.7908722218
 20
3.6753286778
 10
-10.7959228003
 20
3.6674818031
 10
-10.8006062168
 20
3.658646442
 10
-10.8046504039
 20
3.6486644571
 10
-10.8080824715
 20
3.6374970836
 10
-10.8108753096
 20
3.6251830864
 10
-10.8126755208
 20
3.6116806226
 10
-10.8134894275
 20
3.5969095166
 10
-10.8133107072
 20
3.5809499441
 10
-10.8117669951
 20
3.5640005889
 10
-10.8087341695
 20
3.546127679
 10
-10.8043363521
 20
3.5272649864
 10
-10.798573543
 20
3.5074125112
  0
LWPOLYLINE
  5
396
100
AcDbEntity
  8
0
100
AcDbPolyline
 62
250
  6
CONTINUOUS
 90
7
 70
0
 10
6.9588524171
 20
17.1660791541
 10
6.876944166
 20
17.102045151
 10
6.8015703566
 20
17.0363551038
 10
6.732730989
 20
16.9690090123
 10
6.6702660323
 20
16.89981698
 10
6.6143355173
 20
16.8289689036
 10
6.5976595605
 20
16.8044457224
  0
LINE
  5
397
100
AcDbEntity
  8
RACCORDO
100
AcDbLine
 62
250
  6
CONTINUOUS
 10
-5.295343055
 20
6.910332479
 11
-3.5176900875
 21
7.8005486995
  0
LINE
  5
398
100
AcDbEntity
  8
RACCORDO
100
AcDbLine
 62
250
  6
CONTINUOUS
 10
-13.0119580142
 20
4.2979433047
 11
-12.5523386065
 21
4.5277530086
  0
LINE
  5
399
100
AcDbEntity
  8
RACCORDO
100
AcDbLine
 62
250
  6
CONTINUOUS
 10
-10.9061712975
 20
5.221165267
 11
-12.4226381727
 21
4.4629318294
  0
LINE
  5
39A
100
AcDbEntity
  8
RACCORDO
100
AcDbLine
 62
250
  6
CONTINUOUS
 10
7.9688966445
 20
14.2359253774
 11
15.5303666177
 21
17.9864702281
  0
LINE
  5
39B
100
AcDbEntity
  8
RACCORDO
100
AcDbLine
 62
250
  6
CONTINUOUS
 10
16.4684315535
 20
16.8386420243
 11
8.4636403587
 21
12.8682359671
  0
LWPOLYLINE
  5
39C
100
AcDbEntity
  8
RACCORDO
100
AcDbPolyline
 62
250
  6
CONTINUOUS
 90
3
 70
0
 10
-13.2240491972
 20
-10.8400503791
 10
-13.1495550684
 20
-10.8277228075
 10
-13.0731034387
 20
-10.8210719359
  0
LINE
  5
39D
100
AcDbEntity
  8
DRAFT
100
AcDbLine
 62
7
  6
CONTINUOUS
 10
-11.2116709399
 20
-7.1303939665
 11
-10.932988478
 21
-7.1637839254
  0
LWPOLYLINE
  5
39E
100
AcDbEntity
  8
RACCORDO
100
AcDbPolyline
 62
250
  6
CONTINUOUS
 90
32
 70
0
 10
-12.2874470467
 20
-2.2361893663
 10
-12.1892732778
 20
-2.2918006924
 10
-12.0917450132
 20
-2.3524409111
 10
-11.9962371325
 20
-2.4168016315
 10
-11.9031754536
 20
-2.4846671526
 10
-11.8121341586
 20
-2.5562531754
 10
-11.7232106744
 20
-2.6308984122
 10
-11.6366844128
 20
-2.708223484
 10
-11.552275962
 20
-2.7886077699
 10
-11.4692445132
 20
-2.8725281201
 10
-11.3874761679
 20
-2.9598803663
 10
-11.3070848245
 20
-3.0507686768
 10
-11.2276713702
 20
-3.1459824072
 10
-11.1489140684
 20
-3.2457971159
 10
-11.0711346556
 20
-3.3499372445
 10
-10.994899228
 20
-3.4583654732
 10
-10.9199088576
 20
-3.5716800785
 10
-10.8464624723
 20
-3.689282784
 10
-10.7760229517
 20
-3.8093414403
 10
-10.7087556938
 20
-3.9319479542
 10
-10.6444953005
 20
-4.0570104189
 10
-10.5842084572
 20
-4.1824209645
 10
-10.5281547327
 20
-4.3079389418
 10
-10.4760745581
 20
-4.433805
 10
-10.4281559118
 20
-4.5586332164
 10
-10.3845917669
 20
-4.6819011043
 10
-10.3451891502
 20
-4.8041311504
 10
-10.3095571214
 20
-4.9255048925
 10
-10.2776289422
 20
-5.0458939051
 10
-10.2494713509
 20
-5.1654266138
 10
-10.2248936214
 20
-5.2846698328
 10
-10.2037674591
 20
-5.4036650226
  0
LINE
  5
39F
100
AcDbEntity
  8
SMUSSO
100
AcDbLine
 62
7
  6
CONTINUOUS
 10
2.6708285892
 20
-21.8831112157
 11
2.9014491486
 21
-22.238751945
  0
LINE
  5
3A0
100
AcDbEntity
  8
SMUSSO
100
AcDbLine
 62
7
  6
CONTINUOUS
 10
2.9525949998
 20
-21.7120363755
 11
3.1832155592
 21
-22.0676771048
  0
LWPOLYLINE
  5
3A1
100
AcDbEntity
  8
RACCORDO
100
AcDbPolyline
 62
250
  6
CONTINUOUS
 90
37
 70
0
 10
-13.5784293243
 20
5.484512628
 10
-13.6668488823
 20
5.6482973713
 10
-13.7461723489
 20
5.8103928805
 10
-13.8166911326
 20
5.9698402413
 10
-13.8786683729
 20
6.1255603131
 10
-13.93262176
 20
6.2770770133
 10
-13.9792178311
 20
6.4245255049
 10
-14.0188802518
 20
6.5675179125
 10
-14.0519924194
 20
6.7055309326
 10
-14.0790674698
 20
6.8386337057
 10
-14.1005049594
 20
6.9665112752
 10
-14.1167302986
 20
7.0890050075
 10
-14.1282048809
 20
7.206492601
 10
-14.135271458
 20
7.3183875442
 10
-14.1383483761
 20
7.4251011766
 10
-14.1377528471
 20
7.5284651655
 10
-14.1336354148
 20
7.6286275528
 10
-14.1261623708
 20
7.7252415613
 10
-14.1153681583
 20
7.8192654714
 10
-14.101282627
 20
7.9107748405
 10
-14.0839966201
 20
7.9994349944
 10
-14.0634892615
 20
8.0855003616
 10
-14.039789454
 20
8.168860234
 10
-14.0129473464
 20
8.2493473854
 10
-13.9829091048
 20
8.3270780754
 10
-13.9497513966
 20
8.4017848892
 10
-13.9134605543
 20
8.4734358654
 10
-13.8737553735
 20
8.5423987588
 10
-13.8307588612
 20
8.6082290074
 10
-13.7843240062
 20
8.6709349258
 10
-13.7335511468
 20
8.7312775193
 10
-13.6781469587
 20
8.788938326
 10
-13.6181032834
 20
8.843278859
 10
-13.552732392
 20
8.8942152366
 10
-13.4817124069
 20
8.941179124
 10
-13.4050283897
 20
8.9833732666
 10
-13.386008007
 20
8.9925982725
  0
LINE
  5
3A2
100
AcDbEntity
  8
RACCORDO
100
AcDbLine
 62
7
  6
CONTINUOUS
 10
-13.0377766007
 20
5.6685608564
 11
-13.069831998
 21
5.7316782604
  0
LINE
  5
3A3
100
AcDbEntity
  8
RACCORDO
100
AcDbLine
 62
250
  6
CONTINUOUS
 10
-10.7737895823
 20
3.6930965216
 11
-10.7968169361
 21
3.7387913377
  0
LINE
  5
3A4
100
AcDbEntity
  8
RACCORDO
100
AcDbLine
 62
7
  6
CONTINUOUS
 10
-13.1848059791
 20
6.1578161959
 11
-12.9706922088
 21
5.7308502595
  0
LWPOLYLINE
  5
3A5
100
AcDbEntity
  8
RACCORDO
100
AcDbPolyline
 62
7
  6
CONTINUOUS
 90
3
 70
0
 10
-13.2869465492
 20
6.1657555645
 10
-13.1847534216
 20
5.9473109774
 10
-13.069831998
 20
5.7316782604
  0
LINE
  5
3A6
100
AcDbEntity
  8
RACCORDO
100
AcDbLine
 62
7
  6
CONTINUOUS
 10
-10.8704628976
 20
3.5168774921
 11
-10.8704799776
 21
3.5169272563
  0
LWPOLYLINE
  5
3A7
100
AcDbEntity
  8
RACCORDO
100
AcDbPolyline
 62
250
  6
CONTINUOUS
 90
9
 70
0
 10
-10.7968169361
 20
3.7387913377
 10
-10.8128566061
 20
3.78628007
 10
-10.8214319762
 20
3.8341516061
 10
-10.8222882295
 20
3.8809834584
 10
-10.8153999198
 20
3.9253840317
 10
-10.8009717291
 20
3.9660339743
 10
-10.779432385
 20
4.0017253837
 10
-10.751421921
 20
4.0313976984
 10
-10.7470518169
 20
4.0350008847
  0
LINE
  5
3A8
100
AcDbEntity
  8
RACCORDO
100
AcDbLine
 62
250
  6
CONTINUOUS
 10
-10.798573543
 20
3.5074125112
 11
-10.7468876235
 21
3.338591457
  0
LWPOLYLINE
  5
3A9
100
AcDbEntity
  8
RACCORDO
100
AcDbPolyline
 62
250
  6
CONTINUOUS
 90
3
 70
0
 10
-10.7468876235
 20
3.338591457
 10
-10.7037727827
 20
3.1763741748
 10
-10.6692290204
 20
3.0207606646
  0
LWPOLYLINE
  5
3AA
100
AcDbEntity
  8
0
100
AcDbPolyline
 62
7
  6
CONTINUOUS
 90
12
 70
0
 10
-11.2802472967
 20
15.5532400482
 10
-11.2681677824
 20
15.4959213321
 10
-11.2526842349
 20
15.441133206
 10
-11.2339936142
 20
15.3895741053
 10
-11.2120549304
 20
15.3412852312
 10
-11.1869091735
 20
15.2962253825
 10
-11.1588762733
 20
15.2549693912
 10
-11.1279192987
 20
15.2175657992
 10
-11.0940751808
 20
15.1839660647
 10
-11.0577746428
 20
15.1545993939
 10
-11.0189862208
 20
15.1295198267
 10
-10.99699295
 20
15.1176791469
  0
LWPOLYLINE
  5
3AB
100
AcDbEntity
  8
RACCORDO
100
AcDbPolyline
 62
250
  6
CONTINUOUS
 90
4
 70
0
 10
-5.6487173845
 20
-23.0968592941
 10
-5.6607021392
 20
-23.0084126241
 10
-5.6692793512
 20
-22.9176945469
 10
-5.6744322594
 20
-22.8248820254
  0
LINE
  5
3AC
100
AcDbEntity
  8
RACCORDO
100
AcDbLine
 62
7
  6
CONTINUOUS
 10
-5.7818178751
 20
-22.8285489036
 11
-5.7737633817
 21
-22.9002444198
  0
LWPOLYLINE
  5
3AD
100
AcDbEntity
  8
RACCORDO
100
AcDbPolyline
 62
250
  6
CONTINUOUS
 90
6
 70
0
 10
-7.0993002095
 20
13.3539128956
 10
-7.0983437789
 20
13.3427623579
 10
-7.0915119126
 20
13.3311384178
 10
-7.0790960665
 20
13.3189412143
 10
-7.0614655242
 20
13.3065335282
 10
-7.0391446698
 20
13.2942844003
  0
LWPOLYLINE
  5
3AE
100
AcDbEntity
  8
0
100
AcDbPolyline
 62
7
  6
CONTINUOUS
 90
8
 70
0
 10
-7.1928435882
 20
13.6243939612
 10
-7.1876377936
 20
13.562246877
 10
-7.1790279659
 20
13.5026303827
 10
-7.1669484515
 20
13.4453116666
 10
-7.151464904
 20
13.3905235405
 10
-7.1327742833
 20
13.3389644398
 10
-7.1108355996
 20
13.2906755657
 10
-7.1085807748
 20
13.2866350406
  0
LINE
  5
3AF
100
AcDbEntity
  8
RACCORDO
100
AcDbLine
 62
7
  6
CONTINUOUS
 10
-5.7909525699
 20
-22.6946801328
 11
-5.7818178751
 21
-22.8285489036
  0
LINE
  5
3B0
100
AcDbEntity
  8
0
100
AcDbLine
 62
7
  6
CONTINUOUS
 10
-7.1946453496
 20
13.6890716354
 11
-7.1928435882
 21
13.6243939612
  0
LINE
  5
3B1
100
AcDbEntity
  8
RACCORDO
100
AcDbLine
 62
7
  6
CONTINUOUS
 10
-5.7930956461
 20
-22.588524693
 11
-5.7909525699
 21
-22.6946801328
  0
LINE
  5
3B2
100
AcDbEntity
  8
RACCORDO
100
AcDbLine
 62
250
  6
CONTINUOUS
 10
-5.6744322594
 20
-22.8248820254
 11
-5.6761508007
 21
-22.7301560961
  0
LINE
  5
3B3
100
AcDbEntity
  8
RACCORDO
100
AcDbLine
 62
250
  6
CONTINUOUS
 10
-7.4129545417
 20
-21.6515269949
 11
-7.4129545417
 21
6.9121804455
  0
LINE
  5
3B4
100
AcDbEntity
  8
RACCORDO
100
AcDbLine
 62
7
  6
CONTINUOUS
 10
-6.377255937
 20
20.0623757054
 11
-6.377255937
 21
20.4087858669
  0
LINE
  5
3B5
100
AcDbEntity
  8
RACCORDO
100
AcDbLine
 62
250
  6
CONTINUOUS
 10
-6.2893879713
 20
19.9563096882
 11
-6.2893879713
 21
20.3027198497
  0
LINE
  5
3B6
100
AcDbEntity
  8
RACCORDO
100
AcDbLine
 62
7
  6
CONTINUOUS
 10
-5.7933080883
 20
-22.5887347453
 11
-5.7933080883
 21
-22.5077392059
  0
LINE
  5
3B7
100
AcDbEntity
  8
RACCORDO
100
AcDbLine
 62
7
  6
CONTINUOUS
 10
-5.7933080883
 20
11.1342376216
 11
-5.7933080883
 21
12.0522814167
  0
LINE
  5
3B8
100
AcDbEntity
  8
RACCORDO
100
AcDbLine
 62
7
  6
CONTINUOUS
 10
-5.7913733818
 20
12.1490313821
 11
-5.7930947218
 21
12.0523930418
  0
LWPOLYLINE
  5
3B9
100
AcDbEntity
  8
RACCORDO
100
AcDbPolyline
 62
250
  6
CONTINUOUS
 90
4
 70
0
 10
-5.6761508007
 20
11.9108600552
 10
-5.674431781
 20
12.0073287783
 10
-5.6692778121
 20
12.1053332079
 10
-5.6606995408
 20
12.2046819525
  0
LINE
  5
3BA
100
AcDbEntity
  8
0
100
AcDbLine
 62
7
  6
CONTINUOUS
 10
-7.1946453496
 20
-22.4241877024
 11
-7.1933854783
 21
-22.3777023379
  0
LWPOLYLINE
  5
3BB
100
AcDbEntity
  8
RACCORDO
100
AcDbPolyline
 62
250
  6
CONTINUOUS
 90
13
 70
0
 10
-7.4129545417
 20
6.9121804455
 10
-7.4038628689
 20
7.0864482255
 10
-7.3765669043
 20
7.2677148383
 10
-7.3312768549
 20
7.452909218
 10
-7.2682018
 20
7.639667776
 10
-7.1883914241
 20
7.8237820741
 10
-7.0944526319
 20
7.9994947986
 10
-6.9890145433
 20
8.1630831332
 10
-6.8737545683
 20
8.3129828421
 10
-6.7506334566
 20
8.4472882286
 10
-6.6217760908
 20
8.5641809902
 10
-6.4894940442
 20
8.6620350571
 10
-6.3559967649
 20
8.7396895254
  0
LWPOLYLINE
  5
3BC
100
AcDbEntity
  8
RACCORDO
100
AcDbPolyline
 62
7
  6
CONTINUOUS
 90
3
 70
0
 10
-5.7782185109
 20
12.3396078119
 10
-5.7861731082
 20
12.2472930122
 10
-5.7913733818
 20
12.1490313821
  0
LWPOLYLINE
  5
3BD
100
AcDbEntity
  8
RACCORDO
100
AcDbPolyline
 62
250
  6
CONTINUOUS
 90
3
 70
0
 10
-5.6606995408
 20
12.2046819525
 10
-5.6487143088
 20
12.3051810611
 10
-5.633346116
 20
12.4066344017
  0
LWPOLYLINE
  5
3BE
100
AcDbEntity
  8
RACCORDO
100
AcDbPolyline
 62
7
  6
CONTINUOUS
 90
9
 70
0
 10
-10.3255238268
 20
-17.8060200667
 10
-10.2676823233
 20
-17.5298244456
 10
-10.2427324652
 20
-17.2242226049
 10
-10.2525266938
 20
-16.8925168539
 10
-10.2980383607
 20
-16.543919413
 10
-10.3791541459
 20
-16.1846293945
 10
-10.4950522967
 20
-15.8213520574
 10
-10.6438068469
 20
-15.4618203209
 10
-10.8226937471
 20
-15.1133936372
  0
LWPOLYLINE
  5
3BF
100
AcDbEntity
  8
RACCORDO
100
AcDbPolyline
 62
250
  6
CONTINUOUS
 90
6
 70
0
 10
-10.2143455169
 20
-17.8546586646
 10
-10.2370446791
 20
-17.9498305324
 10
-10.2632452795
 20
-18.0420324835
 10
-10.2929747289
 20
-18.1312026518
 10
-10.3262178124
 20
-18.2171451852
 10
-10.362867485
 20
-18.2998021198
  0
LINE
  5
3C0
100
AcDbEntity
  8
RACCORDO
100
AcDbLine
 62
7
  6
CONTINUOUS
 10
-10.4411855103
 20
-6.846079073
 11
-10.3710760517
 21
-6.6868185892
  0
LINE
  5
3C1
100
AcDbEntity
  8
RACCORDO
100
AcDbLine
 62
7
  6
CONTINUOUS
 10
-12.9967569266
 20
-11.2321421761
 11
-13.0802336761
 21
-11.4201854907
  0
LINE
  5
3C2
100
AcDbEntity
  8
RACCORDO
100
AcDbLine
 62
7
  6
CONTINUOUS
 10
-13.0044345672
 20
-11.3338941372
 11
-12.9188500528
 21
-11.1428874734
  0
LWPOLYLINE
  5
3C3
100
AcDbEntity
  8
RACCORDO
100
AcDbPolyline
 62
7
  6
CONTINUOUS
 90
5
 70
0
 10
-13.0118315084
 20
-13.3316886735
 10
-12.9921326866
 20
-13.2886485374
 10
-12.9785020516
 20
-13.2386215153
 10
-12.9710723652
 20
-13.1826494416
 10
-12.9702419134
 20
-13.1238578205
  0
LWPOLYLINE
  5
3C4
100
AcDbEntity
  8
RACCORDO
100
AcDbPolyline
 62
250
  6
CONTINUOUS
 90
9
 70
0
 10
0.2329423895
 20
17.5849753555
 10
0.2180342718
 20
17.553030127
 10
0.1968320085
 20
17.5198683666
 10
0.170375349
 20
17.4876411004
 10
0.1387988599
 20
17.4564934292
 10
0.1023037227
 20
17.4267071669
 10
0.0611004524
 20
17.3984503691
 10
0.0153977856
 20
17.3717795873
 10
-0.0146865532
 20
17.3567324214
  0
LWPOLYLINE
  5
3C5
100
AcDbEntity
  8
ASSI
100
AcDbPolyline
 62
7
  6
CONTINUOUS
 90
6
 70
0
 10
-12.8459934321
 20
-11.0556465605
 10
-12.8930925193
 20
-11.1517480434
 10
-12.9333032825
 20
-11.2543471435
 10
-12.9664098505
 20
-11.3630033953
 10
-12.9926280944
 20
-11.4781572643
 10
-13.0119580142
 20
-11.5998087505
  0
LWPOLYLINE
  5
3C6
100
AcDbEntity
  8
RACCORDO
100
AcDbPolyline
 62
250
  6
CONTINUOUS
 90
4
 70
0
 10
-10.3642247682
 20
-7.0450034219
 10
-10.4193388839
 20
-7.1497089231
 10
-10.4776482052
 20
-7.2450153384
 10
-10.5389735241
 20
-7.3308546334
  0
LWPOLYLINE
  5
3C7
100
AcDbEntity
  8
RACCORDO
100
AcDbPolyline
 62
7
  6
CONTINUOUS
 90
5
 70
0
 10
-11.1639657132
 20
1.5053907304
 10
-11.0257740725
 20
1.6038383047
 10
-10.9082420481
 20
1.7429326871
 10
-10.8143726236
 20
1.9206945448
 10
-10.7478780997
 20
2.1307274373
  0
LINE
  5
3C8
100
AcDbEntity
  8
RACCORDO
100
AcDbLine
 62
250
  6
CONTINUOUS
 10
16.7598512758
 20
15.251663203
 11
3.1998243338
 21
8.5259672888
  0
LINE
  5
3C9
100
AcDbEntity
  8
RACCORDO
100
AcDbLine
 62
7
  6
CONTINUOUS
 10
-1.4395923431
 20
7.5246108174
 11
3.1998243338
 21
9.8245437449
  0
LWPOLYLINE
  5
3CA
100
AcDbEntity
  8
RACCORDO
100
AcDbPolyline
 62
250
  6
CONTINUOUS
 90
60
 70
0
 10
-11.163965711
 20
1.5053907315
 10
-11.2027415665
 20
1.4862233617
 10
-11.2610994787
 20
1.4619853066
 10
-11.3222721698
 20
1.4419830537
 10
-11.3860202897
 20
1.4264776513
 10
-11.4515430078
 20
1.4157387363
 10
-11.5187179826
 20
1.409782659
 10
-11.5873497349
 20
1.4086231428
 10
-11.6564110046
 20
1.4121823116
 10
-11.7254060827
 20
1.4202284682
 10
-11.7944210143
 20
1.4325716955
 10
-11.8632645752
 20
1.4490093152
 10
-11.9314867796
 20
1.4692449106
 10
-11.9991992718
 20
1.4931270409
 10
-12.0670824772
 20
1.520806254
 10
-12.1349810624
 20
1.5521971242
 10
-12.2027805601
 20
1.5872247365
 10
-12.2712361251
 20
1.6263315746
 10
-12.3403910152
 20
1.6696841434
 10
-12.4099038365
 20
1.7172124525
 10
-12.4799311243
 20
1.7691821607
 10
-12.5506451066
 20
1.8259441289
 10
-12.6214865721
 20
1.8872786935
 10
-12.691520803
 20
1.9525065814
 10
-12.7606217027
 20
2.021575901
 10
-12.8285514663
 20
2.0943160323
 10
-12.8942969208
 20
2.1696108357
 10
-12.9576185602
 20
2.2470432922
 10
-13.0185513
 20
2.3265108202
 10
-13.0766086561
 20
2.4071944593
 10
-13.1314589305
 20
2.4883510825
 10
-13.1834037019
 20
2.570139737
 10
-13.2329077272
 20
2.6531148137
 10
-13.2798646397
 20
2.7369823804
 10
-13.3242821567
 20
2.8216361358
 10
-13.3666595817
 20
2.9080216857
 10
-13.4069024254
 20
2.9960643873
 10
-13.4448470814
 20
3.0855322171
 10
-13.4807215072
 20
3.177197466
 10
-13.5145012086
 20
3.2714388557
 10
-13.5457539045
 20
3.3675380547
 10
-13.574076188
 20
3.4646113724
 10
-13.5993640973
 20
3.5626184671
 10
-13.6214170225
 20
3.6611426703
 10
-13.63988758
 20
3.7587292866
 10
-13.6547601904
 20
3.8550487872
 10
-13.6660653467
 20
3.9499945671
 10
-13.6737643715
 20
4.0425030056
 10
-13.6779673016
 20
4.1320076138
 10
-13.6788446368
 20
4.218792801
 10
-13.6765126847
 20
4.3031086513
 10
-13.6710824565
 20
4.3846654047
 10
-13.6626541477
 20
4.4635225647
 10
-13.6511958044
 20
4.5403897704
 10
-13.6367240254
 20
4.6151024016
 10
-13.6192594905
 20
4.6875114703
 10
-13.5985914728
 20
4.758212417
 10
-13.5745680875
 20
4.8272070902
 10
-13.5472048191
 20
4.8939930872
 10
-13.5164575045
 20
4.9583216585
  0
LWPOLYLINE
  5
3CB
100
AcDbEntity
  8
RACCORDO
100
AcDbPolyline
 62
7
  6
CONTINUOUS
 90
10
 70
0
 10
-1.4395923431
 20
7.5246108174
 10
-1.5100952055
 20
7.4914798722
 10
-1.588836876
 20
7.460970201
 10
-1.6729737758
 20
7.4335170314
 10
-1.7596042458
 20
7.4085163365
 10
-1.8460305345
 20
7.3866284601
 10
-1.9298407322
 20
7.3698500417
 10
-2.0087321865
 20
7.3584701326
 10
-2.0805715005
 20
7.3510535018
 10
-2.1436003659
 20
7.34679383
  0
LWPOLYLINE
  5
3CC
100
AcDbEntity
  8
DRAFT
100
AcDbPolyline
 62
7
  6
CONTINUOUS
 90
3
 70
0
 10
-10.932988478
 20
-7.1637839254
 10
-10.6637185965
 20
-7.1410568903
 10
-10.6519067162
 20
-7.1372642684
  0
LINE
  5
3CD
100
AcDbEntity
  8
ASSI
100
AcDbLine
 62
7
  6
CONTINUOUS
 10
-10.6796114965
 20
-7.0573947883
 11
-10.5765077679
 21
-7.0516751252
  0
LWPOLYLINE
  5
3CE
100
AcDbEntity
  8
0
100
AcDbPolyline
 62
7
  6
CONTINUOUS
 90
4
 70
0
 10
-10.7709461277
 20
-7.1501071556
 10
-10.941185456
 20
-7.1465446226
 10
-11.2326474834
 20
-7.0822889112
 10
-11.5433520539
 20
-6.959474121
  0
LWPOLYLINE
  5
3CF
100
AcDbEntity
  8
RACCORDO
100
AcDbPolyline
 62
250
  6
CONTINUOUS
 90
10
 70
0
 10
-13.9144761616
 20
5.0653638205
 10
-13.8787598718
 20
5.0306532822
 10
-13.8378014406
 20
5.0001258735
 10
-13.7928179342
 20
4.974688708
 10
-13.7451460231
 20
4.955097644
 10
-13.6962022635
 20
4.9419348255
 10
-13.6474410052
 20
4.9355913828
 10
-13.6003111748
 20
4.9362558107
 10
-13.5562132217
 20
4.9439083667
 10
-13.5164575045
 20
4.9583216585
  0
LWPOLYLINE
  5
3D0
100
AcDbEntity
  8
RACCORDO
100
AcDbPolyline
 62
250
  6
CONTINUOUS
 90
26
 70
0
 10
-10.7292094102
 20
7.3646475084
 10
-10.6644032352
 20
7.2417266251
 10
-10.6051809289
 20
7.1207375237
 10
-10.5501045358
 20
7.0006471313
 10
-10.4989187328
 20
6.8813725262
 10
-10.451878843
 20
6.7629966301
 10
-10.4083128805
 20
6.6447351352
 10
-10.3680298592
 20
6.5263680989
 10
-10.3312207653
 20
6.4081154638
 10
-10.297786571
 20
6.2898527499
 10
-10.2676611377
 20
6.1715859921
 10
-10.240910604
 20
6.0533091554
 10
-10.2176343583
 20
5.9348796548
 10
-10.1977533826
 20
5.8161466599
 10
-10.1813466949
 20
5.697261001
 10
-10.1687507378
 20
5.5785325835
 10
-10.1599715554
 20
5.4595607581
 10
-10.1550031035
 20
5.3407461741
 10
-10.1541636918
 20
5.2236006843
 10
-10.1576153201
 20
5.108033545
 10
-10.1651959885
 20
4.9941355
 10
-10.1767380069
 20
4.8836906322
 10
-10.1923594524
 20
4.7770186488
 10
-10.2119422477
 20
4.6737998427
 10
-10.2349644715
 20
4.5748591765
 10
-10.2613199115
 20
4.480618856
  0
LWPOLYLINE
  5
3D1
100
AcDbEntity
  8
RACCORDO
100
AcDbPolyline
 62
250
  6
CONTINUOUS
 90
6
 70
0
 10
-5.7933080883
 20
12.0522814167
 10
-5.791731376
 20
12.0345410414
 10
-5.7795576322
 20
12.0002927423
 10
-5.755699884
 20
11.9676171002
 10
-5.7208798363
 20
11.9375025518
 10
-5.6761508007
 20
11.9108600552
  0
LWPOLYLINE
  5
3D2
100
AcDbEntity
  8
RACCORDO
100
AcDbPolyline
 62
7
  6
CONTINUOUS
 90
13
 70
0
 10
-6.377255937
 20
20.4087858669
 10
-6.3766072418
 20
20.3989896996
 10
-6.3746775652
 20
20.3891935323
 10
-6.3714915211
 20
20.3795223186
 10
-6.3670330155
 20
20.369977659
 10
-6.3613181423
 20
20.3605579529
 10
-6.3544197967
 20
20.351383352
 10
-6.3463228187
 20
20.3424569961
 10
-6.3370423682
 20
20.3337757452
 10
-6.3266968207
 20
20.3254503319
 10
-6.3153256346
 20
20.317517667
 10
-6.3028893515
 20
20.3099408396
 10
-6.2893879713
 20
20.3027198497
  0
LWPOLYLINE
  5
3D3
100
AcDbEntity
  8
RACCORDO
100
AcDbPolyline
 62
250
  6
CONTINUOUS
 90
13
 70
0
 10
-5.295343055
 20
6.910332479
 10
-5.3049248456
 20
7.0847265063
 10
-5.3324996777
 20
7.2651088237
 10
-5.3775444592
 20
7.4483677713
 10
-5.4392177282
 20
7.6313002559
 10
-5.5164306905
 20
7.8108384207
 10
-5.6079143846
 20
7.9840881206
 10
-5.7121376321
 20
8.1481362308
 10
-5.8272964005
 20
8.3001302799
 10
-5.9514347322
 20
8.4374847097
 10
-6.0824375705
 20
8.5578517625
 10
-6.2180640295
 20
8.6591656517
 10
-6.3559967649
 20
8.7396895254
  0
LINE
  5
3D4
100
AcDbEntity
  8
RACCORDO
100
AcDbLine
 62
250
  6
CONTINUOUS
 10
-5.6761508007
 20
-22.7301560961
 11
-5.6761508007
 21
-22.4669783867
  0
LINE
  5
3D5
100
AcDbEntity
  8
RACCORDO
100
AcDbLine
 62
250
  6
CONTINUOUS
 10
-5.6761508007
 20
10.991930827
 11
-5.6761508007
 21
11.9108600552
  0
LINE
  5
3D6
100
AcDbEntity
  8
RACCORDO
100
AcDbLine
 62
7
  6
CONTINUOUS
 10
-5.3286528322
 20
-22.9039050804
 11
-5.3286528322
 21
-22.4217509103
  0
LINE
  5
3D7
100
AcDbEntity
  8
RACCORDO
100
AcDbLine
 62
7
  6
CONTINUOUS
 10
-5.3286528322
 20
11.2549569008
 11
-5.3286528322
 21
11.737111071
  0
LINE
  5
3D8
100
AcDbEntity
  8
RACCORDO
100
AcDbLine
 62
250
  6
CONTINUOUS
 10
-5.295343055
 20
-21.6533749614
 11
-5.295343055
 21
6.910332479
  0
LINE
  5
3D9
100
AcDbEntity
  8
0
100
AcDbLine
 62
7
  6
CONTINUOUS
 10
-4.436928903
 20
21.5276839586
 11
-4.436928903
 21
21.8832751879
  0
LWPOLYLINE
  5
3DA
100
AcDbEntity
  8
RACCORDO
100
AcDbPolyline
 62
7
  6
CONTINUOUS
 90
4
 70
0
 10
-7.1079013354
 20
-22.4204444094
 10
-7.1096991937
 20
-22.4387909657
 10
-7.0989599342
 20
-22.5256653216
 10
-7.0965650067
 20
-22.5348143469
  0
LWPOLYLINE
  5
3DB
100
AcDbEntity
  8
RACCORDO
100
AcDbPolyline
 62
7
  6
CONTINUOUS
 90
18
 70
0
 10
-10.8531530088
 20
-14.6177242126
 10
-10.7738149997
 20
-14.4203589974
 10
-10.7222796747
 20
-14.1880347825
 10
-10.7017310828
 20
-13.9259487402
 10
-10.7141793703
 20
-13.6412370774
 10
-10.7602266803
 20
-13.3413327534
 10
-10.8397123822
 20
-13.0324588252
 10
-10.9518156753
 20
-12.7213391306
 10
-11.0940490275
 20
-12.4168183521
 10
-11.2626026435
 20
-12.1274651835
 10
-11.4528438797
 20
-11.8607849801
 10
-11.6599656959
 20
-11.6227721555
 10
-11.8782849159
 20
-11.4190328421
 10
-12.099401635
 20
-11.2555170752
 10
-12.3189548833
 20
-11.1332181447
 10
-12.5353934788
 20
-11.0523066554
 10
-12.7424678639
 20
-11.0155365642
 10
-12.9320302408
 20
-11.0240775294
  0
LWPOLYLINE
  5
3DC
100
AcDbEntity
  8
RACCORDO
100
AcDbPolyline
 62
7
  6
CONTINUOUS
 90
30
 70
0
 10
-13.3764164229
 20
-13.7486966209
 10
-13.453704873
 20
-13.8973375263
 10
-13.5182655447
 20
-14.0615236852
 10
-13.5684508431
 20
-14.2373667315
 10
-13.6038633026
 20
-14.4250108331
 10
-13.6249003888
 20
-14.6243118221
 10
-13.6311069033
 20
-14.8309488295
 10
-13.6221529531
 20
-15.0451627425
 10
-13.5983684313
 20
-15.266712674
 10
-13.5602878191
 20
-15.4905550932
 10
-13.5076051757
 20
-15.7166682343
 10
-13.4406264419
 20
-15.9450738631
 10
-13.3608039219
 20
-16.1707937459
 10
-13.2678273116
 20
-16.3938349982
 10
-13.162006915
 20
-16.6141905045
 10
-13.0457259482
 20
-16.8268606849
 10
-12.9187691117
 20
-17.0316325344
 10
-12.781351705
 20
-17.2287190579
 10
-12.6365028428
 20
-17.4137596897
 10
-12.4840317069
 20
-17.5865126406
 10
-12.3241291155
 20
-17.7472196998
 10
-12.1603966389
 20
-17.8922456691
 10
-11.9927586845
 20
-18.0212210931
 10
-11.8212908449
 20
-18.1345154272
 10
-11.6498214672
 20
-18.2296018397
 10
-11.478353272
 20
-18.3060720565
 10
-11.3068835388
 20
-18.3643343517
 10
-11.139232453
 20
-18.403086716
 10
-10.975474245
 20
-18.4218883129
 10
-10.8155346845
 20
-18.4211799788
  0
LINE
  5
3DD
100
AcDbEntity
  8
ASSI
100
AcDbLine
 62
7
  6
CONTINUOUS
 10
-12.8239781175
 20
-11.0192091086
 11
-12.8459934321
 21
-11.0556465605
  0
LINE
  5
3DE
100
AcDbEntity
  8
RACCORDO
100
AcDbLine
 62
7
  6
CONTINUOUS
 10
-12.9188500528
 20
-11.1428874734
 11
-12.8357345184
 21
-11.0197388076
  0
LWPOLYLINE
  5
3DF
100
AcDbEntity
  8
RACCORDO
100
AcDbPolyline
 62
7
  6
CONTINUOUS
 90
7
 70
0
 10
11.2680654065
 20
19.4244611357
 10
11.2549063153
 20
19.409155197
 10
11.2397553162
 20
19.394377002
 10
11.2226124091
 20
19.3801265507
 10
11.203477594
 20
19.3664038431
 10
11.1823508709
 20
19.3532088792
 10
11.1592322399
 20
19.340541659
  0
LINE
  5
3E0
100
AcDbEntity
  8
0
100
AcDbLine
 62
7
  6
CONTINUOUS
 10
8.780241624
 20
16.2553845507
 11
8.5570633614
 21
16.0392025657
  0
LINE
  5
3E1
100
AcDbEntity
  8
0
100
AcDbLine
 62
7
  6
CONTINUOUS
 10
10.347329105
 20
16.3203689476
 11
10.5858694072
 21
16.5514313971
  0
LWPOLYLINE
  5
3E2
100
AcDbEntity
  8
RACCORDO
100
AcDbPolyline
 62
250
  6
CONTINUOUS
 90
18
 70
0
 10
-11.2473315524
 20
-7.7830977671
 10
-11.3262282519
 20
-7.7972750892
 10
-11.4068650677
 20
-7.8067259336
 10
-11.4892864782
 20
-7.8112826335
 10
-11.5739153557
 20
-7.8107288321
 10
-11.6609040635
 20
-7.8051669913
 10
-11.7501002383
 20
-7.7944946492
 10
-11.8414696617
 20
-7.7781880638
 10
-11.9353584584
 20
-7.7561243241
 10
-12.0314205038
 20
-7.728426341
 10
-12.1285832056
 20
-7.6949391052
 10
-12.2270710868
 20
-7.6553574937
 10
-12.3266596245
 20
-7.6099866294
 10
-12.4256026579
 20
-7.5595868726
 10
-12.5237764268
 20
-7.5039755464
 10
-12.6213046914
 20
-7.4433353277
 10
-12.716812572
 20
-7.3789746073
 10
-12.809874251
 20
-7.3111090863
  0
LWPOLYLINE
  5
3E3
100
AcDbEntity
  8
RACCORDO
100
AcDbPolyline
 62
250
  6
CONTINUOUS
 90
7
 70
0
 10
-12.8715800429
 20
-2.017588175
 10
-12.7776912462
 20
-2.0396519148
 10
-12.6816292008
 20
-2.0673498978
 10
-12.5844664989
 20
-2.1008371336
 10
-12.4859786177
 20
-2.1404187452
 10
-12.3863900801
 20
-2.1857896095
 10
-12.2874470467
 20
-2.2361893663
  0
LWPOLYLINE
  5
3E4
100
AcDbEntity
  8
RACCORDO
100
AcDbPolyline
 62
7
  6
CONTINUOUS
 90
8
 70
0
 10
-13.3181575601
 20
16.3606100394
 10
-13.2835267266
 20
16.2810719755
 10
-13.2435556503
 20
16.2033002244
 10
-13.1975054958
 20
16.129161404
 10
-13.1436192161
 20
16.0604718567
 10
-13.0830312569
 20
15.9994132294
 10
-13.0190066514
 20
15.9493910507
 10
-12.9775946648
 20
15.9253598819
  0
LWPOLYLINE
  5
3E5
100
AcDbEntity
  8
RACCORDO
100
AcDbPolyline
 62
7
  6
CONTINUOUS
 90
16
 70
0
 10
-9.5211733311
 20
17.9740670373
 10
-9.5196143396
 20
17.9684925143
 10
-9.5184089296
 20
17.9619540236
 10
-9.5178265629
 20
17.9552965627
 10
-9.5178752205
 20
17.9485186075
 10
-9.5185469213
 20
17.9416216821
 10
-9.5198330975
 20
17.9346937591
 10
-9.5217416206
 20
17.9277344414
 10
-9.5242646191
 20
17.9207441263
 10
-9.5273699113
 20
17.9138119774
 10
-9.5310649563
 20
17.90693874
 10
-9.535342295
 20
17.900123669
 10
-9.5401473686
 20
17.8934536929
 10
-9.5454619906
 20
17.886957788
 10
-9.5513043473
 20
17.880606978
 10
-9.5576744389
 20
17.8744012629
  0
LINE
  5
3E6
100
AcDbEntity
  8
RACCORDO
100
AcDbLine
 62
7
  6
CONTINUOUS
 10
-3.5176900875
 20
7.8005486995
 11
-3.5176900875
 21
-20.7783054537
  0
LINE
  5
3E7
100
AcDbEntity
  8
RACCORDO
100
AcDbLine
 62
7
  6
CONTINUOUS
 10
-3.2601477673
 20
14.9185317134
 11
-3.2601477673
 21
14.3047892184
  0
LINE
  5
3E8
100
AcDbEntity
  8
RACCORDO
100
AcDbLine
 62
7
  6
CONTINUOUS
 10
-3.2601477673
 20
-24.0526114569
 11
-3.2601477673
 21
-23.4388689619
  0
LINE
  5
3E9
100
AcDbEntity
  8
RACCORDO
100
AcDbLine
 62
250
  6
CONTINUOUS
 10
-3.1781181341
 20
18.4222131711
 11
-3.1781181341
 21
18.7470849311
  0
LINE
  5
3EA
100
AcDbEntity
  8
RACCORDO
100
AcDbLine
 62
250
  6
CONTINUOUS
 10
-2.7538540654
 20
18.716936702
 11
-2.7538540654
 21
18.7470849311
  0
LINE
  5
3EB
100
AcDbEntity
  8
RACCORDO
100
AcDbLine
 62
250
  6
CONTINUOUS
 10
-2.1436003659
 20
-21.6986403058
 11
-2.1436003659
 21
7.34679383
  0
LINE
  5
3EC
100
AcDbEntity
  8
RACCORDO
100
AcDbLine
 62
250
  6
CONTINUOUS
 10
-0.0733100853
 20
17.0528058971
 11
-0.0358149387
 21
17.3372581037
  0
LINE
  5
3ED
100
AcDbEntity
  8
RACCORDO
100
AcDbLine
 62
7
  6
CONTINUOUS
 10
0.1876393085
 20
17.1850777767
 11
0.2413713339
 21
17.5927444272
  0
LWPOLYLINE
  5
3EE
100
AcDbEntity
  8
RACCORDO
100
AcDbPolyline
 62
7
  6
CONTINUOUS
 90
8
 70
0
 10
-10.854596425
 20
-14.6205997471
 10
-10.863640766
 20
-14.6396991413
 10
-10.8905996319
 20
-14.7225749338
 10
-10.9013510347
 20
-14.8156213333
 10
-10.8939382607
 20
-14.9141298861
 10
-10.8698936482
 20
-15.0086248124
 10
-10.8318276437
 20
-15.0966732758
 10
-10.8226904633
 20
-15.1134001182
  0
LINE
  5
3EF
100
AcDbEntity
  8
RACCORDO
100
AcDbLine
 62
250
  6
CONTINUOUS
 10
-10.7636763434
 20
-14.7874622696
 11
-10.798573543
 21
-14.8611400593
  0
LWPOLYLINE
  5
3F0
100
AcDbEntity
  8
RACCORDO
100
AcDbPolyline
 62
250
  6
CONTINUOUS
 90
16
 70
0
 10
-10.798573543
 20
-14.8611400593
 10
-10.8024073916
 20
-14.8690398987
 10
-10.8056948038
 20
-14.8778462626
 10
-10.8084357797
 20
-14.887559151
 10
-10.8107186811
 20
-14.8981601846
 10
-10.8124551461
 20
-14.9096677427
 10
-10.8133800895
 20
-14.9221369635
 10
-10.8135069125
 20
-14.9356210528
 10
-10.812822214
 20
-14.9500668047
 10
-10.811020704
 20
-14.9653697394
 10
-10.8080879691
 20
-14.9816198894
 10
-10.8040384228
 20
-14.9987272221
 10
-10.7986100159
 20
-15.0163171603
 10
-10.7917153986
 20
-15.0342648449
 10
-10.7834419208
 20
-15.0526951349
 10
-10.7737895823
 20
-15.0716080304
  0
LINE
  5
3F1
100
AcDbEntity
  8
RACCORDO
100
AcDbLine
 62
250
  6
CONTINUOUS
 10
-10.85459653
 20
-14.6205996947
 11
-10.8531530088
 21
-14.6177242126
  0
LINE
  5
3F2
100
AcDbEntity
  8
RACCORDO
100
AcDbLine
 62
7
  6
CONTINUOUS
 10
-13.3312471367
 20
-13.7167487082
 11
-13.1897704829
 21
-13.5063487757
  0
LINE
  5
3F3
100
AcDbEntity
  8
RACCORDO
100
AcDbLine
 62
7
  6
CONTINUOUS
 10
-13.0377312788
 20
-13.3687837581
 11
-13.0118315084
 21
-13.3316886735
  0
LINE
  5
3F4
100
AcDbEntity
  8
RACCORDO
100
AcDbLine
 62
7
  6
CONTINUOUS
 10
11.2795016817
 20
19.4391135242
 11
11.2680654065
 21
19.4244611357
  0
LINE
  5
3F5
100
AcDbEntity
  8
RACCORDO
100
AcDbLine
 62
250
  6
CONTINUOUS
 10
-10.5389735241
 20
-7.3308546334
 11
-10.6034940488
 21
-7.4072948425
  0
LWPOLYLINE
  5
3F6
100
AcDbEntity
  8
RACCORDO
100
AcDbPolyline
 62
250
  6
CONTINUOUS
 90
3
 70
0
 10
-10.6034940488
 20
-7.4072948425
 10
-10.6696556852
 20
-7.475843337
 10
-10.7370655195
 20
-7.536434018
  0
LINE
  5
3F7
100
AcDbEntity
  8
RACCORDO
100
AcDbLine
 62
7
  6
CONTINUOUS
 10
-13.1959441291
 20
-2.2011587216
 11
-13.3860080418
 21
-2.2657319932
  0
LINE
  5
3F8
100
AcDbEntity
  8
RACCORDO
100
AcDbLine
 62
250
  6
CONTINUOUS
 10
-9.5634530666
 20
18.0198705101
 11
-9.5282331728
 21
17.9122062049
  0
LINE
  5
3F9
100
AcDbEntity
  8
0
100
AcDbLine
 62
250
  6
CONTINUOUS
 10
-6.5505406827
 20
14.9852897404
 11
-6.5021807922
 21
14.7308213699
  0
LINE
  5
3FA
100
AcDbEntity
  8
0
100
AcDbLine
 62
250
  6
CONTINUOUS
 10
-5.4997042458
 20
15.7842696431
 11
-5.4825552029
 21
15.6940318668
  0
LINE
  5
3FB
100
AcDbEntity
  8
RACCORDO
100
AcDbLine
 62
250
  6
CONTINUOUS
 10
-1.4395923431
 20
-21.8795291271
 11
-1.4395923431
 21
7.5246108174
  0
LINE
  5
3FC
100
AcDbEntity
  8
DRAFT
100
AcDbLine
 62
7
  6
CONTINUOUS
 10
-0.3357095721
 20
14.1903869092
 11
-0.3357095721
 21
14.8522207065
  0
LINE
  5
3FD
100
AcDbEntity
  8
RACCORDO
100
AcDbLine
 62
7
  6
CONTINUOUS
 10
0.2272484502
 20
17.2874324404
 11
0.2272494269
 21
17.2051556345
  0
LINE
  5
3FE
100
AcDbEntity
  8
RACCORDO
100
AcDbLine
 62
7
  6
CONTINUOUS
 10
0.2275170629
 20
17.3204213342
 11
0.2272521763
 21
17.2874305773
  0
LWPOLYLINE
  5
3FF
100
AcDbEntity
  8
RACCORDO
100
AcDbPolyline
 62
250
  6
CONTINUOUS
 90
8
 70
0
 10
-10.362867485
 20
-18.2998021198
 10
-10.4030307919
 20
-18.3792314196
 10
-10.4470136531
 20
-18.4554111238
 10
-10.4945262264
 20
-18.5283142651
 10
-10.5458583542
 20
-18.5979678108
 10
-10.6021854834
 20
-18.6644307033
 10
-10.6635348092
 20
-18.728176078
 10
-10.7298791365
 20
-18.7887307995
  0
LWPOLYLINE
  5
400
100
AcDbEntity
  8
RACCORDO
100
AcDbPolyline
 62
7
  6
CONTINUOUS
 90
3
 70
0
 10
-13.1847545846
 20
-13.5006428143
 10
-13.2869493929
 20
-13.6168970908
 10
-13.3764164229
 20
-13.7486966209
  0
LWPOLYLINE
  5
401
100
AcDbEntity
  8
RACCORDO
100
AcDbPolyline
 62
7
  6
CONTINUOUS
 90
3
 70
0
 10
-12.8313897961
 20
-11.013301422
 10
-12.8872536845
 20
-11.0691604438
 10
-12.9967569266
 20
-11.2321421761
  0
LINE
  5
402
100
AcDbEntity
  8
RACCORDO
100
AcDbLine
 62
7
  6
CONTINUOUS
 10
-12.9706922088
 20
-13.2861135451
 11
-13.001848145
 21
-13.3171344623
  0
LWPOLYLINE
  5
403
100
AcDbEntity
  8
RACCORDO
100
AcDbPolyline
 62
250
  6
CONTINUOUS
 90
8
 70
0
 10
-10.7370655195
 20
-7.536434018
 10
-10.8061164656
 20
-7.5891329844
 10
-10.8764331719
 20
-7.6356459036
 10
-10.9478140554
 20
-7.6762062451
 10
-11.0204606992
 20
-7.7105805395
 10
-11.0946025009
 20
-7.7397740452
 10
-11.1702194477
 20
-7.7640263004
 10
-11.2473315524
 20
-7.7830977671
  0
LWPOLYLINE
  5
404
100
AcDbEntity
  8
RACCORDO
100
AcDbPolyline
 62
7
  6
CONTINUOUS
 90
5
 70
0
 10
-10.8684898655
 20
-7.3007683471
 10
-10.7406844071
 20
-7.2183935054
 10
-10.6264665852
 20
-7.1140158781
 10
-10.526283009
 20
-6.9890025191
 10
-10.4411855103
 20
-6.846079073
  0
LINE
  5
405
100
AcDbEntity
  8
RACCORDO
100
AcDbLine
 62
250
  6
CONTINUOUS
 10
-13.3868214527
 20
-1.9985011497
 11
-13.3061846369
 21
-1.9890503052
  0
LWPOLYLINE
  5
406
100
AcDbEntity
  8
RACCORDO
100
AcDbPolyline
 62
250
  6
CONTINUOUS
 90
6
 70
0
 10
-13.3061846369
 20
-1.9890503052
 10
-13.2237632263
 20
-1.9844936054
 10
-13.1391343489
 20
-1.9850474067
 10
-13.052145641
 20
-1.9906092475
 10
-12.9629494663
 20
-2.0012815896
 10
-12.8715800429
 20
-2.017588175
  0
LWPOLYLINE
  5
407
100
AcDbEntity
  8
RACCORDO
100
AcDbPolyline
 62
7
  6
CONTINUOUS
 90
16
 70
0
 10
-11.1251889591
 20
1.6927458014
 10
-11.3342705065
 20
1.7444100633
 10
-11.5433520539
 20
1.8306837274
 10
-11.7524336013
 20
1.9534916107
 10
-11.9615151488
 20
2.1109088962
 10
-12.1593619228
 20
2.2944309714
 10
-12.3453255993
 20
2.5054593199
 10
-12.5200545024
 20
2.7425924582
 10
-12.6742588309
 20
2.9931213227
 10
-12.8068167292
 20
3.2577538141
 10
-12.9188500528
 20
3.5357820318
 10
-13.0044345672
 20
3.81237321
 10
-13.0619814516
 20
4.0877395898
 10
-13.0930795268
 20
4.3616689302
 10
-13.096571021
 20
4.6186917416
 10
-13.0720700101
 20
4.8536515276
  0
LWPOLYLINE
  5
408
100
AcDbEntity
  8
RACCORDO
100
AcDbPolyline
 62
7
  6
CONTINUOUS
 90
4
 70
0
 10
-6.3714915211
 20
20.0331121571
 10
-6.3746775652
 20
20.0427833708
 10
-6.3766072418
 20
20.0525795381
 10
-6.377255937
 20
20.0623757054
  0
LINE
  5
409
100
AcDbEntity
  8
0
100
AcDbLine
 62
250
  6
CONTINUOUS
 10
-5.4955444616
 20
15.7877624134
 11
-5.4659071103
 21
15.6971634793
  0
LINE
  5
40A
100
AcDbEntity
  8
RACCORDO
100
AcDbLine
 62
250
  6
CONTINUOUS
 10
-5.456455108
 20
15.8237915975
 11
-5.4224068651
 21
15.7197089321
  0
LINE
  5
40B
100
AcDbEntity
  8
RACCORDO
100
AcDbLine
 62
250
  6
CONTINUOUS
 10
-5.2501017013
 20
15.8631948275
 11
-5.2375569874
 21
15.8248466736
  0
LINE
  5
40C
100
AcDbEntity
  8
RACCORDO
100
AcDbLine
 62
250
  6
CONTINUOUS
 10
-6.4990958238
 20
20.2914131008
 11
-6.4070112439
 21
20.0099181482
  0
LWPOLYLINE
  5
40D
100
AcDbEntity
  8
RACCORDO
100
AcDbPolyline
 62
7
  6
CONTINUOUS
 90
16
 70
0
 10
-6.5720980395
 20
20.0920815521
 10
-6.5752160224
 20
20.103230598
 10
-6.5776268424
 20
20.1163075794
 10
-6.5787915758
 20
20.1296225013
 10
-6.5786942606
 20
20.1431784117
 10
-6.577350859
 20
20.1569722625
 10
-6.5747785065
 20
20.1708281085
 10
-6.5709614604
 20
20.1847467438
 10
-6.5659154635
 20
20.1987273741
 10
-6.5597048791
 20
20.2125916718
 10
-6.552314789
 20
20.2263381466
 10
-6.5437601115
 20
20.2399682887
 10
-6.5341499645
 20
20.2533082409
 10
-6.5235207205
 20
20.2663000507
 10
-6.5118360069
 20
20.2790016707
 10
-6.4990958238
 20
20.2914131008
  0
LINE
  5
40E
100
AcDbEntity
  8
SMUSSO
100
AcDbLine
 62
7
  6
CONTINUOUS
 10
2.9014491486
 20
-22.238751945
 11
2.915653328
 21
-22.430492713
  0
LINE
  5
40F
100
AcDbEntity
  8
SMUSSO
100
AcDbLine
 62
7
  6
CONTINUOUS
 10
3.1832155592
 20
-22.0676771048
 11
3.1974197386
 21
-22.2594178727
  0
LWPOLYLINE
  5
410
100
AcDbEntity
  8
RACCORDO
100
AcDbPolyline
 62
250
  6
CONTINUOUS
 90
7
 70
0
 10
0.7371854823
 20
17.8826824418
 10
0.7391935734
 20
17.8546019155
 10
0.7451607781
 20
17.8293270564
 10
0.7549175757
 20
17.8075755797
 10
0.7681868468
 20
17.7899651119
 10
0.7845917131
 20
17.7769957033
 10
0.7891641195
 20
17.7745076816
  0
LWPOLYLINE
  5
411
100
AcDbEntity
  8
0
100
AcDbPolyline
 62
7
  6
CONTINUOUS
 90
25
 70
0
 10
2.915653328
 20
-22.430492713
 10
2.9169387737
 20
-22.4656465456
 10
2.9158685054
 20
-22.501508359
 10
2.912442523
 20
-22.5380781532
 10
2.9066051863
 20
-22.5756156585
 10
2.8984121357
 20
-22.6138611445
 10
2.8880302914
 20
-22.6520354199
 10
2.8754147555
 20
-22.6901370238
 10
2.8606104259
 20
-22.728167417
 10
2.8439189177
 20
-22.7653517903
 10
2.8253015195
 20
-22.8016727894
 10
2.8047969427
 20
-22.8371477685
 10
2.7828229354
 20
-22.871053981
 10
2.7593493559
 20
-22.9033592471
 10
2.734406346
 20
-22.9340957466
 10
2.7085020803
 20
-22.9626372717
 10
2.6816168407
 20
-22.9889387975
 10
2.6537703453
 20
-23.0130453489
 10
2.6255299224
 20
-23.0344657931
 10
2.5968874915
 20
-23.0531450306
 10
2.5678511332
 20
-23.0691381608
 10
2.5390124174
 20
-23.0821193488
 10
2.5105685342
 20
-23.0919799832
 10
2.4823222934
 20
-23.0988286755
 10
2.4542736952
 20
-23.1026654257
  0
LINE
  5
412
100
AcDbEntity
  8
RACCORDO
100
AcDbLine
 62
250
  6
CONTINUOUS
 10
0.7372157415
 20
17.8826673122
 11
0.7371977249
 21
18.0497542947
  0
LWPOLYLINE
  5
413
100
AcDbEntity
  8
0
100
AcDbPolyline
 62
7
  6
CONTINUOUS
 90
13
 70
0
 10
2.915653328
 20
19.4216132802
 10
2.9169387737
 20
19.4580525585
 10
2.9158685054
 20
19.4928441036
 10
2.912442523
 20
19.5259879153
 10
2.9066051864
 20
19.557688084
 10
2.8984121357
 20
19.5877405194
 10
2.8880302914
 20
19.6155329505
 10
2.8754147555
 20
19.6410190185
 10
2.860610426
 20
19.6642450821
 10
2.8439189177
 20
19.6847379471
 10
2.8253015195
 20
19.7024415481
 10
2.8047969427
 20
19.7174119504
 10
2.7887306437
 20
19.7265177808
  0
LINE
  5
414
100
AcDbEntity
  8
SMUSSO
100
AcDbLine
 62
7
  6
CONTINUOUS
 10
2.9014491486
 20
19.2156683328
 11
2.915653328
 21
19.4216132802
  0
LINE
  5
415
100
AcDbEntity
  8
SMUSSO
100
AcDbLine
 62
7
  6
CONTINUOUS
 10
3.1832155592
 20
19.3263599032
 11
3.1974197386
 21
19.5323048505
  0
LWPOLYLINE
  5
416
100
AcDbEntity
  8
RACCORDO
100
AcDbPolyline
 62
250
  6
CONTINUOUS
 90
9
 70
0
 10
15.4054106033
 20
18.0489482353
 10
15.4374118497
 20
18.0923011446
 10
15.4694850636
 20
18.1277410634
 10
15.5011088373
 20
18.1551461693
 10
15.5316413991
 20
18.1746064286
 10
15.5607188133
 20
18.1859397406
 10
15.5883221429
 20
18.1888935615
 10
15.6141310184
 20
18.183746778
 10
15.6234881292
 20
18.17970924
  0
LINE
  5
417
100
AcDbEntity
  8
RACCORDO
100
AcDbLine
 62
7
  6
CONTINUOUS
 10
-13.069831998
 20
-13.3999337912
 11
-13.0377312788
 21
-13.3687837581
  0
LINE
  5
418
100
AcDbEntity
  8
RACCORDO
100
AcDbLine
 62
7
  6
CONTINUOUS
 10
-13.069831998
 20
-13.3999337912
 11
-13.1847545846
 21
-13.5006428143
  0
LWPOLYLINE
  5
419
100
AcDbEntity
  8
RACCORDO
100
AcDbPolyline
 62
250
  6
CONTINUOUS
 90
16
 70
0
 10
-13.5784174063
 20
-13.6415156313
 10
-13.5637626298
 20
-13.6290442429
 10
-13.5496065081
 20
-13.614348054
 10
-13.5361410213
 20
-13.5972859156
 10
-13.5235943885
 20
-13.5777739539
 10
-13.5121561984
 20
-13.5556731936
 10
-13.5020080436
 20
-13.5307568454
 10
-13.4934164768
 20
-13.5029280613
 10
-13.4866688399
 20
-13.4721566265
 10
-13.4820469291
 20
-13.4383193979
 10
-13.4798669191
 20
-13.4014074363
 10
-13.4804516819
 20
-13.3615678417
 10
-13.4841129517
 20
-13.3189889454
 10
-13.4911384439
 20
-13.2739345587
 10
-13.5017836797
 20
-13.2267501504
 10
-13.5162673582
 20
-13.177878621
  0
LWPOLYLINE
  5
41A
100
AcDbEntity
  8
RACCORDO
100
AcDbPolyline
 62
250
  6
CONTINUOUS
 90
16
 70
0
 10
-13.9392601223
 20
-13.4888727604
 10
-13.9331987472
 20
-13.4839386322
 10
-13.927504534
 20
-13.4780160176
 10
-13.9221774827
 20
-13.4711049167
 10
-13.9171269043
 20
-13.4632580419
 10
-13.9124434878
 20
-13.4544226808
 10
-13.9083993007
 20
-13.4444406959
 10
-13.9049672331
 20
-13.4332733225
 10
-13.9021743949
 20
-13.4209593252
 10
-13.9003741838
 20
-13.4074568614
 10
-13.8995602771
 20
-13.3926857555
 10
-13.8997389974
 20
-13.3767261829
 10
-13.9012827095
 20
-13.3597768277
 10
-13.9043155351
 20
-13.3419039178
 10
-13.9087133524
 20
-13.3230412252
 10
-13.9144761616
 20
-13.30318875
  0
LWPOLYLINE
  5
41B
100
AcDbEntity
  8
RACCORDO
100
AcDbPolyline
 62
7
  6
CONTINUOUS
 90
26
 70
0
 10
17.0405114754
 20
10.6609351382
 10
17.0698361755
 20
10.6804184512
 10
17.1756426056
 20
10.7674222531
 10
17.2738358287
 20
10.8661411681
 10
17.364229132
 20
10.9766921489
 10
17.4464172631
 20
11.0991577412
 10
17.5195152111
 20
11.2328647598
 10
17.582751007
 20
11.3768491128
 10
17.6358038072
 20
11.5307856519
 10
17.6782626944
 20
11.6940254321
 10
17.7096298467
 20
11.8648235157
 10
17.7298245866
 20
12.0422976437
 10
17.7388355746
 20
12.2258737091
 10
17.7366724009
 20
12.4139485545
 10
17.7235029748
 20
12.6054532267
 10
17.6995036662
 20
12.7997344547
 10
17.664932383
 20
12.9956336608
 10
17.6200922241
 20
13.192149292
 10
17.565272617
 20
13.3884924081
 10
17.5008145776
 20
13.5837542584
 10
17.4271152362
 20
13.7769752436
 10
17.3445485947
 20
13.9673520832
 10
17.2534513037
 20
14.1541914022
 10
17.1542182075
 20
14.3366928105
 10
17.0473331449
 20
14.5139510172
 10
17.0405114754
 20
14.5241898395
  0
LWPOLYLINE
  5
41C
100
AcDbEntity
  8
RACCORDO
100
AcDbPolyline
 62
250
  6
CONTINUOUS
 90
4
 70
0
 10
-10.8684898417
 20
-7.3007683345
 10
-10.8751905157
 20
-7.30427506
 10
-10.9406818278
 20
-7.3354447175
 10
-11.007677151
 20
-7.3618901893
  0
LINE
  5
41D
100
AcDbEntity
  8
RACCORDO
100
AcDbLine
 62
250
  6
CONTINUOUS
 10
17.4430560592
 20
6.2550978112
 11
17.0405114754
 21
6.05543273
  0
LINE
  5
41E
100
AcDbEntity
  8
RACCORDO
100
AcDbLine
 62
7
  6
CONTINUOUS
 10
-10.9607115627
 20
1.6808371454
 11
-11.1251889591
 21
1.6927458014
  0
LINE
  5
41F
100
AcDbEntity
  8
RACCORDO
100
AcDbLine
 62
250
  6
CONTINUOUS
 10
-12.3549215647
 20
9.0561652124
 11
-12.1949397774
 21
8.9688295629
  0
LWPOLYLINE
  5
420
100
AcDbEntity
  8
RACCORDO
100
AcDbPolyline
 62
250
  6
CONTINUOUS
 90
7
 70
0
 10
-17.3000951628
 20
11.855750756
 10
-17.4295808754
 20
11.929585285
 10
-17.5391449489
 20
12.0116632858
 10
-17.6265758919
 20
12.1006688059
 10
-17.690238278
 20
12.1955750529
 10
-17.7281741483
 20
12.2943533627
 10
-17.7394346813
 20
12.3855988474
  0
LWPOLYLINE
  5
421
100
AcDbEntity
  8
RACCORDO
100
AcDbPolyline
 62
250
  6
CONTINUOUS
 90
14
 70
0
 10
-12.1949397774
 20
8.9688295629
 10
-12.0394301227
 20
8.8713423546
 10
-11.8895896773
 20
8.7630721728
 10
-11.7442213646
 20
8.6446504322
 10
-11.607065622
 20
8.5223030276
 10
-11.4795732218
 20
8.3970755356
 10
-11.3602933917
 20
8.2679223797
 10
-11.2486142527
 20
8.137932724
 10
-11.1446177991
 20
8.0074681091
 10
-11.0482220365
 20
7.8761669945
 10
-10.9585691026
 20
7.7460339229
 10
-10.8757593631
 20
7.6174824954
 10
-10.7996924524
 20
7.4900991109
 10
-10.7292094102
 20
7.3646475084
  0
LINE
  5
422
100
AcDbEntity
  8
RACCORDO
100
AcDbLine
 62
250
  6
CONTINUOUS
 10
-2.1436003659
 20
7.34679383
 11
-4.0343099265
 21
10.607785448
  0
LINE
  5
423
100
AcDbEntity
  8
SMUSSO
100
AcDbLine
 62
7
  6
CONTINUOUS
 10
-2.8298453986
 20
15.1283331206
 11
-2.7377608187
 21
14.8468381681
  0
LWPOLYLINE
  5
424
100
AcDbEntity
  8
0
100
AcDbPolyline
 62
7
  6
CONTINUOUS
 90
25
 70
0
 10
3.1974197386
 20
-22.2594178727
 10
3.1997467672
 20
-22.3230564807
 10
3.1978092719
 20
-22.3879767386
 10
3.1916072525
 20
-22.4541786465
 10
3.1810399843
 20
-22.5221323916
 10
3.1662081922
 20
-22.5913677867
 10
3.1474140504
 20
-22.6604742698
 10
3.1245762803
 20
-22.7294491966
 10
3.0977761606
 20
-22.7982952113
 10
3.0675597015
 20
-22.8656096852
 10
3.0338568243
 20
-22.9313612021
 10
2.9967376077
 20
-22.9955811782
 10
2.9569582971
 20
-23.0569612326
 10
2.9144643266
 20
-23.115443111
 10
2.8693102622
 20
-23.1710850677
 10
2.8224160465
 20
-23.2227534859
 10
2.7737459843
 20
-23.2703668573
 10
2.723335771
 20
-23.31400669
 10
2.6722124349
 20
-23.3527838914
 10
2.6203613481
 20
-23.3865987155
 10
2.5677971387
 20
-23.4155509083
 10
2.5155907194
 20
-23.4390506145
 10
2.4640990612
 20
-23.4569012157
 10
2.4129651932
 20
-23.4692993302
 10
2.3621891153
 20
-23.4762449582
  0
LINE
  5
425
100
AcDbEntity
  8
RACCORDO
100
AcDbLine
 62
7
  6
CONTINUOUS
 10
3.1998243338
 20
8.5259672888
 11
3.1998243338
 21
-18.3217435276
  0
LINE
  5
426
100
AcDbEntity
  8
DRAFT
100
AcDbLine
 62
7
  6
CONTINUOUS
 10
3.1998243338
 20
9.8245437449
 11
3.1998243338
 21
-19.6203199838
  0
LWPOLYLINE
  5
427
100
AcDbEntity
  8
0
100
AcDbPolyline
 62
7
  6
CONTINUOUS
 90
13
 70
0
 10
3.1974197386
 20
19.5323048505
 10
3.1997467672
 20
19.5982704871
 10
3.1978092719
 20
19.6612532497
 10
3.1916072525
 20
19.7212531382
 10
3.1810399843
 20
19.7786396152
 10
3.1662081922
 20
19.8330432181
 10
3.1474140504
 20
19.8833555593
 10
3.1245762803
 20
19.9294927161
 10
3.0977761606
 20
19.9715386112
 10
3.0675597015
 20
20.0086366259
 10
3.0338568243
 20
20.0406852657
 10
2.9967376077
 20
20.0677860251
 10
2.9676529582
 20
20.0842702127
  0
LINE
  5
428
100
AcDbEntity
  8
SMUSSO
100
AcDbLine
 62
7
  6
CONTINUOUS
 10
-2.8298453986
 20
-23.88271128
 11
-2.7377608187
 21
-23.5091317476
  0
LINE
  5
429
100
AcDbEntity
  8
RACCORDO
100
AcDbLine
 62
250
  6
CONTINUOUS
 10
17.6551557848
 20
5.8892798972
 11
17.0405114754
 21
5.5844117885
  0
LWPOLYLINE
  5
42A
100
AcDbEntity
  8
RACCORDO
100
AcDbPolyline
 62
250
  6
CONTINUOUS
 90
17
 70
0
 10
-11.007677151
 20
-7.3618901893
 10
-11.0760971911
 20
-7.3837160623
 10
-11.1456829528
 20
-7.4009705483
 10
-11.2169900913
 20
-7.4138557879
 10
-11.289913405
 20
-7.4223439723
 10
-11.3643212598
 20
-7.4264111646
 10
-11.4408170146
 20
-7.4260184743
 10
-11.5194535832
 20
-7.4210180092
 10
-11.5999857619
 20
-7.411278528
 10
-11.6826063934
 20
-7.3966170854
 10
-11.76748053
 20
-7.3767956081
 10
-11.8542038381
 20
-7.3516989294
 10
-11.9420944536
 20
-7.321381942
 10
-12.0311613313
 20
-7.2857290026
 10
-12.1210599636
 20
-7.2447651577
 10
-12.2105492481
 20
-7.1990450766
 10
-12.2993551398
 20
-7.148793231
  0
LINE
  5
42B
100
AcDbEntity
  8
RACCORDO
100
AcDbLine
 62
7
  6
CONTINUOUS
 10
-11.0457308418
 20
1.6697282435
 11
-10.9602649766
 21
1.6813656619
  0
LWPOLYLINE
  5
42C
100
AcDbEntity
  8
RACCORDO
100
AcDbPolyline
 62
250
  6
CONTINUOUS
 90
5
 70
0
 10
-10.798573543
 20
3.5074125112
 10
-10.8279864236
 20
3.5052665433
 10
-10.8502218526
 20
3.5063360671
 10
-10.8646191154
 20
3.5105892998
 10
-10.8704628976
 20
3.5168774921
  0
LWPOLYLINE
  5
42D
100
AcDbEntity
  8
RACCORDO
100
AcDbPolyline
 62
250
  6
CONTINUOUS
 90
13
 70
0
 10
-7.4129545417
 20
6.9121804455
 10
-7.2652880462
 20
6.847438572
 10
-7.1011337655
 20
6.7926567863
 10
-6.9231231965
 20
6.7489410592
 10
-6.7333091044
 20
6.7171093024
 10
-6.5357491991
 20
6.6981409448
 10
-6.3366886908
 20
6.692551122
 10
-6.1407231776
 20
6.7000084
 10
-5.9501226412
 20
6.7199702283
 10
-5.7676051045
 20
6.7518336056
 10
-5.5959129084
 20
6.794844157
 10
-5.4377406362
 20
6.848037842
 10
-5.2953430551
 20
6.9103326131
  0
LINE
  5
42E
100
AcDbEntity
  8
RACCORDO
100
AcDbLine
 62
250
  6
CONTINUOUS
 10
-7.4129545417
 20
6.9121804455
 11
-17.3000951628
 21
11.855750756
  0
LWPOLYLINE
  5
42F
100
AcDbEntity
  8
RACCORDO
100
AcDbPolyline
 62
250
  6
CONTINUOUS
 90
7
 70
0
 10
-11.1059187586
 20
14.4403870261
 10
-11.1257122418
 20
14.4574099578
 10
-11.1459944523
 20
14.4736366139
 10
-11.1664196234
 20
14.4887903757
 10
-11.1866395562
 20
14.5026129182
 10
-11.2063095551
 20
14.5148686139
 10
-11.2250943039
 20
14.5253485487
  0
LINE
  5
430
100
AcDbEntity
  8
RACCORDO
100
AcDbLine
 62
250
  6
CONTINUOUS
 10
-1.4395923431
 20
7.5246108174
 11
-3.5374007989
 21
11.1427951927
  0
LINE
  5
431
100
AcDbEntity
  8
RACCORDO
100
AcDbLine
 62
7
  6
CONTINUOUS
 10
5.2717780582
 20
17.6448696272
 11
5.2748500092
 21
16.9814998545
  0
LINE
  5
432
100
AcDbEntity
  8
RACCORDO
100
AcDbLine
 62
250
  6
CONTINUOUS
 10
5.2840656281
 20
16.283447593
 11
5.2840656281
 21
15.5233617429
  0
LINE
  5
433
100
AcDbEntity
  8
RACCORDO
100
AcDbLine
 62
7
  6
CONTINUOUS
 10
5.570815179
 20
16.6286240843
 11
5.570815179
 21
15.8790945159
  0
LWPOLYLINE
  5
434
100
AcDbEntity
  8
RACCORDO
100
AcDbPolyline
 62
250
  6
CONTINUOUS
 90
13
 70
0
 10
6.5102892906
 20
16.8495323243
 10
6.5153358483
 20
16.9279040958
 10
6.5317929095
 20
17.0126222994
 10
6.5596025324
 20
17.0964688459
 10
6.5986188432
 20
17.1790369377
 10
6.6486796195
 20
17.2600052838
 10
6.7096386788
 20
17.3391450466
 10
6.7813818844
 20
17.4162145228
 10
6.8635473831
 20
17.4907452345
 10
6.9554793372
 20
17.5622013483
 10
7.0565914549
 20
17.6302258671
 10
7.166485865
 20
17.6946110228
 10
7.2846341452
 20
17.7550991656
  0
LWPOLYLINE
  5
435
100
AcDbEntity
  8
0
100
AcDbPolyline
 62
7
  6
CONTINUOUS
 90
15
 70
0
 10
7.6640173643
 20
17.5039155547
 10
7.6650816039
 20
17.5141215641
 10
7.6666811046
 20
17.5238872657
 10
7.6688158665
 20
17.5332126593
 10
7.6714997552
 20
17.5421344668
 10
7.6747189051
 20
17.5506159665
 10
7.6784317191
 20
17.5585469928
 10
7.6826439849
 20
17.5659160678
 10
7.6873499148
 20
17.5727346696
 10
7.6924905483
 20
17.5789270662
 10
7.6980705851
 20
17.584484856
 10
7.7040853255
 20
17.5894164408
 10
7.7104617108
 20
17.5936712934
 10
7.7172024075
 20
17.5972411701
 10
7.7248583537
 20
17.6003262503
  0
LINE
  5
436
100
AcDbEntity
  8
0
100
AcDbLine
 62
7
  6
CONTINUOUS
 10
10.7941511638
 20
17.1505470222
 11
10.5926518058
 21
16.5548225964
  0
LWPOLYLINE
  5
437
100
AcDbEntity
  8
RACCORDO
100
AcDbPolyline
 62
250
  6
CONTINUOUS
 90
5
 70
0
 10
-10.7737895823
 20
-15.0716080306
 10
-10.7968176684
 20
-15.0879726042
 10
-10.812857402
 20
-15.1006988124
 10
-10.8214323603
 20
-15.1094085952
 10
-10.8226937471
 20
-15.1133936372
  0
LINE
  5
438
100
AcDbEntity
  8
RACCORDO
100
AcDbLine
 62
250
  6
CONTINUOUS
 10
-13.0119580142
 20
-11.5998087505
 11
-12.5523386065
 21
-11.3699990466
  0
LINE
  5
439
100
AcDbEntity
  8
RACCORDO
100
AcDbLine
 62
250
  6
CONTINUOUS
 10
-12.4272355304
 20
-11.6902889078
 11
-11.993021965
 21
-11.4731821251
  0
LINE
  5
43A
100
AcDbEntity
  8
RACCORDO
100
AcDbLine
 62
7
  6
CONTINUOUS
 10
-12.4272355304
 20
-12.3847096952
 11
-12.0734871307
 21
-12.2078354954
  0
LINE
  5
43B
100
AcDbEntity
  8
RACCORDO
100
AcDbLine
 62
250
  6
CONTINUOUS
 10
-13.0463142623
 20
-12.9115917708
 11
-12.9402482451
 21
-12.8585587623
  0
LINE
  5
43C
100
AcDbEntity
  8
RACCORDO
100
AcDbLine
 62
250
  6
CONTINUOUS
 10
-13.2904400901
 20
-13.0690202892
 11
-13.5162632966
 21
-13.1778767667
  0
LINE
  5
43D
100
AcDbEntity
  8
RACCORDO
100
AcDbLine
 62
250
  6
CONTINUOUS
 10
-13.0077442513
 20
-12.9336911757
 11
-13.2904400901
 21
-13.0690202892
  0
LINE
  5
43E
100
AcDbEntity
  8
RACCORDO
100
AcDbLine
 62
250
  6
CONTINUOUS
 10
-6.3559967649
 20
8.7396895254
 11
-16.243137386
 21
13.6832598359
  0
LWPOLYLINE
  5
43F
100
AcDbEntity
  8
RACCORDO
100
AcDbPolyline
 62
250
  6
CONTINUOUS
 90
3
 70
0
 10
-10.0770541434
 20
18.0197030484
 10
-10.0990025465
 20
18.0438266976
 10
-10.1223947402
 20
18.0637525263
  0
LWPOLYLINE
  5
440
100
AcDbEntity
  8
RACCORDO
100
AcDbPolyline
 62
7
  6
CONTINUOUS
 90
6
 70
0
 10
5.5694097073
 20
16.628631785
 10
5.5655125118
 20
16.6742114384
 10
5.5359818638
 20
16.7582299105
 10
5.4773812001
 20
16.8366636574
 10
5.3898553149
 20
16.9118689163
 10
5.2734042081
 20
16.9838456874
  0
LINE
  5
441
100
AcDbEntity
  8
RACCORDO
100
AcDbLine
 62
250
  6
CONTINUOUS
 10
7.2846341415
 20
17.7551001261
 11
7.2845109181
 21
17.4032568006
  0
LINE
  5
442
100
AcDbEntity
  8
0
100
AcDbLine
 62
7
  6
CONTINUOUS
 10
7.6138998501
 20
16.8385554377
 11
7.6640173643
 21
17.5039155547
  0
LINE
  5
443
100
AcDbEntity
  8
0
100
AcDbLine
 62
250
  6
CONTINUOUS
 10
2.3621891153
 20
-23.4762449582
 11
2.4542736952
 21
-23.1026654257
  0
LWPOLYLINE
  5
444
100
AcDbEntity
  8
RACCORDO
100
AcDbPolyline
 62
7
  6
CONTINUOUS
 90
3
 70
0
 10
-13.3181575601
 20
-19.4144869978
 10
-13.2835269745
 20
-19.3861284676
 10
-13.245013189
 20
-19.3518884826
  0
LWPOLYLINE
  5
445
100
AcDbEntity
  8
RACCORDO
100
AcDbPolyline
 62
250
  6
CONTINUOUS
 90
19
 70
0
 10
-10.7298791365
 20
-18.7887307995
 10
-10.8023123276
 20
-18.8447344035
 10
-10.881006143
 20
-18.896507228
 10
-10.9657888222
 20
-18.943728935
 10
-11.0572389457
 20
-18.9840780459
 10
-11.1552895651
 20
-19.017709806
 10
-11.2600076289
 20
-19.04446897
 10
-11.3721725628
 20
-19.0615683234
 10
-11.4921219308
 20
-19.0692247243
 10
-11.6195181689
 20
-19.0672213146
 10
-11.7541280103
 20
-19.0521203054
 10
-11.8973250555
 20
-19.0232376368
 10
-12.0477357041
 20
-18.9812573688
 10
-12.2010058878
 20
-18.9247938914
 10
-12.3581281399
 20
-18.8519414512
 10
-12.5181099272
 20
-18.7646058017
 10
-12.6736195819
 20
-18.6671185935
 10
-12.8234600272
 20
-18.5588484117
 10
-12.96882834
 20
-18.4404266711
  0
LINE
  5
446
100
AcDbEntity
  8
RACCORDO
100
AcDbLine
 62
250
  6
CONTINUOUS
 10
17.0405114754
 20
0.9023703044
 11
17.6551557848
 21
1.2339850103
  0
LINE
  5
447
100
AcDbEntity
  8
RACCORDO
100
AcDbLine
 62
7
  6
CONTINUOUS
 10
17.0405114754
 20
0.7821213929
 11
17.5818009909
 21
1.0741595045
  0
LINE
  5
448
100
AcDbEntity
  8
RACCORDO
100
AcDbLine
 62
250
  6
CONTINUOUS
 10
-13.3618851204
 20
-14.3940751533
 11
-12.9022657126
 21
-14.1642654494
  0
LINE
  5
449
100
AcDbEntity
  8
0
100
AcDbLine
 62
7
  6
CONTINUOUS
 10
-12.2685278169
 20
-13.9885724906
 11
-12.4272355304
 21
-14.0679263473
  0
LINE
  5
44A
100
AcDbEntity
  8
RACCORDO
100
AcDbLine
 62
250
  6
CONTINUOUS
 10
-13.069831998
 20
-13.3999337912
 11
-13.5784174063
 21
-13.6415156313
  0
LINE
  5
44B
100
AcDbEntity
  8
RACCORDO
100
AcDbLine
 62
7
  6
CONTINUOUS
 10
-12.9320302408
 20
-11.0240775294
 11
-13.1001593575
 21
-11.0767046523
  0
LWPOLYLINE
  5
44C
100
AcDbEntity
  8
RACCORDO
100
AcDbPolyline
 62
7
  6
CONTINUOUS
 90
3
 70
0
 10
-12.6685243385
 20
9.0414596088
 10
-12.9277710189
 20
9.0791607339
 10
-13.1685581578
 20
9.0627645993
  0
LWPOLYLINE
  5
44D
100
AcDbEntity
  8
RACCORDO
100
AcDbPolyline
 62
250
  6
CONTINUOUS
 90
5
 70
0
 10
-12.9589216942
 20
9.2563440665
 10
-12.815724649
 20
9.227461398
 10
-12.6653140005
 20
9.1854811299
 10
-12.5120438168
 20
9.1290176525
 10
-12.3549215647
 20
9.0561652124
  0
LWPOLYLINE
  5
44E
100
AcDbEntity
  8
RACCORDO
100
AcDbPolyline
 62
250
  6
CONTINUOUS
 90
7
 70
0
 10
-16.243137386
 20
13.6832598359
 10
-16.3819731981
 20
13.741120236
 10
-16.5183607145
 20
13.7758133345
 10
-16.6499696259
 20
13.7867521566
 10
-16.7745489334
 20
13.7737565463
 10
-16.8899759137
 20
13.7370553716
 10
-16.9185819332
 20
13.7235259552
  0
LINE
  5
44F
100
AcDbEntity
  8
RACCORDO
100
AcDbLine
 62
7
  6
CONTINUOUS
 10
-14.4778516577
 20
14.5796596762
 11
-4.5783437973
 21
9.629905746
  0
LINE
  5
450
100
AcDbEntity
  8
RACCORDO
100
AcDbLine
 62
7
  6
CONTINUOUS
 10
-5.6761508007
 20
10.991930827
 11
-13.3800446543
 21
14.8438777538
  0
LINE
  5
451
100
AcDbEntity
  8
RACCORDO
100
AcDbLine
 62
250
  6
CONTINUOUS
 10
-4.0343099265
 20
10.607785448
 11
-5.3286528322
 21
11.2549569008
  0
LINE
  5
452
100
AcDbEntity
  8
RACCORDO
100
AcDbLine
 62
250
  6
CONTINUOUS
 10
-13.7275426229
 20
15.4544017962
 11
-15.0218855286
 21
16.101573249
  0
LINE
  5
453
100
AcDbEntity
  8
RACCORDO
100
AcDbLine
 62
250
  6
CONTINUOUS
 10
-12.5286764556
 20
14.991789534
 11
-11.3676855768
 21
14.4112940946
  0
LINE
  5
454
100
AcDbEntity
  8
RACCORDO
100
AcDbLine
 62
250
  6
CONTINUOUS
 10
-6.5534498526
 20
12.0041762325
 11
-5.7933080883
 21
11.6241053503
  0
LINE
  5
455
100
AcDbEntity
  8
RACCORDO
100
AcDbLine
 62
250
  6
CONTINUOUS
 10
-12.3892382965
 20
15.107420545
 11
-11.2250943039
 21
14.5253485487
  0
LINE
  5
456
100
AcDbEntity
  8
RACCORDO
100
AcDbLine
 62
250
  6
CONTINUOUS
 10
-6.4181348869
 20
12.1218688402
 11
-5.7933080883
 21
11.8094554409
  0
LINE
  5
457
100
AcDbEntity
  8
RACCORDO
100
AcDbLine
 62
250
  6
CONTINUOUS
 10
-13.7275426229
 20
15.9365559663
 11
-13.3800446543
 21
15.762806982
  0
LINE
  5
458
100
AcDbEntity
  8
RACCORDO
100
AcDbLine
 62
250
  6
CONTINUOUS
 10
-5.6761508007
 20
11.9108600552
 11
-5.3286528322
 21
11.737111071
  0
LINE
  5
459
100
AcDbEntity
  8
RACCORDO
100
AcDbLine
 62
7
  6
CONTINUOUS
 10
-6.1978268735
 20
12.5357830405
 11
-6.1899334755
 21
12.5315276574
  0
LINE
  5
45A
100
AcDbEntity
  8
RACCORDO
100
AcDbLine
 62
7
  6
CONTINUOUS
 10
-6.9632212272
 20
12.9800234371
 11
-6.1978219574
 21
12.535780579
  0
LINE
  5
45B
100
AcDbEntity
  8
RACCORDO
100
AcDbLine
 62
250
  6
CONTINUOUS
 10
-6.9632236792
 20
12.9800248624
 11
-6.9641379929
 21
12.9805608795
  0
LINE
  5
45C
100
AcDbEntity
  8
RACCORDO
100
AcDbLine
 62
250
  6
CONTINUOUS
 10
-7.0391426461
 20
13.2942984127
 11
-6.2770045536
 21
12.8400335362
  0
LWPOLYLINE
  5
45D
100
AcDbEntity
  8
RACCORDO
100
AcDbPolyline
 62
250
  6
CONTINUOUS
 90
12
 70
0
 10
-6.9641379929
 20
12.9805608795
 10
-6.9825824216
 20
12.9935036357
 10
-6.9988236094
 20
13.0090216606
 10
-7.0136085895
 20
13.027907819
 10
-7.0265765612
 20
13.0502415433
 10
-7.0373603368
 20
13.0759937117
 10
-7.0456363467
 20
13.105113531
 10
-7.0510878227
 20
13.1375031646
 10
-7.0534055243
 20
13.1729299826
 10
-7.0523270526
 20
13.2111090578
 10
-7.0476320849
 20
13.2517092012
 10
-7.0391423196
 20
13.2942982074
  0
LINE
  5
45E
100
AcDbEntity
  8
DRAFT
100
AcDbLine
 62
7
  6
CONTINUOUS
 10
3.1998243338
 20
9.8245437449
 11
1.0785039903
 21
13.483280128
  0
LINE
  5
45F
100
AcDbEntity
  8
0
100
AcDbLine
 62
7
  6
CONTINUOUS
 10
8.780241624
 20
16.2553845507
 11
8.780241624
 21
16.0174281397
  0
LINE
  5
460
100
AcDbEntity
  8
0
100
AcDbLine
 62
7
  6
CONTINUOUS
 10
9.6287697614
 20
16.6796486194
 11
9.6287697614
 21
16.0065859095
  0
LINE
  5
461
100
AcDbEntity
  8
DRAFT
100
AcDbLine
 62
7
  6
CONTINUOUS
 10
9.7197590944
 20
18.6081324016
 11
9.7197590944
 21
18.6160625417
  0
LINE
  5
462
100
AcDbEntity
  8
0
100
AcDbLine
 62
7
  6
CONTINUOUS
 10
10.0908946603
 20
16.0482423767
 11
10.0908946603
 21
16.7989187705
  0
LWPOLYLINE
  5
463
100
AcDbEntity
  8
RACCORDO
100
AcDbPolyline
 62
7
  6
CONTINUOUS
 90
6
 70
0
 10
11.3026070148
 20
19.4790976592
 10
11.302515522
 20
19.477743493
 10
11.3004767765
 20
19.4712541094
 10
11.2958634984
 20
19.4626308486
 10
11.2888207995
 20
19.4518588325
 10
11.2795016817
 20
19.4391135242
  0
LWPOLYLINE
  5
464
100
AcDbEntity
  8
RACCORDO
100
AcDbPolyline
 62
7
  6
CONTINUOUS
 90
5
 70
0
 10
-10.8684898938
 20
-18.5590986112
 10
-10.6903973911
 20
-18.4349246215
 10
-10.5387812358
 20
-18.2650942366
 10
-10.4161142842
 20
-18.0529833196
 10
-10.3255238268
 20
-17.8060200667
  0
LINE
  5
465
100
AcDbEntity
  8
RACCORDO
100
AcDbLine
 62
250
  6
CONTINUOUS
 10
12.0921918609
 20
-4.8210559819
 11
16.7598512758
 21
-2.3026138194
  0
LINE
  5
466
100
AcDbEntity
  8
RACCORDO
100
AcDbLine
 62
250
  6
CONTINUOUS
 10
11.872251357
 20
-4.9395860909
 11
12.0921918609
 21
-4.8210559819
  0
LINE
  5
467
100
AcDbEntity
  8
ASSI
100
AcDbLine
 62
7
  6
CONTINUOUS
 10
-12.4272355304
 20
-15.9047985743
 11
-11.8615501055
 21
-15.6219558619
  0
LINE
  5
468
100
AcDbEntity
  8
ASSI
100
AcDbLine
 62
7
  6
CONTINUOUS
 10
-10.5012651059
 20
-15.8063360322
 11
-11.8615501055
 21
-16.486478532
  0
LINE
  5
469
100
AcDbEntity
  8
ASSI
100
AcDbLine
 62
7
  6
CONTINUOUS
 10
-11.8615501055
 20
-16.625563342
 11
-12.0356825472
 21
-16.7126295629
  0
LWPOLYLINE
  5
46A
100
AcDbEntity
  8
RACCORDO
100
AcDbPolyline
 62
250
  6
CONTINUOUS
 90
4
 70
0
 10
-13.3408771418
 20
9.2657920846
 10
-13.2209277738
 20
9.2734484855
 10
-13.0935315357
 20
9.2714450758
 10
-12.9589216942
 20
9.2563440665
  0
LWPOLYLINE
  5
46B
100
AcDbEntity
  8
RACCORDO
100
AcDbPolyline
 62
7
  6
CONTINUOUS
 90
8
 70
0
 10
-11.7573826408
 20
15.3771277787
 10
-11.7456291599
 20
15.3724627024
 10
-11.7022800128
 20
15.3602435991
 10
-11.6570287571
 20
15.3550256487
 10
-11.6101011935
 20
15.3570737648
 10
-11.5621153669
 20
15.3667575224
 10
-11.5143176039
 20
15.3842480245
 10
-11.5063874686
 20
15.3879478191
  0
LINE
  5
46C
100
AcDbEntity
  8
RACCORDO
100
AcDbLine
 62
250
  6
CONTINUOUS
 10
-12.6557785784
 20
16.0294205486
 11
-11.8658694311
 21
15.7076603023
  0
LINE
  5
46D
100
AcDbEntity
  8
RACCORDO
100
AcDbLine
 62
7
  6
CONTINUOUS
 10
-12.5457631591
 20
15.7097924458
 11
-11.7568835648
 21
15.3769071506
  0
LINE
  5
46E
100
AcDbEntity
  8
RACCORDO
100
AcDbLine
 62
7
  6
CONTINUOUS
 10
-11.7573461129
 20
15.3771028792
 11
-11.7568797167
 21
15.3769055297
  0
LWPOLYLINE
  5
46F
100
AcDbEntity
  8
RACCORDO
100
AcDbPolyline
 62
250
  6
CONTINUOUS
 90
7
 70
0
 10
-6.4181348869
 20
12.1218688402
 10
-6.436196678
 20
12.1298121653
 10
-6.4527451288
 20
12.1356656764
 10
-6.4674981277
 20
12.1393295831
 10
-6.4802041706
 20
12.1407414224
 10
-6.4906466483
 20
12.1398771231
 10
-6.4986475394
 20
12.1367514165
  0
LINE
  5
470
100
AcDbEntity
  8
RACCORDO
100
AcDbLine
 62
7
  6
CONTINUOUS
 10
-12.5546811302
 20
15.7139014847
 11
-12.5457591741
 21
15.7097904509
  0
LINE
  5
471
100
AcDbEntity
  8
RACCORDO
100
AcDbLine
 62
250
  6
CONTINUOUS
 10
-3.5374007989
 20
11.1427951927
 11
-4.9751262491
 21
11.8616579177
  0
LINE
  5
472
100
AcDbEntity
  8
RACCORDO
100
AcDbLine
 62
250
  6
CONTINUOUS
 10
-13.710645678
 20
16.2294176322
 11
-14.8178584674
 21
16.7830240269
  0
LINE
  5
473
100
AcDbEntity
  8
RACCORDO
100
AcDbLine
 62
7
  6
CONTINUOUS
 10
-5.7683466186
 20
12.3207342289
 11
-6.1899276906
 21
12.5315247649
  0
LINE
  5
474
100
AcDbEntity
  8
RACCORDO
100
AcDbLine
 62
7
  6
CONTINUOUS
 10
-12.5546868625
 20
15.7139043509
 11
-12.9762674146
 21
15.9246946269
  0
LINE
  5
475
100
AcDbEntity
  8
0
100
AcDbLine
 62
7
  6
CONTINUOUS
 10
-10.996987517
 20
15.1176764303
 11
-7.0972917067
 21
13.1678285252
  0
LINE
  5
476
100
AcDbEntity
  8
RACCORDO
100
AcDbLine
 62
250
  6
CONTINUOUS
 10
-5.6146255718
 20
12.5088440453
 11
-6.2770045536
 21
12.8400335362
  0
LINE
  5
477
100
AcDbEntity
  8
RACCORDO
100
AcDbLine
 62
250
  6
CONTINUOUS
 10
-12.6557785784
 20
16.0294205486
 11
-13.3181575601
 21
16.3606100394
  0
LINE
  5
478
100
AcDbEntity
  8
RACCORDO
100
AcDbLine
 62
250
  6
CONTINUOUS
 10
-10.1223947402
 20
18.0637525263
 11
-10.1465199646
 21
18.0788750996
  0
LINE
  5
479
100
AcDbEntity
  8
0
100
AcDbLine
 62
250
  6
CONTINUOUS
 10
2.3621891153
 20
19.9139013127
 11
2.4542736952
 21
19.6324063602
  0
LWPOLYLINE
  5
47A
100
AcDbEntity
  8
RACCORDO
100
AcDbPolyline
 62
250
  6
CONTINUOUS
 90
19
 70
0
 10
11.159231762
 20
19.6580384373
 10
11.1553056232
 20
19.7289242527
 10
11.1444461307
 20
19.8008682752
 10
11.1266133272
 20
19.873414073
 10
11.1018173446
 20
19.9459751072
 10
11.0700783681
 20
20.0181489385
 10
11.0313690489
 20
20.0897200933
 10
10.9856654303
 20
20.160160349
 10
10.9331205815
 20
20.2288595732
 10
10.8739581265
 20
20.2954307585
 10
10.8082112497
 20
20.3592661103
 10
10.7361985738
 20
20.4196691515
 10
10.658632559
 20
20.4760928772
 10
10.5755400376
 20
20.5279406419
 10
10.4875602338
 20
20.574452466
 10
10.3964651756
 20
20.6149810121
 10
10.3032063689
 20
20.6490589977
 10
10.2078469372
 20
20.676260387
 10
10.1109129
 20
20.6961970869
  0
LINE
  5
47B
100
AcDbEntity
  8
RACCORDO
100
AcDbLine
 62
7
  6
CONTINUOUS
 10
11.3024135006
 20
19.8327034148
 11
11.3024116642
 21
19.8328263706
  0
LINE
  5
47C
100
AcDbEntity
  8
RACCORDO
100
AcDbLine
 62
7
  6
CONTINUOUS
 10
11.3026066206
 20
19.8180280652
 11
11.302504802
 21
19.83270483
  0
LINE
  5
47D
100
AcDbEntity
  8
0
100
AcDbLine
 62
7
  6
CONTINUOUS
 10
10.347329105
 20
16.3203689476
 11
10.347329105
 21
16.086563592
  0
LINE
  5
47E
100
AcDbEntity
  8
RACCORDO
100
AcDbLine
 62
250
  6
CONTINUOUS
 10
11.1592322399
 20
19.340541659
 11
11.159231762
 21
19.6580384373
  0
LINE
  5
47F
100
AcDbEntity
  8
RACCORDO
100
AcDbLine
 62
7
  6
CONTINUOUS
 10
11.3026070153
 20
19.4791563744
 11
11.3026070153
 21
19.818176894
  0
LINE
  5
480
100
AcDbEntity
  8
DRAFT
100
AcDbLine
 62
7
  6
CONTINUOUS
 10
12.1090164441
 20
17.2735037612
 11
12.1090164441
 21
18.1554574795
  0
LINE
  5
481
100
AcDbEntity
  8
RACCORDO
100
AcDbLine
 62
7
  6
CONTINUOUS
 10
10.7876337977
 20
-14.0320396759
 11
10.7877204921
 21
-7.4589041221
  0
LWPOLYLINE
  5
482
100
AcDbEntity
  8
RACCORDO
100
AcDbPolyline
 62
250
  6
CONTINUOUS
 90
75
 70
0
 10
10.5070998934
 20
-7.7719659385
 10
10.5075057053
 20
-7.7328876353
 10
10.5081909794
 20
-7.6939782224
 10
10.5091370315
 20
-7.6553709487
 10
10.5103625459
 20
-7.6169325653
 10
10.5119235751
 20
-7.5782633254
 10
10.5138128237
 20
-7.5393534374
 10
10.5160375872
 20
-7.500212693
 10
10.5186758036
 20
-7.4604707205
 10
10.5217131993
 20
-7.4201072851
 10
10.5251640479
 20
-7.3791426215
 10
10.5291491085
 20
-7.3372670629
 10
10.5336559704
 20
-7.2944599092
 10
10.5386970442
 20
-7.2507418604
 10
10.5444303216
 20
-7.2058653493
 10
10.550871784
 20
-7.1596739227
 10
10.5580054499
 20
-7.1123240338
 10
10.5659413668
 20
-7.0640374751
 10
10.5747176011
 20
-7.0146924283
 10
10.5842960864
 20
-6.9644107117
 10
10.5946726715
 20
-6.9137795722
 10
10.605876851
 20
-6.8628060502
 10
10.6178791302
 20
-6.8114831053
 10
10.6305868744
 20
-6.7603768636
 10
10.6439978289
 20
-6.7095892945
 10
10.6581142482
 20
-6.6590184286
 10
10.6728502609
 20
-6.6089244833
 10
10.6881907586
 20
-6.5593837951
 10
10.7041508496
 20
-6.5103200274
 10
10.7206899867
 20
-6.4617643881
 10
10.7378080648
 20
-6.4137182304
 10
10.7555051889
 20
-6.3661802011
 10
10.7737411275
 20
-6.3191774485
 10
10.7925166928
 20
-6.2727083457
 10
10.8118310724
 20
-6.2267745196
 10
10.8316415975
 20
-6.1814079994
 10
10.8519489989
 20
-6.1366078675
 10
10.8727525456
 20
-6.0923750414
 10
10.8940073757
 20
-6.048744303
 10
10.9157080728
 20
-6.0057251821
 10
10.9378600531
 20
-5.9633081489
 10
10.9604347035
 20
-5.9214993968
 10
10.9834234146
 20
-5.880309003
 10
11.0068347958
 20
-5.8397268903
 10
11.0306660609
 20
-5.7997290198
 10
11.0549184801
 20
-5.7603069352
 10
11.0795907832
 20
-5.7214690929
 10
11.1046763744
 20
-5.6832168239
 10
11.1302081509
 20
-5.645504995
 10
11.1561532154
 20
-5.6083787394
 10
11.1824062813
 20
-5.5719747875
 10
11.2089866864
 20
-5.5362826201
 10
11.2358750928
 20
-5.5013127565
 10
11.2629082002
 20
-5.4672334851
 10
11.2900684848
 20
-5.4340803175
 10
11.3173734703
 20
-5.4018177421
 10
11.3447124278
 20
-5.3705075131
 10
11.3720202755
 20
-5.3402163619
 10
11.3993620952
 20
-5.310877557
 10
11.4268224025
 20
-5.282352659
 10
11.4543841388
 20
-5.2546406423
 10
11.4820643628
 20
-5.2277425324
 10
11.5099987665
 20
-5.2015229658
 10
11.5382017589
 20
-5.1759445097
 10
11.5666589309
 20
-5.1510445969
 10
11.5954627473
 20
-5.1268001616
 10
11.6246267317
 20
-5.103192563
 10
11.6541373605
 20
-5.080240442
 10
11.684046527
 20
-5.0579766546
 10
11.7143612789
 20
-5.0363872846
 10
11.7450745686
 20
-5.0154862483
 10
11.7762171461
 20
-4.9953481504
 10
11.8077992618
 20
-4.9759978589
 10
11.8398106654
 20
-4.9574105058
 10
11.872251357
 20
-4.9395860909
  0
LWPOLYLINE
  5
483
100
AcDbEntity
  8
RACCORDO
100
AcDbPolyline
 62
7
  6
CONTINUOUS
 90
29
 70
0
 10
10.7875937942
 20
-7.4588332549
 10
10.7883684522
 20
-7.4026495826
 10
10.791354919
 20
-7.3279571509
 10
10.7964532315
 20
-7.2530431952
 10
10.8038845034
 20
-7.177705232
 10
10.8139833256
 20
-7.098586075
 10
10.8272112811
 20
-7.015696272
 10
10.8436628254
 20
-6.9301644823
 10
10.8634994384
 20
-6.8426415467
 10
10.886992863
 20
-6.7531541076
 10
10.9141347563
 20
-6.6627150525
 10
10.9444045697
 20
-6.5734904523
 10
10.9775567556
 20
-6.4861831311
 10
11.0134615631
 20
-6.4010664579
 10
11.05142769
 20
-6.3195512102
 10
11.0909242574
 20
-6.242342725
 10
11.1316557904
 20
-6.1695639486
 10
11.1731317106
 20
-6.1016461623
 10
11.2147742945
 20
-6.0390458162
 10
11.2560645434
 20
-5.9820223368
 10
11.2965222544
 20
-5.9307077079
 10
11.3356627883
 20
-5.8851920183
 10
11.3725737432
 20
-5.8459278162
 10
11.406196291
 20
-5.8133538436
 10
11.4353103406
 20
-5.7876820608
 10
11.4600427348
 20
-5.7680811481
 10
11.4790005751
 20
-5.7544575747
 10
11.4948556335
 20
-5.744582706
 10
11.5083664327
 20
-5.7371508917
  0
LWPOLYLINE
  5
484
100
AcDbEntity
  8
RACCORDO
100
AcDbPolyline
 62
250
  6
CONTINUOUS
 90
13
 70
0
 10
11.8722507565
 20
-4.9395858003
 10
11.8705115775
 20
-5.0344202854
 10
11.8627576345
 20
-5.1258042262
 10
11.8490332007
 20
-5.2132286068
 10
11.8294158616
 20
-5.296206089
 10
11.8040160537
 20
-5.3742754391
 10
11.7729759892
 20
-5.4470036971
 10
11.7364693788
 20
-5.513985927
 10
11.6947001529
 20
-5.5748494364
 10
11.647900576
 20
-5.6292567883
 10
11.5963317184
 20
-5.6769048881
 10
11.5402810713
 20
-5.7175284151
 10
11.5182628619
 20
-5.730850232
  0
LINE
  5
485
100
AcDbEntity
  8
RACCORDO
100
AcDbLine
 62
250
  6
CONTINUOUS
 10
11.3018617407
 20
19.8193506974
 11
11.3024135006
 21
19.8327034148
  0
LWPOLYLINE
  5
486
100
AcDbEntity
  8
RACCORDO
100
AcDbPolyline
 62
7
  6
CONTINUOUS
 90
5
 70
0
 10
8.4636403442
 20
-16.6112128274
 10
8.4576396244
 20
-16.6591686825
 10
8.4450216515
 20
-16.6999283322
 10
8.4262370509
 20
-16.7333002687
 10
8.4233657381
 20
-16.7370938549
  0
LINE
  5
487
100
AcDbEntity
  8
RACCORDO
100
AcDbLine
 62
250
  6
CONTINUOUS
 10
16.4257127061
 20
-3.0824681027
 11
16.3905962065
 21
-3.1030799512
  0
LWPOLYLINE
  5
488
100
AcDbEntity
  8
RACCORDO
100
AcDbPolyline
 62
7
  6
CONTINUOUS
 90
15
 70
0
 10
16.3897187879
 20
-3.1035479657
 10
16.4506392763
 20
-3.0683748114
 10
16.531732056
 20
-3.0135730607
 10
16.6079015023
 20
-2.9524549233
 10
16.6788353212
 20
-2.8853503631
 10
16.744587387
 20
-2.8121527531
 10
16.8046620544
 20
-2.7332798212
 10
16.8585682297
 20
-2.6492781221
 10
16.906243841
 20
-2.5600108583
 10
16.9472712662
 20
-2.4657969293
 10
16.9811925529
 20
-2.3672688596
 10
17.0078014657
 20
-2.2644646189
 10
17.0267654793
 20
-2.157545932
 10
17.0377096427
 20
-2.0470889758
 10
17.0405043476
 20
-1.9554752122
  0
LWPOLYLINE
  5
489
100
AcDbEntity
  8
RACCORDO
100
AcDbPolyline
 62
250
  6
CONTINUOUS
 90
10
 70
0
 10
10.5069879966
 20
-7.8112201321
 10
10.5641387034
 20
-7.7784905869
 10
10.6155242263
 20
-7.7434755506
 10
10.6607606586
 20
-7.7064329404
 10
10.6995097979
 20
-7.6676410816
 10
10.7314810635
 20
-7.6273808311
 10
10.7564340525
 20
-7.5859355198
 10
10.7741811688
 20
-7.5436113772
 10
10.7845882377
 20
-7.5007257642
 10
10.7875946495
 20
-7.4589050176
  0
LINE
  5
48A
100
AcDbEntity
  8
RACCORDO
100
AcDbLine
 62
7
  6
CONTINUOUS
 10
11.5182628619
 20
-5.730850232
 11
11.5080517351
 21
-5.7365766798
  0
LWPOLYLINE
  5
48B
100
AcDbEntity
  8
RACCORDO
100
AcDbPolyline
 62
250
  6
CONTINUOUS
 90
9
 70
0
 10
-11.6235250569
 20
-20.1626325486
 10
-11.6463897884
 20
-20.1754122486
 10
-11.6779865823
 20
-20.1884869897
 10
-11.7111451926
 20
-20.1979855204
 10
-11.744879385
 20
-20.2036253264
 10
-11.7781858058
 20
-20.2052386635
 10
-11.8100738242
 20
-20.2027775462
 10
-11.8395949971
 20
-20.1963151754
 10
-11.8658712783
 20
-20.1860437609
  0
LWPOLYLINE
  5
48C
100
AcDbEntity
  8
RACCORDO
100
AcDbPolyline
 62
7
  6
CONTINUOUS
 90
5
 70
0
 10
11.5182628619
 20
-5.730850232
 10
11.6595101007
 20
-5.6537945506
 10
11.8638230912
 20
-5.545582953
 10
12.0722220631
 20
-5.4334354497
 10
12.2857420766
 20
-5.317648978
  0
LINE
  5
48D
100
AcDbEntity
  8
RACCORDO
100
AcDbLine
 62
7
  6
CONTINUOUS
 10
12.2857420766
 20
-5.317648978
 11
16.3905962102
 21
-3.1030799492
  0
LINE
  5
48E
100
AcDbEntity
  8
RACCORDO
100
AcDbLine
 62
7
  6
CONTINUOUS
 10
16.3905962065
 20
-3.1030799512
 11
16.3897994312
 21
-3.1035090062
  0
LWPOLYLINE
  5
48F
100
AcDbEntity
  8
RACCORDO
100
AcDbPolyline
 62
250
  6
CONTINUOUS
 90
19
 70
0
 10
-10.8684898364
 20
-18.5590985809
 10
-10.891161555
 20
-18.5707196255
 10
-10.9737992002
 20
-18.6075033428
 10
-11.0623333924
 20
-18.638055338
 10
-11.156956115
 20
-18.6616521282
 10
-11.2583499712
 20
-18.6775630296
 10
-11.366646591
 20
-18.684796545
 10
-11.481642327
 20
-18.6823206629
 10
-11.6034912936
 20
-18.6690814807
 10
-11.7328756074
 20
-18.6437805512
 10
-11.8685386814
 20
-18.6054172669
 10
-12.007490547
 20
-18.5540149632
 10
-12.1498271698
 20
-18.4889355159
 10
-12.2941039832
 20
-18.4102303964
 10
-12.4348767107
 20
-18.3209762949
 10
-12.5707110138
 20
-18.2229124712
 10
-12.7018572016
 20
-18.1166786339
 10
-12.8256777184
 20
-18.0054135299
 10
-12.9410000464
 20
-17.8915780833
  0
LINE
  5
490
100
AcDbEntity
  8
0
100
AcDbLine
 62
250
  6
CONTINUOUS
 10
-6.5505406827
 20
14.9852897404
 11
-10.6517600136
 21
17.0358994058
  0
LINE
  5
491
100
AcDbEntity
  8
RACCORDO
100
AcDbLine
 62
250
  6
CONTINUOUS
 10
-3.24071257
 20
14.1300153803
 11
-2.5530946011
 21
13.7862063959
  0
LINE
  5
492
100
AcDbEntity
  8
RACCORDO
100
AcDbLine
 62
7
  6
CONTINUOUS
 10
-9.7172973155
 20
17.861339972
 11
-9.626096561
 21
17.8157395948
  0
LINE
  5
493
100
AcDbEntity
  8
RACCORDO
100
AcDbLine
 62
250
  6
CONTINUOUS
 10
-11.9752027384
 20
18.9932164865
 11
-10.1465413618
 21
18.078864768
  0
LINE
  5
494
100
AcDbEntity
  8
RACCORDO
100
AcDbLine
 62
250
  6
CONTINUOUS
 10
-5.3741415846
 20
15.6926859096
 11
-3.5454588107
 21
14.7783445227
  0
LINE
  5
495
100
AcDbEntity
  8
0
100
AcDbLine
 62
250
  6
CONTINUOUS
 10
-5.4997042458
 20
15.7842696431
 11
-9.6009235766
 21
17.8348793086
  0
LINE
  5
496
100
AcDbEntity
  8
0
100
AcDbLine
 62
250
  6
CONTINUOUS
 10
-5.4955444616
 20
15.7877624134
 11
-9.5967637925
 21
17.8383720789
  0
LINE
  5
497
100
AcDbEntity
  8
RACCORDO
100
AcDbLine
 62
7
  6
CONTINUOUS
 10
-9.7601286829
 20
18.1182083183
 11
-9.5634530666
 21
18.0198705101
  0
LINE
  5
498
100
AcDbEntity
  8
RACCORDO
100
AcDbLine
 62
7
  6
CONTINUOUS
 10
-5.1967767423
 20
15.836532348
 11
-5.2501017013
 21
15.8631948275
  0
LINE
  5
499
100
AcDbEntity
  8
RACCORDO
100
AcDbLine
 62
7
  6
CONTINUOUS
 10
-11.6948283569
 20
19.1358720082
 11
-9.8587402142
 21
18.2178279369
  0
LINE
  5
49A
100
AcDbEntity
  8
RACCORDO
100
AcDbLine
 62
7
  6
CONTINUOUS
 10
-5.09623591
 20
15.8365757848
 11
-3.2601477673
 21
14.9185317134
  0
LWPOLYLINE
  5
49B
100
AcDbEntity
  8
RACCORDO
100
AcDbPolyline
 62
7
  6
CONTINUOUS
 90
11
 70
0
 10
-9.5634530666
 20
18.0198705101
 10
-9.5566895652
 20
18.0161726577
 10
-9.5504344121
 20
18.01213187
 10
-9.5446876072
 20
18.007748147
 10
-9.5394289533
 20
18.002999842
 10
-9.5346786477
 20
17.9979086017
 10
-9.530497282
 20
17.9925393667
 10
-9.5268921445
 20
17.9868885759
 10
-9.523855947
 20
17.9809597905
 10
-9.5214274173
 20
17.9748286341
 10
-9.5211733311
 20
17.9740670373
  0
LWPOLYLINE
  5
49C
100
AcDbEntity
  8
RACCORDO
100
AcDbPolyline
 62
7
  6
CONTINUOUS
 90
13
 70
0
 10
11.3024116642
 20
19.8328263706
 10
11.2966858003
 20
19.9159068915
 10
11.2818894143
 20
19.9992414786
 10
11.258454662
 20
20.0797775553
 10
11.227457389
 20
20.1556170589
 10
11.1897037258
 20
20.2269600186
 10
11.1447384614
 20
20.2953912946
 10
11.0930337806
 20
20.3601338234
 10
11.035173122
 20
20.4205769649
 10
10.9699691286
 20
20.4778454007
 10
10.8976430781
 20
20.5313414331
 10
10.8186414415
 20
20.5803564173
 10
10.7636979549
 20
20.6096369865
  0
LINE
  5
49D
100
AcDbEntity
  8
DRAFT
100
AcDbLine
 62
7
  6
CONTINUOUS
 10
12.6754085344
 20
17.0041703496
 11
12.6754085344
 21
17.8722614343
  0
LINE
  5
49E
100
AcDbEntity
  8
0
100
AcDbLine
 62
7
  6
CONTINUOUS
 10
10.0908946603
 20
16.7989187705
 11
9.6287697614
 21
16.6796486194
  0
LWPOLYLINE
  5
49F
100
AcDbEntity
  8
RACCORDO
100
AcDbPolyline
 62
250
  6
CONTINUOUS
 90
4
 70
0
 10
-13.2011789965
 20
15.7111035334
 10
-13.2665303643
 20
15.723032397
 10
-13.3267595611
 20
15.7404424303
 10
-13.3800446543
 20
15.762806982
  0
LWPOLYLINE
  5
4A0
100
AcDbEntity
  8
RACCORDO
100
AcDbPolyline
 62
250
  6
CONTINUOUS
 90
6
 70
0
 10
-11.5321179165
 20
15.4864837366
 10
-11.518523312
 20
15.4835316887
 10
-11.5038771194
 20
15.4829748184
 10
-11.4882731155
 20
15.4850419946
 10
-11.4716175234
 20
15.4895043484
 10
-11.4539103433
 20
15.4963618799
  0
LWPOLYLINE
  5
4A1
100
AcDbEntity
  8
RACCORDO
100
AcDbPolyline
 62
250
  6
CONTINUOUS
 90
8
 70
0
 10
17.5734113942
 20
6.2618600042
 10
17.5649140048
 20
6.2656673508
 10
17.5465111996
 20
6.2712803262
 10
17.5270177098
 20
6.2738958134
 10
17.5066929214
 20
6.2735181835
 10
17.4857789374
 20
6.2702006983
 10
17.4644911482
 20
6.2640243848
 10
17.4430560592
 20
6.2550978112
  0
LINE
  5
4A2
100
AcDbEntity
  8
RACCORDO
100
AcDbLine
 62
250
  6
CONTINUOUS
 10
17.5735179234
 20
6.2618068101
 11
17.5734113942
 21
6.2618600042
  0
LINE
  5
4A3
100
AcDbEntity
  8
DRAFT
100
AcDbLine
 62
7
  6
CONTINUOUS
 10
1.0785039903
 20
13.483280128
 11
-0.3357095721
 21
14.1903869092
  0
LINE
  5
4A4
100
AcDbEntity
  8
RACCORDO
100
AcDbLine
 62
250
  6
CONTINUOUS
 10
17.0405114754
 20
6.4563701031
 11
17.4430560592
 21
6.2550978112
  0
LINE
  5
4A5
100
AcDbEntity
  8
RACCORDO
100
AcDbLine
 62
7
  6
CONTINUOUS
 10
17.0405114754
 20
6.5283100341
 11
17.5735179234
 21
6.2618068101
  0
LWPOLYLINE
  5
4A6
100
AcDbEntity
  8
RACCORDO
100
AcDbPolyline
 62
250
  6
CONTINUOUS
 90
31
 70
0
 10
17.4430560592
 20
6.2550978112
 10
17.4532969198
 20
6.2498522435
 10
17.4636968584
 20
6.2439141679
 10
17.4742290575
 20
6.2372648338
 10
17.4848849564
 20
6.229872795
 10
17.4956110101
 20
6.2217373529
 10
17.5063112521
 20
6.2129006285
 10
17.5169514383
 20
6.2033657102
 10
17.5274956864
 20
6.1931388325
 10
17.5378495051
 20
6.1822916708
 10
17.5479795441
 20
6.1708454594
 10
17.5578515873
 20
6.1588246962
 10
17.567379032
 20
6.1463277624
 10
17.57652572
 20
6.1334039535
 10
17.5852749792
 20
6.1200787689
 10
17.5935799246
 20
6.1064282212
 10
17.6014125756
 20
6.0925090176
 10
17.6087633442
 20
6.0783494811
 10
17.6156181414
 20
6.0639861955
 10
17.6219597218
 20
6.0494651271
 10
17.6277760094
 20
6.0348244965
 10
17.6330607397
 20
6.0200883844
 10
17.6378014543
 20
6.0052977656
 10
17.6419870629
 20
5.990494176
 10
17.6456120069
 20
5.9757018261
 10
17.6486666101
 20
5.9609615802
 10
17.6511427937
 20
5.9463140792
 10
17.6530358999
 20
5.9317832558
 10
17.6543394278
 20
5.9174043102
 10
17.655047269
 20
5.903223178
 10
17.6551557848
 20
5.8892798972
  0
LWPOLYLINE
  5
4A7
100
AcDbEntity
  8
RACCORDO
100
AcDbPolyline
 62
7
  6
CONTINUOUS
 90
15
 70
0
 10
8.2267402223
 20
13.8308325893
 10
8.2139784591
 20
13.85299621
 10
8.1070298811
 20
14.0296989081
 10
7.9937656247
 20
14.2013132374
 10
7.8745267899
 20
14.3672674184
 10
7.7497308216
 20
14.5268752839
 10
7.6197407007
 20
14.6796127559
 10
7.4849445167
 20
14.8249596598
 10
7.3457976334
 20
14.9623076394
 10
7.2026852489
 20
15.091164248
 10
7.0559564783
 20
15.2111128118
 10
6.905959151
 20
15.3217045403
 10
6.7530447997
 20
15.4224906833
 10
6.5976619996
 20
15.5130271805
 10
6.5044054108
 20
15.5617527007
  0
LWPOLYLINE
  5
4A8
100
AcDbEntity
  8
RACCORDO
100
AcDbPolyline
 62
7
  6
CONTINUOUS
 90
12
 70
0
 10
8.2266867636
 20
13.8308241743
 10
8.2392333126
 20
13.808382056
 10
8.2767996344
 20
13.7346983712
 10
8.3116808994
 20
13.6553052042
 10
8.3435558689
 20
13.5703565646
 10
8.372236953
 20
13.480753524
 10
8.3973538926
 20
13.3867184532
 10
8.4186316918
 20
13.2884732812
 10
8.4361209936
 20
13.1870742148
 10
8.449685105
 20
13.0831216498
 10
8.4589421589
 20
12.9767157153
 10
8.4636403587
 20
12.8682359671
  0
LINE
  5
4A9
100
AcDbEntity
  8
RACCORDO
100
AcDbLine
 62
250
  6
CONTINUOUS
 10
8.394346079
 20
-16.7242325052
 11
8.4636403442
 21
-16.6112128274
  0
LINE
  5
4AA
100
AcDbEntity
  8
RACCORDO
100
AcDbLine
 62
250
  6
CONTINUOUS
 10
-4.0343099265
 20
-23.0689223631
 11
-2.1436003659
 21
-21.6986403058
  0
LWPOLYLINE
  5
4AB
100
AcDbEntity
  8
RACCORDO
100
AcDbPolyline
 62
250
  6
CONTINUOUS
 90
8
 70
0
 10
-5.6898200071
 20
-22.4669783617
 10
-5.6079143846
 20
-22.4176289721
 10
-5.5164306905
 20
-22.3357733228
 10
-5.4392177282
 20
-22.2331806443
 10
-5.3775444592
 20
-22.1114812035
 10
-5.3324996777
 20
-21.9726612347
 10
-5.3049248456
 20
-21.8190920731
 10
-5.295343055
 20
-21.6533749614
  0
LINE
  5
4AC
100
AcDbEntity
  8
SMUSSO
100
AcDbLine
 62
7
  6
CONTINUOUS
 10
-3.2601477673
 20
14.7470882612
 11
-2.7377608187
 21
14.8468381681
  0
LINE
  5
4AD
100
AcDbEntity
  8
SMUSSO
100
AcDbLine
 62
7
  6
CONTINUOUS
 10
-3.4448717412
 20
15.0108937004
 11
-2.8298453986
 21
15.1283331206
  0
LWPOLYLINE
  5
4AE
100
AcDbEntity
  8
RACCORDO
100
AcDbPolyline
 62
7
  6
CONTINUOUS
 90
7
 70
0
 10
-11.1059187586
 20
14.4403870261
 10
-11.1466531614
 20
14.4342874176
 10
-11.1885449243
 20
14.4286881238
 10
-11.2315940473
 20
14.4235891446
 10
-11.2758005304
 20
14.4189904799
 10
-11.3211643735
 20
14.4148921299
 10
-11.3676855768
 20
14.4112940946
  0
LINE
  5
4AF
100
AcDbEntity
  8
RACCORDO
100
AcDbLine
 62
250
  6
CONTINUOUS
 10
9.6890237413
 20
15.8794491223
 11
9.4484376627
 21
15.870953125
  0
LWPOLYLINE
  5
4B0
100
AcDbEntity
  8
RACCORDO
100
AcDbPolyline
 62
250
  6
CONTINUOUS
 90
14
 70
0
 10
9.4484376627
 20
15.870953125
 10
9.2079293437
 20
15.8701105797
 10
8.9675279726
 20
15.8770212814
 10
8.727204361
 20
15.8915854353
 10
8.4899759285
 20
15.913618318
 10
8.2558750054
 20
15.9432145374
 10
8.0248692614
 20
15.9802794858
 10
7.799879126
 20
16.0243446166
 10
7.5809825948
 20
16.0754984181
 10
7.3681016721
 20
16.133652402
 10
7.1639228008
 20
16.1980725571
 10
6.9685558237
 20
16.2688382991
 10
6.7818908979
 20
16.3458702122
 10
6.6062849371
 20
16.4281960383
  0
LWPOLYLINE
  5
4B1
100
AcDbEntity
  8
RACCORDO
100
AcDbPolyline
 62
7
  6
CONTINUOUS
 90
25
 70
0
 10
-3.1781181341
 20
18.7470849311
 10
-3.1636761544
 20
18.740334241
 10
-3.1485224996
 20
18.7341160995
 10
-3.1326571697
 20
18.7284305064
 10
-3.1160063431
 20
18.7232577327
 10
-3.0986438415
 20
18.7186175074
 10
-3.0807911295
 20
18.7145690184
 10
-3.0624419277
 20
18.7111198456
 10
-3.0436025156
 20
18.708262409
 10
-3.0245131964
 20
18.7060331562
 10
-3.0051707689
 20
18.7044401342
 10
-2.9855784343
 20
18.7034752959
 10
-2.9659860998
 20
18.7031509483
 10
-2.9463937652
 20
18.7034752959
 10
-2.9268014307
 20
18.7044401342
 10
-2.9074590032
 20
18.7060331562
 10
-2.888369684
 20
18.708262409
 10
-2.8695302719
 20
18.7111198456
 10
-2.8511810701
 20
18.7145690184
 10
-2.8333283581
 20
18.7186175074
 10
-2.8159658564
 20
18.7232577327
 10
-2.7993150299
 20
18.7284305064
 10
-2.7834497
 20
18.7341160995
 10
-2.7682960451
 20
18.740334241
 10
-2.7538540654
 20
18.7470849311
  0
LINE
  5
4B2
100
AcDbEntity
  8
RACCORDO
100
AcDbLine
 62
7
  6
CONTINUOUS
 10
-3.3762687312
 20
18.4448396878
 11
-6.4875385684
 21
20.0004746064
  0
LINE
  5
4B3
100
AcDbEntity
  8
RACCORDO
100
AcDbLine
 62
7
  6
CONTINUOUS
 10
-3.2126839258
 20
18.4179576654
 11
-6.2893879713
 21
19.9563096882
  0
LINE
  5
4B4
100
AcDbEntity
  8
RACCORDO
100
AcDbLine
 62
7
  6
CONTINUOUS
 10
-3.1781181341
 20
18.7470849311
 11
-6.2893879713
 21
20.3027198497
  0
LINE
  5
4B5
100
AcDbEntity
  8
RACCORDO
100
AcDbLine
 62
250
  6
CONTINUOUS
 10
0.3089629756
 20
17.2465751777
 11
0.2272484502
 21
17.2874324404
  0
LINE
  5
4B6
100
AcDbEntity
  8
RACCORDO
100
AcDbLine
 62
7
  6
CONTINUOUS
 10
0.3473218929
 20
17.2660188178
 11
0.2075208068
 21
17.3359193608
  0
LINE
  5
4B7
100
AcDbEntity
  8
RACCORDO
100
AcDbLine
 62
7
  6
CONTINUOUS
 10
0.6913626139
 20
17.4404086188
 11
0.2924785596
 21
17.6398506459
  0
LINE
  5
4B8
100
AcDbEntity
  8
RACCORDO
100
AcDbLine
 62
7
  6
CONTINUOUS
 10
0.5618716697
 20
17.8881539065
 11
0.7891641195
 21
17.7745076816
  0
LINE
  5
4B9
100
AcDbEntity
  8
RACCORDO
100
AcDbLine
 62
250
  6
CONTINUOUS
 10
0.6196789865
 20
17.9414356896
 11
0.7372157415
 21
17.8826673122
  0
LWPOLYLINE
  5
4BA
100
AcDbEntity
  8
RACCORDO
100
AcDbPolyline
 62
7
  6
CONTINUOUS
 90
4
 70
0
 10
0.7897363475
 20
17.7742279596
 10
0.8349265295
 20
17.7501480223
 10
0.9140526662
 20
17.6989283593
 10
0.9706272451
 20
17.6499806196
  0
LWPOLYLINE
  5
4BB
100
AcDbEntity
  8
RACCORDO
100
AcDbPolyline
 62
7
  6
CONTINUOUS
 90
10
 70
0
 10
-6.2893879713
 20
19.9563096882
 10
-6.3028893515
 20
19.9635306781
 10
-6.3153256346
 20
19.9711075055
 10
-6.3266968207
 20
19.9790401704
 10
-6.3370423682
 20
19.9873655837
 10
-6.3463228187
 20
19.9960468345
 10
-6.3544197967
 20
20.0049731905
 10
-6.3613181423
 20
20.0141477914
 10
-6.3670330155
 20
20.0235674975
 10
-6.3714915211
 20
20.0331121571
  0
LWPOLYLINE
  5
4BC
100
AcDbEntity
  8
RACCORDO
100
AcDbPolyline
 62
250
  6
CONTINUOUS
 90
8
 70
0
 10
0.7372157408
 20
17.8826676131
 10
0.7975899412
 20
17.8499402643
 10
0.8501738642
 20
17.8161458718
 10
0.8951657351
 20
17.7817695618
 10
0.9327956381
 20
17.7473570226
 10
0.9635172931
 20
17.7132056216
 10
0.9878870168
 20
17.6793412918
 10
0.9895001653
 20
17.676422163
  0
LWPOLYLINE
  5
4BD
100
AcDbEntity
  8
RACCORDO
100
AcDbPolyline
 62
7
  6
CONTINUOUS
 90
11
 70
0
 10
-6.4875385684
 20
20.0004746064
 10
-6.5010655712
 20
20.0078703113
 10
-6.5135758774
 20
20.0159518867
 10
-6.5250694872
 20
20.0247193326
 10
-6.535586795
 20
20.0342159427
 10
-6.5450874063
 20
20.0443984233
 10
-6.5534501375
 20
20.0551368933
 10
-6.5606604126
 20
20.0664384748
 10
-6.5667328076
 20
20.0782960457
 10
-6.5715898669
 20
20.0905583585
 10
-6.5720980395
 20
20.0920815521
  0
LWPOLYLINE
  5
4BE
100
AcDbEntity
  8
RACCORDO
100
AcDbPolyline
 62
7
  6
CONTINUOUS
 90
10
 70
0
 10
17.040507058
 20
15.5990952077
 10
17.0389467424
 20
15.7061127756
 10
17.029528875
 20
15.8858571456
 10
17.0117840401
 20
16.066541112
 10
16.9858916192
 20
16.2477835197
 10
16.9520563043
 20
16.4291461713
 10
16.910535821
 20
16.610059858
 10
16.8615531427
 20
16.7900751444
 10
16.8052823141
 20
16.9689054005
 10
16.770034303
 20
17.0701477603
  0
LINE
  5
4BF
100
AcDbEntity
  8
RACCORDO
100
AcDbLine
 62
250
  6
CONTINUOUS
 10
16.7598512758
 20
-2.3026138194
 11
16.7598512758
 21
15.251663203
  0
LINE
  5
4C0
100
AcDbEntity
  8
RACCORDO
100
AcDbLine
 62
7
  6
CONTINUOUS
 10
17.0405114754
 20
15.5991698029
 11
17.0405114754
 21
-1.9552846818
  0
LINE
  5
4C1
100
AcDbEntity
  8
RACCORDO
100
AcDbLine
 62
250
  6
CONTINUOUS
 10
17.6551557848
 20
5.8892798972
 11
17.6551557848
 21
1.2339850103
  0
LINE
  5
4C2
100
AcDbEntity
  8
RACCORDO
100
AcDbLine
 62
7
  6
CONTINUOUS
 10
17.7393538222
 20
5.9935367929
 11
17.7393538447
 21
1.3381837658
  0
LWPOLYLINE
  5
4C3
100
AcDbEntity
  8
RACCORDO
100
AcDbPolyline
 62
250
  6
CONTINUOUS
 90
18
 70
0
 10
17.6551557848
 20
1.2339850103
 10
17.6551016116
 20
1.2225171583
 10
17.6545943153
 20
1.2109950187
 10
17.6536004174
 20
1.1994625181
 10
17.6520830565
 20
1.1879430089
 10
17.6500114216
 20
1.1765135738
 10
17.6473719232
 20
1.1652969997
 10
17.6441443987
 20
1.1543436278
 10
17.6403102825
 20
1.1437054759
 10
17.6358804797
 20
1.1334946409
 10
17.6308502443
 20
1.1237566499
 10
17.6252170254
 20
1.1145373197
 10
17.6190174199
 20
1.1059296263
 10
17.6122628267
 20
1.0979676902
 10
17.6049661774
 20
1.0906836907
 10
17.5971870739
 20
1.0841428175
 10
17.5889605011
 20
1.0783682361
 10
17.5818009978
 20
1.0741595083
  0
LWPOLYLINE
  5
4C4
100
AcDbEntity
  8
RACCORDO
100
AcDbPolyline
 62
250
  6
CONTINUOUS
 90
12
 70
0
 10
16.7598512758
 20
-2.3026138194
 10
16.7577577348
 20
-2.3976758738
 10
16.7496875314
 20
-2.4892945099
 10
16.7356801793
 20
-2.5769571606
 10
16.7158058912
 20
-2.6601779891
 10
16.6901728339
 20
-2.7384844561
 10
16.6589296989
 20
-2.811422757
 10
16.6222519848
 20
-2.8785820541
 10
16.5803414329
 20
-2.9395907708
 10
16.5334351535
 20
-2.9941050022
 10
16.4817965314
 20
-3.0418192432
 10
16.4257127061
 20
-3.0824681027
  0
LWPOLYLINE
  5
4C5
100
AcDbEntity
  8
RACCORDO
100
AcDbPolyline
 62
250
  6
CONTINUOUS
 90
9
 70
0
 10
17.0405114643
 20
15.5990952062
 10
17.0395849047
 20
15.5776507242
 10
17.0297838084
 20
15.5261282886
 10
17.0093833447
 20
15.4753884421
 10
16.9786020903
 20
15.4259748271
 10
16.9377698451
 20
15.3784168764
 10
16.8873240983
 20
15.3332241403
 10
16.8278053411
 20
15.2908808277
 10
16.7598512758
 20
15.2518406178
  0
LWPOLYLINE
  5
4C6
100
AcDbEntity
  8
RACCORDO
100
AcDbPolyline
 62
250
  6
CONTINUOUS
 90
9
 70
0
 10
17.0405114028
 20
-1.95547522
 10
17.0395850078
 20
-1.9768025632
 10
17.0297841406
 20
-2.0283250686
 10
17.0093838564
 20
-2.0790650348
 10
16.9786027056
 20
-2.128478812
 10
16.9377704731
 20
-2.1760369506
 10
16.8873246364
 20
-2.2212298879
 10
16.8278056726
 20
-2.2635734072
 10
16.7598512758
 20
-2.3026138172
  0
LWPOLYLINE
  5
4C7
100
AcDbEntity
  8
RACCORDO
100
AcDbPolyline
 62
250
  6
CONTINUOUS
 90
9
 70
0
 10
17.7393538447
 20
5.9934786528
 10
17.7390126311
 20
5.9863265251
 10
17.7358954254
 20
5.9707680225
 10
17.7295885092
 20
5.9555186754
 10
17.7201887396
 20
5.9407250704
 10
17.7078531778
 20
5.9265680629
 10
17.6927685767
 20
5.9131963795
 10
17.6751285522
 20
5.9007286025
 10
17.6551557848
 20
5.8892798972
  0
LINE
  5
4C8
100
AcDbEntity
  8
RACCORDO
100
AcDbLine
 62
250
  6
CONTINUOUS
 10
17.7393538447
 20
1.3381837658
 11
17.7390126313
 21
1.3310316401
  0
LWPOLYLINE
  5
4C9
100
AcDbEntity
  8
RACCORDO
100
AcDbPolyline
 62
250
  6
CONTINUOUS
 90
8
 70
0
 10
17.7390126313
 20
1.3310316401
 10
17.7358954258
 20
1.3154731366
 10
17.729588509
 20
1.3002237881
 10
17.7201887382
 20
1.2854301816
 10
17.7078531751
 20
1.2712731733
 10
17.6927685737
 20
1.2579014902
 10
17.67512855
 20
1.2454337141
 10
17.6551557848
 20
1.2339850103
  0
LWPOLYLINE
  5
4CA
100
AcDbEntity
  8
RACCORDO
100
AcDbPolyline
 62
7
  6
CONTINUOUS
 90
10
 70
0
 10
10.447728676
 20
-15.4434340453
 10
10.4858816096
 20
-15.3728761289
 10
10.5560167628
 20
-15.2255568213
 10
10.6176002789
 20
-15.0701645161
 10
10.6703974508
 20
-14.9064590228
 10
10.7138529222
 20
-14.7351382401
 10
10.7473779355
 20
-14.5579593902
 10
10.7708332025
 20
-14.3757768582
 10
10.7842299739
 20
-14.1884370403
 10
10.7876336555
 20
-14.0320238069
  0
LWPOLYLINE
  5
4CB
100
AcDbEntity
  8
RACCORDO
100
AcDbPolyline
 62
250
  6
CONTINUOUS
 90
28
 70
0
 10
10.2155454261
 20
-15.6660193101
 10
10.2365634495
 20
-15.6275304031
 10
10.2568380661
 20
-15.5882112454
 10
10.2763626062
 20
-15.5480750119
 10
10.2951304445
 20
-15.5071357879
 10
10.3131356646
 20
-15.4654066696
 10
10.330372931
 20
-15.4228996297
 10
10.3468377906
 20
-15.3796252944
 10
10.3625233319
 20
-15.3356014051
 10
10.3774212588
 20
-15.2908512901
 10
10.3915261191
 20
-15.245393449
 10
10.4048347509
 20
-15.1992402435
 10
10.4173430986
 20
-15.1524064996
 10
10.4290472605
 20
-15.1049088439
 10
10.4399439727
 20
-15.056762633
 10
10.4500303209
 20
-15.0079809196
 10
10.4593035431
 20
-14.9585783408
 10
10.4677604647
 20
-14.9085731371
 10
10.4753978758
 20
-14.8579839891
 10
10.4822136822
 20
-14.806827457
 10
10.4882059196
 20
-14.7551211481
 10
10.4933722214
 20
-14.7028857342
 10
10.4977113492
 20
-14.6501398182
 10
10.501222503
 20
-14.5969001858
 10
10.5039045451
 20
-14.5431851133
 10
10.5057569725
 20
-14.4890127789
 10
10.5067799126
 20
-14.4344012538
 10
10.5070998934
 20
-7.7719659385
  0
LINE
  5
4CC
100
AcDbEntity
  8
RACCORDO
100
AcDbLine
 62
7
  6
CONTINUOUS
 10
10.4471356551
 20
-15.4444847341
 11
10.447728676
 21
-15.4434340453
  0
LINE
  5
4CD
100
AcDbEntity
  8
RACCORDO
100
AcDbLine
 62
250
  6
CONTINUOUS
 10
8.3183579836
 20
-16.8289005281
 11
8.394346079
 21
-16.7242325052
  0
LINE
  5
4CE
100
AcDbEntity
  8
RACCORDO
100
AcDbLine
 62
7
  6
CONTINUOUS
 10
8.3693316085
 20
-16.803494131
 11
8.4234196871
 21
-16.7370612312
  0
LINE
  5
4CF
100
AcDbEntity
  8
RACCORDO
100
AcDbLine
 62
250
  6
CONTINUOUS
 10
-3.5374007989
 20
-23.3999050466
 11
-1.4395923431
 21
-21.8795291271
  0
LINE
  5
4D0
100
AcDbEntity
  8
DRAFT
100
AcDbLine
 62
7
  6
CONTINUOUS
 10
1.0785039903
 20
-21.1577360233
 11
3.1998243338
 21
-19.6203199838
  0
LWPOLYLINE
  5
4D1
100
AcDbEntity
  8
RACCORDO
100
AcDbPolyline
 62
250
  6
CONTINUOUS
 90
10
 70
0
 10
10.5069735981
 20
-14.3793688612
 10
10.5641691878
 20
-14.3470764944
 10
10.615585395
 20
-14.3124394587
 10
10.6608395534
 20
-14.2757155407
 10
10.6995948577
 20
-14.2371780592
 10
10.7315628705
 20
-14.1971138302
 10
10.7565056688
 20
-14.155821033
 10
10.7742376154
 20
-14.1136069901
 10
10.7846267398
 20
-14.0707858805
 10
10.7876337977
 20
-14.0320396759
  0
LINE
  5
4D2
100
AcDbEntity
  8
RACCORDO
100
AcDbLine
 62
250
  6
CONTINUOUS
 10
10.5069735981
 20
-14.3793688612
 11
3.1998243338
 21
-18.3217435276
  0
LINE
  5
4D3
100
AcDbEntity
  8
0
100
AcDbLine
 62
250
  6
CONTINUOUS
 10
-7.1946453496
 20
-22.4241877024
 11
-7.1475300494
 21
-22.4006300524
  0
LINE
  5
4D4
100
AcDbEntity
  8
RACCORDO
100
AcDbLine
 62
250
  6
CONTINUOUS
 10
-3.5176900875
 20
-20.7783054537
 11
-5.295343055
 21
-21.6533749614
  0
LINE
  5
4D5
100
AcDbEntity
  8
RACCORDO
100
AcDbLine
 62
7
  6
CONTINUOUS
 10
-3.910655522
 20
-21.5911647927
 11
-5.6898187409
 21
-22.4669777384
  0
LWPOLYLINE
  5
4D6
100
AcDbEntity
  8
RACCORDO
100
AcDbPolyline
 62
250
  6
CONTINUOUS
 90
10
 70
0
 10
-11.5915663701
 20
15.6532936776
 10
-11.6172945333
 20
15.6515489693
 10
-11.6463897114
 20
15.6519956956
 10
-11.6779865233
 20
15.6546205695
 10
-11.7111451817
 20
15.659345519
 10
-11.7448794449
 20
15.6660300096
 10
-11.7781859511
 20
15.6744752236
 10
-11.8100740613
 20
15.6844299741
 10
-11.839595324
 20
15.6955981759
 10
-11.865871685
 20
15.7076476519
  0
LWPOLYLINE
  5
4D7
100
AcDbEntity
  8
RACCORDO
100
AcDbPolyline
 62
250
  6
CONTINUOUS
 90
8
 70
0
 10
6.5044096122
 20
15.561761112
 10
6.4913976197
 20
15.5676658982
 10
6.460318144
 20
15.5774481859
 10
6.4272678928
 20
15.5821746716
 10
6.3926009884
 20
15.5817947007
 10
6.3566888684
 20
15.576312337
 10
6.3199163039
 20
15.5657863129
 10
6.2826772904
 20
15.5503294005
  0
LINE
  5
4D8
100
AcDbEntity
  8
RACCORDO
100
AcDbLine
 62
250
  6
CONTINUOUS
 10
5.5803386124
 20
15.9014987395
 11
6.2826772909
 21
15.5503294002
  0
LINE
  5
4D9
100
AcDbEntity
  8
RACCORDO
100
AcDbLine
 62
7
  6
CONTINUOUS
 10
5.570815179
 20
16.0285583388
 11
6.5044624619
 21
15.5617346974
  0
LINE
  5
4DA
100
AcDbEntity
  8
0
100
AcDbLine
 62
250
  6
CONTINUOUS
 10
-1.4794083723
 20
19.8916104748
 11
-4.5076395811
 21
21.4057260792
  0
LINE
  5
4DB
100
AcDbEntity
  8
0
100
AcDbLine
 62
250
  6
CONTINUOUS
 10
-1.3687579348
 20
19.9935984745
 11
-4.436928903
 21
21.5276839586
  0
LINE
  5
4DC
100
AcDbEntity
  8
0
100
AcDbLine
 62
250
  6
CONTINUOUS
 10
-1.1186433831
 20
20.224132428
 11
-4.436928903
 21
21.8832751879
  0
LINE
  5
4DD
100
AcDbEntity
  8
DRAFT
100
AcDbLine
 62
7
  6
CONTINUOUS
 10
2.0471701823
 20
19.2571735652
 11
5.2717780582
 21
17.6448696272
  0
LINE
  5
4DE
100
AcDbEntity
  8
0
100
AcDbLine
 62
250
  6
CONTINUOUS
 10
-0.6629473313
 20
20.6441536209
 11
-4.1984812373
 21
22.4119205739
  0
LINE
  5
4DF
100
AcDbEntity
  8
SMUSSO
100
AcDbLine
 62
7
  6
CONTINUOUS
 10
2.6708285892
 20
19.0536711128
 11
2.1233646848
 21
19.3274030651
  0
LINE
  5
4E0
100
AcDbEntity
  8
0
100
AcDbLine
 62
7
  6
CONTINUOUS
 10
8.888336542
 20
16.0106347446
 11
8.780241624
 21
16.0646822036
  0
LWPOLYLINE
  5
4E1
100
AcDbEntity
  8
RACCORDO
100
AcDbPolyline
 62
250
  6
CONTINUOUS
 90
25
 70
0
 10
6.6062849371
 20
16.4281960383
 10
6.4418778716
 20
16.5158829506
 10
6.2885297712
 20
16.6088637758
 10
6.1481777585
 20
16.7059647358
 10
6.0209864484
 20
16.8072382439
 10
5.9067912261
 20
16.9126318868
 10
5.8070353705
 20
17.0208146463
 10
5.7219020693
 20
17.1318224542
 10
5.6512081348
 20
17.2456193787
 10
5.595847283
 20
17.3607666063
 10
5.556013608
 20
17.4772779642
 10
5.5315130156
 20
17.5951396251
 10
5.5226569391
 20
17.712871294
 10
5.529650076
 20
17.830484779
 10
5.5522877288
 20
17.9479682719
 10
5.5902672383
 20
18.0638060532
 10
5.6437393417
 20
18.1779290097
 10
5.7125533018
 20
18.2904062546
 10
5.7959542471
 20
18.3999294077
 10
5.8943415051
 20
18.5066126036
 10
6.0073157484
 20
18.6103417077
 10
6.1329241233
 20
18.7094659359
 10
6.2705156785
 20
18.8034350267
 10
6.4207413654
 20
18.8927992416
 10
6.5836011839
 20
18.9775585806
  0
LINE
  5
4E2
100
AcDbEntity
  8
RACCORDO
100
AcDbLine
 62
250
  6
CONTINUOUS
 10
6.2826772909
 20
15.5503294002
 11
6.4299725232
 21
15.4716773871
  0
LWPOLYLINE
  5
4E3
100
AcDbEntity
  8
RACCORDO
100
AcDbPolyline
 62
250
  6
CONTINUOUS
 90
18
 70
0
 10
6.4299725232
 20
15.4716773871
 10
6.5769603735
 20
15.3824627278
 10
6.7231095166
 20
15.2829504951
 10
6.8679168765
 20
15.1734144826
 10
7.0108220764
 20
15.0542234199
 10
7.151215473
 20
14.9258626562
 10
7.2885866796
 20
14.7887671999
 10
7.4224266539
 20
14.6434068019
 10
7.5521566134
 20
14.4904073403
 10
7.677282614
 20
14.3303531082
 10
7.7973798378
 20
14.1637826668
 10
7.9120094395
 20
13.9913119785
 10
8.0207531765
 20
13.8135769298
 10
8.1232300191
 20
13.6312004063
 10
8.2190880965
 20
13.4448070985
 10
8.3079868589
 20
13.25505473
 10
8.389601861
 20
13.0626340232
 10
8.4636403587
 20
12.8682359671
  0
LINE
  5
4E4
100
AcDbEntity
  8
SMUSSO
100
AcDbLine
 62
7
  6
CONTINUOUS
 10
2.9525949998
 20
-21.7120363755
 11
2.6708285892
 21
-21.8831112157
  0
LWPOLYLINE
  5
4E5
100
AcDbEntity
  8
RACCORDO
100
AcDbPolyline
 62
250
  6
CONTINUOUS
 90
6
 70
0
 10
10.2155449278
 20
-15.6660200013
 10
10.2726083171
 20
-15.6315788462
 10
10.3245313313
 20
-15.5921254948
 10
10.3709306021
 20
-15.5479512469
 10
10.4114635452
 20
-15.4993822587
 10
10.4471356551
 20
-15.4444847341
  0
LWPOLYLINE
  5
4E6
100
AcDbEntity
  8
RACCORDO
100
AcDbPolyline
 62
250
  6
CONTINUOUS
 90
16
 70
0
 10
9.9800187853
 20
-15.9101323181
 10
9.9989449976
 20
-15.8988626895
 10
10.0174506249
 20
-15.8868462801
 10
10.0355284114
 20
-15.8740876826
 10
10.053167818
 20
-15.8605939308
 10
10.070358611
 20
-15.8463724378
 10
10.0870938692
 20
-15.8314281903
 10
10.1033653812
 20
-15.8157672573
 10
10.1191614579
 20
-15.7993995835
 10
10.1344703044
 20
-15.7823365088
 10
10.1492847716
 20
-15.764585159
 10
10.1635941265
 20
-15.7461575077
 10
10.177382662
 20
-15.7270741395
 10
10.1906407408
 20
-15.7073502678
 10
10.2033638836
 20
-15.6869945487
 10
10.215545423
 20
-15.6660193118
  0
LWPOLYLINE
  5
4E7
100
AcDbEntity
  8
RACCORDO
100
AcDbPolyline
 62
250
  6
CONTINUOUS
 90
6
 70
0
 10
7.8865295784
 20
-17.1960624948
 10
7.9525815473
 20
-17.1579146688
 10
8.0527467604
 20
-17.0896467626
 10
8.1472868672
 20
-17.0118935693
 10
8.2359164176
 20
-16.9248890565
 10
8.3183579836
 20
-16.8289005281
  0
LWPOLYLINE
  5
4E8
100
AcDbEntity
  8
RACCORDO
100
AcDbPolyline
 62
7
  6
CONTINUOUS
 90
8
 70
0
 10
9.9678275117
 20
-15.916876141
 10
10.0237087016
 20
-15.8848050434
 10
10.1077223783
 20
-15.8284733928
 10
10.1871717953
 20
-15.764779758
 10
10.2613720084
 20
-15.6941207648
 10
10.3297544363
 20
-15.6169026276
 10
10.3917758896
 20
-15.5336146365
 10
10.4471355988
 20
-15.4444847023
  0
LWPOLYLINE
  5
4E9
100
AcDbEntity
  8
RACCORDO
100
AcDbPolyline
 62
7
  6
CONTINUOUS
 90
6
 70
0
 10
7.8850261662
 20
-17.1968569688
 10
7.9560708077
 20
-17.156301911
 10
8.0672099016
 20
-17.0828073378
 10
8.1736150601
 20
-16.9993190515
 10
8.2745919876
 20
-16.9060509589
 10
8.3693316085
 20
-16.803494131
  0
LINE
  5
4EA
100
AcDbEntity
  8
RACCORDO
100
AcDbLine
 62
250
  6
CONTINUOUS
 10
9.9687321941
 20
-15.9163891747
 11
9.9800187853
 21
-15.9101323181
  0
LINE
  5
4EB
100
AcDbEntity
  8
RACCORDO
100
AcDbLine
 62
250
  6
CONTINUOUS
 10
8.4636403442
 20
-16.6112128274
 11
10.215545423
 21
-15.6660193118
  0
LINE
  5
4EC
100
AcDbEntity
  8
RACCORDO
100
AcDbLine
 62
7
  6
CONTINUOUS
 10
9.9687321984
 20
-15.9163891724
 11
8.4044575055
 21
-16.7603512563
  0
LINE
  5
4ED
100
AcDbEntity
  8
RACCORDO
100
AcDbLine
 62
7
  6
CONTINUOUS
 10
7.8865295917
 20
-17.1960624876
 11
2.6365675336
 21
-20.028537461
  0
LINE
  5
4EE
100
AcDbEntity
  8
DRAFT
100
AcDbLine
 62
7
  6
CONTINUOUS
 10
-3.5454588107
 20
-24.1927986476
 11
-3.2601477673
 21
-24.0526114569
  0
LINE
  5
4EF
100
AcDbEntity
  8
RACCORDO
100
AcDbLine
 62
7
  6
CONTINUOUS
 10
-1.4395923431
 20
-21.8795291271
 11
3.1998243338
 21
-19.6203199838
  0
LINE
  5
4F0
100
AcDbEntity
  8
RACCORDO
100
AcDbLine
 62
7
  6
CONTINUOUS
 10
-3.5374007989
 20
-23.3999050466
 11
1.0785039903
 21
-21.1577360233
  0
LWPOLYLINE
  5
4F1
100
AcDbEntity
  8
RACCORDO
100
AcDbPolyline
 62
7
  6
CONTINUOUS
 90
10
 70
0
 10
-1.4395923431
 20
-21.8795291271
 10
-1.5106984633
 20
-21.9055339381
 10
-1.5893438148
 20
-21.9182362657
 10
-1.6729737758
 20
-21.9179107913
 10
-1.7595067187
 20
-21.9056421972
 10
-1.8462283805
 20
-21.8822635684
 10
-1.9298407322
 20
-21.848203233
 10
-2.0080754983
 20
-21.8047905905
 10
-2.0797502578
 20
-21.7542632314
 10
-2.1436003659
 20
-21.6986403058
  0
LWPOLYLINE
  5
4F2
100
AcDbEntity
  8
RACCORDO
100
AcDbPolyline
 62
7
  6
CONTINUOUS
 90
11
 70
0
 10
-3.2057092261
 20
18.4184771998
 10
-3.2246115422
 20
18.4170691961
 10
-3.2433023076
 20
18.4165807957
 10
-3.2617841979
 20
18.4170003674
 10
-3.2798214702
 20
18.4183225596
 10
-3.2974084291
 20
18.4205589347
 10
-3.3145507699
 20
18.4236979302
 10
-3.3310298362
 20
18.4276995071
 10
-3.3467727424
 20
18.4325503192
 10
-3.3618523741
 20
18.4382637128
 10
-3.3762687312
 20
18.4448396878
  0
LWPOLYLINE
  5
4F3
100
AcDbEntity
  8
RACCORDO
100
AcDbPolyline
 62
250
  6
CONTINUOUS
 90
9
 70
0
 10
11.8159921236
 20
16.3613631107
 10
11.7548619568
 20
16.38911292
 10
11.6941031384
 20
16.4100157486
 10
11.6341779962
 20
16.4239125734
 10
11.5755425134
 20
16.4306976831
 10
11.5186428511
 20
16.4303194825
 10
11.4639119544
 20
16.4227808817
 10
11.4117662721
 20
16.4081392746
 10
11.3781731186
 20
16.3942726389
  0
LWPOLYLINE
  5
4F4
100
AcDbEntity
  8
0
100
AcDbPolyline
 62
7
  6
CONTINUOUS
 90
6
 70
0
 10
6.9588524171
 20
17.1660791541
 10
6.9499260562
 20
17.1702048992
 10
6.9410971465
 20
17.1736348688
 10
6.9323656882
 20
17.1763690628
 10
6.9236977373
 20
17.1784132577
 10
6.9234456311
 20
17.1784529223
  0
LWPOLYLINE
  5
4F5
100
AcDbEntity
  8
RACCORDO
100
AcDbPolyline
 62
250
  6
CONTINUOUS
 90
10
 70
0
 10
4.6136635816
 20
18.5767993303
 10
4.5357813377
 20
18.6134272757
 10
4.4582292247
 20
18.6425373893
 10
4.3814407516
 20
18.6639669261
 10
4.305845097
 20
18.6775960382
 10
4.2318649081
 20
18.6833485425
 10
4.1599139016
 20
18.6811923275
 10
4.0903942291
 20
18.6711393808
 10
4.0236945054
 20
18.6532458419
 10
3.9796383816
 20
18.6364330146
  0
LWPOLYLINE
  5
4F6
100
AcDbEntity
  8
0
100
AcDbPolyline
 62
7
  6
CONTINUOUS
 90
14
 70
0
 10
2.7887306437
 20
19.7265177808
 10
2.7828229355
 20
19.7293441557
 10
2.7593493559
 20
19.7381758422
 10
2.734406346
 20
19.7439693318
 10
2.7085020803
 20
19.7466065911
 10
2.6816168407
 20
19.7460228774
 10
2.6537703453
 20
19.7422829334
 10
2.6255299224
 20
19.7354629547
 10
2.5968874915
 20
19.7254997613
 10
2.5678511332
 20
19.7124565332
 10
2.5390124174
 20
19.6965990055
 10
2.5105685342
 20
19.6780157566
 10
2.4823222934
 20
19.6566182082
 10
2.4542736952
 20
19.6324063602
  0
LWPOLYLINE
  5
4F7
100
AcDbEntity
  8
0
100
AcDbPolyline
 62
7
  6
CONTINUOUS
 90
14
 70
0
 10
2.9676529582
 20
20.0842702127
 10
2.9569582971
 20
20.0893867689
 10
2.9144643267
 20
20.1053746768
 10
2.8693102622
 20
20.1158625691
 10
2.8224160465
 20
20.1206367715
 10
2.7737459843
 20
20.1195800808
 10
2.723335771
 20
20.1128097001
 10
2.6722124349
 20
20.1004635655
 10
2.6203613481
 20
20.0824273029
 10
2.5677971387
 20
20.0588152862
 10
2.5155907194
 20
20.0301085731
 10
2.4640990612
 20
19.9964675161
 10
2.4129651932
 20
19.9577317626
 10
2.3621891153
 20
19.9139013127
  0
LWPOLYLINE
  5
4F8
100
AcDbEntity
  8
0
100
AcDbPolyline
 62
7
  6
CONTINUOUS
 90
14
 70
0
 10
-5.517628416
 20
24.3269108998
 10
-5.5283230771
 20
24.332027456
 10
-5.5708170476
 20
24.3480153639
 10
-5.6159711121
 20
24.3585032562
 10
-5.6628653278
 20
24.3632774587
 10
-5.7115353899
 20
24.3622207679
 10
-5.7619456033
 20
24.3554503873
 10
-5.8130689393
 20
24.3431042526
 10
-5.8649200261
 20
24.32506799
 10
-5.9174842355
 20
24.3014559733
 10
-5.9696906548
 20
24.2727492602
 10
-6.021182313
 20
24.2391082032
 10
-6.072316181
 20
24.2003724497
 10
-6.1230922589
 20
24.1565419998
  0
LINE
  5
4F9
100
AcDbEntity
  8
0
100
AcDbLine
 62
7
  6
CONTINUOUS
 10
6.9588524171
 20
17.1660791541
 11
8.780241624
 21
16.2553845507
  0
LINE
  5
4FA
100
AcDbEntity
  8
0
100
AcDbLine
 62
250
  6
CONTINUOUS
 10
2.915653328
 20
19.4216132802
 11
2.4688691921
 21
19.6450053481
  0
LINE
  5
4FB
100
AcDbEntity
  8
0
100
AcDbLine
 62
250
  6
CONTINUOUS
 10
2.3621891153
 20
19.9139013127
 11
-6.1230922589
 21
24.1565419998
  0
LINE
  5
4FC
100
AcDbEntity
  8
0
100
AcDbLine
 62
7
  6
CONTINUOUS
 10
7.8073805546
 20
17.5903432229
 11
9.6287697614
 21
16.6796486194
  0
LINE
  5
4FD
100
AcDbEntity
  8
0
100
AcDbLine
 62
7
  6
CONTINUOUS
 10
10.347329105
 20
16.3203689476
 11
10.6773850091
 21
16.1553409956
  0
LINE
  5
4FE
100
AcDbEntity
  8
0
100
AcDbLine
 62
7
  6
CONTINUOUS
 10
-5.5177108025
 20
24.3269521072
 11
2.9675705718
 21
20.0843114201
  0
LINE
  5
4FF
100
AcDbEntity
  8
0
100
AcDbLine
 62
7
  6
CONTINUOUS
 10
11.2891259106
 20
16.9030596488
 11
10.7941511638
 21
17.1505470222
  0
LWPOLYLINE
  5
500
100
AcDbEntity
  8
RACCORDO
100
AcDbPolyline
 62
250
  6
CONTINUOUS
 90
19
 70
0
 10
6.5836011839
 20
18.9775585806
 10
6.6457119305
 20
18.9436880028
 10
6.7072561664
 20
18.9034395041
 10
6.7677655935
 20
18.8571193406
 10
6.8267797877
 20
18.8050799684
 10
6.8838497024
 20
18.7477173617
 10
6.9385410854
 20
18.6854680001
 10
6.9904377827
 20
18.618805547
 10
7.0391449058
 20
18.5482372455
 10
7.0842918359
 20
18.4743000591
 10
7.1255350441
 20
18.3975565852
 10
7.1625607055
 20
18.318590775
 10
7.1950870872
 20
18.2380034893
 10
7.2228666916
 20
18.1564079273
 10
7.2456881402
 20
18.0744249602
 10
7.2633777816
 20
17.9926784068
 10
7.275801013
 20
17.9117902873
 10
7.2828633045
 20
17.8323760897
 10
7.2845109181
 20
17.7550400871
  0
LWPOLYLINE
  5
501
100
AcDbEntity
  8
RACCORDO
100
AcDbPolyline
 62
250
  6
CONTINUOUS
 90
10
 70
0
 10
16.7700494522
 20
17.0701056723
 10
16.7714115205
 20
17.0620157015
 10
16.7663963594
 20
17.0438674417
 10
16.751420461
 20
17.0223947005
 10
16.7266430045
 20
16.9978257122
 10
16.69232735
 20
16.9704216209
 10
16.6488382393
 20
16.9404737054
 10
16.596637919
 20
16.9083002827
 10
16.5362812274
 20
16.8742433247
 10
16.4684096972
 20
16.8386648236
  0
LINE
  5
502
100
AcDbEntity
  8
SMUSSO
100
AcDbLine
 62
7
  6
CONTINUOUS
 10
3.1832155592
 20
-22.0676771048
 11
2.9014491486
 21
-22.238751945
  0
LINE
  5
503
100
AcDbEntity
  8
0
100
AcDbLine
 62
250
  6
CONTINUOUS
 10
3.1974197386
 20
-22.2594178727
 11
2.915653328
 21
-22.430492713
  0
LWPOLYLINE
  5
504
100
AcDbEntity
  8
RACCORDO
100
AcDbPolyline
 62
7
  6
CONTINUOUS
 90
5
 70
0
 10
-3.5374007989
 20
-23.3999050466
 10
-3.6049933568
 20
-23.4223185481
 10
-3.6732617209
 20
-23.4276670369
 10
-3.7403488739
 20
-23.4162302909
 10
-3.7907770001
 20
-23.3961524246
  0
LWPOLYLINE
  5
505
100
AcDbEntity
  8
DRAFT
100
AcDbPolyline
 62
7
  6
CONTINUOUS
 90
13
 70
0
 10
12.109016444
 20
18.1554574795
 10
11.9369905692
 20
18.2219686061
 10
11.7590981477
 20
18.283452172
 10
11.5753391794
 20
18.3399081772
 10
11.3851607578
 20
18.391473542
 10
11.1891157894
 20
18.4380113462
 10
10.988862994
 20
18.4791108284
 10
10.7843086191
 20
18.514729477
 10
10.5755464173
 20
18.5449098036
 10
10.3645163662
 20
18.5693685821
 10
10.1518651249
 20
18.5880114035
 10
9.9369460343
 20
18.6009326766
 10
9.7197590944
 20
18.6081324016
  0
LINE
  5
506
100
AcDbEntity
  8
ASSI
100
AcDbLine
 62
7
  6
CONTINUOUS
 10
12.6754085344
 20
17.8722614343
 11
12.1090164441
 21
18.1554574795
  0
LWPOLYLINE
  5
507
100
AcDbEntity
  8
0
100
AcDbPolyline
 62
250
  6
CONTINUOUS
 90
38
 70
0
 10
12.4555310961
 20
16.9007937452
 10
12.4292875051
 20
16.9319906752
 10
12.3636558803
 20
17.0004770578
 10
12.2913269628
 20
17.0674581951
 10
12.2128061906
 20
17.132465729
 10
12.1280500006
 20
17.195485963
 10
12.0371019558
 20
17.2565325937
 10
11.9405981834
 20
17.315178353
 10
11.8384993957
 20
17.3714064829
 10
11.7308448805
 20
17.4252337415
 10
11.6183886273
 20
17.4762831347
 10
11.5010971219
 20
17.5245350184
 10
11.3790038786
 20
17.5700090368
 10
11.2529634304
 20
17.6123871284
 10
11.1229483854
 20
17.6516475118
 10
10.9889861355
 20
17.6878119685
 10
10.8520133887
 20
17.7206277808
 10
10.7120090376
 20
17.7500715233
 10
10.5689941896
 20
17.7761666215
 10
10.4239688752
 20
17.7987306339
 10
10.276918612
 20
17.8177388396
 10
10.1278578824
 20
17.8332159596
 10
9.9778301642
 20
17.8450537157
 10
9.8268303407
 20
17.853226647
 10
9.6748635286
 20
17.8577602144
 10
9.5229885558
 20
17.8586225224
 10
9.3711996609
 20
17.8557872526
 10
9.2195026053
 20
17.8492807234
 10
9.0689735017
 20
17.8391499953
 10
8.9196361348
 20
17.825371778
 10
8.7714667198
 20
17.8079693618
 10
8.6254700152
 20
17.7870596785
 10
8.4816011504
 20
17.7626016907
 10
8.3399049961
 20
17.7346364357
 10
8.2015209223
 20
17.7034039571
 10
8.0668287191
 20
17.6689842694
 10
7.9354485966
 20
17.6312973579
 10
7.8073805546
 20
17.5903432229
  0
LWPOLYLINE
  5
508
100
AcDbEntity
  8
DRAFT
100
AcDbPolyline
 62
7
  6
CONTINUOUS
 90
8
 70
0
 10
13.3246480173
 20
17.3094139147
 10
13.3227529397
 20
17.3121349766
 10
13.2405520912
 20
17.4122705471
 10
13.1474726838
 20
17.5103020523
 10
13.0443364511
 20
17.6053998572
 10
12.9314173042
 20
17.6972874166
 10
12.808441332
 20
17.7862412756
 10
12.6754085344
 20
17.8722614343
  0
LWPOLYLINE
  5
509
100
AcDbEntity
  8
RACCORDO
100
AcDbPolyline
 62
250
  6
CONTINUOUS
 90
24
 70
0
 10
17.0405114754
 20
14.3085471806
 10
17.1124122739
 20
14.1814217303
 10
17.2072140721
 20
13.9956690417
 10
17.2939069935
 20
13.8062026949
 10
17.3720643384
 20
13.6139545256
 10
17.4413042252
 20
13.4198654401
 10
17.5012912731
 20
13.2248773203
 10
17.5517342274
 20
13.0299372514
 10
17.5923874327
 20
12.8359937718
 10
17.6230522959
 20
12.6439933007
 10
17.6435791945
 20
12.4548724432
 10
17.6538681353
 20
12.2695532298
 10
17.6538690966
 20
12.0889381391
 10
17.6435820746
 20
11.9139067511
 10
17.6230570843
 20
11.7453115386
 10
17.5923941108
 20
11.5839745318
 10
17.5517427594
 20
11.4306826883
 10
17.501301597
 20
11.2861838121
 10
17.4413162738
 20
11.1511808374
 10
17.3720780685
 20
11.0263296709
 10
17.2939224011
 20
10.912236866
 10
17.2072311241
 20
10.8094613814
 10
17.1124308494
 20
10.7185082684
 10
17.0405114754
 20
10.6632669428
  0
LWPOLYLINE
  5
50A
100
AcDbEntity
  8
RACCORDO
100
AcDbPolyline
 62
7
  6
CONTINUOUS
 90
13
 70
0
 10
16.7700517439
 20
17.070106499
 10
16.7509940208
 20
17.1205855079
 10
16.7016394355
 20
17.2341097811
 10
16.6453838585
 20
17.3426863665
 10
16.5820173884
 20
17.4470790811
 10
16.5117943315
 20
17.54672773
 10
16.4359567777
 20
17.6399502121
 10
16.3547691659
 20
17.7265592337
 10
16.2679871399
 20
17.8066952857
 10
16.1765081261
 20
17.8793797575
 10
16.0807689198
 20
17.9441660734
 10
15.9806419713
 20
18.0010021191
 10
15.9653509502
 20
18.0087691242
  0
LINE
  5
50B
100
AcDbEntity
  8
RACCORDO
100
AcDbLine
 62
7
  6
CONTINUOUS
 10
16.770034303
 20
17.0701477603
 11
16.7700494522
 21
17.0701056723
  0
LWPOLYLINE
  5
50C
100
AcDbEntity
  8
RACCORDO
100
AcDbPolyline
 62
250
  6
CONTINUOUS
 90
10
 70
0
 10
16.4684316453
 20
16.8386420699
 10
16.5292181195
 20
16.6593908452
 10
16.5832014771
 20
16.4796095669
 10
16.6302223804
 20
16.2998408941
 10
16.6701466587
 20
16.1206282509
 10
16.7028541329
 20
15.9425120729
 10
16.7282394073
 20
15.7660280999
 10
16.7462273969
 20
15.5917085611
 10
16.7567730892
 20
15.420080652
 10
16.7598504085
 20
15.2516627771
  0
LWPOLYLINE
  5
50D
100
AcDbEntity
  8
RACCORDO
100
AcDbPolyline
 62
250
  6
CONTINUOUS
 90
8
 70
0
 10
10.1090657797
 20
20.936919431
 10
10.0841746385
 20
20.9481869791
 10
10.0232345604
 20
20.9673676249
 10
9.9584303184
 20
20.9766349836
 10
9.890456245
 20
20.9758897617
 10
9.8200406353
 20
20.965139944
 10
9.7479379438
 20
20.9445007073
 10
9.6749207007
 20
20.9141931866
  0
LWPOLYLINE
  5
50E
100
AcDbEntity
  8
RACCORDO
100
AcDbPolyline
 62
250
  6
CONTINUOUS
 90
8
 70
0
 10
15.9652395476
 20
18.008833533
 10
15.9396218485
 20
18.0204634868
 10
15.8786817335
 20
18.0396443704
 10
15.8138773734
 20
18.0489119358
 10
15.7459031105
 20
18.0481668647
 10
15.675487246
 20
18.0374171234
 10
15.6033842352
 20
18.0167778715
 10
15.530366616
 20
17.9864702289
  0
LWPOLYLINE
  5
50F
100
AcDbEntity
  8
RACCORDO
100
AcDbPolyline
 62
250
  6
CONTINUOUS
 90
9
 70
0
 10
10.7626503063
 20
20.6101281514
 10
10.7343358889
 20
20.6236443426
 10
10.6570092781
 20
20.6545499832
 10
10.5741664332
 20
20.6792158812
 10
10.4864458635
 20
20.6972040749
 10
10.3956216697
 20
20.707889568
 10
10.3026428493
 20
20.7111619754
 10
10.2075661235
 20
20.7072238672
 10
10.1109129
 20
20.6961970869
  0
LWPOLYLINE
  5
510
100
AcDbEntity
  8
RACCORDO
100
AcDbPolyline
 62
7
  6
CONTINUOUS
 90
12
 70
0
 10
10.1090621782
 20
20.9369122027
 10
10.0797815169
 20
20.9511024066
 10
9.9712584943
 20
20.9965868137
 10
9.86110225
 20
21.0319021015
 10
9.750410862
 20
21.056927776
 10
9.639734188
 20
21.071844287
 10
9.5292723189
 20
21.076824745
 10
9.4200424938
 20
21.0719662914
 10
9.3128600296
 20
21.0575013226
 10
9.2078065071
 20
21.0335816601
 10
9.105548762
 20
21.0003859362
 10
9.023778439
 20
20.9661667316
  0
LWPOLYLINE
  5
511
100
AcDbEntity
  8
RACCORDO
100
AcDbPolyline
 62
7
  6
CONTINUOUS
 90
11
 70
0
 10
15.6235427204
 20
18.1797147394
 10
15.6136560409
 20
18.1845258183
 10
15.5651479089
 20
18.2044333944
 10
15.5148115369
 20
18.2191542224
 10
15.4632044416
 20
18.2285227317
 10
15.4108991253
 20
18.2324340754
 10
15.3584709818
 20
18.230845087
 10
15.3064970005
 20
18.2237731161
 10
15.255554172
 20
18.2112973931
 10
15.2062041916
 20
18.1935573548
 10
15.1870229328
 20
18.1850251542
  0
LINE
  5
512
100
AcDbEntity
  8
RACCORDO
100
AcDbLine
 62
250
  6
CONTINUOUS
 10
11.2680654065
 20
19.4244611357
 11
14.4448352726
 21
17.8360762026
  0
LINE
  5
513
100
AcDbEntity
  8
RACCORDO
100
AcDbLine
 62
7
  6
CONTINUOUS
 10
11.2996708195
 20
19.4842610047
 11
14.5227635731
 21
17.8727146279
  0
LINE
  5
514
100
AcDbEntity
  8
RACCORDO
100
AcDbLine
 62
250
  6
CONTINUOUS
 10
9.6749207007
 20
20.9141931866
 11
10.1109129
 21
20.6961970869
  0
LINE
  5
515
100
AcDbEntity
  8
RACCORDO
100
AcDbLine
 62
250
  6
CONTINUOUS
 10
15.4054106033
 20
18.0489482353
 11
15.5303666177
 21
17.9864702281
  0
LINE
  5
516
100
AcDbEntity
  8
RACCORDO
100
AcDbLine
 62
7
  6
CONTINUOUS
 10
10.1090657797
 20
20.936919431
 11
10.7627301979
 21
20.6100882079
  0
LINE
  5
517
100
AcDbEntity
  8
RACCORDO
100
AcDbLine
 62
7
  6
CONTINUOUS
 10
15.6233392403
 20
18.1797836866
 11
15.9652395476
 21
18.008833533
  0
LINE
  5
518
100
AcDbEntity
  8
RACCORDO
100
AcDbLine
 62
7
  6
CONTINUOUS
 10
10.7634524528
 20
20.6097264787
 11
10.7626503063
 21
20.6101281514
  0
LWPOLYLINE
  5
519
100
AcDbEntity
  8
RACCORDO
100
AcDbPolyline
 62
250
  6
CONTINUOUS
 90
16
 70
0
 10
15.5303666177
 20
17.9864702281
 10
15.6072190904
 20
17.9455347501
 10
15.6836407034
 20
17.8980847493
 10
15.7592356079
 20
17.8443571933
 10
15.8336183213
 20
17.7846144513
 10
15.9063956948
 20
17.7191640396
 10
15.977170916
 20
17.6483631009
 10
16.0455712202
 20
17.5725847477
 10
16.1112501528
 20
17.4922115722
 10
16.1738707425
 20
17.407658895
 10
16.2331198377
 20
17.3193479951
 10
16.2886802854
 20
17.227747244
 10
16.3402412597
 20
17.133376183
 10
16.387536061
 20
17.03674097
 10
16.4303370064
 20
16.9383267573
 10
16.4684315535
 20
16.8386420243
  0
LWPOLYLINE
  5
51A
100
AcDbEntity
  8
RACCORDO
100
AcDbPolyline
 62
250
  6
CONTINUOUS
 90
9
 70
0
 10
15.4054106033
 20
18.0489482353
 10
15.3741371673
 20
18.0931148975
 10
15.3425763025
 20
18.1293733961
 10
15.3112485392
 20
18.1575885727
 10
15.2807969718
 20
18.1778334533
 10
15.2515865683
 20
18.1899170351
 10
15.2236422926
 20
18.1935879309
 10
15.197299412
 20
18.1891187682
 10
15.1869828098
 20
18.1850010074
  0
ARC
  5
51B
100
AcDbEntity
  8
RACCORDO
100
AcDbCircle
 62
7
  6
CONTINUOUS
 10
-6.35229437
 20
-21.121196909
 40
1.5
100
AcDbArc
 50
243.4436658257
 51
296.2092297206
  0
ARC
  5
51C
100
AcDbEntity
  8
RACCORDO
100
AcDbCircle
 62
7
  6
CONTINUOUS
 10
-16.2394349911
 20
-16.1776265984
 40
1.5
100
AcDbArc
 50
180.0773435344
 51
243.5315553668
  0
ARC
  5
51D
100
AcDbEntity
  8
RACCORDO
100
AcDbCircle
 62
7
  6
CONTINUOUS
 10
-16.2394349911
 20
12.3860808419
 40
1.5
100
AcDbArc
 50
116.9211464386
 51
180.0184108383
  0
ARC
  5
51E
100
AcDbEntity
  8
RACCORDO
100
AcDbCircle
 62
7
  6
CONTINUOUS
 10
17.4393538447
 20
5.9934786528
 40
0.3
100
AcDbArc
 50
0.0111039465
 51
63.4576898445
  0
ARC
  5
51F
100
AcDbEntity
  8
RACCORDO
100
AcDbCircle
 62
7
  6
CONTINUOUS
 10
17.4393538447
 20
1.3381837658
 40
0.3
100
AcDbArc
 50
298.347879619
 51
0.0160988162
  0
ELLIPSE
  5
520
100
AcDbEntity
  8
ASSI
100
AcDbEllipse
 62
7
  6
CONTINUOUS
 10
-15.7114851133
 20
8.9960287815
 30
0.0
 11
-2.1427148603
 21
6.7709476343
 31
0.0
 40
0.6742606991
 41
-2.281934516
 42
-2.1553422687
  0
ELLIPSE
  5
521
100
AcDbEntity
  8
ASSI
100
AcDbEllipse
 62
7
  6
CONTINUOUS
 10
-15.1441635485
 20
9.2821561441
 30
0.0
 11
-2.3586293233
 21
6.6665561141
 31
0.0
 40
0.6490743087
 41
-2.9197395381
 42
-2.6546486009
  0
ELLIPSE
  5
522
100
AcDbEntity
  8
RACCORDO
100
AcDbEllipse
 62
7
  6
CONTINUOUS
 10
-9.754386276
 20
-3.5968188313
 30
0.0
 11
-1.6057810274
 21
2.4326857328
 31
0.0
 40
0.5358427881
 41
0.8712675816
 42
1.9926877539
  0
ELLIPSE
  5
523
100
AcDbEntity
  8
RACCORDO
100
AcDbEllipse
 62
7
  6
CONTINUOUS
 10
-5.09623591
 20
15.663370704
 30
0.0
 11
-0.0894743295
 21
0.1788832574
 31
0.0
 40
0.6123910759
 41
-0.6848833758
 42
0.0085416008
  0
ELLIPSE
  5
524
100
AcDbEntity
  8
RACCORDO
100
AcDbEllipse
 62
7
  6
CONTINUOUS
 10
-9.8587402142
 20
18.0446228561
 30
0.0
 11
-0.0894743295
 21
0.1788832574
 31
0.0
 40
0.6123910759
 41
-2.2556797026
 42
-0.6848833758
  0
ELLIPSE
  5
525
100
AcDbEntity
  8
RACCORDO
100
AcDbEllipse
 62
7
  6
CONTINUOUS
 10
4.570815179
 20
15.8737504226
 30
0.0
 11
0.9999934239
 21
0.0071767279
 31
0.0
 40
0.5053247124
 41
-0.780298103
 42
-0.0036272974
  0
ELLIPSE
  5
526
100
AcDbEntity
  8
DRAFT
100
AcDbEllipse
 62
7
  6
CONTINUOUS
 10
-11.9752027384
 20
-17.8128631743
 30
0.0
 11
1.102574558
 21
2.2437731106
 31
0.0
 40
0.607010042
 41
-3.8222200741
 42
-3.1457878356
  0
ELLIPSE
  5
527
100
AcDbEntity
  8
RACCORDO
100
AcDbEllipse
 62
7
  6
CONTINUOUS
 10
-2.5468701587
 20
-23.088400985
 30
0.0
 11
0.4535199836
 21
0.8912633791
 31
0.0
 40
0.6176975122
 41
-4.2258021466
 42
-4.0233115959
  0
ELLIPSE
  5
528
100
AcDbEntity
  8
DRAFT
100
AcDbEllipse
 62
7
  6
CONTINUOUS
 10
-11.9752027384
 20
16.828152977
 30
0.0
 11
1.102574558
 21
2.2437731106
 31
0.0
 40
0.607010042
 41
0.6805251943
 42
2.2513215211
  0
ELLIPSE
  5
529
100
AcDbEntity
  8
RACCORDO
100
AcDbEllipse
 62
7
  6
CONTINUOUS
 10
-4.9720140279
 20
-22.2465169218
 30
0.0
 11
0.2267599918
 21
0.4456316896
 31
0.0
 40
0.6176975122
 41
-4.0233115959
 42
-3.1372242108
  0
ELLIPSE
  5
52A
100
AcDbEntity
  8
RACCORDO
100
AcDbEllipse
 62
7
  6
CONTINUOUS
 10
-14.4778387339
 20
13.2806071943
 30
0.0
 11
-0.6708316878
 21
1.3416553672
 31
0.0
 40
0.6123651249
 41
-0.6847157912
 42
0.0037937473
  0
ELLIPSE
  5
52B
100
AcDbEntity
  8
RACCORDO
100
AcDbEllipse
 62
7
  6
CONTINUOUS
 10
-10.9997475083
 20
14.5928374489
 30
0.0
 11
0.3209802941
 21
0.1143687672
 31
0.0
 40
0.3535714462
 41
-2.0304913576
 42
-1.2523756096
  0
ELLIPSE
  5
52C
100
AcDbEntity
  8
RACCORDO
100
AcDbEllipse
 62
7
  6
CONTINUOUS
 10
0.0300787011
 20
17.8172974839
 30
0.0
 11
0.9999938762
 21
-0.0070751823
 31
0.0
 40
0.4946372042
 41
5.5187400918
 42
6.9546324574
  0
ELLIPSE
  5
52D
100
AcDbEntity
  8
RACCORDO
100
AcDbEllipse
 62
7
  6
CONTINUOUS
 10
-13.0972019419
 20
14.9883221858
 30
0.0
 11
0.3999973696
 21
0.0028706912
 31
0.0
 40
0.5053247124
 41
-2.3598210761
 42
-0.7925154078
  0
ELLIPSE
  5
52E
100
AcDbEntity
  8
RACCORDO
100
AcDbEllipse
 62
7
  6
CONTINUOUS
 10
-5.3933080883
 20
11.136375259
 30
0.0
 11
0.3999973696
 21
0.0028706912
 31
0.0
 40
0.5053247124
 41
3.1379657742
 42
3.9233642311
  0
ELLIPSE
  5
52F
100
AcDbEntity
  8
RACCORDO
100
AcDbEllipse
 62
7
  6
CONTINUOUS
 10
-12.5311533084
 20
15.3369566947
 30
0.0
 11
0.1798884669
 21
0.357268698
 31
0.0
 40
0.6145070198
 41
-2.4464235458
 42
-1.9315514165
  0
ELLIPSE
  5
530
100
AcDbEntity
  8
RACCORDO
100
AcDbEllipse
 62
7
  6
CONTINUOUS
 10
-2.5468701587
 20
14.6552571953
 30
0.0
 11
0.4535199836
 21
0.8912633791
 31
0.0
 40
0.6176975122
 41
2.2598737113
 42
3.8219433918
  0
ELLIPSE
  5
531
100
AcDbEntity
  8
RACCORDO
100
AcDbEllipse
 62
7
  6
CONTINUOUS
 10
-4.9720140279
 20
11.4301908893
 30
0.0
 11
0.2267599918
 21
0.4456316896
 31
0.0
 40
0.6176975122
 41
0.6978040307
 42
2.2598737113
  0
ELLIPSE
  5
532
100
AcDbEntity
  8
RACCORDO
100
AcDbEllipse
 62
7
  6
CONTINUOUS
 10
-4.5783567212
 20
-20.2479563084
 30
0.0
 11
-0.6708316878
 21
1.3416553672
 31
0.0
 40
0.6123651249
 41
-3.1454077407
 42
-2.2555243027
  0
ELLIPSE
  5
533
100
AcDbEntity
  8
RACCORDO
100
AcDbEllipse
 62
7
  6
CONTINUOUS
 10
-4.5783567212
 20
8.330866188
 30
0.0
 11
-0.6708172723
 21
1.3416425534
 31
0.0
 40
0.6123797465
 41
-2.2555067568
 42
-0.6847226146
  0
ELLIPSE
  5
534
100
AcDbEntity
  8
DRAFT
100
AcDbEllipse
 62
7
  6
CONTINUOUS
 10
-3.5454588107
 20
-22.0277351382
 30
0.0
 11
1.133799959
 21
2.2281584479
 31
0.0
 40
0.6176975122
 41
2.2598737113
 42
3.8306700381
  0
ELLIPSE
  5
535
100
AcDbEntity
  8
DRAFT
100
AcDbEllipse
 62
7
  6
CONTINUOUS
 10
-3.5454588107
 20
12.6132810132
 30
0.0
 11
1.133799959
 21
2.2281584479
 31
0.0
 40
0.6176975122
 41
0.6890773845
 42
2.2598737113
  0
ELLIPSE
  5
536
100
AcDbEntity
  8
0
100
AcDbEllipse
 62
7
  6
CONTINUOUS
 10
-19.1981540871
 20
-0.1191505258
 30
0.0
 11
141.8021024495
 21
67.8957734228
 31
0.0
 40
0.0173922177
 41
1.4156477288
 42
1.4160840408
  0
ELLIPSE
  5
537
100
AcDbEntity
  8
DRAFT
100
AcDbEllipse
 62
7
  6
CONTINUOUS
 10
9.2102871308
 20
16.4568512222
 30
0.0
 11
2.6999834658
 21
-0.0191029922
 31
0.0
 40
0.4946372042
 41
8.6516060992
 42
9.2017689418
  0
ELLIPSE
  5
538
100
AcDbEntity
  8
0
100
AcDbEllipse
 62
7
  6
CONTINUOUS
 10
-1.1794133043
 20
8.8182777384
 30
0.0
 11
2.4977769595
 21
4.1581880051
 31
0.0
 40
0.5693668513
 41
-0.1024577807
 42
-0.0374624153
  0
ENDSEC
  0
SECTION
  2
OBJECTS
  0
DICTIONARY
  5
C
100
AcDbDictionary
280
0
281
1
  3
ACAD_GROUP
350
D
  3
ACAD_MLINESTYLE
350
17
  3
ACAD_LAYOUT
350
1A
  3
ACAD_PLOTSETTINGS
350
19
  3
ACAD_PLOTSTYLENAME
350
E
  0
DICTIONARY
  5
D
102
{ACAD_REACTORS
330
C
102
}
100
AcDbDictionary
280
0
281
1
  0
ACDBDICTIONARYWDFLT
  5
E
102
{ACAD_REACTORS
330
C
102
}
100
AcDbDictionary
281
1
  3
Normal
350
F
100
AcDbDictionaryWithDefault
340
F
  0
DICTIONARY
  5
17
102
{ACAD_REACTORS
330
C
102
}
100
AcDbDictionary
280
0
281
1
  3
Standard
350
18
  0
DICTIONARY
  5
19
102
{ACAD_REACTORS
330
C
102
}
100
AcDbDictionary
281
1
  0
DICTIONARY
  5
1A
102
{ACAD_REACTORS
330
C
102
}
100
AcDbDictionary
281
1
  3
Model
350
539
  3
Layout1
350
53A
  0
ACDBPLACEHOLDER
  5
F
102
{ACAD_REACTORS
330
E
102
}
  0
MLINESTYLE
  5
18
102
{ACAD_REACTORS
330
17
102
}
100
AcDbMlineStyle
  2
STANDARD
 70
0
  3

 62
256
 51
90.0
 52
90.0
 71
2
 49
0.5
 62
256
  6
BYLAYER
 49
-0.5
 62
256
  6
BYLAYER
  0
LAYOUT
  5
539
102
{ACAD_REACTORS
330
1A
102
}
100
AcDbPlotSettings
  1

  2
none_device
  4
ISO_A4_(297.00_x_210.00_MM)
  6

 40
0.0
 41
0.0
 42
0.0
 43
0.0
 44
297.0
 45
210.0
 46
0.0
 47
0.0
 48
0.0
 49
0.0
140
0.0
141
0.0
142
1.0
143
1.0
 70
1024
 72
1
 73
0
 74
0
  7

 75
0
147
1.0
148
0.0
149
0.0
100
AcDbLayout
  1
Model
 70
0
 71
0
 10
0.0
 20
0.0
 11
297.0
 21
210.0
 12
0.0
 22
0.0
 32
0.0
 14
0.0
 24
0.0
 34
0.0
 15
0.0
 25
0.0
 35
0.0
146
0.0
 13
0.0
 23
0.0
 33
0.0
 16
1.0
 26
0.0
 36
0.0
 17
0.0
 27
1.0
 37
0.0
 76
0
330
219
345
0
346
0
  0
LAYOUT
  5
53A
102
{ACAD_REACTORS
330
1A
102
}
100
AcDbPlotSettings
  1

  2
none_device
  4
ISO_A4_(297.00_x_210.00_MM)
  6

 40
0.0
 41
0.0
 42
0.0
 43
0.0
 44
297.0
 45
210.0
 46
0.0
 47
0.0
 48
0.0
 49
0.0
140
0.0
141
0.0
142
1.0
143
1.0
 70
0
 72
1
 73
0
 74
0
  7

 75
0
147
1.0
148
0.0
149
0.0
100
AcDbLayout
  1
Layout1
 70
0
 71
1
 10
0.0
 20
0.0
 11
297.0
 21
210.0
 12
0.0
 22
0.0
 32
0.0
 14
0.0
 24
0.0
 34
0.0
 15
0.0
 25
0.0
 35
0.0
146
0.0
 13
0.0
 23
0.0
 33
0.0
 16
1.0
 26
0.0
 36
0.0
 17
0.0
 27
1.0
 37
0.0
 76
0
330
21A
345
0
346
0
  0
ENDSEC
  0
EOF
