  0
SECTION
  2
HEADER
  9
$ACADVER
  1
AC1024
  9
$DWGCODEPAGE
  3
ANSI_1252
  9
$EXTMAX
 10
297.0
 20
210.0
 30
0.0
  9
$EXTMIN
 10
0.0
 20
0.0
 30
0.0
  9
$LIMMIN
 10
0.0
 20
0.0
  9
$LIMMAX
 10
297.0
 20
210.0
  9
$VIEWCTR
 10
148.5
 20
105.0
  9
$VIEWSIZE
 40
210.0
  9
$CLAYER
  8
0
  9
$LTSCALE
 40
16.335
  9
$CELTYPE
  6
BYLAYER
  9
$DIMSCALE
 40
1.0
  9
$DIMASZ
 40
3.0
  9
$DIMEXO
 40
0.5
  9
$DIMDLI
 40
11.286
  9
$DIMEXE
 40
1.5
  9
$DIMCEN
 40
2.673
  9
$DIMLFAC
 40
1.0
  9
$DIMBLK
  1
_FILLED
  9
$DIMALT
 70
0
  9
$DIMALTF
 40
0.0393700787
  9
$DIMTXT
 40
3.0
  9
$DIMTOL
 70
1
  9
$DIMLIM
 70
0
  9
$DIMTFAC
 40
1.0
  9
$DIMTP
 40
0.01
  9
$DIMTM
 40
0.01
  9
$DIMGAP
 40
0.625
  9
$DIMDSEP
 70
44
  9
$AUNITS
 70
0
  9
$PDMODE
 70
3
  9
$PDSIZE
 40
3.0
  9
$HANDSEED
  5
346
  9
$TILEMODE
 70
1
  9
$MEASUREMENT
 70
1
  9
$INSUNITS
 70
4
  0
ENDSEC
  0
SECTION
  2
CLASSES
  0
CLASS
  1
ACDBDICTIONARYWDFLT
  2
AcDbDictionaryWithDefault
  3
AutoCAD 2000
 90
0
 91
1
280
0
281
0
  0
CLASS
  1
ACDBPLACEHOLDER
  2
AcDbPlaceHolder
  3
AutoCAD 2000
 90
0
 91
1
280
0
281
0
  0
CLASS
  1
LAYOUT
  2
AcDbLayout
  3
AutoCAD 2000
 90
0
 91
0
280
0
281
0
  0
ENDSEC
  0
SECTION
  2
TABLES
  0
TABLE
  2
VPORT
  5
8
100
AcDbSymbolTable
 70
2
  0
VPORT
  5
1F4
100
AcDbSymbolTableRecord
100
AcDbViewportTableRecord
  2
*ACTIVE
 70
0
 10
0.0
 20
0.0
 11
1.0
 21
1.0
 12
148.5
 22
105.0
 13
0.0
 23
0.0
 14
1.0
 24
1.0
 15
0.0
 25
0.0
 16
0.0
 26
0.0
 36
1.0
 17
0.0
 27
0.0
 37
0.0
 40
210.0
 41
1.4142857143
 42
50.0
 43
0.0
 44
0.0
 50
0.0
 51
0.0
 71
0
 72
100
 73
1
 74
1
 75
0
 76
0
 77
0
 78
0
  0
ENDTAB
  0
TABLE
  2
LTYPE
  5
5
100
AcDbSymbolTable
 70
6
  0
LTYPE
  5
14
100
AcDbSymbolTableRecord
100
AcDbLinetypeTableRecord
  2
BYBLOCK
 70
0
  3

 72
65
 73
0
 40
0.0
  0
LTYPE
  5
15
100
AcDbSymbolTableRecord
100
AcDbLinetypeTableRecord
  2
BYLAYER
 70
0
  3

 72
65
 73
0
 40
0.0
  0
LTYPE
  5
16
100
AcDbSymbolTableRecord
100
AcDbLinetypeTableRecord
  2
CONTINUOUS
 70
64
  3
Solid line
 72
65
 73
0
 40
0.0
  0
LTYPE
  5
1F5
100
AcDbSymbolTableRecord
100
AcDbLinetypeTableRecord
  2
CENTER
 70
64
  3
____ _ ____ _ ____ _ ____ _ ____ _ ____ _ ____
 72
65
 73
4
 40
0.6
 49
0.375
 74
0
 49
-0.075
 74
0
 49
0.075
 74
0
 49
-0.075
 74
0
  0
LTYPE
  5
1F6
100
AcDbSymbolTableRecord
100
AcDbLinetypeTableRecord
  2
HIDDEN
 70
64
  3
- - - - - - - - - - - - - - - - - - - -
 72
65
 73
2
 40
0.2
 49
0.1
 74
0
 49
-0.1
 74
0
  0
LTYPE
  5
1F7
100
AcDbSymbolTableRecord
100
AcDbLinetypeTableRecord
  2
PHANTOM
 70
64
  3
_____ _ _ _____ _ _ _____ _ _ _____
 72
65
 73
6
 40
0.8
 49
0.45
 74
0
 49
-0.05
 74
0
 49
0.1
 74
0
 49
-0.05
 74
0
 49
0.1
 74
0
 49
-0.05
 74
0
  0
LTYPE
  5
1F8
100
AcDbSymbolTableRecord
100
AcDbLinetypeTableRecord
  2
DOT
 70
64
  3
. . . . . . . . . . . . . . . . . . . .
 72
65
 73
2
 40
0.2
 49
0.1
 74
0
 49
-0.1
 74
0
  0
LTYPE
  5
1F9
100
AcDbSymbolTableRecord
100
AcDbLinetypeTableRecord
  2
DASHED
 70
64
  3
- - - - - - - - - - - - - - - - - - - -
 72
65
 73
2
 40
0.2
 49
0.1
 74
0
 49
-0.1
 74
0
  0
ENDTAB
  0
TABLE
  2
LAYER
  5
2
100
AcDbSymbolTable
 70
36
  0
LAYER
  5
10
100
AcDbSymbolTableRecord
100
AcDbLayerTableRecord
  2
0
 70
0
 62
7
  6
CONTINUOUS
370
-3
390
F
  0
LAYER
  5
1FA
100
AcDbSymbolTableRecord
100
AcDbLayerTableRecord
  2
DEFAULT_1
 70
0
 62
7
  6
CENTER
370
-3
390
F
  0
LAYER
  5
1FB
100
AcDbSymbolTableRecord
100
AcDbLayerTableRecord
  2
DEFAULT_2
 70
0
 62
7
  6
HIDDEN
370
-3
390
F
  0
LAYER
  5
1FC
100
AcDbSymbolTableRecord
100
AcDbLayerTableRecord
  2
DEFAULT_3
 70
0
 62
7
  6
PHANTOM
370
-3
390
F
  0
LAYER
  5
1FD
100
AcDbSymbolTableRecord
100
AcDbLayerTableRecord
  2
ASSI
 70
0
 62
7
  6
CONTINUOUS
370
-3
390
F
  0
LAYER
  5
1FE
100
AcDbSymbolTableRecord
100
AcDbLayerTableRecord
  2
B4B-PH-K-S
 70
0
 62
7
  6
CONTINUOUS
370
-3
390
F
  0
LAYER
  5
1FF
100
AcDbSymbolTableRecord
100
AcDbLayerTableRecord
  2
BASE-DT-23-04-2019
 70
0
 62
7
  6
CONTINUOUS
370
-3
390
F
  0
LAYER
  5
200
100
AcDbSymbolTableRecord
100
AcDbLayerTableRecord
  2
BATTERIA_LITIO
 70
0
 62
7
  6
CONTINUOUS
370
-3
390
F
  0
LAYER
  5
201
100
AcDbSymbolTableRecord
100
AcDbLayerTableRecord
  2
CAPACITOR_0603
 70
0
 62
7
  6
CONTINUOUS
370
-3
390
F
  0
LAYER
  5
202
100
AcDbSymbolTableRecord
100
AcDbLayerTableRecord
  2
CAPACITOR_0603_1
 70
0
 62
7
  6
CONTINUOUS
370
-3
390
F
  0
LAYER
  5
203
100
AcDbSymbolTableRecord
100
AcDbLayerTableRecord
  2
CAPACITOR_0603_2
 70
0
 62
7
  6
CONTINUOUS
370
-3
390
F
  0
LAYER
  5
204
100
AcDbSymbolTableRecord
100
AcDbLayerTableRecord
  2
CAPACITOR_0603_3
 70
0
 62
7
  6
CONTINUOUS
370
-3
390
F
  0
LAYER
  5
205
100
AcDbSymbolTableRecord
100
AcDbLayerTableRecord
  2
CAPACITOR_0603_4
 70
0
 62
7
  6
CONTINUOUS
370
-3
390
F
  0
LAYER
  5
206
100
AcDbSymbolTableRecord
100
AcDbLayerTableRecord
  2
CAPACITOR_0603_5
 70
0
 62
7
  6
CONTINUOUS
370
-3
390
F
  0
LAYER
  5
207
100
AcDbSymbolTableRecord
100
AcDbLayerTableRecord
  2
CLIP_BATTERIA
 70
0
 62
7
  6
CONTINUOUS
370
-3
390
F
  0
LAYER
  5
208
100
AcDbSymbolTableRecord
100
AcDbLayerTableRecord
  2
CLIP_BATTERIA_1
 70
0
 62
7
  6
CONTINUOUS
370
-3
390
F
  0
LAYER
  5
209
100
AcDbSymbolTableRecord
100
AcDbLayerTableRecord
  2
CLIP_BATTERIA_2
 70
0
 62
7
  6
CONTINUOUS
370
-3
390
F
  0
LAYER
  5
20A
100
AcDbSymbolTableRecord
100
AcDbLayerTableRecord
  2
COLOR4
 70
0
 62
7
  6
CONTINUOUS
370
-3
390
F
  0
LAYER
  5
20B
100
AcDbSymbolTableRecord
100
AcDbLayerTableRecord
  2
COLOR43
 70
0
 62
7
  6
CONTINUOUS
370
-3
390
F
  0
LAYER
  5
20C
100
AcDbSymbolTableRecord
100
AcDbLayerTableRecord
  2
COLOR58
 70
0
 62
7
  6
CONTINUOUS
370
-3
390
F
  0
LAYER
  5
20D
100
AcDbSymbolTableRecord
100
AcDbLayerTableRecord
  2
COLOR64
 70
0
 62
7
  6
CONTINUOUS
370
-3
390
F
  0
LAYER
  5
20E
100
AcDbSymbolTableRecord
100
AcDbLayerTableRecord
  2
COLOR65
 70
0
 62
7
  6
CONTINUOUS
370
-3
390
F
  0
LAYER
  5
20F
100
AcDbSymbolTableRecord
100
AcDbLayerTableRecord
  2
COLOR68
 70
0
 62
7
  6
CONTINUOUS
370
-3
390
F
  0
LAYER
  5
210
100
AcDbSymbolTableRecord
100
AcDbLayerTableRecord
  2
COLOR69
 70
0
 62
7
  6
CONTINUOUS
370
-3
390
F
  0
LAYER
  5
211
100
AcDbSymbolTableRecord
100
AcDbLayerTableRecord
  2
COLOR72
 70
0
 62
7
  6
CONTINUOUS
370
-3
390
F
  0
LAYER
  5
212
100
AcDbSymbolTableRecord
100
AcDbLayerTableRecord
  2
COLOR73
 70
0
 62
7
  6
CONTINUOUS
370
-3
390
F
  0
LAYER
  5
213
100
AcDbSymbolTableRecord
100
AcDbLayerTableRecord
  2
COLOR74
 70
0
 62
7
  6
CONTINUOUS
370
-3
390
F
  0
LAYER
  5
214
100
AcDbSymbolTableRecord
100
AcDbLayerTableRecord
  2
COORDINATE
 70
0
 62
7
  6
CONTINUOUS
370
-3
390
F
  0
LAYER
  5
215
100
AcDbSymbolTableRecord
100
AcDbLayerTableRecord
  2
COPERTURA_LENTE-AGGIORNATAMARCO
 70
0
 62
7
  6
CONTINUOUS
370
-3
390
F
  0
LAYER
  5
216
100
AcDbSymbolTableRecord
100
AcDbLayerTableRecord
  2
COPY_PUBLISH
 70
0
 62
7
  6
CONTINUOUS
370
-3
390
F
  0
LAYER
  5
217
100
AcDbSymbolTableRecord
100
AcDbLayerTableRecord
  2
COSMETICI
 70
0
 62
7
  6
CONTINUOUS
370
-3
390
F
  0
LAYER
  5
218
100
AcDbSymbolTableRecord
100
AcDbLayerTableRecord
  2
COVER-DT-23-04-2019
 70
0
 62
7
  6
CONTINUOUS
370
-3
390
F
  0
LAYER
  5
219
100
AcDbSymbolTableRecord
100
AcDbLayerTableRecord
  2
CURVE
 70
0
 62
7
  6
CONTINUOUS
370
-3
390
F
  0
LAYER
  5
21A
100
AcDbSymbolTableRecord
100
AcDbLayerTableRecord
  2
DADO_QUADRO_M3
 70
0
 62
7
  6
CONTINUOUS
370
-3
390
F
  0
LAYER
  5
21B
100
AcDbSymbolTableRecord
100
AcDbLayerTableRecord
  2
DOPPIAT-PORTASENSORE
 70
0
 62
7
  6
CONTINUOUS
370
-3
390
F
  0
LAYER
  5
21C
100
AcDbSymbolTableRecord
100
AcDbLayerTableRecord
  2
DRAFT
 70
0
 62
7
  6
CONTINUOUS
370
-3
390
F
  0
LAYER
  5
21D
100
AcDbSymbolTableRecord
100
AcDbLayerTableRecord
  2
GUIDALUCE-FOTODIODO
 70
0
 62
7
  6
CONTINUOUS
370
-3
390
F
  0
LAYER
  5
21E
100
AcDbSymbolTableRecord
100
AcDbLayerTableRecord
  2
GUIDALUCE-TRASMETTITORE
 70
0
 62
7
  6
CONTINUOUS
370
-3
390
F
  0
LAYER
  5
21F
100
AcDbSymbolTableRecord
100
AcDbLayerTableRecord
  2
IMPORT_IGES
 70
0
 62
7
  6
CONTINUOUS
370
-3
390
F
  0
LAYER
  5
220
100
AcDbSymbolTableRecord
100
AcDbLayerTableRecord
  2
LENTE_REV02
 70
0
 62
7
  6
CONTINUOUS
370
-3
390
F
  0
LAYER
  5
221
100
AcDbSymbolTableRecord
100
AcDbLayerTableRecord
  2
LIGHT-PIPE
 70
0
 62
7
  6
CONTINUOUS
370
-3
390
F
  0
LAYER
  5
222
100
AcDbSymbolTableRecord
100
AcDbLayerTableRecord
  2
MICROONDA-MICROWAVE
 70
0
 62
7
  6
CONTINUOUS
370
-3
390
F
  0
LAYER
  5
223
100
AcDbSymbolTableRecord
100
AcDbLayerTableRecord
  2
MICROONDA-ROMA
 70
0
 62
7
  6
CONTINUOUS
370
-3
390
F
  0
LAYER
  5
224
100
AcDbSymbolTableRecord
100
AcDbLayerTableRecord
  2
MICROSW-PTS-5232R
 70
0
 62
7
  6
CONTINUOUS
370
-3
390
F
  0
LAYER
  5
225
100
AcDbSymbolTableRecord
100
AcDbLayerTableRecord
  2
MOLLA_DOPPIA
 70
0
 62
7
  6
CONTINUOUS
370
-3
390
F
  0
LAYER
  5
226
100
AcDbSymbolTableRecord
100
AcDbLayerTableRecord
  2
MORSETTIERA-PXC_1751303_04_MKDS
 70
0
 62
7
  6
CONTINUOUS
370
-3
390
F
  0
LAYER
  5
227
100
AcDbSymbolTableRecord
100
AcDbLayerTableRecord
  2
NOTE
 70
0
 62
7
  6
CONTINUOUS
370
-3
390
F
  0
LAYER
  5
228
100
AcDbSymbolTableRecord
100
AcDbLayerTableRecord
  2
P441_03835_03836_RIVELATORE_IR_
 70
0
 62
7
  6
CONTINUOUS
370
-3
390
F
  0
LAYER
  5
229
100
AcDbSymbolTableRecord
100
AcDbLayerTableRecord
  2
PCB-IN263-R1
 70
0
 62
7
  6
CONTINUOUS
370
-3
390
F
  0
LAYER
  5
22A
100
AcDbSymbolTableRecord
100
AcDbLayerTableRecord
  2
PCB-IN263R1
 70
0
 62
7
  6
CONTINUOUS
370
-3
390
F
  0
LAYER
  5
22B
100
AcDbSymbolTableRecord
100
AcDbLayerTableRecord
  2
PIANI
 70
0
 62
7
  6
CONTINUOUS
370
-3
390
F
  0
LAYER
  5
22C
100
AcDbSymbolTableRecord
100
AcDbLayerTableRecord
  2
PULSANTE-KSC421J70SHLFS
 70
0
 62
7
  6
CONTINUOUS
370
-3
390
F
  0
LAYER
  5
22D
100
AcDbSymbolTableRecord
100
AcDbLayerTableRecord
  2
PULSANTE-KSC421J70SHLFS_1
 70
0
 62
7
  6
CONTINUOUS
370
-3
390
F
  0
LAYER
  5
22E
100
AcDbSymbolTableRecord
100
AcDbLayerTableRecord
  2
PUNTI
 70
0
 62
7
  6
CONTINUOUS
370
-3
390
F
  0
LAYER
  5
22F
100
AcDbSymbolTableRecord
100
AcDbLayerTableRecord
  2
RACCORDO
 70
0
 62
7
  6
CONTINUOUS
370
-3
390
F
  0
LAYER
  5
230
100
AcDbSymbolTableRecord
100
AcDbLayerTableRecord
  2
SENSORE
 70
0
 62
7
  6
CONTINUOUS
370
-3
390
F
  0
LAYER
  5
231
100
AcDbSymbolTableRecord
100
AcDbLayerTableRecord
  2
SIMBOLI
 70
0
 62
7
  6
CONTINUOUS
370
-3
390
F
  0
LAYER
  5
232
100
AcDbSymbolTableRecord
100
AcDbLayerTableRecord
  2
SMUSSO
 70
0
 62
7
  6
CONTINUOUS
370
-3
390
F
  0
LAYER
  5
233
100
AcDbSymbolTableRecord
100
AcDbLayerTableRecord
  2
SOIC-8
 70
0
 62
7
  6
CONTINUOUS
370
-3
390
F
  0
LAYER
  5
234
100
AcDbSymbolTableRecord
100
AcDbLayerTableRecord
  2
STRIP2
 70
0
 62
7
  6
CONTINUOUS
370
-3
390
F
  0
LAYER
  5
235
100
AcDbSymbolTableRecord
100
AcDbLayerTableRecord
  2
STRIP2X4
 70
0
 62
7
  6
CONTINUOUS
370
-3
390
F
  0
LAYER
  5
236
100
AcDbSymbolTableRecord
100
AcDbLayerTableRecord
  2
STRIP2_1
 70
0
 62
7
  6
CONTINUOUS
370
-3
390
F
  0
LAYER
  5
237
100
AcDbSymbolTableRecord
100
AcDbLayerTableRecord
  2
STRIP2_2
 70
0
 62
7
  6
CONTINUOUS
370
-3
390
F
  0
LAYER
  5
238
100
AcDbSymbolTableRecord
100
AcDbLayerTableRecord
  2
STRIP2_3
 70
0
 62
7
  6
CONTINUOUS
370
-3
390
F
  0
LAYER
  5
239
100
AcDbSymbolTableRecord
100
AcDbLayerTableRecord
  2
SUPERFICI
 70
0
 62
7
  6
CONTINUOUS
370
-3
390
F
  0
LAYER
  5
23A
100
AcDbSymbolTableRecord
100
AcDbLayerTableRecord
  2
SUPPORTO_MICROONDA-MICROWAVE
 70
0
 62
7
  6
CONTINUOUS
370
-3
390
F
  0
LAYER
  5
23B
100
AcDbSymbolTableRecord
100
AcDbLayerTableRecord
  2
SUPPORTO_MICROONDA-MICROWAVE_1
 70
0
 62
7
  6
CONTINUOUS
370
-3
390
F
  0
LAYER
  5
23C
100
AcDbSymbolTableRecord
100
AcDbLayerTableRecord
  2
TRASH
 70
0
 62
7
  6
CONTINUOUS
370
-3
390
F
  0
LAYER
  5
23D
100
AcDbSymbolTableRecord
100
AcDbLayerTableRecord
  2
VITE2_9X6_5SP
 70
0
 62
7
  6
CONTINUOUS
370
-3
390
F
  0
LAYER
  5
23E
100
AcDbSymbolTableRecord
100
AcDbLayerTableRecord
  2
VITEM3XCON_INCASSO
 70
0
 62
7
  6
CONTINUOUS
370
-3
390
F
  0
LAYER
  5
23F
100
AcDbSymbolTableRecord
100
AcDbLayerTableRecord
  2
XIR200NEW-01-10-2019
 70
0
 62
7
  6
CONTINUOUS
370
-3
390
F
  0
LAYER
  5
240
100
AcDbSymbolTableRecord
100
AcDbLayerTableRecord
  2
_KSC41J_PIN
 70
0
 62
7
  6
CONTINUOUS
370
-3
390
F
  0
LAYER
  5
241
100
AcDbSymbolTableRecord
100
AcDbLayerTableRecord
  2
_KSC41J_PIN_1
 70
0
 62
7
  6
CONTINUOUS
370
-3
390
F
  0
LAYER
  5
242
100
AcDbSymbolTableRecord
100
AcDbLayerTableRecord
  2
_KSC41J_PIN_2
 70
0
 62
7
  6
CONTINUOUS
370
-3
390
F
  0
LAYER
  5
243
100
AcDbSymbolTableRecord
100
AcDbLayerTableRecord
  2
_KSC41J_PIN_3
 70
0
 62
7
  6
CONTINUOUS
370
-3
390
F
  0
LAYER
  5
244
100
AcDbSymbolTableRecord
100
AcDbLayerTableRecord
  2
_KSC41J_PIN_4
 70
0
 62
7
  6
CONTINUOUS
370
-3
390
F
  0
LAYER
  5
245
100
AcDbSymbolTableRecord
100
AcDbLayerTableRecord
  2
_KSC41J_PIN_5
 70
0
 62
7
  6
CONTINUOUS
370
-3
390
F
  0
LAYER
  5
246
100
AcDbSymbolTableRecord
100
AcDbLayerTableRecord
  2
_KSC41J_PIN_6
 70
0
 62
7
  6
CONTINUOUS
370
-3
390
F
  0
LAYER
  5
247
100
AcDbSymbolTableRecord
100
AcDbLayerTableRecord
  2
_KSC41J_PIN_7
 70
0
 62
7
  6
CONTINUOUS
370
-3
390
F
  0
LAYER
  5
248
100
AcDbSymbolTableRecord
100
AcDbLayerTableRecord
  2
_KSC4_-_BODY
 70
0
 62
7
  6
CONTINUOUS
370
-3
390
F
  0
LAYER
  5
249
100
AcDbSymbolTableRecord
100
AcDbLayerTableRecord
  2
_KSC4_-_BODY_1
 70
0
 62
7
  6
CONTINUOUS
370
-3
390
F
  0
LAYER
  5
24A
100
AcDbSymbolTableRecord
100
AcDbLayerTableRecord
  2
_KSC4_-_COVER
 70
0
 62
7
  6
CONTINUOUS
370
-3
390
F
  0
LAYER
  5
24B
100
AcDbSymbolTableRecord
100
AcDbLayerTableRecord
  2
_KSC4_-_COVER_1
 70
0
 62
7
  6
CONTINUOUS
370
-3
390
F
  0
LAYER
  5
24C
100
AcDbSymbolTableRecord
100
AcDbLayerTableRecord
  2
_KSC4__-_BUTTON
 70
0
 62
7
  6
CONTINUOUS
370
-3
390
F
  0
LAYER
  5
24D
100
AcDbSymbolTableRecord
100
AcDbLayerTableRecord
  2
_KSC4__-_BUTTON_1
 70
0
 62
7
  6
CONTINUOUS
370
-3
390
F
  0
LAYER
  5
24E
100
AcDbSymbolTableRecord
100
AcDbLayerTableRecord
  2
___SHELL
 70
0
 62
7
  6
CONTINUOUS
370
-3
390
F
  0
ENDTAB
  0
TABLE
  2
STYLE
  5
3
100
AcDbSymbolTable
 70
1
  0
STYLE
  5
11
100
AcDbSymbolTableRecord
100
AcDbTextStyleTableRecord
  2
STANDARD
 70
0
 40
0.0
 41
0.8
 50
0.0
 71
0
 42
0.2
  3
txt
  4

  0
STYLE
  5
24F
100
AcDbSymbolTableRecord
100
AcDbTextStyleTableRecord
  2
TEXTSTYLE_1
 70
0
 40
0.0
 41
0.8
 50
0.0
 71
0
 42
0.2
  3
gdt
  4

  0
ENDTAB
  0
TABLE
  2
VIEW
  5
6
100
AcDbSymbolTable
 70
0
  0
ENDTAB
  0
TABLE
  2
UCS
  5
7
100
AcDbSymbolTable
 70
0
  0
ENDTAB
  0
TABLE
  2
APPID
  5
9
100
AcDbSymbolTable
 70
1
  0
APPID
  5
250
100
AcDbSymbolTableRecord
100
AcDbRegAppTableRecord
  2
ACAD
 70
0
  0
ENDTAB
  0
TABLE
  2
BLOCK_RECORD
  5
1
100
AcDbSymbolTable
 70
0
  0
BLOCK_RECORD
  5
251
100
AcDbSymbolTableRecord
100
AcDbBlockTableRecord
  2
*Model_Space
  0
BLOCK_RECORD
  5
252
100
AcDbSymbolTableRecord
100
AcDbBlockTableRecord
  2
*Paper_Space
  0
BLOCK_RECORD
  5
253
100
AcDbSymbolTableRecord
100
AcDbBlockTableRecord
  2
_FILLED
  0
ENDTAB
  0
TABLE
  2
DIMSTYLE
  5
A
100
AcDbSymbolTable
 70
1
100
AcDbDimStyleTable
 71
0
  0
DIMSTYLE
105
254
100
AcDbSymbolTableRecord
100
AcDbDimStyleTableRecord
  2
STANDARD
 70
0
  3

  4

 40
1.0
 41
3.0
 42
0.5
 43
0.38
 44
1.5
 45
0.0
 46
0.0
 47
0.01
 48
0.01
140
3.0
141
0.09
142
0.0
143
25.4
144
1.0
145
0.0
146
1.0
147
0.625
 71
1
 72
0
 73
0
 74
0
 75
0
 76
0
 77
1
 78
8
 79
2
170
0
171
1
172
0
173
0
174
0
175
0
176
0
177
0
178
0
270
2
179
2
271
2
272
2
273
2
274
2
275
0
280
0
281
0
282
0
283
1
284
8
285
0
286
0
287
3
288
0
340
11
278
44
341
253
342
253
343
253
344
253
  0
ENDTAB
  0
ENDSEC
  0
SECTION
  2
BLOCKS
  0
BLOCK
  5
20
100
AcDbEntity
  8
0
100
AcDbBlockBegin
  2
*Model_Space
 70
0
 10
0.0
 20
0.0
 30
0.0
  3
*Model_Space
  1

  0
ENDBLK
  5
21
100
AcDbEntity
  8
0
100
AcDbBlockEnd
  0
BLOCK
  5
1C
100
AcDbEntity
  8
0
100
AcDbBlockBegin
  2
*Paper_Space
 70
0
 10
0.0
 20
0.0
 30
0.0
  3
*Paper_Space
  1

  0
ENDBLK
  5
1D
100
AcDbEntity
  8
0
100
AcDbBlockEnd
  0
BLOCK
  5
255
100
AcDbEntity
  8
0
100
AcDbBlockBegin
  2
_FILLED
 70
64
 10
0.0
 20
0.0
  3
_FILLED
  1

  0
SOLID
  5
256
100
AcDbEntity
  8
0
  6
BYBLOCK
 62
0
100
AcDbTrace
 10
0.0
 20
0.0
 11
-1.0
 21
0.3166666667
 12
-1.0
 22
-0.3166666667
 13
-1.0
 23
-0.3166666667
  0
ENDBLK
  5
257
100
AcDbEntity
  8
0
  6
BYBLOCK
 62
0
100
AcDbBlockEnd
  0
ENDSEC
  0
SECTION
  2
ENTITIES
  0
LWPOLYLINE
  5
258
100
AcDbEntity
  8
IMPORT_IGES
100
AcDbPolyline
 62
7
  6
CONTINUOUS
 90
11
 70
0
 10
18.6258030519
 20
-56.320795868
 10
18.1088260383
 20
-56.4316535771
 10
17.5790327518
 20
-56.5119404174
 10
17.0358753823
 20
-56.5621682118
 10
16.4787536777
 20
-56.5827392463
 10
15.9072452882
 20
-56.5742317937
 10
15.3211107097
 20
-56.5373938528
 10
14.7194419758
 20
-56.4725792317
 10
14.1022819283
 20
-56.3803023029
 10
13.4708464129
 20
-56.2615325974
 10
13.1882145984
 20
-56.2009322504
  0
LWPOLYLINE
  5
259
100
AcDbEntity
  8
IMPORT_IGES
100
AcDbPolyline
 62
7
  6
CONTINUOUS
 90
40
 70
0
 10
19.4534763589
 20
-56.9628258914
 10
19.4772348367
 20
-56.9584242506
 10
19.4990847621
 20
-56.9535484557
 10
19.5192140312
 20
-56.9481574348
 10
19.537629567
 20
-56.942236333
 10
19.5542307428
 20
-56.9357865238
 10
19.5690184193
 20
-56.9287814835
 10
19.581931836
 20
-56.92121362
 10
19.5929147705
 20
-56.9130747354
 10
19.6019421869
 20
-56.9043305842
 10
19.6089433734
 20
-56.8949706527
 10
19.6138481701
 20
-56.8849872339
 10
19.6166003683
 20
-56.8743441117
 10
19.6171210499
 20
-56.8630335656
 10
19.6153342997
 20
-56.8510459962
 10
19.6111562324
 20
-56.8383368345
 10
19.6044978923
 20
-56.8248939765
 10
19.5952764719
 20
-56.810714332
 10
19.5833894998
 20
-56.7957630561
 10
19.56874127
 20
-56.7800246486
 10
19.5512589543
 20
-56.7635078665
 10
19.5308701562
 20
-56.7462157538
 10
19.5075096991
 20
-56.7281504307
 10
19.4811236713
 20
-56.7093220398
 10
19.451672729
 20
-56.6897515127
 10
19.4191133966
 20
-56.6694476384
 10
19.3834307403
 20
-56.6484367049
 10
19.344637321
 20
-56.6267665791
 10
19.3026677107
 20
-56.604437474
 10
19.2574655896
 20
-56.5814532784
 10
19.2090470595
 20
-56.5578575781
 10
19.1573747313
 20
-56.5336595616
 10
19.1024088247
 20
-56.5088631815
 10
19.0441903158
 20
-56.4835089159
 10
18.9827385991
 20
-56.457595199
 10
18.9180034402
 20
-56.4311456077
 10
18.8499449307
 20
-56.4042476585
 10
18.7785569781
 20
-56.3769481993
 10
18.7038596985
 20
-56.3492464915
 10
18.6258673891
 20
-56.3211673571
  0
LWPOLYLINE
  5
25A
100
AcDbEntity
  8
IMPORT_IGES
100
AcDbPolyline
 62
7
  6
CONTINUOUS
 90
6
 70
0
 10
20.0412219817
 20
-56.8915856233
 10
20.1143613131
 20
-56.8809480277
 10
20.1817964177
 20
-56.8673634791
 10
20.2431535207
 20
-56.8506840219
 10
20.298090009
 20
-56.8307637725
 10
20.3349602609
 20
-56.8135340745
  0
LWPOLYLINE
  5
25B
100
AcDbEntity
  8
IMPORT_IGES
100
AcDbPolyline
 62
7
  6
CONTINUOUS
 90
3
 70
0
 10
19.4123948603
 20
-56.9687872611
 10
19.4277691261
 20
-56.9667653733
 10
19.4534763589
 20
-56.9628258914
  0
LINE
  5
25C
100
AcDbEntity
  8
IMPORT_IGES
100
AcDbLine
 62
7
  6
CONTINUOUS
 10
19.7743129667
 20
-56.9241669354
 11
19.7904347037
 21
-56.9221225902
  0
LWPOLYLINE
  5
25D
100
AcDbEntity
  8
IMPORT_IGES
100
AcDbPolyline
 62
7
  6
CONTINUOUS
 90
15
 70
0
 10
-18.2293412185
 20
54.3194910246
 10
-18.3656347731
 20
54.2236858183
 10
-18.5425176403
 20
54.0916842542
 10
-18.7077368188
 20
53.9592940845
 10
-18.8611989469
 20
53.8268830564
 10
-19.0031781628
 20
53.6944808559
 10
-19.1342993129
 20
53.5616699282
 10
-19.254679035
 20
53.428394614
 10
-19.3643305689
 20
53.294665582
 10
-19.46364341
 20
53.1599354871
 10
-19.5527054978
 20
53.0238529251
 10
-19.6312166223
 20
52.8865999602
 10
-19.698914404
 20
52.7484473459
 10
-19.7557145552
 20
52.6096669587
 10
-19.8042645388
 20
52.4615891905
  0
LINE
  5
25E
100
AcDbEntity
  8
IMPORT_IGES
100
AcDbLine
 62
7
  6
CONTINUOUS
 10
-16.8670409361
 20
55.2536123806
 11
-18.2294503344
 21
54.3194162392
  0
LINE
  5
25F
100
AcDbEntity
  8
IMPORT_IGES
100
AcDbLine
 62
250
  6
CONTINUOUS
 10
-17.915427919
 20
54.3632421764
 11
-16.5485607451
 21
55.3005727388
  0
LINE
  5
260
100
AcDbEntity
  8
IMPORT_IGES
100
AcDbLine
 62
250
  6
CONTINUOUS
 10
-18.2294503344
 20
54.3194162392
 11
-18.2293330252
 21
54.3194966373
  0
LWPOLYLINE
  5
261
100
AcDbEntity
  8
IMPORT_IGES
100
AcDbPolyline
 62
250
  6
CONTINUOUS
 90
9
 70
0
 10
-18.2293330252
 20
54.3194966373
 10
-18.2140829913
 20
54.3292934827
 10
-18.1787230572
 20
54.3475781833
 10
-18.1406566581
 20
54.3615187923
 10
-18.1000210647
 20
54.3710272944
 10
-18.0569751659
 20
54.3760176078
 10
-18.0117092289
 20
54.3764144717
 10
-17.9644496759
 20
54.3721649312
 10
-17.915427919
 20
54.3632421764
  0
LWPOLYLINE
  5
262
100
AcDbEntity
  8
IMPORT_IGES
100
AcDbPolyline
 62
7
  6
CONTINUOUS
 90
9
 70
0
 10
-16.8670166982
 20
55.2535727964
 10
-16.8468860674
 20
55.2663552974
 10
-16.8103485065
 20
55.2848700265
 10
-16.771439594
 20
55.2988725094
 10
-16.7301933664
 20
55.3084274917
 10
-16.6872213955
 20
55.3133894328
 10
-16.6427275384
 20
55.3137098193
 10
-16.5965079379
 20
55.3094371646
 10
-16.548562594
 20
55.3005714687
  0
LWPOLYLINE
  5
263
100
AcDbEntity
  8
IMPORT_IGES
100
AcDbPolyline
 62
7
  6
CONTINUOUS
 90
7
 70
0
 10
-16.4765168624
 20
55.4797777794
 10
-16.4934194301
 20
55.4705188331
 10
-16.5276276365
 20
55.4475804528
 10
-16.5589836534
 20
55.4205434026
 10
-16.5874461749
 20
55.3893483326
 10
-16.6130565068
 20
55.3540545928
 10
-16.6354322359
 20
55.3151838959
  0
LINE
  5
264
100
AcDbEntity
  8
IMPORT_IGES
100
AcDbLine
 62
7
  6
CONTINUOUS
 10
-16.4765240712
 20
55.4797907739
 11
-13.5636934977
 21
56.9635841676
  0
LINE
  5
265
100
AcDbEntity
  8
IMPORT_IGES
100
AcDbLine
 62
7
  6
CONTINUOUS
 10
-16.1947592695
 20
55.504650465
 11
-13.3121019942
 21
56.9725658964
  0
LWPOLYLINE
  5
266
100
AcDbEntity
  8
IMPORT_IGES
100
AcDbPolyline
 62
7
  6
CONTINUOUS
 90
8
 70
0
 10
-13.565038948
 20
56.9628987893
 10
-13.5369204834
 20
56.9752535361
 10
-13.5079617239
 20
56.9841614378
 10
-13.478089184
 20
56.9897170734
 10
-13.4465833076
 20
56.9921523618
 10
-13.4132441341
 20
56.991416204
 10
-13.3784486825
 20
56.9873162207
 10
-13.3748528298
 20
56.9867106131
  0
LINE
  5
267
100
AcDbEntity
  8
IMPORT_IGES
100
AcDbLine
 62
250
  6
CONTINUOUS
 10
20.0412168711
 20
-56.8915697218
 11
19.4128527175
 21
-56.9681235194
  0
LWPOLYLINE
  5
268
100
AcDbEntity
  8
IMPORT_IGES
100
AcDbPolyline
 62
7
  6
CONTINUOUS
 90
3
 70
0
 10
19.3709116778
 20
-56.9732332091
 10
19.4002330896
 20
-56.9702332909
 10
19.4123948603
 20
-56.9687872611
  0
LWPOLYLINE
  5
269
100
AcDbEntity
  8
IMPORT_IGES
100
AcDbPolyline
 62
7
  6
CONTINUOUS
 90
8
 70
0
 10
19.3709422531
 20
-56.972803736
 10
18.8055009833
 20
-57.0081041453
 10
18.2275902714
 20
-57.0144981009
 10
17.6372614785
 20
-56.9926888848
 10
17.0339152433
 20
-56.9432782103
 10
16.4174837258
 20
-56.8669394401
 10
15.7884385379
 20
-56.7644612856
 10
15.1461706441
 20
-56.6364332145
  0
LINE
  5
26A
100
AcDbEntity
  8
IMPORT_IGES
100
AcDbLine
 62
7
  6
CONTINUOUS
 10
13.1882204306
 20
-56.2009394382
 11
15.1461706441
 21
-56.6364332145
  0
LWPOLYLINE
  5
26B
100
AcDbEntity
  8
IMPORT_IGES
100
AcDbPolyline
 62
7
  6
CONTINUOUS
 90
10
 70
0
 10
13.1882145984
 20
-56.2009322504
 10
12.8246780044
 20
-56.1165493545
 10
12.1634845635
 20
-55.9458569493
 10
11.4887521221
 20
-55.750746878
 10
10.7993573275
 20
-55.5312592166
 10
10.0958142021
 20
-55.2880119466
 10
9.3820852083
 20
-55.0231467761
 10
8.6588543629
 20
-54.7371573845
 10
7.9249442446
 20
-54.4300974223
 10
7.5398858202
 20
-54.260883783
  0
LINE
  5
26C
100
AcDbEntity
  8
IMPORT_IGES
100
AcDbLine
 62
250
  6
CONTINUOUS
 10
15.887219106
 20
-45.9947553465
 11
15.2263660615
 21
-46.02932517
  0
LINE
  5
26D
100
AcDbEntity
  8
IMPORT_IGES
100
AcDbLine
 62
7
  6
CONTINUOUS
 10
2.3334013226
 20
51.2221843089
 11
7.9895682405
 21
54.2713771318
  0
LWPOLYLINE
  5
26E
100
AcDbEntity
  8
IMPORT_IGES
100
AcDbPolyline
 62
7
  6
CONTINUOUS
 90
38
 70
0
 10
-18.2308130863
 20
-38.5297214647
 10
-17.5977868406
 20
-38.8533013193
 10
-16.9481988022
 20
-39.1693447003
 10
-16.2826165967
 20
-39.4776369176
 10
-15.602743101
 20
-39.7775339013
 10
-14.9085741911
 20
-40.0690403971
 10
-14.200113991
 20
-40.3521516594
 10
-13.4790777498
 20
-40.6262093815
 10
-12.7451246402
 20
-40.8913081831
 10
-11.9985954895
 20
-41.1473534446
 10
-11.2422280283
 20
-41.393403
 10
-10.4765367218
 20
-41.6292845939
 10
-9.7010071048
 20
-41.8551704818
 10
-8.9168335119
 20
-42.0706352647
 10
-8.1238753037
 20
-42.2757416211
 10
-7.3222731197
 20
-42.4704268725
 10
-6.5136432127
 20
-42.6540775842
 10
-5.6978348732
 20
-42.8266482956
 10
-4.8749988106
 20
-42.9881844673
 10
-4.0472034067
 20
-43.138209046
 10
-3.2144609652
 20
-43.2766325306
 10
-2.3767591824
 20
-43.4035444221
 10
-1.5361295283
 20
-43.5187361705
 10
-0.6925025997
 20
-43.6222102618
 10
0.1540522001
 20
-43.7139642099
 10
1.0012951911
 20
-43.7937820063
 10
1.8493443162
 20
-43.8616567994
 10
2.6980816324
 20
-43.9175954409
 10
3.544913631
 20
-43.9614024769
 10
4.3897687382
 20
-43.9930535837
 10
5.2327185277
 20
-44.0125730851
 10
6.071384212
 20
-44.0198384991
 10
6.9057548548
 20
-44.0148338074
 10
7.7358413923
 20
-43.9975750284
 10
8.5592978463
 20
-43.967987735
 10
9.3753422239
 20
-43.9260471182
 10
10.1847565181
 20
-43.8717779871
 10
10.9875407287
 20
-43.8051803417
  0
LWPOLYLINE
  5
26F
100
AcDbEntity
  8
IMPORT_IGES
100
AcDbPolyline
 62
7
  6
CONTINUOUS
 90
72
 70
0
 10
-18.4832990834
 20
-38.3203732418
 10
-18.1459874543
 20
-38.4937733387
 10
-17.8045822103
 20
-38.6647863417
 10
-17.4591734191
 20
-38.8333826035
 10
-17.1098438544
 20
-38.9995320581
 10
-16.756510916
 20
-39.1633252128
 10
-16.3992417461
 20
-39.3247392318
 10
-16.0381337178
 20
-39.4837329873
 10
-15.6731406063
 20
-39.6403630603
 10
-15.3043465448
 20
-39.7945975176
 10
-14.9318288756
 20
-39.9464023402
 10
-14.5555241058
 20
-40.0958250241
 10
-14.1754247178
 20
-40.2428674419
 10
-13.7916952073
 20
-40.3874568007
 10
-13.4045303861
 20
-40.5295287671
 10
-13.0138514801
 20
-40.6691177265
 10
-12.6199047157
 20
-40.8061268923
 10
-12.2233912874
 20
-40.9403148575
 10
-11.824624953
 20
-41.0716074944
 10
-11.4234968216
 20
-41.2000594108
 10
-11.0200882306
 20
-41.3256389442
 10
-10.6148521802
 20
-41.4482320371
 10
-10.2075401511
 20
-41.5679403554
 10
-9.7971599902
 20
-41.6850290343
 10
-9.3834474151
 20
-41.7995567946
 10
-8.966824399
 20
-41.9113898207
 10
-8.5473083305
 20
-42.0204759716
 10
-8.1245269875
 20
-42.1269004989
 10
-7.6990154541
 20
-42.2305012737
 10
-7.2721719931
 20
-42.3308880101
 10
-6.8443918511
 20
-42.4280050876
 10
-6.4154906045
 20
-42.5219160705
 10
-5.9860208653
 20
-42.6124560203
 10
-5.5564249083
 20
-42.6995586862
 10
-5.1264766808
 20
-42.7833276649
 10
-4.6957243883
 20
-42.8638515677
 10
-4.2644302415
 20
-42.9410859635
 10
-3.8325299456
 20
-43.015086871
 10
-3.3990669575
 20
-43.086054104
 10
-2.9642349663
 20
-43.1539480469
 10
-2.5280212046
 20
-43.2187703664
 10
-2.0891435953
 20
-43.2807223994
 10
-1.6471429828
 20
-43.3398217246
 10
-1.2026502145
 20
-43.3959355847
 10
-0.7560146074
 20
-43.4490123227
 10
-0.3068910189
 20
-43.4990627123
 10
0.1441858399
 20
-43.5459790006
 10
0.5955389209
 20
-43.5895804462
 10
1.0466980726
 20
-43.6298442886
 10
1.4979287414
 20
-43.6667971204
 10
1.948653563
 20
-43.70038704
 10
2.3985040174
 20
-43.7306154872
 10
2.8476465747
 20
-43.7575131165
 10
3.2963066913
 20
-43.7810770621
 10
3.7444087913
 20
-43.8013185667
 10
4.1918281986
 20
-43.8182416503
 10
4.638715641
 20
-43.8318189418
 10
5.0849906282
 20
-43.842057561
 10
5.5305324936
 20
-43.8489579123
 10
5.9754296915
 20
-43.8524724381
 10
6.4196421151
 20
-43.8526058941
 10
6.8630059058
 20
-43.8493557884
 10
7.305422533
 20
-43.8426600239
 10
7.7467985461
 20
-43.8325262521
 10
8.1870228865
 20
-43.8189552161
 10
8.625970693
 20
-43.8018763102
 10
9.0635410041
 20
-43.7813003732
 10
9.4996306017
 20
-43.7572317108
 10
9.9341118211
 20
-43.7295925423
 10
10.3668745536
 20
-43.698364558
 10
10.7978259197
 20
-43.6635881723
 10
11.2268646127
 20
-43.6252757233
  0
LINE
  5
270
100
AcDbEntity
  8
IMPORT_IGES
100
AcDbLine
 62
7
  6
CONTINUOUS
 10
-18.8478451648
 20
-38.1983904464
 11
-18.2308130863
 21
-38.5297214647
  0
LWPOLYLINE
  5
271
100
AcDbEntity
  8
IMPORT_IGES
100
AcDbPolyline
 62
7
  6
CONTINUOUS
 90
4
 70
0
 10
-19.4707684774
 20
-37.7852878559
 10
-19.1457809378
 20
-37.9661022761
 10
-18.8165778498
 20
-38.1444879877
 10
-18.4832990834
 20
-38.3203732418
  0
LINE
  5
272
100
AcDbEntity
  8
IMPORT_IGES
100
AcDbLine
 62
7
  6
CONTINUOUS
 10
-19.4488830761
 20
-37.8593082644
 11
-18.8478451648
 21
-38.1983904464
  0
LINE
  5
273
100
AcDbEntity
  8
IMPORT_IGES
100
AcDbLine
 62
7
  6
CONTINUOUS
 10
-19.791450478
 20
-37.6020747504
 11
-19.4707684774
 21
-37.7852878559
  0
LWPOLYLINE
  5
274
100
AcDbEntity
  8
IMPORT_IGES
100
AcDbPolyline
 62
7
  6
CONTINUOUS
 90
9
 70
0
 10
-22.1712389262
 20
-36.077000087
 10
-21.8923031489
 20
-36.2736601183
 10
-21.6080272826
 20
-36.4686748158
 10
-21.3184535726
 20
-36.6620061666
 10
-21.0236504326
 20
-36.8535955105
 10
-20.7235137404
 20
-37.0434438564
 10
-20.4180397331
 20
-37.2315155342
 10
-20.1073339934
 20
-37.417742743
 10
-19.7914506238
 20
-37.6020746662
  0
LWPOLYLINE
  5
275
100
AcDbEntity
  8
IMPORT_IGES
100
AcDbPolyline
 62
7
  6
CONTINUOUS
 90
6
 70
0
 10
-22.1214230649
 20
-36.1180775282
 10
-21.6776844832
 20
-36.4388619144
 10
-21.1469118399
 20
-36.8042985269
 10
-20.5987292193
 20
-37.1626869689
 10
-20.0327196314
 20
-37.5143568815
 10
-19.4488830761
 20
-37.8593082644
  0
LWPOLYLINE
  5
276
100
AcDbEntity
  8
IMPORT_IGES
100
AcDbPolyline
 62
7
  6
CONTINUOUS
 90
3
 70
0
 10
-22.5090430929
 20
-35.8314213511
 10
-22.4449615047
 20
-35.8786544726
 10
-22.1712389262
 20
-36.077000087
  0
LINE
  5
277
100
AcDbEntity
  8
IMPORT_IGES
100
AcDbLine
 62
250
  6
CONTINUOUS
 10
-19.7914506207
 20
-37.602074976
 11
-19.44888256
 21
-37.8593085907
  0
LINE
  5
278
100
AcDbEntity
  8
IMPORT_IGES
100
AcDbLine
 62
7
  6
CONTINUOUS
 10
-8.7437377744
 20
-39.3221789727
 11
-8.7331882004
 21
-39.3209427601
  0
LWPOLYLINE
  5
279
100
AcDbEntity
  8
IMPORT_IGES
100
AcDbPolyline
 62
7
  6
CONTINUOUS
 90
5
 70
0
 10
-8.7437377855
 20
-39.3221789791
 10
-8.7520797965
 20
-39.3226448122
 10
-8.7608837619
 20
-39.3226012486
 10
-8.7701524161
 20
-39.3220305373
 10
-8.7783972359
 20
-39.3211209279
  0
LINE
  5
27A
100
AcDbEntity
  8
IMPORT_IGES
100
AcDbLine
 62
250
  6
CONTINUOUS
 10
-7.8162843505
 20
-38.8380266512
 11
-7.8526212092
 21
-38.8331743141
  0
LWPOLYLINE
  5
27B
100
AcDbEntity
  8
IMPORT_IGES
100
AcDbPolyline
 62
250
  6
CONTINUOUS
 90
3
 70
0
 10
-9.0480502397
 20
-39.159879102
 10
-9.9500050856
 20
-39.0260208941
 10
-10.8340178544
 20
-38.8748154723
  0
LINE
  5
27C
100
AcDbEntity
  8
IMPORT_IGES
100
AcDbLine
 62
7
  6
CONTINUOUS
 10
-8.7798924324
 20
-39.320918322
 11
-8.7900976926
 21
-39.3192414076
  0
LWPOLYLINE
  5
27D
100
AcDbEntity
  8
IMPORT_IGES
100
AcDbPolyline
 62
250
  6
CONTINUOUS
 90
13
 70
0
 10
-10.8340178544
 20
-38.8748154723
 10
-11.699282247
 20
-38.7068215784
 10
-12.5450070543
 20
-38.5226338378
 10
-13.3705287162
 20
-38.322741746
 10
-14.1753041443
 20
-38.107523402
 10
-14.9584879849
 20
-37.8775066414
 10
-15.7197645083
 20
-37.6331764511
 10
-16.4594015332
 20
-37.3747831817
 10
-17.1775680257
 20
-37.1024701247
 10
-17.8730528647
 20
-36.8169331915
 10
-18.5441606792
 20
-36.5192647181
 10
-19.1901816763
 20
-36.2101722118
 10
-19.8112825663
 20
-35.8899032964
  0
LWPOLYLINE
  5
27E
100
AcDbEntity
  8
IMPORT_IGES
100
AcDbPolyline
 62
7
  6
CONTINUOUS
 90
20
 70
0
 10
-8.7900976926
 20
-39.3192414076
 10
-8.8007475143
 20
-39.3169691865
 10
-8.8118242046
 20
-39.3140817253
 10
-8.8233304397
 20
-39.3105621063
 10
-8.8352726326
 20
-39.3063838151
 10
-8.847646084
 20
-39.3015191065
 10
-8.8604298112
 20
-39.2959540804
 10
-8.8736029188
 20
-39.2896818245
 10
-8.8871581565
 20
-39.2826677904
 10
-8.9010606738
 20
-39.2749050356
 10
-8.9152425607
 20
-39.2664320686
 10
-8.9296787686
 20
-39.2572216878
 10
-8.9443336968
 20
-39.247269287
 10
-8.9591182866
 20
-39.2366564035
 10
-8.9739888731
 20
-39.2253713445
 10
-8.988915632
 20
-39.2134090633
 10
-9.0038279399
 20
-39.2008701124
 10
-9.0186759767
 20
-39.187787609
 10
-9.0334303479
 20
-39.1741241454
 10
-9.048050349
 20
-39.1598790811
  0
LWPOLYLINE
  5
27F
100
AcDbEntity
  8
IMPORT_IGES
100
AcDbPolyline
 62
7
  6
CONTINUOUS
 90
24
 70
0
 10
-7.7650692166
 20
-37.4190616991
 10
-7.7605765563
 20
-37.4203568887
 10
-7.7493868217
 20
-37.4228044756
 10
-7.7370373226
 20
-37.4244687292
 10
-7.7235078906
 20
-37.4253189705
 10
-7.7087651845
 20
-37.4253138297
 10
-7.6927691007
 20
-37.424407421
 10
-7.6755161618
 20
-37.4225708177
 10
-7.6570378023
 20
-37.4197879995
 10
-7.637337353
 20
-37.416011845
 10
-7.6164049816
 20
-37.4112136613
 10
-7.5942686329
 20
-37.4054082425
 10
-7.570933996
 20
-37.3985466759
 10
-7.5464155571
 20
-37.3906002046
 10
-7.5207676214
 20
-37.3816173723
 10
-7.4940010043
 20
-37.3715467056
 10
-7.4661547929
 20
-37.3603649397
 10
-7.4373425928
 20
-37.3481713943
 10
-7.4076143967
 20
-37.3349334572
 10
-7.3770059867
 20
-37.3206238531
 10
-7.3456254349
 20
-37.3053612712
 10
-7.3135469488
 20
-37.2891720457
 10
-7.2808062617
 20
-37.2719853048
 10
-7.2474611677
 20
-37.2537801733
  0
LWPOLYLINE
  5
280
100
AcDbEntity
  8
IMPORT_IGES
100
AcDbPolyline
 62
250
  6
CONTINUOUS
 90
19
 70
0
 10
-7.2474615866
 20
-37.2537801003
 10
-8.0393552958
 20
-37.0118440232
 10
-8.823887669
 20
-36.7619135763
 10
-9.6004603846
 20
-36.5041146598
 10
-10.3688483353
 20
-36.2382690354
 10
-11.1280910021
 20
-35.9648233601
 10
-11.8765376852
 20
-35.6849073267
 10
-12.6138646724
 20
-35.3987063381
 10
-13.3393522118
 20
-35.1064645876
 10
-14.0508899834
 20
-34.8095422278
 10
-14.7473374505
 20
-34.5086469606
 10
-15.4290736244
 20
-34.2037211798
 10
-16.0963394446
 20
-33.8950319527
 10
-16.7483620903
 20
-33.5831014839
 10
-17.3851942867
 20
-33.2680085729
 10
-18.0081973048
 20
-32.9492492915
 10
-18.6174838348
 20
-32.6267709936
 10
-19.212042054
 20
-32.3010634451
 10
-19.7914515509
 20
-31.9723641039
  0
LINE
  5
281
100
AcDbEntity
  8
IMPORT_IGES
100
AcDbLine
 62
7
  6
CONTINUOUS
 10
-7.9613707651
 20
-37.357777147
 11
-7.7650692222
 21
-37.4190616655
  0
LWPOLYLINE
  5
282
100
AcDbEntity
  8
IMPORT_IGES
100
AcDbPolyline
 62
250
  6
CONTINUOUS
 90
16
 70
0
 10
-17.9824062958
 20
-37.0945884279
 10
-17.3496343205
 20
-37.3874946043
 10
-16.7027607571
 20
-37.6689242798
 10
-16.0423021907
 20
-37.9365181802
 10
-15.3687750346
 20
-38.1890849617
 10
-14.6826575763
 20
-38.4274012578
 10
-13.9844244579
 20
-38.6520714933
 10
-13.2745491203
 20
-38.8630121409
 10
-12.553603204
 20
-39.0599345381
 10
-11.8222245692
 20
-39.2431507294
 10
-11.080954608
 20
-39.4125373629
 10
-10.330356033
 20
-39.567907062
 10
-9.5711185904
 20
-39.7094995613
 10
-8.8038581736
 20
-39.8373157596
 10
-8.0291113518
 20
-39.9511112257
 10
-7.2474615866
 20
-40.0507773637
  0
LWPOLYLINE
  5
283
100
AcDbEntity
  8
IMPORT_IGES
100
AcDbPolyline
 62
250
  6
CONTINUOUS
 90
15
 70
0
 10
-18.3115865195
 20
-34.3005604441
 10
-17.7422003843
 20
-34.5807477151
 10
-17.1536107598
 20
-34.8607891006
 10
-16.541682914
 20
-35.1423929022
 10
-15.9106001396
 20
-35.4229546843
 10
-15.27345721
 20
-35.696553724
 10
-14.6398723716
 20
-35.9598478608
 10
-14.0021513232
 20
-36.216744908
 10
-13.3474920352
 20
-36.4722044251
 10
-12.6716847669
 20
-36.7272473458
 10
-11.9792624157
 20
-36.9799178689
 10
-11.2699744719
 20
-37.2301193874
 10
-10.5439394239
 20
-37.4775026546
 10
-9.80166757
 20
-37.7214902519
 10
-9.0435363419
 20
-37.9616048223
  0
LWPOLYLINE
  5
284
100
AcDbEntity
  8
IMPORT_IGES
100
AcDbPolyline
 62
250
  6
CONTINUOUS
 90
4
 70
0
 10
-19.7914506238
 20
-36.1514727765
 10
-19.2037601721
 20
-36.4766948982
 10
-18.6005967489
 20
-36.7911476858
 10
-17.9824062958
 20
-37.0945884279
  0
LWPOLYLINE
  5
285
100
AcDbEntity
  8
IMPORT_IGES
100
AcDbPolyline
 62
250
  6
CONTINUOUS
 90
4
 70
0
 10
-19.7954857258
 20
-36.1491874923
 10
-19.796510101
 20
-36.1486190277
 10
-19.797530644
 20
-36.1480391236
 10
-19.7985443198
 20
-36.1474439821
  0
LINE
  5
286
100
AcDbEntity
  8
IMPORT_IGES
100
AcDbLine
 62
250
  6
CONTINUOUS
 10
-19.8112825663
 20
-35.8899032964
 11
-20.4072459419
 21
-35.5589118857
  0
LWPOLYLINE
  5
287
100
AcDbEntity
  8
IMPORT_IGES
100
AcDbPolyline
 62
7
  6
CONTINUOUS
 90
19
 70
0
 10
-20.3452379649
 20
-35.6960605462
 10
-19.8731038244
 20
-35.9592169696
 10
-19.3301686266
 20
-36.2445771639
 10
-18.7703308591
 20
-36.5208308982
 10
-18.1946545752
 20
-36.7870697349
 10
-17.6036477994
 20
-37.0426565063
 10
-16.9970655144
 20
-37.2874279337
 10
-16.3750488007
 20
-37.5213416409
 10
-15.73809089
 20
-37.7442622712
 10
-15.0861981933
 20
-37.9562359296
 10
-14.4194870935
 20
-38.1572446265
 10
-13.7385602583
 20
-38.3470328298
 10
-13.0441829304
 20
-38.5252847573
 10
-12.3369445383
 20
-38.6917633296
 10
-11.61709696
 20
-38.8463216696
 10
-10.8849344391
 20
-38.988796843
 10
-10.1408612962
 20
-39.1190021275
 10
-9.3853944714
 20
-39.2367361548
 10
-8.7783992455
 20
-39.3211254471
  0
LWPOLYLINE
  5
288
100
AcDbEntity
  8
IMPORT_IGES
100
AcDbPolyline
 62
250
  6
CONTINUOUS
 90
5
 70
0
 10
-20.3982898035
 20
-33.181328009
 10
-19.9052822388
 20
-33.4601911155
 10
-19.3931564538
 20
-33.739932442
 10
-18.8618987382
 20
-34.0202135755
 10
-18.3115865195
 20
-34.3005604441
  0
LINE
  5
289
100
AcDbEntity
  8
IMPORT_IGES
100
AcDbLine
 62
7
  6
CONTINUOUS
 10
19.2177688927
 20
-55.5614927146
 11
19.4227955559
 21
-55.6770585309
  0
LINE
  5
28A
100
AcDbEntity
  8
IMPORT_IGES
100
AcDbLine
 62
250
  6
CONTINUOUS
 10
-19.7934558252
 20
-36.1503280784
 11
-19.7944666224
 21
-36.14975591
  0
LWPOLYLINE
  5
28B
100
AcDbEntity
  8
IMPORT_IGES
100
AcDbPolyline
 62
250
  6
CONTINUOUS
 90
19
 70
0
 10
-20.1846328368
 20
-32.8147832936
 10
-19.6819311565
 20
-33.0998379579
 10
-19.1601987884
 20
-33.3844516873
 10
-18.619474933
 20
-33.6687464601
 10
-18.0598514993
 20
-33.9531499876
 10
-17.4813218363
 20
-34.2374822098
 10
-16.883779893
 20
-34.5209321072
 10
-16.2630816465
 20
-34.8050550811
 10
-15.6234717123
 20
-35.0885579269
 10
-14.9774097273
 20
-35.3660261411
 10
-14.3323918507
 20
-35.6339983725
 10
-13.6809684123
 20
-35.8954082792
 10
-13.0131767832
 20
-36.1543571294
 10
-12.3257145431
 20
-36.4126485141
 10
-11.6219794017
 20
-36.6685880723
 10
-10.9020778224
 20
-36.9212335161
 10
-10.166073939
 20
-37.1702627323
 10
-9.4139923662
 20
-37.415998268
 10
-8.6458785047
 20
-37.658441713
  0
LWPOLYLINE
  5
28C
100
AcDbEntity
  8
IMPORT_IGES
100
AcDbPolyline
 62
7
  6
CONTINUOUS
 90
18
 70
0
 10
-19.6257856997
 20
-32.3385541844
 10
-19.1016350279
 20
-32.6365449919
 10
-18.5051630522
 20
-32.9647790087
 10
-17.8938652738
 20
-33.2898400461
 10
-17.2668277352
 20
-33.6120363979
 10
-16.6244081758
 20
-33.9310012687
 10
-15.9683694431
 20
-34.2457389467
 10
-15.2989431343
 20
-34.5560718442
 10
-14.6155670819
 20
-34.8621879847
 10
-13.9189776205
 20
-35.1636904211
 10
-13.2099498025
 20
-35.4602039359
 10
-12.4890126647
 20
-35.7514265455
 10
-11.7565745008
 20
-36.0370300028
 10
-11.0141196091
 20
-36.3162135242
 10
-10.263380068
 20
-36.588073948
 10
-9.504412905
 20
-36.8523683664
 10
-8.7369757552
 20
-37.1090228091
 10
-7.9613707651
 20
-37.357777147
  0
LINE
  5
28D
100
AcDbEntity
  8
IMPORT_IGES
100
AcDbLine
 62
250
  6
CONTINUOUS
 10
-19.7914500455
 20
-36.1514722744
 11
-19.7924502996
 21
-36.1509001999
  0
LINE
  5
28E
100
AcDbEntity
  8
IMPORT_IGES
100
AcDbLine
 62
7
  6
CONTINUOUS
 10
19.1761799423
 20
-55.5377591225
 11
19.2177688927
 21
-55.5614927146
  0
LINE
  5
28F
100
AcDbEntity
  8
IMPORT_IGES
100
AcDbLine
 62
7
  6
CONTINUOUS
 10
19.1348690542
 20
-55.5138455396
 11
19.1761799423
 21
-55.5377591225
  0
LINE
  5
290
100
AcDbEntity
  8
IMPORT_IGES
100
AcDbLine
 62
7
  6
CONTINUOUS
 10
-20.3452379649
 20
-35.6960605462
 11
-20.3468848119
 21
-35.6950960964
  0
LWPOLYLINE
  5
291
100
AcDbEntity
  8
IMPORT_IGES
100
AcDbPolyline
 62
250
  6
CONTINUOUS
 90
12
 70
0
 10
-19.6257856997
 20
-32.3385541844
 10
-19.6343756308
 20
-32.3333767296
 10
-19.6623891233
 20
-32.3131402633
 10
-19.6882594617
 20
-32.2888915506
 10
-19.7116245542
 20
-32.2608109509
 10
-19.7323166468
 20
-32.2289734494
 10
-19.750072707
 20
-32.1936940646
 10
-19.7647639665
 20
-32.155213847
 10
-19.7763678111
 20
-32.1134866914
 10
-19.7847503198
 20
-32.068738787
 10
-19.7897830535
 20
-32.0215366861
 10
-19.7914519213
 20
-31.9723638901
  0
LWPOLYLINE
  5
292
100
AcDbEntity
  8
IMPORT_IGES
100
AcDbPolyline
 62
250
  6
CONTINUOUS
 90
4
 70
0
 10
-20.1846328368
 20
-32.8147832936
 10
-20.661005793
 20
-32.5268261748
 10
-21.1291116234
 20
-32.2325164548
 10
-21.5889133737
 20
-31.9320391226
  0
LWPOLYLINE
  5
293
100
AcDbEntity
  8
IMPORT_IGES
100
AcDbPolyline
 62
250
  6
CONTINUOUS
 90
5
 70
0
 10
-20.3982045536
 20
-33.1812790954
 10
-20.8795773588
 20
-32.8883512468
 10
-21.3545279165
 20
-32.5892881851
 10
-21.8214950691
 20
-32.2846305934
 10
-22.278562779
 20
-31.9752160708
  0
LINE
  5
294
100
AcDbEntity
  8
IMPORT_IGES
100
AcDbLine
 62
250
  6
CONTINUOUS
 10
-19.7995541614
 20
-36.1468374
 11
-19.8005601666
 21
-36.1462193758
  0
LWPOLYLINE
  5
295
100
AcDbEntity
  8
IMPORT_IGES
100
AcDbPolyline
 62
250
  6
CONTINUOUS
 90
15
 70
0
 10
-20.407246635
 20
-35.5589114798
 10
-20.9759690214
 20
-35.2080262912
 10
-21.5321218903
 20
-34.8393382758
 10
-22.0748941061
 20
-34.4529618053
 10
-22.603861936
 20
-34.0487463342
 10
-23.1177339527
 20
-33.6271327248
 10
-23.6145119893
 20
-33.1892307245
 10
-24.0932267147
 20
-32.7355098987
 10
-24.5533666401
 20
-32.2661007792
 10
-24.9937992532
 20
-31.781729199
 10
-25.4134706126
 20
-31.2831104844
 10
-25.8119971708
 20
-30.7703065718
 10
-26.1891766007
 20
-30.2430829558
 10
-26.5442936162
 20
-29.7016266102
 10
-26.8762434225
 20
-29.1465846001
  0
LWPOLYLINE
  5
296
100
AcDbEntity
  8
IMPORT_IGES
100
AcDbPolyline
 62
250
  6
CONTINUOUS
 90
3
 70
0
 10
-20.9276637296
 20
-35.4478669684
 10
-20.3722957345
 20
-35.8023972344
 10
-19.7985443198
 20
-36.1474439821
  0
LWPOLYLINE
  5
297
100
AcDbEntity
  8
IMPORT_IGES
100
AcDbPolyline
 62
250
  6
CONTINUOUS
 90
3
 70
0
 10
-21.5889133737
 20
-31.9320391226
 10
-22.0409296906
 20
-31.6256526532
 10
-22.4845604289
 20
-31.3134818175
  0
LWPOLYLINE
  5
298
100
AcDbEntity
  8
IMPORT_IGES
100
AcDbPolyline
 62
250
  6
CONTINUOUS
 90
10
 70
0
 10
-20.3468848119
 20
-35.6950960964
 10
-20.3580290855
 20
-35.6873533908
 10
-20.3692181627
 20
-35.6769651237
 10
-20.3791262339
 20
-35.664706695
 10
-20.3876251507
 20
-35.6507158471
 10
-20.3946308206
 20
-35.6351556039
 10
-20.4001479993
 20
-35.6180005539
 10
-20.404108195
 20
-35.5993678621
 10
-20.4064447188
 20
-35.5795668639
 10
-20.4071605007
 20
-35.5588612664
  0
LWPOLYLINE
  5
299
100
AcDbEntity
  8
IMPORT_IGES
100
AcDbPolyline
 62
250
  6
CONTINUOUS
 90
15
 70
0
 10
-22.278562779
 20
-31.9752160708
 10
-22.7243276884
 20
-31.6613942198
 10
-23.1583309807
 20
-31.3428448505
 10
-23.5830462421
 20
-31.017439141
 10
-23.9950758367
 20
-30.6876157638
 10
-24.3869173704
 20
-30.3596689142
 10
-24.7547345587
 20
-30.0377671546
 10
-25.1038711829
 20
-29.7180979154
 10
-25.4406333293
 20
-29.3949942019
 10
-25.7663130937
 20
-29.0666487846
 10
-26.0783266374
 20
-28.7351228947
 10
-26.3762586356
 20
-28.4005545081
 10
-26.6595509907
 20
-28.0630937652
 10
-26.9275339545
 20
-27.7229009109
 10
-27.1795820831
 20
-27.3801435231
  0
LWPOLYLINE
  5
29A
100
AcDbEntity
  8
IMPORT_IGES
100
AcDbPolyline
 62
250
  6
CONTINUOUS
 90
14
 70
0
 10
-22.4845604289
 20
-31.3134818175
 10
-22.9180872654
 20
-30.9954944469
 10
-23.3434509194
 20
-30.6697957702
 10
-23.7586123843
 20
-30.338696767
 10
-24.155896706
 20
-30.0081472236
 10
-24.5311210431
 20
-29.6814236097
 10
-24.8884116138
 20
-29.354873492
 10
-25.2325600829
 20
-29.0239645182
 10
-25.5656525604
 20
-28.6874225182
 10
-25.8855059664
 20
-28.3467603455
 10
-26.1904924711
 20
-28.0018256797
 10
-26.4800389385
 20
-27.6526056519
 10
-26.754624648
 20
-27.2992509791
 10
-27.014201315
 20
-26.941833054
  0
LWPOLYLINE
  5
29B
100
AcDbEntity
  8
IMPORT_IGES
100
AcDbPolyline
 62
7
  6
CONTINUOUS
 90
12
 70
0
 10
-25.0917562288
 20
-33.6039001348
 10
-24.8806500784
 20
-33.8157794507
 10
-24.6634118599
 20
-34.0269328095
 10
-24.4399720918
 20
-34.2373904753
 10
-24.2104388048
 20
-34.4470038245
 10
-23.9750500198
 20
-34.6555282353
 10
-23.7338424028
 20
-34.8629216434
 10
-23.4868626255
 20
-35.0691203719
 10
-23.2343972523
 20
-35.2738591656
 10
-22.9766040954
 20
-35.4770226552
 10
-22.7134525471
 20
-35.6786368708
 10
-22.5090430929
 20
-35.8314213511
  0
LWPOLYLINE
  5
29C
100
AcDbEntity
  8
IMPORT_IGES
100
AcDbPolyline
 62
7
  6
CONTINUOUS
 90
7
 70
0
 10
-26.2305356908
 20
-32.317805202
 10
-26.0558209295
 20
-32.5339847282
 10
-25.875107228
 20
-32.7494092479
 10
-25.688324423
 20
-32.9641476185
 10
-25.495613412
 20
-33.1780270505
 10
-25.2967713419
 20
-33.3912747733
 10
-25.0917562288
 20
-33.6039001348
  0
LWPOLYLINE
  5
29D
100
AcDbEntity
  8
IMPORT_IGES
100
AcDbPolyline
 62
7
  6
CONTINUOUS
 90
9
 70
0
 10
-19.8072197496
 20
52.4560075469
 10
-20.0182685168
 20
51.7173297663
 10
-20.2495647332
 20
50.9003066966
 10
-20.4774133535
 20
50.0875088846
 10
-20.7018216487
 20
49.2789461582
 10
-20.9227955221
 20
48.4746356683
 10
-21.1403424852
 20
47.6745911978
 10
-21.3544714757
 20
46.8788235999
 10
-21.5456247949
 20
46.1611991803
  0
LINE
  5
29E
100
AcDbEntity
  8
IMPORT_IGES
100
AcDbLine
 62
250
  6
CONTINUOUS
 10
-19.8055014373
 20
52.4619312209
 11
-19.8072197496
 21
52.4560075469
  0
LWPOLYLINE
  5
29F
100
AcDbEntity
  8
IMPORT_IGES
100
AcDbPolyline
 62
7
  6
CONTINUOUS
 90
9
 70
0
 10
-8.7331882004
 20
-39.3209427601
 10
-8.7224600182
 20
-39.3190439025
 10
-8.7115532278
 20
-39.3164823999
 10
-8.7004603552
 20
-39.3132588794
 10
-8.6891888743
 20
-39.3093727139
 10
-8.6777612075
 20
-39.3048220228
 10
-8.6661848288
 20
-39.299606179
 10
-8.6544522642
 20
-39.2937258096
 10
-8.6425635136
 20
-39.2871809144
  0
LWPOLYLINE
  5
2A0
100
AcDbEntity
  8
IMPORT_IGES
100
AcDbPolyline
 62
250
  6
CONTINUOUS
 90
8
 70
0
 10
-16.0782403047
 20
-30.7015757531
 10
-16.6369393113
 20
-30.5476480276
 10
-17.1846042285
 20
-30.3734190425
 10
-17.7218410358
 20
-30.1788164773
 10
-18.2474116376
 20
-29.9651320781
 10
-18.7607563306
 20
-29.7329130974
 10
-19.2619357903
 20
-29.4819361384
 10
-19.7507114717
 20
-29.2123738175
  0
LWPOLYLINE
  5
2A1
100
AcDbEntity
  8
IMPORT_IGES
100
AcDbPolyline
 62
250
  6
CONTINUOUS
 90
108
 70
0
 10
-19.7914593402
 20
-29.8537529533
 10
-19.5293539551
 20
-30.0015543996
 10
-19.2638867198
 20
-30.1442066031
 10
-18.9950905888
 20
-30.2816829721
 10
-18.723205226
 20
-30.4138651908
 10
-18.448063393
 20
-30.5408218908
 10
-18.1690681111
 20
-30.6627939251
 10
-17.8855660262
 20
-30.780034025
 10
-17.5982285701
 20
-30.8922009323
 10
-17.3084697204
 20
-30.9986606846
 10
-17.0174159713
 20
-31.0990541893
 10
-16.724082215
 20
-31.1937370657
 10
-16.4267063127
 20
-31.2831393959
 10
-16.1237934064
 20
-31.3676398179
 10
-15.8168331126
 20
-31.446743297
 10
-15.5085629511
 20
-31.5195889273
 10
-15.2003676057
 20
-31.5858611721
 10
-14.8910517427
 20
-31.645917121
 10
-14.579525049
 20
-31.6999395175
 10
-14.2652164056
 20
-31.7479922821
 10
-13.9487951056
 20
-31.7899796043
 10
-13.6310190345
 20
-31.8258353617
 10
-13.3128998822
 20
-31.855502318
 10
-12.9935765638
 20
-31.8790606092
 10
-12.6709692328
 20
-31.8966209856
 10
-12.3435138918
 20
-31.9082235541
 10
-12.0128069278
 20
-31.9137270163
 10
-11.6815170571
 20
-31.9129809925
 10
-11.3506105716
 20
-31.9060109703
 10
-11.019284013
 20
-31.8928385933
 10
-10.6875988308
 20
-31.8733642867
 10
-10.3551545865
 20
-31.8475574089
 10
-10.0224914406
 20
-31.8154794649
 10
-9.6911011513
 20
-31.777198994
 10
-9.3629779298
 20
-31.7330923602
 10
-9.036320773
 20
-31.6829078505
 10
-8.7068891136
 20
-31.6257149508
 10
-8.3717951212
 20
-31.560924298
 10
-8.0339597872
 20
-31.4890114508
 10
-7.6978539331
 20
-31.4106470973
 10
-7.3657842763
 20
-31.3263895792
 10
-7.0356206125
 20
-31.2358178004
 10
-6.7052045896
 20
-31.1381800049
 10
-6.3730902604
 20
-31.0330188681
 10
-6.0408178525
 20
-30.9207921131
 10
-5.7107047725
 20
-30.8021215041
 10
-5.3842532618
 20
-30.6775929183
 10
-5.060104253
 20
-30.5467497491
 10
-4.7362844273
 20
-30.4086557828
 10
-4.4111257075
 20
-30.2625518648
 10
-4.0863831477
 20
-30.1092087746
 10
-3.7652214085
 20
-29.9500058849
 10
-3.4502354311
 20
-29.7864153859
 10
-3.1389618092
 20
-29.6171475044
 10
-2.8269701148
 20
-29.439415493
 10
-2.5109790591
 20
-29.251192739
 10
-2.1943281792
 20
-29.0544517869
 10
-1.8825180915
 20
-28.8524235286
 10
-1.579803747
 20
-28.6481221611
 10
-1.2820411428
 20
-28.4387666564
 10
-0.9821285831
 20
-28.2188697827
 10
-0.675207508
 20
-27.9847237691
 10
-0.3661818294
 20
-27.7399101909
 10
-0.0625898385
 20
-27.4898855736
 10
0.231142355
 20
-27.2383679166
 10
0.519360376
 20
-26.9818821685
 10
0.8076794644
 20
-26.7151322334
 10
1.0999215607
 20
-26.4343772558
 10
1.3922118836
 20
-26.1433138547
 10
1.678625261
 20
-25.8478072607
 10
1.9546605507
 20
-25.5528373426
 10
2.2247728685
 20
-25.2536638701
 10
2.4964704891
 20
-24.9415503039
 10
2.774943862
 20
-24.6102573297
 10
3.054949493
 20
-24.2659174993
 10
3.3283502191
 20
-23.9183647949
 10
3.5893771295
 20
-23.5752223103
 10
3.8437849627
 20
-23.2291276839
 10
4.1007195345
 20
-22.8674280655
 10
4.3660778308
 20
-22.4814961061
 10
4.6339009134
 20
-22.0798196062
 10
4.8955545446
 20
-21.6754155293
 10
5.1454803945
 20
-21.2770619045
 10
5.3892455609
 20
-20.8762141351
 10
5.6349053244
 20
-20.4599202254
 10
5.8875082264
 20
-20.0193799681
 10
6.141943118
 20
-19.5632844666
 10
6.3910270082
 20
-19.1049095132
 10
6.6295197184
 20
-18.6540885407
 10
6.8626842874
 20
-18.2011841131
 10
7.0990865995
 20
-17.730251376
 10
7.3440079182
 20
-17.2304621
 10
7.5920842265
 20
-16.7124966597
 10
7.8359124273
 20
-16.1926617519
 10
8.0699456238
 20
-15.6829925102
 10
8.299759481
 20
-15.1716177261
 10
8.534623839
 20
-14.6389632357
 10
8.7802235588
 20
-14.0716792417
 10
9.0307517894
 20
-13.4829091314
 10
9.2782379769
 20
-12.8928070836
 10
9.5166240454
 20
-12.3161822097
 10
9.7519952745
 20
-11.7383615566
 10
9.9945781667
 20
-11.1352475039
 10
10.2506827459
 20
-10.4905873028
 10
10.5138075824
 20
-9.820342751
 10
10.7749587362
 20
-9.1487291886
 10
11.0271817025
 20
-8.4935210695
 10
11.5376385188
 20
-7.1503781013
  0
LWPOLYLINE
  5
2A2
100
AcDbEntity
  8
IMPORT_IGES
100
AcDbPolyline
 62
250
  6
CONTINUOUS
 90
17
 70
0
 10
-19.7914593401
 20
-31.9723596065
 10
-20.3554693881
 20
-31.6408629244
 10
-20.9038001825
 20
-31.3066801247
 10
-21.4360405469
 20
-30.9700540264
 10
-21.9513239442
 20
-30.6315795745
 10
-22.4497600241
 20
-30.2911811129
 10
-22.9322768686
 20
-29.9480407849
 10
-23.3986414061
 20
-29.6021841741
 10
-23.8480462008
 20
-29.2540016642
 10
-24.2803744913
 20
-28.903154501
 10
-24.6955117373
 20
-28.5495477965
 10
-25.0924470127
 20
-28.1937162934
 10
-25.4698140429
 20
-27.836307213
 10
-25.8271334317
 20
-27.4777689465
 10
-26.1641410508
 20
-27.1182557013
 10
-26.4800399236
 20
-26.7580510293
 10
-26.7744431474
 20
-26.3974863575
  0
LWPOLYLINE
  5
2A3
100
AcDbEntity
  8
IMPORT_IGES
100
AcDbPolyline
 62
250
  6
CONTINUOUS
 90
7
 70
0
 10
-19.7507114717
 20
-29.2123738175
 10
-20.2514956365
 20
-28.9098740552
 10
-20.7388232248
 20
-28.5873552199
 10
-21.2124760182
 20
-28.2450541985
 10
-21.6718499427
 20
-27.8837950154
 10
-22.1171682996
 20
-27.5032620275
 10
-22.5493725163
 20
-27.1019722559
  0
LWPOLYLINE
  5
2A4
100
AcDbEntity
  8
IMPORT_IGES
100
AcDbPolyline
 62
250
  6
CONTINUOUS
 90
67
 70
0
 10
-22.5493725163
 20
-27.1019722559
 10
-22.9690828839
 20
-26.6791048326
 10
-23.3750934291
 20
-26.235985957
 10
-23.7656566174
 20
-25.7743765916
 10
-24.1400644903
 20
-25.2955249294
 10
-24.4988829647
 20
-24.7988190934
 10
-24.8423839747
 20
-24.2832649337
 10
-25.1713649636
 20
-23.7479320204
 10
-25.4847993995
 20
-23.1943964585
 10
-25.7804715121
 20
-22.6254574639
 10
-26.057775267
 20
-22.0431927769
 10
-26.3179739188
 20
-21.4462339547
 10
-26.5618668433
 20
-20.8322337955
 10
-26.790794335
 20
-20.198503645
 10
-27.0038360623
 20
-19.5483879549
 10
-27.1987256104
 20
-18.8885541259
 10
-27.3755890057
 20
-18.2206611392
 10
-27.5357572773
 20
-17.5435083439
 10
-27.6792705931
 20
-16.8593852249
 10
-27.8065011392
 20
-16.1704473201
 10
-27.9187237091
 20
-15.4747401178
 10
-28.0172966793
 20
-14.7683463178
 10
-28.1030555513
 20
-14.0525901762
 10
-28.1764588134
 20
-13.3261898636
 10
-28.2380592445
 20
-12.5813415115
 10
-28.2887933789
 20
-11.8128056889
 10
-28.3288220198
 20
-11.0258118468
 10
-28.3576436504
 20
-10.2281900192
 10
-28.3757867362
 20
-9.4247536499
 10
-28.3842324816
 20
-8.610332099
 10
-28.3832491174
 20
-7.7776969142
 10
-28.3735831448
 20
-6.9269001883
 10
-28.3556504658
 20
-6.057517074
 10
-28.329136865
 20
-5.1616188156
 10
-28.2943612444
 20
-4.2346310843
 10
-28.2519727701
 20
-3.2807544734
 10
-28.2020934671
 20
-2.3052020977
 10
-28.1451136425
 20
-1.3111498803
 10
-28.0812847107
 20
-0.2949069815
 10
-28.0104329097
 20
0.748646756
 10
-27.9327100833
 20
1.8190701532
 10
-27.8482237233
 20
2.9171308053
 10
-27.7566874279
 20
4.049682535
 10
-27.6579099976
 20
5.2184747
 10
-27.5519811811
 20
6.4216616723
 10
-27.4387717848
 20
7.660952037
 10
-27.3182669172
 20
8.9313212103
 10
-27.189013014
 20
10.2390437413
 10
-27.0484039751
 20
11.6032607258
 10
-26.8951998211
 20
13.0268325926
 10
-26.7285217638
 20
14.5088604106
 10
-26.5460672898
 20
16.0632052776
 10
-26.346015029
 20
17.6977514861
 10
-26.1270911615
 20
19.4077322259
 10
-25.8875126904
 20
21.188203154
 10
-25.6241775678
 20
23.0498484293
 10
-25.3360708698
 20
24.9856654439
 10
-25.0249299756
 20
26.9636797891
 10
-24.6885301478
 20
28.9884914732
 10
-24.3258773618
 20
31.0586749812
 10
-23.9415201626
 20
33.1324456991
 10
-23.5339472624
 20
35.2104209997
 10
-23.1018121622
 20
37.2960874847
 10
-22.6517821343
 20
39.3502345281
 10
-22.1868263479
 20
41.3595055516
 10
-21.7048930803
 20
43.3378300664
 10
-21.2065972706
 20
45.2853359385
  0
LWPOLYLINE
  5
2A5
100
AcDbEntity
  8
IMPORT_IGES
100
AcDbPolyline
 62
250
  6
CONTINUOUS
 90
3
 70
0
 10
-26.7744431474
 20
-26.3974863575
 10
-27.0472732232
 20
-26.0369148787
 10
-27.2983123484
 20
-25.6766820726
  0
LWPOLYLINE
  5
2A6
100
AcDbEntity
  8
IMPORT_IGES
100
AcDbPolyline
 62
7
  6
CONTINUOUS
 90
19
 70
0
 10
-27.0958518027
 20
-26.1367927736
 10
-26.9568067897
 20
-26.3325262629
 10
-26.6735246557
 20
-26.706822469
 10
-26.3695365016
 20
-27.0784809507
 10
-26.0451764277
 20
-27.4475736829
 10
-25.7003810304
 20
-27.8146264921
 10
-25.335174657
 20
-28.1801598745
 10
-24.9507365187
 20
-28.5435527735
 10
-24.5480607995
 20
-28.904333697
 10
-24.1271157271
 20
-29.2628422079
 10
-23.6880321923
 20
-29.6191092336
 10
-23.2313351187
 20
-29.9728157118
 10
-22.7574958459
 20
-30.3237482772
 10
-22.2661964564
 20
-30.6722930098
 10
-21.7576388922
 20
-31.0184427653
 10
-21.2332905742
 20
-31.361393644
 10
-20.6937600542
 20
-31.7010044452
 10
-20.1386119804
 20
-32.0377886002
 10
-19.6257812917
 20
-32.3385567294
  0
LINE
  5
2A7
100
AcDbEntity
  8
IMPORT_IGES
100
AcDbLine
 62
7
  6
CONTINUOUS
 10
-27.0958623798
 20
-26.1368028296
 11
-27.0978254226
 21
-26.1339656825
  0
LWPOLYLINE
  5
2A8
100
AcDbEntity
  8
IMPORT_IGES
100
AcDbPolyline
 62
7
  6
CONTINUOUS
 90
10
 70
0
 10
-27.0978254226
 20
-26.1339656825
 10
-27.1277135144
 20
-26.0882556393
 10
-27.1558966949
 20
-26.0411130466
 10
-27.1822816051
 20
-25.9925896822
 10
-27.2067728122
 20
-25.9427046408
 10
-27.2292942286
 20
-25.891552185
 10
-27.2497836446
 20
-25.8392995973
 10
-27.2681672829
 20
-25.7860443247
 10
-27.2843659375
 20
-25.7318158428
 10
-27.2983123484
 20
-25.6766820726
  0
LINE
  5
2A9
100
AcDbEntity
  8
IMPORT_IGES
100
AcDbLine
 62
250
  6
CONTINUOUS
 10
-26.8762434225
 20
-29.1465846001
 11
-27.1840999679
 21
-28.5784193764
  0
LWPOLYLINE
  5
2AA
100
AcDbEntity
  8
IMPORT_IGES
100
AcDbPolyline
 62
7
  6
CONTINUOUS
 90
19
 70
0
 10
-27.1985856834
 20
-28.5980607091
 10
-27.0278392718
 20
-28.9245991672
 10
-26.7523062771
 20
-29.4149676314
 10
-26.4595220203
 20
-29.8946733099
 10
-26.1499840068
 20
-30.3634371839
 10
-25.8241110321
 20
-30.8211327379
 10
-25.482216612
 20
-31.2677734105
 10
-25.1247955373
 20
-31.7031312352
 10
-24.7522825083
 20
-32.1270794808
 10
-24.3648508616
 20
-32.5397737655
 10
-23.9631869082
 20
-32.9408930268
 10
-23.5479839485
 20
-33.3302607652
 10
-23.1193249029
 20
-33.7082122863
 10
-22.6779095559
 20
-34.0744521947
 10
-22.2243468382
 20
-34.4287659973
 10
-21.7583842086
 20
-34.7715550784
 10
-21.2802467333
 20
-35.1027625842
 10
-20.7907239486
 20
-35.4219359653
 10
-20.3468839882
 20
-35.6950939694
  0
LWPOLYLINE
  5
2AB
100
AcDbEntity
  8
IMPORT_IGES
100
AcDbPolyline
 62
250
  6
CONTINUOUS
 90
17
 70
0
 10
-27.2983123484
 20
-28.47367936
 10
-27.0509888479
 20
-28.967739046
 10
-26.7823868052
 20
-29.4559852446
 10
-26.4926923387
 20
-29.938082056
 10
-26.1820988049
 20
-30.4138591406
 10
-25.8508317137
 20
-30.8828235231
 10
-25.4991541547
 20
-31.3441612633
 10
-25.1272810761
 20
-31.7975892073
 10
-24.7355168208
 20
-32.2427499871
 10
-24.3243093845
 20
-32.6787328145
 10
-23.8940949513
 20
-33.1050840716
 10
-23.4451040559
 20
-33.5216642913
 10
-22.977497891
 20
-33.9280408628
 10
-22.491551338
 20
-34.3234816649
 10
-21.9876803186
 20
-34.7081359413
 10
-21.4662566656
 20
-35.0828929605
 10
-20.9276637296
 20
-35.4478669684
  0
LWPOLYLINE
  5
2AC
100
AcDbEntity
  8
IMPORT_IGES
100
AcDbPolyline
 62
7
  6
CONTINUOUS
 90
3
 70
0
 10
-27.1985854471
 20
-28.5980556289
 10
-27.1990381348
 20
-28.5968416136
 10
-27.1992080492
 20
-28.5954308932
  0
LWPOLYLINE
  5
2AD
100
AcDbEntity
  8
IMPORT_IGES
100
AcDbPolyline
 62
7
  6
CONTINUOUS
 90
34
 70
0
 10
-21.5456153038
 20
46.1612349851
 10
-22.1744592913
 20
43.7141174224
 10
-22.7932186202
 20
41.1446096768
 10
-23.3822586872
 20
38.5232477776
 10
-23.9510726824
 20
35.7977049577
 10
-24.4861852378
 20
33.0233610757
 10
-24.9598196303
 20
30.3632782579
 10
-25.3712769017
 20
27.8651990233
 10
-25.7350852857
 20
25.4829964946
 10
-26.05345512
 20
23.2400282109
 10
-26.3285877883
 20
21.1617905479
 10
-26.5686813279
 20
19.2246074672
 10
-26.783533836
 20
17.3779298402
 10
-26.9767833504
 20
15.612020407
 10
-27.1498179774
 20
13.935498977
 10
-27.3070105727
 20
12.3253594803
 10
-27.4503423836
 20
10.7775566064
 10
-27.5810166073
 20
9.2944459641
 10
-27.7014281642
 20
7.8626161284
 10
-27.812669283
 20
6.4800293292
 10
-27.9152057317
 20
5.1471597289
 10
-28.0101845813
 20
3.8541528078
 10
-28.098148726
 20
2.5984142355
 10
-28.1791469521
 20
1.38043475
 10
-28.2532907304
 20
0.1941923597
 10
-28.3205301505
 20
-0.9626293376
 10
-28.3808585212
 20
-2.0907768838
 10
-28.4342680319
 20
-3.1931670364
 10
-28.4799928413
 20
-4.2674911061
 10
-28.5174316048
 20
-5.3120066121
 10
-28.5463105928
 20
-6.3289487846
 10
-28.5663930113
 20
-7.3182841205
 10
-28.5772792364
 20
-8.2778435602
 10
-28.5790664983
 20
-8.7914423835
  0
LWPOLYLINE
  5
2AE
100
AcDbEntity
  8
IMPORT_IGES
100
AcDbPolyline
 62
250
  6
CONTINUOUS
 90
12
 70
0
 10
-19.8072197496
 20
52.4560075469
 10
-19.8205340114
 20
52.4047615851
 10
-19.8383434505
 20
52.3048803919
 10
-19.8450061058
 20
52.2071059663
 10
-19.8407324291
 20
52.1114969281
 10
-19.8256306455
 20
52.0176206539
 10
-19.7997907487
 20
51.92562023
 10
-19.763343427
 20
51.8358635686
 10
-19.7162069843
 20
51.7482105999
 10
-19.6583931553
 20
51.6627870128
 10
-19.5901673158
 20
51.580002963
 10
-19.5117772741
 20
51.5001412958
  0
LINE
  5
2AF
100
AcDbEntity
  8
IMPORT_IGES
100
AcDbLine
 62
250
  6
CONTINUOUS
 10
-21.2065972706
 20
45.2853359385
 11
-20.8336521654
 21
46.6942655322
  0
LINE
  5
2B0
100
AcDbEntity
  8
IMPORT_IGES
100
AcDbLine
 62
250
  6
CONTINUOUS
 10
-20.8336521654
 20
46.6942655322
 11
-20.4582722916
 21
48.0874193637
  0
LINE
  5
2B1
100
AcDbEntity
  8
IMPORT_IGES
100
AcDbLine
 62
250
  6
CONTINUOUS
 10
-20.4582722916
 20
48.0874193637
 11
-20.0808498858
 21
49.4645647067
  0
LWPOLYLINE
  5
2B2
100
AcDbEntity
  8
IMPORT_IGES
100
AcDbPolyline
 62
250
  6
CONTINUOUS
 90
3
 70
0
 10
-20.0808498858
 20
49.4645647067
 10
-19.701792783
 20
50.8257189259
 10
-19.5117847162
 20
51.5001422137
  0
LWPOLYLINE
  5
2B3
100
AcDbEntity
  8
IMPORT_IGES
100
AcDbPolyline
 62
250
  6
CONTINUOUS
 90
16
 70
0
 10
-19.5117852908
 20
51.5001305269
 10
-19.4926749944
 20
51.5651228946
 10
-19.4692743112
 20
51.6292833846
 10
-19.4417761845
 20
51.6921211915
 10
-19.4106192034
 20
51.7528422152
 10
-19.3759792775
 20
51.8113615053
 10
-19.3375434308
 20
51.8682346595
 10
-19.2954026637
 20
51.9231895739
 10
-19.2499450478
 20
51.9756412383
 10
-19.2011170648
 20
52.0255789255
 10
-19.1492332037
 20
52.0725886006
 10
-19.0946562762
 20
52.1162967953
 10
-19.037359881
 20
52.1566620154
 10
-18.977608742
 20
52.1934012661
 10
-18.9160014271
 20
52.2260968126
 10
-18.8530271225
 20
52.2545020583
  0
LINE
  5
2B4
100
AcDbEntity
  8
IMPORT_IGES
100
AcDbLine
 62
7
  6
CONTINUOUS
 10
17.8890631771
 20
48.5555328252
 11
12.4269662761
 21
45.3942864069
  0
LWPOLYLINE
  5
2B5
100
AcDbEntity
  8
IMPORT_IGES
100
AcDbPolyline
 62
7
  6
CONTINUOUS
 90
16
 70
0
 10
13.9274594554
 20
-44.3398807504
 10
13.894991927
 20
-44.3213814885
 10
13.7360329022
 20
-44.2375990046
 10
13.5683971466
 20
-44.1602295749
 10
13.3915277793
 20
-44.0892688685
 10
13.2062645982
 20
-44.0253097554
 10
13.0148944655
 20
-43.9691336825
 10
12.8193317448
 20
-43.9210028531
 10
12.6183674183
 20
-43.8803177907
 10
12.4096167751
 20
-43.8465793553
 10
12.1928519871
 20
-43.819888304
 10
11.9687352627
 20
-43.8005685688
 10
11.7360566001
 20
-43.7890129908
 10
11.4945451437
 20
-43.7857117919
 10
11.2449410466
 20
-43.790986432
 10
10.9875407287
 20
-43.8051803417
  0
LINE
  5
2B6
100
AcDbEntity
  8
IMPORT_IGES
100
AcDbLine
 62
250
  6
CONTINUOUS
 10
13.1647816318
 20
-44.8389738977
 11
15.2263613303
 21
-46.0293048909
  0
LWPOLYLINE
  5
2B7
100
AcDbEntity
  8
IMPORT_IGES
100
AcDbPolyline
 62
7
  6
CONTINUOUS
 90
28
 70
0
 10
-28.5781886755
 20
-26.3392293356
 10
-28.5758434617
 20
-26.5262138209
 10
-28.5668062049
 20
-26.7516901976
 10
-28.5509518802
 20
-26.9780340823
 10
-28.5282814716
 20
-27.2049193601
 10
-28.4989286849
 20
-27.4313322536
 10
-28.4630145388
 20
-27.6570082447
 10
-28.4205975258
 20
-27.8821025855
 10
-28.3718304184
 20
-28.1062370956
 10
-28.3169148213
 20
-28.3290176845
 10
-28.2558919686
 20
-28.5507426802
 10
-28.1886364177
 20
-28.7720713926
 10
-28.1152043695
 20
-28.9929270279
 10
-28.0356396495
 20
-29.2132865642
 10
-27.9496666555
 20
-29.4338784367
 10
-27.8572571171
 20
-29.6546502554
 10
-27.7584064628
 20
-29.8755403448
 10
-27.6527462302
 20
-30.0972469603
 10
-27.5400021868
 20
-30.3200700359
 10
-27.4202810809
 20
-30.5435699339
 10
-27.2937640134
 20
-30.7673310517
 10
-27.1602458762
 20
-30.9915841073
 10
-27.0198549499
 20
-31.2159635331
 10
-26.8734233313
 20
-31.439185035
 10
-26.7213274519
 20
-31.660800713
 10
-26.5633837969
 20
-31.8811743681
 10
-26.3996988806
 20
-32.100262429
 10
-26.2305356908
 20
-32.317805202
  0
LWPOLYLINE
  5
2B8
100
AcDbEntity
  8
IMPORT_IGES
100
AcDbPolyline
 62
250
  6
CONTINUOUS
 90
70
 70
0
 10
-28.5752249849
 20
-9.4557033295
 10
-28.5702544553
 20
-9.8675203926
 10
-28.5627232025
 20
-10.2798305596
 10
-28.5526587802
 20
-10.6866173624
 10
-28.5401718288
 20
-11.0838111284
 10
-28.525145778
 20
-11.4754550986
 10
-28.5072594092
 20
-11.8676997362
 10
-28.4861047157
 20
-12.2650801922
 10
-28.4617285469
 20
-12.6630175971
 10
-28.4345380793
 20
-13.0539930806
 10
-28.4049162456
 20
-13.4334014183
 10
-28.372574575
 20
-13.8058214779
 10
-28.3369488753
 20
-14.1775102183
 10
-28.2974887244
 20
-14.5524909468
 10
-28.2544440893
 20
-14.9266845102
 10
-28.2084664186
 20
-15.2941955847
 10
-28.160098425
 20
-15.6512762069
 10
-28.108913465
 20
-16.0016493403
 10
-28.0541289378
 20
-16.3506258117
 10
-27.9952998804
 20
-16.7002947111
 10
-27.9326323416
 20
-17.0485036991
 10
-27.866218383
 20
-17.3941897554
 10
-27.79612252
 20
-17.7366190543
 10
-27.7221420363
 20
-18.0764665854
 10
-27.6439661334
 20
-18.4147801655
 10
-27.56125723
 20
-18.7524247808
 10
-27.4741233145
 20
-19.0884561698
 10
-27.3829478401
 20
-19.4212106634
 10
-27.2879351759
 20
-19.7497880717
 10
-27.1888011906
 20
-20.0750257827
 10
-27.0852250674
 20
-20.3978691428
 10
-26.9767513147
 20
-20.7193749403
 10
-26.8636581036
 20
-21.0383996058
 10
-26.7467841642
 20
-21.3525984363
 10
-26.6266757552
 20
-21.6605890392
 10
-26.5028428776
 20
-21.9637098721
 10
-26.3745973185
 20
-22.2637015813
 10
-26.2415358951
 20
-22.5613525802
 10
-26.1039497331
 20
-22.8557901767
 10
-25.9621624762
 20
-23.1462559653
 10
-25.816415666
 20
-23.4322070643
 10
-25.6664513445
 20
-23.7141207984
 10
-25.5118442618
 20
-23.9927676
 10
-25.3520795385
 20
-24.2688852499
 10
-25.1875653784
 20
-24.5416407895
 10
-25.0193032972
 20
-24.8094601274
 10
-24.847995825
 20
-25.0713094362
 10
-24.673030947
 20
-25.3281829669
 10
-24.4934480797
 20
-25.5815501526
 10
-24.308678693
 20
-25.8321474167
 10
-24.1192116695
 20
-26.0791412765
 10
-23.9256491478
 20
-26.3216382477
 10
-23.7282105134
 20
-26.5593445947
 10
-23.526705481
 20
-26.7924905457
 10
-23.3211603413
 20
-27.0209816255
 10
-23.1114247321
 20
-27.2449259636
 10
-22.8976709182
 20
-27.464147079
 10
-22.6804374886
 20
-27.6781346722
 10
-22.4601046964
 20
-27.8865435285
 10
-22.2363871453
 20
-28.0896802187
 10
-22.0088286451
 20
-28.2880131887
 10
-21.7772469407
 20
-28.4816778796
 10
-21.5418589902
 20
-28.6704732642
 10
-21.302789889
 20
-28.854354978
 10
-21.0601493014
 20
-29.033253748
 10
-20.8138842198
 20
-29.207181983
 10
-20.5638753169
 20
-29.3762170955
 10
-20.3100958272
 20
-29.54036229
 10
-20.0526181835
 20
-29.6995499964
 10
-19.7914671293
 20
-29.8537484558
  0
LINE
  5
2B9
100
AcDbEntity
  8
IMPORT_IGES
100
AcDbLine
 62
250
  6
CONTINUOUS
 10
-28.579067405
 20
-8.7933047811
 11
-28.5752249849
 21
-9.4557033295
  0
LWPOLYLINE
  5
2BA
100
AcDbEntity
  8
IMPORT_IGES
100
AcDbPolyline
 62
7
  6
CONTINUOUS
 90
8
 70
0
 10
-27.1941758877
 20
-27.2595442238
 10
-27.1941543184
 20
-27.266151424
 10
-27.1935979979
 20
-27.2847918646
 10
-27.1923008758
 20
-27.3036813228
 10
-27.1902552385
 20
-27.3226942105
 10
-27.1874568877
 20
-27.341773674
 10
-27.1839011316
 20
-27.3609314442
 10
-27.1795861759
 20
-27.3801442885
  0
LINE
  5
2BB
100
AcDbEntity
  8
IMPORT_IGES
100
AcDbLine
 62
7
  6
CONTINUOUS
 10
-28.5781886755
 20
-26.3392236526
 11
-28.5781886755
 21
-8.7932713706
  0
LINE
  5
2BC
100
AcDbEntity
  8
IMPORT_IGES
100
AcDbLine
 62
250
  6
CONTINUOUS
 10
-27.2983123484
 20
-28.47367936
 11
-27.2983123484
 21
-25.6766820726
  0
LINE
  5
2BD
100
AcDbEntity
  8
IMPORT_IGES
100
AcDbLine
 62
250
  6
CONTINUOUS
 10
-28.5790664983
 20
-8.7914423835
 11
-28.579067405
 21
-8.7933047811
  0
LINE
  5
2BE
100
AcDbEntity
  8
IMPORT_IGES
100
AcDbLine
 62
7
  6
CONTINUOUS
 10
-27.1992080829
 20
-28.5954398412
 11
-27.1944250515
 21
-27.3256896657
  0
LINE
  5
2BF
100
AcDbEntity
  8
IMPORT_IGES
100
AcDbLine
 62
250
  6
CONTINUOUS
 10
-27.1795861759
 20
-27.3801442885
 11
-27.1840999679
 21
-28.5784193764
  0
LWPOLYLINE
  5
2C0
100
AcDbEntity
  8
IMPORT_IGES
100
AcDbPolyline
 62
7
  6
CONTINUOUS
 90
8
 70
0
 10
-27.1992080492
 20
-28.5954308932
 10
-27.1991703682
 20
-28.5947795825
 10
-27.1985592994
 20
-28.5925541891
 10
-27.1971892276
 20
-28.590131888
 10
-27.1950572552
 20
-28.5875262913
 10
-27.1921659811
 20
-28.5847269755
 10
-27.1885128741
 20
-28.5816990183
 10
-27.1840999679
 20
-28.5784193764
  0
LINE
  5
2C1
100
AcDbEntity
  8
IMPORT_IGES
100
AcDbLine
 62
250
  6
CONTINUOUS
 10
-20.4072459419
 20
-35.5589118857
 11
-20.3982898035
 21
-33.181328009
  0
LWPOLYLINE
  5
2C2
100
AcDbEntity
  8
IMPORT_IGES
100
AcDbPolyline
 62
250
  6
CONTINUOUS
 90
4
 70
0
 10
-19.7914500455
 20
-36.1514722744
 10
-19.7903907671
 20
-36.1013362393
 10
-19.7861576617
 20
-36.0496787426
 10
-19.780338957
 20
-36.0079730655
  0
LWPOLYLINE
  5
2C3
100
AcDbEntity
  8
IMPORT_IGES
100
AcDbPolyline
 62
250
  6
CONTINUOUS
 90
10
 70
0
 10
-19.7507204255
 20
-29.2124684007
 10
-19.7592518453
 20
-29.2855433097
 10
-19.7667895817
 20
-29.3582303039
 10
-19.7733293402
 20
-29.4304978922
 10
-19.7788669208
 20
-29.5023042258
 10
-19.7834007855
 20
-29.5736293306
 10
-19.7869305631
 20
-29.6444744172
 10
-19.789454332
 20
-29.7148192687
 10
-19.7909701227
 20
-29.7846230178
 10
-19.7914774334
 20
-29.8538558655
  0
LWPOLYLINE
  5
2C4
100
AcDbEntity
  8
IMPORT_IGES
100
AcDbPolyline
 62
250
  6
CONTINUOUS
 90
4
 70
0
 10
-19.788014444
 20
-36.0039389221
 10
-19.7939319824
 20
-36.0425888906
 10
-19.7989067531
 20
-36.0953376228
 10
-19.8005601666
 20
-36.1462193758
  0
LWPOLYLINE
  5
2C5
100
AcDbEntity
  8
IMPORT_IGES
100
AcDbPolyline
 62
250
  6
CONTINUOUS
 90
19
 70
0
 10
-4.027959927
 20
40.9014524308
 10
-4.0105188941
 20
40.9585787737
 10
-3.9905792824
 20
41.0157495257
 10
-3.9682829552
 20
41.0726042462
 10
-3.9439278496
 20
41.1285152228
 10
-3.9176095351
 20
41.1834221029
 10
-3.889099004
 20
41.2378304863
 10
-3.8584537413
 20
41.2915603371
 10
-3.8259099915
 20
41.3441565659
 10
-3.7913968431
 20
41.3956889812
 10
-3.7550484763
 20
41.445887056
 10
-3.7170985438
 20
41.4943834694
 10
-3.6776026145
 20
41.541069308
 10
-3.6368265311
 20
41.5855989175
 10
-3.5949744943
 20
41.6277408659
 10
-3.5520072159
 20
41.6675073462
 10
-3.508088757
 20
41.7046956323
 10
-3.4635951747
 20
41.7389610912
 10
-3.4188124068
 20
41.770092751
  0
LINE
  5
2C6
100
AcDbEntity
  8
IMPORT_IGES
100
AcDbLine
 62
250
  6
CONTINUOUS
 10
24.127327627
 20
29.3435546187
 11
25.5361703709
 21
30.2187731672
  0
LINE
  5
2C7
100
AcDbEntity
  8
IMPORT_IGES
100
AcDbLine
 62
250
  6
CONTINUOUS
 10
25.0323691513
 20
31.2922649407
 11
23.5918176692
 21
30.3974787817
  0
LINE
  5
2C8
100
AcDbEntity
  8
IMPORT_IGES
100
AcDbLine
 62
250
  6
CONTINUOUS
 10
25.889723726
 20
30.4238823219
 11
28.57672953
 21
32.0039756684
  0
LINE
  5
2C9
100
AcDbEntity
  8
IMPORT_IGES
100
AcDbLine
 62
7
  6
CONTINUOUS
 10
28.0724702392
 20
33.0776323696
 11
25.3856699791
 21
31.4966320191
  0
LWPOLYLINE
  5
2CA
100
AcDbEntity
  8
IMPORT_IGES
100
AcDbPolyline
 62
250
  6
CONTINUOUS
 90
25
 70
0
 10
23.5918175546
 20
30.3974787106
 10
23.4302731249
 20
30.3029292421
 10
23.2656526733
 20
30.2162132162
 10
23.0979579515
 20
30.1373252508
 10
22.9268814867
 20
30.0662994774
 10
22.752732394
 20
30.0030860958
 10
22.5764363235
 20
29.9475522485
 10
22.3980038509
 20
29.8996473136
 10
22.2174224022
 20
29.8593992069
 10
22.0355820439
 20
29.8267925799
 10
21.8524158514
 20
29.8018727048
 10
21.6679856378
 20
29.784565764
 10
21.4833740184
 20
29.7746787296
 10
21.2983443202
 20
29.7723403226
 10
21.1131256787
 20
29.7773901717
 10
20.9294996026
 20
29.7892062141
 10
20.7478877199
 20
29.8077151611
 10
20.5678602556
 20
29.8329636984
 10
20.3899222518
 20
29.8645151223
 10
20.2139733236
 20
29.9022906376
 10
20.040105098
 20
29.9463430022
 10
19.8691111302
 20
29.9964364144
 10
19.7012530929
 20
30.0524853517
 10
19.5362603493
 20
30.1145521164
 10
19.3741281478
 20
30.1826244011
  0
LWPOLYLINE
  5
2CB
100
AcDbEntity
  8
IMPORT_IGES
100
AcDbPolyline
 62
7
  6
CONTINUOUS
 90
7
 70
0
 10
12.8044162568
 20
-43.9179832249
 10
12.8155245557
 20
-43.9335454254
 10
12.8900290454
 20
-44.0548582538
 10
12.9570229851
 20
-44.1825643206
 10
13.0163597493
 20
-44.3163412295
 10
13.0679916221
 20
-44.4559369315
 10
13.1118409183
 20
-44.6010487629
  0
LWPOLYLINE
  5
2CC
100
AcDbEntity
  8
IMPORT_IGES
100
AcDbPolyline
 62
7
  6
CONTINUOUS
 90
12
 70
0
 10
-7.8162836997
 20
-37.3499169111
 10
-7.8158504064
 20
-37.3592701898
 10
-7.8145516266
 20
-37.3680392906
 10
-7.8123687536
 20
-37.3762688194
 10
-7.8092865069
 20
-37.3839356499
 10
-7.8052869515
 20
-37.391026816
 10
-7.800342401
 20
-37.3975247843
 10
-7.7944345684
 20
-37.4034095023
 10
-7.7875422993
 20
-37.4086589419
 10
-7.7796202088
 20
-37.41324931
 10
-7.770638844
 20
-37.4171585332
 10
-7.7650692166
 20
-37.4190616991
  0
LWPOLYLINE
  5
2CD
100
AcDbEntity
  8
IMPORT_IGES
100
AcDbPolyline
 62
7
  6
CONTINUOUS
 90
35
 70
0
 10
-7.8162844325
 20
-39.0255212074
 10
-7.8161563186
 20
-39.0371609209
 10
-7.8153043343
 20
-39.0581554751
 10
-7.8136394772
 20
-39.0798438281
 10
-7.8111379135
 20
-39.1022932823
 10
-7.8077762878
 20
-39.1254943176
 10
-7.8035344788
 20
-39.1494222069
 10
-7.7983837088
 20
-39.1741194911
 10
-7.7923038899
 20
-39.1995528882
 10
-7.7852706988
 20
-39.2257151181
 10
-7.7772388297
 20
-39.2526845963
 10
-7.7681783134
 20
-39.280443166
 10
-7.758065228
 20
-39.3089586479
 10
-7.7468521202
 20
-39.3382839339
 10
-7.7345010924
 20
-39.3684153875
 10
-7.7209941345
 20
-39.3992945151
 10
-7.7063119334
 20
-39.4308885306
 10
-7.6904346771
 20
-39.463168864
 10
-7.6733435578
 20
-39.4960934164
 10
-7.6550260914
 20
-39.5296072845
 10
-7.635456709
 20
-39.5637055471
 10
-7.6146397032
 20
-39.5983134789
 10
-7.5926192636
 20
-39.6332728041
 10
-7.5694005041
 20
-39.6685568296
 10
-7.5449924787
 20
-39.7041132184
 10
-7.5194631907
 20
-39.7397510667
 10
-7.4928276424
 20
-39.77545384
 10
-7.4651185496
 20
-39.811163768
 10
-7.4364491248
 20
-39.8466376289
 10
-7.4068687638
 20
-39.8818424502
 10
-7.3764113099
 20
-39.9167512964
 10
-7.3451823428
 20
-39.9511412089
 10
-7.313254316
 20
-39.9849243927
 10
-7.2806620786
 20
-40.0181434912
 10
-7.2474621983
 20
-40.0507772571
  0
LINE
  5
2CE
100
AcDbEntity
  8
IMPORT_IGES
100
AcDbLine
 62
250
  6
CONTINUOUS
 10
-9.048050349
 20
-39.1598790811
 11
-9.0435363419
 21
-37.9616048223
  0
LINE
  5
2CF
100
AcDbEntity
  8
IMPORT_IGES
100
AcDbLine
 62
250
  6
CONTINUOUS
 10
-8.7377440723
 20
-37.7311056888
 11
-8.7437377744
 21
-39.3221789727
  0
LINE
  5
2D0
100
AcDbEntity
  8
IMPORT_IGES
100
AcDbLine
 62
7
  6
CONTINUOUS
 10
-7.8162837229
 20
-37.4030727132
 11
-7.8162844325
 21
-39.0255223417
  0
LINE
  5
2D1
100
AcDbEntity
  8
IMPORT_IGES
100
AcDbLine
 62
250
  6
CONTINUOUS
 10
-7.2474615866
 20
-40.0507773637
 11
-7.2474615866
 21
-37.2537801003
  0
LWPOLYLINE
  5
2D2
100
AcDbEntity
  8
IMPORT_IGES
100
AcDbPolyline
 62
7
  6
CONTINUOUS
 90
10
 70
0
 10
19.1348690542
 20
-55.5138455396
 10
18.7194502196
 20
-54.520556513
 10
18.3161165636
 20
-53.5102412373
 10
17.9255554875
 20
-52.4833385199
 10
17.5482529871
 20
-51.4403610729
 10
17.1849493401
 20
-50.3816424284
 10
16.8366550994
 20
-49.307348204
 10
16.5040407617
 20
-48.2178035602
 10
16.1874253985
 20
-47.1134794174
 10
15.8872418749
 20
-45.9947485737
  0
LWPOLYLINE
  5
2D3
100
AcDbEntity
  8
IMPORT_IGES
100
AcDbPolyline
 62
7
  6
CONTINUOUS
 90
19
 70
0
 10
-27.1058454201
 20
-27.0143351851
 10
-27.1140443035
 20
-27.0231838809
 10
-27.1220268917
 20
-27.0326675931
 10
-27.1297633467
 20
-27.0427868665
 10
-27.1372270034
 20
-27.05354441
 10
-27.1443818145
 20
-27.0649357929
 10
-27.1511848271
 20
-27.0769484185
 10
-27.1575995741
 20
-27.0895696833
 10
-27.1636020245
 20
-27.1028016495
 10
-27.1691676242
 20
-27.1166517223
 10
-27.1742658805
 20
-27.1311245335
 10
-27.1788600487
 20
-27.1461990269
 10
-27.1829149667
 20
-27.1618424231
 10
-27.1864005387
 20
-27.178060154
 10
-27.1892818302
 20
-27.1948214284
 10
-27.1915227416
 20
-27.2120361824
 10
-27.1930980918
 20
-27.2296986471
 10
-27.1939828559
 20
-27.2477796739
 10
-27.1941758877
 20
-27.2595442238
  0
LWPOLYLINE
  5
2D4
100
AcDbEntity
  8
IMPORT_IGES
100
AcDbPolyline
 62
7
  6
CONTINUOUS
 90
10
 70
0
 10
-27.1058454201
 20
-27.0143351851
 10
-27.0962576069
 20
-27.0047349368
 10
-27.0865222797
 20
-26.9955191831
 10
-27.0766394386
 20
-26.986687924
 10
-27.0666106866
 20
-26.9782389988
 10
-27.0564344206
 20
-26.9701745682
 10
-27.0461058317
 20
-26.9625011144
 10
-27.035623317
 20
-26.955220798
 10
-27.0249884794
 20
-26.9483314584
 10
-27.0142013189
 20
-26.9418330956
  0
LWPOLYLINE
  5
2D5
100
AcDbEntity
  8
IMPORT_IGES
100
AcDbPolyline
 62
7
  6
CONTINUOUS
 90
14
 70
0
 10
15.2263613303
 20
-46.0293048909
 10
15.177396832
 20
-45.8626500317
 10
15.1188411303
 20
-45.7002466591
 10
15.0507040237
 20
-45.5424882139
 10
14.9730608993
 20
-45.3896873704
 10
14.8858925951
 20
-45.2423135223
 10
14.7891547577
 20
-45.1009168857
 10
14.6821122374
 20
-44.9648548648
 10
14.5657109558
 20
-44.8354397628
 10
14.4429379074
 20
-44.7155159348
 10
14.3166783057
 20
-44.6066217116
 10
14.1853655277
 20
-44.5062694405
 10
14.0452521858
 20
-44.4113585103
 10
13.9274594554
 20
-44.3398807504
  0
LWPOLYLINE
  5
2D6
100
AcDbEntity
  8
IMPORT_IGES
100
AcDbPolyline
 62
7
  6
CONTINUOUS
 90
10
 70
0
 10
13.1118409183
 20
-44.6010487629
 10
13.1186679369
 20
-44.6268469129
 10
13.1252597607
 20
-44.6528082688
 10
13.131615957
 20
-44.6789312741
 10
13.1377361229
 20
-44.7052143873
 10
13.143619832
 20
-44.7316560047
 10
13.1492666357
 20
-44.7582544587
 10
13.154676134
 20
-44.7850081228
 10
13.1598479736
 20
-44.8119154121
 10
13.1647817958
 20
-44.8389747053
  0
LWPOLYLINE
  5
2D7
100
AcDbEntity
  8
IMPORT_IGES
100
AcDbPolyline
 62
7
  6
CONTINUOUS
 90
10
 70
0
 10
15.2263613303
 20
-46.0293048909
 10
15.5380037801
 20
-47.21163296
 10
15.8667508116
 20
-48.3780716141
 10
16.2124815872
 20
-49.5283901958
 10
16.5757549865
 20
-50.6625241013
 10
16.9557503777
 20
-51.780100866
 10
17.3503115017
 20
-52.8804004656
 10
17.7586713872
 20
-53.9630046258
 10
18.1814085606
 20
-55.0278365932
 10
18.6184184599
 20
-56.07465945
  0
LWPOLYLINE
  5
2D8
100
AcDbEntity
  8
IMPORT_IGES
100
AcDbPolyline
 62
7
  6
CONTINUOUS
 90
58
 70
0
 10
15.8872418749
 20
-45.9947485737
 10
15.8658976065
 20
-45.9120919115
 10
15.8421656646
 20
-45.8302191078
 10
15.816042537
 20
-45.7491264404
 10
15.7874870026
 20
-45.668660279
 10
15.7565321913
 20
-45.5889656277
 10
15.7232858262
 20
-45.510486378
 10
15.6877091319
 20
-45.4332483141
 10
15.6498313091
 20
-45.3572152936
 10
15.6098623165
 20
-45.2827385594
 10
15.5678138895
 20
-45.2098967679
 10
15.5236642174
 20
-45.1386001489
 10
15.4775735364
 20
-45.0689478841
 10
15.4296622524
 20
-45.0010775446
 10
15.379799761
 20
-44.9348400414
 10
15.327769325
 20
-44.8699039855
 10
15.2736185888
 20
-44.8062349382
 10
15.2172871651
 20
-44.7438526747
 10
15.15839409
 20
-44.6825046081
 10
15.0969417002
 20
-44.622112981
 10
15.03291087
 20
-44.5627358556
 10
14.9658852874
 20
-44.5043206707
 10
14.89572846
 20
-44.4467232701
 10
14.8225547735
 20
-44.3900612833
 10
14.746322064
 20
-44.3346721166
 10
14.6667474063
 20
-44.2804249396
 10
14.5840887528
 20
-44.2274195866
 10
14.4991181556
 20
-44.1763425626
 10
14.4119038319
 20
-44.1273223682
 10
14.3223592827
 20
-44.0802061268
 10
14.231030455
 20
-44.03526509
 10
14.1380548923
 20
-43.9925855858
 10
14.0432818301
 20
-43.9520619356
 10
13.9468279431
 20
-43.9136809949
 10
13.8487181732
 20
-43.8774358915
 10
13.748915133
 20
-43.8433140837
 10
13.6474427532
 20
-43.8112945914
 10
13.5442794836
 20
-43.7813532661
 10
13.4394346302
 20
-43.7534939825
 10
13.3329789694
 20
-43.7277382332
 10
13.2248239255
 20
-43.7040629278
 10
13.1150465342
 20
-43.6824705864
 10
13.0039680836
 20
-43.6630236314
 10
12.8915706087
 20
-43.6457300232
 10
12.777864355
 20
-43.6305652431
 10
12.6632165343
 20
-43.6175477145
 10
12.5477001925
 20
-43.6066885969
 10
12.4312389411
 20
-43.5979654063
 10
12.3139785261
 20
-43.5913497179
 10
12.1959328591
 20
-43.5868352191
 10
12.0770862717
 20
-43.5844185043
 10
11.9575414517
 20
-43.5840772837
 10
11.8372938079
 20
-43.5858047656
 10
11.7163474208
 20
-43.5895992837
 10
11.5948191139
 20
-43.5954478291
 10
11.4727483663
 20
-43.6033441836
 10
11.3500966988
 20
-43.6132879553
 10
11.2268646127
 20
-43.6252757233
  0
LWPOLYLINE
  5
2D9
100
AcDbEntity
  8
IMPORT_IGES
100
AcDbPolyline
 62
250
  6
CONTINUOUS
 90
16
 70
0
 10
18.9472198999
 20
29.2943963704
 10
18.9705450377
 20
29.3566855054
 10
18.9952891197
 20
29.4201511662
 10
19.0212801674
 20
29.4843248491
 10
19.0482535335
 20
29.5485549173
 10
19.0760659919
 20
29.6125202976
 10
19.1047289259
 20
29.6762492744
 10
19.1340376134
 20
29.7392791964
 10
19.163771462
 20
29.8011437554
 10
19.1939389494
 20
29.8618605858
 10
19.2243164041
 20
29.9209716199
 10
19.2546837313
 20
29.9780555951
 10
19.2850542437
 20
30.0331356002
 10
19.3152750372
 20
30.0859165511
 10
19.3450391277
 20
30.1358607092
 10
19.3741281478
 20
30.1826244011
  0
LWPOLYLINE
  5
2DA
100
AcDbEntity
  8
IMPORT_IGES
100
AcDbPolyline
 62
7
  6
CONTINUOUS
 90
11
 70
0
 10
13.1647816318
 20
-44.8389738977
 10
13.2545787312
 20
-45.3728998469
 10
13.3320076378
 20
-45.8921359141
 10
13.3970131153
 20
-46.3966921978
 10
13.4495824008
 20
-46.8868818347
 10
13.4896229135
 20
-47.3624101168
 10
13.5169387979
 20
-47.8223946701
 10
13.5314314476
 20
-48.2668960467
 10
13.5330496731
 20
-48.6959165546
 10
13.521624424
 20
-49.1085270766
 10
13.4970416943
 20
-49.5048451314
  0
LWPOLYLINE
  5
2DB
100
AcDbEntity
  8
IMPORT_IGES
100
AcDbPolyline
 62
250
  6
CONTINUOUS
 90
12
 70
0
 10
9.0750497208
 20
-3.8700725253
 10
8.2760377575
 20
-6.646829961
 10
7.898787391
 20
-7.9483564887
 10
7.533122723
 20
-9.1958034387
 10
7.1771935839
 20
-10.3910467919
 10
6.8241809447
 20
-11.5502107264
 10
6.471498673
 20
-12.6802247866
 10
6.1195929179
 20
-13.7751540195
 10
5.7663969258
 20
-14.8315280444
 10
5.4098634161
 20
-15.8485764288
 10
5.0495658128
 20
-16.8256941356
 10
4.6857716396
 20
-17.7589766247
  0
LWPOLYLINE
  5
2DC
100
AcDbEntity
  8
IMPORT_IGES
100
AcDbPolyline
 62
250
  6
CONTINUOUS
 90
4
 70
0
 10
17.3075699739
 20
23.8616301772
 10
16.5924308602
 20
21.3893906134
 10
16.0593521262
 20
19.5740923191
 10
15.5083637934
 20
17.7189976645
  0
LWPOLYLINE
  5
2DD
100
AcDbEntity
  8
IMPORT_IGES
100
AcDbPolyline
 62
250
  6
CONTINUOUS
 90
5
 70
0
 10
10.9466973449
 20
2.5324442044
 10
10.4407965032
 20
0.8173929062
 10
9.9628610578
 20
-0.8150967364
 10
9.5074894704
 20
-2.3770378951
 10
9.0750497208
 20
-3.8700725253
  0
LWPOLYLINE
  5
2DE
100
AcDbEntity
  8
IMPORT_IGES
100
AcDbPolyline
 62
250
  6
CONTINUOUS
 90
3
 70
0
 10
12.0279935826
 20
6.1559387638
 10
11.4794679642
 20
4.3216527976
 10
10.9466973449
 20
2.5324442044
  0
LINE
  5
2DF
100
AcDbEntity
  8
IMPORT_IGES
100
AcDbLine
 62
250
  6
CONTINUOUS
 10
15.5083637934
 20
17.7189976645
 11
14.6400563323
 21
14.8251279932
  0
LINE
  5
2E0
100
AcDbEntity
  8
IMPORT_IGES
100
AcDbLine
 62
250
  6
CONTINUOUS
 10
12.7195017276
 20
8.4567158301
 11
12.0279935826
 21
6.1559387638
  0
LINE
  5
2E1
100
AcDbEntity
  8
IMPORT_IGES
100
AcDbLine
 62
250
  6
CONTINUOUS
 10
14.6400563323
 20
14.8251279932
 11
13.5865149307
 21
11.3282908724
  0
LINE
  5
2E2
100
AcDbEntity
  8
IMPORT_IGES
100
AcDbLine
 62
250
  6
CONTINUOUS
 10
13.5865149307
 20
11.3282908724
 11
12.7195017276
 21
8.4567158301
  0
LWPOLYLINE
  5
2E3
100
AcDbEntity
  8
IMPORT_IGES
100
AcDbPolyline
 62
250
  6
CONTINUOUS
 90
9
 70
0
 10
18.9472188895
 20
29.2943955363
 10
18.7402095118
 20
28.6297885929
 10
18.5336607259
 20
27.9609688771
 10
18.327642578
 20
27.2879825307
 10
18.1222497021
 20
26.6108911034
 10
17.917526349
 20
25.9297141916
 10
17.7134672933
 20
25.2444305473
 10
17.5101172669
 20
24.5550536232
 10
17.3075699739
 20
23.8616301772
  0
LINE
  5
2E4
100
AcDbEntity
  8
IMPORT_IGES
100
AcDbLine
 62
250
  6
CONTINUOUS
 10
13.2363255893
 20
-2.5906713821
 11
14.1968517522
 21
0.0164942133
  0
LWPOLYLINE
  5
2E5
100
AcDbEntity
  8
IMPORT_IGES
100
AcDbPolyline
 62
250
  6
CONTINUOUS
 90
3
 70
0
 10
11.5376385188
 20
-7.1503781013
 10
11.8148153781
 20
-6.4139492639
 10
13.2363255893
 20
-2.5906713821
  0
LINE
  5
2E6
100
AcDbEntity
  8
IMPORT_IGES
100
AcDbLine
 62
250
  6
CONTINUOUS
 10
4.6857716396
 20
-17.7589766247
 11
4.317732228
 21
-18.6453750751
  0
LWPOLYLINE
  5
2E7
100
AcDbEntity
  8
IMPORT_IGES
100
AcDbPolyline
 62
250
  6
CONTINUOUS
 90
41
 70
0
 10
4.317732228
 20
-18.6453750751
 10
3.9443384712
 20
-19.4869784602
 10
3.5655131825
 20
-20.2877015631
 10
3.1813426034
 20
-21.0459903144
 10
2.7906231566
 20
-21.7628339032
 10
2.3915434271
 20
-22.4460023564
 10
1.9825098756
 20
-23.0970778956
 10
1.5644920122
 20
-23.7139884461
 10
1.1396754294
 20
-24.2990609749
 10
0.7091708195
 20
-24.8508627757
 10
0.2716869871
 20
-25.3704738955
 10
-0.1740991903
 20
-25.8640100659
 10
-0.6277192861
 20
-26.3316397305
 10
-1.0895928939
 20
-26.7728747052
 10
-1.5623675461
 20
-27.1928196008
 10
-2.0486670822
 20
-27.5935896189
 10
-2.5456769769
 20
-27.9726688062
 10
-3.0478391393
 20
-28.3282402292
 10
-3.551704518
 20
-28.6581002664
 10
-4.0602933302
 20
-28.9642143401
 10
-4.5777224036
 20
-29.2510305266
 10
-5.1047570131
 20
-29.5196394124
 10
-5.6401063709
 20
-29.7685373001
 10
-6.1847843567
 20
-29.998197097
 10
-6.7395326956
 20
-30.208839818
 10
-7.3028810217
 20
-30.3997381748
 10
-7.8724837492
 20
-30.5699438665
 10
-8.4471895297
 20
-30.7188824663
 10
-9.0272583472
 20
-30.846674901
 10
-9.6124295836
 20
-30.9534407873
 10
-10.2026764248
 20
-31.0389372813
 10
-10.7969626179
 20
-31.1029267706
 10
-11.3934977848
 20
-31.1455604108
 10
-11.9932307734
 20
-31.1667477594
 10
-12.5940412144
 20
-31.1661589189
 10
-13.1896855904
 20
-31.143768138
 10
-13.7771964103
 20
-31.0997549505
 10
-14.3587199432
 20
-31.0339503728
 10
-14.9357670859
 20
-30.9459121904
 10
-15.5097649481
 20
-30.8349021806
 10
-16.0782403047
 20
-30.7015757531
  0
LINE
  5
2E8
100
AcDbEntity
  8
IMPORT_IGES
100
AcDbLine
 62
7
  6
CONTINUOUS
 10
-27.0142013189
 20
-26.9418330956
 11
-26.6522422857
 21
-26.7328424742
  0
LWPOLYLINE
  5
2E9
100
AcDbEntity
  8
IMPORT_IGES
100
AcDbPolyline
 62
250
  6
CONTINUOUS
 90
10
 70
0
 10
22.0723405426
 20
22.3792679758
 10
22.2912901542
 20
23.1520833773
 10
22.5125881854
 20
23.9251569816
 10
22.7362346362
 20
24.6984887886
 10
22.9622333036
 20
25.4720916603
 10
23.1905803906
 20
26.2459527348
 10
23.4212645056
 20
27.0200334264
 10
23.6542818514
 20
27.7943208733
 10
23.8896362252
 20
28.5688279374
 10
24.127327627
 20
29.3435546187
  0
LWPOLYLINE
  5
2EA
100
AcDbEntity
  8
IMPORT_IGES
100
AcDbPolyline
 62
250
  6
CONTINUOUS
 90
9
 70
0
 10
18.8554550675
 20
12.94638819
 10
19.2393154006
 20
14.0412660519
 10
19.6316548579
 20
15.1661728786
 10
20.0379373017
 20
16.3389047644
 10
20.4513237903
 20
17.5424350976
 10
20.8625803531
 20
18.7508344226
 10
21.2685925049
 20
19.9553772139
 10
21.6719505377
 20
21.1648388131
 10
22.0723404793
 20
22.3792679411
  0
LINE
  5
2EB
100
AcDbEntity
  8
IMPORT_IGES
100
AcDbLine
 62
250
  6
CONTINUOUS
 10
18.0790903859
 20
10.749150025
 11
18.8554550675
 21
12.94638819
  0
LINE
  5
2EC
100
AcDbEntity
  8
IMPORT_IGES
100
AcDbLine
 62
250
  6
CONTINUOUS
 10
16.2312027025
 20
5.5972586361
 11
18.0790903859
 21
10.749150025
  0
LINE
  5
2ED
100
AcDbEntity
  8
IMPORT_IGES
100
AcDbLine
 62
250
  6
CONTINUOUS
 10
15.5080957199
 20
3.6033507806
 11
16.2312027025
 21
5.5972586361
  0
LWPOLYLINE
  5
2EE
100
AcDbEntity
  8
IMPORT_IGES
100
AcDbPolyline
 62
250
  6
CONTINUOUS
 90
3
 70
0
 10
14.1968517522
 20
0.0164942133
 10
14.5131070251
 20
0.8790370346
 10
15.5080957199
 20
3.6033507806
  0
LWPOLYLINE
  5
2EF
100
AcDbEntity
  8
IMPORT_IGES
100
AcDbPolyline
 62
250
  6
CONTINUOUS
 90
19
 70
0
 10
-20.1846295137
 20
-32.8147853638
 10
-20.2030601116
 20
-32.8262904788
 10
-20.2215223704
 20
-32.8396685395
 10
-20.2397858659
 20
-32.8547913791
 10
-20.257542426
 20
-32.8714065856
 10
-20.2746552922
 20
-32.8893562328
 10
-20.2911542608
 20
-32.9086610932
 10
-20.3068527149
 20
-32.9291174609
 10
-20.3215629652
 20
-32.9504704785
 10
-20.3352962592
 20
-32.9727290777
 10
-20.3478890928
 20
-32.995644814
 10
-20.3592039558
 20
-33.0189548988
 10
-20.3692482333
 20
-33.0426714293
 10
-20.3778905302
 20
-33.0665076325
 10
-20.3850433103
 20
-33.0902019573
 10
-20.3907143708
 20
-33.1137869695
 10
-20.3948337938
 20
-33.1370660298
 10
-20.397330203
 20
-33.1596505621
 10
-20.3982045536
 20
-33.1812790954
  0
LWPOLYLINE
  5
2F0
100
AcDbEntity
  8
IMPORT_IGES
100
AcDbPolyline
 62
7
  6
CONTINUOUS
 90
7
 70
0
 10
-27.1985509216
 20
-28.4209833788
 10
-27.207117894
 20
-28.4247089674
 10
-27.2294918216
 20
-28.4352216068
 10
-27.2498725573
 20
-28.44534962
 10
-27.2682050643
 20
-28.4550346458
 10
-27.2843759242
 20
-28.4644557977
 10
-27.2983123484
 20
-28.47367936
  0
LWPOLYLINE
  5
2F1
100
AcDbEntity
  8
IMPORT_IGES
100
AcDbPolyline
 62
250
  6
CONTINUOUS
 90
12
 70
0
 10
-21.2065525413
 20
45.2853319077
 10
-21.2863751178
 20
45.378159189
 10
-21.3565471442
 20
45.470135258
 10
-21.4167810019
 20
45.5609443639
 10
-21.4668043579
 20
45.6501721213
 10
-21.5065469725
 20
45.7376274299
 10
-21.5360235326
 20
45.8233335625
 10
-21.5551234238
 20
45.9070133467
 10
-21.5638011863
 20
45.9883879403
 10
-21.5620606468
 20
46.0674680098
 10
-21.549891084
 20
46.1439968977
 10
-21.5456247949
 20
46.1611991803
  0
LINE
  5
2F2
100
AcDbEntity
  8
IMPORT_IGES
100
AcDbLine
 62
7
  6
CONTINUOUS
 10
17.8890631771
 20
48.5555328252
 11
17.8890631771
 21
44.9527770606
  0
LWPOLYLINE
  5
2F3
100
AcDbEntity
  8
IMPORT_IGES
100
AcDbPolyline
 62
7
  6
CONTINUOUS
 90
10
 70
0
 10
18.6258030519
 20
-56.320795868
 10
18.6262289166
 20
-56.2946965992
 10
18.6263344363
 20
-56.2682812815
 10
18.6261198361
 20
-56.2415497033
 10
18.6255743804
 20
-56.2144959967
 10
18.6247092567
 20
-56.1871256051
 10
18.6235575799
 20
-56.1594552778
 10
18.6221305461
 20
-56.13149045
 10
18.6204174277
 20
-56.1032252474
 10
18.6184184599
 20
-56.07465945
  0
LINE
  5
2F4
100
AcDbEntity
  8
IMPORT_IGES
100
AcDbLine
 62
7
  6
CONTINUOUS
 10
13.4970416943
 20
-49.5048451314
 11
13.4592225488
 21
-49.8848628348
  0
LWPOLYLINE
  5
2F5
100
AcDbEntity
  8
IMPORT_IGES
100
AcDbPolyline
 62
7
  6
CONTINUOUS
 90
12
 70
0
 10
13.4592225488
 20
-49.8848628348
 10
13.4079992743
 20
-50.2475116368
 10
13.343156265
 20
-50.5928570727
 10
13.2646656603
 20
-50.9210003063
 10
13.1725846713
 20
-51.2309818729
 10
13.0668154112
 20
-51.522757181
 10
12.9471603131
 20
-51.7965997585
 10
12.8134859388
 20
-52.0520699203
 10
12.6655917274
 20
-52.2893575681
 10
12.5033754235
 20
-52.5085233116
 10
12.3268205244
 20
-52.7089671003
 10
12.3011596499
 20
-52.7353022037
  0
LWPOLYLINE
  5
2F6
100
AcDbEntity
  8
IMPORT_IGES
100
AcDbPolyline
 62
250
  6
CONTINUOUS
 90
25
 70
0
 10
22.0723532584
 20
22.3793133138
 10
21.9114842375
 20
22.3617401839
 10
21.7431830963
 20
22.3486698272
 10
21.56798057
 20
22.3401698492
 10
21.3866780778
 20
22.336277829
 10
21.1997007651
 20
22.3369841425
 10
21.0070035042
 20
22.3422869381
 10
20.8091939795
 20
22.3521765436
 10
20.606949238
 20
22.3666111769
 10
20.4002458387
 20
22.3855913548
 10
20.1897380809
 20
22.4090635041
 10
19.9761225792
 20
22.436943033
 10
19.7593865782
 20
22.4692311786
 10
19.5402241149
 20
22.5058309603
 10
19.3193447738
 20
22.5466176305
 10
19.096734788
 20
22.5915939805
 10
18.873122223
 20
22.640619555
 10
18.6492229697
 20
22.6935314866
 10
18.4250096817
 20
22.7503371192
 10
18.2012400353
 20
22.8108515902
 10
17.9786284412
 20
22.8748757264
 10
17.7571186178
 20
22.9424272422
 10
17.5372068542
 20
23.0133701459
 10
17.3198976251
 20
23.0873816277
 10
17.1059089544
 20
23.164196808
  0
LINE
  5
2F7
100
AcDbEntity
  8
IMPORT_IGES
100
AcDbLine
 62
250
  6
CONTINUOUS
 10
22.0723405426
 20
22.3792679758
 11
22.0723405426
 21
-54.1539447985
  0
LINE
  5
2F8
100
AcDbEntity
  8
IMPORT_IGES
100
AcDbLine
 62
7
  6
CONTINUOUS
 10
25.5361703709
 20
30.2187731672
 11
25.5361703713
 21
-52.3099564051
  0
LINE
  5
2F9
100
AcDbEntity
  8
IMPORT_IGES
100
AcDbLine
 62
7
  6
CONTINUOUS
 10
25.8897237615
 20
-52.1050808465
 11
25.889723726
 21
30.4238823219
  0
LWPOLYLINE
  5
2FA
100
AcDbEntity
  8
IMPORT_IGES
100
AcDbPolyline
 62
250
  6
CONTINUOUS
 90
19
 70
0
 10
-19.5117847162
 20
51.5001422137
 10
-18.8971563579
 20
50.9533555763
 10
-18.251155236
 20
50.4016971624
 10
-17.5743845444
 20
49.8454907823
 10
-16.8678527732
 20
49.2857890093
 10
-16.1319156825
 20
48.7221474644
 10
-15.366030289
 20
48.1526441712
 10
-14.5700446861
 20
47.5770627751
 10
-13.7450188903
 20
46.996277797
 10
-12.8921222348
 20
46.4100048144
 10
-12.0126922474
 20
45.8188422085
 10
-11.1067005929
 20
45.2228233931
 10
-10.1731968965
 20
44.6208365072
 10
-9.2119080065
 20
44.0127838245
 10
-8.2240937417
 20
43.3995198762
 10
-7.2110454601
 20
42.7813838549
 10
-6.1736667493
 20
42.1587338996
 10
-5.1124100353
 20
41.5319594628
 10
-4.0279608075
 20
40.9014487873
  0
LWPOLYLINE
  5
2FB
100
AcDbEntity
  8
IMPORT_IGES
100
AcDbPolyline
 62
250
  6
CONTINUOUS
 90
25
 70
0
 10
-18.8530245293
 20
52.254503258
 10
-18.9164630882
 20
52.3167553031
 10
-18.9714112301
 20
52.3818100978
 10
-19.0178737791
 20
52.4496857507
 10
-19.0559231294
 20
52.5205108255
 10
-19.0854959777
 20
52.5941908797
 10
-19.1063937894
 20
52.6704116201
 10
-19.1186991628
 20
52.7491568158
 10
-19.1223384302
 20
52.8304796515
 10
-19.1168792191
 20
52.914174649
 10
-19.1023335879
 20
53.000386545
 10
-19.0786978366
 20
53.0890082137
 10
-19.0455165402
 20
53.1794622071
 10
-19.0026141103
 20
53.2717587634
 10
-18.9501736493
 20
53.3659278063
 10
-18.8882778439
 20
53.4614255762
 10
-18.8168574119
 20
53.5582544436
 10
-18.7359866722
 20
53.6564463487
 10
-18.6459631052
 20
53.7555020947
 10
-18.5468422107
 20
53.8554241512
 10
-18.4385703945
 20
53.9562348043
 10
-18.3212806171
 20
54.0574631895
 10
-18.1950166229
 20
54.1589571175
 10
-18.0597330037
 20
54.2608823206
 10
-17.9154280277
 20
54.3632421018
  0
LWPOLYLINE
  5
2FC
100
AcDbEntity
  8
IMPORT_IGES
100
AcDbPolyline
 62
250
  6
CONTINUOUS
 90
19
 70
0
 10
24.1273276259
 20
29.3435546372
 10
24.1222033278
 20
29.4009625182
 10
24.1136661031
 20
29.4597747698
 10
24.1018346686
 20
29.5196584006
 10
24.0869033058
 20
29.580059449
 10
24.0689787037
 20
29.6408798502
 10
24.0479636589
 20
29.7025062842
 10
24.0238477856
 20
29.7648394949
 10
23.9967775827
 20
29.8273865011
 10
23.9667968628
 20
29.8899551615
 10
23.9339604744
 20
29.9523174216
 10
23.8984338722
 20
30.0140540038
 10
23.8604561677
 20
30.0746829448
 10
23.8202461147
 20
30.1338194027
 10
23.7779531465
 20
30.191209823
 10
23.7337483753
 20
30.246577585
 10
23.6878334382
 20
30.2996211473
 10
23.6404439895
 20
30.3500207579
 10
23.5918176692
 20
30.3974787817
  0
LWPOLYLINE
  5
2FD
100
AcDbEntity
  8
IMPORT_IGES
100
AcDbPolyline
 62
7
  6
CONTINUOUS
 90
19
 70
0
 10
28.5767289988
 20
32.1572837386
 10
28.5749598675
 20
32.2122181603
 10
28.5698547811
 20
32.267260384
 10
28.561446503
 20
32.3222351108
 10
28.5497281939
 20
32.3769555589
 10
28.5347947442
 20
32.431253479
 10
28.5168491939
 20
32.4849796632
 10
28.4960168284
 20
32.5377911882
 10
28.472330522
 20
32.5896801335
 10
28.4458209384
 20
32.6409899253
 10
28.4163146701
 20
32.6918000026
 10
28.3840586603
 20
32.7416326477
 10
28.3497317923
 20
32.7900055133
 10
28.3137483901
 20
32.836314241
 10
28.2759694629
 20
32.8808641209
 10
28.2362235481
 20
32.9244949659
 10
28.1944670721
 20
32.9672837606
 10
28.1508730636
 20
33.0086371303
 10
28.1055402648
 20
33.0482931342
  0
LWPOLYLINE
  5
2FE
100
AcDbEntity
  8
IMPORT_IGES
100
AcDbPolyline
 62
7
  6
CONTINUOUS
 90
19
 70
0
 10
25.889722437
 20
30.4238831087
 10
25.8878525065
 20
30.4834986225
 10
25.8825051641
 20
30.5442285727
 10
25.8736804099
 20
30.6060729594
 10
25.8612973117
 20
30.6693505833
 10
25.8454368017
 20
30.7337426436
 10
25.8263416764
 20
30.7982927381
 10
25.8039653601
 20
30.8630031762
 10
25.7783544286
 20
30.9278716485
 10
25.7498914057
 20
30.9919348247
 10
25.7185349945
 20
31.0551810333
 10
25.6843264921
 20
31.1176219459
 10
25.6477723137
 20
31.178329246
 10
25.6088387033
 20
31.2372778752
 10
25.567559417
 20
31.2944928919
 10
25.5245421384
 20
31.3491211558
 10
25.4799894287
 20
31.4008782867
 10
25.4336987267
 20
31.4500486648
 10
25.3856700323
 20
31.4966322901
  0
LWPOLYLINE
  5
2FF
100
AcDbEntity
  8
IMPORT_IGES
100
AcDbPolyline
 62
7
  6
CONTINUOUS
 90
37
 70
0
 10
28.5767294834
 20
36.4267245649
 10
28.5763322734
 20
36.4502664929
 10
28.5751875488
 20
36.4739631044
 10
28.5732953095
 20
36.4978143995
 10
28.5706518769
 20
36.5218205232
 10
28.5672609297
 20
36.5459813304
 10
28.563133504
 20
36.570296386
 10
28.5582730439
 20
36.5947697783
 10
28.5526761053
 20
36.6193974189
 10
28.5463433921
 20
36.6441666076
 10
28.5392748808
 20
36.6690847616
 10
28.5314705949
 20
36.6941444638
 10
28.5229313087
 20
36.7193107618
 10
28.5136587276
 20
36.7445819848
 10
28.5036511462
 20
36.7699598037
 10
28.4929042225
 20
36.7954142795
 10
28.4814307053
 20
36.8209271669
 10
28.469217846
 20
36.8465167111
 10
28.4562230565
 20
36.8722077092
 10
28.4424615891
 20
36.8979910103
 10
28.4279181916
 20
36.9238757652
 10
28.4125045198
 20
36.9499142236
 10
28.3962167748
 20
36.9761296293
 10
28.3790587554
 20
37.0024987386
 10
28.3609535145
 20
37.02900407
 10
28.3418968981
 20
37.0556606601
 10
28.3218930602
 20
37.0824534724
 10
28.3008775156
 20
37.1093199151
 10
28.2788458979
 20
37.1362712116
 10
28.2558025735
 20
37.1632961386
 10
28.2316961568
 20
37.1902984348
 10
28.2065284035
 20
37.2172823793
 10
28.1802975578
 20
37.2442436929
 10
28.1529469681
 20
37.2710732773
 10
28.1244577502
 20
37.2977347664
 10
28.0948487882
 20
37.3242645262
 10
28.0641200821
 20
37.3506625567
  0
LINE
  5
300
100
AcDbEntity
  8
IMPORT_IGES
100
AcDbLine
 62
250
  6
CONTINUOUS
 10
28.06419905
 20
37.3506601507
 11
28.1055405821
 21
33.0482937768
  0
LINE
  5
301
100
AcDbEntity
  8
IMPORT_IGES
100
AcDbLine
 62
7
  6
CONTINUOUS
 10
28.5766292391
 20
-50.41099241
 11
28.5766106932
 21
-50.3958747343
  0
LINE
  5
302
100
AcDbEntity
  8
IMPORT_IGES
100
AcDbLine
 62
7
  6
CONTINUOUS
 10
28.57672953
 20
-50.3732143857
 11
28.57672953
 21
36.4267245918
  0
LINE
  5
303
100
AcDbEntity
  8
IMPORT_IGES
100
AcDbLine
 62
7
  6
CONTINUOUS
 10
28.5766106932
 20
-50.3958747343
 11
28.57672953
 21
-50.3732143857
  0
LWPOLYLINE
  5
304
100
AcDbEntity
  8
IMPORT_IGES
100
AcDbPolyline
 62
7
  6
CONTINUOUS
 90
5
 70
0
 10
28.5763009051
 20
-50.4416268231
 10
28.5764385887
 20
-50.4339121665
 10
28.5765418514
 20
-50.4262332334
 10
28.5766106932
 20
-50.4185900235
 10
28.5766292391
 20
-50.41099241
  0
LWPOLYLINE
  5
305
100
AcDbEntity
  8
IMPORT_IGES
100
AcDbPolyline
 62
7
  6
CONTINUOUS
 90
18
 70
0
 10
25.8897237627
 20
-52.1050808471
 10
25.8858762205
 20
-52.2922672585
 10
25.874550161
 20
-52.473931565
 10
25.8557455841
 20
-52.6500737666
 10
25.8293904914
 20
-52.8210468022
 10
25.7955568815
 20
-52.9864977329
 10
25.7544607494
 20
-53.1453677424
 10
25.7060554546
 20
-53.2976145947
 10
25.6503876378
 20
-53.4432805259
 10
25.5878132163
 20
-53.5814334274
 10
25.5182878377
 20
-53.7120250622
 10
25.4418558545
 20
-53.8351036674
 10
25.3590062413
 20
-53.9498818459
 10
25.2696977927
 20
-54.0563062931
 10
25.1739717141
 20
-54.1544303137
 10
25.0724405966
 20
-54.2436264244
 10
24.9650671793
 20
-54.3238372851
 10
24.9152644605
 20
-54.3568114952
  0
LWPOLYLINE
  5
306
100
AcDbEntity
  8
IMPORT_IGES
100
AcDbPolyline
 62
7
  6
CONTINUOUS
 90
14
 70
0
 10
25.5361703709
 20
-52.3099564053
 10
25.5317739398
 20
-52.4967724915
 10
25.519755994
 20
-52.677855734
 10
25.5001165334
 20
-52.8532061327
 10
25.4726839273
 20
-53.0230954366
 10
25.4376298064
 20
-53.1872518969
 10
25.3954690632
 20
-53.344860267
 10
25.3462117109
 20
-53.4958821352
 10
25.2898477363
 20
-53.6403559133
 10
25.226861992
 20
-53.7775815903
 10
25.1572705653
 20
-53.9075601949
 10
25.0810573689
 20
-54.0302906985
 10
24.9986589942
 20
-54.1450700035
 10
24.910078609
 20
-54.2519199374
  0
LWPOLYLINE
  5
307
100
AcDbEntity
  8
IMPORT_IGES
100
AcDbPolyline
 62
7
  6
CONTINUOUS
 90
18
 70
0
 10
28.5763009051
 20
-50.441626823
 10
28.5708680141
 20
-50.6253001799
 10
28.5585324161
 20
-50.8036899812
 10
28.5393522928
 20
-50.9764318458
 10
28.5135427984
 20
-51.1430700532
 10
28.4810541137
 20
-51.3033767315
 10
28.4415619326
 20
-51.4573476389
 10
28.3951577224
 20
-51.60466932
 10
28.3419888744
 20
-51.7450580513
 10
28.2818102854
 20
-51.8785578562
 10
28.2146430847
 20
-52.0049707909
 10
28.1407499875
 20
-52.1239584402
 10
28.0602384858
 20
-52.2353472616
 10
27.9731689235
 20
-52.3389576661
 10
27.8798231215
 20
-52.4345024817
 10
27.7806340322
 20
-52.5216341647
 10
27.6757494929
 20
-52.6001654144
 10
27.6252956328
 20
-52.6335679753
  0
LINE
  5
308
100
AcDbEntity
  8
IMPORT_IGES
100
AcDbLine
 62
7
  6
CONTINUOUS
 10
13.4991040149
 20
-49.4715967943
 11
13.4747603277
 21
-49.5356949064
  0
LWPOLYLINE
  5
309
100
AcDbEntity
  8
IMPORT_IGES
100
AcDbPolyline
 62
7
  6
CONTINUOUS
 90
10
 70
0
 10
-8.645905653
 20
-37.6584209582
 10
-8.6567222125
 20
-37.6649377355
 10
-8.667384486
 20
-37.6718460803
 10
-8.6778924736
 20
-37.6791459928
 10
-8.6882445576
 20
-37.686839795
 10
-8.6984423555
 20
-37.6949251648
 10
-8.7084907207
 20
-37.7033951358
 10
-8.7183912707
 20
-37.7122473857
 10
-8.7281423879
 20
-37.7214842367
 10
-8.7377440723
 20
-37.7311056888
  0
LINE
  5
30A
100
AcDbEntity
  8
IMPORT_IGES
100
AcDbLine
 62
7
  6
CONTINUOUS
 10
-8.0667008709
 20
-37.3239953624
 11
-8.645905653
 21
-37.6584209582
  0
LINE
  5
30B
100
AcDbEntity
  8
IMPORT_IGES
100
AcDbLine
 62
7
  6
CONTINUOUS
 10
-8.6425635136
 20
-39.2871809144
 11
-7.8162843383
 21
-38.8100976867
  0
LWPOLYLINE
  5
30C
100
AcDbEntity
  8
IMPORT_IGES
100
AcDbPolyline
 62
7
  6
CONTINUOUS
 90
25
 70
0
 10
-9.0435363419
 20
-37.9616048223
 10
-9.0289453742
 20
-37.9534047968
 10
-9.0142236959
 20
-37.9448966212
 10
-8.9994111115
 20
-37.9360809871
 10
-8.9845371788
 20
-37.9269318192
 10
-8.9696497924
 20
-37.9174795576
 10
-8.9548155138
 20
-37.9078138511
 10
-8.9400658548
 20
-37.8979434514
 10
-8.9254411842
 20
-37.8878755804
 10
-8.9110192272
 20
-37.8777052405
 10
-8.8968340156
 20
-37.8674556456
 10
-8.8829118176
 20
-37.8571323887
 10
-8.8693141109
 20
-37.8468116129
 10
-8.856073603
 20
-37.8365257525
 10
-8.843201469
 20
-37.8262799465
 10
-8.8307218294
 20
-37.8161130972
 10
-8.8186569975
 20
-37.8060543659
 10
-8.8070132158
 20
-37.7961134174
 10
-8.7957876459
 20
-37.7862992055
 10
-8.7849800098
 20
-37.7766240666
 10
-8.7746089426
 20
-37.7671106707
 10
-8.7646965459
 20
-37.7577833282
 10
-8.7552507006
 20
-37.748662701
 10
-8.7462667915
 20
-37.7397643909
 10
-8.7377440252
 20
-37.7311056616
  0
LWPOLYLINE
  5
30D
100
AcDbEntity
  8
IMPORT_IGES
100
AcDbPolyline
 62
7
  6
CONTINUOUS
 90
13
 70
0
 10
13.4747603277
 20
-49.5356949064
 10
13.3161491829
 20
-49.8998003045
 10
13.1416573229
 20
-50.2512407476
 10
12.9521407204
 20
-50.5876908983
 10
12.7471295667
 20
-50.9095874898
 10
12.5262042046
 20
-51.2169614719
 10
12.2897186861
 20
-51.5087309254
 10
12.0383924473
 20
-51.7836878947
 10
11.7726023452
 20
-52.0412928875
 10
11.4923143291
 20
-52.2814583512
 10
11.1977819054
 20
-52.503826218
 10
10.8893702085
 20
-52.7080182127
 10
10.5476665774
 20
-52.9043016659
  0
LWPOLYLINE
  5
30E
100
AcDbEntity
  8
IMPORT_IGES
100
AcDbPolyline
 62
250
  6
CONTINUOUS
 90
25
 70
0
 10
18.9472212981
 20
29.2943975246
 10
19.1501659152
 20
29.2115109814
 10
19.3575947888
 20
29.1348547272
 10
19.5688885535
 20
29.0646764106
 10
19.7831022023
 20
29.0013023561
 10
19.9998685042
 20
28.9448491842
 10
20.2194433116
 20
28.8952570113
 10
20.4409902154
 20
28.8527093685
 10
20.6640239582
 20
28.8174261026
 10
20.8893569941
 20
28.7894689033
 10
21.1169984914
 20
28.7689981469
 10
21.3455485911
 20
28.7563032984
 10
21.5737037343
 20
28.7516452293
 10
21.8001175407
 20
28.7552494282
 10
22.0247700839
 20
28.7671014451
 10
22.2483156378
 20
28.7871128893
 10
22.4700932219
 20
28.8154517814
 10
22.689337556
 20
28.8521893186
 10
22.9064097696
 20
28.8972077794
 10
23.120688652
 20
28.9506855059
 10
23.3312656909
 20
29.0126675774
 10
23.5379309212
 20
29.0829148794
 10
23.7400716535
 20
29.1614071577
 10
23.9367678626
 20
29.2482871278
 10
24.127327627
 20
29.3435546187
  0
LWPOLYLINE
  5
30F
100
AcDbEntity
  8
IMPORT_IGES
100
AcDbPolyline
 62
250
  6
CONTINUOUS
 90
19
 70
0
 10
-4.0279608075
 20
40.9014487873
 10
-2.920673627
 20
40.2664783031
 10
-1.7903553
 20
39.6278636532
 10
-0.6376960658
 20
38.9860112603
 10
0.5367986053
 20
38.341085286
 10
1.732254218
 20
37.6937543685
 10
2.9473831206
 20
37.0451681404
 10
4.1804358297
 20
36.3962099445
 10
5.4315758295
 20
35.7467257416
 10
6.7024457674
 20
35.0963299447
 10
7.9933243449
 20
34.4448121346
 10
9.3026777925
 20
33.7932321251
 10
10.6295076337
 20
33.1431258431
 10
11.9720141685
 20
32.4952702159
 10
13.3306006982
 20
31.8495613814
 10
14.7076449074
 20
31.2062349094
 10
16.1036279289
 20
30.5656629866
 10
17.517007815
 20
29.9282660669
 10
18.9472188895
 20
29.2943955363
  0
LWPOLYLINE
  5
310
100
AcDbEntity
  8
IMPORT_IGES
100
AcDbPolyline
 62
250
  6
CONTINUOUS
 90
19
 70
0
 10
-3.4188111018
 20
41.770093629
 10
-4.4904158885
 20
42.3934384366
 10
-5.5392813496
 20
43.0126207104
 10
-6.5652333837
 20
43.6275468673
 10
-7.5687377378
 20
44.2385071842
 10
-8.54897961
 20
44.8450051619
 10
-9.5038694828
 20
45.4458805628
 10
-10.4325889991
 20
46.0405994798
 10
-11.3356286966
 20
46.6297815178
 10
-12.2128705651
 20
47.2140798773
 10
-13.0650006897
 20
47.7939000496
 10
-13.8910116437
 20
48.3688093271
 10
-14.6882616461
 20
48.9382930427
 10
-15.45587599
 20
49.5020579814
 10
-16.194462997
 20
50.0606871101
 10
-16.9036243351
 20
50.6150699245
 10
-17.5831424153
 20
51.1655579858
 10
-18.2329827326
 20
51.7120001246
 10
-18.8530245293
 20
52.254503258
  0
LWPOLYLINE
  5
311
100
AcDbEntity
  8
IMPORT_IGES
100
AcDbPolyline
 62
250
  6
CONTINUOUS
 90
4
 70
0
 10
19.3741281478
 20
30.1826244011
 10
17.9474016929
 20
30.8219096929
 10
16.5391499209
 20
31.4637927352
 10
15.1494935002
 20
32.1080268595
  0
LINE
  5
312
100
AcDbEntity
  8
IMPORT_IGES
100
AcDbLine
 62
250
  6
CONTINUOUS
 10
15.1494935002
 20
32.1080268595
 11
13.7790425776
 21
32.7543899728
  0
LWPOLYLINE
  5
313
100
AcDbEntity
  8
IMPORT_IGES
100
AcDbPolyline
 62
250
  6
CONTINUOUS
 90
15
 70
0
 10
13.7790425776
 20
32.7543899728
 10
12.4274389468
 20
33.4026120377
 10
11.0933536967
 20
34.0523425504
 10
9.7758568053
 20
34.7038863881
 10
8.4761445542
 20
35.3563405769
 10
7.1960963944
 20
36.0076108583
 10
5.9368384689
 20
36.6568976858
 10
4.6975658969
 20
37.3046559769
 10
3.4772780911
 20
37.9507435092
 10
2.2750131016
 20
38.5953788255
 10
1.0920606619
 20
39.2378782386
 10
-0.0691941214
 20
39.8768198863
 10
-1.2078379124
 20
40.5117026609
 10
-2.3244349738
 20
41.1428299001
 10
-3.4188111787
 20
41.7700936734
  0
LINE
  5
314
100
AcDbEntity
  8
IMPORT_IGES
100
AcDbLine
 62
250
  6
CONTINUOUS
 10
11.2268646127
 20
-43.6252757233
 11
10.9875407287
 21
-43.8051803417
  0
LWPOLYLINE
  5
315
100
AcDbEntity
  8
IMPORT_IGES
100
AcDbPolyline
 62
7
  6
CONTINUOUS
 90
16
 70
0
 10
4.2419023002
 20
46.8118343097
 10
2.8354806234
 20
47.6064516032
 10
1.430593464
 20
48.3694347042
 10
0.0272408221
 20
49.1007836128
 10
-1.3751236703
 20
49.8010905692
 10
-2.7759536452
 20
50.4697633332
 10
-4.1736099987
 20
51.1050251832
 10
-5.5680889244
 20
51.7065054066
 10
-6.9593942287
 20
52.2745747161
 10
-8.3458982271
 20
52.8085685288
 10
-9.7275130552
 20
53.3080818112
 10
-11.1043265774
 20
53.7735195969
 10
-12.4749747016
 20
54.2054324038
 10
-13.8390027304
 20
54.6040037376
 10
-15.1968653612
 20
54.9690500926
 10
-16.548562594
 20
55.3005714687
  0
LWPOLYLINE
  5
316
100
AcDbEntity
  8
IMPORT_IGES
100
AcDbPolyline
 62
7
  6
CONTINUOUS
 90
11
 70
0
 10
18.211317365
 20
37.1765501642
 10
16.8297028275
 20
38.2724920043
 10
15.4431988292
 20
39.3395982549
 10
14.0518935249
 20
40.3781734365
 10
12.6574145992
 20
41.3870025227
 10
11.2597582457
 20
42.3657191961
 10
9.8589282707
 20
43.3146897742
 10
8.4565637784
 20
44.233798182
 10
7.0532111365
 20
45.1230057281
 10
5.6483239771
 20
45.982351104
 10
4.2419023002
 20
46.8118343097
  0
LWPOLYLINE
  5
317
100
AcDbEntity
  8
IMPORT_IGES
100
AcDbPolyline
 62
7
  6
CONTINUOUS
 90
17
 70
0
 10
22.6766277081
 20
33.9312648278
 10
21.3126842997
 20
35.1081045102
 10
19.9419521803
 20
36.258374595
 10
18.5649385634
 20
37.3816602888
 10
17.1831650899
 20
38.4767172118
 10
15.7965967506
 20
39.5435353584
 10
14.4052685547
 20
40.5821247342
 10
13.0108071714
 20
41.5912709758
 10
11.6132383314
 20
42.5709186863
 10
10.2125363041
 20
43.5211232626
 10
8.8102505665
 20
44.440836533
 10
7.4063698208
 20
45.3300315852
 10
6.0009053649
 20
46.1887353314
 10
4.5954405701
 20
47.0159803368
 10
3.1899745335
 20
47.8117315691
 10
1.7845081579
 20
48.5760240605
 10
0.3806275233
 20
49.307995473
  0
LWPOLYLINE
  5
318
100
AcDbEntity
  8
IMPORT_IGES
100
AcDbPolyline
 62
7
  6
CONTINUOUS
 90
6
 70
0
 10
25.0323750418
 20
31.2922894006
 10
23.6806743213
 20
32.5216627029
 10
22.3228090747
 20
33.7246335245
 10
20.958779302
 20
34.9012018654
 10
19.5881305966
 20
36.0520772551
 10
18.211317365
 20
37.1765501642
  0
LWPOLYLINE
  5
319
100
AcDbEntity
  8
IMPORT_IGES
100
AcDbPolyline
 62
7
  6
CONTINUOUS
 90
3
 70
0
 10
25.3856700323
 20
31.4966322901
 10
24.0342896189
 20
32.7274407544
 10
22.6766277081
 20
33.9312648278
  0
LWPOLYLINE
  5
31A
100
AcDbEntity
  8
IMPORT_IGES
100
AcDbPolyline
 62
7
  6
CONTINUOUS
 90
19
 70
0
 10
25.0323750418
 20
31.2922894006
 10
25.0803178192
 20
31.2457766498
 10
25.1265356131
 20
31.1966665317
 10
25.1710284236
 20
31.1449590463
 10
25.2140004125
 20
31.0903711772
 10
25.2552474179
 20
31.0331859408
 10
25.2941569542
 20
30.9742523868
 10
25.3306946749
 20
30.9135441263
 10
25.3648949264
 20
30.8510875483
 10
25.3962482621
 20
30.7878108689
 10
25.4247132038
 20
30.7237028494
 10
25.4503312297
 20
30.6587747286
 10
25.4727173273
 20
30.5939884391
 10
25.4918254933
 20
30.5293461011
 10
25.507701731
 20
30.4648455943
 10
25.5200990378
 20
30.4014424904
 10
25.5289350797
 20
30.3394553132
 10
25.5342921907
 20
30.2785655388
 10
25.5361703709
 20
30.2187731672
  0
LWPOLYLINE
  5
31B
100
AcDbEntity
  8
IMPORT_IGES
100
AcDbPolyline
 62
7
  6
CONTINUOUS
 90
14
 70
0
 10
12.3011596499
 20
-52.7353022037
 10
12.1354613543
 20
-52.890930642
 10
11.9294435354
 20
-53.054454386
 10
11.7096139107
 20
-53.1986940994
 10
11.4758698662
 20
-53.3235616863
 10
11.2279361793
 20
-53.4295016794
 10
10.9663570407
 20
-53.5165174443
 10
10.6913316001
 20
-53.5847963827
 10
10.402295797
 20
-53.6345097128
 10
10.0986467969
 20
-53.665642331
 10
9.7794862113
 20
-53.6783744416
 10
9.4453992159
 20
-53.672842846
 10
9.0979947502
 20
-53.6489849981
 10
9.0403534667
 20
-53.6422362247
  0
LINE
  5
31C
100
AcDbEntity
  8
IMPORT_IGES
100
AcDbLine
 62
7
  6
CONTINUOUS
 10
12.4269662761
 20
45.3942864069
 11
17.8890631771
 21
44.9527770606
  0
LWPOLYLINE
  5
31D
100
AcDbEntity
  8
IMPORT_IGES
100
AcDbPolyline
 62
7
  6
CONTINUOUS
 90
13
 70
0
 10
0.3806275233
 20
49.307995473
 10
-1.021653917
 20
50.0076047952
 10
-2.4223496163
 20
50.6748930386
 10
-3.8199138551
 20
51.3091208998
 10
-5.2143741635
 20
51.9102635868
 10
-6.6057030115
 20
52.4783458916
 10
-7.9922720887
 20
53.0127028866
 10
-9.3740466161
 20
53.5132845705
 10
-10.7510613728
 20
53.9801409446
 10
-12.1217923861
 20
54.4127570863
 10
-13.485731665
 20
54.8109613545
 10
-14.8433872005
 20
55.1749253902
 10
-16.1947589927
 20
55.5046491934
  0
LWPOLYLINE
  5
31E
100
AcDbEntity
  8
IMPORT_IGES
100
AcDbPolyline
 62
7
  6
CONTINUOUS
 90
10
 70
0
 10
2.3333961973
 20
51.2222226008
 10
2.893248517
 20
50.941603272
 10
3.4534143581
 20
50.655799304
 10
4.0138601346
 20
50.3648267457
 10
4.5745657604
 20
50.0686960548
 10
5.1354840713
 20
49.7674295961
 10
5.6965407971
 20
49.4610627602
 10
6.2576886977
 20
49.1496201012
 10
6.8189075947
 20
48.8331142165
 10
7.3801637733
 20
48.5115640277
  0
LWPOLYLINE
  5
31F
100
AcDbEntity
  8
IMPORT_IGES
100
AcDbPolyline
 62
7
  6
CONTINUOUS
 90
10
 70
0
 10
7.3801637733
 20
48.5115640277
 10
7.94144925
 20
48.1849737151
 10
8.5026666478
 20
47.8533996526
 10
9.0637822606
 20
47.5168626727
 10
9.6247433458
 20
47.1753955222
 10
10.1855352948
 20
46.8290083277
 10
10.7461815832
 20
46.4776869241
 10
11.3066675525
 20
46.1214396897
 10
11.8669404636
 20
45.7602992148
 10
12.426966631
 20
45.3942865985
  0
LWPOLYLINE
  5
320
100
AcDbEntity
  8
IMPORT_IGES
100
AcDbPolyline
 62
7
  6
CONTINUOUS
 90
12
 70
0
 10
12.426966631
 20
45.3942865985
 10
13.7501299757
 20
44.5095054317
 10
15.071145418
 20
43.5979784369
 10
16.3895691665
 20
42.6600121009
 10
17.7048657127
 20
41.6959890468
 10
19.0166862743
 20
40.706169714
 10
20.3248663704
 20
39.6906744305
 10
21.6290875053
 20
38.6497304758
 10
22.9287838109
 20
37.5837661369
 10
24.2234199204
 20
36.4932059635
 10
25.5125265087
 20
35.3784349483
 10
26.7956992121
 20
34.239792371
  0
LWPOLYLINE
  5
321
100
AcDbEntity
  8
IMPORT_IGES
100
AcDbPolyline
 62
7
  6
CONTINUOUS
 90
10
 70
0
 10
28.0641200821
 20
37.3506625567
 10
26.9454661694
 20
38.2745273968
 10
25.8236027126
 20
39.1787696313
 10
24.6985297116
 20
40.0633892601
 10
23.5699370962
 20
40.9286179593
 10
22.4381349366
 20
41.7742240528
 10
21.3040534438
 20
42.5995125125
 10
20.1680026881
 20
43.4042516624
 10
19.0296725992
 20
44.1886731784
 10
17.8890631771
 20
44.9527770606
  0
LINE
  5
322
100
AcDbEntity
  8
IMPORT_IGES
100
AcDbLine
 62
7
  6
CONTINUOUS
 10
28.0979996023
 20
33.0547924617
 11
28.1055402648
 21
33.0482931342
  0
LINE
  5
323
100
AcDbEntity
  8
IMPORT_IGES
100
AcDbLine
 62
7
  6
CONTINUOUS
 10
28.0905663613
 20
33.0613055642
 11
28.0979996023
 21
33.0547924617
  0
LINE
  5
324
100
AcDbEntity
  8
IMPORT_IGES
100
AcDbLine
 62
7
  6
CONTINUOUS
 10
28.0832423215
 20
33.0678306583
 11
28.0905663613
 21
33.0613055642
  0
LWPOLYLINE
  5
325
100
AcDbEntity
  8
IMPORT_IGES
100
AcDbPolyline
 62
7
  6
CONTINUOUS
 90
3
 70
0
 10
26.7956992121
 20
34.239792371
 10
28.0760324078
 20
33.0743632484
 10
28.0832423215
 20
33.0678306583
  0
LWPOLYLINE
  5
326
100
AcDbEntity
  8
IMPORT_IGES
100
AcDbPolyline
 62
7
  6
CONTINUOUS
 90
10
 70
0
 10
19.1348015591
 20
-55.5138518078
 10
19.0840700797
 20
-55.5750919595
 10
19.0317035977
 20
-55.6366043253
 10
18.9776998797
 20
-55.6983919392
 10
18.9220848359
 20
-55.7604740407
 10
18.8648280964
 20
-55.8228374445
 10
18.805842946
 20
-55.8854366489
 10
18.7450989262
 20
-55.9482586175
 10
18.6826219007
 20
-56.0113226714
 10
18.6184095855
 20
-56.0746319347
  0
LWPOLYLINE
  5
327
100
AcDbEntity
  8
IMPORT_IGES
100
AcDbPolyline
 62
7
  6
CONTINUOUS
 90
9
 70
0
 10
12.7984261918
 20
-52.0762324071
 10
12.7930114286
 20
-52.0798378244
 10
12.5335971991
 20
-52.2249272338
 10
12.2587462679
 20
-52.3528008191
 10
11.9695666064
 20
-52.4631264848
 10
11.6661520185
 20
-52.555905996
 10
11.3484087003
 20
-52.6311375875
 10
11.0171632108
 20
-52.6884838682
 10
10.9460341941
 20
-52.696619046
  0
LWPOLYLINE
  5
328
100
AcDbEntity
  8
IMPORT_IGES
100
AcDbPolyline
 62
7
  6
CONTINUOUS
 90
7
 70
0
 10
4.3970725713
 20
52.3347073729
 10
3.4404965824
 20
52.7432223719
 10
2.3086945242
 20
53.2045930138
 10
1.180101706
 20
53.6426348354
 10
0.0550280969
 20
54.0572214802
 10
-1.0668362721
 20
54.4484793048
 10
-2.1854914011
 20
54.8164083091
  0
LINE
  5
329
100
AcDbEntity
  8
IMPORT_IGES
100
AcDbLine
 62
7
  6
CONTINUOUS
 10
24.910078609
 20
-54.2519199374
 11
24.8153130454
 21
-54.3508186727
  0
LINE
  5
32A
100
AcDbEntity
  8
IMPORT_IGES
100
AcDbLine
 62
7
  6
CONTINUOUS
 10
10.504124776
 20
-52.9272483035
 11
12.4930222587
 21
-51.8892574146
  0
LWPOLYLINE
  5
32B
100
AcDbEntity
  8
IMPORT_IGES
100
AcDbPolyline
 62
250
  6
CONTINUOUS
 90
9
 70
0
 10
-13.342308515
 20
56.9797623197
 10
-12.0795620574
 20
56.7554330943
 10
-10.8225332903
 20
56.527021145
 10
-9.5712495163
 20
56.294558631
 10
-8.3257494406
 20
56.0580834773
 10
-7.0860484785
 20
55.8176238408
 10
-5.8521389712
 20
55.5731955219
 10
-4.6240363427
 20
55.3248238923
 10
-3.4017788714
 20
55.0725464689
  0
LWPOLYLINE
  5
32C
100
AcDbEntity
  8
IMPORT_IGES
100
AcDbPolyline
 62
7
  6
CONTINUOUS
 90
8
 70
0
 10
-16.1947589927
 20
55.5046491934
 10
-16.2427890421
 20
55.5135286567
 10
-16.28908083
 20
55.5178140473
 10
-16.3336343563
 20
55.5175053649
 10
-16.3766521532
 20
55.5125520297
 10
-16.4179316885
 20
55.5030046216
 10
-16.4568653658
 20
55.4890148808
 10
-16.4765168624
 20
55.4797777794
  0
LWPOLYLINE
  5
32D
100
AcDbEntity
  8
IMPORT_IGES
100
AcDbPolyline
 62
7
  6
CONTINUOUS
 90
10
 70
0
 10
-2.262926321
 20
54.837076695
 10
-3.3913779661
 20
55.0741746214
 10
-4.6616675663
 20
55.3358735846
 10
-5.9373803721
 20
55.5932011172
 10
-7.2184159403
 20
55.846122461
 10
-8.5047472447
 20
56.0946174198
 10
-9.7964218316
 20
56.3386790259
 10
-11.0934135024
 20
56.5782849021
 10
-12.3956211233
 20
56.8133986216
 10
-13.3749827823
 20
56.9866492943
  0
LINE
  5
32E
100
AcDbEntity
  8
IMPORT_IGES
100
AcDbLine
 62
250
  6
CONTINUOUS
 10
-3.4017788714
 20
55.0725464689
 11
-2.185393153
 21
54.8163955723
  0
LINE
  5
32F
100
AcDbEntity
  8
IMPORT_IGES
100
AcDbLine
 62
7
  6
CONTINUOUS
 10
-13.3748528298
 20
56.9867106131
 11
-13.3423084266
 21
56.9797613866
  0
LWPOLYLINE
  5
330
100
AcDbEntity
  8
IMPORT_IGES
100
AcDbPolyline
 62
7
  6
CONTINUOUS
 90
4
 70
0
 10
-2.2629176162
 20
54.8370396455
 10
-2.2459123298
 20
54.8331763114
 10
-2.2162630522
 20
54.8255066215
 10
-2.1854914011
 20
54.8164083091
  0
LINE
  5
331
100
AcDbEntity
  8
IMPORT_IGES
100
AcDbLine
 62
7
  6
CONTINUOUS
 10
-13.3121019942
 20
56.9725658964
 11
-13.3293153848
 21
56.9766260922
  0
LINE
  5
332
100
AcDbEntity
  8
IMPORT_IGES
100
AcDbLine
 62
7
  6
CONTINUOUS
 10
-13.3293153848
 20
56.9766260922
 11
-13.3423084266
 21
56.9797613866
  0
LWPOLYLINE
  5
333
100
AcDbEntity
  8
IMPORT_IGES
100
AcDbPolyline
 62
7
  6
CONTINUOUS
 90
13
 70
0
 10
-13.312106994
 20
56.9726049295
 10
-12.0360366124
 20
56.6605113086
 10
-10.7536900449
 20
56.3176251423
 10
-9.4655021849
 20
55.9440799992
 10
-8.1721006704
 20
55.5400814814
 10
-6.8737335837
 20
55.1057305708
 10
-5.5702619191
 20
54.6409787641
 10
-4.2618876694
 20
54.1458694962
 10
-2.949278558
 20
53.620626945
 10
-1.6329916824
 20
53.065457012
 10
-0.3135079071
 20
52.4805506283
 10
1.0087693895
 20
51.8660747475
 10
2.3333961973
 20
51.2222226008
  0
LWPOLYLINE
  5
334
100
AcDbEntity
  8
IMPORT_IGES
100
AcDbPolyline
 62
7
  6
CONTINUOUS
 90
10
 70
0
 10
7.9895682405
 20
54.2713771318
 10
9.0887450369
 20
53.7140872086
 10
10.1883063963
 20
53.1372350385
 10
11.2882523189
 20
52.5408206214
 10
12.3888398602
 20
51.924695591
 10
13.4898119646
 20
51.2890083136
 10
14.5903974651
 20
50.6342038884
 10
15.6903393063
 20
49.9604306818
 10
16.7898945436
 20
49.2675403274
 10
17.8890631771
 20
48.5555328252
  0
LWPOLYLINE
  5
335
100
AcDbEntity
  8
IMPORT_IGES
100
AcDbPolyline
 62
7
  6
CONTINUOUS
 90
5
 70
0
 10
24.8153130454
 20
-54.3508186727
 10
24.7147893906
 20
-54.4409976298
 10
24.6084816837
 20
-54.5224762844
 10
24.4964158856
 20
-54.5952351606
 10
24.430619358
 20
-54.6322424208
  0
LINE
  5
336
100
AcDbEntity
  8
IMPORT_IGES
100
AcDbLine
 62
250
  6
CONTINUOUS
 10
20.9801058735
 20
-56.4734123804
 11
21.014414981
 21
-56.4493542465
  0
LINE
  5
337
100
AcDbEntity
  8
IMPORT_IGES
100
AcDbLine
 62
7
  6
CONTINUOUS
 10
27.6260575445
 20
-52.633083494
 11
24.9152742306
 21
-54.3568052826
  0
LINE
  5
338
100
AcDbEntity
  8
IMPORT_IGES
100
AcDbLine
 62
250
  6
CONTINUOUS
 10
28.5763009051
 20
-50.4416268231
 11
25.8897237615
 21
-52.1050808465
  0
LWPOLYLINE
  5
339
100
AcDbEntity
  8
IMPORT_IGES
100
AcDbPolyline
 62
250
  6
CONTINUOUS
 90
35
 70
0
 10
21.014414981
 20
-56.4493542465
 10
21.0710646725
 20
-56.4147342581
 10
21.126516634
 20
-56.3776596292
 10
21.1807441798
 20
-56.3381437033
 10
21.2335741254
 20
-56.2963198377
 10
21.2849404439
 20
-56.2522645536
 10
21.3348725963
 20
-56.2059756041
 10
21.3833518502
 20
-56.1574871235
 10
21.4303572203
 20
-56.1068355064
 10
21.4758707617
 20
-56.0540539714
 10
21.5198777871
 20
-55.9991710039
 10
21.5623579463
 20
-55.9422211025
 10
21.603291756
 20
-55.8832376392
 10
21.6426647101
 20
-55.8222458125
 10
21.6804562521
 20
-55.7592786451
 10
21.7166458254
 20
-55.6943691593
 10
21.7512175964
 20
-55.6275408952
 10
21.7841506296
 20
-55.5588254101
 10
21.8154233088
 20
-55.4882556216
 10
21.8450175215
 20
-55.4158557371
 10
21.8729122471
 20
-55.3416551333
 10
21.8990846209
 20
-55.265687857
 10
21.9235130802
 20
-55.1879845063
 10
21.9461955123
 20
-55.1085033959
 10
21.9670865841
 20
-55.0273468953
 10
21.9861145642
 20
-54.9447750841
 10
22.0032734462
 20
-54.8608271359
 10
22.0185550502
 20
-54.7755529487
 10
22.0319158965
 20
-54.6892547345
 10
22.0433572382
 20
-54.6020637329
 10
22.0529019597
 20
-54.5139621044
 10
22.0605584111
 20
-54.4250418493
 10
22.0663399578
 20
-54.3353701069
 10
22.070262364
 20
-54.2449872289
 10
22.0723406395
 20
-54.1539449432
  0
LWPOLYLINE
  5
33A
100
AcDbEntity
  8
IMPORT_IGES
100
AcDbPolyline
 62
7
  6
CONTINUOUS
 90
4
 70
0
 10
24.9152644605
 20
-54.3568114952
 10
24.851888723
 20
-54.395120236
 10
24.733629602
 20
-54.4570198141
 10
24.6443123182
 20
-54.4950141937
  0
LWPOLYLINE
  5
33B
100
AcDbEntity
  8
IMPORT_IGES
100
AcDbPolyline
 62
7
  6
CONTINUOUS
 90
23
 70
0
 10
20.3349602609
 20
-56.8135340745
 10
20.3461444952
 20
-56.8074746014
 10
20.3868107361
 20
-56.7808246259
 10
20.419745929
 20
-56.7506850146
 10
20.4445271222
 20
-56.7171594432
 10
20.4610300579
 20
-56.6812914701
 10
20.4693044912
 20
-56.6448458763
 10
20.4698388574
 20
-56.607535114
 10
20.4630174689
 20
-56.5671309944
 10
20.4484954603
 20
-56.5224333674
 10
20.425573963
 20
-56.4742214454
 10
20.3934509432
 20
-56.4225445212
 10
20.3505377258
 20
-56.3666497474
 10
20.2972920605
 20
-56.3070422081
 10
20.2367858625
 20
-56.2462815831
 10
20.1719416785
 20
-56.1872233395
 10
20.1009657376
 20
-56.1283078567
 10
20.019732483
 20
-56.0654062978
 10
19.9264561338
 20
-55.9969600133
 10
19.8215991879
 20
-55.9242413166
 10
19.7033107876
 20
-55.846754809
 10
19.5704534551
 20
-55.764299689
 10
19.4227955559
 20
-55.6770585309
  0
LINE
  5
33C
100
AcDbEntity
  8
IMPORT_IGES
100
AcDbLine
 62
7
  6
CONTINUOUS
 10
20.9782734124
 20
-56.469970062
 11
24.4305884129
 21
-54.6321873604
  0
LWPOLYLINE
  5
33D
100
AcDbEntity
  8
IMPORT_IGES
100
AcDbPolyline
 62
250
  6
CONTINUOUS
 90
6
 70
0
 10
25.5361703713
 20
-52.3099564051
 10
21.774510426
 20
-54.3124535586
 10
21.4728673144
 20
-54.4711661233
 10
21.1674651913
 20
-54.6300519922
 10
20.8583408424
 20
-54.7890898524
 10
20.5455672503
 20
-54.9482409766
  0
LINE
  5
33E
100
AcDbEntity
  8
IMPORT_IGES
100
AcDbLine
 62
250
  6
CONTINUOUS
 10
20.9616492541
 20
-56.483086279
 11
20.9801058735
 21
-56.4734123804
  0
LWPOLYLINE
  5
33F
100
AcDbEntity
  8
IMPORT_IGES
100
AcDbPolyline
 62
7
  6
CONTINUOUS
 90
3
 70
0
 10
20.3350210135
 20
-56.8135023502
 10
20.4824017692
 20
-56.7363761875
 10
20.9801058735
 20
-56.4734123804
  0
LINE
  5
340
100
AcDbEntity
  8
IMPORT_IGES
100
AcDbLine
 62
7
  6
CONTINUOUS
 10
24.430619358
 20
-54.6322424208
 11
24.3845486778
 21
-54.6556744531
  0
LINE
  5
341
100
AcDbEntity
  8
IMPORT_IGES
100
AcDbLine
 62
250
  6
CONTINUOUS
 10
20.5455672503
 20
-54.9482409766
 11
19.9094832679
 21
-55.2666830069
  0
LINE
  5
342
100
AcDbEntity
  8
IMPORT_IGES
100
AcDbLine
 62
250
  6
CONTINUOUS
 10
19.9094832679
 20
-55.2666830069
 11
19.2597396853
 21
-55.5851339794
  0
ARC
  5
343
100
AcDbEntity
  8
IMPORT_IGES
100
AcDbCircle
 62
7
  6
CONTINUOUS
 10
-1.4387263472
 20
-30.379389843
 40
25.5155887247
100
AcDbArc
 50
182.1858847398
 51
298.0190346309
  0
ENDSEC
  0
SECTION
  2
OBJECTS
  0
DICTIONARY
  5
C
100
AcDbDictionary
280
0
281
1
  3
ACAD_GROUP
350
D
  3
ACAD_MLINESTYLE
350
17
  3
ACAD_LAYOUT
350
1A
  3
ACAD_PLOTSETTINGS
350
19
  3
ACAD_PLOTSTYLENAME
350
E
  0
DICTIONARY
  5
D
102
{ACAD_REACTORS
330
C
102
}
100
AcDbDictionary
280
0
281
1
  0
ACDBDICTIONARYWDFLT
  5
E
102
{ACAD_REACTORS
330
C
102
}
100
AcDbDictionary
281
1
  3
Normal
350
F
100
AcDbDictionaryWithDefault
340
F
  0
DICTIONARY
  5
17
102
{ACAD_REACTORS
330
C
102
}
100
AcDbDictionary
280
0
281
1
  3
Standard
350
18
  0
DICTIONARY
  5
19
102
{ACAD_REACTORS
330
C
102
}
100
AcDbDictionary
281
1
  0
DICTIONARY
  5
1A
102
{ACAD_REACTORS
330
C
102
}
100
AcDbDictionary
281
1
  3
Model
350
344
  3
Layout1
350
345
  0
ACDBPLACEHOLDER
  5
F
102
{ACAD_REACTORS
330
E
102
}
  0
MLINESTYLE
  5
18
102
{ACAD_REACTORS
330
17
102
}
100
AcDbMlineStyle
  2
STANDARD
 70
0
  3

 62
256
 51
90.0
 52
90.0
 71
2
 49
0.5
 62
256
  6
BYLAYER
 49
-0.5
 62
256
  6
BYLAYER
  0
LAYOUT
  5
344
102
{ACAD_REACTORS
330
1A
102
}
100
AcDbPlotSettings
  1

  2
none_device
  4
ISO_A4_(297.00_x_210.00_MM)
  6

 40
0.0
 41
0.0
 42
0.0
 43
0.0
 44
297.0
 45
210.0
 46
0.0
 47
0.0
 48
0.0
 49
0.0
140
0.0
141
0.0
142
1.0
143
1.0
 70
1024
 72
1
 73
0
 74
0
  7

 75
0
147
1.0
148
0.0
149
0.0
100
AcDbLayout
  1
Model
 70
0
 71
0
 10
0.0
 20
0.0
 11
297.0
 21
210.0
 12
0.0
 22
0.0
 32
0.0
 14
0.0
 24
0.0
 34
0.0
 15
0.0
 25
0.0
 35
0.0
146
0.0
 13
0.0
 23
0.0
 33
0.0
 16
1.0
 26
0.0
 36
0.0
 17
0.0
 27
1.0
 37
0.0
 76
0
330
251
345
0
346
0
  0
LAYOUT
  5
345
102
{ACAD_REACTORS
330
1A
102
}
100
AcDbPlotSettings
  1

  2
none_device
  4
ISO_A4_(297.00_x_210.00_MM)
  6

 40
0.0
 41
0.0
 42
0.0
 43
0.0
 44
297.0
 45
210.0
 46
0.0
 47
0.0
 48
0.0
 49
0.0
140
0.0
141
0.0
142
1.0
143
1.0
 70
0
 72
1
 73
0
 74
0
  7

 75
0
147
1.0
148
0.0
149
0.0
100
AcDbLayout
  1
Layout1
 70
0
 71
1
 10
0.0
 20
0.0
 11
297.0
 21
210.0
 12
0.0
 22
0.0
 32
0.0
 14
0.0
 24
0.0
 34
0.0
 15
0.0
 25
0.0
 35
0.0
146
0.0
 13
0.0
 23
0.0
 33
0.0
 16
1.0
 26
0.0
 36
0.0
 17
0.0
 27
1.0
 37
0.0
 76
0
330
252
345
0
346
0
  0
ENDSEC
  0
EOF
