  0
SECTION
  2
HEADER
  9
$ACADVER
  1
AC1024
  9
$DWGCODEPAGE
  3
ANSI_1252
  9
$EXTMAX
 10
297.0
 20
210.0
 30
0.0
  9
$EXTMIN
 10
0.0
 20
0.0
 30
0.0
  9
$LIMMIN
 10
0.0
 20
0.0
  9
$LIMMAX
 10
297.0
 20
210.0
  9
$VIEWCTR
 10
148.5
 20
105.0
  9
$VIEWSIZE
 40
210.0
  9
$CLAYER
  8
0
  9
$LTSCALE
 40
16.335
  9
$CELTYPE
  6
BYLAYER
  9
$DIMSCALE
 40
1.0
  9
$DIMASZ
 40
3.0
  9
$DIMEXO
 40
0.5
  9
$DIMDLI
 40
11.286
  9
$DIMEXE
 40
1.5
  9
$DIMCEN
 40
2.673
  9
$DIMLFAC
 40
1.0
  9
$DIMBLK
  1
_FILLED
  9
$DIMALT
 70
0
  9
$DIMALTF
 40
0.0393700787
  9
$DIMTXT
 40
3.0
  9
$DIMTOL
 70
1
  9
$DIMLIM
 70
0
  9
$DIMTFAC
 40
1.0
  9
$DIMTP
 40
0.01
  9
$DIMTM
 40
0.01
  9
$DIMGAP
 40
0.625
  9
$DIMDSEP
 70
44
  9
$AUNITS
 70
0
  9
$PDMODE
 70
3
  9
$PDSIZE
 40
3.0
  9
$HANDSEED
  5
376
  9
$TILEMODE
 70
1
  9
$MEASUREMENT
 70
1
  9
$INSUNITS
 70
4
  0
ENDSEC
  0
SECTION
  2
CLASSES
  0
CLASS
  1
ACDBDICTIONARYWDFLT
  2
AcDbDictionaryWithDefault
  3
AutoCAD 2000
 90
0
 91
1
280
0
281
0
  0
CLASS
  1
ACDBPLACEHOLDER
  2
AcDbPlaceHolder
  3
AutoCAD 2000
 90
0
 91
1
280
0
281
0
  0
CLASS
  1
LAYOUT
  2
AcDbLayout
  3
AutoCAD 2000
 90
0
 91
0
280
0
281
0
  0
ENDSEC
  0
SECTION
  2
TABLES
  0
TABLE
  2
VPORT
  5
8
100
AcDbSymbolTable
 70
2
  0
VPORT
  5
1F4
100
AcDbSymbolTableRecord
100
AcDbViewportTableRecord
  2
*ACTIVE
 70
0
 10
0.0
 20
0.0
 11
1.0
 21
1.0
 12
148.5
 22
105.0
 13
0.0
 23
0.0
 14
1.0
 24
1.0
 15
0.0
 25
0.0
 16
0.0
 26
0.0
 36
1.0
 17
0.0
 27
0.0
 37
0.0
 40
210.0
 41
1.4142857143
 42
50.0
 43
0.0
 44
0.0
 50
0.0
 51
0.0
 71
0
 72
100
 73
1
 74
1
 75
0
 76
0
 77
0
 78
0
  0
ENDTAB
  0
TABLE
  2
LTYPE
  5
5
100
AcDbSymbolTable
 70
6
  0
LTYPE
  5
14
100
AcDbSymbolTableRecord
100
AcDbLinetypeTableRecord
  2
BYBLOCK
 70
0
  3

 72
65
 73
0
 40
0.0
  0
LTYPE
  5
15
100
AcDbSymbolTableRecord
100
AcDbLinetypeTableRecord
  2
BYLAYER
 70
0
  3

 72
65
 73
0
 40
0.0
  0
LTYPE
  5
16
100
AcDbSymbolTableRecord
100
AcDbLinetypeTableRecord
  2
CONTINUOUS
 70
64
  3
Solid line
 72
65
 73
0
 40
0.0
  0
LTYPE
  5
1F5
100
AcDbSymbolTableRecord
100
AcDbLinetypeTableRecord
  2
CENTER
 70
64
  3
____ _ ____ _ ____ _ ____ _ ____ _ ____ _ ____
 72
65
 73
4
 40
0.6
 49
0.375
 74
0
 49
-0.075
 74
0
 49
0.075
 74
0
 49
-0.075
 74
0
  0
LTYPE
  5
1F6
100
AcDbSymbolTableRecord
100
AcDbLinetypeTableRecord
  2
HIDDEN
 70
64
  3
- - - - - - - - - - - - - - - - - - - -
 72
65
 73
2
 40
0.2
 49
0.1
 74
0
 49
-0.1
 74
0
  0
LTYPE
  5
1F7
100
AcDbSymbolTableRecord
100
AcDbLinetypeTableRecord
  2
PHANTOM
 70
64
  3
_____ _ _ _____ _ _ _____ _ _ _____
 72
65
 73
6
 40
0.8
 49
0.45
 74
0
 49
-0.05
 74
0
 49
0.1
 74
0
 49
-0.05
 74
0
 49
0.1
 74
0
 49
-0.05
 74
0
  0
LTYPE
  5
1F8
100
AcDbSymbolTableRecord
100
AcDbLinetypeTableRecord
  2
DOT
 70
64
  3
. . . . . . . . . . . . . . . . . . . .
 72
65
 73
2
 40
0.2
 49
0.1
 74
0
 49
-0.1
 74
0
  0
LTYPE
  5
1F9
100
AcDbSymbolTableRecord
100
AcDbLinetypeTableRecord
  2
DASHED
 70
64
  3
- - - - - - - - - - - - - - - - - - - -
 72
65
 73
2
 40
0.2
 49
0.1
 74
0
 49
-0.1
 74
0
  0
ENDTAB
  0
TABLE
  2
LAYER
  5
2
100
AcDbSymbolTable
 70
36
  0
LAYER
  5
10
100
AcDbSymbolTableRecord
100
AcDbLayerTableRecord
  2
0
 70
0
 62
7
  6
CONTINUOUS
370
-3
390
F
  0
LAYER
  5
1FA
100
AcDbSymbolTableRecord
100
AcDbLayerTableRecord
  2
DEFAULT_1
 70
0
 62
7
  6
CENTER
370
-3
390
F
  0
LAYER
  5
1FB
100
AcDbSymbolTableRecord
100
AcDbLayerTableRecord
  2
DEFAULT_2
 70
0
 62
7
  6
HIDDEN
370
-3
390
F
  0
LAYER
  5
1FC
100
AcDbSymbolTableRecord
100
AcDbLayerTableRecord
  2
DEFAULT_3
 70
0
 62
7
  6
PHANTOM
370
-3
390
F
  0
LAYER
  5
1FD
100
AcDbSymbolTableRecord
100
AcDbLayerTableRecord
  2
ASSI
 70
0
 62
7
  6
CONTINUOUS
370
-3
390
F
  0
LAYER
  5
1FE
100
AcDbSymbolTableRecord
100
AcDbLayerTableRecord
  2
COORDINATE
 70
0
 62
7
  6
CONTINUOUS
370
-3
390
F
  0
LAYER
  5
1FF
100
AcDbSymbolTableRecord
100
AcDbLayerTableRecord
  2
COPY_PUBLISH
 70
0
 62
7
  6
CONTINUOUS
370
-3
390
F
  0
LAYER
  5
200
100
AcDbSymbolTableRecord
100
AcDbLayerTableRecord
  2
COSMETIC
 70
0
 62
7
  6
CONTINUOUS
370
-3
390
F
  0
LAYER
  5
201
100
AcDbSymbolTableRecord
100
AcDbLayerTableRecord
  2
COSMETICI
 70
0
 62
7
  6
CONTINUOUS
370
-3
390
F
  0
LAYER
  5
202
100
AcDbSymbolTableRecord
100
AcDbLayerTableRecord
  2
CURVE
 70
0
 62
7
  6
CONTINUOUS
370
-3
390
F
  0
LAYER
  5
203
100
AcDbSymbolTableRecord
100
AcDbLayerTableRecord
  2
DRAFT
 70
0
 62
7
  6
CONTINUOUS
370
-3
390
F
  0
LAYER
  5
204
100
AcDbSymbolTableRecord
100
AcDbLayerTableRecord
  2
IGES
 70
0
 62
7
  6
CONTINUOUS
370
-3
390
F
  0
LAYER
  5
205
100
AcDbSymbolTableRecord
100
AcDbLayerTableRecord
  2
IMPORT_IGES
 70
0
 62
7
  6
CONTINUOUS
370
-3
390
F
  0
LAYER
  5
206
100
AcDbSymbolTableRecord
100
AcDbLayerTableRecord
  2
INTF_1
 70
0
 62
7
  6
CONTINUOUS
370
-3
390
F
  0
LAYER
  5
207
100
AcDbSymbolTableRecord
100
AcDbLayerTableRecord
  2
INTF_11
 70
0
 62
7
  6
CONTINUOUS
370
-3
390
F
  0
LAYER
  5
208
100
AcDbSymbolTableRecord
100
AcDbLayerTableRecord
  2
INTF_12
 70
0
 62
7
  6
CONTINUOUS
370
-3
390
F
  0
LAYER
  5
209
100
AcDbSymbolTableRecord
100
AcDbLayerTableRecord
  2
INTF_13
 70
0
 62
7
  6
CONTINUOUS
370
-3
390
F
  0
LAYER
  5
20A
100
AcDbSymbolTableRecord
100
AcDbLayerTableRecord
  2
INTF_2
 70
0
 62
7
  6
CONTINUOUS
370
-3
390
F
  0
LAYER
  5
20B
100
AcDbSymbolTableRecord
100
AcDbLayerTableRecord
  2
INTF_3
 70
0
 62
7
  6
CONTINUOUS
370
-3
390
F
  0
LAYER
  5
20C
100
AcDbSymbolTableRecord
100
AcDbLayerTableRecord
  2
INTF_GREEN
 70
0
 62
7
  6
CONTINUOUS
370
-3
390
F
  0
LAYER
  5
20D
100
AcDbSymbolTableRecord
100
AcDbLayerTableRecord
  2
INTF_RED
 70
0
 62
7
  6
CONTINUOUS
370
-3
390
F
  0
LAYER
  5
20E
100
AcDbSymbolTableRecord
100
AcDbLayerTableRecord
  2
INTF_YELLOW
 70
0
 62
7
  6
CONTINUOUS
370
-3
390
F
  0
LAYER
  5
20F
100
AcDbSymbolTableRecord
100
AcDbLayerTableRecord
  2
MIXEDCOLOR
 70
0
 62
7
  6
CONTINUOUS
370
-3
390
F
  0
LAYER
  5
210
100
AcDbSymbolTableRecord
100
AcDbLayerTableRecord
  2
NOTE
 70
0
 62
7
  6
CONTINUOUS
370
-3
390
F
  0
LAYER
  5
211
100
AcDbSymbolTableRecord
100
AcDbLayerTableRecord
  2
PIANI
 70
0
 62
7
  6
CONTINUOUS
370
-3
390
F
  0
LAYER
  5
212
100
AcDbSymbolTableRecord
100
AcDbLayerTableRecord
  2
PUNTI
 70
0
 62
7
  6
CONTINUOUS
370
-3
390
F
  0
LAYER
  5
213
100
AcDbSymbolTableRecord
100
AcDbLayerTableRecord
  2
RACCORDO
 70
0
 62
7
  6
CONTINUOUS
370
-3
390
F
  0
LAYER
  5
214
100
AcDbSymbolTableRecord
100
AcDbLayerTableRecord
  2
SIMBOLI
 70
0
 62
7
  6
CONTINUOUS
370
-3
390
F
  0
LAYER
  5
215
100
AcDbSymbolTableRecord
100
AcDbLayerTableRecord
  2
SKEL
 70
0
 62
7
  6
CONTINUOUS
370
-3
390
F
  0
LAYER
  5
216
100
AcDbSymbolTableRecord
100
AcDbLayerTableRecord
  2
SMUSSO
 70
0
 62
7
  6
CONTINUOUS
370
-3
390
F
  0
LAYER
  5
217
100
AcDbSymbolTableRecord
100
AcDbLayerTableRecord
  2
SUPERFICI
 70
0
 62
7
  6
CONTINUOUS
370
-3
390
F
  0
LAYER
  5
218
100
AcDbSymbolTableRecord
100
AcDbLayerTableRecord
  2
TRASH
 70
0
 62
7
  6
CONTINUOUS
370
-3
390
F
  0
LAYER
  5
219
100
AcDbSymbolTableRecord
100
AcDbLayerTableRecord
  2
XSEC_DATUMS
 70
0
 62
7
  6
CONTINUOUS
370
-3
390
F
  0
ENDTAB
  0
TABLE
  2
STYLE
  5
3
100
AcDbSymbolTable
 70
1
  0
STYLE
  5
11
100
AcDbSymbolTableRecord
100
AcDbTextStyleTableRecord
  2
STANDARD
 70
0
 40
0.0
 41
0.8
 50
0.0
 71
0
 42
0.2
  3
txt
  4

  0
STYLE
  5
21A
100
AcDbSymbolTableRecord
100
AcDbTextStyleTableRecord
  2
TEXTSTYLE_1
 70
0
 40
0.0
 41
0.8
 50
0.0
 71
0
 42
0.2
  3
gdt
  4

  0
ENDTAB
  0
TABLE
  2
VIEW
  5
6
100
AcDbSymbolTable
 70
0
  0
ENDTAB
  0
TABLE
  2
UCS
  5
7
100
AcDbSymbolTable
 70
0
  0
ENDTAB
  0
TABLE
  2
APPID
  5
9
100
AcDbSymbolTable
 70
1
  0
APPID
  5
21B
100
AcDbSymbolTableRecord
100
AcDbRegAppTableRecord
  2
ACAD
 70
0
  0
ENDTAB
  0
TABLE
  2
BLOCK_RECORD
  5
1
100
AcDbSymbolTable
 70
0
  0
BLOCK_RECORD
  5
21C
100
AcDbSymbolTableRecord
100
AcDbBlockTableRecord
  2
*Model_Space
  0
BLOCK_RECORD
  5
21D
100
AcDbSymbolTableRecord
100
AcDbBlockTableRecord
  2
*Paper_Space
  0
BLOCK_RECORD
  5
21E
100
AcDbSymbolTableRecord
100
AcDbBlockTableRecord
  2
_FILLED
  0
ENDTAB
  0
TABLE
  2
DIMSTYLE
  5
A
100
AcDbSymbolTable
 70
1
100
AcDbDimStyleTable
 71
0
  0
DIMSTYLE
105
21F
100
AcDbSymbolTableRecord
100
AcDbDimStyleTableRecord
  2
STANDARD
 70
0
  3

  4

 40
1.0
 41
3.0
 42
0.5
 43
0.38
 44
1.5
 45
0.0
 46
0.0
 47
0.01
 48
0.01
140
3.0
141
0.09
142
0.0
143
25.4
144
1.0
145
0.0
146
1.0
147
0.625
 71
1
 72
0
 73
0
 74
0
 75
0
 76
0
 77
1
 78
8
 79
2
170
0
171
1
172
0
173
0
174
0
175
0
176
0
177
0
178
0
270
2
179
2
271
2
272
2
273
2
274
2
275
0
280
0
281
0
282
0
283
1
284
8
285
0
286
0
287
3
288
0
340
11
278
44
341
21E
342
21E
343
21E
344
21E
  0
ENDTAB
  0
ENDSEC
  0
SECTION
  2
BLOCKS
  0
BLOCK
  5
20
100
AcDbEntity
  8
0
100
AcDbBlockBegin
  2
*Model_Space
 70
0
 10
0.0
 20
0.0
 30
0.0
  3
*Model_Space
  1

  0
ENDBLK
  5
21
100
AcDbEntity
  8
0
100
AcDbBlockEnd
  0
BLOCK
  5
1C
100
AcDbEntity
  8
0
100
AcDbBlockBegin
  2
*Paper_Space
 70
0
 10
0.0
 20
0.0
 30
0.0
  3
*Paper_Space
  1

  0
ENDBLK
  5
1D
100
AcDbEntity
  8
0
100
AcDbBlockEnd
  0
BLOCK
  5
220
100
AcDbEntity
  8
0
100
AcDbBlockBegin
  2
_FILLED
 70
64
 10
0.0
 20
0.0
  3
_FILLED
  1

  0
SOLID
  5
221
100
AcDbEntity
  8
0
  6
BYBLOCK
 62
0
100
AcDbTrace
 10
0.0
 20
0.0
 11
-1.0
 21
0.3166666667
 12
-1.0
 22
-0.3166666667
 13
-1.0
 23
-0.3166666667
  0
ENDBLK
  5
222
100
AcDbEntity
  8
0
  6
BYBLOCK
 62
0
100
AcDbBlockEnd
  0
ENDSEC
  0
SECTION
  2
ENTITIES
  0
LWPOLYLINE
  5
223
100
AcDbEntity
  8
0
100
AcDbPolyline
 62
7
  6
CONTINUOUS
 90
9
 70
0
 10
-3.6082411594
 20
34.7587766101
 10
-3.1808381001
 20
35.0608799395
 10
-2.7335715776
 20
35.3015241843
 10
-2.2690196222
 20
35.4719562477
 10
-1.7991640403
 20
35.5613932634
 10
-1.3302248699
 20
35.5827863497
 10
-0.8638632489
 20
35.5365621049
 10
-0.4051653823
 20
35.4078603839
 10
0.0395826348
 20
35.186616568
  0
LWPOLYLINE
  5
224
100
AcDbEntity
  8
0
100
AcDbPolyline
 62
7
  6
CONTINUOUS
 90
10
 70
0
 10
-5.7533580952
 20
29.2347470059
 10
-5.6907524286
 20
29.2756648649
 10
-5.63560077
 20
29.3268394449
 10
-5.5877879952
 20
29.3877238944
 10
-5.5457630871
 20
29.4610486817
 10
-5.5106329003
 20
29.5433703141
 10
-5.4864261453
 20
29.6255984068
 10
-5.4745372086
 20
29.7053072215
 10
-5.4734577132
 20
29.7862009664
 10
-5.4830512741
 20
29.8690482641
  0
LWPOLYLINE
  5
225
100
AcDbEntity
  8
0
100
AcDbPolyline
 62
7
  6
CONTINUOUS
 90
10
 70
0
 10
-3.1547549556
 20
29.0316273833
 10
-3.3498420783
 20
28.9328000969
 10
-3.5512451817
 20
28.838231856
 10
-3.7580363293
 20
28.7448152895
 10
-3.9688071923
 20
28.6454101059
 10
-4.1830779728
 20
28.5386016611
 10
-4.4014157982
 20
28.4314468922
 10
-4.6235543899
 20
28.3254670015
 10
-4.8482218314
 20
28.213976389
 10
-5.0746606638
 20
28.0937170603
  0
LWPOLYLINE
  5
226
100
AcDbEntity
  8
0
100
AcDbPolyline
 62
7
  6
CONTINUOUS
 90
22
 70
0
 10
-6.0128487022
 20
29.7449475103
 10
-6.0412480402
 20
29.7345396495
 10
-6.0667896599
 20
29.7240285485
 10
-6.0896626404
 20
29.7135863608
 10
-6.1098395784
 20
29.7034057374
 10
-6.1277467333
 20
29.6935594729
 10
-6.1441601417
 20
29.684115998
 10
-6.1593328429
 20
29.6755093431
 10
-6.1731880298
 20
29.6677767794
 10
-6.1858516576
 20
29.6602620591
 10
-6.1973649642
 20
29.6526363727
 10
-6.2077551684
 20
29.6451131321
 10
-6.2170684258
 20
29.6376371678
 10
-6.2253410136
 20
29.6300557788
 10
-6.2326257778
 20
29.6224278549
 10
-6.2390034327
 20
29.6150681447
 10
-6.2445619911
 20
29.6081187396
 10
-6.2493187687
 20
29.6014762621
 10
-6.2532762086
 20
29.5951253817
 10
-6.2564865596
 20
29.5890547918
 10
-6.2590316
 20
29.583270781
 10
-6.2609723012
 20
29.5777719907
  0
LINE
  5
227
100
AcDbEntity
  8
0
100
AcDbLine
 62
7
  6
CONTINUOUS
 10
-4.4534637724
 20
30.568497634
 11
-4.4842408739
 21
30.5580864424
  0
LWPOLYLINE
  5
228
100
AcDbEntity
  8
0
100
AcDbPolyline
 62
7
  6
CONTINUOUS
 90
19
 70
0
 10
-4.4842408739
 20
30.5580864424
 10
-4.52354079
 20
30.5452072282
 10
-4.5348092998
 20
30.5416317548
 10
-4.5452800266
 20
30.5381570635
 10
-4.5549642464
 20
30.5346838398
 10
-4.5639132054
 20
30.5312457653
 10
-4.5722428908
 20
30.5277061191
 10
-4.58000297
 20
30.523963264
 10
-4.5871714996
 20
30.5200494099
 10
-4.5937471795
 20
30.516032051
 10
-4.5997548269
 20
30.5118648123
 10
-4.605212747
 20
30.5075570144
 10
-4.6101245007
 20
30.5032893847
 10
-4.6144567176
 20
30.4991332074
 10
-4.6183146022
 20
30.4950218501
 10
-4.6218780841
 20
30.4909559345
 10
-4.6251821787
 20
30.4869471219
 10
-4.6281615252
 20
30.4830076185
 10
-4.6308053162
 20
30.4791483313
  0
LINE
  5
229
100
AcDbEntity
  8
0
100
AcDbLine
 62
7
  6
CONTINUOUS
 10
-5.7783320225
 20
29.8157671638
 11
-5.8197718227
 21
29.8033688892
  0
LWPOLYLINE
  5
22A
100
AcDbEntity
  8
0
100
AcDbPolyline
 62
7
  6
CONTINUOUS
 90
5
 70
0
 10
-5.8197718227
 20
29.8033688892
 10
-5.9005099561
 20
29.7799002375
 10
-5.9393498394
 20
29.7684331864
 10
-5.9768756615
 20
29.7568572342
 10
-6.0128487022
 20
29.7449475103
  0
LWPOLYLINE
  5
22B
100
AcDbEntity
  8
RACCORDO
100
AcDbPolyline
 62
250
  6
CONTINUOUS
 90
3
 70
0
 10
-7.6719250566
 20
34.6757176289
 10
-7.5005830756
 20
35.0234513379
 10
-7.3137804081
 20
35.3775583524
  0
LWPOLYLINE
  5
22C
100
AcDbEntity
  8
RACCORDO
100
AcDbPolyline
 62
250
  6
CONTINUOUS
 90
3
 70
0
 10
-7.3137804081
 20
35.3775583524
 10
-7.1110127338
 20
35.7366379716
 10
-6.8911232932
 20
36.100097493
  0
LWPOLYLINE
  5
22D
100
AcDbEntity
  8
RACCORDO
100
AcDbPolyline
 62
250
  6
CONTINUOUS
 90
48
 70
0
 10
-6.8911232932
 20
36.100097493
 10
-6.6543805447
 20
36.4652687019
 10
-6.4026776201
 20
36.8277628493
 10
-6.1356715326
 20
37.1862685342
 10
-5.853554882
 20
37.5388185753
 10
-5.5594800334
 20
37.8807313856
 10
-5.2522567955
 20
38.2122710361
 10
-4.9336382893
 20
38.5304246662
 10
-4.6119187481
 20
38.8273710458
 10
-4.2881277241
 20
39.1030742409
 10
-3.9629384953
 20
39.3577493985
 10
-3.6447579484
 20
39.5865861863
 10
-3.3376676534
 20
39.7890742558
 10
-3.0393217523
 20
39.9689558102
 10
-2.748513411
 20
40.1288326031
 10
-2.4658255845
 20
40.2699311467
 10
-2.1916461447
 20
40.3934821129
 10
-1.9242773686
 20
40.5015216608
 10
-1.6633912607
 20
40.595212299
 10
-1.409913579
 20
40.6752133112
 10
-1.1639263629
 20
40.7424691207
 10
-0.9254757124
 20
40.7979096628
 10
-0.6948303034
 20
40.8423620813
 10
-0.4723467305
 20
40.8766051971
 10
-0.2584723487
 20
40.901478951
 10
-0.0528580191
 20
40.9178995977
 10
0.1453642589
 20
40.926654801
 10
0.3361280485
 20
40.9284621276
 10
0.5195114239
 20
40.9240232202
 10
0.6965880303
 20
40.9138546168
 10
0.867520185
 20
40.8984971994
 10
1.0321894685
 20
40.8785073951
 10
1.1912309332
 20
40.8542178883
 10
1.3447923597
 20
40.8260554647
 10
1.4928098113
 20
40.7944824425
 10
1.6355892169
 20
40.759775069
 10
1.7731800112
 20
40.7223283662
 10
1.9056477118
 20
40.6825221803
 10
2.0333124691
 20
40.6405409384
 10
2.1562045045
 20
40.5967315849
 10
2.2744211109
 20
40.5514120214
 10
2.388367435
 20
40.5046518196
 10
2.4980831794
 20
40.4567326025
 10
2.6036527299
 20
40.4079237528
 10
2.7055280358
 20
40.3582005229
 10
2.8038917645
 20
40.3076880157
 10
2.8986706686
 20
40.2566980824
 10
2.9899229817
 20
40.2054442247
  0
LWPOLYLINE
  5
22E
100
AcDbEntity
  8
0
100
AcDbPolyline
 62
7
  6
CONTINUOUS
 90
3
 70
0
 10
-4.9478198622
 20
34.5437471835
 10
-5.3374035368
 20
33.9446264482
 10
-5.6646007673
 20
33.3140524794
  0
LWPOLYLINE
  5
22F
100
AcDbEntity
  8
0
100
AcDbPolyline
 62
7
  6
CONTINUOUS
 90
3
 70
0
 10
-3.6561432839
 20
33.369945612
 10
-3.9913787908
 20
32.9125224861
 10
-4.2598705688
 20
32.4264996051
  0
LWPOLYLINE
  5
230
100
AcDbEntity
  8
0
100
AcDbPolyline
 62
7
  6
CONTINUOUS
 90
10
 70
0
 10
-4.2311522805
 20
30.6350202883
 10
-4.2386413232
 20
30.6254151309
 10
-4.2477099394
 20
30.6182799939
 10
-4.2580864052
 20
30.6133777922
 10
-4.2694721935
 20
30.6107433482
 10
-4.2818660789
 20
30.6093075007
 10
-4.2955396023
 20
30.6075529228
 10
-4.3105346564
 20
30.6051828241
 10
-4.3266581349
 20
30.6024756544
 10
-4.3438163394
 20
30.5993404479
  0
LWPOLYLINE
  5
231
100
AcDbEntity
  8
0
100
AcDbPolyline
 62
250
  6
CONTINUOUS
 90
7
 70
0
 10
-2.8614377375
 20
29.0231498815
 10
-2.8965506387
 20
28.987688072
 10
-2.930910333
 20
28.9500678855
 10
-2.9643847727
 20
28.9104050303
 10
-2.996870008
 20
28.8687829144
 10
-3.0282161284
 20
28.825352288
 10
-3.0582221395
 20
28.7803393049
  0
LWPOLYLINE
  5
232
100
AcDbEntity
  8
0
100
AcDbPolyline
 62
7
  6
CONTINUOUS
 90
10
 70
0
 10
-0.6409927785
 20
28.1756271101
 10
-0.4803748087
 20
28.2990831224
 10
-0.3247758954
 20
28.4342600878
 10
-0.1756102684
 20
28.5805560536
 10
-0.0356107591
 20
28.7373850652
 10
0.0950262756
 20
28.9037415903
 10
0.2186716193
 20
29.0790103947
 10
0.3349897256
 20
29.2631818628
 10
0.4409036109
 20
29.4560385648
 10
0.5344465618
 20
29.6572748443
  0
LWPOLYLINE
  5
233
100
AcDbEntity
  8
0
100
AcDbPolyline
 62
7
  6
CONTINUOUS
 90
25
 70
0
 10
-3.2290547332
 20
28.4174063728
 10
-3.2577910746
 20
28.3958667306
 10
-3.2863240859
 20
28.3720911198
 10
-3.3146108543
 20
28.346085118
 10
-3.3424116346
 20
28.3174879609
 10
-3.3698450488
 20
28.2866860936
 10
-3.3974330592
 20
28.2548045744
 10
-3.4253242237
 20
28.2221524053
 10
-3.4533155071
 20
28.1884512653
 10
-3.4814466183
 20
28.1539331764
 10
-3.5096778314
 20
28.1187165752
 10
-3.5379958094
 20
28.0827087154
 10
-3.5664838439
 20
28.0458228004
 10
-3.5951239224
 20
28.0080996566
 10
-3.6238696163
 20
27.9695365746
 10
-3.6527519702
 20
27.9299878006
 10
-3.6817522641
 20
27.889491711
 10
-3.7108079428
 20
27.8480736641
 10
-3.7398681572
 20
27.8055817567
 10
-3.7689212667
 20
27.7620689862
 10
-3.7978753754
 20
27.7175913584
 10
-3.8265384681
 20
27.6720261676
 10
-3.8547990482
 20
27.6253973541
 10
-3.882638923
 20
27.5778664804
 10
-3.9099952246
 20
27.5295444676
  0
LWPOLYLINE
  5
234
100
AcDbEntity
  8
0
100
AcDbPolyline
 62
7
  6
CONTINUOUS
 90
16
 70
0
 10
-5.0746606638
 20
28.0937170603
 10
-5.153018062
 20
28.0375389238
 10
-5.2194805976
 20
27.9699896291
 10
-5.2737161806
 20
27.8898732369
 10
-5.3163865762
 20
27.7922942086
 10
-5.3457587097
 20
27.6807617578
 10
-5.3581641543
 20
27.5676946425
 10
-5.3518411878
 20
27.4543437401
 10
-5.3280128124
 20
27.341425062
 10
-5.288448614
 20
27.2413871593
 10
-5.2317448801
 20
27.1566933107
 10
-5.1600243123
 20
27.0879448239
 10
-5.0812982939
 20
27.0435628356
 10
-4.9988067554
 20
27.025897421
 10
-4.9106106862
 20
27.032551789
 10
-4.8171487766
 20
27.0634324742
  0
LWPOLYLINE
  5
235
100
AcDbEntity
  8
0
100
AcDbPolyline
 62
7
  6
CONTINUOUS
 90
10
 70
0
 10
0.0263283312
 20
25.9603009926
 10
0.2680149769
 20
26.104372723
 10
0.5067613353
 20
26.2668455707
 10
0.7407969241
 20
26.4472325938
 10
0.9682678238
 20
26.6460536471
 10
1.1871803297
 20
26.8614553803
 10
1.3959278807
 20
27.0893447692
 10
1.5931639985
 20
27.3278873489
 10
1.7772879969
 20
27.5773747839
 10
1.9467505086
 20
27.8369414513
  0
LWPOLYLINE
  5
236
100
AcDbEntity
  8
0
100
AcDbPolyline
 62
7
  6
CONTINUOUS
 90
4
 70
0
 10
-4.8171487766
 20
27.0634324742
 10
-4.6628319165
 20
27.1464808612
 10
-4.5095429152
 20
27.2263021268
 10
-4.3574612407
 20
27.3037503597
  0
LINE
  5
237
100
AcDbEntity
  8
0
100
AcDbLine
 62
7
  6
CONTINUOUS
 10
-4.3574612407
 20
27.3037503597
 11
-3.9099952246
 21
27.5295444676
  0
LWPOLYLINE
  5
238
100
AcDbEntity
  8
0
100
AcDbPolyline
 62
7
  6
CONTINUOUS
 90
16
 70
0
 10
-0.6409850094
 20
28.1756291193
 10
-0.7388303016
 20
28.1290675035
 10
-0.841617883
 20
28.1080487889
 10
-0.9446889736
 20
28.1136159561
 10
-1.0443860654
 20
28.1462798885
 10
-1.134625409
 20
28.2044941134
 10
-1.2087661471
 20
28.2821074173
 10
-1.2645366874
 20
28.3725691253
 10
-1.3021640315
 20
28.4719899742
 10
-1.3216714868
 20
28.5758661958
 10
-1.3239651493
 20
28.6784072451
 10
-1.3107785749
 20
28.7776245779
 10
-1.2820023107
 20
28.8748947904
 10
-1.2369076268
 20
28.9679013471
 10
-1.1766057481
 20
29.0512970608
 10
-1.1024935644
 20
29.1212626433
  0
LWPOLYLINE
  5
239
100
AcDbEntity
  8
0
100
AcDbPolyline
 62
7
  6
CONTINUOUS
 90
10
 70
0
 10
0.0263283312
 20
25.9603009926
 10
-0.0591964098
 20
25.9236067839
 10
-0.1452911702
 20
25.9061572626
 10
-0.2313020487
 20
25.9080704857
 10
-0.3202236962
 20
25.9308801837
 10
-0.4078815255
 20
25.9732619654
 10
-0.4835756466
 20
26.0303238716
 10
-0.5442397974
 20
26.0997556743
 10
-0.5937885574
 20
26.1825435578
 10
-0.6327550553
 20
26.2781749869
  0
LINE
  5
23A
100
AcDbEntity
  8
RACCORDO
100
AcDbLine
 62
7
  6
CONTINUOUS
 10
-8.4202255155
 20
33.1442959077
 11
-8.4202722477
 21
33.1441416871
  0
LINE
  5
23B
100
AcDbEntity
  8
RACCORDO
100
AcDbLine
 62
250
  6
CONTINUOUS
 10
-8.3595730733
 20
32.8896986938
 11
-8.304237938
 21
33.0669402754
  0
LWPOLYLINE
  5
23C
100
AcDbEntity
  8
RACCORDO
100
AcDbPolyline
 62
250
  6
CONTINUOUS
 90
5
 70
0
 10
-8.304237938
 20
33.0669402754
 10
-8.2757872318
 20
33.1552899315
 10
-8.2458397574
 20
33.2462395133
 10
-8.2143262762
 20
33.3397188924
 10
-8.1812043014
 20
33.4354695339
  0
LWPOLYLINE
  5
23D
100
AcDbEntity
  8
RACCORDO
100
AcDbPolyline
 62
250
  6
CONTINUOUS
 90
4
 70
0
 10
-8.1812043014
 20
33.4354695339
 10
-8.1463734458
 20
33.5335976625
 10
-8.1096597077
 20
33.6345660258
 10
-8.0709617092
 20
33.7382527526
  0
LWPOLYLINE
  5
23E
100
AcDbEntity
  8
RACCORDO
100
AcDbPolyline
 62
250
  6
CONTINUOUS
 90
8
 70
0
 10
-8.0709617092
 20
33.7382527526
 10
-8.0301889634
 20
33.8445777671
 10
-7.9871458719
 20
33.9540416519
 10
-7.9416921618
 20
34.0664872145
 10
-7.8937131099
 20
34.181806388
 10
-7.8430007378
 20
34.3005448362
 10
-7.7893600264
 20
34.422766406
 10
-7.7326358651
 20
34.5480597347
  0
LWPOLYLINE
  5
23F
100
AcDbEntity
  8
0
100
AcDbPolyline
 62
7
  6
CONTINUOUS
 90
7
 70
0
 10
-5.0138860497
 20
32.8961410628
 10
-5.0821229404
 20
32.7382555502
 10
-5.1450891229
 20
32.5765857411
 10
-5.2029442299
 20
32.4115293173
 10
-5.2558408897
 20
32.2434646952
 10
-5.3039249045
 20
32.0727520302
 10
-5.3473354266
 20
31.8997341848
  0
LWPOLYLINE
  5
240
100
AcDbEntity
  8
RACCORDO
100
AcDbPolyline
 62
7
  6
CONTINUOUS
 90
6
 70
0
 10
-7.7676567753
 20
34.8073919563
 10
-7.9271323525
 20
34.4572328929
 10
-8.0865105378
 20
34.0764320407
 10
-8.2318230416
 20
33.6965335197
 10
-8.3635296677
 20
33.3187999743
 10
-8.4202255155
 20
33.1442959077
  0
LINE
  5
241
100
AcDbEntity
  8
RACCORDO
100
AcDbLine
 62
250
  6
CONTINUOUS
 10
-7.7326358651
 20
34.5480597347
 11
-7.6726438945
 21
34.676230861
  0
LINE
  5
242
100
AcDbEntity
  8
RACCORDO
100
AcDbLine
 62
7
  6
CONTINUOUS
 10
-7.7676660463
 20
34.8074134665
 11
-7.7676928307
 21
34.8073568968
  0
LWPOLYLINE
  5
243
100
AcDbEntity
  8
0
100
AcDbPolyline
 62
7
  6
CONTINUOUS
 90
13
 70
0
 10
-3.5473921483
 20
31.9924219675
 10
-3.407467073
 20
32.2578120845
 10
-3.2419724714
 20
32.5061247539
 10
-3.0541115832
 20
32.7304829316
 10
-2.8474570993
 20
32.9213186552
 10
-2.6276217241
 20
33.0752264055
 10
-2.3993312173
 20
33.196336739
 10
-2.1659658545
 20
33.2803696985
 10
-1.9315871865
 20
33.3240667142
 10
-1.6971301131
 20
33.3346494261
 10
-1.462906683
 20
33.311672931
 10
-1.2323462079
 20
33.2472077188
 10
-1.0088570494
 20
33.1358786086
  0
LWPOLYLINE
  5
244
100
AcDbEntity
  8
0
100
AcDbPolyline
 62
7
  6
CONTINUOUS
 90
5
 70
0
 10
-5.0072529378
 20
32.8929775175
 10
-4.7217643428
 20
33.4327915286
 10
-4.3882260087
 20
33.933426355
 10
-4.0137447946
 20
34.3819816871
 10
-3.6082411594
 20
34.7587766101
  0
LWPOLYLINE
  5
245
100
AcDbEntity
  8
0
100
AcDbPolyline
 62
250
  6
CONTINUOUS
 90
10
 70
0
 10
-3.0582221395
 20
28.7803393049
 10
-3.0700662556
 20
28.7615479072
 10
-3.0816127384
 20
28.7425818827
 10
-3.092855654
 20
28.7234550364
 10
-3.1037897312
 20
28.7041791121
 10
-3.1144111131
 20
28.6847662894
 10
-3.1247154415
 20
28.6652305645
 10
-3.1346983876
 20
28.6455828132
 10
-3.1443563416
 20
28.6258312042
 10
-3.153685457
 20
28.6059852037
  0
LWPOLYLINE
  5
246
100
AcDbEntity
  8
RACCORDO
100
AcDbPolyline
 62
250
  6
CONTINUOUS
 90
10
 70
0
 10
2.9899229817
 20
40.2054442247
 10
2.7076900101
 20
39.7649060586
 10
2.4286542914
 20
39.3219908292
 10
2.1528551835
 20
38.876761874
 10
1.8803231566
 20
38.4292680488
 10
1.6111052553
 20
37.9795855708
 10
1.345264203
 20
37.5278189017
 10
1.0828448505
 20
37.0740445203
 10
0.8238750743
 20
36.618310043
 10
0.5683906107
 20
36.1606766839
  0
LWPOLYLINE
  5
247
100
AcDbEntity
  8
0
100
AcDbPolyline
 62
250
  6
CONTINUOUS
 90
10
 70
0
 10
-1.529108242
 20
32.0504341579
 10
-1.5985387851
 20
31.9579593252
 10
-1.666545404
 20
31.8615915978
 10
-1.7331975499
 20
31.7615278678
 10
-1.7983569998
 20
31.6580766373
 10
-1.8618323645
 20
31.551465827
 10
-1.9235031076
 20
31.4417417414
 10
-1.9831894789
 20
31.3289729699
 10
-2.0406364363
 20
31.2133621279
 10
-2.0956147353
 20
31.0950644702
  0
LWPOLYLINE
  5
248
100
AcDbEntity
  8
SUPERFICI
100
AcDbPolyline
 62
250
  6
CONTINUOUS
 90
10
 70
0
 10
-2.7903254901
 20
25.9117833478
 10
-2.7733887827
 20
25.9286903819
 10
-2.7524678365
 20
25.9465054993
 10
-2.7276810748
 20
25.9651394532
 10
-2.6987051864
 20
25.9847636712
 10
-2.6659836079
 20
26.0050466967
 10
-2.6312302369
 20
26.0250784746
 10
-2.595538789
 20
26.0444457279
 10
-2.5589697554
 20
26.0632722246
 10
-2.5220620438
 20
26.0814210434
  0
LWPOLYLINE
  5
249
100
AcDbEntity
  8
SUPERFICI
100
AcDbPolyline
 62
7
  6
CONTINUOUS
 90
6
 70
0
 10
-7.111249883
 20
16.7952082785
 10
-7.1183975066
 20
16.7897989583
 10
-7.1327544715
 20
16.771561175
 10
-7.1423076952
 20
16.7464948204
 10
-7.1475608042
 20
16.7142237079
 10
-7.148546828
 20
16.6747366323
  0
LWPOLYLINE
  5
24A
100
AcDbEntity
  8
RACCORDO
100
AcDbPolyline
 62
250
  6
CONTINUOUS
 90
5
 70
0
 10
-7.7676928307
 20
34.8073568968
 10
-7.7699558423
 20
34.7940299852
 10
-7.7576086804
 20
34.7628606049
 10
-7.724612268
 20
34.7230392924
 10
-7.6719227994
 20
34.6757197852
  0
LWPOLYLINE
  5
24B
100
AcDbEntity
  8
RACCORDO
100
AcDbPolyline
 62
250
  6
CONTINUOUS
 90
11
 70
0
 10
-8.6626521777
 20
31.7954227321
 10
-8.6309835872
 20
31.9218058434
 10
-8.5995150783
 20
32.0441701704
 10
-8.5682555357
 20
32.1626452506
 10
-8.5372763712
 20
32.2773098126
 10
-8.5066437152
 20
32.3882307037
 10
-8.4763536589
 20
32.4955104837
 10
-8.4464750279
 20
32.5992089209
 10
-8.417062356
 20
32.6994019669
 10
-8.3880861887
 20
32.7962061362
 10
-8.3595730733
 20
32.8896986938
  0
LWPOLYLINE
  5
24C
100
AcDbEntity
  8
RACCORDO
100
AcDbPolyline
 62
7
  6
CONTINUOUS
 90
7
 70
0
 10
-8.4202720014
 20
33.144141608
 10
-8.6838262183
 20
32.2424494701
 10
-9.0611046378
 20
30.5532600872
 10
-9.2832550657
 20
28.9270828663
 10
-9.3581667834
 20
27.3833569285
 10
-9.2905864477
 20
25.9365856996
 10
-9.2361934009
 20
25.4713791492
  0
LWPOLYLINE
  5
24D
100
AcDbEntity
  8
0
100
AcDbPolyline
 62
7
  6
CONTINUOUS
 90
7
 70
0
 10
-5.9981353204
 20
32.4242189561
 10
-5.9498883213
 20
32.5750216345
 10
-5.8988849352
 20
32.7249481424
 10
-5.8449782751
 20
32.8738567888
 10
-5.7880138565
 20
33.0215919187
 10
-5.727829316
 20
33.1679829137
 10
-5.6642541249
 20
33.3128431431
  0
LWPOLYLINE
  5
24E
100
AcDbEntity
  8
0
100
AcDbPolyline
 62
250
  6
CONTINUOUS
 90
10
 70
0
 10
-5.0755262895
 20
28.0935346927
 10
-5.093391058
 20
28.0441617053
 10
-5.1065744955
 20
27.9913208482
 10
-5.115167795
 20
27.9354285507
 10
-5.11889956
 20
27.8766809245
 10
-5.11816284
 20
27.8156070052
 10
-5.1143268543
 20
27.7532080649
 10
-5.1082132286
 20
27.6901610677
 10
-5.0997888296
 20
27.6268231901
 10
-5.0894082284
 20
27.563774554
  0
LINE
  5
24F
100
AcDbEntity
  8
0
100
AcDbLine
 62
7
  6
CONTINUOUS
 10
-4.1223409659
 20
26.9566268055
 11
-4.2258310127
 21
26.6713262459
  0
LINE
  5
250
100
AcDbEntity
  8
0
100
AcDbLine
 62
7
  6
CONTINUOUS
 10
-4.0172208665
 20
27.242794269
 11
-4.1223409659
 21
26.9566268055
  0
LWPOLYLINE
  5
251
100
AcDbEntity
  8
0
100
AcDbPolyline
 62
7
  6
CONTINUOUS
 90
10
 70
0
 10
-2.7452839225
 20
31.5139203666
 10
-2.8131794441
 20
31.3312463666
 10
-2.8493813853
 20
31.1349837152
 10
-2.8566946472
 20
30.9376510701
 10
-2.8377907006
 20
30.7572962535
 10
-2.7981131016
 20
30.5951405294
 10
-2.7389370354
 20
30.4370106898
 10
-2.6565570056
 20
30.2863943623
 10
-2.5491971884
 20
30.1631535462
 10
-2.4154519761
 20
30.0824026044
  0
LINE
  5
252
100
AcDbEntity
  8
0
100
AcDbLine
 62
7
  6
CONTINUOUS
 10
-3.9099952246
 20
27.5295444676
 11
-4.0172208665
 21
27.242794269
  0
LWPOLYLINE
  5
253
100
AcDbEntity
  8
0
100
AcDbPolyline
 62
250
  6
CONTINUOUS
 90
10
 70
0
 10
-3.2291809363
 20
28.416795854
 10
-3.3711068787
 20
28.0567538229
 10
-3.510666713
 20
27.696460903
 10
-3.6478497393
 20
27.3359432018
 10
-3.7826536291
 20
26.9752042183
 10
-3.9150589974
 20
26.6142926809
 10
-4.0450309147
 20
26.2533026331
 10
-4.1725521164
 20
25.8922829135
 10
-4.2976214912
 20
25.5312370695
 10
-4.4202297111
 20
25.1701912557
  0
LINE
  5
254
100
AcDbEntity
  8
0
100
AcDbLine
 62
250
  6
CONTINUOUS
 10
-2.8611968035
 20
29.0230105769
 11
-2.714839813
 21
29.3765833169
  0
LINE
  5
255
100
AcDbEntity
  8
0
100
AcDbLine
 62
250
  6
CONTINUOUS
 10
-2.714839813
 20
29.3765833169
 11
-2.5662537457
 21
29.7297250899
  0
LINE
  5
256
100
AcDbEntity
  8
0
100
AcDbLine
 62
250
  6
CONTINUOUS
 10
-2.5662537457
 20
29.7297250899
 11
-2.4154519761
 21
30.0824026044
  0
LWPOLYLINE
  5
257
100
AcDbEntity
  8
0
100
AcDbPolyline
 62
7
  6
CONTINUOUS
 90
10
 70
0
 10
-4.2591482544
 20
32.4250364133
 10
-4.3471870124
 20
32.2206220819
 10
-4.4222678812
 20
32.0099627825
 10
-4.4852740928
 20
31.7950096946
 10
-4.5376645279
 20
31.5786100583
 10
-4.5797296929
 20
31.3611240441
 10
-4.610035183
 20
31.1409374229
 10
-4.6280875128
 20
30.9188747271
 10
-4.6348907647
 20
30.6976927133
 10
-4.6308081374
 20
30.4790228192
  0
LWPOLYLINE
  5
258
100
AcDbEntity
  8
0
100
AcDbPolyline
 62
7
  6
CONTINUOUS
 90
7
 70
0
 10
-3.1536558748
 20
28.6059745712
 10
-3.1603327122
 20
28.5908067176
 10
-3.1669258214
 20
28.5755903624
 10
-3.1734321671
 20
28.5603266778
 10
-3.1798486825
 20
28.5450168459
 10
-3.1861722686
 20
28.5296620585
 10
-3.1923997939
 20
28.5142635168
  0
LWPOLYLINE
  5
259
100
AcDbEntity
  8
0
100
AcDbPolyline
 62
250
  6
CONTINUOUS
 90
7
 70
0
 10
-2.8059277151
 20
25.9022005466
 10
-2.8042758468
 20
25.9058915975
 10
-2.8022415798
 20
25.9087469745
 10
-2.7998272262
 20
25.9107652338
 10
-2.7970350133
 20
25.9119449632
 10
-2.7938670827
 20
25.9122847833
 10
-2.7903254901
 20
25.9117833478
  0
LWPOLYLINE
  5
25A
100
AcDbEntity
  8
0
100
AcDbPolyline
 62
7
  6
CONTINUOUS
 90
10
 70
0
 10
-0.3002946235
 20
30.1168191735
 10
-0.3632357738
 20
29.9833576747
 10
-0.4346079622
 20
29.8549774048
 10
-0.5132409452
 20
29.7319434332
 10
-0.5972741508
 20
29.6145288274
 10
-0.6864841779
 20
29.502768515
 10
-0.7822931787
 20
29.3969555005
 10
-0.8845700939
 20
29.2977454786
 10
-0.9916220165
 20
29.2056608225
 10
-1.1025407311
 20
29.1211838355
  0
LINE
  5
25B
100
AcDbEntity
  8
0
100
AcDbLine
 62
250
  6
CONTINUOUS
 10
-1.5291649952
 20
32.0504221637
 11
-1.3580509698
 21
32.4128657949
  0
LINE
  5
25C
100
AcDbEntity
  8
0
100
AcDbLine
 62
250
  6
CONTINUOUS
 10
-1.3580509698
 20
32.4128657949
 11
-1.1846112874
 21
32.7746938665
  0
LINE
  5
25D
100
AcDbEntity
  8
0
100
AcDbLine
 62
250
  6
CONTINUOUS
 10
-1.1846112874
 20
32.7746938665
 11
-1.0088570494
 21
33.1358786086
  0
LINE
  5
25E
100
AcDbEntity
  8
0
100
AcDbLine
 62
250
  6
CONTINUOUS
 10
-0.5178536394
 20
34.1174349741
 11
-0.3343253657
 21
34.4745215699
  0
LINE
  5
25F
100
AcDbEntity
  8
0
100
AcDbLine
 62
250
  6
CONTINUOUS
 10
-0.3343253657
 20
34.4745215699
 11
-0.1485096702
 21
34.8309253942
  0
LINE
  5
260
100
AcDbEntity
  8
0
100
AcDbLine
 62
250
  6
CONTINUOUS
 10
-0.1485096702
 20
34.8309253942
 11
0.0395826348
 21
35.186616568
  0
LWPOLYLINE
  5
261
100
AcDbEntity
  8
0
100
AcDbPolyline
 62
7
  6
CONTINUOUS
 90
7
 70
0
 10
0.977670165
 20
28.2477552272
 10
1.0758958013
 20
28.3891235126
 10
1.1696738605
 20
28.5334530091
 10
1.2586633131
 20
28.6806781049
 10
1.3425060633
 20
28.8307295893
 10
1.4208260952
 20
28.9835342781
 10
1.4932285894
 20
29.1390146235
  0
LWPOLYLINE
  5
262
100
AcDbEntity
  8
0
100
AcDbPolyline
 62
7
  6
CONTINUOUS
 90
7
 70
0
 10
0.977670165
 20
28.2477552272
 10
0.786272479
 20
27.9978537668
 10
0.576430107
 20
27.7585207173
 10
0.3499426445
 20
27.5314130634
 10
0.1087079126
 20
27.3181842073
 10
-0.1452861436
 20
27.1204767133
 10
-0.4099700241
 20
26.9399147311
  0
LINE
  5
263
100
AcDbEntity
  8
SUPERFICI
100
AcDbLine
 62
7
  6
CONTINUOUS
 10
-6.7738664911
 20
14.6043901056
 11
-5.6112999527
 21
15.2754886084
  0
LINE
  5
264
100
AcDbEntity
  8
SUPERFICI
100
AcDbLine
 62
7
  6
CONTINUOUS
 10
-5.5434970676
 20
14.7373123107
 11
-6.7444190613
 21
14.0440728185
  0
LWPOLYLINE
  5
265
100
AcDbEntity
  8
SUPERFICI
100
AcDbPolyline
 62
7
  6
CONTINUOUS
 90
10
 70
0
 10
-5.6112969013
 20
15.2754888305
 10
-5.6022665693
 20
15.2789281256
 10
-5.5918957487
 20
15.2796623024
 10
-5.5805191815
 20
15.2776800748
 10
-5.568505923
 20
15.2730607426
 10
-5.5562156631
 20
15.2659581414
 10
-5.5439873705
 20
15.2565719733
 10
-5.5321774469
 20
15.2451717545
 10
-5.5211485442
 20
15.2321113961
 10
-5.5112263621
 20
15.2177904554
  0
LWPOLYLINE
  5
266
100
AcDbEntity
  8
SUPERFICI
100
AcDbPolyline
 62
250
  6
CONTINUOUS
 90
4
 70
0
 10
-0.9302103481
 20
-14.2398340955
 10
-0.6472155265
 20
-14.1826322513
 10
-0.3536913846
 20
-14.0920621014
 10
-0.0680760755
 20
-13.9770646572
  0
LINE
  5
267
100
AcDbEntity
  8
SUPERFICI
100
AcDbLine
 62
250
  6
CONTINUOUS
 10
-1.1980206639
 20
-14.2655418744
 11
-0.9302103481
 21
-14.2398340955
  0
LWPOLYLINE
  5
268
100
AcDbEntity
  8
SUPERFICI
100
AcDbPolyline
 62
250
  6
CONTINUOUS
 90
3
 70
0
 10
-1.7268039082
 20
-14.2568656285
 10
-1.4632030534
 20
-14.2708888704
 10
-1.1980206639
 20
-14.2655418744
  0
LWPOLYLINE
  5
269
100
AcDbEntity
  8
SUPERFICI
100
AcDbPolyline
 62
7
  6
CONTINUOUS
 90
8
 70
0
 10
-2.2530271167
 20
-14.4004614706
 10
-2.1818992997
 20
-14.4139881182
 10
-1.8757982312
 20
-14.455094668
 10
-1.5370719857
 20
-14.4680802753
 10
-1.1336647831
 20
-14.4382680197
 10
-0.6604122884
 20
-14.3380016643
 10
-0.1417825099
 20
-14.1404718446
 10
0.0948138996
 20
-14.0159545426
  0
LINE
  5
26A
100
AcDbEntity
  8
SUPERFICI
100
AcDbLine
 62
7
  6
CONTINUOUS
 10
-2.2530271167
 20
-14.4004614706
 11
-2.2540475442
 21
-14.4002564975
  0
LWPOLYLINE
  5
26B
100
AcDbEntity
  8
SUPERFICI
100
AcDbPolyline
 62
250
  6
CONTINUOUS
 90
9
 70
0
 10
-2.2540475442
 20
-14.4002564975
 10
-2.2977104078
 20
-14.3909910193
 10
-2.4950926054
 20
-14.3425998913
 10
-2.6863708233
 20
-14.2841372715
 10
-2.8711409752
 20
-14.2166146452
 10
-3.0499427874
 20
-14.1409693863
 10
-3.2240521811
 20
-14.0581626904
 10
-3.3941981732
 20
-13.9681874036
 10
-3.5599103846
 20
-13.8727865105
  0
LWPOLYLINE
  5
26C
100
AcDbEntity
  8
SUPERFICI
100
AcDbPolyline
 62
250
  6
CONTINUOUS
 90
7
 70
0
 10
-3.1819705641
 20
-13.8386504152
 10
-2.9458776417
 20
-13.9346787772
 10
-2.7098569969
 20
-14.0216414589
 10
-2.4754640752
 20
-14.1037124614
 10
-2.2316436241
 20
-14.1707602735
 10
-1.9811556592
 20
-14.2213009857
 10
-1.7268039082
 20
-14.2568656285
  0
LINE
  5
26D
100
AcDbEntity
  8
SUPERFICI
100
AcDbLine
 62
250
  6
CONTINUOUS
 10
-3.8560018934
 20
-13.5285958228
 11
-3.1819705641
 21
-13.8386504152
  0
LWPOLYLINE
  5
26E
100
AcDbEntity
  8
SUPERFICI
100
AcDbPolyline
 62
250
  6
CONTINUOUS
 90
4
 70
0
 10
-4.3636567017
 20
-13.4016888873
 10
-4.4148480503
 20
-13.3760755637
 10
-4.4350210001
 20
-13.3674967363
 10
-4.4315216765
 20
-13.3711176976
  0
LINE
  5
26F
100
AcDbEntity
  8
SUPERFICI
100
AcDbLine
 62
250
  6
CONTINUOUS
 10
-4.0594466484
 20
-13.4259628708
 11
-3.8560018934
 21
-13.5285958228
  0
LINE
  5
270
100
AcDbEntity
  8
SUPERFICI
100
AcDbLine
 62
250
  6
CONTINUOUS
 10
-4.1807297148
 20
-13.4951003444
 11
-4.3636567017
 21
-13.4016888873
  0
LWPOLYLINE
  5
271
100
AcDbEntity
  8
SUPERFICI
100
AcDbPolyline
 62
7
  6
CONTINUOUS
 90
4
 70
0
 10
-3.9161574805
 20
-13.7400159583
 10
-3.3927105654
 20
-14.0247805494
 10
-2.8404680025
 20
-14.2446859736
 10
-2.2538861137
 20
-14.4000990823
  0
LINE
  5
272
100
AcDbEntity
  8
SUPERFICI
100
AcDbLine
 62
250
  6
CONTINUOUS
 10
-4.2426379585
 20
-13.3207047402
 11
-4.0594466484
 21
-13.4259628708
  0
LINE
  5
273
100
AcDbEntity
  8
SUPERFICI
100
AcDbLine
 62
250
  6
CONTINUOUS
 10
-4.3938034323
 20
-13.2329031241
 11
-4.2426379585
 21
-13.3207047402
  0
LWPOLYLINE
  5
274
100
AcDbEntity
  8
SUPERFICI
100
AcDbPolyline
 62
250
  6
CONTINUOUS
 90
4
 70
0
 10
-3.5599103846
 20
-13.8727865105
 10
-3.8784926617
 20
-13.6815081492
 10
-4.0317851518
 20
-13.587697219
 10
-4.1807297148
 20
-13.4951003444
  0
LINE
  5
275
100
AcDbEntity
  8
SUPERFICI
100
AcDbLine
 62
7
  6
CONTINUOUS
 10
-4.4353133627
 20
-13.3677666257
 11
-3.9161574805
 21
-13.7400159583
  0
LWPOLYLINE
  5
276
100
AcDbEntity
  8
0
100
AcDbPolyline
 62
7
  6
CONTINUOUS
 90
7
 70
0
 10
-5.3473354266
 20
31.8997341848
 10
-5.4140211014
 20
31.5778255722
 10
-5.4632729427
 20
31.245769563
 10
-5.4949048108
 20
30.906154731
 10
-5.5087856058
 20
30.561654561
 10
-5.5048403512
 20
30.2150161418
 10
-5.4830512741
 20
29.8690482641
  0
LWPOLYLINE
  5
277
100
AcDbEntity
  8
0
100
AcDbPolyline
 62
7
  6
CONTINUOUS
 90
10
 70
0
 10
-4.6714563875
 20
25.3896280984
 10
-4.6933007694
 20
25.2991241997
 10
-4.7037455814
 20
25.2095783414
 10
-4.7024772236
 20
25.1210805344
 10
-4.6883004559
 20
25.0317325554
 10
-4.6617029862
 20
24.9441652788
 10
-4.6252268655
 20
24.8653618852
 10
-4.579900613
 20
24.7979491387
 10
-4.5248711391
 20
24.7403765137
 10
-4.4602359792
 20
24.6932938128
  0
LWPOLYLINE
  5
278
100
AcDbEntity
  8
0
100
AcDbPolyline
 62
250
  6
CONTINUOUS
 90
10
 70
0
 10
-3.154808181
 20
29.0315972442
 10
-3.1653110469
 20
28.992762563
 10
-3.1732448988
 20
28.9513999459
 10
-3.1785565006
 20
28.9076520083
 10
-3.1811626649
 20
28.8616030457
 10
-3.1810312925
 20
28.8134780039
 10
-3.1782221076
 20
28.7636561949
 10
-3.1727526492
 20
28.7123756029
 10
-3.1645614401
 20
28.6597295961
 10
-3.1536558093
 20
28.6059745333
  0
LWPOLYLINE
  5
279
100
AcDbEntity
  8
RACCORDO
100
AcDbPolyline
 62
250
  6
CONTINUOUS
 90
10
 70
0
 10
-4.4602359792
 20
24.6932938128
 10
-4.6257220126
 20
24.1816618251
 10
-4.7860144138
 20
23.6707545442
 10
-4.9410907177
 20
23.1606712687
 10
-5.0909288062
 20
22.6515101755
 10
-5.2355063653
 20
22.1433701531
 10
-5.3748009465
 20
21.6363507952
 10
-5.5087906616
 20
21.1305499596
 10
-5.63745412
 20
20.6260637773
 10
-5.7607699297
 20
20.1229884807
  0
LINE
  5
27A
100
AcDbEntity
  8
0
100
AcDbLine
 62
7
  6
CONTINUOUS
 10
-4.5262736416
 20
25.8171727652
 11
-4.6714563875
 21
25.3896280984
  0
LINE
  5
27B
100
AcDbEntity
  8
0
100
AcDbLine
 62
7
  6
CONTINUOUS
 10
-3.9206265009
 20
24.9561067839
 11
-3.8233683504
 21
25.240763019
  0
LINE
  5
27C
100
AcDbEntity
  8
0
100
AcDbLine
 62
7
  6
CONTINUOUS
 10
-4.4276731439
 20
26.1017929294
 11
-4.5262736416
 21
25.8171727652
  0
LINE
  5
27D
100
AcDbEntity
  8
0
100
AcDbLine
 62
7
  6
CONTINUOUS
 10
-3.8233683504
 20
25.240763019
 11
-3.6746724091
 21
25.6672395484
  0
LINE
  5
27E
100
AcDbEntity
  8
0
100
AcDbLine
 62
7
  6
CONTINUOUS
 10
-4.3275750853
 20
26.3864724966
 11
-4.4276731439
 21
26.1017929294
  0
LINE
  5
27F
100
AcDbEntity
  8
0
100
AcDbLine
 62
7
  6
CONTINUOUS
 10
-4.2258310127
 20
26.6713262459
 11
-4.3275750853
 21
26.3864724966
  0
LINE
  5
280
100
AcDbEntity
  8
0
100
AcDbLine
 62
7
  6
CONTINUOUS
 10
-3.6746724091
 20
25.6672395484
 11
-3.5226018879
 21
26.0936948485
  0
LWPOLYLINE
  5
281
100
AcDbEntity
  8
0
100
AcDbPolyline
 62
7
  6
CONTINUOUS
 90
7
 70
0
 10
-3.2290551021
 20
28.4174065858
 10
-3.2233145945
 20
28.4333739035
 10
-3.2174263049
 20
28.4494133718
 10
-3.2113904431
 20
28.4655235475
 10
-3.2052072207
 20
28.4817029639
 10
-3.1988768507
 20
28.4979501313
 10
-3.1923997939
 20
28.5142635168
  0
LINE
  5
282
100
AcDbEntity
  8
0
100
AcDbLine
 62
7
  6
CONTINUOUS
 10
-3.5226018879
 20
26.0936948485
 11
-3.3668559342
 21
26.5208382182
  0
LWPOLYLINE
  5
283
100
AcDbEntity
  8
0
100
AcDbPolyline
 62
7
  6
CONTINUOUS
 90
13
 70
0
 10
1.4904502709
 20
29.1412851202
 10
1.7057057027
 20
29.7216508795
 10
1.861709883
 20
30.3247917012
 10
1.9534989862
 20
30.9365699152
 10
1.9721533189
 20
31.5367267771
 10
1.9219173931
 20
32.1146128703
 10
1.8159289408
 20
32.6746996036
 10
1.6493080437
 20
33.2095629616
 10
1.4216394116
 20
33.7017417164
 10
1.1485615134
 20
34.1515661585
 10
0.8321042772
 20
34.5573317108
 10
0.4636319237
 20
34.9062277081
 10
0.0395826348
 20
35.186616568
  0
LINE
  5
284
100
AcDbEntity
  8
0
100
AcDbLine
 62
7
  6
CONTINUOUS
 10
-3.3668559342
 20
26.5208382182
 11
-3.26066596
 21
26.8062515968
  0
LWPOLYLINE
  5
285
100
AcDbEntity
  8
0
100
AcDbPolyline
 62
7
  6
CONTINUOUS
 90
13
 70
0
 10
-0.3023693006
 20
30.1187864449
 10
-0.1956447779
 20
30.4033461449
 10
-0.1169367963
 20
30.701768321
 10
-0.0692525242
 20
31.00706272
 10
-0.0575055266
 20
31.3104355835
 10
-0.0805678963
 20
31.6045894473
 10
-0.1320530209
 20
31.8872387242
 10
-0.2130386446
 20
32.1527740035
 10
-0.3234301088
 20
32.3955369725
 10
-0.4568833273
 20
32.6185464759
 10
-0.6133569623
 20
32.8211535696
 10
-0.7967317787
 20
32.9956894069
 10
-1.0088570494
 20
33.1358786086
  0
LINE
  5
286
100
AcDbEntity
  8
0
100
AcDbLine
 62
7
  6
CONTINUOUS
 10
-3.26066596
 20
26.8062515968
 11
-3.1529793047
 21
27.0924529631
  0
LWPOLYLINE
  5
287
100
AcDbEntity
  8
0
100
AcDbPolyline
 62
7
  6
CONTINUOUS
 90
7
 70
0
 10
2.3814828037
 20
28.6673354773
 10
2.3157272424
 20
28.5237352884
 10
2.246977002
 20
28.3822907082
 10
2.1754807326
 20
28.2429463269
 10
2.1014699047
 20
28.1056453583
 10
2.025159808
 20
27.9703299466
 10
1.9467505086
 20
27.8369414513
  0
LINE
  5
288
100
AcDbEntity
  8
RACCORDO
100
AcDbLine
 62
250
  6
CONTINUOUS
 10
4.7220871642
 20
25.2317102961
 11
4.6235658178
 21
25.0617821279
  0
LINE
  5
289
100
AcDbEntity
  8
RACCORDO
100
AcDbLine
 62
250
  6
CONTINUOUS
 10
4.6235658178
 20
25.0617821279
 11
4.5174597849
 21
24.881772012
  0
LWPOLYLINE
  5
28A
100
AcDbEntity
  8
RACCORDO
100
AcDbPolyline
 62
250
  6
CONTINUOUS
 90
52
 70
0
 10
4.5174597849
 20
24.881772012
 10
4.4032490206
 20
24.6916502912
 10
4.3429724266
 20
24.5927700981
 10
4.2804574173
 20
24.4913714698
 10
4.2156572406
 20
24.3874034353
 10
4.1484777351
 20
24.2808824187
 10
4.0788225072
 20
24.1718427547
 10
4.0066356338
 20
24.0602603471
 10
3.931823667
 20
23.9461477251
 10
3.8542799629
 20
23.8295565319
 10
3.7739259002
 20
23.7105235561
 10
3.6906630489
 20
23.589065605
 10
3.6043862262
 20
23.4652500149
 10
3.5150091635
 20
23.3391947276
 10
3.4224821235
 20
23.2109750464
 10
3.3266582378
 20
23.080625465
 10
3.2273085887
 20
22.9482151401
 10
3.1244194784
 20
22.8138868998
 10
3.0178131219
 20
22.6776492481
 10
2.9070058322
 20
22.5393975768
 10
2.7919473547
 20
22.3992316222
 10
2.6724843781
 20
22.2572725762
 10
2.5479631989
 20
22.1134964805
 10
2.4183230063
 20
21.9680255638
 10
2.283422496
 20
21.8210619547
 10
2.1424822741
 20
21.6727733801
 10
1.9954806964
 20
21.5233323945
 10
1.8422683274
 20
21.3730349566
 10
1.6818916097
 20
21.2223374894
 10
1.5144209201
 20
21.0715431513
 10
1.3396978128
 20
20.9210212184
 10
1.1564727413
 20
20.7714818916
 10
0.9650335529
 20
20.6234078123
 10
0.7651539358
 20
20.4772826278
 10
0.5548979422
 20
20.3340743032
 10
0.3348397454
 20
20.1945685066
 10
0.1047265377
 20
20.059429273
 10
-0.1384693947
 20
19.929903737
 10
-0.3954706023
 20
19.8068137897
 10
-0.6647592562
 20
19.6917458642
 10
-0.9457294915
 20
19.5874688946
 10
-1.2391045072
 20
19.4954963703
 10
-1.5425692801
 20
19.4172175806
 10
-1.8507734828
 20
19.3548159743
 10
-2.1630271908
 20
19.3098535663
 10
-2.4780448125
 20
19.2828166292
 10
-2.789858929
 20
19.2731169161
 10
-3.0979548845
 20
19.281479837
 10
-3.4013117868
 20
19.3078335297
 10
-3.6940123684
 20
19.3488992639
 10
-3.9753817107
 20
19.4041061266
 10
-4.2457724295
 20
19.4728935004
  0
LWPOLYLINE
  5
28B
100
AcDbEntity
  8
SUPERFICI
100
AcDbPolyline
 62
7
  6
CONTINUOUS
 90
4
 70
0
 10
-3.4899182663
 20
10.7077612272
 10
-3.4642271767
 20
10.7243405572
 10
-3.4360411636
 20
10.7526264906
 10
-3.4167772069
 20
10.7867326847
  0
LINE
  5
28C
100
AcDbEntity
  8
SUPERFICI
100
AcDbLine
 62
250
  6
CONTINUOUS
 10
-1.2238006581
 20
-10.6653248974
 11
-1.316982754
 21
-10.6910648903
  0
LWPOLYLINE
  5
28D
100
AcDbEntity
  8
SUPERFICI
100
AcDbPolyline
 62
250
  6
CONTINUOUS
 90
4
 70
0
 10
-0.2296162039
 20
-11.8072668164
 10
-0.000470958
 20
-11.7730965214
 10
0.2387247006
 20
-11.6970379495
 10
0.4856792851
 20
-11.5772660166
  0
LWPOLYLINE
  5
28E
100
AcDbEntity
  8
RACCORDO
100
AcDbPolyline
 62
250
  6
CONTINUOUS
 90
14
 70
0
 10
-0.0468624339
 20
-11.7738338562
 10
0.0025892801
 20
-11.7674595001
 10
0.0505114672
 20
-11.7594319365
 10
0.0969320821
 20
-11.7497238856
 10
0.1421780746
 20
-11.7386741142
 10
0.1862575108
 20
-11.7263653467
 10
0.2292037095
 20
-11.7127512694
 10
0.271365028
 20
-11.6979636055
 10
0.3126008052
 20
-11.6821276173
 10
0.3527825453
 20
-11.6652968715
 10
0.3925410103
 20
-11.6473060475
 10
0.4323611668
 20
-11.6279253447
 10
0.4723869252
 20
-11.6069997857
 10
0.5129885187
 20
-11.5843076846
  0
LWPOLYLINE
  5
28F
100
AcDbEntity
  8
RACCORDO
100
AcDbPolyline
 62
250
  6
CONTINUOUS
 90
3
 70
0
 10
-0.1500201638
 20
-11.7804986025
 10
-0.0977356285
 20
-11.7784086557
 10
-0.0468624339
 20
-11.7738338562
  0
LINE
  5
290
100
AcDbEntity
  8
SUPERFICI
100
AcDbLine
 62
250
  6
CONTINUOUS
 10
-0.6809422139
 20
-11.0166238965
 11
-0.7983673051
 21
-10.9625484899
  0
LWPOLYLINE
  5
291
100
AcDbEntity
  8
SUPERFICI
100
AcDbPolyline
 62
250
  6
CONTINUOUS
 90
10
 70
0
 10
0.1335477302
 20
-10.9086323007
 10
0.203105683
 20
-10.955995957
 10
0.2684598722
 20
-11.0157213963
 10
0.3282305988
 20
-11.0858434815
 10
0.3814044128
 20
-11.1650030123
 10
0.4258236366
 20
-11.2502796756
 10
0.45907823
 20
-11.3368226408
 10
0.4803050026
 20
-11.4213141103
 10
0.489286363
 20
-11.5023208958
 10
0.4855659294
 20
-11.5778637905
  0
LWPOLYLINE
  5
292
100
AcDbEntity
  8
RACCORDO
100
AcDbPolyline
 62
250
  6
CONTINUOUS
 90
10
 70
0
 10
0.3032165144
 20
-11.181811551
 10
0.3435136034
 20
-11.2095382531
 10
0.3823431857
 20
-11.2451751994
 10
0.4182912029
 20
-11.2874246167
 10
0.4500485339
 20
-11.3347479274
 10
0.4764586691
 20
-11.3854217788
 10
0.4965598268
 20
-11.4376008026
 10
0.5096199778
 20
-11.4893848167
 10
0.515163504
 20
-11.5388880233
 10
0.5129885184
 20
-11.5843076842
  0
LWPOLYLINE
  5
293
100
AcDbEntity
  8
SUPERFICI
100
AcDbPolyline
 62
7
  6
CONTINUOUS
 90
3
 70
0
 10
-0.7983673051
 20
-10.9625484899
 10
-0.8572313264
 20
-10.9215544001
 10
-0.9017876547
 20
-10.8767494617
  0
LWPOLYLINE
  5
294
100
AcDbEntity
  8
RACCORDO
100
AcDbPolyline
 62
7
  6
CONTINUOUS
 90
5
 70
0
 10
-0.6440420165
 20
-11.2268373854
 10
-0.7217370884
 20
-11.1724630616
 10
-0.7887783078
 20
-11.105195826
 10
-0.8428487349
 20
-11.0275739812
 10
-0.8832253173
 20
-10.9416030552
  0
LWPOLYLINE
  5
295
100
AcDbEntity
  8
SUPERFICI
100
AcDbPolyline
 62
250
  6
CONTINUOUS
 90
5
 70
0
 10
-1.0007122646
 20
-11.5618788526
 10
-0.8415446133
 20
-11.67458045
 10
-0.6572643589
 20
-11.7536283925
 10
-0.4498914887
 20
-11.7998075138
 10
-0.2296162039
 20
-11.8072668164
  0
LWPOLYLINE
  5
296
100
AcDbEntity
  8
SUPERFICI
100
AcDbPolyline
 62
250
  6
CONTINUOUS
 90
10
 70
0
 10
-4.1807323161
 20
-13.4952061524
 10
-4.192462694
 20
-13.480966651
 10
-4.2030458409
 20
-13.4652988254
 10
-4.212456545
 20
-13.4482440082
 10
-4.2206625228
 20
-13.4298634169
 10
-4.2276286479
 20
-13.4102278406
 10
-4.2333274514
 20
-13.3894144553
 10
-4.2377385709
 20
-13.3675083933
 10
-4.2408453051
 20
-13.3445860344
 10
-4.2426379988
 20
-13.3207038535
  0
LINE
  5
297
100
AcDbEntity
  8
SUPERFICI
100
AcDbLine
 62
7
  6
CONTINUOUS
 10
-5.4015118042
 20
-4.8327657893
 11
-4.8970848936
 21
-9.8657967615
  0
LINE
  5
298
100
AcDbEntity
  8
SUPERFICI
100
AcDbLine
 62
7
  6
CONTINUOUS
 10
-4.8970848936
 20
-9.8657967615
 11
-4.6133806534
 21
-13.0248969223
  0
LINE
  5
299
100
AcDbEntity
  8
SUPERFICI
100
AcDbLine
 62
7
  6
CONTINUOUS
 10
-6.9380174943
 20
12.916873348
 11
-7.0558086746
 21
14.9977391131
  0
LINE
  5
29A
100
AcDbEntity
  8
SUPERFICI
100
AcDbLine
 62
7
  6
CONTINUOUS
 10
-7.0558086746
 20
14.9977391131
 11
-7.1485154513
 21
16.6738441426
  0
LINE
  5
29B
100
AcDbEntity
  8
SUPERFICI
100
AcDbLine
 62
7
  6
CONTINUOUS
 10
-6.7444172607
 20
14.0440738581
 11
-6.6771387397
 21
12.7805188083
  0
LINE
  5
29C
100
AcDbEntity
  8
SUPERFICI
100
AcDbLine
 62
7
  6
CONTINUOUS
 10
-6.8600192681
 20
16.2673052893
 11
-6.7738674477
 21
14.6043895533
  0
LINE
  5
29D
100
AcDbEntity
  8
RACCORDO
100
AcDbLine
 62
250
  6
CONTINUOUS
 10
-5.787212026
 20
19.8734337819
 11
-4.2426379585
 21
-13.3207047402
  0
LWPOLYLINE
  5
29E
100
AcDbEntity
  8
RACCORDO
100
AcDbPolyline
 62
250
  6
CONTINUOUS
 90
27
 70
0
 10
-9.2032499804
 20
26.6615016398
 10
-9.2152017634
 20
26.9462232718
 10
-9.2215526168
 20
27.2227487603
 10
-9.2227948194
 20
27.4910453382
 10
-9.2192296081
 20
27.7506186771
 10
-9.2118350034
 20
28.0021888428
 10
-9.2010148193
 20
28.2456795951
 10
-9.1869934551
 20
28.4809793364
 10
-9.1703782513
 20
28.7088861951
 10
-9.1514682247
 20
28.9293932042
 10
-9.1304543024
 20
29.142498951
 10
-9.1076982983
 20
29.3490671109
 10
-9.0834216989
 20
29.5491668141
 10
-9.0577773736
 20
29.7428086977
 10
-9.0309559676
 20
29.9307845224
 10
-9.0031027977
 20
30.1132689393
 10
-8.9743566565
 20
30.2902015712
 10
-8.9448529652
 20
30.4620227442
 10
-8.9147108329
 20
30.6288860993
 10
-8.8840426985
 20
30.7907753257
 10
-8.8529519459
 20
30.9478770691
 10
-8.8215506547
 20
31.1002687107
 10
-8.7899286542
 20
31.2480261533
 10
-8.7581441088
 20
31.3913322814
 10
-8.7262903152
 20
31.5302833135
 10
-8.6944489226
 20
31.6649391962
 10
-8.6626521777
 20
31.7954227321
  0
LWPOLYLINE
  5
29F
100
AcDbEntity
  8
RACCORDO
100
AcDbPolyline
 62
250
  6
CONTINUOUS
 90
10
 70
0
 10
-5.7872150694
 20
19.8734318408
 10
-5.7879467764
 20
19.899390449
 10
-5.7877547351
 20
19.925895034
 10
-5.7866392615
 20
19.9529023139
 10
-5.7846021801
 20
19.9803681854
 10
-5.7816468201
 20
20.0082477968
 10
-5.7777780105
 20
20.0364956205
 10
-5.773002072
 20
20.0650655274
 10
-5.7673268066
 20
20.0939108628
 10
-5.760761485
 20
20.1229845219
  0
LWPOLYLINE
  5
2A0
100
AcDbEntity
  8
0
100
AcDbPolyline
 62
7
  6
CONTINUOUS
 90
16
 70
0
 10
-3.7961346547
 20
30.6765372496
 10
-3.802190969
 20
30.5672785873
 10
-3.8237877217
 20
30.4615436485
 10
-3.8593289366
 20
30.3630368329
 10
-3.9061971719
 20
30.2762353744
 10
-3.962464009
 20
30.2019174309
 10
-4.0286691311
 20
30.1389476212
 10
-4.1045333066
 20
30.0901503151
 10
-4.1869695122
 20
30.0600516609
 10
-4.2729567434
 20
30.0514179337
 10
-4.3599429417
 20
30.0667958583
 10
-4.4428352887
 20
30.1084798981
 10
-4.5146411469
 20
30.1747619723
 10
-4.5711864902
 20
30.2612950867
 10
-4.6105615611
 20
30.3643737793
 10
-4.6308053162
 20
30.4791483313
  0
LWPOLYLINE
  5
2A1
100
AcDbEntity
  8
0
100
AcDbPolyline
 62
250
  6
CONTINUOUS
 90
10
 70
0
 10
-2.4154519761
 20
30.0824026044
 10
-2.3944874963
 20
30.189711467
 10
-2.3699837391
 20
30.2986326137
 10
-2.3418858331
 20
30.4090392279
 10
-2.3102165819
 20
30.5205849528
 10
-2.2749195986
 20
30.6332489296
 10
-2.2358613564
 20
30.7471858923
 10
-2.1929606207
 20
30.8623232519
 10
-2.1462255283
 20
30.9783447169
 10
-2.095620857
 20
31.0950647802
  0
LWPOLYLINE
  5
2A2
100
AcDbEntity
  8
0
100
AcDbPolyline
 62
7
  6
CONTINUOUS
 90
3
 70
0
 10
0.8528804212
 20
30.766491836
 10
0.7281237882
 20
30.1875408462
 10
0.5412182466
 20
29.6544110949
  0
LWPOLYLINE
  5
2A3
100
AcDbEntity
  8
SUPERFICI
100
AcDbPolyline
 62
7
  6
CONTINUOUS
 90
6
 70
0
 10
-1.0318955555
 20
28.7878095514
 10
-1.0349039692
 20
28.775617335
 10
-1.0351995345
 20
28.7634167484
 10
-1.0330777852
 20
28.7512982339
 10
-1.0286427185
 20
28.7395290265
 10
-1.0156853501
 20
28.7138061838
  0
LWPOLYLINE
  5
2A4
100
AcDbEntity
  8
SUPERFICI
100
AcDbPolyline
 62
7
  6
CONTINUOUS
 90
3
 70
0
 10
-3.4167772069
 20
10.7867326847
 10
-3.4056021653
 20
10.8273039289
 10
-3.4025315606
 20
10.8743204819
  0
LWPOLYLINE
  5
2A5
100
AcDbEntity
  8
RACCORDO
100
AcDbPolyline
 62
250
  6
CONTINUOUS
 90
16
 70
0
 10
5.599011076
 20
27.0133435519
 10
5.5437236547
 20
26.8789600742
 10
5.4887514076
 20
26.7497896707
 10
5.4343986756
 20
26.625756785
 10
5.3811747994
 20
26.5069663483
 10
5.3291278597
 20
26.3931573616
 10
5.2778137047
 20
26.2837287133
 10
5.2273863179
 20
26.1786352033
 10
5.1780924038
 20
26.0778198371
 10
5.129555681
 20
25.9807017527
 10
5.0818906174
 20
25.8872412213
 10
5.0352746839
 20
25.7974052388
 10
4.9893703749
 20
25.7106487513
 10
4.9441275064
 20
25.6267771557
 10
4.8998051169
 20
25.5459344713
 10
4.8565018615
 20
25.468094058
  0
LWPOLYLINE
  5
2A6
100
AcDbEntity
  8
RACCORDO
100
AcDbPolyline
 62
250
  6
CONTINUOUS
 90
16
 70
0
 10
6.5340348858
 20
26.707056572
 10
6.4716457022
 20
26.5677590173
 10
6.4097223712
 20
26.4338057271
 10
6.3484359584
 20
26.3051476095
 10
6.2880797157
 20
26.1819482935
 10
6.2286983638
 20
26.0639383684
 10
6.1700563979
 20
25.9504279178
 10
6.1122456568
 20
25.8413540847
 10
6.0554152887
 20
25.7366979517
 10
5.9993654559
 20
25.6358543617
 10
5.944249885
 20
25.5388074311
 10
5.8901713647
 20
25.4455312005
 10
5.8367952316
 20
25.3554201952
 10
5.7840553933
 20
25.2682653285
 10
5.7321789034
 20
25.1842407726
 10
5.6812402814
 20
25.1033241325
  0
LWPOLYLINE
  5
2A7
100
AcDbEntity
  8
RACCORDO
100
AcDbPolyline
 62
250
  6
CONTINUOUS
 90
3
 70
0
 10
4.8565018615
 20
25.468094058
 10
4.7685888699
 20
25.3130013573
 10
4.7220871642
 20
25.2317102961
  0
LINE
  5
2A8
100
AcDbEntity
  8
RACCORDO
100
AcDbLine
 62
250
  6
CONTINUOUS
 10
5.6812402814
 20
25.1033241325
 11
5.5861578796
 21
24.9468276935
  0
LWPOLYLINE
  5
2A9
100
AcDbEntity
  8
RACCORDO
100
AcDbPolyline
 62
250
  6
CONTINUOUS
 90
51
 70
0
 10
5.5861578796
 20
24.9468276935
 10
5.4831902986
 20
24.7802142088
 10
5.428730482
 20
24.6932108431
 10
5.3720458058
 20
24.603575615
 10
5.3131484019
 20
24.5113596306
 10
5.2520139377
 20
24.4166111016
 10
5.1883685854
 20
24.3191834041
 10
5.1221810797
 20
24.2191324648
 10
5.0534845609
 20
24.1165409054
 10
4.9820983923
 20
24.0113183232
 10
4.9079931141
 20
23.9035102617
 10
4.8311143824
 20
23.7931714537
 10
4.7511999652
 20
23.6802098495
 10
4.6682036816
 20
23.5646810072
 10
4.5820927744
 20
23.4466752698
 10
4.4926151099
 20
23.3261687397
 10
4.3997620259
 20
23.203239001
 10
4.3034494484
 20
23.0779799898
 10
4.2034046136
 20
22.9504445661
 10
4.0996568303
 20
22.8207712254
 10
3.9921492591
 20
22.6890490691
 10
3.880456501
 20
22.5552814544
 10
3.7646548296
 20
22.4196720748
 10
3.6445650432
 20
22.2822683851
 10
3.5194502055
 20
22.1429055993
 10
3.3894693758
 20
22.0017670388
 10
3.2545541482
 20
21.8590324312
 10
3.1137786908
 20
21.7146358454
 10
2.9671728191
 20
21.5687484754
 10
2.8146928639
 20
21.4216318315
 10
2.6554442376
 20
21.2734627643
 10
2.489493711
 20
21.1244469992
 10
2.3167496849
 20
20.9749222793
 10
2.1358707978
 20
20.8253704836
 10
1.9472781815
 20
20.6760268407
 10
1.7510087842
 20
20.5273408062
 10
1.5455797072
 20
20.3802559398
 10
1.3316320364
 20
20.2350977888
 10
1.1095521574
 20
20.0922383412
 10
0.8767864691
 20
19.9530193023
 10
0.6335694403
 20
19.8178771285
 10
0.3799886114
 20
19.6874548963
 10
0.1132943248
 20
19.5637500623
 10
-0.1671372031
 20
19.4467578701
 10
-0.4591548817
 20
19.3377032704
 10
-0.7618402465
 20
19.2406555483
 10
-1.0768215919
 20
19.1562040291
 10
-1.4012391581
 20
19.0847364295
 10
-1.7283451558
 20
19.0299699814
 10
-2.0585361752
 20
18.9930706021
 10
-2.3906607507
 20
18.9729933755
  0
LINE
  5
2AA
100
AcDbEntity
  8
SUPERFICI
100
AcDbLine
 62
250
  6
CONTINUOUS
 10
-0.9364528677
 20
-8.5491556184
 11
-1.0308716414
 21
-8.5741071932
  0
LWPOLYLINE
  5
2AB
100
AcDbEntity
  8
RACCORDO
100
AcDbPolyline
 62
250
  6
CONTINUOUS
 90
18
 70
0
 10
2.0183651523
 20
-6.0476912815
 10
1.9828397404
 20
-6.0463831858
 10
1.9455864494
 20
-6.0488603674
 10
1.9070154092
 20
-6.0541920791
 10
1.8672000383
 20
-6.0622652065
 10
1.826132585
 20
-6.0731227606
 10
1.7841421954
 20
-6.0860841612
 10
1.741304509
 20
-6.1011019333
 10
1.6976425442
 20
-6.1181777917
 10
1.6534395669
 20
-6.1367137989
 10
1.608884368
 20
-6.1566020764
 10
1.5640255587
 20
-6.1778443794
 10
1.5190285497
 20
-6.1999587564
 10
1.4739399648
 20
-6.2229347197
 10
1.4289153849
 20
-6.2467229774
 10
1.3841942549
 20
-6.2708474715
 10
1.3397137301
 20
-6.2952650444
 10
1.2953228957
 20
-6.3202300063
  0
LINE
  5
2AC
100
AcDbEntity
  8
RACCORDO
100
AcDbLine
 62
250
  6
CONTINUOUS
 10
1.4847290082
 20
-9.0062262109
 11
-0.4270969002
 21
-7.9023866373
  0
LINE
  5
2AD
100
AcDbEntity
  8
SUPERFICI
100
AcDbLine
 62
250
  6
CONTINUOUS
 10
1.2738933589
 20
-8.7093409584
 11
-0.3474041263
 21
-7.7732241101
  0
LINE
  5
2AE
100
AcDbEntity
  8
RACCORDO
100
AcDbLine
 62
250
  6
CONTINUOUS
 10
1.7526710655
 20
-6.8439545167
 11
1.1607163069
 21
-6.5021600061
  0
LINE
  5
2AF
100
AcDbEntity
  8
SUPERFICI
100
AcDbLine
 62
250
  6
CONTINUOUS
 10
1.2549592777
 20
-6.4120877712
 11
1.5283238533
 21
-6.5699250511
  0
LINE
  5
2B0
100
AcDbEntity
  8
RACCORDO
100
AcDbLine
 62
250
  6
CONTINUOUS
 10
1.691694462
 20
-6.2169733377
 11
1.6889863565
 21
-6.2153657127
  0
LWPOLYLINE
  5
2B1
100
AcDbEntity
  8
RACCORDO
100
AcDbPolyline
 62
250
  6
CONTINUOUS
 90
10
 70
0
 10
1.4847299544
 20
-9.0062184499
 10
1.5345934876
 20
-9.0361813273
 10
1.5919591304
 20
-9.0590962493
 10
1.6541747145
 20
-9.0739037974
 10
1.7183638459
 20
-9.0799193788
 10
1.7815588883
 20
-9.0768648769
 10
1.8408381645
 20
-9.0648815096
 10
1.8934610342
 20
-9.0445233003
 10
1.9369946001
 20
-9.0167314638
 10
1.9694261885
 20
-8.9827908915
  0
LWPOLYLINE
  5
2B2
100
AcDbEntity
  8
RACCORDO
100
AcDbPolyline
 62
250
  6
CONTINUOUS
 90
10
 70
0
 10
1.7526339807
 20
-6.8439229213
 10
1.8034008574
 20
-6.8745232803
 10
1.8618884675
 20
-6.8978033501
 10
1.9252992228
 20
-6.912649556
 10
1.990600051
 20
-6.9183517331
 10
2.0546674713
 20
-6.9146370968
 10
2.1144369977
 20
-6.9016832919
 10
2.167049724
 20
-6.8801098947
 10
2.2099890717
 20
-6.8509487766
 10
2.2412011603
 20
-6.8155947482
  0
LWPOLYLINE
  5
2B3
100
AcDbEntity
  8
RACCORDO
100
AcDbPolyline
 62
250
  6
CONTINUOUS
 90
14
 70
0
 10
-0.9014690976
 20
-11.4617055917
 10
-0.8483687717
 20
-11.519067858
 10
-0.7925816607
 20
-11.5696141089
 10
-0.7339469251
 20
-11.6133636096
 10
-0.6745264431
 20
-11.6513399177
 10
-0.6146238383
 20
-11.6835030122
 10
-0.5538465588
 20
-11.7098374007
 10
-0.4934606881
 20
-11.7316039959
 10
-0.4337120364
 20
-11.7489450776
 10
-0.374534824
 20
-11.76185276
 10
-0.3164834957
 20
-11.7713021508
 10
-0.2596542777
 20
-11.777414252
 10
-0.2040177785
 20
-11.7801916398
 10
-0.1500201638
 20
-11.7804986025
  0
LWPOLYLINE
  5
2B4
100
AcDbEntity
  8
RACCORDO
100
AcDbPolyline
 62
250
  6
CONTINUOUS
 90
5
 70
0
 10
-1.0664078787
 20
-11.1604109806
 10
-1.0340487714
 20
-11.2468257553
 10
-0.9956834809
 20
-11.3259529279
 10
-0.9514756259
 20
-11.3975687165
 10
-0.9014690976
 20
-11.4617055917
  0
LWPOLYLINE
  5
2B5
100
AcDbEntity
  8
SUPERFICI
100
AcDbPolyline
 62
250
  6
CONTINUOUS
 90
4
 70
0
 10
-1.2983096256
 20
-11.0860055545
 10
-1.2350016622
 20
-11.2590450591
 10
-1.1346048077
 20
-11.4191968852
 10
-1.0007122646
 20
-11.5618788526
  0
LWPOLYLINE
  5
2B6
100
AcDbEntity
  8
SUPERFICI
100
AcDbPolyline
 62
250
  6
CONTINUOUS
 90
5
 70
0
 10
-4.6134412494
 20
-13.0267282422
 10
-4.6090427832
 20
-13.0425347734
 10
-4.5752915152
 20
-13.0882101731
 10
-4.5047931064
 20
-13.1539933912
 10
-4.3938034323
 20
-13.2329031241
  0
LWPOLYLINE
  5
2B7
100
AcDbEntity
  8
SUPERFICI
100
AcDbPolyline
 62
7
  6
CONTINUOUS
 90
7
 70
0
 10
-9.2411532606
 20
25.5082498335
 10
-8.4356858135
 20
19.5456564554
 10
-7.7205297099
 20
14.1656099401
 10
-7.0866172852
 20
9.292294034
 10
-6.5154747712
 20
4.765319684
 10
-5.9544604999
 20
0.1043248839
 10
-5.4015118042
 20
-4.8327657893
  0
LWPOLYLINE
  5
2B8
100
AcDbEntity
  8
SUPERFICI
100
AcDbPolyline
 62
7
  6
CONTINUOUS
 90
7
 70
0
 10
-4.6134412494
 20
-13.0267282422
 10
-4.6081497855
 20
-13.0680153486
 10
-4.5861707132
 20
-13.1519402497
 10
-4.550727307
 20
-13.2295642271
 10
-4.5045343835
 20
-13.2976487811
 10
-4.4504012543
 20
-13.3549061652
 10
-4.4315118681
 20
-13.3711273234
  0
LWPOLYLINE
  5
2B9
100
AcDbEntity
  8
0
100
AcDbPolyline
 62
7
  6
CONTINUOUS
 90
10
 70
0
 10
-6.2420670403
 20
29.5795939187
 10
-6.272806936
 20
29.8809613198
 10
-6.2898353796
 20
30.1911153325
 10
-6.2925382511
 20
30.5081921756
 10
-6.2797046987
 20
30.8309421431
 10
-6.2513949326
 20
31.1563955094
 10
-6.2091389038
 20
31.4804150167
 10
-6.1533404186
 20
31.8006219128
 10
-6.0830837711
 20
32.1158549291
 10
-5.9981353204
 20
32.4242189561
  0
LINE
  5
2BA
100
AcDbEntity
  8
SUPERFICI
100
AcDbLine
 62
7
  6
CONTINUOUS
 10
-3.6130147593
 20
14.6324903553
 11
-3.4025119414
 21
10.8755167501
  0
LINE
  5
2BB
100
AcDbEntity
  8
SUPERFICI
100
AcDbLine
 62
7
  6
CONTINUOUS
 10
-3.8487823155
 20
11.1474612682
 11
-3.9160608672
 21
12.4110244649
  0
LINE
  5
2BC
100
AcDbEntity
  8
SUPERFICI
100
AcDbLine
 62
7
  6
CONTINUOUS
 10
-3.9461502692
 20
12.9835934003
 11
-4.0316627614
 21
14.6342477969
  0
LWPOLYLINE
  5
2BD
100
AcDbEntity
  8
0
100
AcDbPolyline
 62
7
  6
CONTINUOUS
 90
10
 70
0
 10
-3.7961606866
 20
30.6764462477
 10
-3.7999711746
 20
30.8271664347
 10
-3.7962695272
 20
30.9789242414
 10
-3.7848817947
 20
31.130612536
 10
-3.765257922
 20
31.2804138881
 10
-3.7377461009
 20
31.4277979717
 10
-3.703236688
 20
31.5738069951
 10
-3.6615858245
 20
31.718193979
 10
-3.6119714552
 20
31.8591369409
 10
-3.5539168663
 20
31.995419879
  0
LWPOLYLINE
  5
2BE
100
AcDbEntity
  8
0
100
AcDbPolyline
 62
7
  6
CONTINUOUS
 90
16
 70
0
 10
-3.2172425123
 20
28.0010899773
 10
-3.216651028
 20
27.9492290863
 10
-3.2157803706
 20
27.8963618998
 10
-3.214568394
 20
27.8423238592
 10
-3.2129543613
 20
27.7871321966
 10
-3.2109050076
 20
27.7307906593
 10
-3.2083848173
 20
27.6731177916
 10
-3.2053182853
 20
27.6141198374
 10
-3.2016502905
 20
27.5538255739
 10
-3.1973480876
 20
27.4920938889
 10
-3.1923017714
 20
27.4289207753
 10
-3.1864305804
 20
27.3643685484
 10
-3.1797008813
 20
27.2984063895
 10
-3.1719969268
 20
27.2310556629
 10
-3.1631433524
 20
27.1623865551
 10
-3.1529793047
 20
27.0924529631
  0
LWPOLYLINE
  5
2BF
100
AcDbEntity
  8
0
100
AcDbPolyline
 62
7
  6
CONTINUOUS
 90
10
 70
0
 10
-1.1024935644
 20
29.1212626433
 10
-1.1024518804
 20
29.0905323993
 10
-1.1011895163
 20
29.0573871046
 10
-1.0985328932
 20
29.0220372541
 10
-1.0954586915
 20
28.9837785555
 10
-1.0903153104
 20
28.9439688595
 10
-1.0803294091
 20
28.905086589
 10
-1.065952821
 20
28.8670376429
 10
-1.049387782
 20
28.8281923422
 10
-1.0318955555
 20
28.7878095514
  0
LWPOLYLINE
  5
2C0
100
AcDbEntity
  8
0
100
AcDbPolyline
 62
7
  6
CONTINUOUS
 90
4
 70
0
 10
-3.2175296093
 20
28.2450409743
 10
-3.2177479528
 20
28.1507394852
 10
-3.2176650277
 20
28.1019425317
 10
-3.2172425123
 20
28.0010899773
  0
LWPOLYLINE
  5
2C1
100
AcDbEntity
  8
0
100
AcDbPolyline
 62
7
  6
CONTINUOUS
 90
7
 70
0
 10
-1.8473508226
 20
-10.7445894907
 10
-1.8538682517
 20
-11.0226849324
 10
-1.8137893276
 20
-11.2903010956
 10
-1.7258096732
 20
-11.5412753718
 10
-1.5843076499
 20
-11.7730601195
 10
-1.3939410644
 20
-11.9751630426
 10
-1.1826787576
 20
-12.1261462265
  0
LWPOLYLINE
  5
2C2
100
AcDbEntity
  8
0
100
AcDbPolyline
 62
250
  6
CONTINUOUS
 90
10
 70
0
 10
-1.0088570494
 20
33.1358786086
 10
-1.0044688104
 20
33.2470161559
 10
-0.9849535807
 20
33.364083142
 10
-0.9506827792
 20
33.4855419734
 10
-0.9029902581
 20
33.6077555695
 10
-0.8433478204
 20
33.7267678415
 10
-0.7728734395
 20
33.8400822639
 10
-0.6937362
 20
33.9446643841
 10
-0.6084522851
 20
34.0373750052
 10
-0.5178536394
 20
34.1174349741
  0
LWPOLYLINE
  5
2C3
100
AcDbEntity
  8
SUPERFICI
100
AcDbPolyline
 62
250
  6
CONTINUOUS
 90
3
 70
0
 10
-1.3173721749
 20
-10.6907433752
 10
-1.326057091
 20
-10.8966303262
 10
-1.2983096256
 20
-11.0860055545
  0
LWPOLYLINE
  5
2C4
100
AcDbEntity
  8
RACCORDO
100
AcDbPolyline
 62
250
  6
CONTINUOUS
 90
5
 70
0
 10
-1.0990938313
 20
-10.7394205209
 10
-1.10550169
 20
-10.8557650003
 10
-1.1022780546
 20
-10.9647785398
 10
-1.0895465496
 20
-11.0664004526
 10
-1.0664078787
 20
-11.1604109806
  0
LWPOLYLINE
  5
2C5
100
AcDbEntity
  8
0
100
AcDbPolyline
 62
7
  6
CONTINUOUS
 90
10
 70
0
 10
-0.4250529308
 20
26.9400633909
 10
-0.4267901087
 20
26.9161252668
 10
-0.427219209
 20
26.8919787975
 10
-0.4264046073
 20
26.8675888684
 10
-0.4242079075
 20
26.843020099
 10
-0.4209276692
 20
26.8181065436
 10
-0.4171749407
 20
26.7925401404
 10
-0.413073318
 20
26.7662759424
 10
-0.4083813952
 20
26.7394589677
 10
-0.4030474058
 20
26.7121451942
  0
LWPOLYLINE
  5
2C6
100
AcDbEntity
  8
0
100
AcDbPolyline
 62
250
  6
CONTINUOUS
 90
10
 70
0
 10
0.0395826348
 20
35.186616568
 10
0.050258211
 20
35.3009288498
 10
0.0754918411
 20
35.420848129
 10
0.11532476
 20
35.544471518
 10
0.1686122078
 20
35.6680200146
 10
0.2336056919
 20
35.7870163179
 10
0.3085281465
 20
35.8983899729
 10
0.3906884914
 20
35.9991610157
 10
0.4775169036
 20
36.0866775149
 10
0.5683906107
 20
36.1606766839
  0
LINE
  5
2C7
100
AcDbEntity
  8
RACCORDO
100
AcDbLine
 62
7
  6
CONTINUOUS
 10
-0.9228356291
 20
-10.643670054
 11
-0.9174690802
 21
-10.5883901075
  0
LINE
  5
2C8
100
AcDbEntity
  8
RACCORDO
100
AcDbLine
 62
250
  6
CONTINUOUS
 10
-0.8577463175
 20
-8.8264607427
 11
-1.0990938313
 21
-10.7394205209
  0
LINE
  5
2C9
100
AcDbEntity
  8
RACCORDO
100
AcDbLine
 62
250
  6
CONTINUOUS
 10
-0.8268498733
 20
-8.5863067602
 11
-0.8577463175
 21
-8.8264607427
  0
LINE
  5
2CA
100
AcDbEntity
  8
RACCORDO
100
AcDbLine
 62
7
  6
CONTINUOUS
 10
-0.9175264715
 20
-10.5882665094
 11
-0.7584165716
 21
-9.3547252298
  0
LINE
  5
2CB
100
AcDbEntity
  8
RACCORDO
100
AcDbLine
 62
7
  6
CONTINUOUS
 10
-0.7584165716
 20
-9.3547252298
 11
-0.6377707529
 21
-8.4340611834
  0
LINE
  5
2CC
100
AcDbEntity
  8
SUPERFICI
100
AcDbLine
 62
7
  6
CONTINUOUS
 10
-1.8473352611
 20
-10.7445984757
 11
-1.6268169983
 21
-9.1025599737
  0
LINE
  5
2CD
100
AcDbEntity
  8
SUPERFICI
100
AcDbLine
 62
7
  6
CONTINUOUS
 10
-1.316982754
 20
-10.6910648903
 11
-1.2227151179
 21
-9.9855066623
  0
LINE
  5
2CE
100
AcDbEntity
  8
SUPERFICI
100
AcDbLine
 62
7
  6
CONTINUOUS
 10
-1.1250917309
 20
-9.2794092777
 11
-1.0308716414
 21
-8.5741071932
  0
LINE
  5
2CF
100
AcDbEntity
  8
SUPERFICI
100
AcDbLine
 62
7
  6
CONTINUOUS
 10
-1.6268169983
 20
-9.1025599737
 11
-1.5630555361
 21
-8.6318143438
  0
LINE
  5
2D0
100
AcDbEntity
  8
SUPERFICI
100
AcDbLine
 62
7
  6
CONTINUOUS
 10
-1.2227151179
 20
-9.9855066623
 11
-1.1250917309
 21
-9.2794092777
  0
LINE
  5
2D1
100
AcDbEntity
  8
0
100
AcDbLine
 62
7
  6
CONTINUOUS
 10
-1.4966013495
 20
-8.3467024746
 11
-1.5629788509
 21
-8.6318601747
  0
LWPOLYLINE
  5
2D2
100
AcDbEntity
  8
RACCORDO
100
AcDbPolyline
 62
250
  6
CONTINUOUS
 90
5
 70
0
 10
2.1426518295
 20
-6.0941321514
 10
2.1146182711
 20
-6.07543678
 10
2.0845262636
 20
-6.0616061001
 10
2.0522583079
 20
-6.0527420867
 10
2.0183651523
 20
-6.0476912815
  0
LWPOLYLINE
  5
2D3
100
AcDbEntity
  8
RACCORDO
100
AcDbPolyline
 62
7
  6
CONTINUOUS
 90
4
 70
0
 10
-0.8832253173
 20
-10.9416030552
 10
-0.9098901289
 20
-10.8484408196
 10
-0.923139459
 20
-10.748674421
 10
-0.9228356291
 20
-10.643670054
  0
LWPOLYLINE
  5
2D4
100
AcDbEntity
  8
RACCORDO
100
AcDbPolyline
 62
250
  6
CONTINUOUS
 90
8
 70
0
 10
-8.8661534338
 20
24.3976345256
 10
-8.9513902936
 20
24.7511913193
 10
-9.0214831517
 20
25.0972106948
 10
-9.0787534589
 20
25.4331158355
 10
-9.1238766684
 20
25.755673989
 10
-9.1581017926
 20
26.0656880543
 10
-9.1842762452
 20
26.3674118151
 10
-9.2032499804
 20
26.6615016398
  0
LWPOLYLINE
  5
2D5
100
AcDbEntity
  8
0
100
AcDbPolyline
 62
7
  6
CONTINUOUS
 90
10
 70
0
 10
-6.2420670403
 20
29.5795939187
 10
-6.2228123623
 20
29.4824013866
 10
-6.1924553798
 20
29.3977140885
 10
-6.1512234356
 20
29.3261589004
 10
-6.0968175294
 20
29.2662130653
 10
-6.0318472727
 20
29.220469303
 10
-5.9640657172
 20
29.1946901517
 10
-5.8962611229
 20
29.189945711
 10
-5.8260231215
 20
29.2035702198
 10
-5.7533580952
 20
29.2347470059
  0
LWPOLYLINE
  5
2D6
100
AcDbEntity
  8
SUPERFICI
100
AcDbPolyline
 62
7
  6
CONTINUOUS
 90
9
 70
0
 10
-3.6131069717
 20
14.6334049292
 10
-3.620777089
 20
14.6778221995
 10
-3.6346972139
 20
14.7211103058
 10
-3.6548484249
 20
14.7632881333
 10
-3.6820527196
 20
14.8054760929
 10
-3.7154253744
 20
14.8466178677
 10
-3.7523947164
 20
14.8834604455
 10
-3.7920941664
 20
14.914929421
 10
-3.8353421729
 20
14.9421488136
  0
LWPOLYLINE
  5
2D7
100
AcDbEntity
  8
0
100
AcDbPolyline
 62
7
  6
CONTINUOUS
 90
5
 70
0
 10
-3.2290551021
 20
28.4174065858
 10
-3.2243174396
 20
28.3763981359
 10
-3.2208049453
 20
28.3340140121
 10
-3.2184646875
 20
28.2902539728
 10
-3.2175296093
 20
28.2450409743
  0
LINE
  5
2D8
100
AcDbEntity
  8
SUPERFICI
100
AcDbLine
 62
7
  6
CONTINUOUS
 10
2.0843058493
 20
-10.9972457697
 11
2.3793278488
 21
-7.9677769468
  0
LWPOLYLINE
  5
2D9
100
AcDbEntity
  8
RACCORDO
100
AcDbPolyline
 62
250
  6
CONTINUOUS
 90
12
 70
0
 10
2.2411596306
 20
-6.8155806063
 10
2.2529480561
 20
-6.697804475
 10
2.2603610962
 20
-6.5915414678
 10
2.2632967289
 20
-6.4968325433
 10
2.2610435347
 20
-6.4145803034
 10
2.253926874
 20
-6.3439296835
 10
2.2434058009
 20
-6.2822716047
 10
2.2294904728
 20
-6.2294300442
 10
2.2118120564
 20
-6.1855440289
 10
2.191460557
 20
-6.1484485883
 10
2.1685020747
 20
-6.117929976
 10
2.1426518295
 20
-6.0941321514
  0
LINE
  5
2DA
100
AcDbEntity
  8
SUPERFICI
100
AcDbLine
 62
7
  6
CONTINUOUS
 10
2.3793278488
 20
-7.9677769468
 11
2.9014045461
 21
-3.2532178631
  0
LINE
  5
2DB
100
AcDbEntity
  8
SUPERFICI
100
AcDbLine
 62
250
  6
CONTINUOUS
 10
2.0810436554
 20
-11.0262166591
 11
2.084307349
 21
-10.9971502531
  0
LINE
  5
2DC
100
AcDbEntity
  8
SUPERFICI
100
AcDbLine
 62
7
  6
CONTINUOUS
 10
2.5113059338
 20
-6.1684291962
 11
2.2690789822
 21
-8.3041386307
  0
LINE
  5
2DD
100
AcDbEntity
  8
SUPERFICI
100
AcDbLine
 62
250
  6
CONTINUOUS
 10
1.2738933589
 20
-8.7093409584
 11
1.5283238533
 21
-6.5699250511
  0
LWPOLYLINE
  5
2DE
100
AcDbEntity
  8
0
100
AcDbPolyline
 62
7
  6
CONTINUOUS
 90
8
 70
0
 10
2.51123785
 20
-6.1683935401
 10
2.540718895
 20
-5.9205777772
 10
2.5561051762
 20
-5.6922810612
 10
2.5551983122
 20
-5.4892265413
 10
2.5408232736
 20
-5.3203287252
 10
2.507436011
 20
-5.1890826511
 10
2.4408785735
 20
-5.0938818808
 10
2.4017751544
 20
-5.0655706972
  0
LWPOLYLINE
  5
2DF
100
AcDbEntity
  8
RACCORDO
100
AcDbPolyline
 62
7
  6
CONTINUOUS
 90
12
 70
0
 10
7.5289710971
 20
30.2058754787
 10
7.6240913017
 20
30.9944827169
 10
7.6888291618
 20
32.2911227899
 10
7.6380809106
 20
33.5484128512
 10
7.4758328107
 20
34.7490367754
 10
7.2058606522
 20
35.8829077613
 10
6.8371016464
 20
36.9268942517
 10
6.3869429861
 20
37.8566288352
 10
5.8629083597
 20
38.6785043614
 10
5.2553576559
 20
39.4123884463
 10
4.5634419969
 20
40.052479824
 10
3.756063222
 20
40.6071573874
  0
LINE
  5
2E0
100
AcDbEntity
  8
SUPERFICI
100
AcDbLine
 62
7
  6
CONTINUOUS
 10
2.9014045461
 20
-3.2532178631
 11
3.4920529744
 21
1.5314222118
  0
LINE
  5
2E1
100
AcDbEntity
  8
RACCORDO
100
AcDbLine
 62
250
  6
CONTINUOUS
 10
1.4847290082
 20
-9.0062262109
 11
1.6622652407
 21
-7.5665612543
  0
LINE
  5
2E2
100
AcDbEntity
  8
RACCORDO
100
AcDbLine
 62
250
  6
CONTINUOUS
 10
1.6622652407
 20
-7.5665612543
 11
1.7526710655
 21
-6.8439545167
  0
LINE
  5
2E3
100
AcDbEntity
  8
RACCORDO
100
AcDbLine
 62
250
  6
CONTINUOUS
 10
1.9694261962
 20
-8.9827908943
 11
2.149600181
 21
-7.5397768965
  0
LINE
  5
2E4
100
AcDbEntity
  8
RACCORDO
100
AcDbLine
 62
250
  6
CONTINUOUS
 10
2.149600181
 20
-7.5397768965
 11
2.2411596306
 21
-6.8155806063
  0
LINE
  5
2E5
100
AcDbEntity
  8
SUPERFICI
100
AcDbLine
 62
7
  6
CONTINUOUS
 10
3.4920529744
 20
1.5314222118
 11
4.1249743657
 21
6.3219859815
  0
LINE
  5
2E6
100
AcDbEntity
  8
SUPERFICI
100
AcDbLine
 62
7
  6
CONTINUOUS
 10
4.1249743657
 20
6.3219859815
 11
4.8006448776
 21
11.2378437748
  0
LINE
  5
2E7
100
AcDbEntity
  8
SUPERFICI
100
AcDbLine
 62
250
  6
CONTINUOUS
 10
0.194444556
 20
-13.8455411065
 11
0.4220058208
 21
-12.2301623904
  0
LINE
  5
2E8
100
AcDbEntity
  8
RACCORDO
100
AcDbLine
 62
250
  6
CONTINUOUS
 10
0.4220058208
 20
-12.2301623904
 11
0.5129885187
 21
-11.5843076844
  0
LINE
  5
2E9
100
AcDbEntity
  8
RACCORDO
100
AcDbLine
 62
250
  6
CONTINUOUS
 10
1.2509417268
 20
-6.3458330822
 11
5.6812402814
 21
25.1033241325
  0
LWPOLYLINE
  5
2EA
100
AcDbEntity
  8
SUPERFICI
100
AcDbPolyline
 62
7
  6
CONTINUOUS
 90
3
 70
0
 10
4.8006448776
 20
11.2378437748
 10
5.5519673318
 20
16.5595530323
 10
6.3884406519
 20
22.3786292089
  0
LWPOLYLINE
  5
2EB
100
AcDbEntity
  8
RACCORDO
100
AcDbPolyline
 62
250
  6
CONTINUOUS
 90
14
 70
0
 10
1.7526667978
 20
-6.843952054
 10
1.7671382204
 20
-6.7447638592
 10
1.7762316854
 20
-6.6553472185
 10
1.7809171812
 20
-6.5757888694
 10
1.7826238143
 20
-6.5065678478
 10
1.7817221566
 20
-6.446961783
 10
1.7773457263
 20
-6.395237393
 10
1.7699509267
 20
-6.3509621322
 10
1.7603787446
 20
-6.3138989419
 10
1.7480458009
 20
-6.2827618298
 10
1.7332590692
 20
-6.2571214245
 10
1.7166105004
 20
-6.2367638379
 10
1.6977468722
 20
-6.2209010164
 10
1.691694462
 20
-6.2169733377
  0
LINE
  5
2EC
100
AcDbEntity
  8
SUPERFICI
100
AcDbLine
 62
7
  6
CONTINUOUS
 10
6.3884406519
 20
22.3786292089
 11
7.5238575437
 21
30.1713855336
  0
LWPOLYLINE
  5
2ED
100
AcDbEntity
  8
RACCORDO
100
AcDbPolyline
 62
250
  6
CONTINUOUS
 90
10
 70
0
 10
7.5289881766
 20
30.2059357165
 10
7.5142279954
 20
30.1080503169
 10
7.4350127409
 20
29.645008047
 10
7.3416819996
 20
29.189798978
 10
7.2345583957
 20
28.7422646618
 10
7.1141830166
 20
28.3028756909
 10
6.9828284347
 20
27.8790067968
 10
6.8420017678
 20
27.4729477948
 10
6.6920772116
 20
27.0823288246
 10
6.5340348858
 20
26.707056572
  0
LWPOLYLINE
  5
2EE
100
AcDbEntity
  8
SUPERFICI
100
AcDbPolyline
 62
250
  6
CONTINUOUS
 90
13
 70
0
 10
1.2738921254
 20
-8.7093436142
 10
1.2475280409
 20
-8.8761848163
 10
1.2103149877
 20
-9.0599158288
 10
1.161358275
 20
-9.2581355177
 10
1.1017452693
 20
-9.4701416194
 10
1.0295125462
 20
-9.6903123999
 10
0.9406010126
 20
-9.9082749889
 10
0.8363068009
 20
-10.1199384696
 10
0.7187841401
 20
-10.3216620892
 10
0.5871300798
 20
-10.5044310999
 10
0.4432147803
 20
-10.6637674418
 10
0.291053431
 20
-10.7991335947
 10
0.1335576707
 20
-10.9086398863
  0
LINE
  5
2EF
100
AcDbEntity
  8
SUPERFICI
100
AcDbLine
 62
250
  6
CONTINUOUS
 10
1.5582805372
 20
-6.4014468714
 11
1.5283162031
 21
-6.569919457
  0
LINE
  5
2F0
100
AcDbEntity
  8
RACCORDO
100
AcDbLine
 62
250
  6
CONTINUOUS
 10
-0.8085118187
 20
-8.4882939543
 11
-0.8268498733
 21
-8.5863067602
  0
LINE
  5
2F1
100
AcDbEntity
  8
RACCORDO
100
AcDbLine
 62
7
  6
CONTINUOUS
 10
-0.6373915234
 20
-8.4312103541
 11
-0.5945718579
 21
-8.2467261996
  0
LWPOLYLINE
  5
2F2
100
AcDbEntity
  8
RACCORDO
100
AcDbPolyline
 62
250
  6
CONTINUOUS
 90
8
 70
0
 10
1.8333315697
 20
-9.631538911
 10
1.861706613
 20
-9.5287074035
 10
1.8869946318
 20
-9.4278825406
 10
1.9095256148
 20
-9.3290233719
 10
1.9289968586
 20
-9.2347862532
 10
1.9453620837
 20
-9.1460823008
 10
1.9588249122
 20
-9.0620730629
 10
1.9694261962
 20
-8.9827908943
  0
LINE
  5
2F3
100
AcDbEntity
  8
SUPERFICI
100
AcDbLine
 62
250
  6
CONTINUOUS
 10
-0.9523593923
 20
-8.3129347782
 11
-1.0314212099
 21
-8.5735765553
  0
LWPOLYLINE
  5
2F4
100
AcDbEntity
  8
RACCORDO
100
AcDbPolyline
 62
250
  6
CONTINUOUS
 90
4
 70
0
 10
-0.9174690802
 20
-10.5883901075
 10
-0.9301245333
 20
-10.6298095688
 10
-0.956052141
 20
-10.6668140338
 10
-0.9941258344
 20
-10.6983519875
  0
LWPOLYLINE
  5
2F5
100
AcDbEntity
  8
RACCORDO
100
AcDbPolyline
 62
250
  6
CONTINUOUS
 90
4
 70
0
 10
-0.6377707529
 20
-8.4340611834
 10
-0.6517749029
 20
-8.4779259992
 10
-0.6790624566
 20
-8.5151448557
 10
-0.7186947091
 20
-8.5465654311
  0
LWPOLYLINE
  5
2F6
100
AcDbEntity
  8
SUPERFICI
100
AcDbPolyline
 62
250
  6
CONTINUOUS
 90
5
 70
0
 10
-1.0084160916
 20
-10.4393014939
 10
-1.0323786103
 20
-10.5129779198
 10
-1.0777870757
 20
-10.5744900052
 10
-1.1427197454
 20
-10.6259582922
 10
-1.2238006581
 20
-10.6653248974
  0
LWPOLYLINE
  5
2F7
100
AcDbEntity
  8
SUPERFICI
100
AcDbPolyline
 62
250
  6
CONTINUOUS
 90
5
 70
0
 10
-0.713931286
 20
-8.3211969605
 10
-0.740892343
 20
-8.397327015
 10
-0.787613261
 20
-8.4590019406
 10
-0.8539702556
 20
-8.5102891837
 10
-0.9364528677
 20
-8.5491556184
  0
LWPOLYLINE
  5
2F8
100
AcDbEntity
  8
RACCORDO
100
AcDbPolyline
 62
7
  6
CONTINUOUS
 90
5
 70
0
 10
-0.5945718579
 20
-8.2467261996
 10
-0.49523235
 20
-8.0128175643
 10
-0.3442631373
 20
-7.7681333341
 10
-0.1520282543
 20
-7.5258358334
 10
0.0745970179
 20
-7.2882621133
  0
LWPOLYLINE
  5
2F9
100
AcDbEntity
  8
SUPERFICI
100
AcDbPolyline
 62
250
  6
CONTINUOUS
 90
3
 70
0
 10
-0.7276328487
 20
-7.8435260567
 10
-0.8511029277
 20
-8.0700355385
 10
-0.9523593923
 20
-8.3129347782
  0
LWPOLYLINE
  5
2FA
100
AcDbEntity
  8
RACCORDO
100
AcDbPolyline
 62
250
  6
CONTINUOUS
 90
7
 70
0
 10
-0.586194433
 20
-7.9579010491
 10
-0.6336967422
 20
-8.0389257572
 10
-0.6782444839
 20
-8.1232073776
 10
-0.7195361606
 20
-8.2105441493
 10
-0.7552677104
 20
-8.3005242094
 10
-0.784660581
 20
-8.3930413137
 10
-0.8085118187
 20
-8.4882939543
  0
LWPOLYLINE
  5
2FB
100
AcDbEntity
  8
0
100
AcDbPolyline
 62
7
  6
CONTINUOUS
 90
4
 70
0
 10
-1.0345326274
 20
-7.4736236711
 10
-1.2326338671
 20
-7.7593303654
 10
-1.3860526497
 20
-8.0539980971
 10
-1.4966013495
 20
-8.3467024746
  0
LWPOLYLINE
  5
2FC
100
AcDbEntity
  8
SUPERFICI
100
AcDbPolyline
 62
250
  6
CONTINUOUS
 90
3
 70
0
 10
-0.4185141244
 20
-7.4427592839
 10
-0.5837095151
 20
-7.6363768512
 10
-0.7276328487
 20
-7.8435260567
  0
LWPOLYLINE
  5
2FD
100
AcDbEntity
  8
RACCORDO
100
AcDbPolyline
 62
250
  6
CONTINUOUS
 90
7
 70
0
 10
-0.254924356
 20
-7.5243662206
 10
-0.3150535354
 20
-7.5925830052
 10
-0.3730051773
 20
-7.6615664967
 10
-0.4287610316
 20
-7.7316588283
 10
-0.4827228647
 20
-7.8042777681
 10
-0.535418417
 20
-7.8798047713
 10
-0.586194433
 20
-7.9579010491
  0
LWPOLYLINE
  5
2FE
100
AcDbEntity
  8
0
100
AcDbPolyline
 62
7
  6
CONTINUOUS
 90
6
 70
0
 10
0.3859451767
 20
-6.1200908772
 10
0.0677071869
 20
-6.3764819824
 10
-0.2454909638
 20
-6.6420714716
 10
-0.535338738
 20
-6.9185455016
 10
-0.7980541854
 20
-7.1969088304
 10
-1.0345326274
 20
-7.4736236711
  0
LINE
  5
2FF
100
AcDbEntity
  8
0
100
AcDbLine
 62
7
  6
CONTINUOUS
 10
0.7034661844
 20
-5.87757313
 11
0.3859451767
 21
-6.1200908772
  0
LWPOLYLINE
  5
300
100
AcDbEntity
  8
SUPERFICI
100
AcDbPolyline
 62
7
  6
CONTINUOUS
 90
10
 70
0
 10
-6.741896524
 20
12.4647533177
 10
-6.774531382
 20
12.500569663
 10
-6.8049265835
 20
12.5413689406
 10
-6.8331624613
 20
12.5871227176
 10
-6.8601860026
 20
12.6396111355
 10
-6.8851796203
 20
12.6970093928
 10
-6.9056256976
 20
12.7538685912
 10
-6.9207630958
 20
12.8083493681
 10
-6.9315218217
 20
12.8622407978
 10
-6.9379383468
 20
12.9155330191
  0
LWPOLYLINE
  5
301
100
AcDbEntity
  8
SUPERFICI
100
AcDbPolyline
 62
7
  6
CONTINUOUS
 90
3
 70
0
 10
-3.9160619169
 20
12.4110238588
 10
-4.1041330688
 20
12.6504317534
 10
-4.2904105534
 20
12.8946686465
  0
LWPOLYLINE
  5
302
100
AcDbEntity
  8
SUPERFICI
100
AcDbPolyline
 62
7
  6
CONTINUOUS
 90
8
 70
0
 10
-4.2904105534
 20
12.8946686465
 10
-4.4748943707
 20
13.1437345382
 10
-4.6576079704
 20
13.3977118944
 10
-4.8385279028
 20
13.6565182491
 10
-5.017583819
 20
13.9199062048
 10
-5.1947522694
 20
14.1877932956
 10
-5.3700567035
 20
14.4602619872
 10
-5.5434971213
 20
14.7373122797
  0
LWPOLYLINE
  5
303
100
AcDbEntity
  8
SUPERFICI
100
AcDbPolyline
 62
7
  6
CONTINUOUS
 90
7
 70
0
 10
-5.0044514245
 20
14.4348790367
 10
-4.832159021
 20
14.1821741413
 10
-4.6581924812
 20
13.9336388024
 10
-4.4826028957
 20
13.6894914111
 10
-4.3054072947
 20
13.4498047643
 10
-4.126588648
 20
13.2145060651
 10
-3.9461469556
 20
12.9835953135
  0
LWPOLYLINE
  5
304
100
AcDbEntity
  8
SUPERFICI
100
AcDbPolyline
 62
7
  6
CONTINUOUS
 90
3
 70
0
 10
-5.3439797625
 20
14.9526519031
 10
-5.1750526617
 20
14.6916806917
 10
-5.0044514245
 20
14.4348790367
  0
LINE
  5
305
100
AcDbEntity
  8
SUPERFICI
100
AcDbLine
 62
7
  6
CONTINUOUS
 10
-5.5112327272
 20
15.2177926712
 11
-5.3439797625
 21
14.9526519031
  0
LINE
  5
306
100
AcDbEntity
  8
0
100
AcDbLine
 62
7
  6
CONTINUOUS
 10
-3.0444887429
 20
26.7085481992
 11
-2.8058683631
 21
25.9021430508
  0
LWPOLYLINE
  5
307
100
AcDbEntity
  8
0
100
AcDbPolyline
 62
7
  6
CONTINUOUS
 90
3
 70
0
 10
-3.1529793047
 20
27.0924529631
 10
-3.1000460294
 20
26.9018076445
 10
-3.0444887429
 20
26.7085481992
  0
LWPOLYLINE
  5
308
100
AcDbEntity
  8
0
100
AcDbPolyline
 62
7
  6
CONTINUOUS
 90
3
 70
0
 10
-2.5425489119
 20
28.2571044323
 10
-2.6116245853
 20
28.5073337617
 10
-2.6712409554
 20
28.75245223
  0
LWPOLYLINE
  5
309
100
AcDbEntity
  8
SUPERFICI
100
AcDbPolyline
 62
7
  6
CONTINUOUS
 90
7
 70
0
 10
-0.4030474058
 20
26.7121451942
 10
-0.3946171919
 20
26.6709525986
 10
-0.3836329145
 20
26.6291527462
 10
-0.3702760493
 20
26.5868124899
 10
-0.3547432759
 20
26.5439513481
 10
-0.3372363462
 20
26.5006001749
 10
-0.3179631122
 20
26.4567919444
  0
LWPOLYLINE
  5
30A
100
AcDbEntity
  8
RACCORDO
100
AcDbPolyline
 62
250
  6
CONTINUOUS
 90
4
 70
0
 10
-0.0601147307
 20
-7.3232631848
 10
-0.1278169321
 20
-7.3902857128
 10
-0.1926120652
 20
-7.4571171429
 10
-0.254924356
 20
-7.5243662206
  0
LINE
  5
30B
100
AcDbEntity
  8
RACCORDO
100
AcDbLine
 62
7
  6
CONTINUOUS
 10
0.0745970179
 20
-7.2882621133
 11
0.3241711961
 21
-7.0622250489
  0
LWPOLYLINE
  5
30C
100
AcDbEntity
  8
SUPERFICI
100
AcDbPolyline
 62
250
  6
CONTINUOUS
 90
4
 70
0
 10
0.2260196871
 20
-6.8244893859
 10
-0.0119618994
 20
-7.0390461119
 10
-0.2285716042
 20
-7.2475325749
 10
-0.4185141244
 20
-7.4427592839
  0
LWPOLYLINE
  5
30D
100
AcDbEntity
  8
RACCORDO
100
AcDbPolyline
 62
250
  6
CONTINUOUS
 90
4
 70
0
 10
0.1527420945
 20
-7.1276253148
 10
0.0807255395
 20
-7.1913832496
 10
0.0098424125
 20
-7.2565722113
 10
-0.0601147307
 20
-7.3232631848
  0
LWPOLYLINE
  5
30E
100
AcDbEntity
  8
RACCORDO
100
AcDbPolyline
 62
250
  6
CONTINUOUS
 90
3
 70
0
 10
0.2973295956
 20
-7.0054834495
 10
0.2255883243
 20
-7.0652535448
 10
0.1527420945
 20
-7.1276253148
  0
LWPOLYLINE
  5
30F
100
AcDbEntity
  8
RACCORDO
100
AcDbPolyline
 62
7
  6
CONTINUOUS
 90
5
 70
0
 10
0.3241711961
 20
-7.0622250489
 10
0.5735425803
 20
-6.8617978043
 10
0.8069182715
 20
-6.6925594694
 10
1.0211724845
 20
-6.5509041289
 10
1.1916348216
 20
-6.4478131853
  0
LWPOLYLINE
  5
310
100
AcDbEntity
  8
RACCORDO
100
AcDbPolyline
 62
250
  6
CONTINUOUS
 90
5
 70
0
 10
1.1923309679
 20
-6.4474024928
 10
1.2134295293
 20
-6.4306829412
 10
1.2307570839
 20
-6.4076230235
 10
1.2433651098
 20
-6.3791026229
 10
1.250939753
 20
-6.3458317226
  0
LWPOLYLINE
  5
311
100
AcDbEntity
  8
SUPERFICI
100
AcDbPolyline
 62
250
  6
CONTINUOUS
 90
3
 70
0
 10
0.7365644044
 20
-6.4225398767
 10
0.4772482933
 20
-6.6174271208
 10
0.2260196871
 20
-6.8244893859
  0
LWPOLYLINE
  5
312
100
AcDbEntity
  8
RACCORDO
100
AcDbPolyline
 62
250
  6
CONTINUOUS
 90
6
 70
0
 10
0.6281548605
 20
-6.7510364054
 10
0.56700935
 20
-6.7956327232
 10
0.5033565084
 20
-6.8433584903
 10
0.4367375894
 20
-6.8945189685
 10
0.367678159
 20
-6.9486618861
 10
0.2973295956
 20
-7.0054834495
  0
LINE
  5
313
100
AcDbEntity
  8
SUPERFICI
100
AcDbLine
 62
250
  6
CONTINUOUS
 10
1.001710141
 20
-6.2347585702
 11
0.7365644044
 21
-6.4225398767
  0
LINE
  5
314
100
AcDbEntity
  8
SUPERFICI
100
AcDbLine
 62
250
  6
CONTINUOUS
 10
1.2678341748
 20
-6.0547489263
 11
1.001710141
 21
-6.2347585702
  0
LWPOLYLINE
  5
315
100
AcDbEntity
  8
RACCORDO
100
AcDbPolyline
 62
250
  6
CONTINUOUS
 90
8
 70
0
 10
0.9972696232
 20
-6.5001692037
 10
0.9501197573
 20
-6.5304901448
 10
0.9013986083
 20
-6.5622806732
 10
0.8507574363
 20
-6.5960056028
 10
0.7981669163
 20
-6.6315807838
 10
0.7436782827
 20
-6.6689988486
 10
0.6870395849
 20
-6.7088333256
 10
0.6281548605
 20
-6.7510364054
  0
LWPOLYLINE
  5
316
100
AcDbEntity
  8
RACCORDO
100
AcDbPolyline
 62
250
  6
CONTINUOUS
 90
6
 70
0
 10
1.2112773199
 20
-6.3688825044
 10
1.1707716886
 20
-6.3929136088
 10
1.1292778614
 20
-6.4179886827
 10
1.0866896833
 20
-6.4440749025
 10
1.0427950795
 20
-6.4713436574
 10
0.9972696232
 20
-6.5001692037
  0
LINE
  5
317
100
AcDbEntity
  8
RACCORDO
100
AcDbLine
 62
250
  6
CONTINUOUS
 10
1.1916348216
 20
-6.4478131853
 11
1.1923309679
 21
-6.4474024928
  0
LINE
  5
318
100
AcDbEntity
  8
RACCORDO
100
AcDbLine
 62
250
  6
CONTINUOUS
 10
1.2953228957
 20
-6.3202300063
 11
1.2112773199
 21
-6.3688825044
  0
LWPOLYLINE
  5
319
100
AcDbEntity
  8
RACCORDO
100
AcDbPolyline
 62
7
  6
CONTINUOUS
 90
3
 70
0
 10
1.1923321338
 20
-6.4474044773
 10
1.277952946
 20
-6.3991211792
 10
1.4332841973
 20
-6.3185488401
  0
LWPOLYLINE
  5
31A
100
AcDbEntity
  8
RACCORDO
100
AcDbPolyline
 62
250
  6
CONTINUOUS
 90
3
 70
0
 10
-0.9941258344
 20
-10.6983519875
 10
-1.0425600014
 20
-10.7229444
 10
-1.0990831325
 20
-10.7394379771
  0
LWPOLYLINE
  5
31B
100
AcDbEntity
  8
RACCORDO
100
AcDbPolyline
 62
250
  6
CONTINUOUS
 90
3
 70
0
 10
-0.7186947091
 20
-8.5465654311
 10
-0.7687615294
 20
-8.570673368
 10
-0.8268498783
 20
-8.5863067513
  0
LWPOLYLINE
  5
31C
100
AcDbEntity
  8
RACCORDO
100
AcDbPolyline
 62
7
  6
CONTINUOUS
 90
5
 70
0
 10
1.4332841973
 20
-6.3185488401
 10
1.5581092106
 20
-6.263857509
 10
1.6461608612
 20
-6.2348654858
 10
1.690189573
 20
-6.2256127953
 10
1.694300371
 20
-6.2248722679
  0
LWPOLYLINE
  5
31D
100
AcDbEntity
  8
SUPERFICI
100
AcDbPolyline
 62
7
  6
CONTINUOUS
 90
6
 70
0
 10
-3.6958224302
 20
10.7047143023
 10
-3.6393220261
 20
10.6908565713
 10
-3.5880227054
 20
10.6858155345
 10
-3.5419907012
 20
10.6895269014
 10
-3.50042303
 20
10.7026101198
 10
-3.4899182663
 20
10.7077612272
  0
LWPOLYLINE
  5
31E
100
AcDbEntity
  8
SUPERFICI
100
AcDbPolyline
 62
7
  6
CONTINUOUS
 90
3
 70
0
 10
-3.6974758802
 20
10.7052678593
 10
-3.8943186913
 20
10.7777664643
 10
-4.0891565084
 20
10.8537718124
  0
LWPOLYLINE
  5
31F
100
AcDbEntity
  8
SUPERFICI
100
AcDbPolyline
 62
7
  6
CONTINUOUS
 90
8
 70
0
 10
-4.0891565084
 20
10.8537718124
 10
-4.281989056
 20
10.9332901512
 10
-4.4730459435
 20
11.01637674
 10
-4.6620969678
 20
11.1029893672
 10
-4.8484521557
 20
11.1929866941
 10
-5.0318813438
 20
11.2863243071
 10
-5.2126141339
 20
11.3830563738
 10
-5.3906502269
 20
11.4831880003
  0
LWPOLYLINE
  5
320
100
AcDbEntity
  8
SUPERFICI
100
AcDbPolyline
 62
7
  6
CONTINUOUS
 90
4
 70
0
 10
-4.9191762582
 20
11.6146079651
 10
-4.5758775656
 20
11.4499214611
 10
-4.2190798916
 20
11.2942057183
 10
-3.8487832364
 20
11.1474607365
  0
LWPOLYLINE
  5
321
100
AcDbEntity
  8
SUPERFICI
100
AcDbPolyline
 62
7
  6
CONTINUOUS
 90
3
 70
0
 10
-5.5666358688
 20
11.9716781067
 10
-5.2496555542
 20
11.7886576554
 10
-4.9191762582
 20
11.6146079651
  0
LWPOLYLINE
  5
322
100
AcDbEntity
  8
SUPERFICI
100
AcDbPolyline
 62
7
  6
CONTINUOUS
 90
10
 70
0
 10
-5.390650659
 20
11.4831877776
 10
-5.5640470234
 20
11.5859696212
 10
-5.7315784444
 20
11.6903211239
 10
-5.8932449315
 20
11.7962370004
 10
-6.0491251247
 20
11.9038404898
 10
-6.1991404122
 20
12.0129982616
 10
-6.3430549839
 20
12.123318796
 10
-6.4807903169
 20
12.2346666317
 10
-6.6124251215
 20
12.3471639848
 10
-6.7379594961
 20
12.4608045207
  0
LWPOLYLINE
  5
323
100
AcDbEntity
  8
SUPERFICI
100
AcDbPolyline
 62
7
  6
CONTINUOUS
 90
3
 70
0
 10
-6.1533037065
 20
12.3607070414
 10
-5.8680784479
 20
12.1624920438
 10
-5.5666358688
 20
11.9716781067
  0
LWPOLYLINE
  5
324
100
AcDbEntity
  8
SUPERFICI
100
AcDbPolyline
 62
7
  6
CONTINUOUS
 90
6
 70
0
 10
-6.994538347
 20
16.7618758348
 10
-7.0255019863
 20
16.7840109957
 10
-7.0532250978
 20
16.7979605136
 10
-7.077762973
 20
16.8037061181
 10
-7.0996273322
 20
16.8008691597
 10
-7.111249883
 20
16.7952082785
  0
LWPOLYLINE
  5
325
100
AcDbEntity
  8
SUPERFICI
100
AcDbPolyline
 62
7
  6
CONTINUOUS
 90
4
 70
0
 10
-6.7202191073
 20
16.5353760976
 10
-6.5748190413
 20
16.4235453758
 10
-6.423990251
 20
16.3126413752
 10
-6.2677813098
 20
16.202755387
  0
LINE
  5
326
100
AcDbEntity
  8
SUPERFICI
100
AcDbLine
 62
7
  6
CONTINUOUS
 10
-6.8602391574
 20
16.6482342692
 11
-6.7202191073
 21
16.5353760976
  0
LWPOLYLINE
  5
327
100
AcDbEntity
  8
SUPERFICI
100
AcDbPolyline
 62
7
  6
CONTINUOUS
 90
3
 70
0
 10
-6.6771410167
 20
12.7805174936
 10
-6.4229912294
 20
12.5667155246
 10
-6.1533037065
 20
12.3607070414
  0
LINE
  5
328
100
AcDbEntity
  8
SUPERFICI
100
AcDbLine
 62
7
  6
CONTINUOUS
 10
-6.9948792629
 20
16.7621244472
 11
-6.8602391574
 21
16.6482342692
  0
LWPOLYLINE
  5
329
100
AcDbEntity
  8
0
100
AcDbPolyline
 62
250
  6
CONTINUOUS
 90
6
 70
0
 10
-4.9893149638
 20
27.3073330486
 10
-5.0162206582
 20
27.3620441142
 10
-5.0395660131
 20
27.4156213682
 10
-5.0592264321
 20
27.4669480958
 10
-5.0757728918
 20
27.5164428126
 10
-5.0894082284
 20
27.563774554
  0
LWPOLYLINE
  5
32A
100
AcDbEntity
  8
RACCORDO
100
AcDbPolyline
 62
250
  6
CONTINUOUS
 90
5
 70
0
 10
-8.4202722477
 20
33.1441416871
 10
-8.414683223
 20
33.1314974601
 10
-8.3930888949
 20
33.1142905193
 10
-8.3560136319
 20
33.0926193835
 10
-8.3042379447
 20
33.0669402771
  0
LWPOLYLINE
  5
32B
100
AcDbEntity
  8
0
100
AcDbPolyline
 62
7
  6
CONTINUOUS
 90
16
 70
0
 10
-2.8058683631
 20
25.9021430508
 10
-2.7579907977
 20
25.7909032672
 10
-2.6978535084
 20
25.6989497266
 10
-2.6256953245
 20
25.6268522711
 10
-2.5383523432
 20
25.5738607878
 10
-2.4397245031
 20
25.5421722786
 10
-2.341615106
 20
25.5357572147
 10
-2.2461780409
 20
25.5569290209
 10
-2.1539933815
 20
25.6023292589
 10
-2.0748924593
 20
25.665731756
 10
-2.0105152387
 20
25.7473559384
 10
-1.9601611616
 20
25.8452089851
 10
-1.9290434368
 20
25.9493166581
 10
-1.9181438459
 20
26.0562180873
 10
-1.9247245909
 20
26.1690691253
 10
-1.9475936467
 20
26.2881970158
  0
LWPOLYLINE
  5
32C
100
AcDbEntity
  8
0
100
AcDbPolyline
 62
7
  6
CONTINUOUS
 90
7
 70
0
 10
-2.6712409554
 20
28.75245223
 10
-2.6935574306
 20
28.8163899839
 10
-2.7192395871
 20
28.8722025302
 10
-2.7485423499
 20
28.9202673977
 10
-2.7817560869
 20
28.9610390073
 10
-2.8191971892
 20
28.9950659281
 10
-2.8611968035
 20
29.0230105769
  0
LWPOLYLINE
  5
32D
100
AcDbEntity
  8
0
100
AcDbPolyline
 62
7
  6
CONTINUOUS
 90
3
 70
0
 10
-1.9475936467
 20
26.2881970158
 10
-2.0405806601
 20
26.5936605353
 10
-2.225546831
 20
27.1769396272
  0
LWPOLYLINE
  5
32E
100
AcDbEntity
  8
0
100
AcDbPolyline
 62
7
  6
CONTINUOUS
 90
4
 70
0
 10
-2.225546831
 20
27.1769396272
 10
-2.3100202163
 20
27.4590562446
 10
-2.3885438604
 20
27.7347868388
 10
-2.5425489119
 20
28.2571044323
  0
LWPOLYLINE
  5
32F
100
AcDbEntity
  8
0
100
AcDbPolyline
 62
7
  6
CONTINUOUS
 90
10
 70
0
 10
-0.6327550553
 20
26.2781749869
 10
-0.6562069046
 20
26.368781377
 10
-0.6660639089
 20
26.4574911442
 10
-0.6628707464
 20
26.5441383987
 10
-0.6460283448
 20
26.6320032496
 10
-0.6170417511
 20
26.7178721156
 10
-0.5790248403
 20
26.7921263974
 10
-0.5326000716
 20
26.8518946556
 10
-0.476402202
 20
26.900963742
 10
-0.4099700241
 20
26.9399147311
  0
LWPOLYLINE
  5
330
100
AcDbEntity
  8
SUPERFICI
100
AcDbPolyline
 62
250
  6
CONTINUOUS
 90
12
 70
0
 10
0.4564485767
 20
-13.673549821
 10
0.7111774921
 20
-13.4788809049
 10
0.946983751
 20
-13.268506762
 10
1.1593506891
 20
-13.043978562
 10
1.3478218051
 20
-12.80854676
 10
1.5153812895
 20
-12.5662063691
 10
1.6625956778
 20
-12.3169464137
 10
1.7872096185
 20
-12.0632036188
 10
1.8916579938
 20
-11.8071335401
 10
1.9749262952
 20
-11.5500651929
 10
2.036964277
 20
-11.2945491395
 10
2.0810436554
 20
-11.0262166591
  0
LINE
  5
331
100
AcDbEntity
  8
SUPERFICI
100
AcDbLine
 62
250
  6
CONTINUOUS
 10
0.194444556
 20
-13.8455411065
 11
0.4564485767
 21
-13.673549821
  0
LWPOLYLINE
  5
332
100
AcDbEntity
  8
SUPERFICI
100
AcDbPolyline
 62
7
  6
CONTINUOUS
 90
8
 70
0
 10
0.0920816868
 20
-14.0174963654
 10
0.386433519
 20
-13.8293076724
 10
0.9176695373
 20
-13.3813071683
 10
1.3490321294
 20
-12.8744748841
 10
1.6798288867
 20
-12.3331424011
 10
1.9092922749
 20
-11.7870643311
 10
2.0424433766
 20
-11.2789758538
 10
2.0810436554
 20
-11.0262166591
  0
LWPOLYLINE
  5
333
100
AcDbEntity
  8
SUPERFICI
100
AcDbPolyline
 62
250
  6
CONTINUOUS
 90
7
 70
0
 10
0.0948138395
 20
-14.0159545922
 10
0.1057491986
 20
-14.0090715624
 10
0.1320813683
 20
-13.9867934321
 10
0.1543900876
 20
-13.9588702732
 10
0.1723715281
 20
-13.9257544919
 10
0.185773247
 20
-13.8878663898
 10
0.1944447276
 20
-13.8455398755
  0
LWPOLYLINE
  5
334
100
AcDbEntity
  8
RACCORDO
100
AcDbPolyline
 62
250
  6
CONTINUOUS
 90
40
 70
0
 10
0.3032165144
 20
-11.1818116913
 10
0.3341757799
 20
-11.1633626325
 10
0.3652843574
 20
-11.1436606303
 10
0.396518955
 20
-11.1226962679
 10
0.4277110654
 20
-11.100567485
 10
0.4589788319
 20
-11.0771689767
 10
0.4907238554
 20
-11.0521489194
 10
0.5229656075
 20
-11.0254289478
 10
0.5556118522
 20
-10.9969982499
 10
0.5888831864
 20
-10.966543714
 10
0.6227773237
 20
-10.9339519705
 10
0.657181374
 20
-10.8992069295
 10
0.6921315334
 20
-10.8621070727
 10
0.7275817635
 20
-10.8225331472
 10
0.7634050649
 20
-10.7804710562
 10
0.799502102
 20
-10.7358730788
 10
0.8357409768
 20
-10.6887165229
 10
0.8720556503
 20
-10.6389387745
 10
0.908437155
 20
-10.5864395827
 10
0.9446897389
 20
-10.5312517759
 10
0.9807471847
 20
-10.4732946377
 10
1.0167553378
 20
-10.4122852115
 10
1.0525021158
 20
-10.3481725409
 10
1.0878148456
 20
-10.2809855193
 10
1.1228336713
 20
-10.2105471608
 10
1.1573287527
 20
-10.1366808505
 10
1.1910092584
 20
-10.0596388247
 10
1.2238880135
 20
-9.9799144838
 10
1.2557334233
 20
-9.8973934157
 10
1.2861930857
 20
-9.8124655397
 10
1.315170639
 20
-9.7264450633
 10
1.3425102107
 20
-9.6393926356
 10
1.3678576976
 20
-9.5517126525
 10
1.3910769361
 20
-9.4652830678
 10
1.4123041436
 20
-9.3803391438
 10
1.4313243332
 20
-9.2972287422
 10
1.447891087
 20
-9.2179343098
 10
1.4621428531
 20
-9.1431950086
 10
1.4743605775
 20
-9.0725860799
 10
1.4847290992
 20
-9.0062262635
  0
LWPOLYLINE
  5
335
100
AcDbEntity
  8
RACCORDO
100
AcDbPolyline
 62
250
  6
CONTINUOUS
 90
33
 70
0
 10
0.5129885187
 20
-11.5843076844
 10
0.5513963484
 20
-11.5615133103
 10
0.5896099084
 20
-11.5374325058
 10
0.6278097066
 20
-11.511954294
 10
0.6660853126
 20
-11.48508462
 10
0.7047157545
 20
-11.4565915288
 10
0.7439648724
 20
-11.4261144414
 10
0.7836625757
 20
-11.3937807511
 10
0.8238090674
 20
-11.3595293904
 10
0.8647553462
 20
-11.3227933269
 10
0.9065448082
 20
-11.2835247361
 10
0.9489708823
 20
-11.2418058404
 10
0.992064923
 20
-11.1972133715
 10
1.0358892859
 20
-11.1496430509
 10
1.0802841338
 20
-11.0991827651
 10
1.1249911378
 20
-11.0456747153
 10
1.1699636836
 20
-10.9891275652
 10
1.2151515459
 20
-10.9295308758
 10
1.2603082284
 20
-10.8667063517
 10
1.3053709018
 20
-10.8007321352
 10
1.3503655352
 20
-10.7315046863
 10
1.395203497
 20
-10.658576734
 10
1.4398922784
 20
-10.581911913
 10
1.4842713323
 20
-10.5016122154
 10
1.5279224514
 20
-10.4175206008
 10
1.5710677565
 20
-10.3292683844
 10
1.6135677154
 20
-10.2371666215
 10
1.6545722623
 20
-10.1420790422
 10
1.6942430368
 20
-10.0436832423
 10
1.7325167494
 20
-9.9423433335
 10
1.7683578498
 20
-9.8399698782
 10
1.8019166443
 20
-9.7362546932
 10
1.8333315697
 20
-9.631538911
  0
LINE
  5
336
100
AcDbEntity
  8
SUPERFICI
100
AcDbLine
 62
250
  6
CONTINUOUS
 10
-0.0680760755
 20
-13.9770646572
 11
0.1944445697
 21
-13.8455410097
  0
LWPOLYLINE
  5
337
100
AcDbEntity
  8
SUPERFICI
100
AcDbPolyline
 62
250
  6
CONTINUOUS
 90
6
 70
0
 10
0.133549163
 20
-10.908634974
 10
-0.0323969455
 20
-10.9889542033
 10
-0.1992702942
 20
-11.0412544656
 10
-0.3641639467
 20
-11.0641831965
 10
-0.5264344578
 20
-11.0558313095
 10
-0.6809422139
 20
-11.0166238965
  0
LWPOLYLINE
  5
338
100
AcDbEntity
  8
SUPERFICI
100
AcDbPolyline
 62
7
  6
CONTINUOUS
 90
4
 70
0
 10
-4.031658285
 20
14.6342503816
 10
-4.3945973782
 20
14.78583893
 10
-4.7457477848
 20
14.9451128112
 10
-5.0851095049
 20
15.1120720253
  0
LINE
  5
339
100
AcDbEntity
  8
SUPERFICI
100
AcDbLine
 62
7
  6
CONTINUOUS
 10
-3.8353421729
 20
14.9421488136
 11
-3.8821086897
 21
14.9651488389
  0
LWPOLYLINE
  5
33A
100
AcDbEntity
  8
SUPERFICI
100
AcDbPolyline
 62
7
  6
CONTINUOUS
 90
8
 70
0
 10
-5.2262165328
 20
15.5750202866
 10
-5.0405638675
 20
15.4788062238
 10
-4.8524893686
 20
15.3855829133
 10
-4.6621576234
 20
15.2953808826
 10
-4.4700619837
 20
15.2082848101
 10
-4.2763670593
 20
15.1243264424
 10
-4.0809086921
 20
15.0434836596
 10
-3.8836870941
 20
14.9657611022
  0
LINE
  5
33B
100
AcDbEntity
  8
SUPERFICI
100
AcDbLine
 62
7
  6
CONTINUOUS
 10
-5.0851095049
 20
15.1120720253
 11
-5.4131900219
 21
15.2870095999
  0
LWPOLYLINE
  5
33C
100
AcDbEntity
  8
SUPERFICI
100
AcDbPolyline
 62
7
  6
CONTINUOUS
 90
3
 70
0
 10
-5.590748584
 20
15.7764846662
 10
-5.4096115152
 20
15.6742477901
 10
-5.2262165328
 20
15.5750202866
  0
LINE
  5
33D
100
AcDbEntity
  8
SUPERFICI
100
AcDbLine
 62
7
  6
CONTINUOUS
 10
-5.4131900219
 20
15.2870095999
 11
-5.7294818524
 21
15.4696325073
  0
LWPOLYLINE
  5
33E
100
AcDbEntity
  8
SUPERFICI
100
AcDbPolyline
 62
7
  6
CONTINUOUS
 90
5
 70
0
 10
-5.7294818524
 20
15.4696325073
 10
-6.032462546
 20
15.6590616642
 10
-6.3216246193
 20
15.8550040428
 10
-6.5974755557
 20
16.057752671
 10
-6.8600153553
 20
16.2673075486
  0
LWPOLYLINE
  5
33F
100
AcDbEntity
  8
SUPERFICI
100
AcDbPolyline
 62
7
  6
CONTINUOUS
 90
5
 70
0
 10
-6.2677813098
 20
16.202755387
 10
-6.1063381049
 20
16.0941716516
 10
-5.9397092628
 20
15.9869826846
 10
-5.7678461177
 20
15.8810883474
 10
-5.5907486535
 20
15.7764846901
  0
LWPOLYLINE
  5
340
100
AcDbEntity
  8
0
100
AcDbPolyline
 62
250
  6
CONTINUOUS
 90
5
 70
0
 10
-4.8611610776
 20
27.1074578623
 10
-4.8960162441
 20
27.1542688754
 10
-4.9290239633
 20
27.2032217283
 10
-4.9600356053
 20
27.2540729812
 10
-4.9893149638
 20
27.3073330486
  0
LWPOLYLINE
  5
341
100
AcDbEntity
  8
0
100
AcDbPolyline
 62
250
  6
CONTINUOUS
 90
7
 70
0
 10
-4.8171485512
 20
27.0634542508
 10
-4.8230768488
 20
27.0715219946
 10
-4.8295670542
 20
27.0792992951
 10
-4.8366199107
 20
27.0867838028
 10
-4.8442361131
 20
27.0939732208
 10
-4.8524163051
 20
27.1008653046
 10
-4.8611610776
 20
27.1074578623
  0
LWPOLYLINE
  5
342
100
AcDbEntity
  8
0
100
AcDbPolyline
 62
7
  6
CONTINUOUS
 90
16
 70
0
 10
-0.9898370344
 20
28.6627948324
 10
-0.9753655722
 20
28.6343031706
 10
-0.9614998548
 20
28.60733158
 10
-0.9482419617
 20
28.5820276444
 10
-0.9358059838
 20
28.558918494
 10
-0.9239852855
 20
28.5376929646
 10
-0.9121197736
 20
28.5171943036
 10
-0.8999556106
 20
28.4971310951
 10
-0.8876826473
 20
28.4779055015
 10
-0.8753025606
 20
28.4593636764
 10
-0.8627884392
 20
28.4415088934
 10
-0.8501704688
 20
28.4243851132
 10
-0.8375925077
 20
28.4078507514
 10
-0.8251461895
 20
28.3919044982
 10
-0.8128101264
 20
28.3765277258
 10
-0.7885478967
 20
28.3468153033
  0
LWPOLYLINE
  5
343
100
AcDbEntity
  8
SUPERFICI
100
AcDbPolyline
 62
7
  6
CONTINUOUS
 90
4
 70
0
 10
-1.0156853501
 20
28.7138061838
 10
-1.0080324047
 20
28.698359414
 10
-0.9994206048
 20
28.6813704046
 10
-0.9898370344
 20
28.6627948324
  0
LWPOLYLINE
  5
344
100
AcDbEntity
  8
0
100
AcDbPolyline
 62
7
  6
CONTINUOUS
 90
22
 70
0
 10
-0.3179631122
 20
26.4567919444
 10
-0.3009488016
 20
26.420162812
 10
-0.2842391542
 20
26.3852563588
 10
-0.2679205525
 20
26.3521854428
 10
-0.2522863624
 20
26.3213279229
 10
-0.2371983067
 20
26.2924306373
 10
-0.2219359488
 20
26.2646979719
 10
-0.2060428919
 20
26.2381543376
 10
-0.1897564179
 20
26.2130183567
 10
-0.1734225108
 20
26.1887608233
 10
-0.1572724439
 20
26.1651626517
 10
-0.1412569473
 20
26.1423930903
 10
-0.1254453466
 20
26.1204103478
 10
-0.1099640447
 20
26.0991137607
 10
-0.0947834402
 20
26.0785146144
 10
-0.0796958423
 20
26.0587611363
 10
-0.0645410575
 20
26.0398521063
 10
-0.0494593521
 20
26.0217551374
 10
-0.0346678914
 20
26.0045788768
 10
-0.0202530162
 20
25.9883317022
 10
-0.0061554489
 20
25.9729384583
 10
0.0076130457
 20
25.9583693751
  0
LWPOLYLINE
  5
345
100
AcDbEntity
  8
RACCORDO
100
AcDbPolyline
 62
250
  6
CONTINUOUS
 90
8
 70
0
 10
-4.2457724295
 20
19.4728935004
 10
-4.5018365399
 20
19.5506505906
 10
-4.7428242601
 20
19.6354421185
 10
-4.9703812321
 20
19.7269548071
 10
-5.1853513605
 20
19.8225551748
 10
-5.3884287809
 20
19.9207640187
 10
-5.5800491846
 20
20.0212045945
 10
-5.7607699297
 20
20.1229884807
  0
LWPOLYLINE
  5
346
100
AcDbEntity
  8
RACCORDO
100
AcDbPolyline
 62
250
  6
CONTINUOUS
 90
23
 70
0
 10
-5.787212026
 20
19.8734337819
 10
-5.9711062897
 20
19.9812739057
 10
-6.1597497666
 20
20.1009758896
 10
-6.3523944981
 20
20.2328347019
 10
-6.5479558958
 20
20.3758433176
 10
-6.7460040584
 20
20.5315271962
 10
-6.9460916399
 20
20.7038745768
 10
-7.147175135
 20
20.8931644802
 10
-7.3478858261
 20
21.0993709969
 10
-7.5465313847
 20
21.3258550455
 10
-7.7427210145
 20
21.5739449063
 10
-7.9346315947
 20
21.8427067746
 10
-8.1188023231
 20
22.1318715164
 10
-8.2954745768
 20
22.4440037379
 10
-8.4635237205
 20
22.7773030464
 10
-8.6175422897
 20
23.123898451
 10
-8.7575451143
 20
23.486547437
 10
-8.8836327249
 20
23.8625819609
 10
-8.990940314
 20
24.2342146505
 10
-9.0796551752
 20
24.596529804
 10
-9.1528363391
 20
24.9533255787
 10
-9.2113924081
 20
25.2991203403
 10
-9.2361899838
 20
25.471272741
  0
LWPOLYLINE
  5
347
100
AcDbEntity
  8
RACCORDO
100
AcDbPolyline
 62
250
  6
CONTINUOUS
 90
19
 70
0
 10
-5.7607699311
 20
20.1229884749
 10
-5.9423530258
 20
20.2304639277
 10
-6.1273812397
 20
20.3479627551
 10
-6.3155031869
 20
20.4765236302
 10
-6.5066669634
 20
20.6167425379
 10
-6.7001570767
 20
20.7701801207
 10
-6.8945372624
 20
20.9391801146
 10
-7.089581765
 20
21.1244715298
 10
-7.2844639156
 20
21.3271531528
 10
-7.4767081283
 20
21.5495859399
 10
-7.6660333753
 20
21.7926242703
 10
-7.8513906715
 20
22.0563210172
 10
-8.0291757353
 20
22.3407703995
 10
-8.1993650174
 20
22.6470082433
 10
-8.3607401558
 20
22.9732502847
 10
-8.5085040083
 20
23.313607584
 10
-8.642664982
 20
23.6686680637
 10
-8.7630618413
 20
24.0347417176
 10
-8.8661534338
 20
24.3976345256
  0
LWPOLYLINE
  5
348
100
AcDbEntity
  8
0
100
AcDbPolyline
 62
7
  6
CONTINUOUS
 90
8
 70
0
 10
-0.7099698638
 20
28.2520709291
 10
-0.6997217715
 20
28.2399530985
 10
-0.6898138722
 20
28.2284061685
 10
-0.6801691304
 20
28.2173157509
 10
-0.6704966364
 20
28.2065045132
 10
-0.6606942001
 20
28.1959212509
 10
-0.6508576662
 20
28.1856282072
 10
-0.6409850094
 20
28.1756291193
  0
LINE
  5
349
100
AcDbEntity
  8
0
100
AcDbLine
 62
7
  6
CONTINUOUS
 10
-0.7885478967
 20
28.3468153033
 11
-0.7099698638
 21
28.2520709291
  0
LWPOLYLINE
  5
34A
100
AcDbEntity
  8
0
100
AcDbPolyline
 62
7
  6
CONTINUOUS
 90
9
 70
0
 10
2.3009353043
 20
34.2984004958
 10
2.5905440174
 20
33.6643679513
 10
2.7985456246
 20
32.9781771898
 10
2.9265861678
 20
32.2646570689
 10
2.9825746065
 20
31.5338616374
 10
2.9520942481
 20
30.790160972
 10
2.834030505
 20
30.050604311
 10
2.6428870888
 20
29.3369066575
 10
2.3876625265
 20
28.6647765721
  0
LWPOLYLINE
  5
34B
100
AcDbEntity
  8
RACCORDO
100
AcDbPolyline
 62
250
  6
CONTINUOUS
 90
14
 70
0
 10
-2.3906607507
 20
18.9729933755
 10
-2.7173554318
 20
18.9701954529
 10
-3.0393776297
 20
18.9858628843
 10
-3.3565194298
 20
19.0188810747
 10
-3.6614801853
 20
19.0660033957
 10
-3.9533711062
 20
19.1271615153
 10
-4.2334985041
 20
19.2013877798
 10
-4.4983776371
 20
19.2835696753
 10
-4.7467307416
 20
19.3725049887
 10
-4.9803245105
 20
19.4679114424
 10
-5.2006101188
 20
19.5663779783
 10
-5.4084034963
 20
19.6666310462
 10
-5.6037737104
 20
19.7691205449
 10
-5.787212026
 20
19.8734337819
  0
LWPOLYLINE
  5
34C
100
AcDbEntity
  8
0
100
AcDbPolyline
 62
7
  6
CONTINUOUS
 90
10
 70
0
 10
-4.4602359792
 20
24.6932938128
 10
-4.3884263405
 20
24.6624509681
 10
-4.3173934661
 20
24.6480141716
 10
-4.2476723779
 20
24.6496369139
 10
-4.1780085784
 20
24.6676545481
 10
-4.1104887732
 20
24.7011348784
 10
-4.0504700577
 20
24.7474934702
 10
-3.9997212446
 20
24.8053736286
 10
-3.9564975312
 20
24.8750326913
 10
-3.9206265009
 20
24.9561067839
  0
LWPOLYLINE
  5
34D
100
AcDbEntity
  8
0
100
AcDbPolyline
 62
250
  6
CONTINUOUS
 90
10
 70
0
 10
-4.4203040798
 20
25.1702341952
 10
-4.3731627674
 20
25.1439774513
 10
-4.3232998251
 20
25.1180592247
 10
-4.2709627861
 20
25.0925914278
 10
-4.2163522662
 20
25.0676651968
 10
-4.1597667326
 20
25.0434176492
 10
-4.101618104
 20
25.0200250352
 10
-4.0422272764
 20
24.9976151567
 10
-3.9818085405
 20
24.9762742222
 10
-3.9206252664
 20
24.9561088032
  0
LWPOLYLINE
  5
34E
100
AcDbEntity
  8
0
100
AcDbPolyline
 62
250
  6
CONTINUOUS
 90
10
 70
0
 10
-4.4203040798
 20
25.1702341952
 10
-4.4642218297
 20
25.1965533933
 10
-4.5044843136
 20
25.2226715026
 10
-4.54094679
 20
25.2484743835
 10
-4.5734911415
 20
25.2738697731
 10
-4.6019345326
 20
25.2987171919
 10
-4.6260679154
 20
25.3228338254
 10
-4.6457619521
 20
25.3460871089
 10
-4.660928501
 20
25.3683888377
 10
-4.6714562504
 20
25.3896291995
  0
LWPOLYLINE
  5
34F
100
AcDbEntity
  8
0
100
AcDbPolyline
 62
250
  6
CONTINUOUS
 90
10
 70
0
 10
-1.947040542
 20
26.2871862388
 10
-2.0202039669
 20
26.2697419993
 10
-2.0921959813
 20
26.2508564749
 10
-2.1626593651
 20
26.2306871868
 10
-2.2318565832
 20
26.2097384923
 10
-2.2988685238
 20
26.1877818008
 10
-2.3617340347
 20
26.163895469
 10
-2.4197752051
 20
26.137890647
 10
-2.4733105016
 20
26.110327521
 10
-2.5220620438
 20
26.0814210434
  0
LWPOLYLINE
  5
350
100
AcDbEntity
  8
RACCORDO
100
AcDbPolyline
 62
250
  6
CONTINUOUS
 90
10
 70
0
 10
6.5336188112
 20
26.7061059003
 10
6.4777325666
 20
26.7110373446
 10
6.4034989502
 20
26.7250050643
 10
6.3130637517
 20
26.7476052213
 10
6.2090410895
 20
26.7781844458
 10
6.0944378459
 20
26.8158587218
 10
5.9725667488
 20
26.8595389402
 10
5.8469506129
 20
26.9079623813
 10
5.7212205078
 20
26.9597292152
 10
5.599010797
 20
27.0133429648
  0
LWPOLYLINE
  5
351
100
AcDbEntity
  8
RACCORDO
100
AcDbPolyline
 62
250
  6
CONTINUOUS
 90
10
 70
0
 10
5.6812403834
 20
25.1033240559
 10
5.6137126741
 20
25.115868046
 10
5.535830203
 20
25.1369929047
 10
5.4492325574
 20
25.1662539107
 10
5.3557427966
 20
25.2030350599
 10
5.2573290736
 20
25.2465620336
 10
5.1560632005
 20
25.2959184999
 10
5.0540770334
 20
25.3500654035
 10
4.9535175919
 20
25.4078628411
 10
4.8565018602
 20
25.4680940577
  0
LWPOLYLINE
  5
352
100
AcDbEntity
  8
0
100
AcDbPolyline
 62
7
  6
CONTINUOUS
 90
7
 70
0
 10
-2.8611968035
 20
29.0230105769
 10
-2.9058602616
 20
29.0449196255
 10
-2.9514445246
 20
29.0587482997
 10
-2.9986120136
 20
29.0643852843
 10
-3.047923138
 20
29.0617676416
 10
-3.0998442716
 20
29.0508583973
 10
-3.1547549556
 20
29.0316273833
  0
LINE
  5
353
100
AcDbEntity
  8
RACCORDO
100
AcDbLine
 62
250
  6
CONTINUOUS
 10
5.599011076
 20
27.0133435519
 11
4.5511836209
 21
27.546018138
  0
LWPOLYLINE
  5
354
100
AcDbEntity
  8
RACCORDO
100
AcDbPolyline
 62
250
  6
CONTINUOUS
 90
4
 70
0
 10
4.5511836209
 20
27.546018138
 10
3.4768825172
 20
28.0973716801
 10
2.9314552469
 20
28.3800390402
 10
2.3814828037
 20
28.6673354773
  0
LINE
  5
355
100
AcDbEntity
  8
0
100
AcDbLine
 62
250
  6
CONTINUOUS
 10
0.9578516315
 20
29.4271931091
 11
1.4932285894
 21
29.1390146235
  0
LINE
  5
356
100
AcDbEntity
  8
0
100
AcDbLine
 62
250
  6
CONTINUOUS
 10
0.5344465618
 20
29.6572748443
 11
0.9578516315
 21
29.4271931091
  0
LWPOLYLINE
  5
357
100
AcDbEntity
  8
0
100
AcDbPolyline
 62
7
  6
CONTINUOUS
 90
10
 70
0
 10
-2.4154519761
 20
30.0824026044
 10
-2.2783879199
 20
30.0067902333
 10
-2.1263425868
 20
29.9802700764
 10
-1.9693468968
 20
29.9927081228
 10
-1.8205445403
 20
30.0308179833
 10
-1.6803467524
 20
30.0891973481
 10
-1.5395986578
 20
30.1774151303
 10
-1.4024976336
 20
30.299784704
 10
-1.2835075322
 20
30.4481639863
 10
-1.1932717009
 20
30.6178079611
  0
LINE
  5
358
100
AcDbEntity
  8
0
100
AcDbLine
 62
250
  6
CONTINUOUS
 10
-0.7982573518
 20
30.3949377652
 11
-0.3002946235
 21
30.1168191735
  0
LINE
  5
359
100
AcDbEntity
  8
0
100
AcDbLine
 62
250
  6
CONTINUOUS
 10
-1.1932717009
 20
30.6178079611
 11
-0.7982573518
 21
30.3949377652
  0
LWPOLYLINE
  5
35A
100
AcDbEntity
  8
0
100
AcDbPolyline
 62
250
  6
CONTINUOUS
 90
10
 70
0
 10
-2.0956216224
 20
31.0950569217
 10
-1.9992437829
 20
31.040016924
 10
-1.9009908809
 20
30.9850835231
 10
-1.8011723285
 20
30.930381941
 10
-1.7001163695
 20
30.8760462259
 10
-1.5980747822
 20
30.822172482
 10
-1.4952813235
 20
30.7688654293
 10
-1.3920471066
 20
30.7162778843
 10
-1.2885703212
 20
30.6645317742
 10
-1.1848321514
 20
30.613668716
  0
LWPOLYLINE
  5
35B
100
AcDbEntity
  8
0
100
AcDbPolyline
 62
250
  6
CONTINUOUS
 90
10
 70
0
 10
-2.0956260123
 20
31.0950594564
 10
-2.1885258658
 20
31.1493060264
 10
-2.276409763
 20
31.2018456806
 10
-2.3592761415
 20
31.2526240879
 10
-2.4371094219
 20
31.3015767777
 10
-2.5099456469
 20
31.3486752909
 10
-2.5777569204
 20
31.3938732723
 10
-2.6404134623
 20
31.4370689723
 10
-2.6976785182
 20
31.4781331869
 10
-2.7492804894
 20
31.5169615792
  0
LINE
  5
35C
100
AcDbEntity
  8
0
100
AcDbLine
 62
250
  6
CONTINUOUS
 10
-2.7452839225
 20
31.5139203666
 11
-3.1102343361
 21
31.7298443001
  0
LWPOLYLINE
  5
35D
100
AcDbEntity
  8
0
100
AcDbPolyline
 62
250
  6
CONTINUOUS
 90
3
 70
0
 10
-3.1102343361
 20
31.7298443001
 10
-3.4649325897
 20
31.9418768761
 10
-3.5539168663
 20
31.995419879
  0
LINE
  5
35E
100
AcDbEntity
  8
0
100
AcDbLine
 62
250
  6
CONTINUOUS
 10
-4.2591482544
 20
32.4250364133
 11
-4.5994595954
 21
32.635914962
  0
LWPOLYLINE
  5
35F
100
AcDbEntity
  8
0
100
AcDbPolyline
 62
250
  6
CONTINUOUS
 90
3
 70
0
 10
-4.5994595954
 20
32.635914962
 10
-4.9309745669
 20
32.8437656035
 10
-5.0138860497
 20
32.8961410628
  0
LWPOLYLINE
  5
360
100
AcDbEntity
  8
0
100
AcDbPolyline
 62
7
  6
CONTINUOUS
 90
10
 70
0
 10
-1.529150896
 20
32.0504522574
 10
-1.3966140197
 20
31.963196416
 10
-1.2870676794
 20
31.8450656243
 10
-1.2001364496
 20
31.7020551462
 10
-1.1318630746
 20
31.5404364183
 10
-1.0850092691
 20
31.3616392729
 10
-1.0686363142
 20
31.16984598
 10
-1.0838463275
 20
30.9755916482
 10
-1.1239765607
 20
30.7878641605
 10
-1.1848162798
 20
30.6137008801
  0
LWPOLYLINE
  5
361
100
AcDbEntity
  8
RACCORDO
100
AcDbPolyline
 62
250
  6
CONTINUOUS
 90
5
 70
0
 10
-7.0733083578
 20
34.2578540638
 10
-6.7481855142
 20
34.0350566135
 10
-6.4053388281
 20
33.8032423704
 10
-6.0442112676
 20
33.5624763578
 10
-5.6642541249
 20
33.3128431431
  0
LINE
  5
362
100
AcDbEntity
  8
RACCORDO
100
AcDbLine
 62
250
  6
CONTINUOUS
 10
-7.3812713113
 20
34.4715883495
 11
-7.0733083578
 21
34.2578540638
  0
LINE
  5
363
100
AcDbEntity
  8
RACCORDO
100
AcDbLine
 62
250
  6
CONTINUOUS
 10
-7.6726438945
 20
34.676230861
 11
-7.3812713113
 21
34.4715883495
  0
LWPOLYLINE
  5
364
100
AcDbEntity
  8
0
100
AcDbPolyline
 62
250
  6
CONTINUOUS
 90
10
 70
0
 10
-2.6712270673
 20
28.7523835696
 10
-2.726567399
 20
28.7394374793
 10
-2.7820811509
 20
28.7255469002
 10
-2.837551041
 20
28.7107597297
 10
-2.8928567086
 20
28.6951387999
 10
-2.9476469239
 20
28.6787247945
 10
-3.0013692608
 20
28.6615435776
 10
-3.0537115083
 20
28.6436427401
 10
-3.1045652209
 20
28.6250885311
 10
-3.1536558748
 20
28.6059745712
  0
LWPOLYLINE
  5
365
100
AcDbEntity
  8
0
100
AcDbPolyline
 62
7
  6
CONTINUOUS
 90
6
 70
0
 10
-4.3438163394
 20
30.5993404479
 10
-4.3712020723
 20
30.5931226547
 10
-4.3957490771
 20
30.5866245477
 10
-4.417637832
 20
30.5801390956
 10
-4.4366812087
 20
30.5740639314
 10
-4.4534637724
 20
30.568497634
  0
LWPOLYLINE
  5
366
100
AcDbEntity
  8
0
100
AcDbPolyline
 62
7
  6
CONTINUOUS
 90
4
 70
0
 10
-5.5039321786
 20
29.8725446152
 10
-5.5356380384
 20
29.8659100325
 10
-5.5670913326
 20
29.8596765439
 10
-5.598282442
 20
29.8537663114
  0
LWPOLYLINE
  5
367
100
AcDbEntity
  8
0
100
AcDbPolyline
 62
7
  6
CONTINUOUS
 90
6
 70
0
 10
-5.598282442
 20
29.8537663114
 10
-5.6599618125
 20
29.8430591974
 10
-5.6902287324
 20
29.8371353128
 10
-5.7200265904
 20
29.8304442501
 10
-5.7494000861
 20
29.8232962212
 10
-5.7783320225
 20
29.8157671638
  0
LWPOLYLINE
  5
368
100
AcDbEntity
  8
0
100
AcDbPolyline
 62
7
  6
CONTINUOUS
 90
10
 70
0
 10
-3.7961346547
 20
30.6765372496
 10
-3.8462904367
 20
30.6747903933
 10
-3.896413703
 20
30.6713145176
 10
-3.9463337675
 20
30.6663217876
 10
-3.9958674229
 20
30.6584382064
 10
-4.0448997217
 20
30.6499088689
 10
-4.0931962147
 20
30.6446781225
 10
-4.1404827204
 20
30.6422326739
 10
-4.1865569082
 20
30.6395544777
 10
-4.2311522805
 20
30.6350202883
  0
LWPOLYLINE
  5
369
100
AcDbEntity
  8
0
100
AcDbPolyline
 62
7
  6
CONTINUOUS
 90
8
 70
0
 10
-0.5178536394
 20
34.1174349741
 10
-0.9374966743
 20
34.323787919
 10
-1.3847843449
 20
34.4160540145
 10
-1.8492442006
 20
34.4014374783
 10
-2.3275166947
 20
34.2954844914
 10
-2.808899139
 20
34.0895486033
 10
-3.2605612159
 20
33.7734008363
 10
-3.6561432839
 20
33.369945612
  0
LWPOLYLINE
  5
36A
100
AcDbEntity
  8
0
100
AcDbPolyline
 62
7
  6
CONTINUOUS
 90
10
 70
0
 10
-1.5291649952
 20
32.0504221637
 10
-1.6687834979
 20
32.1203233742
 10
-1.8167574639
 20
32.1508975189
 10
-1.9690209994
 20
32.1460065034
 10
-2.1232788452
 20
32.1128786158
 10
-2.2769986021
 20
32.0498883003
 10
-2.4222902103
 20
31.9514353343
 10
-2.5511629908
 20
31.8228065593
 10
-2.6609973946
 20
31.6753231105
 10
-2.7492601646
 20
31.5169911721
  0
LWPOLYLINE
  5
36B
100
AcDbEntity
  8
0
100
AcDbPolyline
 62
7
  6
CONTINUOUS
 90
5
 70
0
 10
0.5683906107
 20
36.1606766839
 10
1.0944251604
 20
35.814316251
 10
1.5551472215
 20
35.380413507
 10
1.953703292
 20
34.8712883258
 10
2.3009353043
 20
34.2984004958
  0
LWPOLYLINE
  5
36C
100
AcDbEntity
  8
0
100
AcDbPolyline
 62
7
  6
CONTINUOUS
 90
8
 70
0
 10
-0.5178536394
 20
34.1174349741
 10
-0.1193609939
 20
33.8514066307
 10
0.2155121827
 20
33.4920628559
 10
0.485827674
 20
33.0531962432
 10
0.7020737004
 20
32.546236967
 10
0.8507204406
 20
31.9765301239
 10
0.9012354893
 20
31.3704315782
 10
0.8528804212
 20
30.766491836
  0
LWPOLYLINE
  5
36D
100
AcDbEntity
  8
RACCORDO
100
AcDbPolyline
 62
250
  6
CONTINUOUS
 90
42
 70
0
 10
4.2615740437
 20
39.2143692998
 10
4.3682162538
 20
39.1035497444
 10
4.4755120633
 20
38.9866537681
 10
4.5831957873
 20
38.8635088945
 10
4.6910929692
 20
38.7338394676
 10
4.7992126593
 20
38.5972112901
 10
4.9072043916
 20
38.4534966417
 10
5.0148869026
 20
38.3023468418
 10
5.122448451
 20
38.1429234357
 10
5.2295336521
 20
37.9749699448
 10
5.3358108842
 20
37.7981797869
 10
5.4413901278
 20
37.6115330817
 10
5.5459276024
 20
37.4145609519
 10
5.6489001448
 20
37.2070845397
 10
5.7500426221
 20
36.9884447991
 10
5.8489086331
 20
36.7581888381
 10
5.9449015064
 20
36.5161454759
 10
6.0374734227
 20
36.2620758822
 10
6.1259390416
 20
35.9960648637
 10
6.2098269188
 20
35.7175530976
 10
6.2887947398
 20
35.4253102299
 10
6.3620521266
 20
35.119393467
 10
6.4288939717
 20
34.799327609
 10
6.4888440145
 20
34.4629695737
 10
6.541093075
 20
34.1096153785
 10
6.5845154163
 20
33.739587379
 10
6.6179351479
 20
33.3522680442
 10
6.640382875
 20
32.9451238223
 10
6.6504557198
 20
32.5207256673
 10
6.6469054724
 20
32.0865510082
 10
6.6292610181
 20
31.6429672196
 10
6.5969850752
 20
31.1907785014
 10
6.5501781236
 20
30.7387223963
 10
6.4894173634
 20
30.2886565022
 10
6.4149508577
 20
29.8403890115
 10
6.3276940536
 20
29.3998680548
 10
6.2285003822
 20
28.9680390371
 10
6.1182396341
 20
28.545539182
 10
5.9987153474
 20
28.1378755672
 10
5.8714947071
 20
27.747240045
 10
5.7374502245
 20
27.3724945339
 10
5.597688309
 20
27.0140091168
  0
LWPOLYLINE
  5
36E
100
AcDbEntity
  8
0
100
AcDbPolyline
 62
7
  6
CONTINUOUS
 90
11
 70
0
 10
0.5683906107
 20
36.1606766839
 10
0.0189707195
 20
36.4352701665
 10
-0.5508749251
 20
36.5964042998
 10
-1.134080929
 20
36.654136236
 10
-1.7271600101
 20
36.6241722465
 10
-2.3257728795
 20
36.5029877116
 10
-2.9139233006
 20
36.2764851532
 10
-3.4752940031
 20
35.9610224452
 10
-4.0070784156
 20
35.5695996914
 10
-4.5016766198
 20
35.0938748534
 10
-4.9478198622
 20
34.5437471835
  0
LWPOLYLINE
  5
36F
100
AcDbEntity
  8
RACCORDO
100
AcDbPolyline
 62
250
  6
CONTINUOUS
 90
4
 70
0
 10
2.9899229859
 20
40.2054442281
 10
3.0779579736
 20
40.1532472742
 10
3.1679310616
 20
40.0977509492
 10
3.2597317994
 20
40.038787516
  0
LWPOLYLINE
  5
370
100
AcDbEntity
  8
RACCORDO
100
AcDbPolyline
 62
250
  6
CONTINUOUS
 90
11
 70
0
 10
3.2597317994
 20
40.038787516
 10
3.353161034
 20
39.9762141305
 10
3.4481849955
 20
39.9098357959
 10
3.5449269362
 20
39.8393877446
 10
3.6432582339
 20
39.7646694043
 10
3.7430268868
 20
39.6854976143
 10
3.8442985076
 20
39.6016004205
 10
3.9469347136
 20
39.5127472341
 10
4.0507415199
 20
39.4187472715
 10
4.1556808927
 20
39.3193622503
 10
4.2615740437
 20
39.2143692998
  0
LWPOLYLINE
  5
371
100
AcDbEntity
  8
RACCORDO
100
AcDbPolyline
 62
250
  6
CONTINUOUS
 90
7
 70
0
 10
3.7515137778
 20
40.609766915
 10
3.6697093124
 20
40.6396250182
 10
3.5394453108
 20
40.639306254
 10
3.3968697958
 20
40.5910958034
 10
3.2514160955
 20
40.498187944
 10
3.1127079257
 20
40.3667359189
 10
2.9899222552
 20
40.2054446398
  0
LWPOLYLINE
  5
372
100
AcDbEntity
  8
RACCORDO
100
AcDbPolyline
 62
7
  6
CONTINUOUS
 90
16
 70
0
 10
3.7515085657
 20
40.6097722417
 10
3.6414468251
 20
40.6715590986
 10
2.8190651543
 20
41.0466012384
 10
1.9554039619
 20
41.2925976375
 10
1.0771522934
 20
41.4048681356
 10
0.1873949503
 20
41.3879630004
 10
-0.7365090795
 20
41.2379895895
 10
-1.695621817
 20
40.9424554477
 10
-2.6595592223
 20
40.4995022225
 10
-3.6053672561
 20
39.9148871105
 10
-4.5240140724
 20
39.1909944247
 10
-5.4009647882
 20
38.3348299389
 10
-6.2110080537
 20
37.3698157507
 10
-6.9424403629
 20
36.3124324439
 10
-7.5915497132
 20
35.1657696245
 10
-7.7676928307
 20
34.8073568968
  0
LINE
  5
373
100
AcDbEntity
  8
RACCORDO
100
AcDbLine
 62
7
  6
CONTINUOUS
 10
3.756063222
 20
40.6071573874
 11
3.7515137778
 21
40.609766915
  0
ENDSEC
  0
SECTION
  2
OBJECTS
  0
DICTIONARY
  5
C
100
AcDbDictionary
280
0
281
1
  3
ACAD_GROUP
350
D
  3
ACAD_MLINESTYLE
350
17
  3
ACAD_LAYOUT
350
1A
  3
ACAD_PLOTSETTINGS
350
19
  3
ACAD_PLOTSTYLENAME
350
E
  0
DICTIONARY
  5
D
102
{ACAD_REACTORS
330
C
102
}
100
AcDbDictionary
280
0
281
1
  0
ACDBDICTIONARYWDFLT
  5
E
102
{ACAD_REACTORS
330
C
102
}
100
AcDbDictionary
281
1
  3
Normal
350
F
100
AcDbDictionaryWithDefault
340
F
  0
DICTIONARY
  5
17
102
{ACAD_REACTORS
330
C
102
}
100
AcDbDictionary
280
0
281
1
  3
Standard
350
18
  0
DICTIONARY
  5
19
102
{ACAD_REACTORS
330
C
102
}
100
AcDbDictionary
281
1
  0
DICTIONARY
  5
1A
102
{ACAD_REACTORS
330
C
102
}
100
AcDbDictionary
281
1
  3
Model
350
374
  3
Layout1
350
375
  0
ACDBPLACEHOLDER
  5
F
102
{ACAD_REACTORS
330
E
102
}
  0
MLINESTYLE
  5
18
102
{ACAD_REACTORS
330
17
102
}
100
AcDbMlineStyle
  2
STANDARD
 70
0
  3

 62
256
 51
90.0
 52
90.0
 71
2
 49
0.5
 62
256
  6
BYLAYER
 49
-0.5
 62
256
  6
BYLAYER
  0
LAYOUT
  5
374
102
{ACAD_REACTORS
330
1A
102
}
100
AcDbPlotSettings
  1

  2
none_device
  4
ISO_A4_(297.00_x_210.00_MM)
  6

 40
0.0
 41
0.0
 42
0.0
 43
0.0
 44
297.0
 45
210.0
 46
0.0
 47
0.0
 48
0.0
 49
0.0
140
0.0
141
0.0
142
1.0
143
1.0
 70
1024
 72
1
 73
0
 74
0
  7

 75
0
147
1.0
148
0.0
149
0.0
100
AcDbLayout
  1
Model
 70
0
 71
0
 10
0.0
 20
0.0
 11
297.0
 21
210.0
 12
0.0
 22
0.0
 32
0.0
 14
0.0
 24
0.0
 34
0.0
 15
0.0
 25
0.0
 35
0.0
146
0.0
 13
0.0
 23
0.0
 33
0.0
 16
1.0
 26
0.0
 36
0.0
 17
0.0
 27
1.0
 37
0.0
 76
0
330
21C
345
0
346
0
  0
LAYOUT
  5
375
102
{ACAD_REACTORS
330
1A
102
}
100
AcDbPlotSettings
  1

  2
none_device
  4
ISO_A4_(297.00_x_210.00_MM)
  6

 40
0.0
 41
0.0
 42
0.0
 43
0.0
 44
297.0
 45
210.0
 46
0.0
 47
0.0
 48
0.0
 49
0.0
140
0.0
141
0.0
142
1.0
143
1.0
 70
0
 72
1
 73
0
 74
0
  7

 75
0
147
1.0
148
0.0
149
0.0
100
AcDbLayout
  1
Layout1
 70
0
 71
1
 10
0.0
 20
0.0
 11
297.0
 21
210.0
 12
0.0
 22
0.0
 32
0.0
 14
0.0
 24
0.0
 34
0.0
 15
0.0
 25
0.0
 35
0.0
146
0.0
 13
0.0
 23
0.0
 33
0.0
 16
1.0
 26
0.0
 36
0.0
 17
0.0
 27
1.0
 37
0.0
 76
0
330
21D
345
0
346
0
  0
ENDSEC
  0
EOF
