  0
SECTION
  2
HEADER
  9
$ACADVER
  1
AC1024
  9
$DWGCODEPAGE
  3
ANSI_1252
  9
$EXTMAX
 10
297.0
 20
210.0
 30
0.0
  9
$EXTMIN
 10
0.0
 20
0.0
 30
0.0
  9
$LIMMIN
 10
0.0
 20
0.0
  9
$LIMMAX
 10
297.0
 20
210.0
  9
$VIEWCTR
 10
148.5
 20
105.0
  9
$VIEWSIZE
 40
210.0
  9
$CLAYER
  8
0
  9
$LTSCALE
 40
16.335
  9
$CELTYPE
  6
BYLAYER
  9
$DIMSCALE
 40
1.0
  9
$DIMASZ
 40
3.0
  9
$DIMEXO
 40
0.5
  9
$DIMDLI
 40
11.286
  9
$DIMEXE
 40
1.5
  9
$DIMCEN
 40
2.673
  9
$DIMLFAC
 40
1.0
  9
$DIMBLK
  1
_FILLED
  9
$DIMALT
 70
0
  9
$DIMALTF
 40
0.0393700787
  9
$DIMTXT
 40
3.0
  9
$DIMTOL
 70
1
  9
$DIMLIM
 70
0
  9
$DIMTFAC
 40
1.0
  9
$DIMTP
 40
0.01
  9
$DIMTM
 40
0.01
  9
$DIMGAP
 40
0.625
  9
$DIMDSEP
 70
44
  9
$AUNITS
 70
0
  9
$PDMODE
 70
3
  9
$PDSIZE
 40
3.0
  9
$HANDSEED
  5
364
  9
$TILEMODE
 70
1
  9
$MEASUREMENT
 70
1
  9
$INSUNITS
 70
4
  0
ENDSEC
  0
SECTION
  2
CLASSES
  0
CLASS
  1
ACDBDICTIONARYWDFLT
  2
AcDbDictionaryWithDefault
  3
AutoCAD 2000
 90
0
 91
1
280
0
281
0
  0
CLASS
  1
ACDBPLACEHOLDER
  2
AcDbPlaceHolder
  3
AutoCAD 2000
 90
0
 91
1
280
0
281
0
  0
CLASS
  1
LAYOUT
  2
AcDbLayout
  3
AutoCAD 2000
 90
0
 91
0
280
0
281
0
  0
ENDSEC
  0
SECTION
  2
TABLES
  0
TABLE
  2
VPORT
  5
8
100
AcDbSymbolTable
 70
2
  0
VPORT
  5
1F4
100
AcDbSymbolTableRecord
100
AcDbViewportTableRecord
  2
*ACTIVE
 70
0
 10
0.0
 20
0.0
 11
1.0
 21
1.0
 12
148.5
 22
105.0
 13
0.0
 23
0.0
 14
1.0
 24
1.0
 15
0.0
 25
0.0
 16
0.0
 26
0.0
 36
1.0
 17
0.0
 27
0.0
 37
0.0
 40
210.0
 41
1.4142857143
 42
50.0
 43
0.0
 44
0.0
 50
0.0
 51
0.0
 71
0
 72
100
 73
1
 74
1
 75
0
 76
0
 77
0
 78
0
  0
ENDTAB
  0
TABLE
  2
LTYPE
  5
5
100
AcDbSymbolTable
 70
6
  0
LTYPE
  5
14
100
AcDbSymbolTableRecord
100
AcDbLinetypeTableRecord
  2
BYBLOCK
 70
0
  3

 72
65
 73
0
 40
0.0
  0
LTYPE
  5
15
100
AcDbSymbolTableRecord
100
AcDbLinetypeTableRecord
  2
BYLAYER
 70
0
  3

 72
65
 73
0
 40
0.0
  0
LTYPE
  5
16
100
AcDbSymbolTableRecord
100
AcDbLinetypeTableRecord
  2
CONTINUOUS
 70
64
  3
Solid line
 72
65
 73
0
 40
0.0
  0
LTYPE
  5
1F5
100
AcDbSymbolTableRecord
100
AcDbLinetypeTableRecord
  2
CENTER
 70
64
  3
____ _ ____ _ ____ _ ____ _ ____ _ ____ _ ____
 72
65
 73
4
 40
0.6
 49
0.375
 74
0
 49
-0.075
 74
0
 49
0.075
 74
0
 49
-0.075
 74
0
  0
LTYPE
  5
1F6
100
AcDbSymbolTableRecord
100
AcDbLinetypeTableRecord
  2
HIDDEN
 70
64
  3
- - - - - - - - - - - - - - - - - - - -
 72
65
 73
2
 40
0.2
 49
0.1
 74
0
 49
-0.1
 74
0
  0
LTYPE
  5
1F7
100
AcDbSymbolTableRecord
100
AcDbLinetypeTableRecord
  2
PHANTOM
 70
64
  3
_____ _ _ _____ _ _ _____ _ _ _____
 72
65
 73
6
 40
0.8
 49
0.45
 74
0
 49
-0.05
 74
0
 49
0.1
 74
0
 49
-0.05
 74
0
 49
0.1
 74
0
 49
-0.05
 74
0
  0
LTYPE
  5
1F8
100
AcDbSymbolTableRecord
100
AcDbLinetypeTableRecord
  2
DOT
 70
64
  3
. . . . . . . . . . . . . . . . . . . .
 72
65
 73
2
 40
0.2
 49
0.1
 74
0
 49
-0.1
 74
0
  0
LTYPE
  5
1F9
100
AcDbSymbolTableRecord
100
AcDbLinetypeTableRecord
  2
DASHED
 70
64
  3
- - - - - - - - - - - - - - - - - - - -
 72
65
 73
2
 40
0.2
 49
0.1
 74
0
 49
-0.1
 74
0
  0
ENDTAB
  0
TABLE
  2
LAYER
  5
2
100
AcDbSymbolTable
 70
36
  0
LAYER
  5
10
100
AcDbSymbolTableRecord
100
AcDbLayerTableRecord
  2
0
 70
0
 62
7
  6
CONTINUOUS
370
-3
390
F
  0
LAYER
  5
1FA
100
AcDbSymbolTableRecord
100
AcDbLayerTableRecord
  2
DEFAULT_1
 70
0
 62
7
  6
CENTER
370
-3
390
F
  0
LAYER
  5
1FB
100
AcDbSymbolTableRecord
100
AcDbLayerTableRecord
  2
DEFAULT_2
 70
0
 62
7
  6
HIDDEN
370
-3
390
F
  0
LAYER
  5
1FC
100
AcDbSymbolTableRecord
100
AcDbLayerTableRecord
  2
DEFAULT_3
 70
0
 62
7
  6
PHANTOM
370
-3
390
F
  0
LAYER
  5
1FD
100
AcDbSymbolTableRecord
100
AcDbLayerTableRecord
  2
ASSI
 70
0
 62
7
  6
CONTINUOUS
370
-3
390
F
  0
LAYER
  5
1FE
100
AcDbSymbolTableRecord
100
AcDbLayerTableRecord
  2
COORDINATE
 70
0
 62
7
  6
CONTINUOUS
370
-3
390
F
  0
LAYER
  5
1FF
100
AcDbSymbolTableRecord
100
AcDbLayerTableRecord
  2
COPY_PUBLISH
 70
0
 62
7
  6
CONTINUOUS
370
-3
390
F
  0
LAYER
  5
200
100
AcDbSymbolTableRecord
100
AcDbLayerTableRecord
  2
COSMETICI
 70
0
 62
7
  6
CONTINUOUS
370
-3
390
F
  0
LAYER
  5
201
100
AcDbSymbolTableRecord
100
AcDbLayerTableRecord
  2
CURVE
 70
0
 62
7
  6
CONTINUOUS
370
-3
390
F
  0
LAYER
  5
202
100
AcDbSymbolTableRecord
100
AcDbLayerTableRecord
  2
DRAFT
 70
0
 62
7
  6
CONTINUOUS
370
-3
390
F
  0
LAYER
  5
203
100
AcDbSymbolTableRecord
100
AcDbLayerTableRecord
  2
IMPORT_IGES
 70
0
 62
7
  6
CONTINUOUS
370
-3
390
F
  0
LAYER
  5
204
100
AcDbSymbolTableRecord
100
AcDbLayerTableRecord
  2
NOTE
 70
0
 62
7
  6
CONTINUOUS
370
-3
390
F
  0
LAYER
  5
205
100
AcDbSymbolTableRecord
100
AcDbLayerTableRecord
  2
PIANI
 70
0
 62
7
  6
CONTINUOUS
370
-3
390
F
  0
LAYER
  5
206
100
AcDbSymbolTableRecord
100
AcDbLayerTableRecord
  2
PUNTI
 70
0
 62
7
  6
CONTINUOUS
370
-3
390
F
  0
LAYER
  5
207
100
AcDbSymbolTableRecord
100
AcDbLayerTableRecord
  2
RACCORDO
 70
0
 62
7
  6
CONTINUOUS
370
-3
390
F
  0
LAYER
  5
208
100
AcDbSymbolTableRecord
100
AcDbLayerTableRecord
  2
SIMBOLI
 70
0
 62
7
  6
CONTINUOUS
370
-3
390
F
  0
LAYER
  5
209
100
AcDbSymbolTableRecord
100
AcDbLayerTableRecord
  2
SMUSSO
 70
0
 62
7
  6
CONTINUOUS
370
-3
390
F
  0
LAYER
  5
20A
100
AcDbSymbolTableRecord
100
AcDbLayerTableRecord
  2
SUPERFICI
 70
0
 62
7
  6
CONTINUOUS
370
-3
390
F
  0
LAYER
  5
20B
100
AcDbSymbolTableRecord
100
AcDbLayerTableRecord
  2
TRASH
 70
0
 62
7
  6
CONTINUOUS
370
-3
390
F
  0
ENDTAB
  0
TABLE
  2
STYLE
  5
3
100
AcDbSymbolTable
 70
1
  0
STYLE
  5
11
100
AcDbSymbolTableRecord
100
AcDbTextStyleTableRecord
  2
STANDARD
 70
0
 40
0.0
 41
0.8
 50
0.0
 71
0
 42
0.2
  3
txt
  4

  0
STYLE
  5
20C
100
AcDbSymbolTableRecord
100
AcDbTextStyleTableRecord
  2
TEXTSTYLE_1
 70
0
 40
0.0
 41
0.8
 50
0.0
 71
0
 42
0.2
  3
gdt
  4

  0
ENDTAB
  0
TABLE
  2
VIEW
  5
6
100
AcDbSymbolTable
 70
0
  0
ENDTAB
  0
TABLE
  2
UCS
  5
7
100
AcDbSymbolTable
 70
0
  0
ENDTAB
  0
TABLE
  2
APPID
  5
9
100
AcDbSymbolTable
 70
1
  0
APPID
  5
20D
100
AcDbSymbolTableRecord
100
AcDbRegAppTableRecord
  2
ACAD
 70
0
  0
ENDTAB
  0
TABLE
  2
BLOCK_RECORD
  5
1
100
AcDbSymbolTable
 70
0
  0
BLOCK_RECORD
  5
20E
100
AcDbSymbolTableRecord
100
AcDbBlockTableRecord
  2
*Model_Space
  0
BLOCK_RECORD
  5
20F
100
AcDbSymbolTableRecord
100
AcDbBlockTableRecord
  2
*Paper_Space
  0
BLOCK_RECORD
  5
210
100
AcDbSymbolTableRecord
100
AcDbBlockTableRecord
  2
_FILLED
  0
ENDTAB
  0
TABLE
  2
DIMSTYLE
  5
A
100
AcDbSymbolTable
 70
1
100
AcDbDimStyleTable
 71
0
  0
DIMSTYLE
105
211
100
AcDbSymbolTableRecord
100
AcDbDimStyleTableRecord
  2
STANDARD
 70
0
  3

  4

 40
1.0
 41
3.0
 42
0.5
 43
0.38
 44
1.5
 45
0.0
 46
0.0
 47
0.01
 48
0.01
140
3.0
141
0.09
142
0.0
143
25.4
144
1.0
145
0.0
146
1.0
147
0.625
 71
1
 72
0
 73
0
 74
0
 75
0
 76
0
 77
1
 78
8
 79
2
170
0
171
1
172
0
173
0
174
0
175
0
176
0
177
0
178
0
270
2
179
2
271
2
272
2
273
2
274
2
275
0
280
0
281
0
282
0
283
1
284
8
285
0
286
0
287
3
288
0
340
11
278
44
341
210
342
210
343
210
344
210
  0
ENDTAB
  0
ENDSEC
  0
SECTION
  2
BLOCKS
  0
BLOCK
  5
20
100
AcDbEntity
  8
0
100
AcDbBlockBegin
  2
*Model_Space
 70
0
 10
0.0
 20
0.0
 30
0.0
  3
*Model_Space
  1

  0
ENDBLK
  5
21
100
AcDbEntity
  8
0
100
AcDbBlockEnd
  0
BLOCK
  5
1C
100
AcDbEntity
  8
0
100
AcDbBlockBegin
  2
*Paper_Space
 70
0
 10
0.0
 20
0.0
 30
0.0
  3
*Paper_Space
  1

  0
ENDBLK
  5
1D
100
AcDbEntity
  8
0
100
AcDbBlockEnd
  0
BLOCK
  5
212
100
AcDbEntity
  8
0
100
AcDbBlockBegin
  2
_FILLED
 70
64
 10
0.0
 20
0.0
  3
_FILLED
  1

  0
SOLID
  5
213
100
AcDbEntity
  8
0
  6
BYBLOCK
 62
0
100
AcDbTrace
 10
0.0
 20
0.0
 11
-1.0
 21
0.3166666667
 12
-1.0
 22
-0.3166666667
 13
-1.0
 23
-0.3166666667
  0
ENDBLK
  5
214
100
AcDbEntity
  8
0
  6
BYBLOCK
 62
0
100
AcDbBlockEnd
  0
ENDSEC
  0
SECTION
  2
ENTITIES
  0
LWPOLYLINE
  5
215
100
AcDbEntity
  8
IMPORT_IGES
100
AcDbPolyline
 62
250
  6
CONTINUOUS
 90
16
 70
0
 10
-51.5416669909
 20
48.1965211594
 10
-51.5545907277
 20
48.185812531
 10
-51.5671952721
 20
48.1739083305
 10
-51.5793703792
 20
48.1609126774
 10
-51.59100956
 20
48.1469392374
 10
-51.602011013
 20
48.1321102284
 10
-51.6122785147
 20
48.1165553517
 10
-51.6217222608
 20
48.100410657
 10
-51.6302596521
 20
48.0838173532
 10
-51.6378160168
 20
48.0669205725
 10
-51.6443252637
 20
48.0498681019
 10
-51.6497304598
 20
48.0328090899
 10
-51.6539843289
 20
48.015892742
 10
-51.6570496648
 20
47.9992670163
 10
-51.6588996568
 20
47.9830773288
 10
-51.6595181239
 20
47.9674652817
  0
LINE
  5
216
100
AcDbEntity
  8
IMPORT_IGES
100
AcDbLine
 62
7
  6
CONTINUOUS
 10
-43.7196863351
 20
57.4052444373
 11
-51.3878061937
 21
52.6631640925
  0
LINE
  5
217
100
AcDbEntity
  8
IMPORT_IGES
100
AcDbLine
 62
250
  6
CONTINUOUS
 10
-42.956772583
 20
57.3386610523
 11
-50.6173665938
 21
52.6012348046
  0
LWPOLYLINE
  5
218
100
AcDbEntity
  8
IMPORT_IGES
100
AcDbPolyline
 62
250
  6
CONTINUOUS
 90
15
 70
0
 10
-51.3878061875
 20
52.6631640963
 10
-51.352645616
 20
52.6829928504
 10
-51.3064777452
 20
52.7037880269
 10
-51.2579165989
 20
52.720131002
 10
-51.2071264183
 20
52.7319665013
 10
-51.1542789831
 20
52.7392544955
 10
-51.0995530313
 20
52.7419703354
 10
-51.0431336541
 20
52.7401048357
 10
-50.9852116702
 20
52.7336643058
 10
-50.9259829804
 20
52.7226705285
 10
-50.8656479048
 20
52.7071606864
 10
-50.8044105057
 20
52.687187236
 10
-50.7424778969
 20
52.6628177306
 10
-50.6800595438
 20
52.6341345914
 10
-50.6173665544
 20
52.601234829
  0
LINE
  5
219
100
AcDbEntity
  8
IMPORT_IGES
100
AcDbLine
 62
7
  6
CONTINUOUS
 10
-35.4672784963
 20
62.0122517854
 11
-43.0481244166
 21
57.9355181753
  0
LINE
  5
21A
100
AcDbEntity
  8
IMPORT_IGES
100
AcDbLine
 62
250
  6
CONTINUOUS
 10
-34.7383261434
 20
61.9263682835
 11
-42.3113787754
 21
57.8538256516
  0
LINE
  5
21B
100
AcDbEntity
  8
IMPORT_IGES
100
AcDbLine
 62
7
  6
CONTINUOUS
 10
-42.4381903453
 20
57.0392381676
 11
-42.4000587828
 21
57.059744088
  0
LINE
  5
21C
100
AcDbEntity
  8
IMPORT_IGES
100
AcDbLine
 62
250
  6
CONTINUOUS
 10
-35.4672784963
 20
62.0122517854
 11
-35.4583211751
 21
62.0169524845
  0
LWPOLYLINE
  5
21D
100
AcDbEntity
  8
IMPORT_IGES
100
AcDbPolyline
 62
250
  6
CONTINUOUS
 90
15
 70
0
 10
-34.7383284477
 20
61.926369614
 10
-34.677380941
 20
61.9583050202
 10
-34.6166963571
 20
61.9860475424
 10
-34.556475497
 20
62.0095053827
 10
-34.4969176271
 20
62.0286009208
 10
-34.4382198203
 20
62.0432709709
 10
-34.3805763034
 20
62.0534669907
 10
-34.3241778148
 20
62.0591552425
 10
-34.2692109729
 20
62.0603169041
 10
-34.2158576592
 20
62.0569481318
 10
-34.164294416
 20
62.0490600726
 10
-34.1146918624
 20
62.0366788274
 10
-34.0672141297
 20
62.019845365
 10
-34.0220183184
 20
61.998615386
 10
-34.0068032799
 20
61.9901798479
  0
LWPOLYLINE
  5
21E
100
AcDbEntity
  8
IMPORT_IGES
100
AcDbPolyline
 62
250
  6
CONTINUOUS
 90
14
 70
0
 10
-35.4583211751
 20
62.0169524845
 10
-35.4123298602
 20
62.0376481559
 10
-35.3641214326
 20
62.0537895081
 10
-35.3138589514
 20
62.0653219456
 10
-35.2617124252
 20
62.0722064616
 10
-35.207858233
 20
62.0744197708
 10
-35.1524785306
 20
62.0719543878
 10
-35.0957606364
 20
62.064818653
 10
-35.0378964729
 20
62.0530367234
 10
-34.9790816803
 20
62.0366484447
 10
-34.9195149458
 20
62.0157091545
 10
-34.8593976568
 20
61.9902895857
 10
-34.7989332313
 20
61.9604756906
 10
-34.7383261843
 20
61.9263682615
  0
LWPOLYLINE
  5
21F
100
AcDbEntity
  8
IMPORT_IGES
100
AcDbPolyline
 62
250
  6
CONTINUOUS
 90
16
 70
0
 10
-51.5416669909
 20
46.1553454674
 10
-51.5545907277
 20
46.144636839
 10
-51.5671952721
 20
46.1327326386
 10
-51.5793703792
 20
46.1197369854
 10
-51.59100956
 20
46.1057635454
 10
-51.602011013
 20
46.0909345364
 10
-51.6122785147
 20
46.0753796597
 10
-51.6217222608
 20
46.059234965
 10
-51.6302596521
 20
46.0426416612
 10
-51.6378160168
 20
46.0257448806
 10
-51.6443252637
 20
46.00869241
 10
-51.6497304598
 20
45.9916333979
 10
-51.6539843289
 20
45.97471705
 10
-51.6570496648
 20
45.9580913244
 10
-51.6588996568
 20
45.9419016368
 10
-51.6595181239
 20
45.9262895897
  0
LWPOLYLINE
  5
220
100
AcDbEntity
  8
IMPORT_IGES
100
AcDbPolyline
 62
250
  6
CONTINUOUS
 90
16
 70
0
 10
-51.5416669909
 20
44.1141697754
 10
-51.5545907277
 20
44.103461147
 10
-51.5671952721
 20
44.0915569466
 10
-51.5793703792
 20
44.0785612935
 10
-51.59100956
 20
44.0645878535
 10
-51.602011013
 20
44.0497588445
 10
-51.6122785147
 20
44.0342039677
 10
-51.6217222608
 20
44.018059273
 10
-51.6302596521
 20
44.0014659692
 10
-51.6378160168
 20
43.9845691886
 10
-51.6443252637
 20
43.967516718
 10
-51.6497304598
 20
43.9504577059
 10
-51.6539843289
 20
43.933541358
 10
-51.6570496648
 20
43.9169156324
 10
-51.6588996568
 20
43.9007259449
 10
-51.6595181239
 20
43.8851138978
  0
LINE
  5
221
100
AcDbEntity
  8
IMPORT_IGES
100
AcDbLine
 62
7
  6
CONTINUOUS
 10
-52.3787921447
 20
44.2216994254
 11
-52.0988578255
 21
44.3948150074
  0
LWPOLYLINE
  5
222
100
AcDbEntity
  8
IMPORT_IGES
100
AcDbPolyline
 62
250
  6
CONTINUOUS
 90
9
 70
0
 10
-51.8787394358
 20
49.5362794369
 10
-51.8694058552
 20
49.5930471586
 10
-51.8609719629
 20
49.6522547047
 10
-51.8540993483
 20
49.7157111598
 10
-51.8495077485
 20
49.7806813588
 10
-51.8475800203
 20
49.84336318
 10
-51.8481996092
 20
49.9032142857
 10
-51.8515576787
 20
49.9600689657
 10
-51.8534723757
 20
49.9769104218
  0
LWPOLYLINE
  5
223
100
AcDbEntity
  8
IMPORT_IGES
100
AcDbPolyline
 62
250
  6
CONTINUOUS
 90
3
 70
0
 10
-51.9424138163
 20
49.1734029134
 10
-51.8987019279
 20
49.4208665977
 10
-51.8787394358
 20
49.5362794369
  0
LWPOLYLINE
  5
224
100
AcDbEntity
  8
IMPORT_IGES
100
AcDbPolyline
 62
250
  6
CONTINUOUS
 90
3
 70
0
 10
-51.9424138163
 20
47.1322272215
 10
-51.8987019279
 20
47.3796909057
 10
-51.8787394358
 20
47.4951037449
  0
LWPOLYLINE
  5
225
100
AcDbEntity
  8
IMPORT_IGES
100
AcDbPolyline
 62
7
  6
CONTINUOUS
 90
9
 70
0
 10
-52.0210493624
 20
49.2246432696
 10
-52.0361445522
 20
49.1566258009
 10
-52.0508515732
 20
49.0868637626
 10
-52.0647174122
 20
49.0153189143
 10
-52.0771062739
 20
48.9424835043
 10
-52.0873352375
 20
48.8686858131
 10
-52.0946685863
 20
48.7938713799
 10
-52.0983937672
 20
48.7186665253
 10
-52.0987376095
 20
48.6854894123
  0
LWPOLYLINE
  5
226
100
AcDbEntity
  8
IMPORT_IGES
100
AcDbPolyline
 62
7
  6
CONTINUOUS
 90
9
 70
0
 10
-52.0210493624
 20
47.1834675777
 10
-52.0361445522
 20
47.115450109
 10
-52.0508515732
 20
47.0456880707
 10
-52.0647174122
 20
46.9741432223
 10
-52.0771062739
 20
46.9013078124
 10
-52.0873352375
 20
46.8275101211
 10
-52.0946685863
 20
46.752695688
 10
-52.0983937672
 20
46.6774908334
 10
-52.0987376095
 20
46.6443137201
  0
LWPOLYLINE
  5
227
100
AcDbEntity
  8
IMPORT_IGES
100
AcDbPolyline
 62
7
  6
CONTINUOUS
 90
9
 70
0
 10
-52.0210493624
 20
45.1422918857
 10
-52.0361445522
 20
45.074274417
 10
-52.0508515732
 20
45.0045123787
 10
-52.0647174122
 20
44.9329675303
 10
-52.0771062739
 20
44.8601321204
 10
-52.0873352375
 20
44.7863344292
 10
-52.0946685863
 20
44.711519996
 10
-52.0983937672
 20
44.6363151414
 10
-52.0987376095
 20
44.6031380281
  0
LINE
  5
228
100
AcDbEntity
  8
IMPORT_IGES
100
AcDbLine
 62
7
  6
CONTINUOUS
 10
-51.9767715678
 20
49.4198149781
 11
-52.0210493624
 21
49.2246432696
  0
LINE
  5
229
100
AcDbEntity
  8
IMPORT_IGES
100
AcDbLine
 62
7
  6
CONTINUOUS
 10
-51.9767715678
 20
47.3786392862
 11
-52.0210493624
 21
47.1834675777
  0
LINE
  5
22A
100
AcDbEntity
  8
IMPORT_IGES
100
AcDbLine
 62
7
  6
CONTINUOUS
 10
-51.9767715678
 20
45.3374635942
 11
-52.0210493624
 21
45.1422918857
  0
LWPOLYLINE
  5
22B
100
AcDbEntity
  8
IMPORT_IGES
100
AcDbPolyline
 62
7
  6
CONTINUOUS
 90
9
 70
0
 10
-28.2151094008
 20
54.1365497668
 10
-28.29893781
 20
54.0852472028
 10
-28.3774580567
 20
54.0312171393
 10
-28.4504044534
 20
53.9746423969
 10
-28.5175301725
 20
53.9157144066
 10
-28.5786080818
 20
53.8546325621
 10
-28.6334315131
 20
53.7916035449
 10
-28.6818149612
 20
53.7268406255
 10
-28.7235947119
 20
53.6605629409
  0
LWPOLYLINE
  5
22C
100
AcDbEntity
  8
IMPORT_IGES
100
AcDbPolyline
 62
7
  6
CONTINUOUS
 90
35
 70
0
 10
-27.6140686368
 20
53.0955166272
 10
-27.5543674292
 20
53.1278019881
 10
-27.4911369466
 20
53.1577637301
 10
-27.4246479516
 20
53.1852735523
 10
-27.3551851604
 20
53.2102136534
 10
-27.2830460231
 20
53.2324772362
 10
-27.2085394508
 20
53.2519689645
 10
-27.131984492
 20
53.2686053717
 10
-27.0537089667
 20
53.2823152183
 10
-26.9740480629
 20
53.2930397965
 10
-26.8933429006
 20
53.3007331821
 10
-26.8119390719
 20
53.3053624307
 10
-26.7301851604
 20
53.3069077194
 10
-26.6484312488
 20
53.3053624307
 10
-26.5670274201
 20
53.3007331821
 10
-26.4863222578
 20
53.2930397965
 10
-26.406661354
 20
53.2823152183
 10
-26.3283858287
 20
53.2686053717
 10
-26.2518308699
 20
53.2519689645
 10
-26.1773242976
 20
53.2324772362
 10
-26.1051851604
 20
53.2102136534
 10
-26.0357223691
 20
53.1852735523
 10
-25.9692333741
 20
53.1577637301
 10
-25.9060028915
 20
53.1278019881
 10
-25.8463016839
 20
53.0955166272
 10
-25.790385401
 20
53.0610458982
 10
-25.738493485
 20
53.02453741
 10
-25.690848145
 20
52.9861474976
 10
-25.6476534056
 20
52.9460405524
 10
-25.6090942334
 20
52.9043883187
 10
-25.5753357447
 20
52.8613691577
 10
-25.5465224985
 20
52.8171672839
 10
-25.5227778775
 20
52.7719719766
 10
-25.5042035599
 20
52.7259767691
 10
-25.4955198792
 20
52.6956083372
  0
LWPOLYLINE
  5
22D
100
AcDbEntity
  8
IMPORT_IGES
100
AcDbPolyline
 62
250
  6
CONTINUOUS
 90
9
 70
0
 10
-51.8787394358
 20
47.4951037449
 10
-51.8694058552
 20
47.5518714667
 10
-51.8609719629
 20
47.6110790127
 10
-51.8540993483
 20
47.6745354678
 10
-51.8495077485
 20
47.7395056668
 10
-51.8475800203
 20
47.8021874881
 10
-51.8481996092
 20
47.8620385937
 10
-51.8515576787
 20
47.9188932738
 10
-51.8534723757
 20
47.9357347299
  0
LWPOLYLINE
  5
22E
100
AcDbEntity
  8
IMPORT_IGES
100
AcDbPolyline
 62
250
  6
CONTINUOUS
 90
9
 70
0
 10
-51.8787394358
 20
45.4539280529
 10
-51.8694058552
 20
45.5106957746
 10
-51.8609719629
 20
45.5699033207
 10
-51.8540993483
 20
45.6333597758
 10
-51.8495077485
 20
45.6983299748
 10
-51.8475800203
 20
45.761011796
 10
-51.8481996092
 20
45.8208629017
 10
-51.8515576787
 20
45.8777175817
 10
-51.8534723757
 20
45.8945590379
  0
LWPOLYLINE
  5
22F
100
AcDbEntity
  8
IMPORT_IGES
100
AcDbPolyline
 62
250
  6
CONTINUOUS
 90
3
 70
0
 10
-51.9424138163
 20
45.0910515294
 10
-51.8987019279
 20
45.3385152137
 10
-51.8787394358
 20
45.4539280529
  0
LWPOLYLINE
  5
230
100
AcDbEntity
  8
IMPORT_IGES
100
AcDbPolyline
 62
250
  6
CONTINUOUS
 90
9
 70
0
 10
-51.8535887979
 20
-8.8088432029
 10
-51.8503156257
 20
-8.842398398
 10
-51.8476231773
 20
-8.8990516484
 10
-51.8477404879
 20
-8.9606118301
 10
-51.8506405415
 20
-9.022978991
 10
-51.8557894608
 20
-9.0843053557
 10
-51.8628431136
 20
-9.1454512102
 10
-51.87130863
 20
-9.206033539
 10
-51.8808409797
 20
-9.2647310686
  0
LWPOLYLINE
  5
231
100
AcDbEntity
  8
IMPORT_IGES
100
AcDbPolyline
 62
250
  6
CONTINUOUS
 90
9
 70
0
 10
-51.8535887979
 20
-6.7676675109
 10
-51.8503156257
 20
-6.801222706
 10
-51.8476231773
 20
-6.8578759564
 10
-51.8477404879
 20
-6.9194361381
 10
-51.8506405415
 20
-6.9818032991
 10
-51.8557894608
 20
-7.0431296638
 10
-51.8628431136
 20
-7.1042755183
 10
-51.87130863
 20
-7.164857847
 10
-51.8808409797
 20
-7.2235553766
  0
LWPOLYLINE
  5
232
100
AcDbEntity
  8
IMPORT_IGES
100
AcDbPolyline
 62
250
  6
CONTINUOUS
 90
9
 70
0
 10
-51.8535887979
 20
-4.7264918189
 10
-51.8503156257
 20
-4.760047014
 10
-51.8476231773
 20
-4.8167002644
 10
-51.8477404879
 20
-4.8782604461
 10
-51.8506405415
 20
-4.9406276071
 10
-51.8557894608
 20
-5.0019539718
 10
-51.8628431136
 20
-5.0630998263
 10
-51.87130863
 20
-5.123682155
 10
-51.8808409797
 20
-5.1823796846
  0
LWPOLYLINE
  5
233
100
AcDbEntity
  8
IMPORT_IGES
100
AcDbPolyline
 62
7
  6
CONTINUOUS
 90
14
 70
0
 10
-51.909029071
 20
45.9480353433
 10
-51.9074621121
 20
45.9273827706
 10
-51.9058968876
 20
45.8918035515
 10
-51.9054231823
 20
45.8536246868
 10
-51.9061785057
 20
45.8128905305
 10
-51.9082548952
 20
45.7695386992
 10
-51.9117217804
 20
45.7236943291
 10
-51.9166432191
 20
45.67537934
 10
-51.9230799047
 20
45.6246060349
 10
-51.9310555427
 20
45.5715111767
 10
-51.9405200779
 20
45.5161451638
 10
-51.9513802878
 20
45.4585846253
 10
-51.9635079803
 20
45.3989940864
 10
-51.9767715678
 20
45.3374635942
  0
LWPOLYLINE
  5
234
100
AcDbEntity
  8
IMPORT_IGES
100
AcDbPolyline
 62
7
  6
CONTINUOUS
 90
14
 70
0
 10
-51.9090266972
 20
-8.7554707882
 10
-51.9074337261
 20
-8.7766059574
 10
-51.9058853296
 20
-8.8121279726
 10
-51.9054243503
 20
-8.8502620746
 10
-51.90619006
 20
-8.8909751261
 10
-51.9082764818
 20
-8.9343236371
 10
-51.9117535934
 20
-8.9801730368
 10
-51.916686167
 20
-9.0285033721
 10
-51.9231353934
 20
-9.0793021269
 10
-51.9311228632
 20
-9.1324173193
 10
-51.9405969324
 20
-9.1877927391
 10
-51.9514648275
 20
-9.2453570559
 10
-51.9635982578
 20
-9.3049462698
 10
-51.9768651562
 20
-9.3664686852
  0
LWPOLYLINE
  5
235
100
AcDbEntity
  8
IMPORT_IGES
100
AcDbPolyline
 62
7
  6
CONTINUOUS
 90
14
 70
0
 10
-51.9090266972
 20
-6.7142950962
 10
-51.9074337261
 20
-6.7354302655
 10
-51.9058853296
 20
-6.7709522806
 10
-51.9054243503
 20
-6.8090863826
 10
-51.90619006
 20
-6.8497994341
 10
-51.9082764818
 20
-6.8931479451
 10
-51.9117535934
 20
-6.9389973449
 10
-51.916686167
 20
-6.9873276801
 10
-51.9231353934
 20
-7.0381264349
 10
-51.9311228632
 20
-7.0912416273
 10
-51.9405969324
 20
-7.1466170471
 10
-51.9514648275
 20
-7.2041813639
 10
-51.9635982578
 20
-7.2637705779
 10
-51.9768651562
 20
-7.3252929933
  0
LWPOLYLINE
  5
236
100
AcDbEntity
  8
IMPORT_IGES
100
AcDbPolyline
 62
7
  6
CONTINUOUS
 90
14
 70
0
 10
-51.9090266971
 20
-4.6731194042
 10
-51.9074337258
 20
-4.6942545778
 10
-51.9058853295
 20
-4.729776593
 10
-51.9054243503
 20
-4.7679106952
 10
-51.9061900602
 20
-4.8086237472
 10
-51.9082764822
 20
-4.8519722589
 10
-51.911753594
 20
-4.8978216594
 10
-51.9166861679
 20
-4.9461519956
 10
-51.9231353946
 20
-4.9969507513
 10
-51.9311228647
 20
-5.0500659448
 10
-51.9405969343
 20
-5.1054413656
 10
-51.9514648298
 20
-5.1630056833
 10
-51.9635982604
 20
-5.2225948983
 10
-51.9768651592
 20
-5.2841173146
  0
LWPOLYLINE
  5
237
100
AcDbEntity
  8
IMPORT_IGES
100
AcDbPolyline
 62
7
  6
CONTINUOUS
 90
27
 70
0
 10
-52.0987402949
 20
46.3216286215
 10
-52.0978664159
 20
46.2981478398
 10
-52.0955237474
 20
46.2768242868
 10
-52.0918145611
 20
46.2556228572
 10
-52.0868038142
 20
46.2344601658
 10
-52.0805930625
 20
46.2134738281
 10
-52.0731952801
 20
46.1924970188
 10
-52.0646801853
 20
46.1715604482
 10
-52.0550846172
 20
46.1506291625
 10
-52.0443285501
 20
46.1294820443
 10
-52.0324109443
 20
46.1081265528
 10
-52.0193462539
 20
46.0866094094
 10
-52.005044229
 20
46.0648278051
 10
-51.9895361829
 20
46.0428912253
 10
-51.9727832105
 20
46.0208099449
 10
-51.9545413932
 20
45.9983552206
 10
-51.9348113258
 20
45.9756169135
 10
-51.9135086278
 20
45.9525835531
 10
-51.8901642147
 20
45.9288813675
 10
-51.8646450929
 20
45.9045539683
 10
-51.8368833294
 20
45.8797187479
 10
-51.8064051915
 20
45.8541673487
 10
-51.7729959121
 20
45.8279797109
 10
-51.7366061619
 20
45.8013692061
 10
-51.6969636933
 20
45.7743515286
 10
-51.6539020158
 20
45.7470328055
 10
-51.6180640256
 20
45.7257247349
  0
LWPOLYLINE
  5
238
100
AcDbEntity
  8
IMPORT_IGES
100
AcDbPolyline
 62
7
  6
CONTINUOUS
 90
27
 70
0
 10
-52.0987402949
 20
48.3628043135
 10
-52.0978664159
 20
48.3393235317
 10
-52.0955237474
 20
48.3179999788
 10
-52.0918145611
 20
48.2967985492
 10
-52.0868038142
 20
48.2756358577
 10
-52.0805930625
 20
48.2546495201
 10
-52.0731952801
 20
48.2336727108
 10
-52.0646801853
 20
48.2127361402
 10
-52.0550846172
 20
48.1918048545
 10
-52.0443285501
 20
48.1706577363
 10
-52.0324109443
 20
48.1493022448
 10
-52.0193462539
 20
48.1277851014
 10
-52.005044229
 20
48.106003497
 10
-51.9895361829
 20
48.0840669173
 10
-51.9727832105
 20
48.0619856369
 10
-51.9545413932
 20
48.0395309126
 10
-51.9348113258
 20
48.0167926055
 10
-51.9135086278
 20
47.993759245
 10
-51.8901642147
 20
47.9700570595
 10
-51.8646450929
 20
47.9457296603
 10
-51.8368833294
 20
47.9208944399
 10
-51.8064051915
 20
47.8953430407
 10
-51.7729959121
 20
47.8691554028
 10
-51.7366061619
 20
47.842544898
 10
-51.6969636933
 20
47.8155272206
 10
-51.6539020158
 20
47.7882084975
 10
-51.6180640256
 20
47.7669004268
  0
LWPOLYLINE
  5
239
100
AcDbEntity
  8
IMPORT_IGES
100
AcDbPolyline
 62
7
  6
CONTINUOUS
 90
27
 70
0
 10
-52.0987402949
 20
50.4039800054
 10
-52.0978664159
 20
50.3804992237
 10
-52.0955237474
 20
50.3591756708
 10
-52.0918145611
 20
50.3379742412
 10
-52.0868038142
 20
50.3168115497
 10
-52.0805930625
 20
50.2958252121
 10
-52.0731952801
 20
50.2748484028
 10
-52.0646801853
 20
50.2539118322
 10
-52.0550846172
 20
50.2329805465
 10
-52.0443285501
 20
50.2118334283
 10
-52.0324109443
 20
50.1904779368
 10
-52.0193462539
 20
50.1689607934
 10
-52.005044229
 20
50.147179189
 10
-51.9895361829
 20
50.1252426093
 10
-51.9727832105
 20
50.1031613289
 10
-51.9545413932
 20
50.0807066046
 10
-51.9348113258
 20
50.0579682975
 10
-51.9135086278
 20
50.034934937
 10
-51.8901642147
 20
50.0112327515
 10
-51.8646450929
 20
49.9869053523
 10
-51.8368833294
 20
49.9620701319
 10
-51.8064051915
 20
49.9365187326
 10
-51.7729959121
 20
49.9103310948
 10
-51.7366061619
 20
49.88372059
 10
-51.6969636933
 20
49.8567029126
 10
-51.6539020158
 20
49.8293841895
 10
-51.6180640256
 20
49.8080761188
  0
LWPOLYLINE
  5
23A
100
AcDbEntity
  8
IMPORT_IGES
100
AcDbPolyline
 62
7
  6
CONTINUOUS
 90
27
 70
0
 10
-52.0987405189
 20
-8.3818498074
 10
-52.0978745733
 20
-8.4052605794
 10
-52.0955441892
 20
-8.4265461279
 10
-52.0918516475
 20
-8.4477091784
 10
-52.0868615696
 20
-8.4688335492
 10
-52.0806752821
 20
-8.4897813653
 10
-52.0733047641
 20
-8.5107222451
 10
-52.0648190944
 20
-8.5316255946
 10
-52.0552543921
 20
-8.5525268045
 10
-52.0445281933
 20
-8.5736509895
 10
-52.0326380411
 20
-8.5949914217
 10
-52.019597212
 20
-8.6165015416
 10
-52.0053121347
 20
-8.6382876597
 10
-51.9898114654
 20
-8.6602416171
 10
-51.9730553329
 20
-8.6823519399
 10
-51.9547984334
 20
-8.704846857
 10
-51.9350394747
 20
-8.7276363671
 10
-51.9136925954
 20
-8.7507314257
 10
-51.8902878903
 20
-8.7745046365
 10
-51.8646823877
 20
-8.798919338
 10
-51.8368140066
 20
-8.8238492348
 10
-51.8062357101
 20
-8.8494783266
 10
-51.7727309211
 20
-8.8757296014
 10
-51.7362565505
 20
-8.902386607
 10
-51.6965884469
 20
-8.9294043207
 10
-51.6535836502
 20
-8.956670927
 10
-51.6180642608
 20
-8.9777839508
  0
LWPOLYLINE
  5
23B
100
AcDbEntity
  8
IMPORT_IGES
100
AcDbPolyline
 62
7
  6
CONTINUOUS
 90
27
 70
0
 10
-52.0987405189
 20
-6.3406741155
 10
-52.0978745733
 20
-6.3640848874
 10
-52.0955441892
 20
-6.3853704359
 10
-52.0918516475
 20
-6.4065334864
 10
-52.0868615696
 20
-6.4276578572
 10
-52.0806752821
 20
-6.4486056733
 10
-52.0733047641
 20
-6.4695465531
 10
-52.0648190944
 20
-6.4904499026
 10
-52.0552543921
 20
-6.5113511125
 10
-52.0445281933
 20
-6.5324752976
 10
-52.0326380411
 20
-6.5538157297
 10
-52.019597212
 20
-6.5753258496
 10
-52.0053121347
 20
-6.5971119677
 10
-51.9898114654
 20
-6.6190659251
 10
-51.9730553329
 20
-6.6411762479
 10
-51.9547984334
 20
-6.663671165
 10
-51.9350394747
 20
-6.6864606751
 10
-51.9136925954
 20
-6.7095557337
 10
-51.8902878903
 20
-6.7333289445
 10
-51.8646823877
 20
-6.757743646
 10
-51.8368140066
 20
-6.7826735428
 10
-51.8062357101
 20
-6.8083026346
 10
-51.7727309211
 20
-6.8345539094
 10
-51.7362565505
 20
-6.8612109151
 10
-51.6965884469
 20
-6.8882286287
 10
-51.6535836502
 20
-6.915495235
 10
-51.6180642608
 20
-6.9366082588
  0
LWPOLYLINE
  5
23C
100
AcDbEntity
  8
IMPORT_IGES
100
AcDbPolyline
 62
7
  6
CONTINUOUS
 90
27
 70
0
 10
-52.098740519
 20
-4.2994984517
 10
-52.0978745737
 20
-4.3229091904
 10
-52.09554419
 20
-4.3441947388
 10
-52.0918516485
 20
-4.3653577893
 10
-52.0868615709
 20
-4.38648216
 10
-52.0806752838
 20
-4.407429976
 10
-52.0733047661
 20
-4.4283708558
 10
-52.0648190968
 20
-4.4492742051
 10
-52.0552543947
 20
-4.470175415
 10
-52.0445281962
 20
-4.4912996
 10
-52.0326380443
 20
-4.5126400322
 10
-52.0195972154
 20
-4.5341501522
 10
-52.0053121383
 20
-4.5559362705
 10
-51.989811469
 20
-4.5778902281
 10
-51.9730553366
 20
-4.6000005513
 10
-51.954798437
 20
-4.6224954688
 10
-51.9350394781
 20
-4.6452849794
 10
-51.9136925984
 20
-4.6683800386
 10
-51.8902878929
 20
-4.69215325
 10
-51.8646823896
 20
-4.7165679523
 10
-51.8368140077
 20
-4.7414978499
 10
-51.8062357105
 20
-4.7671269424
 10
-51.7727309206
 20
-4.7933782178
 10
-51.7362565493
 20
-4.8200352239
 10
-51.6965884453
 20
-4.8470529378
 10
-51.6535836487
 20
-4.8743195439
 10
-51.6180642608
 20
-4.8954325668
  0
LWPOLYLINE
  5
23D
100
AcDbEntity
  8
IMPORT_IGES
100
AcDbPolyline
 62
250
  6
CONTINUOUS
 90
15
 70
0
 10
-52.0988578255
 20
51.3874053095
 10
-52.0978037675
 20
51.3549426625
 10
-52.092090988
 20
51.3052320525
 10
-52.0814371896
 20
51.2557933488
 10
-52.0658776251
 20
51.2067901413
 10
-52.0454637802
 20
51.1583845784
 10
-52.020263203
 20
51.1107368315
 10
-51.9903592808
 20
51.0640045639
 10
-51.9558509638
 20
51.01834241
 10
-51.916852438
 20
50.973901463
 10
-51.8734927471
 20
50.9308287754
 10
-51.8259153658
 20
50.8892668722
 10
-51.7742777249
 20
50.8493532793
 10
-51.7187506902
 20
50.8112200682
 10
-51.6595179973
 20
50.7749934195
  0
LWPOLYLINE
  5
23E
100
AcDbEntity
  8
IMPORT_IGES
100
AcDbPolyline
 62
250
  6
CONTINUOUS
 90
15
 70
0
 10
-52.0988542094
 20
-10.1009533751
 10
-52.0984243183
 20
-10.1285937823
 10
-52.0949886551
 20
-10.1866378703
 10
-52.0871485362
 20
-10.2478211114
 10
-52.0740950629
 20
-10.3101857964
 10
-52.0555152084
 20
-10.3723388508
 10
-52.0307318421
 20
-10.4345793042
 10
-51.9994009325
 20
-10.4960705229
 10
-51.9629439498
 20
-10.5538566952
 10
-51.9225393514
 20
-10.60668114
 10
-51.8779364925
 20
-10.6555961661
 10
-51.8291106635
 20
-10.7012643903
 10
-51.7761883568
 20
-10.7438166907
 10
-51.719563775
 20
-10.7828912228
 10
-51.6595179973
 20
-10.8183947233
  0
LWPOLYLINE
  5
23F
100
AcDbEntity
  8
IMPORT_IGES
100
AcDbPolyline
 62
250
  6
CONTINUOUS
 90
6
 70
0
 10
-52.0988542094
 20
-8.0597776832
 10
-52.0984243183
 20
-8.0874180905
 10
-52.0949886551
 20
-8.1454621785
 10
-52.0871485362
 20
-8.2066454195
 10
-52.0740950629
 20
-8.2690101045
 10
-52.0555152084
 20
-8.3311631589
  0
LWPOLYLINE
  5
240
100
AcDbEntity
  8
IMPORT_IGES
100
AcDbPolyline
 62
250
  6
CONTINUOUS
 90
6
 70
0
 10
-52.0988542097
 20
-6.0186018724
 10
-52.0984242644
 20
-6.0462442574
 10
-52.0949884949
 20
-6.104288249
 10
-52.0871482766
 20
-6.1654713059
 10
-52.0740947329
 20
-6.2278357334
 10
-52.0555148351
 20
-6.2899885436
  0
LWPOLYLINE
  5
241
100
AcDbEntity
  8
IMPORT_IGES
100
AcDbPolyline
 62
250
  6
CONTINUOUS
 90
15
 70
0
 10
-52.0988546122
 20
44.6027410793
 10
-52.0984269248
 20
44.5750252
 10
-52.0949950755
 20
44.5169521511
 10
-52.0871588606
 20
44.4557521093
 10
-52.0741097065
 20
44.3933754569
 10
-52.055533681
 20
44.331212626
 10
-52.030753134
 20
44.2689655142
 10
-51.9994238017
 20
44.2074699611
 10
-51.962964944
 20
44.1496768606
 10
-51.922550627
 20
44.0968387936
 10
-51.8779321388
 20
44.0479084977
 10
-51.8290942652
 20
44.0022314848
 10
-51.7761690946
 20
43.9596787355
 10
-51.7195494635
 20
43.9206087014
 10
-51.6595179973
 20
43.8851138218
  0
LWPOLYLINE
  5
242
100
AcDbEntity
  8
IMPORT_IGES
100
AcDbPolyline
 62
250
  6
CONTINUOUS
 90
6
 70
0
 10
-52.0988546122
 20
46.6439167713
 10
-52.0984269248
 20
46.6162008922
 10
-52.0949950755
 20
46.5581278432
 10
-52.0871588607
 20
46.4969278015
 10
-52.0741097066
 20
46.434551149
 10
-52.0555336811
 20
46.3723883181
  0
LWPOLYLINE
  5
243
100
AcDbEntity
  8
IMPORT_IGES
100
AcDbPolyline
 62
250
  6
CONTINUOUS
 90
6
 70
0
 10
-52.0988546122
 20
48.6850924635
 10
-52.0984269247
 20
48.6573765798
 10
-52.0949950751
 20
48.599303531
 10
-52.0871588601
 20
48.5381034897
 10
-52.0741097058
 20
48.4757268379
 10
-52.0555336802
 20
48.4135640076
  0
LINE
  5
244
100
AcDbEntity
  8
IMPORT_IGES
100
AcDbLine
 62
7
  6
CONTINUOUS
 10
-52.7997933093
 20
-3.3064300659
 11
-52.7997933093
 21
43.6053191937
  0
LINE
  5
245
100
AcDbEntity
  8
IMPORT_IGES
100
AcDbLine
 62
250
  6
CONTINUOUS
 10
-52.3604645316
 20
-3.9125743056
 11
-52.3604645316
 21
42.9866524142
  0
LINE
  5
246
100
AcDbEntity
  8
IMPORT_IGES
100
AcDbLine
 62
7
  6
CONTINUOUS
 10
-52.0988578255
 20
-11.0813897222
 11
-52.0988578255
 21
-10.0981323252
  0
LINE
  5
247
100
AcDbEntity
  8
IMPORT_IGES
100
AcDbLine
 62
7
  6
CONTINUOUS
 10
-52.0988578255
 20
-8.3815434992
 11
-52.0988578255
 21
-8.0569566332
  0
LINE
  5
248
100
AcDbEntity
  8
IMPORT_IGES
100
AcDbLine
 62
7
  6
CONTINUOUS
 10
-52.0988578255
 20
-6.3403678072
 11
-52.0988578255
 21
-6.0157809358
  0
LINE
  5
249
100
AcDbEntity
  8
IMPORT_IGES
100
AcDbLine
 62
7
  6
CONTINUOUS
 10
-52.0988578255
 20
-4.2991921187
 11
-52.0988578255
 21
-4.0636227389
  0
LINE
  5
24A
100
AcDbEntity
  8
IMPORT_IGES
100
AcDbLine
 62
7
  6
CONTINUOUS
 10
-52.0988578255
 20
43.6160081943
 11
-52.0988578255
 21
44.6054009373
  0
LINE
  5
24B
100
AcDbEntity
  8
IMPORT_IGES
100
AcDbLine
 62
7
  6
CONTINUOUS
 10
-52.0988578255
 20
46.3219453104
 11
-52.0988578255
 21
46.6465766293
  0
LINE
  5
24C
100
AcDbEntity
  8
IMPORT_IGES
100
AcDbLine
 62
7
  6
CONTINUOUS
 10
-52.0988578255
 20
48.3631210023
 11
-52.0988578255
 21
48.6877523213
  0
LINE
  5
24D
100
AcDbEntity
  8
IMPORT_IGES
100
AcDbLine
 62
7
  6
CONTINUOUS
 10
-52.0988578255
 20
50.4042966943
 11
-52.0988578255
 21
51.3874053095
  0
LINE
  5
24E
100
AcDbEntity
  8
IMPORT_IGES
100
AcDbLine
 62
250
  6
CONTINUOUS
 10
-51.6595235213
 20
-4.8039188255
 11
-51.6595235213
 21
-4.31728886
  0
LINE
  5
24F
100
AcDbEntity
  8
IMPORT_IGES
100
AcDbLine
 62
250
  6
CONTINUOUS
 10
-51.65952351
 20
42.9973382174
 11
-51.65952351
 21
43.8851170053
  0
LINE
  5
250
100
AcDbEntity
  8
IMPORT_IGES
100
AcDbLine
 62
250
  6
CONTINUOUS
 10
-51.6595179848
 20
-11.6938016194
 11
-51.6595179848
 21
-10.81839473
  0
LINE
  5
251
100
AcDbEntity
  8
IMPORT_IGES
100
AcDbLine
 62
250
  6
CONTINUOUS
 10
-51.6595179837
 20
-8.8862734068
 11
-51.6595179837
 21
-8.7772190387
  0
LINE
  5
252
100
AcDbEntity
  8
IMPORT_IGES
100
AcDbLine
 62
250
  6
CONTINUOUS
 10
-51.6595179837
 20
-6.8450977148
 11
-51.6595179837
 21
-6.7360433467
  0
LINE
  5
253
100
AcDbEntity
  8
IMPORT_IGES
100
AcDbLine
 62
250
  6
CONTINUOUS
 10
-51.6595179835
 20
45.8172351382
 11
-51.6595179835
 21
45.9262895063
  0
LINE
  5
254
100
AcDbEntity
  8
IMPORT_IGES
100
AcDbLine
 62
250
  6
CONTINUOUS
 10
-51.6595179835
 20
47.8584108302
 11
-51.6595179835
 21
47.9674651983
  0
LINE
  5
255
100
AcDbEntity
  8
IMPORT_IGES
100
AcDbLine
 62
250
  6
CONTINUOUS
 10
-51.6595179962
 20
49.8995865296
 11
-51.6595179962
 21
50.7749934189
  0
LWPOLYLINE
  5
256
100
AcDbEntity
  8
IMPORT_IGES
100
AcDbPolyline
 62
250
  6
CONTINUOUS
 90
28
 70
0
 10
-51.6595179973
 20
50.7749934195
 10
-51.657763176
 20
50.8464265067
 10
-51.6525045177
 20
50.9196496603
 10
-51.6437594217
 20
50.994420591
 10
-51.6315568233
 20
51.0704918886
 10
-51.6159370988
 20
51.1476118388
 10
-51.5969519321
 20
51.2255252556
 10
-51.5746641427
 20
51.3039743296
 10
-51.5491474781
 20
51.3826994783
 10
-51.5204863714
 20
51.4614402038
 10
-51.4887756593
 20
51.5399359582
 10
-51.4541202698
 20
51.617927005
 10
-51.4166348754
 20
51.6951552752
 10
-51.3764435121
 20
51.7713652261
 10
-51.33367917
 20
51.8463046839
 10
-51.2884833541
 20
51.9197256773
 10
-51.2410056141
 20
51.9913852611
 10
-51.1914030504
 20
52.0610463188
 10
-51.1398397953
 20
52.128478345
 10
-51.0864864681
 20
52.1934582119
 10
-51.0315196113
 20
52.2557709056
 10
-50.9751211076
 20
52.3152102364
 10
-50.9174775758
 20
52.3715795239
 10
-50.8587797545
 20
52.4246922461
 10
-50.7992218719
 20
52.4743726559
 10
-50.7390010017
 20
52.5204563644
 10
-50.67831641
 20
52.5627908845
 10
-50.617368898
 20
52.6012361349
  0
LWPOLYLINE
  5
257
100
AcDbEntity
  8
IMPORT_IGES
100
AcDbPolyline
 62
250
  6
CONTINUOUS
 90
22
 70
0
 10
-51.9349157511
 20
-5.4874231562
 10
-51.9453673537
 20
-5.5494809486
 10
-51.9550211321
 20
-5.6106239266
 10
-51.9628555283
 20
-5.6689810228
 10
-51.9681024026
 20
-5.7236264654
 10
-51.9708415936
 20
-5.7756317076
 10
-51.9712863078
 20
-5.8261993274
 10
-51.9696009083
 20
-5.8755251882
 10
-51.9653183976
 20
-5.9235191311
 10
-51.957818391
 20
-5.9708882713
 10
-51.9469829109
 20
-6.0178441664
 10
-51.932734641
 20
-6.0643120037
 10
-51.9145440869
 20
-6.1105646798
 10
-51.8922361142
 20
-6.1571103863
 10
-51.8658545959
 20
-6.2036058347
 10
-51.8351904492
 20
-6.2491212424
 10
-51.8007417443
 20
-6.2935112622
 10
-51.7619014064
 20
-6.3372142095
 10
-51.7167884871
 20
-6.3802820293
 10
-51.6647524449
 20
-6.4228461394
 10
-51.6063835004
 20
-6.4650542275
 10
-51.5416671386
 20
-6.5069873005
  0
LWPOLYLINE
  5
258
100
AcDbEntity
  8
IMPORT_IGES
100
AcDbPolyline
 62
250
  6
CONTINUOUS
 90
22
 70
0
 10
-51.9349157511
 20
-7.5285988482
 10
-51.9453673537
 20
-7.5906566406
 10
-51.9550211321
 20
-7.6517996187
 10
-51.9628555283
 20
-7.7101567148
 10
-51.9681024026
 20
-7.7648021574
 10
-51.9708415936
 20
-7.8168073996
 10
-51.9712863078
 20
-7.8673750195
 10
-51.9696009083
 20
-7.9167008802
 10
-51.9653183976
 20
-7.9646948232
 10
-51.957818391
 20
-8.0120639633
 10
-51.9469829109
 20
-8.0590198584
 10
-51.932734641
 20
-8.1054876957
 10
-51.9145440868
 20
-8.1517403718
 10
-51.8922361142
 20
-8.1982860783
 10
-51.8658545958
 20
-8.2447815267
 10
-51.8351904492
 20
-8.2902969344
 10
-51.8007417443
 20
-8.3346869542
 10
-51.7619014063
 20
-8.3783899015
 10
-51.7167884871
 20
-8.4214577213
 10
-51.6647524449
 20
-8.4640218314
 10
-51.6063835004
 20
-8.5062299195
 10
-51.5416671386
 20
-8.5481629925
  0
LWPOLYLINE
  5
259
100
AcDbEntity
  8
IMPORT_IGES
100
AcDbPolyline
 62
250
  6
CONTINUOUS
 90
22
 70
0
 10
-51.9349157511
 20
-9.5697745402
 10
-51.9453673537
 20
-9.6318323326
 10
-51.9550211321
 20
-9.6929753106
 10
-51.9628555283
 20
-9.7513324067
 10
-51.9681024026
 20
-9.8059778493
 10
-51.9708415936
 20
-9.8579830915
 10
-51.9712863078
 20
-9.9085507114
 10
-51.9696009083
 20
-9.9578765721
 10
-51.9653183976
 20
-10.0058705151
 10
-51.957818391
 20
-10.0532396552
 10
-51.9469829109
 20
-10.1001955504
 10
-51.932734641
 20
-10.1466633876
 10
-51.9145440869
 20
-10.1929160637
 10
-51.8922361142
 20
-10.2394617702
 10
-51.8658545959
 20
-10.2859572186
 10
-51.8351904492
 20
-10.3314726263
 10
-51.8007417443
 20
-10.3758626462
 10
-51.7619014064
 20
-10.4195655935
 10
-51.7167884871
 20
-10.4626334133
 10
-51.6647524449
 20
-10.5051975234
 10
-51.6063835004
 20
-10.5474056115
 10
-51.5416671386
 20
-10.5893386845
  0
LINE
  5
25A
100
AcDbEntity
  8
IMPORT_IGES
100
AcDbLine
 62
250
  6
CONTINUOUS
 10
-51.8808409797
 20
-5.1823796846
 11
-51.9349157511
 21
-5.4874231562
  0
LINE
  5
25B
100
AcDbEntity
  8
IMPORT_IGES
100
AcDbLine
 62
250
  6
CONTINUOUS
 10
-51.8808409797
 20
-7.2235553766
 11
-51.9349157511
 21
-7.5285988482
  0
LINE
  5
25C
100
AcDbEntity
  8
IMPORT_IGES
100
AcDbLine
 62
250
  6
CONTINUOUS
 10
-51.8808409797
 20
-9.2647310686
 11
-51.9349157511
 21
-9.5697745402
  0
LWPOLYLINE
  5
25D
100
AcDbEntity
  8
IMPORT_IGES
100
AcDbPolyline
 62
7
  6
CONTINUOUS
 90
9
 70
0
 10
-52.021136106
 20
-5.4792480036
 10
-52.03622499
 20
-5.5472523661
 10
-52.0509239886
 20
-5.6170015246
 10
-52.0647804292
 20
-5.6885353786
 10
-52.0771581681
 20
-5.7613602615
 10
-52.0873736677
 20
-5.8351436957
 10
-52.0946915136
 20
-5.9099401354
 10
-52.0983999829
 20
-5.9851237236
 10
-52.0987366191
 20
-6.0182038019
  0
LWPOLYLINE
  5
25E
100
AcDbEntity
  8
IMPORT_IGES
100
AcDbPolyline
 62
7
  6
CONTINUOUS
 90
9
 70
0
 10
-52.0211361023
 20
-7.5204236794
 10
-52.0362249863
 20
-7.5884280409
 10
-52.0509239849
 20
-7.6581771983
 10
-52.0647804257
 20
-7.7297110511
 10
-52.0771581649
 20
-7.802535933
 10
-52.0873736651
 20
-7.8763193661
 10
-52.0946915119
 20
-7.9511158051
 10
-52.0983999824
 20
-8.0262993926
 10
-52.0987366188
 20
-8.0593796082
  0
LWPOLYLINE
  5
25F
100
AcDbEntity
  8
IMPORT_IGES
100
AcDbPolyline
 62
7
  6
CONTINUOUS
 90
9
 70
0
 10
-52.0211361023
 20
-9.5615993713
 10
-52.0362249863
 20
-9.6296037329
 10
-52.0509239849
 20
-9.6993528903
 10
-52.0647804257
 20
-9.7708867431
 10
-52.0771581649
 20
-9.8437116249
 10
-52.0873736651
 20
-9.9174950581
 10
-52.0946915119
 20
-9.992291497
 10
-52.0983999824
 20
-10.0674750845
 10
-52.0987366188
 20
-10.1005553001
  0
LINE
  5
260
100
AcDbEntity
  8
IMPORT_IGES
100
AcDbLine
 62
7
  6
CONTINUOUS
 10
-51.9768651592
 20
-5.2841173146
 11
-52.021136106
 21
-5.4792480036
  0
LINE
  5
261
100
AcDbEntity
  8
IMPORT_IGES
100
AcDbLine
 62
7
  6
CONTINUOUS
 10
-51.9768651562
 20
-7.3252929933
 11
-52.0211361023
 21
-7.5204236794
  0
LINE
  5
262
100
AcDbEntity
  8
IMPORT_IGES
100
AcDbLine
 62
7
  6
CONTINUOUS
 10
-51.9768651562
 20
-9.3664686852
 11
-52.0211361023
 21
-9.5615993713
  0
LINE
  5
263
100
AcDbEntity
  8
IMPORT_IGES
100
AcDbLine
 62
7
  6
CONTINUOUS
 10
-28.7235947119
 20
53.6605629409
 11
-28.7586293956
 21
53.5929947539
  0
LWPOLYLINE
  5
264
100
AcDbEntity
  8
IMPORT_IGES
100
AcDbPolyline
 62
250
  6
CONTINUOUS
 90
10
 70
0
 10
35.2146742744
 20
-58.8290267903
 10
35.0509017223
 20
-58.7879513657
 10
34.9643494359
 20
-58.7650371764
 10
34.8754026757
 20
-58.7398388323
 10
34.7852109077
 20
-58.7123297123
 10
34.6983852962
 20
-58.6836177446
 10
34.6166777759
 20
-58.6546218561
 10
34.5386920113
 20
-58.6249574077
 10
34.4640472431
 20
-58.5941809726
 10
34.3927709423
 20
-58.5622239361
  0
LWPOLYLINE
  5
265
100
AcDbEntity
  8
IMPORT_IGES
100
AcDbPolyline
 62
250
  6
CONTINUOUS
 90
8
 70
0
 10
-51.9994009324
 20
-8.454894831
 10
-51.9629439497
 20
-8.5126810033
 10
-51.9225393514
 20
-8.565505448
 10
-51.8779364924
 20
-8.6144204741
 10
-51.8291106635
 20
-8.6600886983
 10
-51.7761883567
 20
-8.7026409987
 10
-51.719563775
 20
-8.7417155308
 10
-51.6595179973
 20
-8.7772190314
  0
LWPOLYLINE
  5
266
100
AcDbEntity
  8
IMPORT_IGES
100
AcDbPolyline
 62
250
  6
CONTINUOUS
 90
3
 70
0
 10
-52.0555152084
 20
-8.3311631589
 10
-52.0307318421
 20
-8.3934036122
 10
-51.9994009324
 20
-8.454894831
  0
LWPOLYLINE
  5
267
100
AcDbEntity
  8
IMPORT_IGES
100
AcDbPolyline
 62
250
  6
CONTINUOUS
 90
3
 70
0
 10
-52.0555148351
 20
-6.2899885436
 10
-52.0307314445
 20
-6.3522287939
 10
-51.9994005374
 20
-6.4137198253
  0
LWPOLYLINE
  5
268
100
AcDbEntity
  8
IMPORT_IGES
100
AcDbPolyline
 62
7
  6
CONTINUOUS
 90
14
 70
0
 10
-51.909029071
 20
47.9892110353
 10
-51.9074621121
 20
47.9685584626
 10
-51.9058968876
 20
47.9329792435
 10
-51.9054231823
 20
47.8948003788
 10
-51.9061785057
 20
47.8540662225
 10
-51.9082548952
 20
47.8107143912
 10
-51.9117217804
 20
47.7648700211
 10
-51.9166432191
 20
47.7165550319
 10
-51.9230799047
 20
47.6657817269
 10
-51.9310555427
 20
47.6126868686
 10
-51.9405200779
 20
47.5573208558
 10
-51.9513802878
 20
47.4997603172
 10
-51.9635079803
 20
47.4401697784
 10
-51.9767715678
 20
47.3786392862
  0
LWPOLYLINE
  5
269
100
AcDbEntity
  8
IMPORT_IGES
100
AcDbPolyline
 62
7
  6
CONTINUOUS
 90
14
 70
0
 10
-51.909029071
 20
50.0303867273
 10
-51.9074621121
 20
50.0097341545
 10
-51.9058968876
 20
49.9741549355
 10
-51.9054231823
 20
49.9359760708
 10
-51.9061785057
 20
49.8952419145
 10
-51.9082548952
 20
49.8518900831
 10
-51.9117217804
 20
49.806045713
 10
-51.9166432191
 20
49.7577307239
 10
-51.9230799047
 20
49.7069574189
 10
-51.9310555427
 20
49.6538625606
 10
-51.9405200779
 20
49.5984965477
 10
-51.9513802878
 20
49.5409360092
 10
-51.9635079804
 20
49.4813454703
 10
-51.9767715678
 20
49.4198149781
  0
LWPOLYLINE
  5
26A
100
AcDbEntity
  8
IMPORT_IGES
100
AcDbPolyline
 62
7
  6
CONTINUOUS
 90
3
 70
0
 10
-28.7586293956
 20
53.5929947539
 10
-28.7868004661
 20
53.5243646938
 10
-28.7980537981
 20
53.4875153537
  0
LWPOLYLINE
  5
26B
100
AcDbEntity
  8
IMPORT_IGES
100
AcDbPolyline
 62
250
  6
CONTINUOUS
 90
10
 70
0
 10
35.214674279
 20
-56.7878510996
 10
35.0509017259
 20
-56.7467756747
 10
34.9643494389
 20
-56.7238614853
 10
34.8754026782
 20
-56.698663141
 10
34.7852109096
 20
-56.6711540209
 10
34.6983852976
 20
-56.6424420531
 10
34.616677777
 20
-56.6134461645
 10
34.5386920121
 20
-56.583781716
 10
34.4640472436
 20
-56.5530052808
 10
34.3927709425
 20
-56.5210482442
  0
LWPOLYLINE
  5
26C
100
AcDbEntity
  8
IMPORT_IGES
100
AcDbPolyline
 62
250
  6
CONTINUOUS
 90
10
 70
0
 10
35.2146742791
 20
-54.7466754076
 10
35.0509017261
 20
-54.7055999827
 10
34.9643494391
 20
-54.6826857933
 10
34.8754026783
 20
-54.6574874491
 10
34.7852109098
 20
-54.629978329
 10
34.6983852978
 20
-54.6012663612
 10
34.6166777771
 20
-54.5722704726
 10
34.5386920122
 20
-54.542606024
 10
34.4640472436
 20
-54.5118295888
 10
34.3927709426
 20
-54.4798725522
  0
LWPOLYLINE
  5
26D
100
AcDbEntity
  8
IMPORT_IGES
100
AcDbPolyline
 62
7
  6
CONTINUOUS
 90
10
 70
0
 10
35.1252915439
 20
-58.8922407399
 10
35.1859384117
 20
-58.9101383601
 10
35.2443538061
 20
-58.9280306958
 10
35.3002303155
 20
-58.9460845128
 10
35.3532274361
 20
-58.9644103767
 10
35.4030939021
 20
-58.9831009803
 10
35.449339665
 20
-59.0020803085
 10
35.4921678979
 20
-59.0214679404
 10
35.5322163818
 20
-59.0416303673
 10
35.5636060325
 20
-59.0592062271
  0
LWPOLYLINE
  5
26E
100
AcDbEntity
  8
IMPORT_IGES
100
AcDbPolyline
 62
7
  6
CONTINUOUS
 90
10
 70
0
 10
35.1252915439
 20
-56.8510650479
 10
35.1859384117
 20
-56.8689626681
 10
35.2443538061
 20
-56.8868550038
 10
35.3002303155
 20
-56.9049088208
 10
35.3532274361
 20
-56.9232346848
 10
35.4030939021
 20
-56.9419252883
 10
35.449339665
 20
-56.9609046166
 10
35.4921678979
 20
-56.9802922484
 10
35.5322163818
 20
-57.0004546754
 10
35.5636060325
 20
-57.0180305352
  0
LWPOLYLINE
  5
26F
100
AcDbEntity
  8
IMPORT_IGES
100
AcDbPolyline
 62
250
  6
CONTINUOUS
 90
8
 70
0
 10
-51.9994005374
 20
-6.4137198253
 10
-51.962943582
 20
-6.4715058306
 10
-51.9225390336
 20
-6.524330129
 10
-51.8779362422
 20
-6.5732450306
 10
-51.8291104853
 20
-6.6189131559
 10
-51.7761882461
 20
-6.6614653834
 10
-51.7195637253
 20
-6.7005398661
 10
-51.6595179973
 20
-6.7360433394
  0
LINE
  5
270
100
AcDbEntity
  8
IMPORT_IGES
100
AcDbLine
 62
7
  6
CONTINUOUS
 10
-42.6398184566
 20
57.1556557121
 11
-42.6398184566
 21
57.1981783187
  0
LWPOLYLINE
  5
271
100
AcDbEntity
  8
IMPORT_IGES
100
AcDbPolyline
 62
7
  6
CONTINUOUS
 90
11
 70
0
 10
-27.958507983
 20
52.7177890839
 10
-27.9561667609
 20
52.7259767691
 10
-27.9375924432
 20
52.7719719766
 10
-27.9138478222
 20
52.8171672839
 10
-27.885034576
 20
52.8613691577
 10
-27.8512760873
 20
52.9043883187
 10
-27.8127169151
 20
52.9460405524
 10
-27.7695221757
 20
52.9861474976
 10
-27.7218768357
 20
53.02453741
 10
-27.6699849197
 20
53.0610458982
 10
-27.6140686368
 20
53.0955166272
  0
LWPOLYLINE
  5
272
100
AcDbEntity
  8
IMPORT_IGES
100
AcDbPolyline
 62
7
  6
CONTINUOUS
 90
10
 70
0
 10
35.1252915439
 20
-54.8098893559
 10
35.1859384117
 20
-54.8277869761
 10
35.2443538061
 20
-54.8456793118
 10
35.3002303155
 20
-54.8637331288
 10
35.3532274361
 20
-54.8820589928
 10
35.4030939021
 20
-54.9007495963
 10
35.449339665
 20
-54.9197289246
 10
35.4921678979
 20
-54.9391165564
 10
35.5322163818
 20
-54.9592789834
 10
35.5636060325
 20
-54.9768548432
  0
LWPOLYLINE
  5
273
100
AcDbEntity
  8
IMPORT_IGES
100
AcDbPolyline
 62
250
  6
CONTINUOUS
 90
3
 70
0
 10
34.3927709423
 20
-58.5622239361
 10
34.3252330006
 20
-58.5294579979
 10
34.2615935171
 20
-58.4960463424
  0
LWPOLYLINE
  5
274
100
AcDbEntity
  8
IMPORT_IGES
100
AcDbPolyline
 62
250
  6
CONTINUOUS
 90
15
 70
0
 10
-51.3488940658
 20
-12.3804069039
 10
-51.3764433675
 20
-12.3632861951
 10
-51.4166347325
 20
-12.3334882439
 10
-51.454120132
 20
-12.2995471877
 10
-51.4887755292
 20
-12.2615753352
 10
-51.5204862522
 20
-12.2196983325
 10
-51.5491473722
 20
-12.1740547475
 10
-51.5746640517
 20
-12.1247956117
 10
-51.5969518578
 20
-12.0720839201
 10
-51.6159370418
 20
-12.0160940918
 10
-51.6315567831
 20
-11.9570113933
 10
-51.6437593969
 20
-11.8950313249
 10
-51.6525045058
 20
-11.8303589744
 10
-51.6577631728
 20
-11.7632083379
 10
-51.6595179973
 20
-11.6938016121
  0
LWPOLYLINE
  5
275
100
AcDbEntity
  8
IMPORT_IGES
100
AcDbPolyline
 62
250
  6
CONTINUOUS
 90
3
 70
0
 10
34.3927709425
 20
-56.5210482442
 10
34.3252330007
 20
-56.4882823059
 10
34.2615935171
 20
-56.4548706504
  0
LWPOLYLINE
  5
276
100
AcDbEntity
  8
IMPORT_IGES
100
AcDbPolyline
 62
250
  6
CONTINUOUS
 90
3
 70
0
 10
34.3927709426
 20
-54.4798725522
 10
34.3252330007
 20
-54.4471066139
 10
34.2615935171
 20
-54.4136949584
  0
LWPOLYLINE
  5
277
100
AcDbEntity
  8
IMPORT_IGES
100
AcDbPolyline
 62
250
  6
CONTINUOUS
 90
10
 70
0
 10
35.7851734054
 20
-59.0331499635
 10
35.7318558831
 20
-59.0052267543
 10
35.6742028896
 20
-58.9790651362
 10
35.6137612837
 20
-58.9542385022
 10
35.5505572558
 20
-58.9304054348
 10
35.4846723077
 20
-58.9075568407
 10
35.4178462907
 20
-58.8859873198
 10
35.3524146462
 20
-58.8662124811
 10
35.2863020985
 20
-58.8477243381
 10
35.2146742744
 20
-58.8290267903
  0
LWPOLYLINE
  5
278
100
AcDbEntity
  8
IMPORT_IGES
100
AcDbPolyline
 62
250
  6
CONTINUOUS
 90
10
 70
0
 10
35.7851734041
 20
-56.9919742707
 10
35.7318558824
 20
-56.9640510619
 10
35.6742028899
 20
-56.9378894444
 10
35.6137612849
 20
-56.9130628107
 10
35.550557258
 20
-56.8892297436
 10
35.4846723109
 20
-56.8663811497
 10
35.4178462947
 20
-56.8448116291
 10
35.3524146507
 20
-56.8250367904
 10
35.2863021032
 20
-56.8065486474
 10
35.214674279
 20
-56.7878510996
  0
LWPOLYLINE
  5
279
100
AcDbEntity
  8
IMPORT_IGES
100
AcDbPolyline
 62
250
  6
CONTINUOUS
 90
10
 70
0
 10
35.7851734042
 20
-54.9507985788
 10
35.7318558825
 20
-54.92287537
 10
35.67420289
 20
-54.8967137524
 10
35.613761285
 20
-54.8718871188
 10
35.5505572581
 20
-54.8480540516
 10
35.484672311
 20
-54.8252054578
 10
35.4178462948
 20
-54.8036359371
 10
35.3524146508
 20
-54.7838610985
 10
35.2863021033
 20
-54.7653729554
 10
35.2146742791
 20
-54.7466754076
  0
LWPOLYLINE
  5
27A
100
AcDbEntity
  8
IMPORT_IGES
100
AcDbPolyline
 62
7
  6
CONTINUOUS
 90
11
 70
0
 10
34.3030344088
 20
-58.587549444
 10
34.3760826501
 20
-58.6274253305
 10
34.4461387959
 20
-58.6618611832
 10
34.5165822869
 20
-58.6932644575
 10
34.5870212278
 20
-58.7219235723
 10
34.6574012771
 20
-58.7483058962
 10
34.7273457368
 20
-58.7726826614
 10
34.7964972263
 20
-58.7952887183
 10
34.8649216183
 20
-58.8164639456
 10
34.9322734852
 20
-58.8364781172
 10
35.1252915439
 20
-58.8922407399
  0
LWPOLYLINE
  5
27B
100
AcDbEntity
  8
IMPORT_IGES
100
AcDbPolyline
 62
7
  6
CONTINUOUS
 90
11
 70
0
 10
34.3030344088
 20
-56.546373752
 10
34.3760826501
 20
-56.5862496386
 10
34.4461387959
 20
-56.6206854912
 10
34.5165822869
 20
-56.6520887655
 10
34.5870212278
 20
-56.6807478803
 10
34.6574012771
 20
-56.7071302042
 10
34.7273457368
 20
-56.7315069695
 10
34.7964972263
 20
-56.7541130264
 10
34.8649216183
 20
-56.7752882536
 10
34.9322734852
 20
-56.7953024253
 10
35.1252915439
 20
-56.8510650479
  0
LWPOLYLINE
  5
27C
100
AcDbEntity
  8
IMPORT_IGES
100
AcDbPolyline
 62
250
  6
CONTINUOUS
 90
46
 70
0
 10
34.2615935171
 20
-60.4281676678
 10
34.3280432869
 20
-60.4655217108
 10
34.3977632049
 20
-60.4989371477
 10
34.4704380851
 20
-60.5283330633
 10
34.5452979434
 20
-60.5535998063
 10
34.6224440629
 20
-60.5747548936
 10
34.7030045003
 20
-60.5917854654
 10
34.7884214825
 20
-60.604673966
 10
34.8768875193
 20
-60.6129616782
 10
34.9645268295
 20
-60.6162138841
 10
35.0501620433
 20
-60.6148991789
 10
35.134109245
 20
-60.6090370565
 10
35.214547649
 20
-60.5980538799
 10
35.2890483304
 20
-60.5826966822
 10
35.3595099909
 20
-60.5630639146
 10
35.4306663299
 20
-60.5373347075
 10
35.5055513917
 20
-60.5041062651
 10
35.5807425425
 20
-60.4644840354
 10
35.6513774341
 20
-60.4204229774
 10
35.7163174914
 20
-60.3727158164
 10
35.7766717521
 20
-60.3212904978
 10
35.8311698523
 20
-60.2672807423
 10
35.8792570322
 20
-60.211186231
 10
35.9217623713
 20
-60.153201308
 10
35.9595458907
 20
-60.0940025305
 10
35.9929417005
 20
-60.0336311625
 10
36.0218659985
 20
-59.9724307293
 10
36.0465216372
 20
-59.9114500595
 10
36.0670950971
 20
-59.8511058663
 10
36.083607937
 20
-59.7912195998
 10
36.0959981354
 20
-59.731913268
 10
36.1044227549
 20
-59.6730614614
 10
36.1088387673
 20
-59.6149016875
 10
36.1088591392
 20
-59.558072568
 10
36.104202096
 20
-59.5024756913
 10
36.0951195982
 20
-59.4481812172
 10
36.0819926048
 20
-59.3960487194
 10
36.0647520738
 20
-59.3461258261
 10
36.0433066135
 20
-59.2982002499
 10
36.0179939573
 20
-59.2527251963
 10
35.9886750262
 20
-59.209451439
 10
35.9552755993
 20
-59.1683583823
 10
35.9182531815
 20
-59.1302479923
 10
35.8778187656
 20
-59.0953521104
 10
35.8335948473
 20
-59.0631175412
 10
35.7851734054
 20
-59.0331499635
  0
LWPOLYLINE
  5
27D
100
AcDbEntity
  8
IMPORT_IGES
100
AcDbPolyline
 62
250
  6
CONTINUOUS
 90
46
 70
0
 10
34.2615935171
 20
-58.3869919757
 10
34.3280432874
 20
-58.4243460191
 10
34.397763206
 20
-58.4577614563
 10
34.470438087
 20
-58.487157372
 10
34.5452979461
 20
-58.5124241151
 10
34.6224440666
 20
-58.5335792024
 10
34.7030045049
 20
-58.5506097742
 10
34.7884214883
 20
-58.5634982747
 10
34.8768875263
 20
-58.5717859866
 10
34.9645268371
 20
-58.5750381921
 10
35.0501620506
 20
-58.5737234867
 10
35.1341092513
 20
-58.567861364
 10
35.2145476544
 20
-58.5568781871
 10
35.2890483353
 20
-58.5415209891
 10
35.3595099953
 20
-58.5218882212
 10
35.4306663339
 20
-58.4961590139
 10
35.5055513954
 20
-58.4629305713
 10
35.5807425459
 20
-58.4233083414
 10
35.6513774371
 20
-58.3792472835
 10
35.7163174938
 20
-58.3315401226
 10
35.7766717539
 20
-58.2801148043
 10
35.8311698535
 20
-58.2261050491
 10
35.8792570331
 20
-58.1700105379
 10
35.9217623719
 20
-58.112025615
 10
35.9595458912
 20
-58.0528268376
 10
35.9929417009
 20
-57.9924554697
 10
36.0218659988
 20
-57.9312550364
 10
36.0465216376
 20
-57.8702743665
 10
36.0670950975
 20
-57.8099301731
 10
36.0836079374
 20
-57.7500439063
 10
36.0959981357
 20
-57.6907375743
 10
36.1044227551
 20
-57.6318857675
 10
36.1088387674
 20
-57.5737259933
 10
36.1088591391
 20
-57.5168968735
 10
36.1042020956
 20
-57.4612999966
 10
36.0951195975
 20
-57.4070055222
 10
36.0819926038
 20
-57.3548730244
 10
36.0647520726
 20
-57.3049501311
 10
36.043306612
 20
-57.257024555
 10
36.0179939556
 20
-57.2115495015
 10
35.9886750243
 20
-57.1682757445
 10
35.9552755973
 20
-57.127182688
 10
35.9182531795
 20
-57.0890722984
 10
35.8778187637
 20
-57.0541764169
 10
35.8335948455
 20
-57.0219418481
 10
35.7851734041
 20
-56.9919742707
  0
LWPOLYLINE
  5
27E
100
AcDbEntity
  8
IMPORT_IGES
100
AcDbPolyline
 62
250
  6
CONTINUOUS
 90
46
 70
0
 10
34.2615935171
 20
-56.3458162837
 10
34.3280432874
 20
-56.3831703271
 10
34.397763206
 20
-56.4165857643
 10
34.4704380869
 20
-56.44598168
 10
34.545297946
 20
-56.4712484231
 10
34.6224440664
 20
-56.4924035104
 10
34.7030045048
 20
-56.5094340822
 10
34.7884214881
 20
-56.5223225827
 10
34.8768875261
 20
-56.5306102946
 10
34.9645268369
 20
-56.5338625001
 10
35.0501620504
 20
-56.5325477947
 10
35.1341092512
 20
-56.526685672
 10
35.2145476543
 20
-56.5157024952
 10
35.2890483352
 20
-56.5003452972
 10
35.3595099951
 20
-56.4807125292
 10
35.4306663338
 20
-56.4549833219
 10
35.5055513953
 20
-56.4217548794
 10
35.5807425458
 20
-56.3821326495
 10
35.651377437
 20
-56.3380715916
 10
35.7163174937
 20
-56.2903644307
 10
35.7766717538
 20
-56.2389391124
 10
35.8311698534
 20
-56.1849293572
 10
35.879257033
 20
-56.128834846
 10
35.9217623718
 20
-56.0708499231
 10
35.9595458912
 20
-56.0116511457
 10
35.9929417008
 20
-55.9512797778
 10
36.0218659988
 20
-55.8900793445
 10
36.0465216376
 20
-55.8290986746
 10
36.0670950974
 20
-55.7687544812
 10
36.0836079374
 20
-55.7088682144
 10
36.0959981357
 20
-55.6495618824
 10
36.1044227551
 20
-55.5907100756
 10
36.1088387674
 20
-55.5325503014
 10
36.1088591391
 20
-55.4757211816
 10
36.1042020957
 20
-55.4201243047
 10
36.0951195975
 20
-55.3658298303
 10
36.0819926039
 20
-55.3136973325
 10
36.0647520727
 20
-55.2637744392
 10
36.0433066121
 20
-55.2158488631
 10
36.0179939556
 20
-55.1703738096
 10
35.9886750244
 20
-55.1271000525
 10
35.9552755973
 20
-55.0860069961
 10
35.9182531795
 20
-55.0478966065
 10
35.8778187637
 20
-55.0130007249
 10
35.8335948456
 20
-54.9807661562
 10
35.7851734042
 20
-54.9507985788
  0
LINE
  5
27F
100
AcDbEntity
  8
IMPORT_IGES
100
AcDbLine
 62
7
  6
CONTINUOUS
 10
34.5722174487
 20
-61.9901798479
 11
-51.3488940657
 21
-12.3804069039
  0
LINE
  5
280
100
AcDbEntity
  8
IMPORT_IGES
100
AcDbLine
 62
250
  6
CONTINUOUS
 10
34.261593516
 20
-61.3035745555
 11
-51.6595179848
 21
-11.6938016194
  0
LINE
  5
281
100
AcDbEntity
  8
IMPORT_IGES
100
AcDbLine
 62
250
  6
CONTINUOUS
 10
-51.6595179848
 20
-10.81839473
 11
34.261593516
 21
-60.4281676662
  0
LINE
  5
282
100
AcDbEntity
  8
IMPORT_IGES
100
AcDbLine
 62
250
  6
CONTINUOUS
 10
-51.5416671386
 20
-10.5893386845
 11
34.3794450104
 21
-60.1991119948
  0
LINE
  5
283
100
AcDbEntity
  8
IMPORT_IGES
100
AcDbLine
 62
7
  6
CONTINUOUS
 10
34.3030101679
 20
-58.5875937906
 11
-51.6181014697
 21
-8.9778207755
  0
LINE
  5
284
100
AcDbEntity
  8
IMPORT_IGES
100
AcDbLine
 62
250
  6
CONTINUOUS
 10
34.2615935033
 20
-58.4960463349
 11
-51.6595179837
 21
-8.8862734068
  0
LINE
  5
285
100
AcDbEntity
  8
IMPORT_IGES
100
AcDbLine
 62
250
  6
CONTINUOUS
 10
-51.6595179837
 20
-8.7772190387
 11
34.2615935033
 21
-58.3869919668
  0
LINE
  5
286
100
AcDbEntity
  8
IMPORT_IGES
100
AcDbLine
 62
250
  6
CONTINUOUS
 10
-51.5416671386
 20
-8.5481629925
 11
34.3794450104
 21
-58.1579363028
  0
LINE
  5
287
100
AcDbEntity
  8
IMPORT_IGES
100
AcDbLine
 62
250
  6
CONTINUOUS
 10
34.5721219201
 20
-61.9901246768
 11
34.5722174487
 21
-61.9901798479
  0
LWPOLYLINE
  5
288
100
AcDbEntity
  8
IMPORT_IGES
100
AcDbPolyline
 62
250
  6
CONTINUOUS
 90
15
 70
0
 10
-51.6595179973
 20
-11.6938016121
 10
-51.7187506904
 20
-11.6575749633
 10
-51.7742777253
 20
-11.6194417521
 10
-51.8259153663
 20
-11.5795281591
 10
-51.8734927475
 20
-11.5379662559
 10
-51.9168524383
 20
-11.4948935683
 10
-51.9558509641
 20
-11.4504526213
 10
-51.9903592811
 20
-11.4047904674
 10
-52.0202632033
 20
-11.3580581998
 10
-52.0454637804
 20
-11.3104104528
 10
-52.0658776253
 20
-11.26200489
 10
-52.0814371897
 20
-11.2130016824
 10
-52.0920909881
 20
-11.1635629788
 10
-52.0978037675
 20
-11.1138523688
 10
-52.0988578255
 20
-11.0813897222
  0
LWPOLYLINE
  5
289
100
AcDbEntity
  8
IMPORT_IGES
100
AcDbPolyline
 62
250
  6
CONTINUOUS
 90
10
 70
0
 10
-51.6181014697
 20
-8.9778207755
 10
-51.6216127107
 20
-8.9756457722
 10
-51.6301578026
 20
-8.9689325468
 10
-51.6377282729
 20
-8.9607777311
 10
-51.6442574544
 20
-8.9512472994
 10
-51.6496839196
 20
-8.9404241349
 10
-51.6539565243
 20
-8.9284052966
 10
-51.6570364163
 20
-8.9152969464
 10
-51.6588960498
 20
-8.9012119786
 10
-51.6595179939
 20
-8.8862734032
  0
LWPOLYLINE
  5
28A
100
AcDbEntity
  8
IMPORT_IGES
100
AcDbPolyline
 62
250
  6
CONTINUOUS
 90
10
 70
0
 10
-51.6181014697
 20
-6.9366450835
 10
-51.6216127107
 20
-6.9344700803
 10
-51.6301578026
 20
-6.9277568549
 10
-51.6377282729
 20
-6.9196020391
 10
-51.6442574544
 20
-6.9100716074
 10
-51.6496839196
 20
-6.8992484429
 10
-51.6539565243
 20
-6.8872296046
 10
-51.6570364163
 20
-6.8741212544
 10
-51.6588960498
 20
-6.8600362866
 10
-51.6595179939
 20
-6.8450977113
  0
LWPOLYLINE
  5
28B
100
AcDbEntity
  8
IMPORT_IGES
100
AcDbPolyline
 62
250
  6
CONTINUOUS
 90
14
 70
0
 10
-51.6595179973
 20
-8.8862733981
 10
-51.7220315995
 20
-8.8466611679
 10
-51.7800728349
 20
-8.8065151128
 10
-51.8335013592
 20
-8.766016992
 10
-51.8819244163
 20
-8.7254956547
 10
-51.9255748796
 20
-8.6850080306
 10
-51.9650373797
 20
-8.6442490018
 10
-52.0006281614
 20
-8.6025829177
 10
-52.0312026399
 20
-8.5608554667
 10
-52.0555706926
 20
-8.5210584347
 10
-52.0739708225
 20
-8.4835406659
 10
-52.0870110265
 20
-8.4484509759
 10
-52.0949853929
 20
-8.417588553
 10
-52.0983211912
 20
-8.3931862991
  0
LWPOLYLINE
  5
28C
100
AcDbEntity
  8
IMPORT_IGES
100
AcDbPolyline
 62
250
  6
CONTINUOUS
 90
14
 70
0
 10
-51.6595179973
 20
-6.8450977061
 10
-51.7220315995
 20
-6.8054854759
 10
-51.7800728348
 20
-6.7653394208
 10
-51.8335013591
 20
-6.7248413001
 10
-51.8819244162
 20
-6.6843199628
 10
-51.9255748795
 20
-6.6438323387
 10
-51.9650373796
 20
-6.60307331
 10
-52.0006281613
 20
-6.5614072259
 10
-52.0312026398
 20
-6.5196797749
 10
-52.0555706926
 20
-6.4798827429
 10
-52.0739708224
 20
-6.4423649741
 10
-52.0870110265
 20
-6.407275284
 10
-52.0949853929
 20
-6.3764128611
 10
-52.0983211912
 20
-6.3520106071
  0
LWPOLYLINE
  5
28D
100
AcDbEntity
  8
IMPORT_IGES
100
AcDbPolyline
 62
250
  6
CONTINUOUS
 90
16
 70
0
 10
-51.5416669917
 20
-6.5069873853
 10
-51.5545907287
 20
-6.5176960138
 10
-51.5671952732
 20
-6.5296002144
 10
-51.5793703803
 20
-6.5425958676
 10
-51.5910095611
 20
-6.5565693077
 10
-51.6020110141
 20
-6.5713983166
 10
-51.6122785157
 20
-6.5869531933
 10
-51.6217222617
 20
-6.603097888
 10
-51.630259653
 20
-6.6196911918
 10
-51.6378160177
 20
-6.6365879724
 10
-51.6443252645
 20
-6.6536404429
 10
-51.6497304606
 20
-6.670699455
 10
-51.6539843297
 20
-6.6876158028
 10
-51.6570496657
 20
-6.7042415284
 10
-51.6588996576
 20
-6.7204312159
 10
-51.6595181247
 20
-6.7360432629
  0
LINE
  5
28E
100
AcDbEntity
  8
IMPORT_IGES
100
AcDbLine
 62
7
  6
CONTINUOUS
 10
-0.5914162662
 20
32.8774352776
 11
-0.5552246471
 21
32.899061297
  0
LINE
  5
28F
100
AcDbEntity
  8
IMPORT_IGES
100
AcDbLine
 62
7
  6
CONTINUOUS
 10
-1.1898206241
 20
33.2654690608
 11
-1.2272980164
 21
33.2445854307
  0
LWPOLYLINE
  5
290
100
AcDbEntity
  8
IMPORT_IGES
100
AcDbPolyline
 62
7
  6
CONTINUOUS
 90
25
 70
0
 10
3.1031457429
 20
36.5988192437
 10
3.1509320922
 20
36.6234714384
 10
3.2011193122
 20
36.6461380703
 10
3.2537074029
 20
36.6668191393
 10
3.308946857
 20
36.6855640422
 10
3.3665871819
 20
36.7023233823
 10
3.425876899
 20
36.7169489692
 10
3.4868124628
 20
36.7294542064
 10
3.5493974189
 20
36.7398256906
 10
3.6128909249
 20
36.7478750207
 10
3.6773792405
 20
36.7535935884
 10
3.7427761061
 20
36.7569900022
 10
3.8080819001
 20
36.7579016866
 10
3.8732603607
 20
36.7562379849
 10
3.9383477498
 20
36.7520895539
 10
4.0024532315
 20
36.7455657886
 10
4.0654182524
 20
36.7366584987
 10
4.1274013659
 20
36.7253758746
 10
4.1879873969
 20
36.711851883
 10
4.2471856429
 20
36.6961064483
 10
4.3049868064
 20
36.6781196461
 10
4.3609478188
 20
36.6579656689
 10
4.4149209905
 20
36.6356692476
 10
4.4670540112
 20
36.6112056513
 10
4.5173468807
 20
36.58457488
  0
LWPOLYLINE
  5
291
100
AcDbEntity
  8
IMPORT_IGES
100
AcDbPolyline
 62
7
  6
CONTINUOUS
 90
25
 70
0
 10
7.3457615808
 20
34.1491860398
 10
7.2979752315
 20
34.124533845
 10
7.2477880116
 20
34.1018672131
 10
7.1951999209
 20
34.0811861441
 10
7.1399604667
 20
34.0624412412
 10
7.0823201418
 20
34.0456819012
 10
7.0230304248
 20
34.0310563143
 10
6.9620948609
 20
34.018551077
 10
6.8995099049
 20
34.0081795929
 10
6.8360163989
 20
34.0001302627
 10
6.7715280833
 20
33.994411695
 10
6.7061312177
 20
33.9910152813
 10
6.6408254237
 20
33.9901035969
 10
6.575646963
 20
33.9917672986
 10
6.510559574
 20
33.9959157296
 10
6.4464540922
 20
34.0024394948
 10
6.3834890714
 20
34.0113467847
 10
6.3215059578
 20
34.0226294088
 10
6.2609199269
 20
34.0361534005
 10
6.2017216808
 20
34.0518988351
 10
6.1439205174
 20
34.0698856373
 10
6.087959505
 20
34.0900396145
 10
6.0339863333
 20
34.1123360358
 10
5.9818533126
 20
34.1367996322
 10
5.9315604431
 20
34.1634304034
  0
LWPOLYLINE
  5
292
100
AcDbEntity
  8
IMPORT_IGES
100
AcDbPolyline
 62
7
  6
CONTINUOUS
 90
11
 70
0
 10
34.3030344088
 20
-54.5051980601
 10
34.3760826501
 20
-54.5450739466
 10
34.4461387959
 20
-54.5795097992
 10
34.5165822869
 20
-54.6109130736
 10
34.5870212278
 20
-54.6395721883
 10
34.6574012771
 20
-54.6659545123
 10
34.7273457368
 20
-54.6903312775
 10
34.7964972263
 20
-54.7129373344
 10
34.8649216183
 20
-54.7341125616
 10
34.9322734852
 20
-54.7541267333
 10
35.1252915439
 20
-54.8098893559
  0
LINE
  5
293
100
AcDbEntity
  8
IMPORT_IGES
100
AcDbLine
 62
7
  6
CONTINUOUS
 10
34.3030101679
 20
-56.5464180986
 11
-51.6181014697
 21
-6.9366450835
  0
LINE
  5
294
100
AcDbEntity
  8
IMPORT_IGES
100
AcDbLine
 62
250
  6
CONTINUOUS
 10
34.2615935033
 20
-56.4548706429
 11
-51.6595179837
 21
-6.8450977148
  0
LINE
  5
295
100
AcDbEntity
  8
IMPORT_IGES
100
AcDbLine
 62
250
  6
CONTINUOUS
 10
-51.6595179837
 20
-6.7360433467
 11
34.2615935033
 21
-56.3458162748
  0
LINE
  5
296
100
AcDbEntity
  8
IMPORT_IGES
100
AcDbLine
 62
250
  6
CONTINUOUS
 10
-51.5416671386
 20
-6.5069873005
 11
34.3794450104
 21
-56.1167606109
  0
LINE
  5
297
100
AcDbEntity
  8
IMPORT_IGES
100
AcDbLine
 62
7
  6
CONTINUOUS
 10
34.3030101679
 20
-54.5052424066
 11
-51.6181014697
 21
-4.8954693915
  0
LINE
  5
298
100
AcDbEntity
  8
IMPORT_IGES
100
AcDbLine
 62
250
  6
CONTINUOUS
 10
34.2615990298
 20
-54.4136981419
 11
-51.6595235213
 21
-4.8039188255
  0
LINE
  5
299
100
AcDbEntity
  8
IMPORT_IGES
100
AcDbLine
 62
7
  6
CONTINUOUS
 10
34.2554346687
 20
-53.9235089516
 11
-52.3604602434
 21
-3.9125767815
  0
LINE
  5
29A
100
AcDbEntity
  8
IMPORT_IGES
100
AcDbLine
 62
7
  6
CONTINUOUS
 10
44.3337770684
 20
-56.7033454355
 11
44.2970185646
 21
-56.6821215361
  0
LWPOLYLINE
  5
29B
100
AcDbEntity
  8
IMPORT_IGES
100
AcDbPolyline
 62
250
  6
CONTINUOUS
 90
10
 70
0
 10
-51.6181014697
 20
-4.8954693915
 10
-51.6216127107
 20
-4.8932943883
 10
-51.6301578026
 20
-4.8865811629
 10
-51.6377282729
 20
-4.8784263471
 10
-51.6442574544
 20
-4.8688959155
 10
-51.6496839196
 20
-4.8580727509
 10
-51.6539565243
 20
-4.8460539126
 10
-51.6570364163
 20
-4.8329455624
 10
-51.6588960498
 20
-4.8188605946
 10
-51.6595179939
 20
-4.8039220193
  0
LWPOLYLINE
  5
29C
100
AcDbEntity
  8
IMPORT_IGES
100
AcDbPolyline
 62
250
  6
CONTINUOUS
 90
10
 70
0
 10
34.3030101679
 20
-58.5875937906
 10
34.2993895069
 20
-58.5853460783
 10
34.2908521155
 20
-58.5786115399
 10
34.2832957508
 20
-58.5704406599
 10
34.276786504
 20
-58.5609049043
 10
34.2713813079
 20
-58.5500876772
 10
34.2671274387
 20
-58.5380835908
 10
34.2640621028
 20
-58.5249976383
 10
34.2622121108
 20
-58.5109442751
 10
34.2615936437
 20
-58.4960464183
  0
LWPOLYLINE
  5
29D
100
AcDbEntity
  8
IMPORT_IGES
100
AcDbPolyline
 62
250
  6
CONTINUOUS
 90
10
 70
0
 10
34.3030101679
 20
-56.5464180986
 10
34.2993895069
 20
-56.5441703863
 10
34.2908521155
 20
-56.5374358479
 10
34.2832957508
 20
-56.5292649679
 10
34.276786504
 20
-56.5197292123
 10
34.2713813079
 20
-56.5089119852
 10
34.2671274387
 20
-56.4969078989
 10
34.2640621028
 20
-56.4838219463
 10
34.2622121108
 20
-56.4697685831
 10
34.2615936437
 20
-56.4548707264
  0
LWPOLYLINE
  5
29E
100
AcDbEntity
  8
IMPORT_IGES
100
AcDbPolyline
 62
250
  6
CONTINUOUS
 90
10
 70
0
 10
34.3030101679
 20
-54.5052424066
 10
34.2993895069
 20
-54.5029946943
 10
34.2908521155
 20
-54.496260156
 10
34.2832957508
 20
-54.4880892759
 10
34.276786504
 20
-54.4785535204
 10
34.2713813079
 20
-54.4677362933
 10
34.2671274387
 20
-54.4557322069
 10
34.2640621028
 20
-54.4426462543
 10
34.2622121108
 20
-54.4285928912
 10
34.2615936437
 20
-54.4136950344
  0
LWPOLYLINE
  5
29F
100
AcDbEntity
  8
IMPORT_IGES
100
AcDbPolyline
 62
250
  6
CONTINUOUS
 90
43
 70
0
 10
35.5635962485
 20
-59.0591974376
 10
35.6085268088
 20
-59.0876221488
 10
35.6531356428
 20
-59.1204159006
 10
35.6929207671
 20
-59.154697065
 10
35.7269717913
 20
-59.1891742557
 10
35.7563577794
 20
-59.2244913869
 10
35.7822066583
 20
-59.2617938137
 10
35.804180314
 20
-59.3007660011
 10
35.8223423949
 20
-59.3416580725
 10
35.8378587501
 20
-59.3870370458
 10
35.8508047857
 20
-59.4390504607
 10
35.8597237691
 20
-59.4962198183
 10
35.8636254328
 20
-59.5555358218
 10
35.8622945164
 20
-59.6165131247
 10
35.8558716711
 20
-59.6790151824
 10
35.84501748
 20
-59.7398722049
 10
35.8308768012
 20
-59.7971153817
 10
35.8134582825
 20
-59.8517674767
 10
35.7919372618
 20
-59.9050801843
 10
35.7664584964
 20
-59.9569193565
 10
35.7372254521
 20
-60.0069633978
 10
35.7030171224
 20
-60.0562664885
 10
35.6626371973
 20
-60.1061285741
 10
35.6171339881
 20
-60.154736234
 10
35.5688930296
 20
-60.1985872721
 10
35.5193524841
 20
-60.236585058
 10
35.4679351911
 20
-60.2697961391
 10
35.4143506161
 20
-60.298175952
 10
35.3591082677
 20
-60.3215787636
 10
35.3022165435
 20
-60.3403078316
 10
35.2425075522
 20
-60.3549467005
 10
35.1794764379
 20
-60.3657877885
 10
35.1138640607
 20
-60.3726207121
 10
35.0463104075
 20
-60.3752560361
 10
34.9769745183
 20
-60.3740026373
 10
34.9058988574
 20
-60.3687790777
 10
34.8335678077
 20
-60.358923501
 10
34.7601391175
 20
-60.3448192147
 10
34.6856019197
 20
-60.3264360887
 10
34.6102026428
 20
-60.3026223199
 10
34.5340561634
 20
-60.2731464993
 10
34.4571304296
 20
-60.2386073079
 10
34.3794450104
 20
-60.1991119948
  0
LWPOLYLINE
  5
2A0
100
AcDbEntity
  8
IMPORT_IGES
100
AcDbPolyline
 62
250
  6
CONTINUOUS
 90
43
 70
0
 10
35.5635962485
 20
-57.0180217456
 10
35.6085268089
 20
-57.0464464568
 10
35.6531356428
 20
-57.0792402086
 10
35.6929207671
 20
-57.113521373
 10
35.7269717914
 20
-57.1479985637
 10
35.7563577794
 20
-57.1833156949
 10
35.7822066583
 20
-57.2206181217
 10
35.804180314
 20
-57.2595903092
 10
35.8223423949
 20
-57.3004823806
 10
35.8378587501
 20
-57.3458613539
 10
35.8508047857
 20
-57.3978747688
 10
35.8597237691
 20
-57.4550441264
 10
35.8636254328
 20
-57.5143601298
 10
35.8622945164
 20
-57.5753374328
 10
35.8558716711
 20
-57.6378394905
 10
35.84501748
 20
-57.6986965129
 10
35.8308768012
 20
-57.7559396898
 10
35.8134582825
 20
-57.8105917848
 10
35.7919372618
 20
-57.8639044923
 10
35.7664584964
 20
-57.9157436645
 10
35.737225452
 20
-57.9657877059
 10
35.7030171224
 20
-58.0150907965
 10
35.6626371973
 20
-58.0649528821
 10
35.6171339881
 20
-58.113560542
 10
35.5688930295
 20
-58.1574115802
 10
35.5193524841
 20
-58.195409366
 10
35.4679351911
 20
-58.2286204472
 10
35.4143506161
 20
-58.25700026
 10
35.3591082677
 20
-58.2804030717
 10
35.3022165435
 20
-58.2991321396
 10
35.2425075522
 20
-58.3137710086
 10
35.1794764379
 20
-58.3246120965
 10
35.1138640607
 20
-58.3314450201
 10
35.0463104075
 20
-58.3340803441
 10
34.9769745183
 20
-58.3328269454
 10
34.9058988574
 20
-58.3276033857
 10
34.8335678077
 20
-58.317747809
 10
34.7601391175
 20
-58.3036435227
 10
34.6856019197
 20
-58.2852603967
 10
34.6102026428
 20
-58.2614466279
 10
34.5340561634
 20
-58.2319708074
 10
34.4571304296
 20
-58.1974316159
 10
34.3794450104
 20
-58.1579363028
  0
LWPOLYLINE
  5
2A1
100
AcDbEntity
  8
IMPORT_IGES
100
AcDbPolyline
 62
250
  6
CONTINUOUS
 90
43
 70
0
 10
35.5635962485
 20
-54.9768460536
 10
35.6085268088
 20
-55.0052707648
 10
35.6531356427
 20
-55.0380645166
 10
35.692920767
 20
-55.072345681
 10
35.7269717913
 20
-55.1068228717
 10
35.7563577794
 20
-55.1421400029
 10
35.7822066583
 20
-55.1794424297
 10
35.804180314
 20
-55.2184146171
 10
35.8223423949
 20
-55.2593066886
 10
35.8378587501
 20
-55.3046856618
 10
35.8508047857
 20
-55.3566990767
 10
35.8597237691
 20
-55.4138684344
 10
35.8636254328
 20
-55.4731844378
 10
35.8622945164
 20
-55.5341617407
 10
35.8558716711
 20
-55.5966637984
 10
35.84501748
 20
-55.6575208209
 10
35.8308768012
 20
-55.7147639978
 10
35.8134582825
 20
-55.7694160928
 10
35.7919372618
 20
-55.8227288003
 10
35.7664584964
 20
-55.8745679725
 10
35.7372254521
 20
-55.9246120138
 10
35.7030171224
 20
-55.9739151045
 10
35.6626371973
 20
-56.0237771901
 10
35.6171339881
 20
-56.07238485
 10
35.5688930296
 20
-56.1162358881
 10
35.5193524841
 20
-56.154233674
 10
35.4679351912
 20
-56.1874447552
 10
35.4143506161
 20
-56.215824568
 10
35.3591082677
 20
-56.2392273797
 10
35.3022165435
 20
-56.2579564476
 10
35.2425075522
 20
-56.2725953166
 10
35.1794764379
 20
-56.2834364045
 10
35.1138640607
 20
-56.2902693281
 10
35.0463104076
 20
-56.2929046522
 10
34.9769745183
 20
-56.2916512534
 10
34.9058988575
 20
-56.2864276937
 10
34.8335678077
 20
-56.276572117
 10
34.7601391175
 20
-56.2624678307
 10
34.6856019197
 20
-56.2440847048
 10
34.6102026428
 20
-56.2202709359
 10
34.5340561634
 20
-56.1907951154
 10
34.4571304296
 20
-56.156255924
 10
34.3794450104
 20
-56.1167606109
  0
LWPOLYLINE
  5
2A2
100
AcDbEntity
  8
IMPORT_IGES
100
AcDbPolyline
 62
250
  6
CONTINUOUS
 90
14
 70
0
 10
-51.6595179973
 20
-4.8039219515
 10
-51.7220313931
 20
-4.7643099027
 10
-51.7800724366
 20
-4.7241640261
 10
-51.8335007889
 20
-4.6836660806
 10
-51.8819236946
 20
-4.6431449122
 10
-51.9255740373
 20
-4.6026574525
 10
-51.9650364641
 20
-4.5618985905
 10
-52.0006271985
 20
-4.5202327091
 10
-52.0312016917
 20
-4.47850546
 10
-52.0555698742
 20
-4.4387085207
 10
-52.0739702348
 20
-4.4011906528
 10
-52.0870106756
 20
-4.3661007396
 10
-52.0949852206
 20
-4.335238088
 10
-52.0983211752
 20
-4.3108353677
  0
LWPOLYLINE
  5
2A3
100
AcDbEntity
  8
IMPORT_IGES
100
AcDbPolyline
 62
250
  6
CONTINUOUS
 90
3
 70
0
 10
-52.0555336811
 20
46.3723883181
 10
-52.0307531341
 20
46.3101412063
 10
-51.9994238017
 20
46.2486456532
  0
LWPOLYLINE
  5
2A4
100
AcDbEntity
  8
IMPORT_IGES
100
AcDbPolyline
 62
250
  6
CONTINUOUS
 90
3
 70
0
 10
-52.0555336802
 20
48.4135640076
 10
-52.0307531331
 20
48.3513168962
 10
-51.9994238008
 20
48.2898213436
  0
LWPOLYLINE
  5
2A5
100
AcDbEntity
  8
IMPORT_IGES
100
AcDbPolyline
 62
250
  6
CONTINUOUS
 90
16
 70
0
 10
-51.5416669917
 20
-8.5481630773
 10
-51.5545907287
 20
-8.5588717058
 10
-51.5671952732
 20
-8.5707759064
 10
-51.5793703803
 20
-8.5837715596
 10
-51.5910095611
 20
-8.5977449997
 10
-51.6020110141
 20
-8.6125740086
 10
-51.6122785157
 20
-8.6281288853
 10
-51.6217222617
 20
-8.6442735799
 10
-51.630259653
 20
-8.6608668838
 10
-51.6378160177
 20
-8.6777636643
 10
-51.6443252645
 20
-8.6948161349
 10
-51.6497304606
 20
-8.711875147
 10
-51.6539843297
 20
-8.7287914948
 10
-51.6570496657
 20
-8.7454172204
 10
-51.6588996576
 20
-8.7616069079
 10
-51.6595181247
 20
-8.7772189549
  0
LWPOLYLINE
  5
2A6
100
AcDbEntity
  8
IMPORT_IGES
100
AcDbPolyline
 62
250
  6
CONTINUOUS
 90
16
 70
0
 10
-51.5416669917
 20
-10.5893387693
 10
-51.5545907287
 20
-10.6000473978
 10
-51.5671952732
 20
-10.6119515984
 10
-51.5793703803
 20
-10.6249472516
 10
-51.5910095611
 20
-10.6389206916
 10
-51.6020110141
 20
-10.6537497006
 10
-51.6122785157
 20
-10.6693045773
 10
-51.6217222617
 20
-10.6854492719
 10
-51.630259653
 20
-10.7020425757
 10
-51.6378160177
 20
-10.7189393563
 10
-51.6443252645
 20
-10.7359918269
 10
-51.6497304606
 20
-10.7530508389
 10
-51.6539843297
 20
-10.7699671867
 10
-51.6570496657
 20
-10.7865929124
 10
-51.6588996576
 20
-10.8027825998
 10
-51.6595181247
 20
-10.8183946469
  0
LINE
  5
2A7
100
AcDbEntity
  8
IMPORT_IGES
100
AcDbLine
 62
7
  6
CONTINUOUS
 10
3.0153426708
 20
30.7949378707
 11
3.052820063
 21
30.8158215008
  0
LWPOLYLINE
  5
2A8
100
AcDbEntity
  8
IMPORT_IGES
100
AcDbPolyline
 62
7
  6
CONTINUOUS
 90
59
 70
0
 10
-15.770030052
 20
-1.181544635
 10
-15.7646726624
 20
-1.5017442176
 10
-15.7487522664
 20
-1.8267235873
 10
-15.7222688641
 20
-2.1564827441
 10
-15.6851490915
 20
-2.4915738446
 10
-15.6374663126
 20
-2.8314447322
 10
-15.5794406188
 20
-3.1744389371
 10
-15.5109962546
 20
-3.5206128804
 10
-15.4322089756
 20
-3.8699101409
 10
-15.3435261396
 20
-4.2205049855
 10
-15.2450061999
 20
-4.5720993564
 10
-15.1365907032
 20
-4.9249913113
 10
-15.018551648
 20
-5.2782492908
 10
-14.8907456551
 20
-5.6322108746
 10
-14.7533161036
 20
-5.9865384829
 10
-14.6069651293
 20
-6.3392878167
 10
-14.4516697779
 20
-6.6903591374
 10
-14.2874530038
 20
-7.0398521837
 10
-14.1150858054
 20
-7.386121872
 10
-13.9344638573
 20
-7.7292389632
 10
-13.745691485
 20
-8.0691326965
 10
-13.5498526637
 20
-8.4039457065
 10
-13.3470717242
 20
-8.7334023472
 10
-13.1372243357
 20
-9.0577782646
 10
-12.9210214804
 20
-9.3760430311
 10
-12.6984372431
 20
-9.6882312967
 10
-12.469497539
 20
-9.9943084114
 10
-12.2349910962
 20
-10.2931399978
 10
-11.9947229154
 20
-10.5848974893
 10
-11.7488879958
 20
-10.8694094524
 10
-11.4988600631
 20
-11.1450272094
 10
-11.2446963417
 20
-11.4115941974
 10
-10.9863396072
 20
-11.6692669794
 10
-10.7249919116
 20
-11.9168665666
 10
-10.4606431437
 20
-12.1543392056
 10
-10.1933034147
 20
-12.3817386499
 10
-9.9242051109
 20
-12.5980471715
 10
-9.6533557302
 20
-12.8032025139
 10
-9.3807477746
 20
-12.9972669336
 10
-9.1075911364
 20
-13.1794094715
 10
-8.8338864558
 20
-13.3495784257
 10
-8.5596330926
 20
-13.5078254981
 10
-8.2860390187
 20
-13.6534748348
 10
-8.0131096302
 20
-13.7864733987
 10
-7.740839531
 20
-13.9068742269
 10
-7.4704205048
 20
-14.0141605768
 10
-7.2018634725
 20
-14.1082788757
 10
-6.9351575132
 20
-14.1892826964
 10
-6.6714616484
 20
-14.2568160149
 10
-6.4107890239
 20
-14.3108264981
 10
-6.1531264939
 20
-14.351366479
 10
-5.8995936416
 20
-14.3782369327
 10
-5.650124307
 20
-14.3913632667
 10
-5.4047846501
 20
-14.3908200734
 10
-5.1648927347
 20
-14.3766321048
 10
-4.9306074337
 20
-14.3487453156
 10
-4.7017698743
 20
-14.3072137512
 10
-4.4792215013
 20
-14.2522243
 10
-4.2629850078
 20
-14.1837680482
  0
LWPOLYLINE
  5
2A9
100
AcDbEntity
  8
IMPORT_IGES
100
AcDbPolyline
 62
7
  6
CONTINUOUS
 90
22
 70
0
 10
-16.1235834426
 20
-1.3856819317
 10
-16.118226053
 20
-1.0716689283
 10
-16.102305657
 20
-0.7650740328
 10
-16.0758222547
 20
-0.4658972452
 10
-16.0387024821
 20
-0.1736711276
 10
-15.9910197032
 20
0.1111368821
 10
-15.9329940094
 20
0.3871244703
 10
-15.8645496452
 20
0.6542605774
 10
-15.7857623662
 20
0.912576263
 10
-15.6970795302
 20
1.1607623915
 10
-15.5985595905
 20
1.3985884055
 10
-15.4901440938
 20
1.6262848624
 10
-15.3721050386
 20
1.8432342997
 10
-15.2442990457
 20
2.0496087264
 10
-15.1068694942
 20
2.2452361335
 10
-14.9605185199
 20
2.4289830306
 10
-14.8052231685
 20
2.6007231722
 10
-14.6410063943
 20
2.7605828038
 10
-14.468639196
 20
2.907807172
 10
-14.2880172479
 20
3.042346565
 10
-14.0992448756
 20
3.1642506945
 10
-14.0528788819
 20
3.1916164373
  0
LINE
  5
2AA
100
AcDbEntity
  8
IMPORT_IGES
100
AcDbLine
 62
7
  6
CONTINUOUS
 10
45.0658383196
 20
-48.9901396708
 11
45.4193917102
 21
-49.1942769675
  0
LWPOLYLINE
  5
2AB
100
AcDbEntity
  8
IMPORT_IGES
100
AcDbPolyline
 62
250
  6
CONTINUOUS
 90
8
 70
0
 10
-51.9994238017
 20
46.2486456532
 10
-51.9629649441
 20
46.1908525527
 10
-51.9225506271
 20
46.1380144857
 10
-51.8779321388
 20
46.0890841898
 10
-51.8290942652
 20
46.0434071768
 10
-51.7761690946
 20
46.0008544275
 10
-51.7195494635
 20
45.9617843934
 10
-51.6595179973
 20
45.9262895138
  0
LWPOLYLINE
  5
2AC
100
AcDbEntity
  8
IMPORT_IGES
100
AcDbPolyline
 62
250
  6
CONTINUOUS
 90
8
 70
0
 10
-51.9994238008
 20
48.2898213436
 10
-51.9629649432
 20
48.2320282435
 10
-51.9225506264
 20
48.1791901768
 10
-51.8779321383
 20
48.1302598812
 10
-51.8290942648
 20
48.0845828685
 10
-51.7761690944
 20
48.0420301193
 10
-51.7195494634
 20
48.0029600853
 10
-51.6595179973
 20
47.9674652057
  0
LWPOLYLINE
  5
2AD
100
AcDbEntity
  8
IMPORT_IGES
100
AcDbPolyline
 62
7
  6
CONTINUOUS
 90
20
 70
0
 10
-13.932567482
 20
3.2477970192
 10
-14.113277114
 20
3.113387276
 10
-14.2857213991
 20
2.9662987552
 10
-14.4500086185
 20
2.8065812988
 10
-14.6053691026
 20
2.6349997541
 10
-14.7517772464
 20
2.4514314682
 10
-14.8892586548
 20
2.255999094
 10
-15.0171204736
 20
2.0498354375
 10
-15.1352163912
 20
1.8331304592
 10
-15.2436927191
 20
1.6056941986
 10
-15.3422955374
 20
1.3680895797
 10
-15.4310918267
 20
1.1200971706
 10
-15.5100146062
 20
0.8619364031
 10
-15.5786090143
 20
0.5948284972
 10
-15.6368100927
 20
0.3187463864
 10
-15.6846827996
 20
0.0337171372
 10
-15.7219671477
 20
-0.2589568315
 10
-15.7485764746
 20
-0.5588413799
 10
-15.7645974427
 20
-0.8663706478
 10
-15.770030052
 20
-1.181544635
  0
LINE
  5
2AE
100
AcDbEntity
  8
IMPORT_IGES
100
AcDbLine
 62
7
  6
CONTINUOUS
 10
-13.8673030522
 20
3.2898793719
 11
-13.932567482
 21
3.2477970192
  0
LINE
  5
2AF
100
AcDbEntity
  8
IMPORT_IGES
100
AcDbLine
 62
7
  6
CONTINUOUS
 10
1.5923169951
 20
31.6165750611
 11
1.6025319596
 21
31.6531996753
  0
LWPOLYLINE
  5
2B0
100
AcDbEntity
  8
IMPORT_IGES
100
AcDbPolyline
 62
7
  6
CONTINUOUS
 90
62
 70
0
 10
-14.0528788819
 20
3.1916164373
 10
-13.9034060543
 20
3.2729139425
 10
-13.7006251148
 20
3.3682042372
 10
-13.4907777263
 20
3.4502536504
 10
-13.274574871
 20
3.5188527789
 10
-13.0519906337
 20
3.5740063465
 10
-12.8230509296
 20
3.6157096295
 10
-12.5885444867
 20
3.6437390538
 10
-12.3482763059
 20
3.6580408726
 10
-12.1024413864
 20
3.6586688327
 10
-11.8524134537
 20
3.6455606003
 10
-11.5982497323
 20
3.6186256936
 10
-11.3398929977
 20
3.5779545945
 10
-11.0785453022
 20
3.5237564138
 10
-10.8141965342
 20
3.4559657217
 10
-10.5468568053
 20
3.3746479481
 10
-10.2777585015
 20
3.2802084936
 10
-10.0069091207
 20
3.1725937603
 10
-9.7343011651
 20
3.051857346
 10
-9.461144527
 20
2.918565445
 10
-9.1874398464
 20
2.7726670947
 10
-8.9131864832
 20
2.6142132577
 10
-8.6395924093
 20
2.4439230158
 10
-8.3666630208
 20
2.261749563
 10
-8.0943929215
 20
2.0677397053
 10
-7.8239738954
 20
1.8627529421
 10
-7.5554168631
 20
1.6467483117
 10
-7.2887109038
 20
1.4197667759
 10
-7.025015039
 20
1.1827907194
 10
-6.7643424145
 20
0.9357829898
 10
-6.5066798845
 20
0.6787807396
 10
-6.2531470322
 20
0.4128778105
 10
-6.0036776975
 20
0.13792321
 10
-5.7583380407
 20
-0.1459320694
 10
-5.5184461253
 20
-0.4371412087
 10
-5.2841608243
 20
-0.7355747909
 10
-5.0553232649
 20
-1.041362233
 10
-4.8327748919
 20
-1.3533449669
 10
-4.6165383983
 20
-1.6715057013
 10
-4.4065910913
 20
-1.9958617275
 10
-4.2037063369
 20
-2.3253063521
 10
-4.0077770865
 20
-2.6600970898
 10
-3.8189103888
 20
-2.9999764258
 10
-3.6382007568
 20
-3.3430651224
 10
-3.4657564717
 20
-3.6892879812
 10
-3.3014692523
 20
-4.0387202006
 10
-3.1461087681
 20
-4.3897081381
 10
-2.9997006244
 20
-4.7423448786
 10
-2.862219216
 20
-5.0965373371
 10
-2.7343573972
 20
-5.4503526169
 10
-2.6162614796
 20
-5.8034318007
 10
-2.5077851517
 20
-6.1561338058
 10
-2.4091823334
 20
-6.5076024877
 10
-2.3203860441
 20
-6.8581346259
 10
-2.2414632645
 20
-7.2074334409
 10
-2.1728688565
 20
-7.5537524499
 10
-2.1146677781
 20
-7.8970437072
 10
-2.0667950712
 20
-8.2373551583
 10
-2.0295107231
 20
-8.5730841576
 10
-2.0029013962
 20
-8.9036964897
 10
-1.9868804281
 20
-9.2297263699
 10
-1.9814478188
 20
-9.5511737983
  0
LWPOLYLINE
  5
2B1
100
AcDbEntity
  8
IMPORT_IGES
100
AcDbPolyline
 62
7
  6
CONTINUOUS
 90
3
 70
0
 10
-24.6560340849
 20
53.4669433414
 10
-24.6735698546
 20
53.5243646938
 10
-24.7017409251
 20
53.5929947539
  0
LWPOLYLINE
  5
2B2
100
AcDbEntity
  8
IMPORT_IGES
100
AcDbPolyline
 62
7
  6
CONTINUOUS
 90
22
 70
0
 10
-1.9814478188
 20
-9.5511737983
 10
-1.9868052084
 20
-9.8651868017
 10
-2.0027256044
 20
-10.1717816972
 10
-2.0292090067
 20
-10.4709584848
 10
-2.0663287793
 20
-10.7631846024
 10
-2.1140115582
 20
-11.0479926121
 10
-2.172037252
 20
-11.3239802002
 10
-2.2404816162
 20
-11.5911163073
 10
-2.3192688952
 20
-11.8494319929
 10
-2.4079517312
 20
-12.0976181215
 10
-2.5064716709
 20
-12.3354441354
 10
-2.6148871676
 20
-12.5631405924
 10
-2.7329262228
 20
-12.7800900296
 10
-2.8607322157
 20
-12.9864644564
 10
-2.9981617672
 20
-13.1820918634
 10
-3.1445127415
 20
-13.3658387605
 10
-3.2998080929
 20
-13.5375789021
 10
-3.464024867
 20
-13.6974385337
 10
-3.6363920654
 20
-13.8446629019
 10
-3.8170140135
 20
-13.9792022949
 10
-4.0057863858
 20
-14.1011064245
 10
-4.0521523795
 20
-14.1284721672
  0
LINE
  5
2B3
100
AcDbEntity
  8
IMPORT_IGES
100
AcDbLine
 62
250
  6
CONTINUOUS
 10
4.5173468807
 20
34.9799795901
 11
4.5173468807
 21
36.58457488
  0
LWPOLYLINE
  5
2B4
100
AcDbEntity
  8
IMPORT_IGES
100
AcDbPolyline
 62
7
  6
CONTINUOUS
 90
14
 70
0
 10
2.8102011754
 20
36.200629673
 10
2.8102528147
 20
36.2044897356
 10
2.8132968187
 20
36.2415381885
 10
2.8207343783
 20
36.2785447195
 10
2.8322154617
 20
36.3149424756
 10
2.8477517294
 20
36.3506775315
 10
2.8673315209
 20
36.3858038124
 10
2.8905698229
 20
36.4199162411
 10
2.9174461713
 20
36.4530157366
 10
2.9479810303
 20
36.4851013798
 10
2.981850779
 20
36.5157653356
 10
3.0189475439
 20
36.544871659
 10
3.0593791985
 20
36.5725562951
 10
3.1031457429
 20
36.5988192437
  0
LWPOLYLINE
  5
2B5
100
AcDbEntity
  8
IMPORT_IGES
100
AcDbPolyline
 62
7
  6
CONTINUOUS
 90
9
 70
0
 10
35.4245009059
 20
17.3918363673
 10
35.3406724968
 20
17.3405338033
 10
35.2621522501
 20
17.2865037398
 10
35.1892058534
 20
17.2299289974
 10
35.1220801343
 20
17.1710010071
 10
35.061002225
 20
17.1099191626
 10
35.0061787937
 20
17.0468901454
 10
34.9577953456
 20
16.982127226
 10
34.9160155949
 20
16.9158495414
  0
LWPOLYLINE
  5
2B6
100
AcDbEntity
  8
IMPORT_IGES
100
AcDbPolyline
 62
7
  6
CONTINUOUS
 90
13
 70
0
 10
35.5659222622
 20
17.1468873933
 10
35.6150839576
 20
17.1762659162
 10
35.6646284507
 20
17.2080271159
 10
35.7145557414
 20
17.2421709923
 10
35.7651351903
 20
17.2789431457
 10
35.8160974369
 20
17.3180979758
 10
35.8666343995
 20
17.3588986819
 10
35.916193237
 20
17.4009037549
 10
35.9653267905
 20
17.4445547039
 10
36.0148855019
 20
17.4904392556
 10
36.0651528521
 20
17.538753319
 10
36.1158453601
 20
17.589300985
 10
36.1669630262
 20
17.6420822538
  0
LINE
  5
2B7
100
AcDbEntity
  8
IMPORT_IGES
100
AcDbLine
 62
7
  6
CONTINUOUS
 10
35.5346028159
 20
16.0515924169
 11
36.1669630262
 21
16.4039642318
  0
LWPOLYLINE
  5
2B8
100
AcDbEntity
  8
IMPORT_IGES
100
AcDbPolyline
 62
250
  6
CONTINUOUS
 90
10
 70
0
 10
35.2145828001
 20
-4.1254840269
 10
35.0508203322
 20
-4.0844271427
 10
34.9642727445
 20
-4.0615180248
 10
34.8753331822
 20
-4.036320744
 10
34.7851502423
 20
-4.0088101387
 10
34.6983385912
 20
-3.9800983037
 10
34.6166560277
 20
-3.9511074138
 10
34.5386987106
 20
-3.9214509974
 10
34.4640704956
 20
-3.890680888
 10
34.3927952009
 20
-3.8587254847
  0
LWPOLYLINE
  5
2B9
100
AcDbEntity
  8
IMPORT_IGES
100
AcDbPolyline
 62
7
  6
CONTINUOUS
 90
10
 70
0
 10
35.1235449436
 20
-4.1882235842
 10
35.184123569
 20
-4.2060857942
 10
35.242490613
 20
-4.2239376591
 10
35.2983431116
 20
-4.2419470365
 10
35.3513373329
 20
-4.2602236148
 10
35.4012127222
 20
-4.2788569059
 10
35.4474803128
 20
-4.2977729182
 10
35.4903423936
 20
-4.3170911754
 10
35.5304284211
 20
-4.3371717292
 10
35.5638458059
 20
-4.3558388977
  0
LWPOLYLINE
  5
2BA
100
AcDbEntity
  8
IMPORT_IGES
100
AcDbPolyline
 62
7
  6
CONTINUOUS
 90
37
 70
0
 10
-24.7017409251
 20
53.5929947539
 10
-24.7367756089
 20
53.6605629409
 10
-24.7785553595
 20
53.7268406255
 10
-24.8269388076
 20
53.7916035449
 10
-24.8817622389
 20
53.8546325621
 10
-24.9428401482
 20
53.9157144066
 10
-25.0099658673
 20
53.9746423969
 10
-25.082912264
 20
54.0312171393
 10
-25.1614325108
 20
54.0852472028
 10
-25.2452609199
 20
54.1365497668
 10
-25.3341138426
 20
54.1849512396
 10
-25.4276906287
 20
54.230287846
 10
-25.525674644
 20
54.2724061812
 10
-25.6277343417
 20
54.3111637301
 10
-25.7335243839
 20
54.3464293495
 10
-25.8426868107
 20
54.3780837116
 10
-25.954852251
 20
54.4060197082
 10
-26.0696411724
 20
54.4301428126
 10
-26.1866651656
 20
54.4503713998
 10
-26.3055282585
 20
54.4666370229
 10
-26.4258282558
 20
54.478884644
 10
-26.5471581006
 20
54.487072821
 10
-26.669107251
 20
54.4911738478
 10
-26.7912630697
 20
54.4911738478
 10
-26.9132122201
 20
54.487072821
 10
-27.0345420649
 20
54.478884644
 10
-27.1548420623
 20
54.4666370229
 10
-27.2737051551
 20
54.4503713998
 10
-27.3907291483
 20
54.4301428126
 10
-27.5055180697
 20
54.4060197082
 10
-27.61768351
 20
54.3780837116
 10
-27.7268459368
 20
54.3464293495
 10
-27.8326359791
 20
54.3111637301
 10
-27.9346956767
 20
54.2724061812
 10
-28.032679692
 20
54.230287846
 10
-28.1262564781
 20
54.1849512396
 10
-28.2151094008
 20
54.1365497668
  0
LINE
  5
2BB
100
AcDbEntity
  8
IMPORT_IGES
100
AcDbLine
 62
250
  6
CONTINUOUS
 10
7.3457740054
 20
34.9514765067
 11
7.3457740054
 21
34.1491860398
  0
LWPOLYLINE
  5
2BC
100
AcDbEntity
  8
IMPORT_IGES
100
AcDbPolyline
 62
7
  6
CONTINUOUS
 90
14
 70
0
 10
7.6387061483
 20
34.5473756105
 10
7.6386545091
 20
34.5435155478
 10
7.635610505
 20
34.506467095
 10
7.6281729455
 20
34.469460564
 10
7.6166918621
 20
34.4330628079
 10
7.6011555944
 20
34.397327752
 10
7.5815758029
 20
34.362201471
 10
7.5583375009
 20
34.3280890424
 10
7.5314611524
 20
34.2949895469
 10
7.5009262935
 20
34.2629039036
 10
7.4670565447
 20
34.2322399478
 10
7.4299597798
 20
34.2031336244
 10
7.3895281252
 20
34.1754489884
 10
7.3457615808
 20
34.1491860398
  0
LWPOLYLINE
  5
2BD
100
AcDbEntity
  8
IMPORT_IGES
100
AcDbPolyline
 62
7
  6
CONTINUOUS
 90
62
 70
0
 10
-4.0521523795
 20
-14.1284721672
 10
-4.2016252071
 20
-14.2097696724
 10
-4.4044061466
 20
-14.3050599672
 10
-4.6142535351
 20
-14.3871093803
 10
-4.8304563904
 20
-14.4557085089
 10
-5.0530406277
 20
-14.5108620765
 10
-5.2819803318
 20
-14.5525653595
 10
-5.5164867747
 20
-14.5805947837
 10
-5.7567549554
 20
-14.5948966026
 10
-6.002589875
 20
-14.5955245626
 10
-6.2526178077
 20
-14.5824163302
 10
-6.5067815291
 20
-14.5554814236
 10
-6.7651382636
 20
-14.5148103244
 10
-7.0264859592
 20
-14.4606121437
 10
-7.2908347271
 20
-14.3928214516
 10
-7.5581744561
 20
-14.3115036781
 10
-7.8272727599
 20
-14.2170642235
 10
-8.0981221406
 20
-14.1094494902
 10
-8.3707300962
 20
-13.9887130759
 10
-8.6438867344
 20
-13.8554211749
 10
-8.917591415
 20
-13.7095228246
 10
-9.1918447782
 20
-13.5510689876
 10
-9.4654388521
 20
-13.3807787457
 10
-9.7383682406
 20
-13.1986052929
 10
-10.0106383398
 20
-13.0045954352
 10
-10.281057366
 20
-12.799608672
 10
-10.5496143983
 20
-12.5836040417
 10
-10.8163203576
 20
-12.3566225058
 10
-11.0800162224
 20
-12.1196464493
 10
-11.3406888469
 20
-11.8726387198
 10
-11.5983513769
 20
-11.6156364696
 10
-11.8518842292
 20
-11.3497335404
 10
-12.1013535638
 20
-11.07477894
 10
-12.3466932207
 20
-10.7909236605
 10
-12.5865851361
 20
-10.4997145212
 10
-12.8208704371
 20
-10.2012809391
 10
-13.0497079965
 20
-9.895493497
 10
-13.2722563695
 20
-9.583510763
 10
-13.4884928631
 20
-9.2653500286
 10
-13.6984401701
 20
-8.9409940024
 10
-13.9013249245
 20
-8.6115493778
 10
-14.0972541749
 20
-8.2767586401
 10
-14.2861208726
 20
-7.9368793041
 10
-14.4668305046
 20
-7.5937906075
 10
-14.6392747897
 20
-7.2475677487
 10
-14.8035620091
 20
-6.8981355293
 10
-14.9589224933
 20
-6.5471475918
 10
-15.105330637
 20
-6.1945108514
 10
-15.2428120454
 20
-5.8403183928
 10
-15.3706738642
 20
-5.486503113
 10
-15.4887697818
 20
-5.1334239292
 10
-15.5972461097
 20
-4.7807219242
 10
-15.695848928
 20
-4.4292532423
 10
-15.7846452173
 20
-4.0787211041
 10
-15.8635679968
 20
-3.729422289
 10
-15.9321624049
 20
-3.38310328
 10
-15.9903634833
 20
-3.0398120228
 10
-16.0382361902
 20
-2.6995005716
 10
-16.0755205383
 20
-2.3637715723
 10
-16.1021298652
 20
-2.0331592402
 10
-16.1181508333
 20
-1.70712936
 10
-16.1235834426
 20
-1.3856819317
  0
LINE
  5
2BE
100
AcDbEntity
  8
IMPORT_IGES
100
AcDbLine
 62
7
  6
CONTINUOUS
 10
-4.0530377007
 20
-14.1018539097
 11
-3.8846260055
 21
-14.022864304
  0
LWPOLYLINE
  5
2BF
100
AcDbEntity
  8
IMPORT_IGES
100
AcDbPolyline
 62
7
  6
CONTINUOUS
 90
6
 70
0
 10
36.1106019464
 20
16.0192718583
 10
36.3323479299
 20
16.0513339158
 10
36.4559322998
 20
16.065086295
 10
36.5801114757
 20
16.0748820948
 10
36.7051385643
 20
16.080703081
 10
36.7262880562
 20
16.0810169694
  0
LWPOLYLINE
  5
2C0
100
AcDbEntity
  8
IMPORT_IGES
100
AcDbPolyline
 62
250
  6
CONTINUOUS
 90
10
 70
0
 10
35.2145850266
 20
-2.0843089043
 10
35.0508221254
 20
-2.0432519266
 10
34.9642742634
 20
-2.0203427479
 10
34.8753344559
 20
-1.9951454197
 10
34.7851512723
 20
-1.9676347663
 10
34.6983393951
 20
-1.938922879
 10
34.6166566238
 20
-1.9099319341
 10
34.538699119
 20
-1.8802754625
 10
34.464070751
 20
-1.8495053009
 10
34.3927953411
 20
-1.8175498524
  0
LWPOLYLINE
  5
2C1
100
AcDbEntity
  8
IMPORT_IGES
100
AcDbPolyline
 62
250
  6
CONTINUOUS
 90
10
 70
0
 10
35.2145850272
 20
-0.0431332125
 10
35.050822126
 20
-0.0020762348
 10
34.964274264
 20
0.0208329439
 10
34.8753344565
 20
0.0460302721
 10
34.7851512729
 20
0.0735409255
 10
34.6983393956
 20
0.1022528128
 10
34.6166566242
 20
0.1312437578
 10
34.5386991193
 20
0.1609002294
 10
34.4640707512
 20
0.191670391
 10
34.3927953412
 20
0.2236258396
  0
LWPOLYLINE
  5
2C2
100
AcDbEntity
  8
IMPORT_IGES
100
AcDbPolyline
 62
7
  6
CONTINUOUS
 90
10
 70
0
 10
35.1235449435
 20
-2.1470478922
 10
35.1841235689
 20
-2.1649101022
 10
35.2424906129
 20
-2.182761967
 10
35.2983431116
 20
-2.2007713445
 10
35.3513373329
 20
-2.2190479228
 10
35.4012127221
 20
-2.2376812139
 10
35.4474803128
 20
-2.2565972262
 10
35.4903423936
 20
-2.2759154834
 10
35.5304284211
 20
-2.2959960372
 10
35.5638458059
 20
-2.3146632057
  0
LWPOLYLINE
  5
2C3
100
AcDbEntity
  8
IMPORT_IGES
100
AcDbPolyline
 62
7
  6
CONTINUOUS
 90
10
 70
0
 10
35.1235449435
 20
-0.1058722002
 10
35.1841235689
 20
-0.1237344103
 10
35.2424906129
 20
-0.1415862751
 10
35.2983431116
 20
-0.1595956525
 10
35.3513373329
 20
-0.1778722308
 10
35.4012127221
 20
-0.1965055219
 10
35.4474803128
 20
-0.2154215342
 10
35.4903423936
 20
-0.2347397914
 10
35.5304284211
 20
-0.2548203453
 10
35.5638458059
 20
-0.2734875137
  0
LWPOLYLINE
  5
2C4
100
AcDbEntity
  8
IMPORT_IGES
100
AcDbPolyline
 62
250
  6
CONTINUOUS
 90
7
 70
0
 10
35.6136670382
 20
-4.2506771255
 10
35.5504388179
 20
-4.2268314442
 10
35.4845339908
 20
-4.2039747281
 10
35.4176998881
 20
-4.1824031696
 10
35.3522800445
 20
-4.1626370584
 10
35.286191308
 20
-4.1441659338
 10
35.2145828001
 20
-4.1254840269
  0
LWPOLYLINE
  5
2C5
100
AcDbEntity
  8
IMPORT_IGES
100
AcDbPolyline
 62
250
  6
CONTINUOUS
 90
7
 70
0
 10
35.6136677168
 20
-2.2095017041
 10
35.550439946
 20
-2.1856561548
 10
35.4845355749
 20
-2.1627995491
 10
35.4177018237
 20
-2.1412280723
 10
35.3522821875
 20
-2.1214619854
 10
35.2861935486
 20
-2.1029908381
 10
35.2145850266
 20
-2.0843089043
  0
LWPOLYLINE
  5
2C6
100
AcDbEntity
  8
IMPORT_IGES
100
AcDbPolyline
 62
250
  6
CONTINUOUS
 90
3
 70
0
 10
34.3927952009
 20
-3.8587254847
 10
34.3252490318
 20
-3.8259570249
 10
34.2615935171
 20
-3.7925377972
  0
LWPOLYLINE
  5
2C7
100
AcDbEntity
  8
IMPORT_IGES
100
AcDbPolyline
 62
250
  6
CONTINUOUS
 90
45
 70
0
 10
34.3794448218
 20
-5.4956033408
 10
34.4534141197
 20
-5.5337258576
 10
34.5271065818
 20
-5.5672596313
 10
34.6005048663
 20
-5.5961081949
 10
34.6736179155
 20
-5.6196784863
 10
34.7463617245
 20
-5.6382221374
 10
34.8185735321
 20
-5.6529203944
 10
34.890847493
 20
-5.663971858
 10
34.9624531773
 20
-5.6708339522
 10
35.0312658289
 20
-5.6737306748
 10
35.0963784595
 20
-5.672573918
 10
35.1585531456
 20
-5.6673098263
 10
35.2181913688
 20
-5.6583283696
 10
35.2749713241
 20
-5.6456469497
 10
35.3290160292
 20
-5.6291553731
 10
35.3813655589
 20
-5.6090522159
 10
35.4320161333
 20
-5.585483275
 10
35.4806559548
 20
-5.5582300135
 10
35.527778148
 20
-5.5269086672
 10
35.573743981
 20
-5.4907235465
 10
35.6175996773
 20
-5.45043322
 10
35.6579843205
 20
-5.4080920064
 10
35.6944860963
 20
-5.3644084115
 10
35.7273419178
 20
-5.3190015521
 10
35.7564074033
 20
-5.2724015137
 10
35.7810285321
 20
-5.2257394328
 10
35.8018394949
 20
-5.1782147997
 10
35.8203137149
 20
-5.1274998524
 10
35.8365379368
 20
-5.0727971164
 10
35.849418669
 20
-5.0155159908
 10
35.8583708543
 20
-4.9567390598
 10
35.8630428007
 20
-4.8958337001
 10
35.862884914
 20
-4.8344324139
 10
35.8578618862
 20
-4.7766399409
 10
35.8485644989
 20
-4.7236546925
 10
35.8352799799
 20
-4.6742518436
 10
35.8182681613
 20
-4.6283798087
 10
35.7983923465
 20
-4.5866621847
 10
35.7755703471
 20
-4.5481652308
 10
35.7483225857
 20
-4.5107749408
 10
35.71578099
 20
-4.4737507692
 10
35.6787617599
 20
-4.4383059718
 10
35.6382022859
 20
-4.4053325418
 10
35.5942684782
 20
-4.3746762036
 10
35.563597254
 20
-4.3556937662
  0
LINE
  5
2C8
100
AcDbEntity
  8
IMPORT_IGES
100
AcDbLine
 62
7
  6
CONTINUOUS
 10
34.2554332702
 20
-7.0242814244
 11
-52.3604645316
 21
42.9866524142
  0
LINE
  5
2C9
100
AcDbEntity
  8
IMPORT_IGES
100
AcDbLine
 62
7
  6
CONTINUOUS
 10
34.2616042758
 20
-6.6124441215
 11
-51.6595180083
 21
42.9973350408
  0
LWPOLYLINE
  5
2CA
100
AcDbEntity
  8
IMPORT_IGES
100
AcDbPolyline
 62
250
  6
CONTINUOUS
 90
14
 70
0
 10
-51.6595179973
 20
45.8172351471
 10
-51.7220433301
 20
45.8568551115
 10
-51.7800933427
 20
45.8970086062
 10
-51.8335278949
 20
45.9375136466
 10
-51.8819555512
 20
45.9780420123
 10
-51.925608176
 20
46.0185358242
 10
-51.9650680758
 20
46.0592973318
 10
-52.0006506709
 20
46.1009595835
 10
-52.0312156653
 20
46.1426786324
 10
-52.0555772561
 20
46.1824666004
 10
-52.0739734618
 20
46.2199748553
 10
-52.0870116047
 20
46.2550547339
 10
-52.0949859651
 20
46.2859113871
 10
-52.0983182468
 20
46.3102883571
  0
LWPOLYLINE
  5
2CB
100
AcDbEntity
  8
IMPORT_IGES
100
AcDbPolyline
 62
250
  6
CONTINUOUS
 90
20
 70
0
 10
-51.5416672264
 20
44.1141699113
 10
-51.6087004487
 20
44.1573546267
 10
-51.6691463717
 20
44.2012972284
 10
-51.723022899
 20
44.246097417
 10
-51.7697848146
 20
44.2920040625
 10
-51.8100554681
 20
44.339123264
 10
-51.8456141139
 20
44.3873386836
 10
-51.8771839669
 20
44.4371957151
 10
-51.9041928901
 20
44.4885304994
 10
-51.9264606295
 20
44.5400275145
 10
-51.9437916779
 20
44.5913081102
 10
-51.9565735133
 20
44.6429644581
 10
-51.9654808545
 20
44.6950181062
 10
-51.9706130006
 20
44.7471706762
 10
-51.9721218499
 20
44.7998307642
 10
-51.9708003907
 20
44.8540749835
 10
-51.9670362574
 20
44.9101858518
 10
-51.9608836674
 20
44.9679817263
 10
-51.952723086
 20
45.0278601435
 10
-51.9424138163
 20
45.0910515294
  0
LWPOLYLINE
  5
2CC
100
AcDbEntity
  8
IMPORT_IGES
100
AcDbPolyline
 62
250
  6
CONTINUOUS
 90
20
 70
0
 10
-51.5416672264
 20
46.1553456033
 10
-51.6087004487
 20
46.1985303187
 10
-51.6691463717
 20
46.2424729204
 10
-51.723022899
 20
46.287273109
 10
-51.7697848146
 20
46.3331797545
 10
-51.8100554681
 20
46.380298956
 10
-51.8456141139
 20
46.4285143756
 10
-51.8771839669
 20
46.4783714071
 10
-51.9041928901
 20
46.5297061914
 10
-51.9264606295
 20
46.5812032065
 10
-51.9437916779
 20
46.6324838022
 10
-51.9565735133
 20
46.68414015
 10
-51.9654808545
 20
46.7361937982
 10
-51.9706130006
 20
46.7883463682
 10
-51.9721218499
 20
46.8410064562
 10
-51.9708003907
 20
46.8952506755
 10
-51.9670362574
 20
46.9513615438
 10
-51.9608836674
 20
47.0091574183
 10
-51.952723086
 20
47.0690358356
 10
-51.9424138163
 20
47.1322272215
  0
LWPOLYLINE
  5
2CD
100
AcDbEntity
  8
IMPORT_IGES
100
AcDbPolyline
 62
250
  6
CONTINUOUS
 90
28
 70
0
 10
35.3037426165
 20
2.9914631909
 10
35.2427951098
 20
2.9530179441
 10
35.1821105259
 20
2.91068343
 10
35.1218896657
 20
2.8645997305
 10
35.0623317959
 20
2.8149193333
 10
35.0036339891
 20
2.7618066274
 10
34.9459904722
 20
2.7054373588
 10
34.8895919836
 20
2.6459980496
 10
34.8346251417
 20
2.58368538
 10
34.781271828
 20
2.5187055384
 10
34.7297085848
 20
2.4512735384
 10
34.6801060312
 20
2.3816125077
 10
34.6326282985
 20
2.3099529496
 10
34.5874324872
 20
2.2365319806
 10
34.5446681469
 20
2.1615925455
 10
34.5044767819
 20
2.0853826134
 10
34.4669913825
 20
2.0081543576
 10
34.4323359852
 20
1.9301633209
 10
34.4006252623
 20
1.8516675702
 10
34.3719641423
 20
1.7729268423
 10
34.3464474627
 20
1.6942016846
 10
34.3241596566
 20
1.6157525931
 10
34.3051744726
 20
1.5378391502
 10
34.2895547314
 20
1.460719166
 10
34.2773521175
 20
1.3846478251
 10
34.2686070086
 20
1.309876842
 10
34.2633483416
 20
1.2366536287
 10
34.2615935171
 20
1.1652204755
  0
LINE
  5
2CE
100
AcDbEntity
  8
IMPORT_IGES
100
AcDbLine
 62
250
  6
CONTINUOUS
 10
35.3037407642
 20
2.9914642604
 11
43.2365180842
 21
7.5717352767
  0
LINE
  5
2CF
100
AcDbEntity
  8
IMPORT_IGES
100
AcDbLine
 62
250
  6
CONTINUOUS
 10
44.0053378452
 20
8.0156352774
 11
51.3185497629
 21
12.2382066812
  0
LINE
  5
2D0
100
AcDbEntity
  8
IMPORT_IGES
100
AcDbLine
 62
7
  6
CONTINUOUS
 10
43.9499608361
 20
6.8407673465
 11
44.2630582216
 21
7.0215464736
  0
LINE
  5
2D1
100
AcDbEntity
  8
IMPORT_IGES
100
AcDbLine
 62
7
  6
CONTINUOUS
 10
-4.2629850078
 20
-14.1837680482
 11
-4.0530377007
 21
-14.1018539097
  0
LWPOLYLINE
  5
2D2
100
AcDbEntity
  8
IMPORT_IGES
100
AcDbPolyline
 62
7
  6
CONTINUOUS
 90
13
 70
0
 10
34.9648814982
 20
16.9480154451
 10
35.0160436918
 20
16.9542711525
 10
35.0667726155
 20
16.9622696247
 10
35.1170682693
 20
16.9720108617
 10
35.1666470031
 20
16.9833642165
 10
35.2157924669
 20
16.9964603363
 10
35.2653556112
 20
17.0116911615
 10
35.3158899159
 20
17.0292540585
 10
35.366841901
 20
17.048951661
 10
35.4174020771
 20
17.0705838115
 10
35.4673006144
 20
17.0940837908
 10
35.5168073428
 20
17.1195183181
 10
35.5659222622
 20
17.1468873933
  0
LWPOLYLINE
  5
2D3
100
AcDbEntity
  8
IMPORT_IGES
100
AcDbPolyline
 62
7
  6
CONTINUOUS
 90
25
 70
0
 10
36.8623918406
 20
16.561683236
 10
36.9385849135
 20
16.561997914
 10
37.0146696393
 20
16.5596316195
 10
37.0903633149
 20
16.554593145
 10
37.16538469
 20
16.5469012116
 10
37.2394550127
 20
16.5365843997
 10
37.3122990645
 20
16.5236810427
 10
37.3836461834
 20
16.508239085
 10
37.4532312695
 20
16.4903159031
 10
37.5207957699
 20
16.4699780932
 10
37.5860886397
 20
16.447301223
 10
37.6488672741
 20
16.4223695516
 10
37.7088984106
 20
16.3952757161
 10
37.7659589955
 20
16.3661203872
 10
37.8198370123
 20
16.3350118956
 10
37.8703322699
 20
16.302065829
 10
37.9172571463
 20
16.2674046032
 10
37.9604372857
 20
16.2311570064
 10
37.9997122466
 20
16.1934577218
 10
38.0349360973
 20
16.154446826
 10
38.0659779589
 20
16.1142692694
 10
38.0927224912
 20
16.0730743371
 10
38.1150703212
 20
16.0310150946
 10
38.1329384124
 20
15.9882478186
 10
38.1443884375
 20
15.9510180233
  0
LWPOLYLINE
  5
2D4
100
AcDbEntity
  8
IMPORT_IGES
100
AcDbPolyline
 62
7
  6
CONTINUOUS
 90
6
 70
0
 10
35.6408135406
 20
15.990447278
 10
35.7133659627
 20
15.9905376383
 10
35.8130366042
 20
15.9934121471
 10
35.9125163151
 20
15.9991471534
 10
36.0116545961
 20
16.0077792571
 10
36.1106019464
 20
16.0192718583
  0
LWPOLYLINE
  5
2D5
100
AcDbEntity
  8
IMPORT_IGES
100
AcDbPolyline
 62
250
  6
CONTINUOUS
 90
7
 70
0
 10
35.6136677173
 20
-0.1683260123
 10
35.5504399465
 20
-0.144480463
 10
35.4845355755
 20
-0.1216238573
 10
35.4177018242
 20
-0.1000523805
 10
35.3522821881
 20
-0.0802862936
 10
35.2861935492
 20
-0.0618151463
 10
35.2145850272
 20
-0.0431332125
  0
LWPOLYLINE
  5
2D6
100
AcDbEntity
  8
IMPORT_IGES
100
AcDbPolyline
 62
250
  6
CONTINUOUS
 90
3
 70
0
 10
34.3927953411
 20
-1.8175498524
 10
34.3252490877
 20
-1.7847813567
 10
34.2615935171
 20
-1.7513621052
  0
LWPOLYLINE
  5
2D7
100
AcDbEntity
  8
IMPORT_IGES
100
AcDbPolyline
 62
250
  6
CONTINUOUS
 90
3
 70
0
 10
34.3927953412
 20
0.2236258396
 10
34.3252490877
 20
0.2563943353
 10
34.2615935171
 20
0.2898135867
  0
LWPOLYLINE
  5
2D8
100
AcDbEntity
  8
IMPORT_IGES
100
AcDbPolyline
 62
250
  6
CONTINUOUS
 90
45
 70
0
 10
34.3794448218
 20
-3.4544276488
 10
34.4534141197
 20
-3.4925501657
 10
34.5271065818
 20
-3.5260839393
 10
34.6005048663
 20
-3.5549325029
 10
34.6736179155
 20
-3.5785027943
 10
34.7463617245
 20
-3.5970464454
 10
34.8185735321
 20
-3.6117447024
 10
34.890847493
 20
-3.622796166
 10
34.9624531773
 20
-3.6296582602
 10
35.0312658289
 20
-3.6325549829
 10
35.0963784594
 20
-3.631398226
 10
35.1585531455
 20
-3.6261341344
 10
35.2181913688
 20
-3.6171526776
 10
35.2749713241
 20
-3.6044712577
 10
35.3290160291
 20
-3.5879796811
 10
35.3813655589
 20
-3.5678765239
 10
35.4320161333
 20
-3.5443075831
 10
35.4806559548
 20
-3.5170543215
 10
35.5277781479
 20
-3.4857329753
 10
35.573743981
 20
-3.4495478545
 10
35.6175996773
 20
-3.409257528
 10
35.6579843204
 20
-3.3669163144
 10
35.6944860963
 20
-3.3232327195
 10
35.7273419178
 20
-3.2778258601
 10
35.7564074032
 20
-3.2312258217
 10
35.7810285321
 20
-3.1845637408
 10
35.8018394949
 20
-3.1370391077
 10
35.8203137149
 20
-3.0863241605
 10
35.8365379368
 20
-3.0316214244
 10
35.849418669
 20
-2.9743402989
 10
35.8583708543
 20
-2.9155633679
 10
35.8630428007
 20
-2.8546580082
 10
35.862884914
 20
-2.7932567219
 10
35.8578618862
 20
-2.7354642489
 10
35.8485644989
 20
-2.6824790005
 10
35.8352799799
 20
-2.6330761516
 10
35.8182681613
 20
-2.5872041167
 10
35.7983923465
 20
-2.5454864927
 10
35.7755703471
 20
-2.5069895388
 10
35.7483225857
 20
-2.4695992488
 10
35.71578099
 20
-2.4325750773
 10
35.6787617599
 20
-2.3971302798
 10
35.6382022859
 20
-2.3641568498
 10
35.5942684782
 20
-2.3335005116
 10
35.563597254
 20
-2.3145180742
  0
LWPOLYLINE
  5
2D9
100
AcDbEntity
  8
IMPORT_IGES
100
AcDbPolyline
 62
250
  6
CONTINUOUS
 90
45
 70
0
 10
34.3794448218
 20
-1.4132519569
 10
34.4534141197
 20
-1.4513744737
 10
34.5271065818
 20
-1.4849082473
 10
34.6005048663
 20
-1.5137568109
 10
34.6736179155
 20
-1.5373271023
 10
34.7463617245
 20
-1.5558707535
 10
34.8185735321
 20
-1.5705690104
 10
34.890847493
 20
-1.5816204741
 10
34.9624531773
 20
-1.5884825682
 10
35.0312658289
 20
-1.5913792909
 10
35.0963784594
 20
-1.590222534
 10
35.1585531456
 20
-1.5849584424
 10
35.2181913688
 20
-1.5759769856
 10
35.2749713241
 20
-1.5632955658
 10
35.3290160291
 20
-1.5468039891
 10
35.3813655589
 20
-1.526700832
 10
35.4320161333
 20
-1.5031318911
 10
35.4806559548
 20
-1.4758786295
 10
35.5277781479
 20
-1.4445572833
 10
35.573743981
 20
-1.4083721625
 10
35.6175996773
 20
-1.3680818361
 10
35.6579843204
 20
-1.3257406224
 10
35.6944860963
 20
-1.2820570275
 10
35.7273419178
 20
-1.2366501682
 10
35.7564074032
 20
-1.1900501297
 10
35.7810285321
 20
-1.1433880488
 10
35.8018394949
 20
-1.0958634157
 10
35.8203137149
 20
-1.0451484685
 10
35.8365379368
 20
-0.9904457324
 10
35.849418669
 20
-0.9331646069
 10
35.8583708543
 20
-0.8743876759
 10
35.8630428007
 20
-0.8134823162
 10
35.862884914
 20
-0.75208103
 10
35.8578618862
 20
-0.6942885569
 10
35.8485644989
 20
-0.6413033086
 10
35.8352799799
 20
-0.5919004596
 10
35.8182681613
 20
-0.5460284247
 10
35.7983923465
 20
-0.5043108008
 10
35.7755703471
 20
-0.4658138468
 10
35.7483225857
 20
-0.4284235569
 10
35.71578099
 20
-0.3913993853
 10
35.6787617599
 20
-0.3559545878
 10
35.6382022859
 20
-0.3229811578
 10
35.5942684782
 20
-0.2923248197
 10
35.563597254
 20
-0.2733423822
  0
LWPOLYLINE
  5
2DA
100
AcDbEntity
  8
IMPORT_IGES
100
AcDbPolyline
 62
250
  6
CONTINUOUS
 90
4
 70
0
 10
35.7851683152
 20
-4.3296508211
 10
35.731823373
 20
-4.30170752
 10
35.6741376009
 20
-4.2755228381
 10
35.6136670382
 20
-4.2506771255
  0
LWPOLYLINE
  5
2DB
100
AcDbEntity
  8
IMPORT_IGES
100
AcDbPolyline
 62
250
  6
CONTINUOUS
 90
4
 70
0
 10
35.7851678077
 20
-2.2884748497
 10
35.7318231917
 20
-2.2605317338
 10
35.6741378443
 20
-2.2343472468
 10
35.6136677168
 20
-2.2095017041
  0
LWPOLYLINE
  5
2DC
100
AcDbEntity
  8
IMPORT_IGES
100
AcDbPolyline
 62
250
  6
CONTINUOUS
 90
4
 70
0
 10
35.785167808
 20
-0.2472991579
 10
35.7318231921
 20
-0.219356042
 10
35.6741378447
 20
-0.193171555
 10
35.6136677173
 20
-0.1683260123
  0
LWPOLYLINE
  5
2DD
100
AcDbEntity
  8
IMPORT_IGES
100
AcDbPolyline
 62
7
  6
CONTINUOUS
 90
11
 70
0
 10
34.3030342711
 20
-3.884040885
 10
34.3758057641
 20
-3.9237738285
 10
34.4457033276
 20
-3.9581490101
 10
34.5159896534
 20
-3.9895038566
 10
34.5862748294
 20
-4.0181238742
 10
34.6565038
 20
-4.0444733785
 10
34.7263015426
 20
-4.0688221361
 10
34.7953126209
 20
-4.091403926
 10
34.8636026704
 20
-4.112556389
 10
34.9308286327
 20
-4.1325466444
 10
35.1235449436
 20
-4.1882235842
  0
LWPOLYLINE
  5
2DE
100
AcDbEntity
  8
IMPORT_IGES
100
AcDbPolyline
 62
7
  6
CONTINUOUS
 90
11
 70
0
 10
34.3030342711
 20
-1.842865193
 10
34.3758057639
 20
-1.8825981364
 10
34.4457033275
 20
-1.916973318
 10
34.5159896533
 20
-1.9483281645
 10
34.5862748293
 20
-1.9769481822
 10
34.6565037998
 20
-2.0032976865
 10
34.7263015425
 20
-2.0276464441
 10
34.7953126208
 20
-2.050228234
 10
34.8636026702
 20
-2.071380697
 10
34.9308286326
 20
-2.0913709523
 10
35.1235449435
 20
-2.1470478922
  0
LWPOLYLINE
  5
2DF
100
AcDbEntity
  8
IMPORT_IGES
100
AcDbPolyline
 62
7
  6
CONTINUOUS
 90
11
 70
0
 10
34.3030342711
 20
0.198310499
 10
34.3758057639
 20
0.1585775555
 10
34.4457033275
 20
0.124202374
 10
34.5159896533
 20
0.0928475275
 10
34.5862748293
 20
0.0642275098
 10
34.6565037998
 20
0.0378780055
 10
34.7263015425
 20
0.0135292479
 10
34.7953126208
 20
-0.009052542
 10
34.8636026702
 20
-0.030205005
 10
34.9308286326
 20
-0.0501952604
 10
35.1235449435
 20
-0.1058722002
  0
LWPOLYLINE
  5
2E0
100
AcDbEntity
  8
IMPORT_IGES
100
AcDbPolyline
 62
250
  6
CONTINUOUS
 90
46
 70
0
 10
34.2615935171
 20
-5.7246591852
 10
34.328029802
 20
-5.7620062069
 10
34.3977364945
 20
-5.7954164839
 10
34.4703987991
 20
-5.8248089863
 10
34.5452453389
 20
-5.8500734796
 10
34.6223793474
 20
-5.8712278902
 10
34.7029347663
 20
-5.8882601735
 10
34.7883598553
 20
-5.9011523232
 10
34.8768425873
 20
-5.9094440809
 10
34.9644967776
 20
-5.9127004726
 10
35.0501445561
 20
-5.9113905242
 10
35.134101902
 20
-5.9055339052
 10
35.2145373115
 20
-5.8945585617
 10
35.2890125922
 20
-5.8792144814
 10
35.3594355406
 20
-5.8595999323
 10
35.4305567426
 20
-5.833890611
 10
35.5054134102
 20
-5.800682323
 10
35.5805801612
 20
-5.7610812922
 10
35.6512023467
 20
-5.7170403148
 10
35.716146649
 20
-5.6693497941
 10
35.7765159815
 20
-5.6179378681
 10
35.8310304928
 20
-5.5639399213
 10
35.8791334802
 20
-5.5078574297
 10
35.9216557717
 20
-5.4498830417
 10
35.9594539342
 20
-5.3906906269
 10
35.9928607092
 20
-5.3303201781
 10
36.0217938384
 20
-5.2691168505
 10
36.046457196
 20
-5.2081312337
 10
36.0670369834
 20
-5.1477802697
 10
36.0835551238
 20
-5.0878853133
 10
36.0959515074
 20
-5.0285695535
 10
36.1043838108
 20
-4.9697078916
 10
36.1088084209
 20
-4.9115375646
 10
36.1088384015
 20
-4.8546974825
 10
36.1041930047
 20
-4.7990892878
 10
36.0951233113
 20
-4.7447832247
 10
36.0820074983
 20
-4.692639183
 10
36.0647757219
 20
-4.6427041871
 10
36.0433374048
 20
-4.5947665802
 10
36.0180298313
 20
-4.5492816509
 10
35.9887145287
 20
-4.5060022854
 10
35.9553165533
 20
-4.4649056766
 10
35.9182908421
 20
-4.4267892333
 10
35.8778472771
 20
-4.3918826009
 10
35.8336090753
 20
-4.3596342254
 10
35.7851683152
 20
-4.3296508211
  0
LWPOLYLINE
  5
2E1
100
AcDbEntity
  8
IMPORT_IGES
100
AcDbPolyline
 62
250
  6
CONTINUOUS
 90
46
 70
0
 10
34.2615935171
 20
-3.6834834305
 10
34.3280300352
 20
-3.7208306182
 10
34.3977370034
 20
-3.7542410254
 10
34.4703996258
 20
-3.7836336191
 10
34.5452465309
 20
-3.8088981577
 10
34.6223809447
 20
-3.8300525686
 10
34.7029367866
 20
-3.8470848168
 10
34.7883623841
 20
-3.8599769028
 10
34.8768456373
 20
-3.8682685531
 10
34.9645001108
 20
-3.8715247989
 10
35.0501477424
 20
-3.8702147029
 10
35.1341046781
 20
-3.8643579609
 10
35.2145397055
 20
-3.8533825062
 10
35.2890147419
 20
-3.8380382936
 10
35.359437484
 20
-3.8184236072
 10
35.4305584999
 20
-3.7927141788
 10
35.5054150181
 20
-3.7595058194
 10
35.580581641
 20
-3.7199047435
 10
35.6512036541
 20
-3.6758637672
 10
35.7161476881
 20
-3.6281733255
 10
35.7765167148
 20
-3.5767615322
 10
35.8310309798
 20
-3.5227637062
 10
35.8791338175
 20
-3.4666812938
 10
35.9216560141
 20
-3.4087069621
 10
35.959454112
 20
-3.3495145815
 10
35.9928608515
 20
-3.2891441452
 10
36.0217939732
 20
-3.2279408051
 10
36.046457328
 20
-3.1669551483
 10
36.0670371177
 20
-3.1066041102
 10
36.0835552649
 20
-3.046709052
 10
36.0959516362
 20
-2.9873931818
 10
36.1043839007
 20
-2.9285313995
 10
36.1088084531
 20
-2.8703609437
 10
36.1088383575
 20
-2.8135207473
 10
36.1041928579
 20
-2.7579124518
 10
36.0951230419
 20
-2.703606301
 10
36.0820071089
 20
-2.6514622096
 10
36.0647752165
 20
-2.6015272119
 10
36.0433367851
 20
-2.55358964
 10
36.0180291183
 20
-2.508104775
 10
35.9887137423
 20
-2.4648255066
 10
35.9553157157
 20
-2.4237290248
 10
35.9182900022
 20
-2.3856127246
 10
35.8778464823
 20
-2.3507062593
 10
35.8336083782
 20
-2.3184580719
 10
35.7851678077
 20
-2.2884748497
  0
LWPOLYLINE
  5
2E2
100
AcDbEntity
  8
IMPORT_IGES
100
AcDbPolyline
 62
250
  6
CONTINUOUS
 90
46
 70
0
 10
34.2615935171
 20
-1.6423077385
 10
34.3280300353
 20
-1.6796549262
 10
34.3977370035
 20
-1.7130653334
 10
34.4703996258
 20
-1.7424579271
 10
34.5452465309
 20
-1.7677224657
 10
34.6223809446
 20
-1.7888768766
 10
34.7029367865
 20
-1.8059091248
 10
34.7883623841
 20
-1.8188012108
 10
34.8768456372
 20
-1.8270928611
 10
34.9645001107
 20
-1.8303491069
 10
35.0501477424
 20
-1.8290390109
 10
35.1341046781
 20
-1.8231822689
 10
35.2145397055
 20
-1.8122068143
 10
35.2890147418
 20
-1.7968626016
 10
35.3594374839
 20
-1.7772479152
 10
35.4305584997
 20
-1.7515384869
 10
35.5054150179
 20
-1.7183301275
 10
35.5805816408
 20
-1.6787290516
 10
35.6512036538
 20
-1.6346880754
 10
35.7161476879
 20
-1.5869976337
 10
35.7765167146
 20
-1.5355858404
 10
35.8310309795
 20
-1.4815880144
 10
35.8791338173
 20
-1.4255056021
 10
35.9216560139
 20
-1.3675312704
 10
35.9594541118
 20
-1.3083388898
 10
35.9928608513
 20
-1.2479684536
 10
36.0217939731
 20
-1.1867651135
 10
36.0464573279
 20
-1.1257794567
 10
36.0670371176
 20
-1.0654284185
 10
36.0835552648
 20
-1.0055333604
 10
36.0959516361
 20
-0.9462174901
 10
36.1043839007
 20
-0.8873557078
 10
36.1088084531
 20
-0.829185252
 10
36.1088383575
 20
-0.7723450556
 10
36.104192858
 20
-0.71673676
 10
36.0951230419
 20
-0.6624306093
 10
36.082007109
 20
-0.6102865178
 10
36.0647752166
 20
-0.5603515202
 10
36.0433367852
 20
-0.5124139483
 10
36.0180291184
 20
-0.4669290833
 10
35.9887137424
 20
-0.4236498148
 10
35.9553157159
 20
-0.382553333
 10
35.9182900024
 20
-0.3444370328
 10
35.8778464826
 20
-0.3095305675
 10
35.8336083785
 20
-0.2772823801
 10
35.785167808
 20
-0.2472991579
  0
LINE
  5
2E3
100
AcDbEntity
  8
IMPORT_IGES
100
AcDbLine
 62
250
  6
CONTINUOUS
 10
-51.65952351
 20
43.8851170053
 11
34.2615990411
 21
-5.7246623111
  0
LINE
  5
2E4
100
AcDbEntity
  8
IMPORT_IGES
100
AcDbLine
 62
250
  6
CONTINUOUS
 10
-51.5416672264
 20
44.1141699113
 11
34.3794448218
 21
-5.4956033408
  0
LINE
  5
2E5
100
AcDbEntity
  8
IMPORT_IGES
100
AcDbLine
 62
7
  6
CONTINUOUS
 10
34.3030101687
 20
-3.8840852459
 11
-51.6181014696
 21
45.7256877696
  0
LINE
  5
2E6
100
AcDbEntity
  8
IMPORT_IGES
100
AcDbLine
 62
250
  6
CONTINUOUS
 10
34.2615935035
 20
-3.7925377899
 11
-51.6595179835
 21
45.8172351382
  0
LINE
  5
2E7
100
AcDbEntity
  8
IMPORT_IGES
100
AcDbLine
 62
250
  6
CONTINUOUS
 10
-51.6595179835
 20
45.9262895063
 11
34.2615935035
 21
-3.6834834218
  0
LINE
  5
2E8
100
AcDbEntity
  8
IMPORT_IGES
100
AcDbLine
 62
250
  6
CONTINUOUS
 10
-51.5416672264
 20
46.1553456033
 11
34.3794448218
 21
-3.4544276488
  0
LINE
  5
2E9
100
AcDbEntity
  8
IMPORT_IGES
100
AcDbLine
 62
7
  6
CONTINUOUS
 10
34.3030101687
 20
-1.8429095539
 11
-51.6181014696
 21
47.7668634616
  0
LINE
  5
2EA
100
AcDbEntity
  8
IMPORT_IGES
100
AcDbLine
 62
250
  6
CONTINUOUS
 10
34.2615935035
 20
-1.7513620979
 11
-51.6595179835
 21
47.8584108302
  0
LINE
  5
2EB
100
AcDbEntity
  8
IMPORT_IGES
100
AcDbLine
 62
250
  6
CONTINUOUS
 10
-51.6595179835
 20
47.9674651983
 11
34.2615935035
 21
-1.6423077298
  0
LINE
  5
2EC
100
AcDbEntity
  8
IMPORT_IGES
100
AcDbLine
 62
250
  6
CONTINUOUS
 10
-51.5416672264
 20
48.1965212953
 11
34.3794448218
 21
-1.4132519569
  0
LWPOLYLINE
  5
2ED
100
AcDbEntity
  8
IMPORT_IGES
100
AcDbPolyline
 62
250
  6
CONTINUOUS
 90
10
 70
0
 10
-51.6181014696
 20
45.7256877696
 10
-51.6216127118
 20
45.7278627737
 10
-51.6301578056
 20
45.7345760011
 10
-51.6377282767
 20
45.7427308189
 10
-51.6442574582
 20
45.7522612522
 10
-51.6496839228
 20
45.7630844178
 10
-51.6539565265
 20
45.7751032563
 10
-51.6570364174
 20
45.7882116054
 10
-51.6588960501
 20
45.8022965706
 10
-51.6595179938
 20
45.8172351419
  0
LWPOLYLINE
  5
2EE
100
AcDbEntity
  8
IMPORT_IGES
100
AcDbPolyline
 62
250
  6
CONTINUOUS
 90
10
 70
0
 10
-51.6181014696
 20
47.7668634616
 10
-51.6216127118
 20
47.7690384656
 10
-51.6301578056
 20
47.775751693
 10
-51.6377282767
 20
47.7839065109
 10
-51.6442574582
 20
47.7934369442
 10
-51.6496839228
 20
47.8042601098
 10
-51.6539565265
 20
47.8162789483
 10
-51.6570364174
 20
47.8293872973
 10
-51.6588960501
 20
47.8434722626
 10
-51.6595179938
 20
47.8584108338
  0
LWPOLYLINE
  5
2EF
100
AcDbEntity
  8
IMPORT_IGES
100
AcDbPolyline
 62
250
  6
CONTINUOUS
 90
10
 70
0
 10
-51.6181014696
 20
49.8080391536
 10
-51.6216127118
 20
49.8102141576
 10
-51.6301578056
 20
49.816927385
 10
-51.6377282767
 20
49.8250822029
 10
-51.6442574582
 20
49.8346126362
 10
-51.6496839228
 20
49.8454358018
 10
-51.6539565265
 20
49.8574546402
 10
-51.6570364174
 20
49.8705629893
 10
-51.6588960501
 20
49.8846479545
 10
-51.6595179938
 20
49.8995865258
  0
LWPOLYLINE
  5
2F0
100
AcDbEntity
  8
IMPORT_IGES
100
AcDbPolyline
 62
250
  6
CONTINUOUS
 90
10
 70
0
 10
34.3030101687
 20
-3.8840852459
 10
34.2993895075
 20
-3.8818375335
 10
34.2908521162
 20
-3.8751029951
 10
34.2832957515
 20
-3.8669321151
 10
34.2767865047
 20
-3.8573963595
 10
34.2713813086
 20
-3.8465791324
 10
34.2671274395
 20
-3.8345750461
 10
34.2640621036
 20
-3.8214890935
 10
34.2622121116
 20
-3.8074357304
 10
34.2615936445
 20
-3.7925378737
  0
LWPOLYLINE
  5
2F1
100
AcDbEntity
  8
IMPORT_IGES
100
AcDbPolyline
 62
250
  6
CONTINUOUS
 90
10
 70
0
 10
34.3030101687
 20
-1.8429095539
 10
34.2993895075
 20
-1.8406618415
 10
34.2908521162
 20
-1.8339273031
 10
34.2832957515
 20
-1.8257564231
 10
34.2767865047
 20
-1.8162206676
 10
34.2713813086
 20
-1.8054034405
 10
34.2671274395
 20
-1.7933993541
 10
34.2640621036
 20
-1.7803134016
 10
34.2622121116
 20
-1.7662600384
 10
34.2615936445
 20
-1.7513621817
  0
LWPOLYLINE
  5
2F2
100
AcDbEntity
  8
IMPORT_IGES
100
AcDbPolyline
 62
250
  6
CONTINUOUS
 90
14
 70
0
 10
-51.6595179973
 20
47.858410839
 10
-51.7220433301
 20
47.8980308035
 10
-51.7800933428
 20
47.9381842982
 10
-51.833527895
 20
47.9786893386
 10
-51.8819555512
 20
48.0192177043
 10
-51.925608176
 20
48.0597115163
 10
-51.9650680759
 20
48.1004730238
 10
-52.000650671
 20
48.1421352755
 10
-52.0312156653
 20
48.1838543244
 10
-52.0555772561
 20
48.2236422924
 10
-52.0739734618
 20
48.2611505473
 10
-52.0870116048
 20
48.2962304259
 10
-52.0949859651
 20
48.3270870791
 10
-52.0983182468
 20
48.3514640491
  0
LWPOLYLINE
  5
2F3
100
AcDbEntity
  8
IMPORT_IGES
100
AcDbPolyline
 62
250
  6
CONTINUOUS
 90
14
 70
0
 10
-51.6595179973
 20
49.8995865312
 10
-51.7220433296
 20
49.9392064952
 10
-51.7800933418
 20
49.9793599894
 10
-51.8335278936
 20
50.0198650294
 10
-51.8819555495
 20
50.0603933947
 10
-51.9256081739
 20
50.1008872063
 10
-51.9650680736
 20
50.1416487134
 10
-52.0006506686
 20
50.1833109646
 10
-52.031215663
 20
50.2250300131
 10
-52.0555772542
 20
50.2648179808
 10
-52.0739734604
 20
50.302326236
 10
-52.0870116039
 20
50.3374061151
 10
-52.0949859647
 20
50.3682627689
 10
-52.0983182468
 20
50.39263974
  0
LWPOLYLINE
  5
2F4
100
AcDbEntity
  8
IMPORT_IGES
100
AcDbPolyline
 62
250
  6
CONTINUOUS
 90
20
 70
0
 10
-51.5416672264
 20
48.1965212953
 10
-51.6087004487
 20
48.2397060107
 10
-51.6691463717
 20
48.2836486124
 10
-51.723022899
 20
48.3284488009
 10
-51.7697848146
 20
48.3743554465
 10
-51.8100554681
 20
48.4214746479
 10
-51.8456141139
 20
48.4696900676
 10
-51.8771839669
 20
48.5195470991
 10
-51.9041928901
 20
48.5708818834
 10
-51.9264606295
 20
48.6223788985
 10
-51.9437916779
 20
48.6736594941
 10
-51.9565735133
 20
48.725315842
 10
-51.9654808545
 20
48.7773694902
 10
-51.9706130006
 20
48.8295220602
 10
-51.9721218499
 20
48.8821821482
 10
-51.9708003907
 20
48.9364263675
 10
-51.9670362574
 20
48.9925372358
 10
-51.9608836674
 20
49.0503331103
 10
-51.952723086
 20
49.1102115275
 10
-51.9424138163
 20
49.1734029134
  0
LWPOLYLINE
  5
2F5
100
AcDbEntity
  8
IMPORT_IGES
100
AcDbPolyline
 62
250
  6
CONTINUOUS
 90
15
 70
0
 10
52.3790502374
 20
10.4013681118
 10
52.4371788095
 20
10.4381860558
 10
52.4915446721
 20
10.4768729245
 10
52.5419679322
 20
10.5173007059
 10
52.5882817429
 20
10.5593356272
 10
52.6303328551
 20
10.602838598
 10
52.6679821247
 20
10.64766567
 10
52.7011049728
 20
10.6936685137
 10
52.7295917985
 20
10.7406949087
 10
52.7533483407
 20
10.7885892483
 10
52.7722959908
 20
10.8371930534
 10
52.7863720523
 20
10.8863454974
 10
52.7955299486
 20
10.9358839385
 10
52.7997393768
 20
10.9856444575
 10
52.8000405369
 20
11.0029986673
  0
LINE
  5
2F6
100
AcDbEntity
  8
IMPORT_IGES
100
AcDbLine
 62
250
  6
CONTINUOUS
 10
44.2970185646
 20
5.7348967039
 11
36.3642468707
 21
1.154628936
  0
LINE
  5
2F7
100
AcDbEntity
  8
IMPORT_IGES
100
AcDbLine
 62
250
  6
CONTINUOUS
 10
52.3790502374
 20
10.4013681118
 11
45.0658383196
 21
6.1787967081
  0
LWPOLYLINE
  5
2F8
100
AcDbEntity
  8
IMPORT_IGES
100
AcDbPolyline
 62
250
  6
CONTINUOUS
 90
28
 70
0
 10
34.2615935171
 20
1.1652204755
 10
34.3243358711
 20
1.1310202609
 10
34.3903802751
 20
1.0989596469
 10
34.4595081924
 20
1.0691447202
 10
34.5314908827
 20
1.0416741365
 10
34.6060901597
 20
1.0166387944
 10
34.6830591787
 20
0.9941215344
 10
34.7621432541
 20
0.9741968647
 10
34.8430807012
 20
0.9569307148
 10
34.925603703
 20
0.9423802174
 10
35.0094391958
 20
0.9305935192
 10
35.0943097729
 20
0.9216096217
 10
35.1799346028
 20
0.9154582521
 10
35.266030358
 20
0.9121597648
 10
35.3523121528
 20
0.9117250744
 10
35.4384944859
 20
0.9141556193
 10
35.5242921853
 20
0.9194433568
 10
35.6094213514
 20
0.9275707903
 10
35.6936002969
 20
0.9385110265
 10
35.7765504788
 20
0.9522278648
 10
35.8579974199
 20
0.968675917
 10
35.9376716172
 20
0.9878007576
 10
36.015309305
 20
1.0095390649
 10
36.0906537211
 20
1.0338189383
 10
36.163455916
 20
1.0605601781
 10
36.2334750646
 20
1.0896743858
 10
36.3004793052
 20
1.1210652146
 10
36.3642468707
 20
1.1546288246
  0
LINE
  5
2F9
100
AcDbEntity
  8
IMPORT_IGES
100
AcDbLine
 62
7
  6
CONTINUOUS
 10
34.3030101687
 20
0.1982661381
 11
-51.6181014696
 21
49.8080391536
  0
LINE
  5
2FA
100
AcDbEntity
  8
IMPORT_IGES
100
AcDbLine
 62
250
  6
CONTINUOUS
 10
34.2615935046
 20
0.2898135934
 11
-51.6595179962
 21
49.8995865296
  0
LINE
  5
2FB
100
AcDbEntity
  8
IMPORT_IGES
100
AcDbLine
 62
250
  6
CONTINUOUS
 10
-51.6595179962
 20
50.7749934189
 11
34.2615935046
 21
1.1652204828
  0
LINE
  5
2FC
100
AcDbEntity
  8
IMPORT_IGES
100
AcDbLine
 62
250
  6
CONTINUOUS
 10
35.3037407642
 20
2.9914642604
 11
-50.6173665938
 21
52.6012348046
  0
LINE
  5
2FD
100
AcDbEntity
  8
IMPORT_IGES
100
AcDbLine
 62
7
  6
CONTINUOUS
 10
44.6505719552
 20
-2.2258947508
 11
44.2970185646
 21
-2.0217574542
  0
LINE
  5
2FE
100
AcDbEntity
  8
IMPORT_IGES
100
AcDbLine
 62
7
  6
CONTINUOUS
 10
45.0658383197
 20
-1.5778574501
 11
45.4193917102
 21
-1.7819947467
  0
LWPOLYLINE
  5
2FF
100
AcDbEntity
  8
IMPORT_IGES
100
AcDbPolyline
 62
250
  6
CONTINUOUS
 90
10
 70
0
 10
34.3030101687
 20
0.1982661381
 10
34.2993895075
 20
0.2005138505
 10
34.2908521162
 20
0.2072483888
 10
34.2832957515
 20
0.2154192689
 10
34.2767865047
 20
0.2249550244
 10
34.2713813086
 20
0.2357722515
 10
34.2671274395
 20
0.2477763379
 10
34.2640621036
 20
0.2608622904
 10
34.2622121116
 20
0.2749156535
 10
34.2615936445
 20
0.2898135103
  0
LWPOLYLINE
  5
300
100
AcDbEntity
  8
IMPORT_IGES
100
AcDbPolyline
 62
7
  6
CONTINUOUS
 90
3
 70
0
 10
34.8809809112
 20
16.8482813544
 10
34.8528098407
 20
16.7796512943
 10
34.8415565087
 20
16.7428019542
  0
LINE
  5
301
100
AcDbEntity
  8
IMPORT_IGES
100
AcDbLine
 62
7
  6
CONTINUOUS
 10
34.9160155949
 20
16.9158495414
 11
34.8809809112
 21
16.8482813544
  0
LWPOLYLINE
  5
302
100
AcDbEntity
  8
IMPORT_IGES
100
AcDbPolyline
 62
250
  6
CONTINUOUS
 90
16
 70
0
 10
34.3794446466
 20
-1.4132518557
 10
34.3665642607
 20
-1.4239220926
 10
34.3539931676
 20
-1.4357875391
 10
34.3418413681
 20
-1.4487470217
 10
34.3302141621
 20
-1.46269127
 10
34.3192154848
 20
-1.4774988055
 10
34.3089461651
 20
-1.4930359949
 10
34.2994987969
 20
-1.5091632934
 10
34.290953705
 20
-1.5257441768
 10
34.2833832347
 20
-1.5426411819
 10
34.2768540531
 20
-1.5597113488
 10
34.2714275879
 20
-1.5768008592
 10
34.2671549832
 20
-1.5937535944
 10
34.2640750912
 20
-1.6104185267
 10
34.2622154577
 20
-1.6266509526
 10
34.2615935137
 20
-1.6423077334
  0
LWPOLYLINE
  5
303
100
AcDbEntity
  8
IMPORT_IGES
100
AcDbPolyline
 62
250
  6
CONTINUOUS
 90
16
 70
0
 10
34.3794446466
 20
-3.4544275477
 10
34.3665642607
 20
-3.4650977846
 10
34.3539931676
 20
-3.4769632311
 10
34.3418413681
 20
-3.4899227137
 10
34.3302141621
 20
-3.503866962
 10
34.3192154848
 20
-3.5186744975
 10
34.3089461651
 20
-3.5342116869
 10
34.2994987969
 20
-3.5503389854
 10
34.290953705
 20
-3.5669198688
 10
34.2833832347
 20
-3.5838168739
 10
34.2768540531
 20
-3.6008870407
 10
34.2714275879
 20
-3.6179765512
 10
34.2671549832
 20
-3.6349292864
 10
34.2640750912
 20
-3.6515942186
 10
34.2622154577
 20
-3.6678266446
 10
34.2615935137
 20
-3.6834834254
  0
LWPOLYLINE
  5
304
100
AcDbEntity
  8
IMPORT_IGES
100
AcDbPolyline
 62
250
  6
CONTINUOUS
 90
16
 70
0
 10
34.3794446466
 20
-5.4956032397
 10
34.3665642607
 20
-5.5062734766
 10
34.3539931676
 20
-5.5181389231
 10
34.3418413681
 20
-5.5310984057
 10
34.3302141621
 20
-5.545042654
 10
34.3192154848
 20
-5.5598501895
 10
34.3089461651
 20
-5.5753873788
 10
34.2994987969
 20
-5.5915146774
 10
34.290953705
 20
-5.6080955608
 10
34.2833832347
 20
-5.6249925658
 10
34.2768540531
 20
-5.6420627327
 10
34.2714275879
 20
-5.6591522432
 10
34.2671549832
 20
-5.6761049783
 10
34.2640750912
 20
-5.6927699106
 10
34.2622154577
 20
-5.7090023366
 10
34.2615935137
 20
-5.7246591173
  0
LINE
  5
305
100
AcDbEntity
  8
IMPORT_IGES
100
AcDbLine
 62
7
  6
CONTINUOUS
 10
44.2970185646
 20
-2.0217574542
 11
36.3642468709
 21
-6.6020252219
  0
LINE
  5
306
100
AcDbEntity
  8
IMPORT_IGES
100
AcDbLine
 62
7
  6
CONTINUOUS
 10
45.0658383196
 20
-1.57785745
 11
48.9052293015
 21
0.6389663956
  0
LINE
  5
307
100
AcDbEntity
  8
IMPORT_IGES
100
AcDbLine
 62
7
  6
CONTINUOUS
 10
36.3580811981
 20
-7.0138591087
 11
44.6505719552
 21
-2.2258947508
  0
LINE
  5
308
100
AcDbEntity
  8
IMPORT_IGES
100
AcDbLine
 62
7
  6
CONTINUOUS
 10
49.2587826924
 20
0.4348290991
 11
45.4193917102
 21
-1.7819947467
  0
LINE
  5
309
100
AcDbEntity
  8
IMPORT_IGES
100
AcDbLine
 62
250
  6
CONTINUOUS
 10
48.9052184402
 20
0.6389601244
 11
49.2587718307
 21
0.4348228278
  0
LINE
  5
30A
100
AcDbEntity
  8
IMPORT_IGES
100
AcDbLine
 62
7
  6
CONTINUOUS
 10
49.6239856538
 20
0.710149188
 11
49.9775390444
 21
0.5060118913
  0
LWPOLYLINE
  5
30B
100
AcDbEntity
  8
IMPORT_IGES
100
AcDbPolyline
 62
250
  6
CONTINUOUS
 90
15
 70
0
 10
34.2615935171
 20
-61.3035745561
 10
34.2633483385
 20
-61.3729812197
 10
34.2686069967
 20
-61.4401318064
 10
34.2773520928
 20
-61.5048041194
 10
34.2895546912
 20
-61.5667841623
 10
34.3051744156
 20
-61.6258668463
 10
34.3241595823
 20
-61.6818566684
 10
34.3464473718
 20
-61.7345683617
 10
34.3719640363
 20
-61.7838275059
 10
34.4006251431
 20
-61.8294711037
 10
34.4323358551
 20
-61.8713481227
 10
34.4669912446
 20
-61.9093199943
 10
34.5044766391
 20
-61.9432610707
 10
34.5446680024
 20
-61.9730590426
 10
34.5721219201
 20
-61.9901246768
  0
LINE
  5
30C
100
AcDbEntity
  8
IMPORT_IGES
100
AcDbLine
 62
7
  6
CONTINUOUS
 10
43.2365180842
 20
7.5717352767
 11
-42.956772583
 21
57.3386610523
  0
LINE
  5
30D
100
AcDbEntity
  8
IMPORT_IGES
100
AcDbLine
 62
7
  6
CONTINUOUS
 10
-42.6398184566
 20
57.1981783187
 11
44.3337770684
 21
6.9807142978
  0
LINE
  5
30E
100
AcDbEntity
  8
IMPORT_IGES
100
AcDbLine
 62
7
  6
CONTINUOUS
 10
44.0053378326
 20
8.0156352847
 11
-42.3113787611
 21
57.8538256433
  0
LINE
  5
30F
100
AcDbEntity
  8
IMPORT_IGES
100
AcDbLine
 62
7
  6
CONTINUOUS
 10
36.1669630262
 20
16.4039642318
 11
36.8623918406
 21
16.0024323501
  0
LINE
  5
310
100
AcDbEntity
  8
IMPORT_IGES
100
AcDbLine
 62
7
  6
CONTINUOUS
 10
3.1031333183
 20
35.7965287768
 11
5.9315604431
 21
34.1634304034
  0
LWPOLYLINE
  5
311
100
AcDbEntity
  8
IMPORT_IGES
100
AcDbPolyline
 62
7
  6
CONTINUOUS
 90
13
 70
0
 10
3.1031333183
 20
35.7965287768
 10
3.0567988449
 20
35.8257342876
 10
3.014369108
 20
35.8559610837
 10
2.9758441077
 20
35.8872091649
 10
2.9411816738
 20
35.9195705661
 10
2.9104239764
 20
35.9529532525
 10
2.8836975261
 20
35.9870811195
 10
2.8609702417
 20
36.0219530644
 10
2.8422742043
 20
36.0575701898
 10
2.8278321675
 20
36.0936596993
 10
2.8176718643
 20
36.130302096
 10
2.8117655617
 20
36.1674168767
 10
2.8102011754
 20
36.200629673
  0
LWPOLYLINE
  5
312
100
AcDbEntity
  8
IMPORT_IGES
100
AcDbPolyline
 62
250
  6
CONTINUOUS
 90
28
 70
0
 10
36.3642412446
 20
1.1546256876
 10
36.361384489
 20
1.2262545968
 10
36.3550130113
 20
1.2997484797
 10
36.3451483605
 20
1.374858754
 10
36.3318239005
 20
1.4513313709
 10
36.315084698
 20
1.5289076713
 10
36.2949873703
 20
1.6073252606
 10
36.2715998927
 20
1.6863189022
 10
36.2450013693
 20
1.7656214097
 10
36.2152817668
 20
1.844964548
 10
36.1825416078
 20
1.9240799482
 10
36.1468916308
 20
2.002700013
 10
36.1084524184
 20
2.0805588169
 10
36.067353986
 20
2.1573930125
 10
36.0237353439
 20
2.2329427172
 10
35.977744029
 20
2.3069523898
 10
35.9295356014
 20
2.3791717014
 10
35.8792731202
 20
2.44935638
 10
35.827126594
 20
2.5172690321
 10
35.7732724018
 20
2.5826799528
 10
35.7178926994
 20
2.6453678978
 10
35.6611748051
 20
2.7051208302
 10
35.6033106259
 20
2.761736583
 10
35.5444958169
 20
2.8150237308
 10
35.4849291146
 20
2.8648021963
 10
35.4248119238
 20
2.9109036239
 10
35.3643476466
 20
2.9531719873
 10
35.3037407971
 20
2.9914642794
  0
LINE
  5
313
100
AcDbEntity
  8
IMPORT_IGES
100
AcDbLine
 62
250
  6
CONTINUOUS
 10
34.2554332702
 20
-7.0242814244
 11
34.2554332702
 21
-53.9235081442
  0
LINE
  5
314
100
AcDbEntity
  8
IMPORT_IGES
100
AcDbLine
 62
250
  6
CONTINUOUS
 10
34.2615935046
 20
1.1652204828
 11
34.2615935046
 21
0.2898135934
  0
LINE
  5
315
100
AcDbEntity
  8
IMPORT_IGES
100
AcDbLine
 62
250
  6
CONTINUOUS
 10
34.2615935035
 20
-1.6423077298
 11
34.2615935035
 21
-1.7513620979
  0
LINE
  5
316
100
AcDbEntity
  8
IMPORT_IGES
100
AcDbLine
 62
250
  6
CONTINUOUS
 10
34.2615935035
 20
-3.6834834218
 11
34.2615935035
 21
-3.7925377899
  0
LINE
  5
317
100
AcDbEntity
  8
IMPORT_IGES
100
AcDbLine
 62
250
  6
CONTINUOUS
 10
34.2615935033
 20
-56.3458162748
 11
34.2615935033
 21
-56.4548706429
  0
LINE
  5
318
100
AcDbEntity
  8
IMPORT_IGES
100
AcDbLine
 62
250
  6
CONTINUOUS
 10
34.2615935033
 20
-58.3869919668
 11
34.2615935033
 21
-58.4960463349
  0
LINE
  5
319
100
AcDbEntity
  8
IMPORT_IGES
100
AcDbLine
 62
250
  6
CONTINUOUS
 10
34.261593516
 20
-60.4281676662
 11
34.261593516
 21
-61.3035745555
  0
LINE
  5
31A
100
AcDbEntity
  8
IMPORT_IGES
100
AcDbLine
 62
250
  6
CONTINUOUS
 10
34.2615990411
 20
-5.7246623111
 11
34.2615990411
 21
-6.612441099
  0
LINE
  5
31B
100
AcDbEntity
  8
IMPORT_IGES
100
AcDbLine
 62
250
  6
CONTINUOUS
 10
34.2615990298
 20
-53.9235089516
 11
34.2615990298
 21
-54.4136981419
  0
LINE
  5
31C
100
AcDbEntity
  8
IMPORT_IGES
100
AcDbLine
 62
7
  6
CONTINUOUS
 10
36.1669630262
 20
17.6420822538
 11
36.1669630262
 21
16.4039642318
  0
LINE
  5
31D
100
AcDbEntity
  8
IMPORT_IGES
100
AcDbLine
 62
250
  6
CONTINUOUS
 10
36.3580811984
 20
-53.9550947281
 11
36.3580811984
 21
-7.0138591087
  0
LINE
  5
31E
100
AcDbEntity
  8
IMPORT_IGES
100
AcDbLine
 62
250
  6
CONTINUOUS
 10
36.3642468697
 20
-61.3141663191
 11
36.3642468697
 21
-53.9550947278
  0
LINE
  5
31F
100
AcDbEntity
  8
IMPORT_IGES
100
AcDbLine
 62
250
  6
CONTINUOUS
 10
36.3642468707
 20
-6.602025222
 11
36.3642468707
 21
1.154628936
  0
LINE
  5
320
100
AcDbEntity
  8
IMPORT_IGES
100
AcDbLine
 62
7
  6
CONTINUOUS
 10
36.8623918406
 20
16.561683236
 11
36.8623918406
 21
16.0024323501
  0
LWPOLYLINE
  5
321
100
AcDbEntity
  8
IMPORT_IGES
100
AcDbPolyline
 62
250
  6
CONTINUOUS
 90
15
 70
0
 10
52.0499752509
 20
12.302074453
 10
52.0348618817
 20
12.3104513111
 10
51.9896660658
 20
12.3316813092
 10
51.9421883259
 20
12.348514789
 10
51.8925857622
 20
12.3608960494
 10
51.8410225071
 20
12.3687841212
 10
51.78766918
 20
12.3721529033
 10
51.7327023233
 20
12.3709912486
 10
51.6763038196
 20
12.365303001
 10
51.6186602878
 20
12.3551069829
 10
51.5599624665
 20
12.3404369324
 10
51.500404584
 20
12.3213413924
 10
51.4401837136
 20
12.2978835493
 10
51.3794991217
 20
12.2701410241
 10
51.3185516093
 20
12.2382056151
  0
LINE
  5
322
100
AcDbEntity
  8
IMPORT_IGES
100
AcDbLine
 62
7
  6
CONTINUOUS
 10
7.3457740054
 20
34.9514765067
 11
4.5173468807
 21
36.58457488
  0
LINE
  5
323
100
AcDbEntity
  8
IMPORT_IGES
100
AcDbLine
 62
250
  6
CONTINUOUS
 10
-34.7383261434
 20
61.9263682835
 11
51.3185497629
 21
12.2382066812
  0
LINE
  5
324
100
AcDbEntity
  8
IMPORT_IGES
100
AcDbLine
 62
250
  6
CONTINUOUS
 10
52.0500767771
 20
12.302015849
 11
52.0499752509
 21
12.302074453
  0
LINE
  5
325
100
AcDbEntity
  8
IMPORT_IGES
100
AcDbLine
 62
7
  6
CONTINUOUS
 10
-34.0068032799
 20
61.9901798479
 11
52.0500767771
 21
12.302015849
  0
LWPOLYLINE
  5
326
100
AcDbEntity
  8
IMPORT_IGES
100
AcDbPolyline
 62
250
  6
CONTINUOUS
 90
28
 70
0
 10
51.3185497313
 20
12.2382066629
 10
51.381244858
 20
12.2011209749
 10
51.4436653208
 20
12.1599827829
 10
51.5055999901
 20
12.114931232
 10
51.5668393794
 20
12.0661187034
 10
51.6271763539
 20
12.0137102997
 10
51.6864068309
 20
11.9578832859
 10
51.7443304707
 20
11.8988264903
 10
51.8007513533
 20
11.8367396653
 10
51.8554786422
 20
11.7718328121
 10
51.9083272287
 20
11.7043254702
 10
51.959118359
 20
11.6344459751
 10
52.0076802381
 20
11.5624306858
 10
52.0538486114
 20
11.4885231852
 10
52.09746732
 20
11.4129734566
 10
52.1383888288
 20
11.3360370378
 10
52.1764747257
 20
11.2579741569
 10
52.2115961898
 20
11.1790488522
 10
52.2436344271
 20
11.0995280791
 10
52.272481072
 20
11.0196808068
 10
52.2980385542
 20
10.9397771093
 10
52.3202204287
 20
10.860087251
 10
52.3389516679
 20
10.7808807733
 10
52.3541689157
 20
10.7024255826
 10
52.3658207016
 20
10.624987044
 10
52.3738676148
 20
10.5488270841
 10
52.3782824376
 20
10.4742033047
 10
52.3790502374
 20
10.4013681118
  0
LWPOLYLINE
  5
327
100
AcDbEntity
  8
IMPORT_IGES
100
AcDbPolyline
 62
7
  6
CONTINUOUS
 90
13
 70
0
 10
7.3457740055
 20
34.9514765067
 10
7.3921084789
 20
34.9222709958
 10
7.4345382157
 20
34.8920441998
 10
7.473063216
 20
34.8607961186
 10
7.50772565
 20
34.8284347173
 10
7.5384833473
 20
34.7950520309
 10
7.5652097977
 20
34.760924164
 10
7.5879370821
 20
34.7260522191
 10
7.6066331195
 20
34.6904350937
 10
7.6210751563
 20
34.6543455842
 10
7.6312354595
 20
34.6177031875
 10
7.637141762
 20
34.5805884068
 10
7.6387061483
 20
34.5473756105
  0
LWPOLYLINE
  5
328
100
AcDbEntity
  8
IMPORT_IGES
100
AcDbPolyline
 62
7
  6
CONTINUOUS
 90
5
 70
0
 10
35.2869049525
 20
16.4311193251
 10
35.3636441039
 20
16.3110839483
 10
35.4393144119
 20
16.1947166419
 10
35.5140485556
 20
16.0820151666
 10
35.5459998554
 20
16.0347234431
  0
LWPOLYLINE
  5
329
100
AcDbEntity
  8
IMPORT_IGES
100
AcDbPolyline
 62
7
  6
CONTINUOUS
 90
4
 70
0
 10
34.9648814982
 20
16.9480154451
 10
35.0476208532
 20
16.8132786711
 10
35.1288933271
 20
16.6822166865
 10
35.2869049525
 20
16.4311193251
  0
LWPOLYLINE
  5
32A
100
AcDbEntity
  8
IMPORT_IGES
100
AcDbPolyline
 62
250
  6
CONTINUOUS
 90
15
 70
0
 10
36.3642412446
 20
-61.3141693441
 10
36.36138448
 20
-61.3849117589
 10
36.3550129809
 20
-61.4533076513
 10
36.3451482984
 20
-61.5191256803
 10
36.3318237983
 20
-61.5821432244
 10
36.3150845493
 20
-61.6421471344
 10
36.2949871698
 20
-61.6989344542
 10
36.2715996369
 20
-61.7523131078
 10
36.2450010559
 20
-61.8021025481
 10
36.2152813934
 20
-61.8481343685
 10
36.1825411725
 20
-61.8902528718
 10
36.1468911332
 20
-61.9283155973
 10
36.1084518573
 20
-61.9621938025
 10
36.067353361
 20
-61.9917728983
 10
36.0326926651
 20
-62.0122517854
  0
LWPOLYLINE
  5
32B
100
AcDbEntity
  8
IMPORT_IGES
100
AcDbPolyline
 62
7
  6
CONTINUOUS
 90
6
 70
0
 10
36.8623918406
 20
16.561683236
 10
36.7879333095
 20
16.6698668658
 10
36.7128986947
 20
16.780992289
 10
36.6372879963
 20
16.8950595054
 10
36.5612702151
 20
17.0120373376
 10
36.4846763503
 20
17.1319569632
  0
LWPOLYLINE
  5
32C
100
AcDbEntity
  8
IMPORT_IGES
100
AcDbPolyline
 62
7
  6
CONTINUOUS
 90
4
 70
0
 10
36.4846763503
 20
17.1319569632
 10
36.3280703611
 20
17.3809333686
 10
36.2480582368
 20
17.5099901484
 10
36.1669630262
 20
17.6420822538
  0
LWPOLYLINE
  5
32D
100
AcDbEntity
  8
IMPORT_IGES
100
AcDbPolyline
 62
7
  6
CONTINUOUS
 90
37
 70
0
 10
38.9378693816
 20
16.8482813544
 10
38.9028346979
 20
16.9158495414
 10
38.8610549473
 20
16.982127226
 10
38.8126714992
 20
17.0468901454
 10
38.7578480679
 20
17.1099191626
 10
38.6967701586
 20
17.1710010071
 10
38.6296444394
 20
17.2299289974
 10
38.5566980428
 20
17.2865037398
 10
38.478177796
 20
17.3405338033
 10
38.3943493869
 20
17.3918363673
 10
38.3054964642
 20
17.4402378401
 10
38.2119196781
 20
17.4855744465
 10
38.1139356628
 20
17.5276927817
 10
38.0118759651
 20
17.5664503306
 10
37.9060859229
 20
17.60171595
 10
37.7969234961
 20
17.6333703121
 10
37.6847580558
 20
17.6613063087
 10
37.5699691344
 20
17.6854294131
 10
37.4529451411
 20
17.7056580003
 10
37.3340820483
 20
17.7219236234
 10
37.213782051
 20
17.7341712445
 10
37.0924522062
 20
17.7423594215
 10
36.9705030558
 20
17.7464604483
 10
36.8483472371
 20
17.7464604483
 10
36.7263980867
 20
17.7423594215
 10
36.6050682419
 20
17.7341712445
 10
36.4847682445
 20
17.7219236234
 10
36.3659051517
 20
17.7056580003
 10
36.2488811585
 20
17.6854294131
 10
36.1340922371
 20
17.6613063087
 10
36.0219267968
 20
17.6333703121
 10
35.91276437
 20
17.60171595
 10
35.8069743277
 20
17.5664503306
 10
35.7049146301
 20
17.5276927817
 10
35.6069306148
 20
17.4855744465
 10
35.5133538286
 20
17.4402378401
 10
35.4245009059
 20
17.3918363673
  0
LWPOLYLINE
  5
32E
100
AcDbEntity
  8
IMPORT_IGES
100
AcDbPolyline
 62
7
  6
CONTINUOUS
 90
3
 70
0
 10
38.9835762219
 20
16.7222299419
 10
38.9660404521
 20
16.7796512943
 10
38.9378693816
 20
16.8482813544
  0
LWPOLYLINE
  5
32F
100
AcDbEntity
  8
IMPORT_IGES
100
AcDbPolyline
 62
7
  6
CONTINUOUS
 90
28
 70
0
 10
44.2970185646
 20
5.7348788758
 10
44.2951082408
 20
5.8081731009
 10
44.2896718031
 20
5.8826353746
 10
44.2807092516
 20
5.9582656969
 10
44.2681488208
 20
6.0353247608
 10
44.2520622761
 20
6.1135518733
 10
44.232664914
 20
6.1921649558
 10
44.2100211556
 20
6.2709811424
 10
44.1840665797
 20
6.350183299
 10
44.1548232194
 20
6.4295379442
 10
44.1221219332
 20
6.5094093871
 10
44.0861318627
 20
6.5894333186
 10
44.047382465
 20
6.6682833303
 10
44.0059030497
 20
6.7457610759
 10
43.9616643073
 20
6.8220649016
 10
43.9151077667
 20
6.8964634381
 10
43.8660855345
 20
6.9690696504
 10
43.8147455041
 20
7.0397705735
 10
43.7619728844
 20
7.1074959415
 10
43.7079874473
 20
7.1719316708
 10
43.6525694209
 20
7.2333918452
 10
43.5959446983
 20
7.2917484498
 10
43.537995909
 20
7.3471335129
 10
43.4788404234
 20
7.3994150063
 10
43.4190562464
 20
7.4480688307
 10
43.3588360464
 20
7.4929202866
 10
43.2979871549
 20
7.5341440735
 10
43.2365095721
 20
7.5717401915
  0
LINE
  5
330
100
AcDbEntity
  8
IMPORT_IGES
100
AcDbLine
 62
7
  6
CONTINUOUS
 10
44.2970185646
 20
5.7348788758
 11
44.2970185646
 21
-2.0217574542
  0
LINE
  5
331
100
AcDbEntity
  8
IMPORT_IGES
100
AcDbLine
 62
7
  6
CONTINUOUS
 10
44.2970185646
 20
-49.6857911268
 11
44.2970185646
 21
-57.0481783595
  0
LINE
  5
332
100
AcDbEntity
  8
IMPORT_IGES
100
AcDbLine
 62
7
  6
CONTINUOUS
 10
44.3337770684
 20
6.9807142978
 11
44.3337770684
 21
-2.0429813536
  0
LINE
  5
333
100
AcDbEntity
  8
IMPORT_IGES
100
AcDbLine
 62
7
  6
CONTINUOUS
 10
44.3337770684
 20
-49.666023593
 11
44.3337770684
 21
-56.7033454355
  0
LINE
  5
334
100
AcDbEntity
  8
IMPORT_IGES
100
AcDbLine
 62
7
  6
CONTINUOUS
 10
44.6505719552
 20
-2.2258947508
 11
44.6505719552
 21
-49.4956615547
  0
LINE
  5
335
100
AcDbEntity
  8
IMPORT_IGES
100
AcDbLine
 62
7
  6
CONTINUOUS
 10
45.0658383196
 20
-56.7467937712
 11
45.0658383196
 21
-48.9901396708
  0
LINE
  5
336
100
AcDbEntity
  8
IMPORT_IGES
100
AcDbLine
 62
7
  6
CONTINUOUS
 10
45.0658383196
 20
-1.57785745
 11
45.0658383196
 21
6.1787966514
  0
LINE
  5
337
100
AcDbEntity
  8
IMPORT_IGES
100
AcDbLine
 62
7
  6
CONTINUOUS
 10
45.4193917102
 20
-49.1942769675
 11
45.4193917102
 21
-1.7819947467
  0
LINE
  5
338
100
AcDbEntity
  8
IMPORT_IGES
100
AcDbLine
 62
7
  6
CONTINUOUS
 10
50.2827410151
 20
-0.1774500686
 11
50.2827410151
 21
-44.9832069055
  0
LINE
  5
339
100
AcDbEntity
  8
IMPORT_IGES
100
AcDbLine
 62
250
  6
CONTINUOUS
 10
52.3790502374
 20
10.4013681118
 11
52.3790502374
 21
-52.2241938784
  0
LINE
  5
33A
100
AcDbEntity
  8
IMPORT_IGES
100
AcDbLine
 62
7
  6
CONTINUOUS
 10
52.8000405369
 20
11.0029986673
 11
52.8000405369
 21
-51.622563323
  0
LWPOLYLINE
  5
33B
100
AcDbEntity
  8
IMPORT_IGES
100
AcDbPolyline
 62
250
  6
CONTINUOUS
 90
13
 70
0
 10
52.3790502374
 20
-52.2241938785
 10
52.3782824426
 20
-52.2937300177
 10
52.3738676381
 20
-52.3609960365
 10
52.3658207544
 20
-52.4257644152
 10
52.354169007
 20
-52.4878160831
 10
52.3389518049
 20
-52.5469411559
 10
52.3202206173
 20
-52.6029396471
 10
52.2980387986
 20
-52.6556221481
 10
52.2724813748
 20
-52.7048104654
 10
52.2436347911
 20
-52.7503382218
 10
52.2115966173
 20
-52.7920514244
 10
52.1764752174
 20
-52.8298089833
 10
52.1383893862
 20
-52.8634831861
  0
LINE
  5
33C
100
AcDbEntity
  8
IMPORT_IGES
100
AcDbLine
 62
250
  6
CONTINUOUS
 10
52.8000405369
 20
-51.622563323
 11
52.7997393768
 21
-51.6399175328
  0
LWPOLYLINE
  5
33D
100
AcDbEntity
  8
IMPORT_IGES
100
AcDbPolyline
 62
250
  6
CONTINUOUS
 90
14
 70
0
 10
52.7997393768
 20
-51.6399175328
 10
52.7955299486
 20
-51.6896780518
 10
52.7863720523
 20
-51.7392164929
 10
52.7722959908
 20
-51.7883689369
 10
52.7533483407
 20
-51.836972742
 10
52.7295917985
 20
-51.8848670816
 10
52.7011049728
 20
-51.9318934766
 10
52.6679821247
 20
-51.9778963203
 10
52.6303328551
 20
-52.0227233923
 10
52.5882817429
 20
-52.0662263631
 10
52.5419679322
 20
-52.1082612844
 10
52.4915446721
 20
-52.1486890658
 10
52.4371788095
 20
-52.1873759345
 10
52.3790502374
 20
-52.2241938785
  0
LWPOLYLINE
  5
33E
100
AcDbEntity
  8
IMPORT_IGES
100
AcDbPolyline
 62
250
  6
CONTINUOUS
 90
16
 70
0
 10
34.3794446466
 20
-56.1167604008
 10
34.366564263
 20
-56.1274306357
 10
34.3539931711
 20
-56.1392960805
 10
34.3418413721
 20
-56.1522555623
 10
34.3302141655
 20
-56.1661998107
 10
34.319215487
 20
-56.1810073475
 10
34.3089461657
 20
-56.1965445389
 10
34.2994987956
 20
-56.2126718408
 10
34.2909537018
 20
-56.2292527282
 10
34.2833832307
 20
-56.2461497364
 10
34.2768540492
 20
-56.2632199048
 10
34.2714275846
 20
-56.2803094157
 10
34.2671549809
 20
-56.2972621499
 10
34.26407509
 20
-56.3139270798
 10
34.2622154573
 20
-56.3301595022
 10
34.2615935136
 20
-56.3458162785
  0
LINE
  5
33F
100
AcDbEntity
  8
IMPORT_IGES
100
AcDbLine
 62
7
  6
CONTINUOUS
 10
45.4193917102
 20
-49.1942769675
 11
49.2587718302
 21
-46.8199467094
  0
LINE
  5
340
100
AcDbEntity
  8
IMPORT_IGES
100
AcDbLine
 62
7
  6
CONTINUOUS
 10
44.6505719552
 20
-49.4956615547
 11
36.3580811991
 21
-53.9550947278
  0
LWPOLYLINE
  5
341
100
AcDbEntity
  8
IMPORT_IGES
100
AcDbPolyline
 62
250
  6
CONTINUOUS
 90
16
 70
0
 10
34.3794446466
 20
-58.1579360928
 10
34.366564263
 20
-58.1686063277
 10
34.3539931711
 20
-58.1804717725
 10
34.3418413721
 20
-58.1934312543
 10
34.3302141655
 20
-58.2073755027
 10
34.319215487
 20
-58.2221830395
 10
34.3089461657
 20
-58.2377202309
 10
34.2994987956
 20
-58.2538475328
 10
34.2909537018
 20
-58.2704284202
 10
34.2833832307
 20
-58.2873254284
 10
34.2768540492
 20
-58.3043955968
 10
34.2714275846
 20
-58.3214851077
 10
34.2671549809
 20
-58.3384378418
 10
34.26407509
 20
-58.3551027718
 10
34.2622154573
 20
-58.3713351942
 10
34.2615935136
 20
-58.3869919704
  0
LWPOLYLINE
  5
342
100
AcDbEntity
  8
IMPORT_IGES
100
AcDbPolyline
 62
250
  6
CONTINUOUS
 90
16
 70
0
 10
34.3794446466
 20
-60.1991117848
 10
34.366564263
 20
-60.2097820196
 10
34.3539931711
 20
-60.2216474645
 10
34.3418413721
 20
-60.2346069462
 10
34.3302141655
 20
-60.2485511947
 10
34.319215487
 20
-60.2633587315
 10
34.3089461657
 20
-60.2788959229
 10
34.2994987956
 20
-60.2950232247
 10
34.2909537018
 20
-60.3116041122
 10
34.2833832307
 20
-60.3285011204
 10
34.2768540492
 20
-60.3455712888
 10
34.2714275846
 20
-60.3626607997
 10
34.2671549809
 20
-60.3796135338
 10
34.26407509
 20
-60.3962784637
 10
34.2622154573
 20
-60.4125108862
 10
34.2615935136
 20
-60.4281676624
  0
LINE
  5
343
100
AcDbEntity
  8
IMPORT_IGES
100
AcDbLine
 62
7
  6
CONTINUOUS
 10
44.2970185646
 20
-56.3646605366
 11
44.3337770684
 21
-56.3419285264
  0
LINE
  5
344
100
AcDbEntity
  8
IMPORT_IGES
100
AcDbLine
 62
250
  6
CONTINUOUS
 10
36.3642468697
 20
-61.3141663191
 11
44.2970185646
 21
-57.0481784162
  0
LWPOLYLINE
  5
345
100
AcDbEntity
  8
IMPORT_IGES
100
AcDbPolyline
 62
250
  6
CONTINUOUS
 90
28
 70
0
 10
36.3642468696
 20
-61.3141662076
 10
36.3004793043
 20
-61.3477298175
 10
36.2334750639
 20
-61.3791206462
 10
36.1634559153
 20
-61.4082348539
 10
36.0906537205
 20
-61.4349760936
 10
36.0153093043
 20
-61.459255967
 10
35.9376716164
 20
-61.4809942743
 10
35.8579974192
 20
-61.5001191148
 10
35.776550478
 20
-61.516567167
 10
35.6936002961
 20
-61.5302840053
 10
35.6094213506
 20
-61.5412242415
 10
35.5242921845
 20
-61.5493516749
 10
35.4384944851
 20
-61.5546394124
 10
35.352312152
 20
-61.5570699573
 10
35.2660303572
 20
-61.5566352668
 10
35.179934602
 20
-61.5533367796
 10
35.0943097721
 20
-61.5471854099
 10
35.009439195
 20
-61.5382015124
 10
34.9256037022
 20
-61.5264148141
 10
34.8430807005
 20
-61.5118643167
 10
34.7621432533
 20
-61.4945981668
 10
34.683059178
 20
-61.4746734971
 10
34.6060901589
 20
-61.452156237
 10
34.531490882
 20
-61.4271208949
 10
34.4595081918
 20
-61.3996503113
 10
34.3903802747
 20
-61.3698353846
 10
34.3243358708
 20
-61.3377747707
 10
34.2615935171
 20
-61.3035745561
  0
LWPOLYLINE
  5
346
100
AcDbEntity
  8
IMPORT_IGES
100
AcDbPolyline
 62
250
  6
CONTINUOUS
 90
3
 70
0
 10
52.1383893862
 20
-52.8634831861
 10
52.0974679437
 20
-52.8929601338
 10
52.0889889051
 20
-52.898322106
  0
LINE
  5
347
100
AcDbEntity
  8
IMPORT_IGES
100
AcDbLine
 62
250
  6
CONTINUOUS
 10
45.0658383196
 20
-56.7467938289
 11
52.3790502374
 21
-52.2241938784
  0
LINE
  5
348
100
AcDbEntity
  8
IMPORT_IGES
100
AcDbLine
 62
7
  6
CONTINUOUS
 10
52.088988905
 20
-52.898322106
 11
44.7682511396
 21
-57.4255761535
  0
LINE
  5
349
100
AcDbEntity
  8
IMPORT_IGES
100
AcDbLine
 62
7
  6
CONTINUOUS
 10
43.9732632734
 20
-57.7420698792
 11
36.0326926651
 21
-62.0122517854
  0
ARC
  5
34A
100
AcDbEntity
  8
IMPORT_IGES
100
AcDbCircle
 62
7
  6
CONTINUOUS
 10
-34.7568395201
 20
60.6911626661
 40
1.5
100
AcDbArc
 50
59.998401566
 51
118.2726043542
  0
ARC
  5
34B
100
AcDbEntity
  8
IMPORT_IGES
100
AcDbCircle
 62
7
  6
CONTINUOUS
 10
51.3000405369
 20
-51.622563323
 40
1.5
100
AcDbArc
 50
301.7306424119
 51
359.9999999992
  0
ARC
  5
34C
100
AcDbEntity
  8
IMPORT_IGES
100
AcDbCircle
 62
7
  6
CONTINUOUS
 10
51.3000405369
 20
11.0029986673
 40
1.5
100
AcDbArc
 50
0.0000000001
 51
60.0028792779
  0
ARC
  5
34D
100
AcDbEntity
  8
IMPORT_IGES
100
AcDbCircle
 62
7
  6
CONTINUOUS
 10
35.3222536889
 20
-60.6911626661
 40
1.5
100
AcDbArc
 50
239.9941878132
 51
298.2699243021
  0
ARC
  5
34E
100
AcDbEntity
  8
IMPORT_IGES
100
AcDbCircle
 62
7
  6
CONTINUOUS
 10
-50.5988578255
 20
-11.0813897222
 40
1.5
100
AcDbArc
 50
180.0000000001
 51
239.9984015643
  0
ARC
  5
34F
100
AcDbEntity
  8
IMPORT_IGES
100
AcDbCircle
 62
7
  6
CONTINUOUS
 10
-50.5988578255
 20
51.3874053095
 40
1.5
100
AcDbArc
 50
121.7332680344
 51
180.0000000006
  0
ELLIPSE
  5
350
100
AcDbEntity
  8
IMPORT_IGES
100
AcDbEllipse
 62
7
  6
CONTINUOUS
 10
-42.956451775
 20
56.1135838496
 30
0.0
 11
-0.7502646928
 21
1.2994129242
 31
0.0
 40
0.5771558487
 41
-0.785296349
 42
0.0174471366
  0
ELLIPSE
  5
351
100
AcDbEntity
  8
IMPORT_IGES
100
AcDbEllipse
 62
7
  6
CONTINUOUS
 10
36.9094251464
 20
15.2933229106
 30
0.0
 11
1.2499556048
 21
-0.0185728647
 31
0.0
 40
0.5672251703
 41
0.8664071745
 42
1.6168599524
  0
ELLIPSE
  5
352
100
AcDbEntity
  8
IMPORT_IGES
100
AcDbEllipse
 62
7
  6
CONTINUOUS
 10
-26.7301851604
 20
52.03803631
 30
0.0
 11
1.2499556048
 21
-0.0185728647
 31
0.0
 40
0.5672251703
 41
0.8663826886
 42
2.2917652247
  0
ELLIPSE
  5
353
100
AcDbEntity
  8
IMPORT_IGES
100
AcDbEllipse
 62
7
  6
CONTINUOUS
 10
-51.2997933093
 20
-3.3215461085
 30
0.0
 11
1.4999467257
 21
-0.0222874377
 31
0.0
 40
0.5672251703
 41
-3.1331645594
 42
-2.3477727688
  0
ELLIPSE
  5
354
100
AcDbEntity
  8
IMPORT_IGES
100
AcDbEllipse
 62
7
  6
CONTINUOUS
 10
43.2361968245
 20
-56.4353001531
 30
0.0
 11
-0.7502646928
 21
1.2994129242
 31
0.0
 40
0.5771558487
 41
-3.1590397924
 42
-2.3563950293
  0
ELLIPSE
  5
355
100
AcDbEntity
  8
IMPORT_IGES
100
AcDbEllipse
 62
7
  6
CONTINUOUS
 10
35.3160823915
 20
-53.3324671863
 30
0.0
 11
1.4999467257
 21
-0.0222874377
 31
0.0
 40
0.5672251703
 41
-2.3477546563
 42
-0.7944129311
  0
ELLIPSE
  5
356
100
AcDbEntity
  8
IMPORT_IGES
100
AcDbEllipse
 62
7
  6
CONTINUOUS
 10
49.2405947355
 20
-45.6062957253
 30
0.0
 11
0.7307083665
 21
1.3101153486
 31
0.0
 40
0.5671693725
 41
-2.3471305999
 42
-0.7937835322
  0
ELLIPSE
  5
357
100
AcDbEntity
  8
IMPORT_IGES
100
AcDbEllipse
 62
7
  6
CONTINUOUS
 10
44.0050165796
 20
6.7909288
 30
0.0
 11
-0.7500362733
 21
1.2990171626
 31
0.0
 40
0.5775075436
 41
-2.3560905941
 42
-0.7855970552
  0
ELLIPSE
  5
358
100
AcDbEntity
  8
IMPORT_IGES
100
AcDbEllipse
 62
7
  6
CONTINUOUS
 10
49.2405947355
 20
-0.8005644075
 30
0.0
 11
0.7307083665
 21
1.3101153486
 31
0.0
 40
0.5671693725
 41
5.489418592
 42
7.0427512071
  0
ELLIPSE
  5
359
100
AcDbEntity
  8
IMPORT_IGES
100
AcDbEllipse
 62
7
  6
CONTINUOUS
 10
44.0050165796
 20
-56.1339155659
 30
0.0
 11
-0.7502646928
 21
1.2994129242
 31
0.0
 40
0.5771558487
 41
2.561440192
 42
3.9267902788
  0
ELLIPSE
  5
35A
100
AcDbEntity
  8
IMPORT_IGES
100
AcDbEllipse
 62
7
  6
CONTINUOUS
 10
48.8870413449
 20
-0.5964271108
 30
0.0
 11
0.7307083665
 21
1.3101153486
 31
0.0
 40
0.5671693725
 41
-0.008427296
 42
0.7595659003
  0
ELLIPSE
  5
35B
100
AcDbEntity
  8
IMPORT_IGES
100
AcDbEllipse
 62
7
  6
CONTINUOUS
 10
-42.3110579677
 20
56.6287484491
 30
0.0
 11
-0.7502646928
 21
1.2994129242
 31
0.0
 40
0.5771558487
 41
-0.7852963479
 42
0.5801661535
  0
ELLIPSE
  5
35C
100
AcDbEntity
  8
IMPORT_IGES
100
AcDbEllipse
 62
7
  6
CONTINUOUS
 10
36.9094251464
 20
16.9265122068
 30
0.0
 11
2.099925416
 21
-0.0312024127
 31
0.0
 40
0.5672251703
 41
0.0
 42
6.2831853072
  0
ELLIPSE
  5
35D
100
AcDbEntity
  8
IMPORT_IGES
100
AcDbEllipse
 62
7
  6
CONTINUOUS
 10
-26.7301851604
 20
53.6712256063
 30
0.0
 11
2.099925416
 21
-0.0312024127
 31
0.0
 40
0.5672251703
 41
0.0
 42
6.2831853072
  0
ELLIPSE
  5
35E
100
AcDbEntity
  8
IMPORT_IGES
100
AcDbEllipse
 62
7
  6
CONTINUOUS
 10
35.3160823915
 20
-6.3904858414
 30
0.0
 11
1.4999387429
 21
0.0230791494
 31
0.0
 40
0.5873737521
 41
-2.3652256289
 42
-0.8118785428
  0
ELLIPSE
  5
35F
100
AcDbEntity
  8
IMPORT_IGES
100
AcDbEllipse
 62
7
  6
CONTINUOUS
 10
35.3222536889
 20
-5.978648707
 30
0.0
 11
1.4999387429
 21
0.0230791494
 31
0.0
 40
0.5873737521
 41
-2.3652218609
 42
-0.8118837557
  0
ELLIPSE
  5
360
100
AcDbEntity
  8
IMPORT_IGES
100
AcDbEllipse
 62
7
  6
CONTINUOUS
 10
-51.2997933093
 20
43.6204352364
 30
0.0
 11
1.4999387429
 21
0.0230791494
 31
0.0
 40
0.5873737521
 41
8.6477851487
 42
10.2011322156
  0
ELLIPSE
  5
361
100
AcDbEntity
  8
IMPORT_IGES
100
AcDbEllipse
 62
7
  6
CONTINUOUS
 10
-50.5988578255
 20
43.631124237
 30
0.0
 11
1.4999387429
 21
0.0230791494
 31
0.0
 40
0.5873737521
 41
3.1325551368
 42
3.9179532925
  0
ENDSEC
  0
SECTION
  2
OBJECTS
  0
DICTIONARY
  5
C
100
AcDbDictionary
280
0
281
1
  3
ACAD_GROUP
350
D
  3
ACAD_MLINESTYLE
350
17
  3
ACAD_LAYOUT
350
1A
  3
ACAD_PLOTSETTINGS
350
19
  3
ACAD_PLOTSTYLENAME
350
E
  0
DICTIONARY
  5
D
102
{ACAD_REACTORS
330
C
102
}
100
AcDbDictionary
280
0
281
1
  0
ACDBDICTIONARYWDFLT
  5
E
102
{ACAD_REACTORS
330
C
102
}
100
AcDbDictionary
281
1
  3
Normal
350
F
100
AcDbDictionaryWithDefault
340
F
  0
DICTIONARY
  5
17
102
{ACAD_REACTORS
330
C
102
}
100
AcDbDictionary
280
0
281
1
  3
Standard
350
18
  0
DICTIONARY
  5
19
102
{ACAD_REACTORS
330
C
102
}
100
AcDbDictionary
281
1
  0
DICTIONARY
  5
1A
102
{ACAD_REACTORS
330
C
102
}
100
AcDbDictionary
281
1
  3
Model
350
362
  3
Layout1
350
363
  0
ACDBPLACEHOLDER
  5
F
102
{ACAD_REACTORS
330
E
102
}
  0
MLINESTYLE
  5
18
102
{ACAD_REACTORS
330
17
102
}
100
AcDbMlineStyle
  2
STANDARD
 70
0
  3

 62
256
 51
90.0
 52
90.0
 71
2
 49
0.5
 62
256
  6
BYLAYER
 49
-0.5
 62
256
  6
BYLAYER
  0
LAYOUT
  5
362
102
{ACAD_REACTORS
330
1A
102
}
100
AcDbPlotSettings
  1

  2
none_device
  4
ISO_A4_(297.00_x_210.00_MM)
  6

 40
0.0
 41
0.0
 42
0.0
 43
0.0
 44
297.0
 45
210.0
 46
0.0
 47
0.0
 48
0.0
 49
0.0
140
0.0
141
0.0
142
1.0
143
1.0
 70
1024
 72
1
 73
0
 74
0
  7

 75
0
147
1.0
148
0.0
149
0.0
100
AcDbLayout
  1
Model
 70
0
 71
0
 10
0.0
 20
0.0
 11
297.0
 21
210.0
 12
0.0
 22
0.0
 32
0.0
 14
0.0
 24
0.0
 34
0.0
 15
0.0
 25
0.0
 35
0.0
146
0.0
 13
0.0
 23
0.0
 33
0.0
 16
1.0
 26
0.0
 36
0.0
 17
0.0
 27
1.0
 37
0.0
 76
0
330
20E
345
0
346
0
  0
LAYOUT
  5
363
102
{ACAD_REACTORS
330
1A
102
}
100
AcDbPlotSettings
  1

  2
none_device
  4
ISO_A4_(297.00_x_210.00_MM)
  6

 40
0.0
 41
0.0
 42
0.0
 43
0.0
 44
297.0
 45
210.0
 46
0.0
 47
0.0
 48
0.0
 49
0.0
140
0.0
141
0.0
142
1.0
143
1.0
 70
0
 72
1
 73
0
 74
0
  7

 75
0
147
1.0
148
0.0
149
0.0
100
AcDbLayout
  1
Layout1
 70
0
 71
1
 10
0.0
 20
0.0
 11
297.0
 21
210.0
 12
0.0
 22
0.0
 32
0.0
 14
0.0
 24
0.0
 34
0.0
 15
0.0
 25
0.0
 35
0.0
146
0.0
 13
0.0
 23
0.0
 33
0.0
 16
1.0
 26
0.0
 36
0.0
 17
0.0
 27
1.0
 37
0.0
 76
0
330
20F
345
0
346
0
  0
ENDSEC
  0
EOF
