  0
SECTION
  2
HEADER
  9
$ACADVER
  1
AC1024
  9
$DWGCODEPAGE
  3
ANSI_1252
  9
$EXTMAX
 10
297.0
 20
210.0
 30
0.0
  9
$EXTMIN
 10
0.0
 20
0.0
 30
0.0
  9
$LIMMIN
 10
0.0
 20
0.0
  9
$LIMMAX
 10
297.0
 20
210.0
  9
$VIEWCTR
 10
148.5
 20
105.0
  9
$VIEWSIZE
 40
210.0
  9
$CLAYER
  8
0
  9
$LTSCALE
 40
16.335
  9
$CELTYPE
  6
BYLAYER
  9
$DIMSCALE
 40
1.0
  9
$DIMASZ
 40
3.0
  9
$DIMEXO
 40
0.5
  9
$DIMDLI
 40
11.286
  9
$DIMEXE
 40
1.5
  9
$DIMCEN
 40
2.673
  9
$DIMLFAC
 40
1.0
  9
$DIMBLK
  1
_FILLED
  9
$DIMALT
 70
0
  9
$DIMALTF
 40
0.0393700787
  9
$DIMTXT
 40
3.0
  9
$DIMTOL
 70
1
  9
$DIMLIM
 70
0
  9
$DIMTFAC
 40
1.0
  9
$DIMTP
 40
0.01
  9
$DIMTM
 40
0.01
  9
$DIMGAP
 40
0.625
  9
$DIMDSEP
 70
44
  9
$AUNITS
 70
0
  9
$PDMODE
 70
3
  9
$PDSIZE
 40
3.0
  9
$HANDSEED
  5
311
  9
$TILEMODE
 70
1
  9
$MEASUREMENT
 70
1
  9
$INSUNITS
 70
4
  0
ENDSEC
  0
SECTION
  2
CLASSES
  0
CLASS
  1
ACDBDICTIONARYWDFLT
  2
AcDbDictionaryWithDefault
  3
AutoCAD 2000
 90
0
 91
1
280
0
281
0
  0
CLASS
  1
ACDBPLACEHOLDER
  2
AcDbPlaceHolder
  3
AutoCAD 2000
 90
0
 91
1
280
0
281
0
  0
CLASS
  1
LAYOUT
  2
AcDbLayout
  3
AutoCAD 2000
 90
0
 91
0
280
0
281
0
  0
ENDSEC
  0
SECTION
  2
TABLES
  0
TABLE
  2
VPORT
  5
8
100
AcDbSymbolTable
 70
2
  0
VPORT
  5
1F4
100
AcDbSymbolTableRecord
100
AcDbViewportTableRecord
  2
*ACTIVE
 70
0
 10
0.0
 20
0.0
 11
1.0
 21
1.0
 12
148.5
 22
105.0
 13
0.0
 23
0.0
 14
1.0
 24
1.0
 15
0.0
 25
0.0
 16
0.0
 26
0.0
 36
1.0
 17
0.0
 27
0.0
 37
0.0
 40
210.0
 41
1.4142857143
 42
50.0
 43
0.0
 44
0.0
 50
0.0
 51
0.0
 71
0
 72
100
 73
1
 74
1
 75
0
 76
0
 77
0
 78
0
  0
ENDTAB
  0
TABLE
  2
LTYPE
  5
5
100
AcDbSymbolTable
 70
6
  0
LTYPE
  5
14
100
AcDbSymbolTableRecord
100
AcDbLinetypeTableRecord
  2
BYBLOCK
 70
0
  3

 72
65
 73
0
 40
0.0
  0
LTYPE
  5
15
100
AcDbSymbolTableRecord
100
AcDbLinetypeTableRecord
  2
BYLAYER
 70
0
  3

 72
65
 73
0
 40
0.0
  0
LTYPE
  5
16
100
AcDbSymbolTableRecord
100
AcDbLinetypeTableRecord
  2
CONTINUOUS
 70
64
  3
Solid line
 72
65
 73
0
 40
0.0
  0
LTYPE
  5
1F5
100
AcDbSymbolTableRecord
100
AcDbLinetypeTableRecord
  2
CENTER
 70
64
  3
____ _ ____ _ ____ _ ____ _ ____ _ ____ _ ____
 72
65
 73
4
 40
0.6
 49
0.375
 74
0
 49
-0.075
 74
0
 49
0.075
 74
0
 49
-0.075
 74
0
  0
LTYPE
  5
1F6
100
AcDbSymbolTableRecord
100
AcDbLinetypeTableRecord
  2
HIDDEN
 70
64
  3
- - - - - - - - - - - - - - - - - - - -
 72
65
 73
2
 40
0.2
 49
0.1
 74
0
 49
-0.1
 74
0
  0
LTYPE
  5
1F7
100
AcDbSymbolTableRecord
100
AcDbLinetypeTableRecord
  2
PHANTOM
 70
64
  3
_____ _ _ _____ _ _ _____ _ _ _____
 72
65
 73
6
 40
0.8
 49
0.45
 74
0
 49
-0.05
 74
0
 49
0.1
 74
0
 49
-0.05
 74
0
 49
0.1
 74
0
 49
-0.05
 74
0
  0
LTYPE
  5
1F8
100
AcDbSymbolTableRecord
100
AcDbLinetypeTableRecord
  2
DOT
 70
64
  3
. . . . . . . . . . . . . . . . . . . .
 72
65
 73
2
 40
0.2
 49
0.1
 74
0
 49
-0.1
 74
0
  0
LTYPE
  5
1F9
100
AcDbSymbolTableRecord
100
AcDbLinetypeTableRecord
  2
DASHED
 70
64
  3
- - - - - - - - - - - - - - - - - - - -
 72
65
 73
2
 40
0.2
 49
0.1
 74
0
 49
-0.1
 74
0
  0
ENDTAB
  0
TABLE
  2
LAYER
  5
2
100
AcDbSymbolTable
 70
36
  0
LAYER
  5
10
100
AcDbSymbolTableRecord
100
AcDbLayerTableRecord
  2
0
 70
0
 62
7
  6
CONTINUOUS
370
-3
390
F
  0
LAYER
  5
1FA
100
AcDbSymbolTableRecord
100
AcDbLayerTableRecord
  2
DEFAULT_1
 70
0
 62
7
  6
CENTER
370
-3
390
F
  0
LAYER
  5
1FB
100
AcDbSymbolTableRecord
100
AcDbLayerTableRecord
  2
DEFAULT_2
 70
0
 62
7
  6
HIDDEN
370
-3
390
F
  0
LAYER
  5
1FC
100
AcDbSymbolTableRecord
100
AcDbLayerTableRecord
  2
DEFAULT_3
 70
0
 62
7
  6
PHANTOM
370
-3
390
F
  0
LAYER
  5
1FD
100
AcDbSymbolTableRecord
100
AcDbLayerTableRecord
  2
ASSI
 70
0
 62
7
  6
CONTINUOUS
370
-3
390
F
  0
LAYER
  5
1FE
100
AcDbSymbolTableRecord
100
AcDbLayerTableRecord
  2
COORDINATE
 70
0
 62
7
  6
CONTINUOUS
370
-3
390
F
  0
LAYER
  5
1FF
100
AcDbSymbolTableRecord
100
AcDbLayerTableRecord
  2
COSMETICI
 70
0
 62
7
  6
CONTINUOUS
370
-3
390
F
  0
LAYER
  5
200
100
AcDbSymbolTableRecord
100
AcDbLayerTableRecord
  2
CURVE
 70
0
 62
7
  6
CONTINUOUS
370
-3
390
F
  0
LAYER
  5
201
100
AcDbSymbolTableRecord
100
AcDbLayerTableRecord
  2
NONE_2
 70
0
 62
7
  6
CONTINUOUS
370
-3
390
F
  0
LAYER
  5
202
100
AcDbSymbolTableRecord
100
AcDbLayerTableRecord
  2
NONE_3
 70
0
 62
7
  6
CONTINUOUS
370
-3
390
F
  0
LAYER
  5
203
100
AcDbSymbolTableRecord
100
AcDbLayerTableRecord
  2
NOTE
 70
0
 62
7
  6
CONTINUOUS
370
-3
390
F
  0
LAYER
  5
204
100
AcDbSymbolTableRecord
100
AcDbLayerTableRecord
  2
PIANI
 70
0
 62
7
  6
CONTINUOUS
370
-3
390
F
  0
LAYER
  5
205
100
AcDbSymbolTableRecord
100
AcDbLayerTableRecord
  2
PUNTI
 70
0
 62
7
  6
CONTINUOUS
370
-3
390
F
  0
LAYER
  5
206
100
AcDbSymbolTableRecord
100
AcDbLayerTableRecord
  2
SIMBOLI
 70
0
 62
7
  6
CONTINUOUS
370
-3
390
F
  0
LAYER
  5
207
100
AcDbSymbolTableRecord
100
AcDbLayerTableRecord
  2
SUPERFICI
 70
0
 62
7
  6
CONTINUOUS
370
-3
390
F
  0
ENDTAB
  0
TABLE
  2
STYLE
  5
3
100
AcDbSymbolTable
 70
1
  0
STYLE
  5
11
100
AcDbSymbolTableRecord
100
AcDbTextStyleTableRecord
  2
STANDARD
 70
0
 40
0.0
 41
0.8
 50
0.0
 71
0
 42
0.2
  3
txt
  4

  0
STYLE
  5
208
100
AcDbSymbolTableRecord
100
AcDbTextStyleTableRecord
  2
TEXTSTYLE_1
 70
0
 40
0.0
 41
0.8
 50
0.0
 71
0
 42
0.2
  3
gdt
  4

  0
ENDTAB
  0
TABLE
  2
VIEW
  5
6
100
AcDbSymbolTable
 70
0
  0
ENDTAB
  0
TABLE
  2
UCS
  5
7
100
AcDbSymbolTable
 70
0
  0
ENDTAB
  0
TABLE
  2
APPID
  5
9
100
AcDbSymbolTable
 70
1
  0
APPID
  5
209
100
AcDbSymbolTableRecord
100
AcDbRegAppTableRecord
  2
ACAD
 70
0
  0
ENDTAB
  0
TABLE
  2
BLOCK_RECORD
  5
1
100
AcDbSymbolTable
 70
0
  0
BLOCK_RECORD
  5
20A
100
AcDbSymbolTableRecord
100
AcDbBlockTableRecord
  2
*Model_Space
  0
BLOCK_RECORD
  5
20B
100
AcDbSymbolTableRecord
100
AcDbBlockTableRecord
  2
*Paper_Space
  0
BLOCK_RECORD
  5
20C
100
AcDbSymbolTableRecord
100
AcDbBlockTableRecord
  2
_FILLED
  0
ENDTAB
  0
TABLE
  2
DIMSTYLE
  5
A
100
AcDbSymbolTable
 70
1
100
AcDbDimStyleTable
 71
0
  0
DIMSTYLE
105
20D
100
AcDbSymbolTableRecord
100
AcDbDimStyleTableRecord
  2
STANDARD
 70
0
  3

  4

 40
1.0
 41
3.0
 42
0.5
 43
0.38
 44
1.5
 45
0.0
 46
0.0
 47
0.01
 48
0.01
140
3.0
141
0.09
142
0.0
143
25.4
144
1.0
145
0.0
146
1.0
147
0.625
 71
1
 72
0
 73
0
 74
0
 75
0
 76
0
 77
1
 78
8
 79
2
170
0
171
1
172
0
173
0
174
0
175
0
176
0
177
0
178
0
270
2
179
2
271
2
272
2
273
2
274
2
275
0
280
0
281
0
282
0
283
1
284
8
285
0
286
0
287
3
288
0
340
11
278
44
341
20C
342
20C
343
20C
344
20C
  0
ENDTAB
  0
ENDSEC
  0
SECTION
  2
BLOCKS
  0
BLOCK
  5
20
100
AcDbEntity
  8
0
100
AcDbBlockBegin
  2
*Model_Space
 70
0
 10
0.0
 20
0.0
 30
0.0
  3
*Model_Space
  1

  0
ENDBLK
  5
21
100
AcDbEntity
  8
0
100
AcDbBlockEnd
  0
BLOCK
  5
1C
100
AcDbEntity
  8
0
100
AcDbBlockBegin
  2
*Paper_Space
 70
0
 10
0.0
 20
0.0
 30
0.0
  3
*Paper_Space
  1

  0
ENDBLK
  5
1D
100
AcDbEntity
  8
0
100
AcDbBlockEnd
  0
BLOCK
  5
20E
100
AcDbEntity
  8
0
100
AcDbBlockBegin
  2
_FILLED
 70
64
 10
0.0
 20
0.0
  3
_FILLED
  1

  0
SOLID
  5
20F
100
AcDbEntity
  8
0
  6
BYBLOCK
 62
0
100
AcDbTrace
 10
0.0
 20
0.0
 11
-1.0
 21
0.3166666667
 12
-1.0
 22
-0.3166666667
 13
-1.0
 23
-0.3166666667
  0
ENDBLK
  5
210
100
AcDbEntity
  8
0
  6
BYBLOCK
 62
0
100
AcDbBlockEnd
  0
ENDSEC
  0
SECTION
  2
ENTITIES
  0
LINE
  5
211
100
AcDbEntity
  8
0
100
AcDbLine
 62
7
  6
CONTINUOUS
 10
-131.0256586065
 20
182.3920189607
 11
-130.6494644774
 21
182.638866979
  0
LWPOLYLINE
  5
212
100
AcDbEntity
  8
0
100
AcDbPolyline
 62
7
  6
CONTINUOUS
 90
13
 70
0
 10
-142.3498911233
 20
175.5477268463
 10
-142.7832222965
 20
175.2664156977
 10
-143.6277797149
 20
174.6039458068
 10
-144.4014565222
 20
173.8342957658
 10
-145.0974722626
 20
172.9644770139
 10
-145.7125868263
 20
171.9995995345
 10
-146.2441113389
 20
170.9458948243
 10
-146.6899629931
 20
169.8094803371
 10
-147.0493117877
 20
168.5950593016
 10
-147.3217124751
 20
167.3059597512
 10
-147.5061856549
 20
165.946573205
 10
-147.6021058607
 20
164.5233959951
 10
-147.6169117589
 20
163.6786230104
  0
LWPOLYLINE
  5
213
100
AcDbEntity
  8
0
100
AcDbPolyline
 62
250
  6
CONTINUOUS
 90
13
 70
0
 10
-130.424840336
 20
174.064984176
 10
-130.6198573481
 20
173.944935655
 10
-130.8090561321
 20
173.8004256666
 10
-130.9893769036
 20
173.6346992695
 10
-131.1568560834
 20
173.4526485915
 10
-131.3105135237
 20
173.2566424495
 10
-131.4513652758
 20
173.0453549965
 10
-131.5772073165
 20
172.8205876159
 10
-131.6845025677
 20
172.5869223834
 10
-131.7711671669
 20
172.3467357558
 10
-131.8345638427
 20
172.1037748926
 10
-131.8720302902
 20
171.863192745
 10
-131.8814877063
 20
171.6299922178
  0
LINE
  5
214
100
AcDbEntity
  8
0
100
AcDbLine
 62
7
  6
CONTINUOUS
 10
-142.3494002698
 20
175.5480606675
 11
-131.3621244831
 21
182.2091132831
  0
LINE
  5
215
100
AcDbEntity
  8
0
100
AcDbLine
 62
250
  6
CONTINUOUS
 10
-130.4248413852
 20
174.0649848719
 11
-118.7152730669
 21
181.0619461
  0
LINE
  5
216
100
AcDbEntity
  8
0
100
AcDbLine
 62
7
  6
CONTINUOUS
 10
-131.2083714774
 20
182.3000365742
 11
-131.3629284493
 21
182.2086258163
  0
LWPOLYLINE
  5
217
100
AcDbEntity
  8
0
100
AcDbPolyline
 62
250
  6
CONTINUOUS
 90
10
 70
0
 10
-142.3386547042
 20
175.5545875915
 10
-142.072760448
 20
175.7083658956
 10
-141.1557029444
 20
176.1351952671
 10
-140.1719817845
 20
176.4400112889
 10
-139.1214754165
 20
176.6189649092
 10
-137.9927882514
 20
176.66684526
 10
-136.7638034571
 20
176.5698316011
 10
-135.4633139762
 20
176.3157713475
 10
-134.1618994252
 20
175.9199520369
 10
-132.8925370237
 20
175.4065430065
  0
LINE
  5
218
100
AcDbEntity
  8
0
100
AcDbLine
 62
7
  6
CONTINUOUS
 10
-130.6494644774
 20
182.638866979
 11
-130.4941525067
 21
182.7263696177
  0
LINE
  5
219
100
AcDbEntity
  8
0
100
AcDbLine
 62
250
  6
CONTINUOUS
 10
-118.1495876322
 20
181.3999670023
 11
-82.7939254809
 21
201.1012996166
  0
LINE
  5
21A
100
AcDbEntity
  8
0
100
AcDbLine
 62
7
  6
CONTINUOUS
 10
-94.7083269524
 20
202.3809626007
 11
-130.4949720088
 21
182.7259195837
  0
LINE
  5
21B
100
AcDbEntity
  8
0
100
AcDbLine
 62
7
  6
CONTINUOUS
 10
-130.3666998357
 20
182.7237558554
 11
-131.2083714774
 21
182.3000365742
  0
LWPOLYLINE
  5
21C
100
AcDbEntity
  8
0
100
AcDbPolyline
 62
7
  6
CONTINUOUS
 90
12
 70
0
 10
-130.4941525067
 20
182.7263696177
 10
-129.8073113941
 20
183.0627994514
 10
-128.9119294597
 20
183.3945326391
 10
-127.9745261741
 20
183.6298298097
 10
-126.9945890397
 20
183.767527911
 10
-125.972630554
 20
183.808789995
 10
-124.9213957095
 20
183.7528684861
 10
-123.8405063724
 20
183.5985890749
 10
-122.7303406764
 20
183.3471260707
 10
-121.604778015
 20
183.0012548261
 10
-120.4684448528
 20
182.5619004586
 10
-119.3167147252
 20
182.0281378507
  0
LINE
  5
21D
100
AcDbEntity
  8
0
100
AcDbLine
 62
7
  6
CONTINUOUS
 10
-129.4718254302
 20
183.0553294549
 11
-130.3666998357
 21
182.7237558554
  0
LINE
  5
21E
100
AcDbEntity
  8
0
100
AcDbLine
 62
250
  6
CONTINUOUS
 10
-79.195936181
 20
199.0238656877
 11
-78.5269264594
 21
199.3966598128
  0
LINE
  5
21F
100
AcDbEntity
  8
0
100
AcDbLine
 62
7
  6
CONTINUOUS
 10
-58.4077554067
 20
187.7801025995
 11
-59.0639006598
 21
187.3998806915
  0
LINE
  5
220
100
AcDbEntity
  8
0
100
AcDbLine
 62
7
  6
CONTINUOUS
 10
-42.0775550313
 20
178.351249568
 11
-42.7582419888
 21
177.9851977327
  0
LWPOLYLINE
  5
221
100
AcDbEntity
  8
0
100
AcDbPolyline
 62
250
  6
CONTINUOUS
 90
7
 70
0
 10
-147.6169122774
 20
-48.6028174212
 10
-147.6084583508
 20
-48.7088812161
 10
-147.5696010404
 20
-48.8525043535
 10
-147.4992805081
 20
-48.9930091235
 10
-147.3982266511
 20
-49.1278652476
 10
-147.2674613446
 20
-49.2549554851
 10
-147.1086211707
 20
-49.3720233496
  0
LWPOLYLINE
  5
222
100
AcDbEntity
  8
0
100
AcDbPolyline
 62
250
  6
CONTINUOUS
 90
22
 70
0
 10
-147.1086211708
 20
-49.3720233496
 10
-147.064625218
 20
-50.794262464
 10
-146.9385764938
 20
-52.2470437342
 10
-146.730457985
 20
-53.7303583854
 10
-146.4382104303
 20
-55.2528044402
 10
-146.0638250254
 20
-56.8057487524
 10
-145.6133475845
 20
-58.363329146
 10
-145.0854820986
 20
-59.9255077504
 10
-144.4814018926
 20
-61.4922590092
 10
-143.8108560305
 20
-63.0377387856
 10
-143.0727023472
 20
-64.5615981942
 10
-142.2679295419
 20
-66.0641065269
 10
-141.4094990638
 20
-67.5203551592
 10
-140.4964249395
 20
-68.9295692977
 10
-139.5295385811
 20
-70.2924431971
 10
-138.5245625428
 20
-71.586289871
 10
-137.4797982302
 20
-72.8117622655
 10
-136.3968178403
 20
-73.9681411075
 10
-135.2963078031
 20
-75.030710995
 10
-134.1851598557
 20
-75.9912312508
 10
-133.0564307557
 20
-76.8579149392
 10
-131.9100900748
 20
-77.630745766
  0
LWPOLYLINE
  5
223
100
AcDbEntity
  8
0
100
AcDbPolyline
 62
250
  6
CONTINUOUS
 90
21
 70
0
 10
81.685152155
 20
-200.8445231181
 10
82.9306025851
 20
-201.3520576152
 10
84.1584067835
 20
-201.7442254821
 10
85.3763584464
 20
-202.0207875903
 10
86.5766175278
 20
-202.1820118671
 10
87.7356731444
 20
-202.2286970387
 10
88.8514196906
 20
-202.1600884139
 10
89.9258476191
 20
-201.9770138432
 10
90.9415379322
 20
-201.6826794255
 10
91.8974489479
 20
-201.2752895542
 10
92.7944833288
 20
-200.7567287764
 10
93.6181076255
 20
-200.1357434385
 10
94.3671130133
 20
-199.4107569001
 10
95.0425708953
 20
-198.5834341335
 10
95.6333538183
 20
-197.6673932348
 10
96.1380713038
 20
-196.6612727694
 10
96.5580040117
 20
-195.5665049861
 10
96.8860316842
 20
-194.4008982405
 10
97.1197592446
 20
-193.1704026458
 10
97.2615206532
 20
-191.8691075727
 10
97.3113006242
 20
-190.4970229014
  0
LWPOLYLINE
  5
224
100
AcDbEntity
  8
0
100
AcDbPolyline
 62
250
  6
CONTINUOUS
 90
7
 70
0
 10
-131.8814888756
 20
-77.6331298364
 10
-131.8721323221
 20
-77.855895591
 10
-131.8353933814
 20
-78.0554153495
 10
-131.7739293689
 20
-78.2294259241
 10
-131.6918522667
 20
-78.3748338887
 10
-131.5916154286
 20
-78.4932780198
 10
-131.4730303729
 20
-78.5869317229
  0
LWPOLYLINE
  5
225
100
AcDbEntity
  8
0
100
AcDbPolyline
 62
7
  6
CONTINUOUS
 90
25
 70
0
 10
-147.6169121034
 20
-48.6023356693
 10
-147.6047148715
 20
-49.3852506657
 10
-147.5253694459
 20
-50.7799847691
 10
-147.3732152875
 20
-52.2039106451
 10
-147.1497140362
 20
-53.6509707237
 10
-146.8563641722
 20
-55.1158634552
 10
-146.4946692778
 20
-56.5935007737
 10
-146.0665116867
 20
-58.0779707164
 10
-145.5738095552
 20
-59.5632102459
 10
-145.01878833
 20
-61.0433976062
 10
-144.4038423157
 20
-62.5124918301
 10
-143.7314716368
 20
-63.9644574838
 10
-143.0045476019
 20
-65.3934105405
 10
-142.2259642619
 20
-66.7934256755
 10
-141.3987955457
 20
-68.1586927126
 10
-140.5263573852
 20
-69.4836413926
 10
-139.6119554207
 20
-70.7626811213
 10
-138.6591259937
 20
-71.9905027357
 10
-137.6714452316
 20
-73.162103043
 10
-136.6526652032
 20
-74.2722231299
 10
-135.6062726662
 20
-75.3164264545
 10
-134.5350514071
 20
-76.2909376811
 10
-133.4423083914
 20
-77.1914234347
 10
-132.3326953039
 20
-78.0130824556
 10
-131.473050848
 20
-78.5869194799
  0
LINE
  5
226
100
AcDbEntity
  8
0
100
AcDbLine
 62
7
  6
CONTINUOUS
 10
-147.6169122774
 20
-48.6028174212
 11
-147.6169122774
 21
163.6794545578
  0
LINE
  5
227
100
AcDbEntity
  8
0
100
AcDbLine
 62
250
  6
CONTINUOUS
 10
-147.1086211708
 20
-49.3720233496
 11
-147.1086211708
 21
162.9102486249
  0
LWPOLYLINE
  5
228
100
AcDbEntity
  8
0
100
AcDbPolyline
 62
250
  6
CONTINUOUS
 90
13
 70
0
 10
97.3113006242
 20
-190.4970229059
 10
97.5058159656
 20
-190.5854624458
 10
97.7168356814
 20
-190.6590671596
 10
97.9409535348
 20
-190.7169094528
 10
98.1734458686
 20
-190.7581546306
 10
98.4118474348
 20
-190.7827303434
 10
98.6562687141
 20
-190.7904803542
 10
98.9046423996
 20
-190.780619127
 10
99.1515073627
 20
-190.7526337688
 10
99.3918454782
 20
-190.7066241627
 10
99.6213216597
 20
-190.6430840541
 10
99.8362728849
 20
-190.5626717458
 10
100.0328352818
 20
-190.4664044569
  0
LINE
  5
229
100
AcDbEntity
  8
0
100
AcDbLine
 62
250
  6
CONTINUOUS
 10
80.4220830219
 20
-200.2216048616
 11
81.685152155
 21
-200.8445231181
  0
LWPOLYLINE
  5
22A
100
AcDbEntity
  8
0
100
AcDbPolyline
 62
7
  6
CONTINUOUS
 90
13
 70
0
 10
80.8023937746
 20
-201.1523216099
 10
81.671338324
 20
-201.5852323457
 10
83.0611631824
 20
-202.1832794206
 10
84.438409084
 20
-202.6603772964
 10
85.795095877
 20
-203.0154399229
 10
87.1269562832
 20
-203.2487588015
 10
88.433120818
 20
-203.3607597974
 10
89.7072965049
 20
-203.3506143484
 10
90.9420322202
 20
-203.2179998984
 10
92.1336140837
 20
-202.9628903706
 10
93.2743871146
 20
-202.5856159334
 10
94.3549281826
 20
-202.0886595004
 10
94.4858223776
 20
-202.0180457368
  0
LWPOLYLINE
  5
22B
100
AcDbEntity
  8
0
100
AcDbPolyline
 62
250
  6
CONTINUOUS
 90
8
 70
0
 10
80.8027244696
 20
-201.1524943303
 10
80.7773058957
 20
-201.1383472886
 10
80.6634519946
 20
-201.0519773397
 10
80.5664374866
 20
-200.9362780009
 10
80.488149621
 20
-200.7913328587
 10
80.4309757962
 20
-200.6179878914
 10
80.3973241342
 20
-200.4184684491
 10
80.3890735801
 20
-200.1954922826
  0
LWPOLYLINE
  5
22C
100
AcDbEntity
  8
0
100
AcDbPolyline
 62
7
  6
CONTINUOUS
 90
10
 70
0
 10
-131.4733372654
 20
-78.586736681
 10
-108.9263870594
 20
-92.7706058181
 10
-86.1131868302
 20
-106.816931985
 10
-63.0364410416
 20
-120.7240559008
 10
-39.698882837
 20
-134.4903361065
 10
-16.1032806629
 20
-148.1141450423
 10
7.7475614626
 20
-161.593869188
 10
31.8508138102
 20
-174.9279147675
 10
56.2036218651
 20
-188.1147079817
 10
80.80309924
 20
-201.1526910122
  0
LWPOLYLINE
  5
22D
100
AcDbEntity
  8
0
100
AcDbPolyline
 62
7
  6
CONTINUOUS
 90
10
 70
0
 10
-131.9100900748
 20
-77.630745766
 10
-109.3523759761
 20
-91.8356035424
 10
-86.531090879
 20
-105.8974913188
 10
-63.4490529989
 20
-119.8148004969
 10
-40.1113781234
 20
-133.5848740811
 10
-16.5187232286
 20
-147.2072362144
 10
7.3329622088
 20
-160.6834489705
 10
31.4433077815
 20
-174.0128708211
 10
55.8072741216
 20
-187.1928002276
 10
80.4220830219
 20
-200.2216048616
  0
LINE
  5
22E
100
AcDbEntity
  8
0
100
AcDbLine
 62
7
  6
CONTINUOUS
 10
-42.165316476
 20
94.1282986137
 11
-42.0238922859
 21
94.2099551686
  0
LINE
  5
22F
100
AcDbEntity
  8
0
100
AcDbLine
 62
7
  6
CONTINUOUS
 10
-40.5712154164
 20
93.1968467935
 11
-40.4297918501
 21
93.2785029882
  0
LINE
  5
230
100
AcDbEntity
  8
0
100
AcDbLine
 62
7
  6
CONTINUOUS
 10
-37.8481876318
 20
91.6089331501
 11
-37.7067649511
 21
91.6905888335
  0
LINE
  5
231
100
AcDbEntity
  8
0
100
AcDbLine
 62
7
  6
CONTINUOUS
 10
-36.379001013
 20
90.7538510371
 11
-36.2375787162
 21
90.8355064989
  0
LINE
  5
232
100
AcDbEntity
  8
0
100
AcDbLine
 62
7
  6
CONTINUOUS
 10
-35.8333283564
 20
90.4365600428
 11
-35.6919061853
 21
90.5182154319
  0
LINE
  5
233
100
AcDbEntity
  8
0
100
AcDbLine
 62
7
  6
CONTINUOUS
 10
-34.3622236214
 20
89.5819583714
 11
-34.2208017444
 21
89.6636135908
  0
LINE
  5
234
100
AcDbEntity
  8
0
100
AcDbLine
 62
7
  6
CONTINUOUS
 10
-32.9423918095
 20
88.7582448682
 11
-32.8009701541
 21
88.8398999596
  0
LINE
  5
235
100
AcDbEntity
  8
0
100
AcDbLine
 62
7
  6
CONTINUOUS
 10
-38.6423472771
 20
83.9069246375
 11
-38.5009243616
 21
83.9885804565
  0
LINE
  5
236
100
AcDbEntity
  8
0
100
AcDbLine
 62
7
  6
CONTINUOUS
 10
-31.4698662957
 20
87.905102784
 11
-31.3284448055
 21
87.9867577801
  0
LINE
  5
237
100
AcDbEntity
  8
0
100
AcDbLine
 62
7
  6
CONTINUOUS
 10
-28.5357129119
 20
86.2085887921
 11
-28.3942915556
 21
86.2902437108
  0
LINE
  5
238
100
AcDbEntity
  8
0
100
AcDbLine
 62
7
  6
CONTINUOUS
 10
-34.3622236214
 20
81.4172556034
 11
-34.2208017444
 21
81.4989108228
  0
LINE
  5
239
100
AcDbEntity
  8
0
100
AcDbLine
 62
7
  6
CONTINUOUS
 10
-27.0749630938
 20
85.3658037713
 11
-26.9335417017
 21
85.4474587106
  0
LINE
  5
23A
100
AcDbEntity
  8
0
100
AcDbLine
 62
7
  6
CONTINUOUS
 10
-32.1702015569
 20
80.1460108174
 11
-32.0287799964
 21
80.227665854
  0
LINE
  5
23B
100
AcDbEntity
  8
0
100
AcDbLine
 62
7
  6
CONTINUOUS
 10
-23.9358774294
 20
83.5582105212
 11
-23.7944557618
 21
83.6398656196
  0
LINE
  5
23C
100
AcDbEntity
  8
0
100
AcDbLine
 62
7
  6
CONTINUOUS
 10
-29.9160418777
 20
78.8414133485
 11
-29.7746204908
 21
78.9230682849
  0
LINE
  5
23D
100
AcDbEntity
  8
0
100
AcDbLine
 62
7
  6
CONTINUOUS
 10
-22.5050534807
 20
82.7360719573
 11
-22.3636315871
 21
82.8177271862
  0
LWPOLYLINE
  5
23E
100
AcDbEntity
  8
0
100
AcDbPolyline
 62
7
  6
CONTINUOUS
 90
7
 70
0
 10
-16.9366846143
 20
76.24265676
 10
-16.8539535304
 20
76.3039975352
 10
-16.7826677605
 20
76.38511082
 10
-16.7263638995
 20
76.4827783592
 10
-16.6862095965
 20
76.5959338711
 10
-16.6610392218
 20
76.7256424586
 10
-16.6508532892
 20
76.871903822
  0
LWPOLYLINE
  5
23F
100
AcDbEntity
  8
0
100
AcDbPolyline
 62
7
  6
CONTINUOUS
 90
4
 70
0
 10
-15.4790067071
 20
74.9464255332
 10
-15.3873404099
 20
75.0084687687
 10
-15.2949226527
 20
75.0933348472
 10
-15.2149589698
 20
75.1934397874
  0
LINE
  5
240
100
AcDbEntity
  8
0
100
AcDbLine
 62
7
  6
CONTINUOUS
 10
-19.9015081402
 20
81.1471091167
 11
-19.7600856784
 21
81.2287646737
  0
LINE
  5
241
100
AcDbEntity
  8
0
100
AcDbLine
 62
7
  6
CONTINUOUS
 10
-23.9848276338
 20
78.3131270503
 11
-23.8434059729
 21
78.3947821449
  0
LINE
  5
242
100
AcDbEntity
  8
0
100
AcDbLine
 62
7
  6
CONTINUOUS
 10
-26.4132167451
 20
76.8195288923
 11
-26.2717953241
 21
76.9011838483
  0
LINE
  5
243
100
AcDbEntity
  8
0
100
AcDbLine
 62
250
  6
CONTINUOUS
 10
-18.4496436271
 20
80.4876063592
 11
-18.3082207508
 21
80.5692621555
  0
LINE
  5
244
100
AcDbEntity
  8
0
100
AcDbLine
 62
7
  6
CONTINUOUS
 10
-24.6954947272
 20
75.8304173564
 11
-24.5540731548
 21
75.9120723999
  0
LINE
  5
245
100
AcDbEntity
  8
0
100
AcDbLine
 62
250
  6
CONTINUOUS
 10
-16.6532517006
 20
79.3402070878
 11
-16.5118335647
 21
79.4218601471
  0
LINE
  5
246
100
AcDbEntity
  8
0
100
AcDbLine
 62
7
  6
CONTINUOUS
 10
-18.4744074802
 20
76.7934007361
 11
-18.3329846214
 21
76.8750565224
  0
LINE
  5
247
100
AcDbEntity
  8
0
100
AcDbLine
 62
250
  6
CONTINUOUS
 10
-17.4852290984
 20
76.3902541884
 11
-17.6266521092
 21
76.3085981851
  0
LINE
  5
248
100
AcDbEntity
  8
0
100
AcDbLine
 62
7
  6
CONTINUOUS
 10
-20.3286779546
 20
73.3229168693
 11
-20.1872555998
 21
73.4045723645
  0
LINE
  5
249
100
AcDbEntity
  8
0
100
AcDbLine
 62
250
  6
CONTINUOUS
 10
-15.0839971969
 20
76.3161722442
 11
-14.9425848648
 21
76.3978219524
  0
LINE
  5
24A
100
AcDbEntity
  8
0
100
AcDbLine
 62
250
  6
CONTINUOUS
 10
-15.2311293666
 20
75.359495102
 11
-15.0897035247
 21
75.4411526106
  0
LINE
  5
24B
100
AcDbEntity
  8
0
100
AcDbLine
 62
7
  6
CONTINUOUS
 10
-15.4788543896
 20
74.9461641422
 11
-15.6202782239
 21
74.8645077928
  0
LINE
  5
24C
100
AcDbEntity
  8
0
100
AcDbLine
 62
7
  6
CONTINUOUS
 10
-18.4744074802
 20
72.2612053949
 11
-18.3329846214
 21
72.3428611811
  0
LINE
  5
24D
100
AcDbEntity
  8
0
100
AcDbLine
 62
250
  6
CONTINUOUS
 10
-15.4674523208
 20
73.5809359289
 11
-15.3260294475
 21
73.6625917235
  0
LINE
  5
24E
100
AcDbEntity
  8
0
100
AcDbLine
 62
250
  6
CONTINUOUS
 10
-15.090903639
 20
72.7010234824
 11
-15.2323276244
 21
72.6193670454
  0
LINE
  5
24F
100
AcDbEntity
  8
0
100
AcDbLine
 62
7
  6
CONTINUOUS
 10
-14.7247255736
 20
70.1197425717
 11
-14.5833013836
 21
70.2013991265
  0
LWPOLYLINE
  5
250
100
AcDbEntity
  8
0
100
AcDbPolyline
 62
7
  6
CONTINUOUS
 90
6
 70
0
 10
-15.6204299696
 20
74.8647682034
 10
-15.6327363394
 20
74.8577811292
 10
-15.7455699824
 20
74.806375349
 10
-15.8663653644
 20
74.7731904699
 10
-15.9960187919
 20
74.7576315972
 10
-16.1345287011
 20
74.7596996439
  0
LWPOLYLINE
  5
251
100
AcDbEntity
  8
0
100
AcDbPolyline
 62
7
  6
CONTINUOUS
 90
6
 70
0
 10
-16.8706761343
 20
76.2915985983
 10
-16.8898845316
 20
76.2832671402
 10
-16.995952058
 20
76.2619988482
 10
-17.1089736076
 20
76.2619193767
 10
-17.2274405265
 20
76.2835074134
 10
-17.3528594308
 20
76.3262854588
  0
LINE
  5
252
100
AcDbEntity
  8
0
100
AcDbLine
 62
7
  6
CONTINUOUS
 10
-57.0424776479
 20
186.9637133603
 11
-57.0424776479
 21
186.2327363788
  0
LINE
  5
253
100
AcDbEntity
  8
0
100
AcDbLine
 62
7
  6
CONTINUOUS
 10
-26.1576504739
 20
76.6722676409
 11
-26.1015887489
 21
76.8460902342
  0
LWPOLYLINE
  5
254
100
AcDbEntity
  8
0
100
AcDbPolyline
 62
7
  6
CONTINUOUS
 90
4
 70
0
 10
-30.0114744038
 20
82.5280235338
 10
-29.3555671829
 20
84.1638379834
 10
-29.1915309477
 20
84.5728259022
 10
-28.5356237609
 20
86.2086402668
  0
LWPOLYLINE
  5
255
100
AcDbEntity
  8
0
100
AcDbPolyline
 62
7
  6
CONTINUOUS
 90
10
 70
0
 10
-28.161461977
 20
83.1371707331
 10
-28.3563917655
 20
82.6598779613
 10
-28.551337447
 20
82.1825760085
 10
-28.7462990214
 20
81.7052648746
 10
-28.9412870828
 20
81.227938442
 10
-29.1362910371
 20
80.7506028284
 10
-29.3312791022
 20
80.2732763869
 10
-29.5262406839
 20
79.7959652351
 10
-29.7211863763
 20
79.3186632553
 10
-29.9161161795
 20
78.8413704477
  0
LWPOLYLINE
  5
256
100
AcDbEntity
  8
0
100
AcDbPolyline
 62
7
  6
CONTINUOUS
 90
7
 70
0
 10
-29.5797649984
 20
79.4003181865
 10
-29.384819309
 20
79.8776201645
 10
-29.1898577294
 20
80.3549313151
 10
-28.9948696647
 20
80.8322577564
 10
-28.7998657097
 20
81.3095933704
 10
-28.6048776486
 20
81.7869198028
 10
-28.4099160763
 20
82.2642309355
  0
LINE
  5
257
100
AcDbEntity
  8
0
100
AcDbLine
 62
7
  6
CONTINUOUS
 10
-28.4099160763
 20
82.2642309355
 11
-28.1485604781
 21
82.9041400256
  0
LINE
  5
258
100
AcDbEntity
  8
0
100
AcDbLine
 62
7
  6
CONTINUOUS
 10
-29.7746947974
 20
78.9230253813
 11
-29.5797649984
 21
79.4003181865
  0
LWPOLYLINE
  5
259
100
AcDbEntity
  8
0
100
AcDbPolyline
 62
7
  6
CONTINUOUS
 90
3
 70
0
 10
-15.2149589698
 20
75.1934397874
 10
-15.1465530067
 20
75.3093788012
 10
-15.0897058386
 20
75.4411512604
  0
LINE
  5
25A
100
AcDbEntity
  8
0
100
AcDbLine
 62
7
  6
CONTINUOUS
 10
-35.8333283564
 20
82.2718572748
 11
-35.8333283564
 21
90.4365600428
  0
LINE
  5
25B
100
AcDbEntity
  8
0
100
AcDbLine
 62
7
  6
CONTINUOUS
 10
-34.3622236214
 20
89.5819583714
 11
-34.3622236214
 21
81.4172556034
  0
LINE
  5
25C
100
AcDbEntity
  8
0
100
AcDbLine
 62
7
  6
CONTINUOUS
 10
-34.2208017444
 20
81.4989108228
 11
-34.2208017444
 21
89.6636135908
  0
LINE
  5
25D
100
AcDbEntity
  8
0
100
AcDbLine
 62
7
  6
CONTINUOUS
 10
-31.8520871924
 20
85.2932139994
 11
-32.1702879171
 21
80.1459609542
  0
LINE
  5
25E
100
AcDbEntity
  8
0
100
AcDbLine
 62
7
  6
CONTINUOUS
 10
-32.0288663621
 20
80.2276159876
 11
-31.7409309175
 21
84.8852945536
  0
LINE
  5
25F
100
AcDbEntity
  8
0
100
AcDbLine
 62
7
  6
CONTINUOUS
 10
-33.5795457139
 20
80.9627808283
 11
-32.9421572964
 21
88.7583802731
  0
LINE
  5
260
100
AcDbEntity
  8
0
100
AcDbLine
 62
7
  6
CONTINUOUS
 10
-23.2483040416
 20
80.9192444877
 11
-23.9848276338
 21
78.3131270503
  0
LINE
  5
261
100
AcDbEntity
  8
0
100
AcDbLine
 62
7
  6
CONTINUOUS
 10
-24.287451952
 20
77.2256914075
 11
-24.6954947272
 21
75.8304173565
  0
LWPOLYLINE
  5
262
100
AcDbEntity
  8
0
100
AcDbPolyline
 62
7
  6
CONTINUOUS
 90
10
 70
0
 10
-15.0897058386
 20
75.4411512604
 10
-15.0588920714
 20
75.5343303725
 10
-15.0317348117
 20
75.6296949898
 10
-15.0082341947
 20
75.7272450333
 10
-14.9884886789
 20
75.8257675333
 10
-14.9724000225
 20
75.9264753329
 10
-14.9596732762
 20
76.0330070923
 10
-14.9502101545
 20
76.1465756802
 10
-14.9441090432
 20
76.2659681693
 10
-14.9413699702
 20
76.3911845432
  0
LWPOLYLINE
  5
263
100
AcDbEntity
  8
0
100
AcDbPolyline
 62
7
  6
CONTINUOUS
 90
6
 70
0
 10
-15.231134913
 20
75.3594996963
 10
-15.2879796061
 20
75.2277248103
 10
-15.3563837083
 20
75.1117839786
 10
-15.4363461447
 20
75.0116778292
 10
-15.5287634647
 20
74.9268113261
 10
-15.6204299696
 20
74.8647682034
  0
LINE
  5
264
100
AcDbEntity
  8
0
100
AcDbLine
 62
7
  6
CONTINUOUS
 10
97.1557364543
 20
97.9596920674
 11
96.4995912012
 21
97.5794701594
  0
LINE
  5
265
100
AcDbEntity
  8
0
100
AcDbLine
 62
7
  6
CONTINUOUS
 10
-27.0749630938
 20
85.3658037713
 11
-26.4133054095
 21
76.8194776985
  0
LINE
  5
266
100
AcDbEntity
  8
0
100
AcDbLine
 62
7
  6
CONTINUOUS
 10
-26.2718839943
 20
76.9011326512
 11
-26.9335417017
 21
85.4474587106
  0
LINE
  5
267
100
AcDbEntity
  8
0
100
AcDbLine
 62
7
  6
CONTINUOUS
 10
-27.8578127062
 20
77.6525673552
 11
-28.161461977
 21
83.1371707331
  0
LINE
  5
268
100
AcDbEntity
  8
0
100
AcDbLine
 62
7
  6
CONTINUOUS
 10
-19.9015081402
 20
73.078169107
 11
-19.9015081402
 21
81.1471091167
  0
LINE
  5
269
100
AcDbEntity
  8
0
100
AcDbLine
 62
7
  6
CONTINUOUS
 10
-18.4744074802
 20
79.0351305678
 11
-18.4744074802
 21
76.7934007361
  0
LINE
  5
26A
100
AcDbEntity
  8
0
100
AcDbLine
 62
7
  6
CONTINUOUS
 10
-18.4744074806
 20
75.4562533152
 11
-18.4744074803
 21
72.2612053949
  0
LINE
  5
26B
100
AcDbEntity
  8
0
100
AcDbLine
 62
7
  6
CONTINUOUS
 10
-18.3329846214
 20
72.3428611811
 11
-18.3329846218
 21
75.3759988085
  0
LINE
  5
26C
100
AcDbEntity
  8
0
100
AcDbLine
 62
7
  6
CONTINUOUS
 10
-18.3329846214
 20
76.8750565224
 11
-18.3329846214
 21
78.9548759354
  0
LWPOLYLINE
  5
26D
100
AcDbEntity
  8
0
100
AcDbPolyline
 62
7
  6
CONTINUOUS
 90
10
 70
0
 10
-15.082843146
 20
76.309862606
 10
-15.0851440346
 20
76.1881877044
 10
-15.0909826322
 20
76.0708905654
 10
-15.1003589106
 20
75.9579712055
 10
-15.1132642783
 20
75.8499070913
 10
-15.1297072197
 20
75.7462208188
 10
-15.1497132956
 20
75.6454801134
 10
-15.1732909554
 20
75.5472075915
 10
-15.2004315383
 20
75.4518807602
 10
-15.231134913
 20
75.3594996963
  0
LINE
  5
26E
100
AcDbEntity
  8
0
100
AcDbLine
 62
7
  6
CONTINUOUS
 10
113.4859368296
 20
88.5308390359
 11
112.8052498723
 21
88.1647872006
  0
LWPOLYLINE
  5
26F
100
AcDbEntity
  8
0
100
AcDbPolyline
 62
7
  6
CONTINUOUS
 90
13
 70
0
 10
-16.6508532892
 20
76.871903822
 10
-16.6610392378
 20
77.0298002472
 10
-16.6862096224
 20
77.1882606198
 10
-16.7263639293
 20
77.3472852395
 10
-16.7826677877
 20
77.5092727169
 10
-16.8539535488
 20
77.6718256202
 10
-16.9367206608
 20
77.8277502569
 10
-17.0313092955
 20
77.9768502512
 10
-17.1373764786
 20
78.1193236139
 10
-17.2503976559
 20
78.2485678149
 10
-17.3688642038
 20
78.3623822666
 10
-17.4942827083
 20
78.4629687445
 10
-17.6266519793
 20
78.5503279424
  0
LWPOLYLINE
  5
270
100
AcDbEntity
  8
0
100
AcDbPolyline
 62
7
  6
CONTINUOUS
 90
13
 70
0
 10
-14.9413699702
 20
76.3911845432
 10
-14.9583610448
 20
76.6629524703
 10
-14.9985555773
 20
76.936227682
 10
-15.0619523005
 20
77.2110109192
 10
-15.1499519281
 20
77.4903458611
 10
-15.2611488755
 20
77.7711916751
 10
-15.3913319612
 20
78.0444226065
 10
-15.540978178
 20
78.3101085612
 10
-15.7096032446
 20
78.5681838907
 10
-15.8915552524
 20
78.8093188154
 10
-16.0849485439
 20
79.0304043937
 10
-16.2916622812
 20
79.2345533575
 10
-16.5116927095
 20
79.4217678972
  0
LINE
  5
271
100
AcDbEntity
  8
0
100
AcDbLine
 62
250
  6
CONTINUOUS
 10
93.4167612876
 20
58.5795681025
 11
81.7071926972
 21
51.5826070199
  0
LINE
  5
272
100
AcDbEntity
  8
0
100
AcDbLine
 62
250
  6
CONTINUOUS
 10
129.3381088459
 20
78.6189216352
 11
93.9824467029
 21
58.917589016
  0
LINE
  5
273
100
AcDbEntity
  8
0
100
AcDbLine
 62
250
  6
CONTINUOUS
 10
133.6051078822
 20
76.9142818228
 11
132.6116944695
 21
76.360719345
  0
LWPOLYLINE
  5
274
100
AcDbEntity
  8
0
100
AcDbPolyline
 62
250
  6
CONTINUOUS
 90
7
 70
0
 10
133.6051078895
 20
76.9142818185
 10
133.7874260161
 20
77.0022116238
 10
133.9662804833
 20
77.061112348
 10
134.138678575
 20
77.0899984236
 10
134.3017356075
 20
77.088386509
 10
134.452723198
 20
77.0563035757
 10
134.5804747799
 20
76.9993621304
  0
LINE
  5
275
100
AcDbEntity
  8
0
100
AcDbLine
 62
7
  6
CONTINUOUS
 10
-16.4335814792
 20
72.2036235644
 11
-16.7817208436
 21
73.7400048054
  0
LWPOLYLINE
  5
276
100
AcDbEntity
  8
0
100
AcDbPolyline
 62
7
  6
CONTINUOUS
 90
5
 70
0
 10
-16.1530175157
 20
70.9345787357
 10
-16.2229079435
 20
71.2552040213
 10
-16.2929334824
 20
71.573589292
 10
-16.3630941192
 20
71.8897345554
 10
-16.4335814792
 20
72.2036235644
  0
LWPOLYLINE
  5
277
100
AcDbEntity
  8
0
100
AcDbPolyline
 62
7
  6
CONTINUOUS
 90
10
 70
0
 10
-15.0909036408
 20
72.7010234913
 10
-15.1129167124
 20
72.8070068859
 10
-15.135961093
 20
72.9132178119
 10
-15.1600367502
 20
73.0196562881
 10
-15.1851479529
 20
73.1263399298
 10
-15.2112903632
 20
73.2332511621
 10
-15.2384510369
 20
73.3403372197
 10
-15.2666256342
 20
73.4475805289
 10
-15.2958184184
 20
73.554998708
 10
-15.3260293492
 20
73.6625917808
  0
LINE
  5
278
100
AcDbEntity
  8
0
100
AcDbLine
 62
7
  6
CONTINUOUS
 10
-21.8893610434
 20
74.2179308853
 11
-22.2727405774
 21
76.0679927155
  0
LINE
  5
279
100
AcDbEntity
  8
0
100
AcDbLine
 62
7
  6
CONTINUOUS
 10
-15.2323276244
 20
72.6193670454
 11
-14.7247255736
 21
70.1197425712
  0
LINE
  5
27A
100
AcDbEntity
  8
0
100
AcDbLine
 62
7
  6
CONTINUOUS
 10
-14.5833013836
 20
70.2013991261
 11
-15.090903639
 21
72.7010234824
  0
LINE
  5
27B
100
AcDbEntity
  8
0
100
AcDbLine
 62
7
  6
CONTINUOUS
 10
-22.5686237229
 20
77.4993468856
 11
-23.2483040416
 21
80.9192444877
  0
LWPOLYLINE
  5
27C
100
AcDbEntity
  8
0
100
AcDbPolyline
 62
7
  6
CONTINUOUS
 90
9
 70
0
 10
-15.3260293492
 20
73.6625917808
 10
-15.3712110922
 20
73.8049616402
 10
-15.424060202
 20
73.9452439565
 10
-15.4845761274
 20
74.0834390517
 10
-15.5533334955
 20
74.2205637452
 10
-15.6297562974
 20
74.3556020247
 10
-15.7121180867
 20
74.4855049302
 10
-15.7998430041
 20
74.609256362
 10
-15.8935055784
 20
74.7278731967
  0
LWPOLYLINE
  5
27D
100
AcDbEntity
  8
0
100
AcDbPolyline
 62
7
  6
CONTINUOUS
 90
10
 70
0
 10
-15.467453237
 20
73.5809353944
 10
-15.4372423196
 20
73.473342316
 10
-15.408049548
 20
73.3659241312
 10
-15.3798749629
 20
73.2586808164
 10
-15.3527143005
 20
73.1515947529
 10
-15.3265719011
 20
73.0446835147
 10
-15.3014607087
 20
72.9379998676
 10
-15.2773850612
 20
72.8315613867
 10
-15.2543406899
 20
72.7253504565
 10
-15.232327627
 20
72.6193670582
  0
LWPOLYLINE
  5
27E
100
AcDbEntity
  8
0
100
AcDbPolyline
 62
7
  6
CONTINUOUS
 90
10
 70
0
 10
-16.7817208436
 20
73.7400048054
 10
-16.8262631642
 20
73.9085432007
 10
-16.8845998135
 20
74.0712459989
 10
-16.9567296954
 20
74.2281138397
 10
-17.044533408
 20
74.3819143064
 10
-17.1461272107
 20
74.5298816491
 10
-17.2558638842
 20
74.6637162837
 10
-17.3718605376
 20
74.7806519645
 10
-17.4959977477
 20
74.8834562864
 10
-17.6282741354
 20
74.9721300534
  0
LINE
  5
27F
100
AcDbEntity
  8
0
100
AcDbLine
 62
250
  6
CONTINUOUS
 10
146.0797802218
 20
53.0338374719
 11
147.0556273898
 21
53.6172986719
  0
LINE
  5
280
100
AcDbEntity
  8
0
100
AcDbLine
 62
250
  6
CONTINUOUS
 10
111.6601162429
 20
28.2989672449
 11
146.3986430116
 21
49.069209677
  0
LINE
  5
281
100
AcDbEntity
  8
0
100
AcDbLine
 62
250
  6
CONTINUOUS
 10
111.0845567421
 20
27.9780487492
 11
100.0328352818
 21
21.8158675216
  0
LWPOLYLINE
  5
282
100
AcDbEntity
  8
0
100
AcDbPolyline
 62
250
  6
CONTINUOUS
 90
13
 70
0
 10
100.0328352818
 20
21.8158675222
 10
99.8447684291
 20
21.7232648385
 10
99.6391312347
 20
21.645020406
 10
99.4192227647
 20
21.5821620732
 10
99.1896226236
 20
21.5356504567
 10
98.9528235615
 20
21.5056613399
 10
98.7088717568
 20
21.4923848349
 10
98.4598224944
 20
21.4966493499
 10
98.2110759498
 20
21.5190850738
 10
97.9677302279
 20
21.5596872679
 10
97.7341676174
 20
21.6180344984
 10
97.5140550503
 20
21.6935367475
 10
97.3113006242
 20
21.7852490732
  0
LWPOLYLINE
  5
283
100
AcDbEntity
  8
0
100
AcDbPolyline
 62
7
  6
CONTINUOUS
 90
7
 70
0
 10
-15.8535420616
 20
74.4038484668
 10
-15.7711803408
 20
74.2739455483
 10
-15.6947575849
 20
74.1389072837
 10
-15.6260002258
 20
74.0017826091
 10
-15.5654842673
 20
73.8635875287
 10
-15.5126350874
 20
73.7233052312
 10
-15.467453237
 20
73.5809353944
  0
LWPOLYLINE
  5
284
100
AcDbEntity
  8
0
100
AcDbPolyline
 62
250
  6
CONTINUOUS
 90
7
 70
0
 10
-147.1086211707
 20
162.9102486294
 10
-147.2617930786
 20
163.0225593497
 10
-147.3892719694
 20
163.1443994889
 10
-147.4894513056
 20
163.2738023286
 10
-147.5608854466
 20
163.4080404883
 10
-147.6034490877
 20
163.5456905648
 10
-147.6169118626
 20
163.6787108938
  0
LWPOLYLINE
  5
285
100
AcDbEntity
  8
0
100
AcDbPolyline
 62
7
  6
CONTINUOUS
 90
13
 70
0
 10
-16.6531161615
 20
79.3401117702
 10
-16.4330857458
 20
79.1528971676
 10
-16.2263720304
 20
78.9487481449
 10
-16.03297877
 20
78.7276625119
 10
-15.8510268046
 20
78.4865275362
 10
-15.682401789
 20
78.2284521602
 10
-15.5327556246
 20
77.9627661646
 10
-15.4025707682
 20
77.6895228053
 10
-15.2913720507
 20
77.4086645696
 10
-15.2033761194
 20
77.1293543923
 10
-15.1399903816
 20
76.854645499
 10
-15.0998123014
 20
76.5814818171
 10
-15.082843146
 20
76.309862606
  0
LWPOLYLINE
  5
286
100
AcDbEntity
  8
0
100
AcDbPolyline
 62
7
  6
CONTINUOUS
 90
4
 70
0
 10
-16.1345287011
 20
74.7596996439
 10
-16.0349293584
 20
74.6462168593
 10
-15.9412668928
 20
74.5275999476
 10
-15.8535420616
 20
74.4038484668
  0
LWPOLYLINE
  5
287
100
AcDbEntity
  8
0
100
AcDbPolyline
 62
7
  6
CONTINUOUS
 90
10
 70
0
 10
-19.9015081402
 20
81.1471091167
 10
-19.7409698573
 20
81.0818376621
 10
-19.5802238302
 20
81.0145586603
 10
-19.4192700167
 20
80.945272137
 10
-19.2580912563
 20
80.8739703407
 10
-19.0967046224
 20
80.8006610757
 10
-18.9351614354
 20
80.7253676944
 10
-18.7734787861
 20
80.648097991
 10
-18.6116395239
 20
80.5688442083
 10
-18.4496436179
 20
80.4876063653
  0
LWPOLYLINE
  5
288
100
AcDbEntity
  8
0
100
AcDbPolyline
 62
7
  6
CONTINUOUS
 90
7
 70
0
 10
-17.6266521095
 20
76.3085981852
 10
-17.4942828132
 20
76.2446304599
 10
-17.3688642845
 20
76.2018532289
 10
-17.2503977134
 20
76.1802657988
 10
-17.137376513
 20
76.1803456624
 10
-17.0313093078
 20
76.2016141389
 10
-16.9366846143
 20
76.24265676
  0
LINE
  5
289
100
AcDbEntity
  8
0
100
AcDbLine
 62
7
  6
CONTINUOUS
 10
-17.3528594308
 20
76.3262854588
 11
-17.4852291304
 21
76.3902542067
  0
LWPOLYLINE
  5
28A
100
AcDbEntity
  8
0
100
AcDbPolyline
 62
7
  6
CONTINUOUS
 90
10
 70
0
 10
-18.3082207508
 20
80.5692621555
 10
-18.4702167047
 20
80.6504999627
 10
-18.632056014
 20
80.7297537122
 10
-18.7937387096
 20
80.8070233847
 10
-18.9552819423
 20
80.8823167375
 10
-19.116668621
 20
80.9556259766
 10
-19.2778474256
 20
81.0269277493
 10
-19.4388012828
 20
81.0962142517
 10
-19.5995473529
 20
81.163493235
 10
-19.7600856784
 20
81.2287646737
  0
LWPOLYLINE
  5
28B
100
AcDbEntity
  8
0
100
AcDbPolyline
 62
7
  6
CONTINUOUS
 90
10
 70
0
 10
-18.4496436179
 20
80.4876063653
 10
-18.249319188
 20
80.3830267799
 10
-18.0490781289
 20
80.27265753
 10
-17.84892047
 20
80.1564986004
 10
-17.648720794
 20
80.0344702808
 10
-17.4486045542
 20
79.9066522644
 10
-17.2489481885
 20
79.7732835813
 10
-17.0498773093
 20
79.634443832
 10
-16.85126659
 20
79.4900532531
 10
-16.6531161615
 20
79.3401117702
  0
LWPOLYLINE
  5
28C
100
AcDbEntity
  8
0
100
AcDbPolyline
 62
7
  6
CONTINUOUS
 90
10
 70
0
 10
-14.7247255736
 20
70.1197425717
 10
-14.8844172849
 20
70.2097064832
 10
-15.0436241059
 20
70.2999504453
 10
-15.2023460365
 20
70.3904744581
 10
-15.3602674253
 20
70.4814607757
 10
-15.5177039237
 20
70.5727271439
 10
-15.6756024865
 20
70.6637268001
 10
-15.8342787652
 20
70.7542774901
 10
-15.9934171081
 20
70.8445614681
 10
-16.1530175154
 20
70.9345787341
  0
LWPOLYLINE
  5
28D
100
AcDbEntity
  8
0
100
AcDbPolyline
 62
7
  6
CONTINUOUS
 90
10
 70
0
 10
-18.4744074802
 20
72.2612053949
 10
-18.6336960934
 20
72.3515621097
 10
-18.7926352227
 20
72.4421206705
 10
-18.9512248682
 20
72.5328810772
 10
-19.1092396758
 20
72.6239734474
 10
-19.2669049995
 20
72.7152676635
 10
-19.4248969016
 20
72.8063733728
 10
-19.5834407361
 20
72.8971604577
 10
-19.742311149
 20
72.9877590357
 10
-19.9015081402
 20
73.078169107
  0
LWPOLYLINE
  5
28E
100
AcDbEntity
  8
0
100
AcDbPolyline
 62
7
  6
CONTINUOUS
 90
3
 70
0
 10
-17.6266519427
 20
78.5503279217
 10
-17.8157458962
 20
78.6576553229
 10
-17.9099490304
 20
78.7115175812
  0
LWPOLYLINE
  5
28F
100
AcDbEntity
  8
0
100
AcDbPolyline
 62
7
  6
CONTINUOUS
 90
6
 70
0
 10
-20.3286779546
 20
73.3229168693
 10
-20.5027295175
 20
73.4219917772
 10
-20.6764736484
 20
73.5212442484
 10
-20.8499103472
 20
73.6206742831
 10
-21.0228438149
 20
73.7203949343
 10
-21.3683758515
 20
73.9200297674
  0
LWPOLYLINE
  5
290
100
AcDbEntity
  8
0
100
AcDbPolyline
 62
7
  6
CONTINUOUS
 90
3
 70
0
 10
-17.6272804727
 20
74.9711905603
 10
-17.8162342109
 20
75.0786036481
 10
-17.9103674842
 20
75.1325085812
  0
LWPOLYLINE
  5
291
100
AcDbEntity
  8
0
100
AcDbPolyline
 62
7
  6
CONTINUOUS
 90
6
 70
0
 10
-22.2727405774
 20
76.0679927162
 10
-22.4972251865
 20
76.196263163
 10
-22.7214188554
 20
76.3247016627
 10
-22.9453215844
 20
76.4533082155
 10
-23.1687547163
 20
76.5821859782
 10
-23.6152841307
 20
76.8401361918
  0
LWPOLYLINE
  5
292
100
AcDbEntity
  8
0
100
AcDbPolyline
 62
7
  6
CONTINUOUS
 90
6
 70
0
 10
-17.6266521092
 20
76.3085981851
 10
-18.097667698
 20
76.5779094297
 10
-18.1918586957
 20
76.6317787274
 10
-18.2860456596
 20
76.6856503783
 10
-18.3802285878
 20
76.7395243812
 10
-18.4744074802
 20
76.7934007361
  0
LWPOLYLINE
  5
293
100
AcDbEntity
  8
0
100
AcDbPolyline
 62
7
  6
CONTINUOUS
 90
6
 70
0
 10
-18.3329846214
 20
76.8750565224
 10
-18.2388057036
 20
76.8211801855
 10
-18.1446227491
 20
76.7673062004
 10
-18.0504357578
 20
76.7134345671
 10
-17.9562447275
 20
76.6595652842
 10
-17.4852290984
 20
76.3902541884
  0
LWPOLYLINE
  5
294
100
AcDbEntity
  8
0
100
AcDbPolyline
 62
7
  6
CONTINUOUS
 90
3
 70
0
 10
-18.1911830624
 20
78.8738985866
 10
-18.2853700477
 20
78.9277702497
 10
-18.4744074802
 20
79.0351305678
  0
LWPOLYLINE
  5
295
100
AcDbEntity
  8
0
100
AcDbPolyline
 62
7
  6
CONTINUOUS
 90
3
 70
0
 10
-18.1913929208
 20
75.2950169368
 10
-18.2855100757
 20
75.3489312645
 10
-18.4744073994
 20
75.4563772336
  0
LWPOLYLINE
  5
296
100
AcDbEntity
  8
0
100
AcDbPolyline
 62
7
  6
CONTINUOUS
 90
3
 70
0
 10
-21.3683758515
 20
73.9200297674
 10
-21.5417576169
 20
74.0194917363
 10
-21.8893610434
 20
74.2179308853
  0
LINE
  5
297
100
AcDbEntity
  8
0
100
AcDbLine
 62
7
  6
CONTINUOUS
 10
-24.6954947272
 20
75.8304173564
 11
-25.0208466233
 21
76.0172477032
  0
LWPOLYLINE
  5
298
100
AcDbEntity
  8
0
100
AcDbPolyline
 62
7
  6
CONTINUOUS
 90
3
 70
0
 10
-23.6152841307
 20
76.8401361918
 10
-23.8390950406
 20
76.9687960147
 10
-24.287451952
 20
77.2256914068
  0
LWPOLYLINE
  5
299
100
AcDbEntity
  8
0
100
AcDbPolyline
 62
7
  6
CONTINUOUS
 90
3
 70
0
 10
-22.5686237229
 20
77.4993468856
 10
-23.8275170147
 20
78.2226807119
 10
-23.9848276338
 20
78.3131270503
  0
LINE
  5
29A
100
AcDbEntity
  8
0
100
AcDbLine
 62
7
  6
CONTINUOUS
 10
-23.8434059729
 20
78.3947821449
 11
-23.6860953315
 21
78.3043358186
  0
LINE
  5
29B
100
AcDbEntity
  8
0
100
AcDbLine
 62
7
  6
CONTINUOUS
 10
-23.6860953315
 20
78.3043358186
 11
-22.6051643099
 21
77.6832054768
  0
LINE
  5
29C
100
AcDbEntity
  8
0
100
AcDbLine
 62
7
  6
CONTINUOUS
 10
-22.5050534807
 20
82.7360719573
 11
-23.9358774294
 21
83.5582105212
  0
LINE
  5
29D
100
AcDbEntity
  8
0
100
AcDbLine
 62
7
  6
CONTINUOUS
 10
-23.7944557618
 20
83.6398656196
 11
-22.3636315871
 21
82.8177271862
  0
LINE
  5
29E
100
AcDbEntity
  8
0
100
AcDbLine
 62
7
  6
CONTINUOUS
 10
-25.6700308453
 20
76.3917860339
 11
-26.1576504739
 21
76.6722676409
  0
LINE
  5
29F
100
AcDbEntity
  8
0
100
AcDbLine
 62
7
  6
CONTINUOUS
 10
-26.4132167451
 20
76.8195288923
 11
-26.8950019725
 21
77.0970621458
  0
LWPOLYLINE
  5
2A0
100
AcDbEntity
  8
0
100
AcDbPolyline
 62
7
  6
CONTINUOUS
 90
3
 70
0
 10
-25.0208466233
 20
76.0172477032
 10
-25.3456156595
 20
76.2044146724
 10
-25.6700308453
 20
76.3917860339
  0
LWPOLYLINE
  5
2A1
100
AcDbEntity
  8
0
100
AcDbPolyline
 62
7
  6
CONTINUOUS
 90
4
 70
0
 10
-27.0750517582
 20
85.3657525776
 10
-28.2112065351
 20
86.0212427551
 10
-28.3734657946
 20
86.1149122667
 10
-28.5357129119
 20
86.2085887921
  0
LINE
  5
2A2
100
AcDbEntity
  8
0
100
AcDbLine
 62
7
  6
CONTINUOUS
 10
-28.3942915556
 20
86.2902437108
 11
-28.0697851808
 21
86.1028976762
  0
LINE
  5
2A3
100
AcDbEntity
  8
0
100
AcDbLine
 62
7
  6
CONTINUOUS
 10
-28.0697851808
 20
86.1028976762
 11
-26.9336303719
 21
85.4474075136
  0
LINE
  5
2A4
100
AcDbEntity
  8
0
100
AcDbLine
 62
7
  6
CONTINUOUS
 10
-26.8950019725
 20
77.0970621458
 11
-27.8578015274
 21
77.6525738097
  0
LINE
  5
2A5
100
AcDbEntity
  8
0
100
AcDbLine
 62
7
  6
CONTINUOUS
 10
-32.7963743207
 20
80.5091367412
 11
-33.1101870921
 21
80.6902802463
  0
LINE
  5
2A6
100
AcDbEntity
  8
0
100
AcDbLine
 62
7
  6
CONTINUOUS
 10
-35.015838522
 20
81.7971999237
 11
-35.3438231993
 21
81.9864921134
  0
LINE
  5
2A7
100
AcDbEntity
  8
0
100
AcDbLine
 62
7
  6
CONTINUOUS
 10
-34.8519527095
 20
81.7024922572
 11
-35.015838522
 21
81.7971999237
  0
LINE
  5
2A8
100
AcDbEntity
  8
0
100
AcDbLine
 62
7
  6
CONTINUOUS
 10
-29.9160418777
 20
78.8414133485
 11
-30.1228143933
 21
78.9609700484
  0
LINE
  5
2A9
100
AcDbEntity
  8
0
100
AcDbLine
 62
7
  6
CONTINUOUS
 10
-17.9099490304
 20
78.7115175812
 11
-18.1911830624
 21
78.8738985866
  0
LINE
  5
2AA
100
AcDbEntity
  8
0
100
AcDbLine
 62
7
  6
CONTINUOUS
 10
-32.4829398604
 20
80.3277747644
 11
-32.7963743207
 21
80.5091367412
  0
LWPOLYLINE
  5
2AB
100
AcDbEntity
  8
0
100
AcDbPolyline
 62
7
  6
CONTINUOUS
 90
4
 70
0
 10
-31.4698662957
 20
87.905102784
 10
-32.6152508226
 20
88.5686077353
 10
-32.778827524
 20
88.6634227303
 10
-32.9423918095
 20
88.7582448682
  0
LINE
  5
2AC
100
AcDbEntity
  8
0
100
AcDbLine
 62
7
  6
CONTINUOUS
 10
-32.8009701541
 20
88.8398999596
 11
-32.4738292105
 21
88.6502628028
  0
LINE
  5
2AD
100
AcDbEntity
  8
0
100
AcDbLine
 62
7
  6
CONTINUOUS
 10
-32.4738292105
 20
88.6502628028
 11
-31.3284448055
 21
87.9867577801
  0
LINE
  5
2AE
100
AcDbEntity
  8
0
100
AcDbLine
 62
7
  6
CONTINUOUS
 10
-17.9103674842
 20
75.1325085812
 11
-18.1913929208
 21
75.2950169368
  0
LWPOLYLINE
  5
2AF
100
AcDbEntity
  8
0
100
AcDbPolyline
 62
7
  6
CONTINUOUS
 90
3
 70
0
 10
-33.1101870921
 20
80.6902802463
 10
-33.4231067916
 20
80.8719392735
 10
-33.5793112008
 20
80.9629162332
  0
LWPOLYLINE
  5
2B0
100
AcDbEntity
  8
0
100
AcDbPolyline
 62
7
  6
CONTINUOUS
 90
3
 70
0
 10
-34.3622236214
 20
89.5819583714
 10
-35.6699220404
 20
90.3415757462
 10
-35.8333283564
 20
90.4365600428
  0
LINE
  5
2B1
100
AcDbEntity
  8
0
100
AcDbLine
 62
7
  6
CONTINUOUS
 10
-35.6919061853
 20
90.5182154319
 11
-34.2208017444
 21
89.6636135908
  0
LINE
  5
2B2
100
AcDbEntity
  8
0
100
AcDbLine
 62
7
  6
CONTINUOUS
 10
-32.1702015569
 20
80.1460108174
 11
-32.4829398604
 21
80.3277747644
  0
LINE
  5
2B3
100
AcDbEntity
  8
0
100
AcDbLine
 62
7
  6
CONTINUOUS
 10
-36.3790010131
 20
90.7538510371
 11
-37.8481876318
 21
91.6089331501
  0
LINE
  5
2B4
100
AcDbEntity
  8
0
100
AcDbLine
 62
7
  6
CONTINUOUS
 10
-37.7067649511
 20
91.6905888335
 11
-36.2375787162
 21
90.8355064989
  0
LWPOLYLINE
  5
2B5
100
AcDbEntity
  8
0
100
AcDbPolyline
 62
7
  6
CONTINUOUS
 90
3
 70
0
 10
-35.3438231993
 20
81.9864921134
 10
-35.6704227854
 20
82.1765838538
 10
-35.8333283564
 20
82.2718572748
  0
LWPOLYLINE
  5
2B6
100
AcDbEntity
  8
0
100
AcDbPolyline
 62
7
  6
CONTINUOUS
 90
3
 70
0
 10
-34.3622236214
 20
81.4172556034
 10
-34.5252287172
 20
81.51247191
 10
-34.8519527095
 20
81.7024922572
  0
LINE
  5
2B7
100
AcDbEntity
  8
0
100
AcDbLine
 62
7
  6
CONTINUOUS
 10
-40.5712154164
 20
93.1968467935
 11
-41.8111749538
 21
93.9212504696
  0
LINE
  5
2B8
100
AcDbEntity
  8
0
100
AcDbLine
 62
7
  6
CONTINUOUS
 10
-41.8111749538
 20
93.9212504696
 11
-42.165316476
 21
94.1282986137
  0
LINE
  5
2B9
100
AcDbEntity
  8
0
100
AcDbLine
 62
7
  6
CONTINUOUS
 10
-42.0238922859
 20
94.2099551686
 11
-40.4297918501
 21
93.2785029882
  0
LWPOLYLINE
  5
2BA
100
AcDbEntity
  8
0
100
AcDbPolyline
 62
7
  6
CONTINUOUS
 90
10
 70
0
 10
-38.6423472771
 20
83.9069246375
 10
-38.7854752573
 20
83.9911881016
 10
-38.9289545925
 20
84.0752486432
 10
-39.0727852828
 20
84.1591062623
 10
-39.2172080226
 20
84.2426219857
 10
-39.3619821174
 20
84.3259347866
 10
-39.5063854844
 20
84.4094615844
 10
-39.6501774291
 20
84.4933413522
 10
-39.7935986459
 20
84.577435117
 10
-39.9366491348
 20
84.6617428788
  0
LWPOLYLINE
  5
2BB
100
AcDbEntity
  8
0
100
AcDbPolyline
 62
7
  6
CONTINUOUS
 90
10
 70
0
 10
-16.5116927095
 20
79.4217678972
 10
-16.7098432275
 20
79.5717093239
 10
-16.9084540284
 20
79.71609985
 10
-17.1075249814
 20
79.8549395499
 10
-17.3071814106
 20
79.9883081852
 10
-17.507297706
 20
80.1161261573
 10
-17.7074974367
 20
80.2381544412
 10
-17.9076551519
 20
80.3543133453
 10
-18.1078962664
 20
80.4646825784
 10
-18.3082207508
 20
80.5692621555
  0
LWPOLYLINE
  5
2BC
100
AcDbEntity
  8
0
100
AcDbPolyline
 62
250
  6
CONTINUOUS
 90
13
 70
0
 10
80.389074852
 20
49.0676298312
 10
80.396303284
 20
49.2896682998
 10
80.4267529833
 20
49.5210991661
 10
80.4791505965
 20
49.7575911141
 10
80.5512628945
 20
49.9931367964
 10
80.6415565514
 20
50.2255931043
 10
80.7506709033
 20
50.4565590865
 10
80.8786415613
 20
50.684036808
 10
81.0229013238
 20
50.9016314844
 10
81.1806719009
 20
51.1041889
 10
81.3491359529
 20
51.2874876473
 10
81.5256745949
 20
51.4481056043
 10
81.7071928698
 20
51.5826068811
  0
LINE
  5
2BD
100
AcDbEntity
  8
0
100
AcDbLine
 62
250
  6
CONTINUOUS
 10
81.7071926972
 20
51.5826070199
 11
57.1187903646
 21
64.5734466078
  0
LINE
  5
2BE
100
AcDbEntity
  8
0
100
AcDbLine
 62
7
  6
CONTINUOUS
 10
80.4214851393
 20
49.0606279814
 11
55.8069452577
 21
62.0809296238
  0
LWPOLYLINE
  5
2BF
100
AcDbEntity
  8
0
100
AcDbPolyline
 62
250
  6
CONTINUOUS
 90
6
 70
0
 10
57.1187903646
 20
64.5734466078
 10
32.782823437
 20
77.7200820953
 10
8.6992919146
 20
91.0225134824
 10
-15.1346157705
 20
104.482364133
 10
-38.7160880504
 20
118.0980106832
 10
-62.0366902222
 20
131.8645830413
  0
LWPOLYLINE
  5
2C0
100
AcDbEntity
  8
0
100
AcDbPolyline
 62
7
  6
CONTINUOUS
 90
7
 70
0
 10
55.8069452577
 20
62.0809296238
 10
31.4431775625
 20
75.2544798033
 10
7.3329621944
 20
88.5796474642
 10
-16.5185951623
 20
102.0535168896
 10
-40.1111878039
 20
115.6756623944
 10
-63.4490530129
 20
129.4482959382
 10
-86.5315875369
 20
143.3711630073
  0
LWPOLYLINE
  5
2C1
100
AcDbEntity
  8
0
100
AcDbPolyline
 62
250
  6
CONTINUOUS
 90
25
 70
0
 10
81.7071928173
 20
51.5826069991
 10
82.8989910611
 20
50.9125944924
 10
84.086506197
 20
50.1589716065
 10
85.2648775949
 20
49.3249426048
 10
86.4296103946
 20
48.4141355668
 10
87.5755705531
 20
47.4303639543
 10
88.6970201873
 20
46.3776699933
 10
89.7893963808
 20
45.2605727663
 10
90.8481364338
 20
44.0839774619
 10
91.8677248739
 20
42.853047153
 10
92.8438639989
 20
41.573338823
 10
93.7727027644
 20
40.2503353227
 10
94.6497072096
 20
38.8894687769
 10
95.4712175477
 20
37.496777762
 10
96.2339849954
 20
36.0782670951
 10
96.9344066864
 20
34.6395079859
 10
97.5696222546
 20
33.1865797003
 10
98.1369911763
 20
31.7259725679
 10
98.6336330802
 20
30.2639508391
 10
99.057496281
 20
28.8067159291
 10
99.4068874434
 20
27.3607181182
 10
99.6800112516
 20
25.9325344987
 10
99.8757255896
 20
24.5284065648
 10
99.9934618644
 20
23.1542315995
 10
100.0328352818
 20
21.8158675214
  0
LINE
  5
2C2
100
AcDbEntity
  8
0
100
AcDbLine
 62
250
  6
CONTINUOUS
 10
-62.0366902222
 20
131.8645830413
 11
-85.093610718
 21
145.7804578436
  0
LWPOLYLINE
  5
2C3
100
AcDbEntity
  8
0
100
AcDbPolyline
 62
250
  6
CONTINUOUS
 90
22
 70
0
 10
-131.912273048
 20
171.6573889644
 10
-133.0566000016
 20
172.348867467
 10
-134.1837133116
 20
172.924728334
 10
-135.2936426451
 20
173.3849556707
 10
-136.3934758072
 20
173.7297179208
 10
-137.4761748705
 20
173.9588198787
 10
-138.5206172943
 20
174.0716812714
 10
-139.5250240165
 20
174.0673588655
 10
-140.491300807
 20
173.9467294065
 10
-141.4039104982
 20
173.711912448
 10
-142.2620612022
 20
173.3609681555
 10
-143.0666988467
 20
172.8957560953
 10
-143.8049276558
 20
172.3240770417
 10
-144.4758090945
 20
171.6441982924
 10
-145.0804346835
 20
170.8577732041
 10
-145.6089698914
 20
169.9776733559
 10
-146.060290103
 20
169.0023838072
 10
-146.4356425796
 20
167.9333560908
 10
-146.7287501446
 20
166.7879117776
 10
-146.9375446439
 20
165.5718122199
 10
-147.0641626152
 20
164.2792607776
 10
-147.1086211708
 20
162.9102486249
  0
LWPOLYLINE
  5
2C4
100
AcDbEntity
  8
0
100
AcDbPolyline
 62
7
  6
CONTINUOUS
 90
3
 70
0
 10
-86.5315875369
 20
143.3711630073
 10
-109.3536032464
 20
157.4413953833
 10
-131.912273048
 20
171.6573889644
  0
LINE
  5
2C5
100
AcDbEntity
  8
0
100
AcDbLine
 62
250
  6
CONTINUOUS
 10
-85.093610718
 20
145.7804578436
 11
-107.8896611057
 21
159.8472584538
  0
LINE
  5
2C6
100
AcDbEntity
  8
0
100
AcDbLine
 62
250
  6
CONTINUOUS
 10
-107.8896611057
 20
159.8472584538
 11
-130.4248413852
 21
174.0649848719
  0
LWPOLYLINE
  5
2C7
100
AcDbEntity
  8
0
100
AcDbPolyline
 62
250
  6
CONTINUOUS
 90
22
 70
0
 10
97.3113006242
 20
21.7852490732
 10
97.2620368324
 20
23.2021174539
 10
97.1214674189
 20
24.6432440039
 10
96.8896074294
 20
26.1086384485
 10
96.5642302879
 20
27.6065482154
 10
96.1476227299
 20
29.1287647426
 10
95.6465811521
 20
30.6506211115
 10
95.0599015968
 20
32.1720572204
 10
94.3888965752
 20
33.6932031711
 10
93.6441382475
 20
35.1896779853
 10
92.8245944656
 20
36.6612439614
 10
91.9314344154
 20
38.1082268913
 10
90.9785192308
 20
39.5070825549
 10
89.9649235018
 20
40.8571377842
 10
88.8917133434
 20
42.1591557777
 10
87.7757079518
 20
43.3917279664
 10
86.6149781781
 20
44.5561446324
 10
85.4115723491
 20
45.6511912343
 10
84.188225706
 20
46.651669705
 10
82.952522495
 20
47.5491841265
 10
81.6969319285
 20
48.3521637458
 10
80.4214851393
 20
49.0606279814
  0
LINE
  5
2C8
100
AcDbEntity
  8
0
100
AcDbLine
 62
250
  6
CONTINUOUS
 10
97.3113006242
 20
21.7852490732
 11
97.3113006242
 21
-190.4970229014
  0
LINE
  5
2C9
100
AcDbEntity
  8
0
100
AcDbLine
 62
7
  6
CONTINUOUS
 10
98.5210142131
 20
97.1433028282
 11
98.5210142131
 21
96.4123258467
  0
LINE
  5
2CA
100
AcDbEntity
  8
0
100
AcDbLine
 62
250
  6
CONTINUOUS
 10
100.0328352818
 20
21.8158675216
 11
100.0328352818
 21
-190.4664044501
  0
LWPOLYLINE
  5
2CB
100
AcDbEntity
  8
0
100
AcDbPolyline
 62
250
  6
CONTINUOUS
 90
3
 70
0
 10
-132.8925370237
 20
175.4065430065
 10
-131.6440611926
 20
174.7836735432
 10
-130.4248414055
 20
174.0649849221
  0
LINE
  5
2CC
100
AcDbEntity
  8
0
100
AcDbLine
 62
7
  6
CONTINUOUS
 10
-118.7152730669
 20
181.0619461
 11
93.4167612876
 21
58.5795681025
  0
LINE
  5
2CD
100
AcDbEntity
  8
0
100
AcDbLine
 62
7
  6
CONTINUOUS
 10
93.9824467029
 20
58.917589016
 11
-118.1495876322
 21
181.3999670023
  0
LWPOLYLINE
  5
2CE
100
AcDbEntity
  8
0
100
AcDbPolyline
 62
7
  6
CONTINUOUS
 90
25
 70
0
 10
93.9824467132
 20
58.9175890101
 10
95.1496202139
 20
58.1979587791
 10
96.3013914795
 20
57.4016990821
 10
97.4377605098
 20
56.528809919
 10
98.5633539007
 20
55.5748727689
 10
99.6735450563
 20
54.5443061527
 10
100.75445419
 20
53.4503656337
 10
101.8057028452
 20
52.2923138026
 10
102.8276694783
 20
51.0708880687
 10
103.8076096719
 20
49.8015562225
 10
104.7450106393
 20
48.4837473655
 10
105.6403851671
 20
47.1180323961
 10
106.4825271976
 20
45.7215918009
 10
107.2707925538
 20
44.2940539725
 10
108.0058254127
 20
42.8357905182
 10
108.6783522465
 20
41.3650967456
 10
109.2876220636
 20
39.8818145058
 10
109.8343858555
 20
38.3861019478
 10
110.3116230699
 20
36.896728826
 10
110.7185057772
 20
35.4137365595
 10
111.0558619069
 20
33.9370837292
 10
111.3191546947
 20
32.4854158329
 10
111.506871886
 20
31.0649480363
 10
111.6205257354
 20
29.6694651736
 10
111.6601162429
 20
28.2989672449
  0
LWPOLYLINE
  5
2CF
100
AcDbEntity
  8
0
100
AcDbPolyline
 62
7
  6
CONTINUOUS
 90
25
 70
0
 10
111.0845567421
 20
27.9780487494
 10
111.0449838715
 20
29.3478373099
 10
110.9313853078
 20
30.7425929152
 10
110.743761051
 20
32.1623155653
 10
110.4805987931
 20
33.6132176244
 10
110.1434108421
 20
35.0890867283
 10
109.7367341227
 20
36.5712857843
 10
109.259741215
 20
38.0598557888
 10
108.7132595388
 20
39.5547557454
 10
108.1043082778
 20
41.0372255734
 10
107.4321370046
 20
42.507106795
 10
106.6974961467
 20
43.9645578879
 10
105.9096561694
 20
45.3912942048
 10
105.0679734813
 20
46.7869439555
 10
104.1730916739
 20
48.1518789302
 10
103.2362119868
 20
49.4689298521
 10
102.2568222087
 20
50.7375258074
 10
101.2354345508
 20
51.9582377099
 10
100.1847868868
 20
53.1156090243
 10
99.104501294
 20
54.2089025126
 10
97.9949556951
 20
55.2388554129
 10
96.8700217308
 20
56.1922229041
 10
95.7343232816
 20
57.064590046
 10
94.5832364672
 20
57.8603717788
 10
93.4167612874
 20
58.5795681026
  0
LINE
  5
2D0
100
AcDbEntity
  8
0
100
AcDbLine
 62
7
  6
CONTINUOUS
 10
111.0845567421
 20
27.9780487492
 11
111.0845567421
 21
-184.3042232154
  0
LINE
  5
2D1
100
AcDbEntity
  8
0
100
AcDbLine
 62
7
  6
CONTINUOUS
 10
111.6601162429
 20
-183.9833046972
 11
111.6601162429
 21
28.2989672449
  0
LINE
  5
2D2
100
AcDbEntity
  8
0
100
AcDbLine
 62
7
  6
CONTINUOUS
 10
111.6601162429
 20
-183.983304709
 11
111.6205212559
 21
-185.3081355105
  0
LWPOLYLINE
  5
2D3
100
AcDbEntity
  8
0
100
AcDbPolyline
 62
250
  6
CONTINUOUS
 90
4
 70
0
 10
100.0328352818
 20
-190.4664044467
 10
99.9780446987
 20
-191.9851599618
 10
99.8209076688
 20
-193.406957571
 10
99.568853058
 20
-194.7284751896
  0
LWPOLYLINE
  5
2D4
100
AcDbEntity
  8
0
100
AcDbPolyline
 62
7
  6
CONTINUOUS
 90
11
 70
0
 10
-118.7152730671
 20
181.0619461001
 10
-119.8817946287
 20
181.6897876869
 10
-121.0329225582
 20
182.2232664295
 10
-122.1686568556
 20
182.662382328
 10
-123.2936215323
 20
183.0080590219
 10
-124.4031925769
 20
183.2593728716
 10
-125.4834979554
 20
183.413552959
 10
-126.5341594226
 20
183.469425499
 10
-127.5555552237
 20
183.4281642767
 10
-128.5349480596
 20
183.2905197294
 10
-129.4718254302
 20
183.0553294549
  0
LINE
  5
2D5
100
AcDbEntity
  8
0
100
AcDbLine
 62
7
  6
CONTINUOUS
 10
-119.3167147252
 20
182.0281378507
 11
-118.1495876322
 21
181.3999670023
  0
LWPOLYLINE
  5
2D6
100
AcDbEntity
  8
0
100
AcDbPolyline
 62
7
  6
CONTINUOUS
 90
12
 70
0
 10
111.6205212559
 20
-185.3081355105
 10
111.5068592049
 20
-186.5724165212
 10
111.3191300898
 20
-187.7761477411
 10
111.0558207573
 20
-188.9237976547
 10
110.7184443607
 20
-190.0108977776
 10
110.3115403601
 20
-191.024042656
 10
109.8342808733
 20
-191.9623172915
 10
109.2874937826
 20
-192.8266366826
 10
108.6782021945
 20
-193.6063403711
 10
108.0056552621
 20
-194.3004027319
 10
107.2706038324
 20
-194.9098493902
 10
106.6371713698
 20
-195.3355168602
  0
LINE
  5
2D7
100
AcDbEntity
  8
0
100
AcDbLine
 62
7
  6
CONTINUOUS
 10
129.3381088457
 20
78.6189216347
 11
-82.793925481
 21
201.1012996162
  0
LINE
  5
2D8
100
AcDbEntity
  8
0
100
AcDbLine
 62
250
  6
CONTINUOUS
 10
133.6051078822
 20
76.9142818228
 11
113.4859368299
 21
88.530839036
  0
LINE
  5
2D9
100
AcDbEntity
  8
0
100
AcDbLine
 62
250
  6
CONTINUOUS
 10
97.1557364542
 20
97.9596920674
 11
-42.0775550312
 21
178.3512495681
  0
LINE
  5
2DA
100
AcDbEntity
  8
0
100
AcDbLine
 62
250
  6
CONTINUOUS
 10
-58.4077554067
 20
187.7801025995
 11
-78.5269264594
 21
199.3966598128
  0
LINE
  5
2DB
100
AcDbEntity
  8
0
100
AcDbLine
 62
7
  6
CONTINUOUS
 10
-77.551559576
 20
199.4817401287
 11
-57.4494136088
 21
187.8750129863
  0
LINE
  5
2DC
100
AcDbEntity
  8
0
100
AcDbLine
 62
7
  6
CONTINUOUS
 10
-41.0851630484
 20
178.4264998049
 11
98.1140782522
 21
98.0546024542
  0
LINE
  5
2DD
100
AcDbEntity
  8
0
100
AcDbLine
 62
7
  6
CONTINUOUS
 10
114.4783288127
 20
88.6060892728
 11
134.5804747799
 21
76.9993621304
  0
LINE
  5
2DE
100
AcDbEntity
  8
0
100
AcDbLine
 62
250
  6
CONTINUOUS
 10
134.6102664653
 20
76.2904885274
 11
133.6051078788
 21
76.9142818248
  0
LWPOLYLINE
  5
2DF
100
AcDbEntity
  8
0
100
AcDbPolyline
 62
250
  6
CONTINUOUS
 90
21
 70
0
 10
147.0556273898
 20
53.6172986643
 10
147.0180170102
 20
54.7996341898
 10
146.905396202
 20
56.0187891403
 10
146.7183947864
 20
57.2679455068
 10
146.4580585511
 20
58.5401175003
 10
146.1258434019
 20
59.8281906188
 10
145.7236072208
 20
61.124961435
 10
145.2535994756
 20
62.4231778804
 10
144.7184486403
 20
63.715579802
 10
144.1211474954
 20
64.994939564
 10
143.4650363913
 20
66.2541024676
 10
142.7537845674
 20
67.4860267632
 10
141.9913696324
 20
68.6838230304
 10
141.1820553199
 20
69.8407927064
 10
140.3303676438
 20
70.9504655477
 10
139.441069587
 20
72.0066358135
 10
138.5191344655
 20
73.0033969709
 10
137.5697181141
 20
73.9351747276
 10
136.5981300529
 20
74.7967582054
 10
135.6098037961
 20
75.58332908
 10
134.6102664653
 20
76.2904885274
  0
LWPOLYLINE
  5
2E0
100
AcDbEntity
  8
0
100
AcDbPolyline
 62
7
  6
CONTINUOUS
 90
25
 70
0
 10
146.3986430112
 20
49.0692096752
 10
146.3621150993
 20
50.3786880176
 10
146.2526877786
 20
51.7247404904
 10
146.070829634
 20
53.1016030903
 10
145.8173194101
 20
54.5033798798
 10
145.4932426769
 20
55.9240682357
 10
145.0999871804
 20
57.3575845535
 10
144.639236901
 20
58.7977902967
 10
144.1129648422
 20
60.2385182829
 10
143.5234245817
 20
61.6735990935
 10
142.8731406215
 20
63.0968874923
 10
142.1648975772
 20
64.5022887397
 10
141.4017282544
 20
65.883784692
 10
140.5869006613
 20
67.2354595712
 10
139.7239040146
 20
68.5515252981
 10
138.8164337986
 20
69.8263462772
 10
137.86837594
 20
71.0544635292
 10
136.8837901682
 20
72.2306180677
 10
135.8668926305
 20
73.3497734182
 10
134.8220378383
 20
74.4071371858
 10
133.7537000204
 20
75.3981815764
 10
132.6664539631
 20
76.3186627859
 10
131.5649554212
 20
77.1646391724
 10
130.4539211804
 20
77.932488135
 10
129.3381088599
 20
78.6189216267
  0
LINE
  5
2E1
100
AcDbEntity
  8
0
100
AcDbLine
 62
7
  6
CONTINUOUS
 10
146.3986430111
 20
-163.2130622373
 11
146.3986430111
 21
49.0692096771
  0
LINE
  5
2E2
100
AcDbEntity
  8
0
100
AcDbLine
 62
250
  6
CONTINUOUS
 10
147.0556273898
 20
-158.6649732783
 11
147.0556273898
 21
53.6172986719
  0
LINE
  5
2E3
100
AcDbEntity
  8
0
100
AcDbLine
 62
7
  6
CONTINUOUS
 10
147.6169477891
 20
54.4194727541
 11
147.6169477891
 21
-157.8627992121
  0
LWPOLYLINE
  5
2E4
100
AcDbEntity
  8
0
100
AcDbPolyline
 62
7
  6
CONTINUOUS
 90
6
 70
0
 10
147.6169477891
 20
-157.8627992121
 10
147.5832603322
 20
-158.9476105695
 10
147.48272839
 20
-159.9902407474
 10
147.3161738068
 20
-160.9875588577
 10
147.0836875904
 20
-161.9392562732
 10
146.7866416041
 20
-162.8392391156
  0
LWPOLYLINE
  5
2E5
100
AcDbEntity
  8
0
100
AcDbPolyline
 62
250
  6
CONTINUOUS
 90
7
 70
0
 10
147.6169477891
 20
54.4194727541
 10
147.6023924962
 20
54.2804082723
 10
147.5546915276
 20
54.1335935288
 10
147.4745668949
 20
53.9915623136
 10
147.3633592987
 20
53.8566911909
 10
147.2229295411
 20
53.7312369173
 10
147.0556273898
 20
53.6172986801
  0
LWPOLYLINE
  5
2E6
100
AcDbEntity
  8
0
100
AcDbPolyline
 62
250
  6
CONTINUOUS
 90
9
 70
0
 10
99.568853058
 20
-194.7284751896
 10
99.2331402078
 20
-195.9360072446
 10
98.8196014678
 20
-197.0420484111
 10
98.3202949268
 20
-198.0771431093
 10
97.7308821853
 20
-199.0423530497
 10
97.0564118046
 20
-199.9219626792
 10
96.2952165939
 20
-200.7130677325
 10
95.4471888309
 20
-201.4091903384
 10
94.4888940368
 20
-202.0164302211
  0
LWPOLYLINE
  5
2E7
100
AcDbEntity
  8
0
100
AcDbPolyline
 62
250
  6
CONTINUOUS
 90
7
 70
0
 10
-77.551559576
 20
199.4817401287
 10
-77.6793111579
 20
199.5386815741
 10
-77.8302987485
 20
199.5707645073
 10
-77.9933557809
 20
199.5723764219
 10
-78.1657538727
 20
199.5434903463
 10
-78.3446083399
 20
199.4845896221
 10
-78.5269264664
 20
199.3966598169
  0
LWPOLYLINE
  5
2E8
100
AcDbEntity
  8
0
100
AcDbPolyline
 62
250
  6
CONTINUOUS
 90
5
 70
0
 10
-78.5269264559
 20
199.3966598108
 10
-79.532085036
 20
199.9335984508
 10
-80.5316223621
 20
200.3806796573
 10
-81.519948616
 20
200.7354031709
 10
-82.4915366764
 20
200.9957852335
  0
LWPOLYLINE
  5
2E9
100
AcDbEntity
  8
0
100
AcDbPolyline
 62
7
  6
CONTINUOUS
 90
13
 70
0
 10
-82.7939254961
 20
201.101299625
 10
-83.9097378165
 20
201.7033782322
 10
-85.0207720573
 20
202.2185237618
 10
-86.1222705993
 20
202.6445302815
 10
-87.2095166565
 20
202.9795735661
 10
-88.2778544744
 20
203.2222189089
 10
-89.3227092665
 20
203.371427265
 10
-90.3396068042
 20
203.4265597016
 10
-91.3241925761
 20
203.387380133
 10
-92.2722504346
 20
203.2540563321
 10
-93.1797206506
 20
203.027159212
 10
-94.0427172973
 20
202.7076603809
 10
-94.7083269524
 20
202.3809626007
  0
LWPOLYLINE
  5
2EA
100
AcDbEntity
  8
0
100
AcDbPolyline
 62
7
  6
CONTINUOUS
 90
22
 70
0
 10
134.5804747799
 20
76.9993621304
 10
135.5891220439
 20
76.3733562396
 10
136.5823288861
 20
75.6703274933
 10
137.5558827097
 20
74.8948347156
 10
138.5058482468
 20
74.0514183973
 10
139.4282360218
 20
73.1448499933
 10
140.3187408753
 20
72.1804934249
 10
141.1731307834
 20
71.1640498109
 10
141.9880928236
 20
70.1004604462
 10
142.7605505954
 20
68.9944599767
 10
143.4869100609
 20
67.8517052452
 10
144.1638713451
 20
66.6777736691
 10
144.7887588882
 20
65.4773891006
 10
145.3584979509
 20
64.2561864033
 10
145.8700629996
 20
63.020153656
 10
146.3209537604
 20
61.7744376215
 10
146.7085906003
 20
60.5246558936
 10
147.0304098668
 20
59.2769652894
 10
147.284199818
 20
58.0369292215
 10
147.4678662459
 20
56.8100798846
 10
147.5793938633
 20
55.6023023968
 10
147.6169477891
 20
54.4194727541
  0
LWPOLYLINE
  5
2EB
100
AcDbEntity
  8
0
100
AcDbPolyline
 62
250
  6
CONTINUOUS
 90
5
 70
0
 10
146.4580585466
 20
-162.8977346041
 10
146.7183947832
 20
-161.9261923695
 10
146.9053962004
 20
-160.8929805481
 10
147.0180170097
 20
-159.8038772795
 10
147.0556273898
 20
-158.6649732709
  0
LINE
  5
2EC
100
AcDbEntity
  8
0
100
AcDbLine
 62
250
  6
CONTINUOUS
 10
-82.4915366764
 20
200.9957852335
 11
-82.6625150923
 21
201.0254249047
  0
LWPOLYLINE
  5
2ED
100
AcDbEntity
  8
0
100
AcDbPolyline
 62
7
  6
CONTINUOUS
 90
6
 70
0
 10
-82.2780404651
 20
201.2514179854
 10
-81.3488146553
 20
201.0584234968
 10
-80.4075002881
 20
200.7835885147
 10
-79.460265341
 20
200.4289660992
 10
-78.5072464581
 20
199.9946972748
 10
-77.551559576
 20
199.4817401287
  0
LINE
  5
2EE
100
AcDbEntity
  8
0
100
AcDbLine
 62
250
  6
CONTINUOUS
 10
146.3986430111
 20
-163.0594904743
 11
146.4580585466
 21
-162.8977346041
  0
LINE
  5
2EF
100
AcDbEntity
  8
0
100
AcDbLine
 62
7
  6
CONTINUOUS
 10
146.7866416041
 20
-162.8392391156
 11
146.4297123929
 21
-163.6769906733
  0
LINE
  5
2F0
100
AcDbEntity
  8
0
100
AcDbLine
 62
7
  6
CONTINUOUS
 10
-83.1831702876
 20
201.3612046355
 11
-82.2780404651
 21
201.2514179854
  0
LWPOLYLINE
  5
2F1
100
AcDbEntity
  8
0
100
AcDbPolyline
 62
7
  6
CONTINUOUS
 90
11
 70
0
 10
107.4323070566
 20
-194.6154003765
 10
108.1044582425
 20
-193.9217114197
 10
108.7133877447
 20
-193.1424342115
 10
109.2598461353
 20
-192.2785935544
 10
109.7368167834
 20
-191.3408460891
 10
110.1434722218
 20
-190.3282776734
 10
110.4806399175
 20
-189.2418024495
 10
110.7437856404
 20
-188.0948194849
 10
110.9313979805
 20
-186.8917951356
 10
111.0449883477
 20
-185.6282630457
 10
111.0845567421
 20
-184.3042232151
  0
LINE
  5
2F2
100
AcDbEntity
  8
0
100
AcDbLine
 62
7
  6
CONTINUOUS
 10
106.6976847592
 20
-195.2245258845
 11
107.4323070566
 21
-194.6154003765
  0
LWPOLYLINE
  5
2F3
100
AcDbEntity
  8
0
100
AcDbPolyline
 62
250
  6
CONTINUOUS
 90
7
 70
0
 10
147.0556273898
 20
-158.664973286
 10
147.2229295411
 20
-158.5510350489
 10
147.3633592987
 20
-158.4255807753
 10
147.4745668949
 20
-158.2907096525
 10
147.5546915276
 20
-158.1486784373
 10
147.6023924962
 20
-158.0018636939
 10
147.6169477891
 20
-157.8627992121
  0
LINE
  5
2F4
100
AcDbEntity
  8
0
100
AcDbLine
 62
250
  6
CONTINUOUS
 10
147.0556273898
 20
-158.6649732783
 11
146.3986430111
 21
-159.0577856955
  0
LINE
  5
2F5
100
AcDbEntity
  8
0
100
AcDbLine
 62
250
  6
CONTINUOUS
 10
146.3986430116
 20
-163.2130622375
 11
111.6601162429
 21
-183.9833046972
  0
LINE
  5
2F6
100
AcDbEntity
  8
0
100
AcDbLine
 62
250
  6
CONTINUOUS
 10
111.0845567421
 20
-184.3042232154
 11
100.0328352818
 21
-190.4664044501
  0
LWPOLYLINE
  5
2F7
100
AcDbEntity
  8
0
100
AcDbPolyline
 62
7
  6
CONTINUOUS
 90
13
 70
0
 10
141.550274268
 20
-174.169434788
 10
142.1648975724
 20
-173.7571181989
 10
142.8731406174
 20
-173.1695782664
 10
143.5234245784
 20
-172.4972214851
 10
144.1129648395
 20
-171.7429269899
 10
144.6392368989
 20
-170.9099247857
 10
145.0999871788
 20
-170.0017819157
 10
145.4932426757
 20
-169.0223871876
 10
145.8173194094
 20
-167.9759345196
 10
146.0708296335
 20
-166.8669049817
 10
146.2526877784
 20
-165.7000476083
 10
146.3621150992
 20
-164.480359062
 10
146.3986430112
 20
-163.2130622362
  0
LINE
  5
2F8
100
AcDbEntity
  8
0
100
AcDbLine
 62
7
  6
CONTINUOUS
 10
105.909859698
 20
-195.7415057107
 11
106.6976847592
 21
-195.2245258845
  0
LINE
  5
2F9
100
AcDbEntity
  8
0
100
AcDbLine
 62
7
  6
CONTINUOUS
 10
141.550274268
 20
-174.169434788
 11
106.6363661281
 21
-195.3360051006
  0
LWPOLYLINE
  5
2FA
100
AcDbEntity
  8
0
100
AcDbPolyline
 62
7
  6
CONTINUOUS
 90
3
 70
0
 10
106.6371713698
 20
-195.3355168602
 10
106.4823235516
 20
-195.427096764
 10
106.0815363572
 20
-195.6288495211
  0
LINE
  5
2FB
100
AcDbEntity
  8
0
100
AcDbLine
 62
7
  6
CONTINUOUS
 10
105.7544300963
 20
-195.8290774348
 11
105.909859698
 21
-195.7415057107
  0
LINE
  5
2FC
100
AcDbEntity
  8
0
100
AcDbLine
 62
7
  6
CONTINUOUS
 10
105.7552499908
 20
-195.8286271854
 11
94.4851961168
 21
-202.0184601103
  0
ELLIPSE
  5
2FD
100
AcDbEntity
  8
0
100
AcDbEllipse
 62
7
  6
CONTINUOUS
 10
2138.9352579047
 20
1320.8855456949
 30
0.0
 11
2667.6562112228
 21
6816.037803315
 31
0.0
 40
0.2214858676
 41
-4.4440659133
 42
-4.4430682976
  0
ELLIPSE
  5
2FE
100
AcDbEntity
  8
0
100
AcDbEllipse
 62
7
  6
CONTINUOUS
 10
2138.9352579047
 20
1324.4252648418
 30
0.0
 11
-1976.9345447299
 21
8002.9037715433
 31
0.0
 40
0.2927029113
 41
-4.6295162571
 42
-4.6287174479
  0
ELLIPSE
  5
2FF
100
AcDbEntity
  8
0
100
AcDbEllipse
 62
7
  6
CONTINUOUS
 10
2138.9352579047
 20
1375.5778908382
 30
0.0
 11
2615.9329795897
 21
7601.9292018387
 31
0.0
 40
0.2101579999
 41
-4.470928672
 42
-4.4702878348
  0
ELLIPSE
  5
300
100
AcDbEntity
  8
0
100
AcDbEllipse
 62
7
  6
CONTINUOUS
 10
2138.9352579047
 20
1287.6525979056
 30
0.0
 11
-1983.8240567034
 21
9217.1351000195
 31
0.0
 40
0.2535105974
 41
-4.6372381691
 42
-4.6362038828
  0
ELLIPSE
  5
301
100
AcDbEntity
  8
0
100
AcDbEllipse
 62
7
  6
CONTINUOUS
 10
2138.9352579047
 20
1360.1134836636
 30
0.0
 11
-1985.5822467881
 21
9478.6768961687
 31
0.0
 40
0.2463302699
 41
-4.628959079
 42
-4.6279581382
  0
ELLIPSE
  5
302
100
AcDbEntity
  8
0
100
AcDbEllipse
 62
7
  6
CONTINUOUS
 10
2138.9352579047
 20
1366.0216866552
 30
0.0
 11
2681.3166527629
 21
6625.7436588175
 31
0.0
 40
0.2241024594
 41
-4.4290800668
 42
-4.4280313583
  0
ELLIPSE
  5
303
100
AcDbEntity
  8
0
100
AcDbEllipse
 62
7
  6
CONTINUOUS
 10
2138.9352579047
 20
1287.0959584475
 30
0.0
 11
-1992.3354623626
 21
10355.4547168197
 31
0.0
 40
0.2249177181
 41
-4.6402026802
 42
-4.6396040462
  0
ELLIPSE
  5
304
100
AcDbEntity
  8
0
100
AcDbEllipse
 62
7
  6
CONTINUOUS
 10
2138.9352579047
 20
1366.0216866552
 30
0.0
 11
2681.4916163291
 21
6626.1760075065
 31
0.0
 40
0.2241024594
 41
-4.4290803047
 42
-4.4280316647
  0
ELLIPSE
  5
305
100
AcDbEntity
  8
0
100
AcDbEllipse
 62
7
  6
CONTINUOUS
 10
2138.9352579047
 20
1360.1134836636
 30
0.0
 11
-1985.7118116981
 21
9479.295406896
 31
0.0
 40
0.2463302699
 41
-4.6289592589
 42
-4.6279583834
  0
ELLIPSE
  5
306
100
AcDbEntity
  8
0
100
AcDbEllipse
 62
7
  6
CONTINUOUS
 10
2138.9352579047
 20
1287.0959584475
 30
0.0
 11
-1992.4654679393
 21
10356.1304398028
 31
0.0
 40
0.2249177181
 41
-4.6402023154
 42
-4.6395805325
  0
ELLIPSE
  5
307
100
AcDbEntity
  8
0
100
AcDbEllipse
 62
7
  6
CONTINUOUS
 10
2138.9352579047
 20
1328.361168272
 30
0.0
 11
-1977.0178111335
 21
8057.6240634381
 31
0.0
 40
0.290673928
 41
-4.6294303225
 42
-4.6287769454
  0
ELLIPSE
  5
308
100
AcDbEntity
  8
0
100
AcDbEllipse
 62
7
  6
CONTINUOUS
 10
2138.9352579047
 20
1328.361168272
 30
0.0
 11
-1977.1468171897
 21
8058.1498464112
 31
0.0
 40
0.290673928
 41
1.6537550745
 42
1.6544286852
  0
ELLIPSE
  5
309
100
AcDbEntity
  8
0
100
AcDbEllipse
 62
7
  6
CONTINUOUS
 10
2138.9352579047
 20
1313.804702361
 30
0.0
 11
2606.0170591093
 21
7765.5141921478
 31
0.0
 40
0.2077583709
 41
-4.4836989031
 42
-4.4834024381
  0
ELLIPSE
  5
30A
100
AcDbEntity
  8
0
100
AcDbEllipse
 62
7
  6
CONTINUOUS
 10
2138.9352579047
 20
1314.293532454
 30
0.0
 11
2621.5587121295
 21
7506.5105335852
 31
0.0
 40
0.2115459566
 41
-4.4735383772
 42
-4.4733657123
  0
ELLIPSE
  5
30B
100
AcDbEntity
  8
0
100
AcDbEllipse
 62
7
  6
CONTINUOUS
 10
-42.102667277
 20
176.7045557187
 30
0.0
 11
1.0266564739
 21
1.7165654001
 31
0.0
 40
0.5873179545
 41
0.0090366206
 42
0.777029817
  0
ELLIPSE
  5
30C
100
AcDbEntity
  8
0
100
AcDbEllipse
 62
7
  6
CONTINUOUS
 10
113.460824584
 20
86.8841451866
 30
0.0
 11
1.0266564739
 21
1.7165654001
 31
0.0
 40
0.5873179545
 41
0.0090366206
 42
0.7770298171
  0
ELLIPSE
  5
30D
100
AcDbEntity
  8
0
100
AcDbEllipse
 62
7
  6
CONTINUOUS
 10
97.1314858403
 20
96.3125007225
 30
0.0
 11
0.974277822
 21
1.7468204648
 31
0.0
 40
0.5671693725
 41
5.4894081695
 42
7.0427512038
  0
ELLIPSE
  5
30E
100
AcDbEntity
  8
0
100
AcDbEllipse
 62
7
  6
CONTINUOUS
 10
-58.4320060207
 20
186.1329112546
 30
0.0
 11
0.974277822
 21
1.7468204648
 31
0.0
 40
0.5671693725
 41
5.4894081695
 42
7.0427512039
  0
ENDSEC
  0
SECTION
  2
OBJECTS
  0
DICTIONARY
  5
C
100
AcDbDictionary
280
0
281
1
  3
ACAD_GROUP
350
D
  3
ACAD_MLINESTYLE
350
17
  3
ACAD_LAYOUT
350
1A
  3
ACAD_PLOTSETTINGS
350
19
  3
ACAD_PLOTSTYLENAME
350
E
  0
DICTIONARY
  5
D
102
{ACAD_REACTORS
330
C
102
}
100
AcDbDictionary
280
0
281
1
  0
ACDBDICTIONARYWDFLT
  5
E
102
{ACAD_REACTORS
330
C
102
}
100
AcDbDictionary
281
1
  3
Normal
350
F
100
AcDbDictionaryWithDefault
340
F
  0
DICTIONARY
  5
17
102
{ACAD_REACTORS
330
C
102
}
100
AcDbDictionary
280
0
281
1
  3
Standard
350
18
  0
DICTIONARY
  5
19
102
{ACAD_REACTORS
330
C
102
}
100
AcDbDictionary
281
1
  0
DICTIONARY
  5
1A
102
{ACAD_REACTORS
330
C
102
}
100
AcDbDictionary
281
1
  3
Model
350
30F
  3
Layout1
350
310
  0
ACDBPLACEHOLDER
  5
F
102
{ACAD_REACTORS
330
E
102
}
  0
MLINESTYLE
  5
18
102
{ACAD_REACTORS
330
17
102
}
100
AcDbMlineStyle
  2
STANDARD
 70
0
  3

 62
256
 51
90.0
 52
90.0
 71
2
 49
0.5
 62
256
  6
BYLAYER
 49
-0.5
 62
256
  6
BYLAYER
  0
LAYOUT
  5
30F
102
{ACAD_REACTORS
330
1A
102
}
100
AcDbPlotSettings
  1

  2
none_device
  4
ISO_A4_(297.00_x_210.00_MM)
  6

 40
0.0
 41
0.0
 42
0.0
 43
0.0
 44
297.0
 45
210.0
 46
0.0
 47
0.0
 48
0.0
 49
0.0
140
0.0
141
0.0
142
1.0
143
1.0
 70
1024
 72
1
 73
0
 74
0
  7

 75
0
147
1.0
148
0.0
149
0.0
100
AcDbLayout
  1
Model
 70
0
 71
0
 10
0.0
 20
0.0
 11
297.0
 21
210.0
 12
0.0
 22
0.0
 32
0.0
 14
0.0
 24
0.0
 34
0.0
 15
0.0
 25
0.0
 35
0.0
146
0.0
 13
0.0
 23
0.0
 33
0.0
 16
1.0
 26
0.0
 36
0.0
 17
0.0
 27
1.0
 37
0.0
 76
0
330
20A
345
0
346
0
  0
LAYOUT
  5
310
102
{ACAD_REACTORS
330
1A
102
}
100
AcDbPlotSettings
  1

  2
none_device
  4
ISO_A4_(297.00_x_210.00_MM)
  6

 40
0.0
 41
0.0
 42
0.0
 43
0.0
 44
297.0
 45
210.0
 46
0.0
 47
0.0
 48
0.0
 49
0.0
140
0.0
141
0.0
142
1.0
143
1.0
 70
0
 72
1
 73
0
 74
0
  7

 75
0
147
1.0
148
0.0
149
0.0
100
AcDbLayout
  1
Layout1
 70
0
 71
1
 10
0.0
 20
0.0
 11
297.0
 21
210.0
 12
0.0
 22
0.0
 32
0.0
 14
0.0
 24
0.0
 34
0.0
 15
0.0
 25
0.0
 35
0.0
146
0.0
 13
0.0
 23
0.0
 33
0.0
 16
1.0
 26
0.0
 36
0.0
 17
0.0
 27
1.0
 37
0.0
 76
0
330
20B
345
0
346
0
  0
ENDSEC
  0
EOF
