0
SECTION
2
HEADER
9
$ACADVER
1
AC1014
9
$HANDSEED
5
       299
9
$EXTMAX
10
297.0000000000
20
210.0000000000
9
$EXTMIN
10
0.0000000000
20
0.0000000000
9
$LIMMIN
10
0.0000000000
20
0.0000000000
9
$LIMMAX
10
297.0000000000
20
210.0000000000
9
$VIEWCTR
10
148.5000000000
20
105.0000000000
9
$VIEWSIZE
40
210.0000000000
9
$CLAYER
8
0
9
$LTSCALE
40
16.3350000000
9
$CELTYPE
6
BYLAYER
9
$DIMSCALE
40
1
9
$DIMASZ
40
3.0000000000
9
$DIMEXO
40
1.8562500000
9
$DIMDLI
40
11.2860000000
9
$DIMEXE
40
5.3460000000
9
$DIMCEN
40
2.6730000000
9
$DIMLFAC
40
1.0000000000
9
$DIMTXT
40
3.0000000000
9
$DIMTOL
70
1
9
$DIMLIM
70
0
9
$DIMTFAC
40
1.0000000000
9
$DIMTP
40
0.0100000000
9
$DIMTM
40
0.0100000000
9
$MEASUREMENT
70
1
0
ENDSEC
0
SECTION
2
CLASSES
0
ENDSEC
0
SECTION
2
TABLES
0
TABLE
2
VPORT
5
8
100
AcDbSymbolTable
70
2
0
VPORT
5
1F4
100
AcDbSymbolTableRecord
100
AcDbViewportTableRecord
2
*ACTIVE
70
0
10
0.0
20
0.0
11
1.0
21
1.0
12
148.5000000000
22
105.0000000000
13
0.0
23
0.0
14
1.0
24
1.0
15
0.0
25
0.0
16
0.0
26
0.0
36
1.0
17
0.0
27
0.0
37
0.0
40
210.0000000000
41
1.4142857143
42
50.0
43
0.0
44
0.0
50
0.0
51
0.0
71
0
72
100
73
1
74
1
75
0
76
0
77
0
78
0
0
ENDTAB
0
TABLE
2
LTYPE
5
5
100
AcDbSymbolTable
70
6
0
LTYPE
5
14
100
AcDbSymbolTableRecord
100
AcDbLinetypeTableRecord
2
BYBLOCK
70
0
3

72
65
73
0
40
0.0
0
LTYPE
5
15
100
AcDbSymbolTableRecord
100
AcDbLinetypeTableRecord
2
BYLAYER
70
0
3

72
65
73
0
40
0.0
0
LTYPE
5
16
100
AcDbSymbolTableRecord
100
AcDbLinetypeTableRecord
2
CONTINUOUS
70
64
3
Solid line
72
65
73
0
40
0
0
LTYPE
5
1F5
100
AcDbSymbolTableRecord
100
AcDbLinetypeTableRecord
2
CENTER
70
64
3
____ _ ____ _ ____ _ ____ _ ____ _ ____ _ ____
72
65
73
4
40
0.6
49
0.375
74
0
49
-0.075
74
0
49
0.075
74
0
49
-0.075
74
0
0
LTYPE
5
1F6
100
AcDbSymbolTableRecord
100
AcDbLinetypeTableRecord
2
HIDDEN
70
64
3
- - - - - - - - - - - - - - - - - - - -
72
65
73
2
40
0.2
49
0.1
74
0
49
-0.1
74
0
0
LTYPE
5
1F7
100
AcDbSymbolTableRecord
100
AcDbLinetypeTableRecord
2
PHANTOM
70
64
3
_____ _ _ _____ _ _ _____ _ _ _____
72
65
73
6
40
0.8
49
0.45
74
0
49
-0.05
74
0
49
0.1
74
0
49
-0.05
74
0
49
0.1
74
0
49
-0.05
74
0
0
LTYPE
5
1F8
100
AcDbSymbolTableRecord
100
AcDbLinetypeTableRecord
2
DOT
70
64
3
. . . . . . . . . . . . . . . . . . . .
72
65
73
2
40
0.2
49
0.1
74
0
49
-0.1
74
0
0
LTYPE
5
1F9
100
AcDbSymbolTableRecord
100
AcDbLinetypeTableRecord
2
DASHED
70
64
3
- - - - - - - - - - - - - - - - - - - -
72
65
73
2
40
0.2
49
0.1
74
0
49
-0.1
74
0
0
ENDTAB
0
TABLE
2
LAYER
5
2
100
AcDbSymbolTable
70
36
0
LAYER
5
10
100
AcDbSymbolTableRecord
100
AcDbLayerTableRecord
2
0
70
0
62
7
6
CONTINUOUS
0
LAYER
5
1FA
100
AcDbSymbolTableRecord
100
AcDbLayerTableRecord
2
DEFAULT_1
70
0
62
7
6
CENTER
0
LAYER
5
1FB
100
AcDbSymbolTableRecord
100
AcDbLayerTableRecord
2
DEFAULT_2
70
0
62
8
6
HIDDEN
0
LAYER
5
1FC
100
AcDbSymbolTableRecord
100
AcDbLayerTableRecord
2
DEFAULT_3
70
0
62
7
6
PHANTOM
0
LAYER
5
1FD
100
AcDbSymbolTableRecord
100
AcDbLayerTableRecord
2
ASSI
70
0
62
7
6
CONTINUOUS
0
LAYER
5
1FE
100
AcDbSymbolTableRecord
100
AcDbLayerTableRecord
2
COORDINATE
70
0
62
7
6
CONTINUOUS
0
LAYER
5
1FF
100
AcDbSymbolTableRecord
100
AcDbLayerTableRecord
2
COORD_ORIGINE
70
0
62
7
6
CONTINUOUS
0
LAYER
5
200
100
AcDbSymbolTableRecord
100
AcDbLayerTableRecord
2
CURVE
70
0
62
7
6
CONTINUOUS
0
LAYER
5
201
100
AcDbSymbolTableRecord
100
AcDbLayerTableRecord
2
PIANI
70
0
62
7
6
CONTINUOUS
0
LAYER
5
202
100
AcDbSymbolTableRecord
100
AcDbLayerTableRecord
2
PIANI_ORIGINE
70
0
62
7
6
CONTINUOUS
0
LAYER
5
203
100
AcDbSymbolTableRecord
100
AcDbLayerTableRecord
2
RACCORDO
70
0
62
7
6
CONTINUOUS
0
LAYER
5
204
100
AcDbSymbolTableRecord
100
AcDbLayerTableRecord
2
TRASH
70
0
62
7
6
CONTINUOUS
0
ENDTAB
0
TABLE
2
STYLE
5
3
100
AcDbSymbolTable
70
1
0
STYLE
5
11
100
AcDbSymbolTableRecord
100
AcDbTextStyleTableRecord
2
STANDARD
70
0
40
0.0
41
0.8000000000
50
0.0
71
0
42
0.2
3
txt
4

0
ENDTAB
0
TABLE
2
VIEW
5
6
100
AcDbSymbolTable
70
0
0
ENDTAB
0
TABLE
2
UCS
5
7
100
AcDbSymbolTable
70
0
0
ENDTAB
0
TABLE
2
APPID
5
9
100
AcDbSymbolTable
70
1
0
APPID
5
205
100
AcDbSymbolTableRecord
100
AcDbRegAppTableRecord
2
ACAD
70
0
0
ENDTAB
0
TABLE
2
DIMSTYLE
5
A
100
AcDbSymbolTable
70
1
0
DIMSTYLE
105
206
100
AcDbSymbolTableRecord
100
AcDbDimStyleTableRecord
2
STANDARD
70
0
3

4

5

6

7

40
1.0
41
3.0000000000
42
0.0625
43
0.38
44
0.18
45
0.0
46
0.0
47
0.0100000000
48
0.0100000000
140
3.0000000000
141
0.09
142
0.0
143
25.4
144
1.0000000000
145
0.0
146
1.0000000000
147
0.09
71
1
72
0
73
0
74
0
75
0
76
0
77
1
78
8
170
0
171
2
172
0
173
0
174
0
175
0
176
0
177
0
178
0
270
2
271
2
272
2
273
2
274
2
340
11
275
0
280
0
281
0
282
0
283
1
284
8
285
0
286
0
287
3
288
0
0
ENDTAB
0
TABLE
2
BLOCK_RECORD
5
1
100
AcDbSymbolTable
70
0
0
BLOCK_RECORD
5
1B
100
AcDbSymbolTableRecord
100
AcDbBlockTableRecord
2
*MODEL_SPACE
0
BLOCK_RECORD
5
1C
100
AcDbSymbolTableRecord
100
AcDbBlockTableRecord
2
*PAPER_SPACE
0
ENDTAB
0
ENDSEC
0
SECTION
2
BLOCKS
0
BLOCK
5
1E
100
AcDbEntity
8
0
100
AcDbBlockBegin
2
*MODEL_SPACE
70
0
10
0.0
20
0.0
30
0.0
3
*MODEL_SPACE
1

0
ENDBLK
5
1F
100
AcDbEntity
8
0
100
AcDbBlockEnd
0
BLOCK
5
20
100
AcDbEntity
8
0
100
AcDbBlockBegin
2
*PAPER_SPACE
70
0
10
0.0
20
0.0
30
0.0
3
*PAPER_SPACE
1

0
ENDBLK
5
21
100
AcDbEntity
8
0
100
AcDbBlockEnd
0
ENDSEC
0
SECTION
2
ENTITIES
0
LINE
5
207
100
AcDbEntity
8
0
100
AcDbLine
62
7
6
CONTINUOUS
10
-69.2700726189
20
-39.1113720538
11
-69.2700726189
21
-1.4392669892
0
LINE
5
208
100
AcDbEntity
8
0
100
AcDbLine
62
7
6
CONTINUOUS
10
-67.8558590565
20
-39.8184788350
11
-67.8558590565
21
-2.1463737704
0
LINE
5
209
100
AcDbEntity
8
0
100
AcDbLine
62
7
6
CONTINUOUS
10
-69.2700726189
20
-39.1113720538
11
-67.8558590565
21
-39.8184788350
0
LINE
5
20A
100
AcDbEntity
8
0
100
AcDbLine
62
7
6
CONTINUOUS
10
-58.3099175105
20
-3.9699244200
11
-58.3099175105
21
0.6780398441
0
LINE
5
20B
100
AcDbEntity
8
0
100
AcDbLine
62
7
6
CONTINUOUS
10
-58.3099175105
20
4.0408105650
11
-58.3099175105
21
8.1959649203
0
LINE
5
20C
100
AcDbEntity
8
0
100
AcDbLine
62
9
6
CONTINUOUS
10
-63.9667717600
20
-34.5111644658
11
-62.5525581976
21
-35.2182712470
0
LINE
5
20D
100
AcDbEntity
8
0
100
AcDbLine
62
7
6
CONTINUOUS
10
-47.3914359479
20
-6.1506895736
11
-47.3915353364
21
-6.1495932670
0
LINE
5
20E
100
AcDbEntity
8
0
100
AcDbLine
62
9
6
CONTINUOUS
10
-50.1781895269
20
8.1066745569
11
-50.1781895269
21
8.4602279474
0
LINE
5
20F
100
AcDbEntity
8
0
100
AcDbLine
62
9
6
CONTINUOUS
10
-48.7639759645
20
-30.2725372890
11
-48.7639759645
21
-13.6015482661
0
LINE
5
210
100
AcDbEntity
8
0
100
AcDbLine
62
7
6
CONTINUOUS
10
-48.7639759645
20
-13.6015482661
11
-48.7639759645
21
-9.2714212472
0
LINE
5
211
100
AcDbEntity
8
0
100
AcDbLine
62
9
6
CONTINUOUS
10
-48.7639759645
20
-9.2714212472
11
-48.7639759645
21
7.3995677757
0
LINE
5
212
100
AcDbEntity
8
0
100
AcDbLine
62
7
6
CONTINUOUS
10
-48.4461387193
20
-15.7721401543
11
-48.4461387193
21
-13.4069134981
0
LINE
5
213
100
AcDbEntity
8
0
100
AcDbLine
62
7
6
CONTINUOUS
10
-48.4461387193
20
-9.0767864792
11
-48.4461387193
21
-6.7115598230
0
LINE
5
214
100
AcDbEntity
8
0
100
AcDbLine
62
7
6
CONTINUOUS
10
-48.4104225739
20
-6.9380941209
11
-48.4104225739
21
-9.9606699557
0
LINE
5
215
100
AcDbEntity
8
0
100
AcDbLine
62
7
6
CONTINUOUS
10
-48.4104225739
20
-12.5587461670
11
-48.4104225739
21
-15.5813220018
0
LINE
5
216
100
AcDbEntity
8
0
100
AcDbLine
62
7
6
CONTINUOUS
10
-48.0317429174
20
-29.3886538125
11
-48.0317429174
21
-15.6385384982
0
LINE
5
217
100
AcDbEntity
8
0
100
AcDbLine
62
7
6
CONTINUOUS
10
-48.0317429174
20
-5.7113720974
11
-48.0317429174
21
8.2834512522
0
LINE
5
218
100
AcDbEntity
8
0
100
AcDbLine
62
9
6
CONTINUOUS
10
-55.3400690295
20
-30.1978131006
11
-53.9258554671
21
-30.9049198818
0
LINE
5
219
100
AcDbEntity
8
0
100
AcDbLine
62
7
6
CONTINUOUS
10
-54.7743836046
20
-26.9137800783
11
-53.2278578879
21
-27.6870429366
0
LINE
5
21A
100
AcDbEntity
8
0
100
AcDbLine
62
7
6
CONTINUOUS
10
-47.3910260027
20
-14.9268889178
11
-47.3909774804
21
-14.9263028850
0
LINE
5
21B
100
AcDbEntity
8
0
100
AcDbLine
62
7
6
CONTINUOUS
10
-55.5962380197
20
11.6074407036
11
-57.0104515821
21
10.9003339224
0
LINE
5
21C
100
AcDbEntity
8
0
100
AcDbLine
62
9
6
CONTINUOUS
10
-53.3601700422
20
11.4654317675
11
-54.7743836046
21
10.7583249863
0
LINE
5
21D
100
AcDbEntity
8
0
100
AcDbLine
62
9
6
CONTINUOUS
10
-63.9667717600
20
-6.7983515447
11
-62.5525581976
21
-7.5054583259
0
LINE
5
21E
100
AcDbEntity
8
0
100
AcDbLine
62
7
6
CONTINUOUS
10
-48.4461387193
20
-13.4069134981
11
-48.7639759645
21
-13.2479948755
0
LINE
5
21F
100
AcDbEntity
8
0
100
AcDbLine
62
7
6
CONTINUOUS
10
-48.1142430003
20
-12.7886692577
11
-26.6889075303
21
-23.5013369926
0
LINE
5
220
100
AcDbEntity
8
0
100
AcDbLine
62
7
6
CONTINUOUS
10
-48.7639759645
20
-12.3819694717
11
-48.4104225739
21
-12.5587461670
0
LINE
5
221
100
AcDbEntity
8
0
100
AcDbLine
62
7
6
CONTINUOUS
10
-69.2700726189
20
-1.4392669892
11
-67.8558590565
21
-2.1463737704
0
LINE
5
222
100
AcDbEntity
8
0
100
AcDbLine
62
7
6
CONTINUOUS
10
-50.1781895269
20
8.1066745569
11
-69.2700726189
21
-1.4392669892
0
LINE
5
223
100
AcDbEntity
8
0
100
AcDbLine
62
7
6
CONTINUOUS
10
-67.8558590565
20
-2.1463737704
11
-48.7639759645
21
7.3995677757
0
LINE
5
224
100
AcDbEntity
8
0
100
AcDbLine
62
7
6
CONTINUOUS
10
-62.5525581976
20
-1.4432804994
11
-53.9258554671
21
2.8700708658
0
LINE
5
225
100
AcDbEntity
8
0
100
AcDbLine
62
7
6
CONTINUOUS
10
-48.7639759645
20
-9.7838932604
11
-48.4104225739
21
-9.9606699557
0
LINE
5
226
100
AcDbEntity
8
0
100
AcDbLine
62
7
6
CONTINUOUS
10
-46.5239270279
20
-7.9936573001
11
-24.4528395528
21
-19.0292010376
0
LINE
5
227
100
AcDbEntity
8
0
100
AcDbLine
62
9
6
CONTINUOUS
10
-55.3400690295
20
-2.4850001795
11
-53.9258554671
21
-3.1921069607
0
LINE
5
228
100
AcDbEntity
8
0
100
AcDbLine
62
9
6
CONTINUOUS
10
-47.8219431113
20
-5.6999750786
11
-48.0437362643
21
-5.5890785021
0
LINE
5
229
100
AcDbEntity
8
0
100
AcDbLine
62
7
6
CONTINUOUS
10
-47.7335261237
20
-5.5929784214
11
-48.0317429174
21
-5.4438700245
0
LINE
5
22A
100
AcDbEntity
8
0
100
AcDbLine
62
7
6
CONTINUOUS
10
22.8085671527
20
37.5393414573
11
-48.0317429174
21
2.1191864222
0
LINE
5
22B
100
AcDbEntity
8
0
100
AcDbLine
62
7
6
CONTINUOUS
10
-55.3400690295
20
-2.4850001795
11
-63.9667717600
21
-6.7983515447
0
LINE
5
22C
100
AcDbEntity
8
0
100
AcDbLine
62
7
6
CONTINUOUS
10
-53.9258554671
20
-3.1921069607
11
-62.5525581976
21
-7.5054583259
0
LINE
5
22D
100
AcDbEntity
8
0
100
AcDbLine
62
7
6
CONTINUOUS
10
25.0446351302
20
33.0672055023
11
-48.0317429174
21
-3.4709835216
0
LINE
5
22E
100
AcDbEntity
8
0
100
AcDbLine
62
9
6
CONTINUOUS
10
-47.8219431113
20
-5.6999750786
11
-48.0393275039
21
-5.8086672749
0
LINE
5
22F
100
AcDbEntity
8
0
100
AcDbLine
62
9
6
CONTINUOUS
10
-47.6827234494
20
-6.5742445586
11
-48.4104225739
21
-6.9380941209
0
LINE
5
230
100
AcDbEntity
8
0
100
AcDbLine
62
7
6
CONTINUOUS
10
-54.7743836046
20
10.7583249863
11
-50.1781895269
21
8.4602279474
0
LINE
5
231
100
AcDbEntity
8
0
100
AcDbLine
62
7
6
CONTINUOUS
10
-48.7639759645
20
9.1673347286
11
-53.3601700422
21
11.4654317675
0
LINE
5
232
100
AcDbEntity
8
0
100
AcDbLine
62
9
6
CONTINUOUS
10
-48.4104225739
20
-15.5813220018
11
-47.6826307486
21
-15.2174260892
0
LINE
5
233
100
AcDbEntity
8
0
100
AcDbLine
62
7
6
CONTINUOUS
10
-48.1977824008
20
-15.7215582398
11
-47.7318639471
21
-15.4885990130
0
LINE
5
234
100
AcDbEntity
8
0
100
AcDbLine
62
7
6
CONTINUOUS
10
-62.5525581976
20
-29.1560934205
11
-53.9258554671
21
-24.8427420553
0
LINE
5
235
100
AcDbEntity
8
0
100
AcDbLine
62
7
6
CONTINUOUS
10
-55.3400690295
20
-30.1978131006
11
-63.9667717600
21
-34.5111644658
0
LINE
5
236
100
AcDbEntity
8
0
100
AcDbLine
62
7
6
CONTINUOUS
10
-53.9258554671
20
-30.9049198818
11
-62.5525581976
21
-35.2182712470
0
LINE
5
237
100
AcDbEntity
8
0
100
AcDbLine
62
7
6
CONTINUOUS
10
-67.8558590565
20
-39.8184788350
11
-48.7639759645
21
-30.2725372890
0
LINE
5
238
100
AcDbEntity
8
0
100
AcDbLine
62
7
6
CONTINUOUS
10
27.1015799199
20
12.2687497006
11
25.6593594097
21
10.9687497006
0
LINE
5
239
100
AcDbEntity
8
0
100
AcDbLine
62
7
6
CONTINUOUS
10
46.4251981501
20
5.0374707372
11
42.7805882013
21
5.3145483881
0
LINE
5
23A
100
AcDbEntity
8
0
100
AcDbLine
62
7
6
CONTINUOUS
10
-12.5467719066
20
-19.0292010376
11
23.4151688705
21
-1.0482306491
0
LINE
5
23B
100
AcDbEntity
8
0
100
AcDbLine
62
7
6
CONTINUOUS
10
44.7288773695
20
9.6086236004
11
61.6994401180
21
18.0939049747
0
LINE
5
23C
100
AcDbEntity
8
0
100
AcDbLine
62
7
6
CONTINUOUS
10
-10.3107039291
20
-23.5013369926
11
25.6512368480
21
-5.5203666041
0
LINE
5
23D
100
AcDbEntity
8
0
100
AcDbLine
62
7
6
CONTINUOUS
10
46.9649453470
20
5.1364876454
11
63.9355080955
21
13.6217690197
0
LINE
5
23E
100
AcDbEntity
8
0
100
AcDbLine
62
7
6
CONTINUOUS
10
24.9621350474
20
0.2512352794
11
24.9621350474
21
9.4687497006
0
LINE
5
23F
100
AcDbEntity
8
0
100
AcDbLine
62
7
6
CONTINUOUS
10
29.9621350474
20
0.2512352794
11
29.9621350474
21
9.4687497006
0
LINE
5
240
100
AcDbEntity
8
0
100
AcDbLine
62
7
6
CONTINUOUS
10
27.8226901750
20
12.2687497006
11
29.2649106852
21
10.9687497006
0
LINE
5
241
100
AcDbEntity
8
0
100
AcDbLine
62
7
6
CONTINUOUS
10
44.3258155248
20
9.2362359878
11
42.3607116763
21
6.1543014382
0
LINE
5
242
100
AcDbEntity
8
0
100
AcDbLine
62
7
6
CONTINUOUS
10
61.6994401180
20
20.6928368315
11
36.9507027765
21
33.0672055023
0
LINE
5
243
100
AcDbEntity
8
0
100
AcDbLine
62
7
6
CONTINUOUS
10
63.9355080955
20
25.1649727865
11
39.1867707540
21
37.5393414573
0
SPLINE
5
244
100
AcDbEntity
8
0
100
AcDbSpline
62
7
6
CONTINUOUS
70
0
71
3
72
11
73
7
74
5
42
0.0000001000
43
0.0000001000
44
0.0000000001
12
1.0751508703
22
0.5375754352
32
0.0000000000
13
0.0000000000
23
1.2131125212
33
0.0000000000
40
0.0000000000
40
0.0000000000
40
0.0000000000
40
0.0000000000
40
0.3427259460
40
0.6340125060
40
0.8835697452
40
1.0000000000
40
1.0000000000
40
1.0000000000
40
1.0000000000
10
-48.7639759645
20
-30.2725372890
30
0.0000000000
10
-48.6411485981
20
-30.2111236058
30
0.0000000000
10
-48.4221679572
20
-30.0785069740
30
0.0000000000
10
-48.1672176282
20
-29.8266666806
30
0.0000000000
10
-48.0481921316
20
-29.5837294830
30
0.0000000000
10
-48.0321964655
20
-29.4357348125
30
0.0000000000
10
-48.0321964655
20
-29.3886538125
30
0.0000000000
11
-48.7639759645
21
-30.2725372890
31
0.0000000000
11
-48.4149324194
21
-30.0536939081
31
0.0000000000
11
-48.1720345917
21
-29.8015026399
31
0.0000000000
11
-48.0474623927
21
-29.5286094076
31
0.0000000000
11
-48.0321964655
21
-29.3886538125
31
0.0000000000
0
SPLINE
5
245
100
AcDbEntity
8
0
100
AcDbSpline
62
7
6
CONTINUOUS
70
0
71
3
72
10
73
6
74
4
42
0.0000001000
43
0.0000001000
44
0.0000000001
12
1.2650425359
22
-1.1405671746
32
0.0000000000
13
-0.0000000000
23
-1.6970834306
33
0.0000000000
40
0.0000000000
40
0.0000000000
40
0.0000000000
40
0.0000000000
40
0.2622427470
40
0.6356584529
40
1.0000000000
40
1.0000000000
40
1.0000000000
40
1.0000000000
10
29.2648817705
20
10.9687176304
30
0.0000000000
10
29.3754645137
20
10.8690158074
30
0.0000000000
10
29.6205071755
20
10.6019077692
30
0.0000000000
10
29.8915557397
20
10.0952595832
30
0.0000000000
10
29.9621350474
20
9.6748557015
30
0.0000000000
10
29.9621350474
20
9.4687497006
30
0.0000000000
11
29.2648817705
21
10.9687176304
31
0.0000000000
11
29.5652688795
21
10.6392714062
31
0.0000000000
11
29.8608674815
21
10.0787185789
31
0.0000000000
11
29.9621350474
21
9.4687497006
31
0.0000000000
0
SPLINE
5
246
100
AcDbEntity
8
0
100
AcDbSpline
62
7
6
CONTINUOUS
70
0
71
3
72
11
73
7
74
5
42
0.0000001000
43
0.0000001000
44
0.0000000001
12
1.4500798497
22
0.7250399249
32
0.0000000000
13
1.4562263735
23
-0.7298778378
33
0.0000000000
40
0.0000000000
40
0.0000000000
40
0.0000000000
40
0.0000000000
40
0.3385528590
40
0.6436421792
40
0.9258839168
40
1.0000000000
40
1.0000000000
40
1.0000000000
40
1.0000000000
10
-53.9258554671
20
2.8700708658
30
0.0000000000
10
-53.7622125742
20
2.9518923123
30
0.0000000000
10
-53.4344809026
20
3.0782336818
30
0.0000000000
10
-52.9311045226
20
3.1368022943
30
0.0000000000
10
-52.5737931850
20
3.0662984400
30
0.0000000000
10
-52.3969074633
20
2.9875313593
30
0.0000000000
10
-52.3609308650
20
2.9694994638
30
0.0000000000
11
-53.9258554671
21
2.8700708658
31
0.0000000000
11
-53.4113002845
21
3.0611118920
31
0.0000000000
11
-52.9192336325
21
3.1113303783
31
0.0000000000
11
-52.4711611849
21
3.0185315360
31
0.0000000000
11
-52.3609308650
21
2.9694994638
31
0.0000000000
0
SPLINE
5
247
100
AcDbEntity
8
0
100
AcDbSpline
62
7
6
CONTINUOUS
70
0
71
3
72
11
73
7
74
5
42
0.0000001000
43
0.0000001000
44
0.0000000001
12
1.4500798497
22
0.7250399249
32
0.0000000000
13
1.4562263735
23
-0.7298778378
33
0.0000000000
40
0.0000000000
40
0.0000000000
40
0.0000000000
40
0.0000000000
40
0.3385528590
40
0.6436421792
40
0.9258839168
40
1.0000000000
40
1.0000000000
40
1.0000000000
40
1.0000000000
10
-53.9258554671
20
-24.8427420553
30
0.0000000000
10
-53.7622125742
20
-24.7609206088
30
0.0000000000
10
-53.4344809026
20
-24.6345792393
30
0.0000000000
10
-52.9311045226
20
-24.5760106268
30
0.0000000000
10
-52.5737931850
20
-24.6465144811
30
0.0000000000
10
-52.3969074633
20
-24.7252815618
30
0.0000000000
10
-52.3609308650
20
-24.7433134573
30
0.0000000000
11
-53.9258554671
21
-24.8427420553
31
0.0000000000
11
-53.4113002845
21
-24.6517010291
31
0.0000000000
11
-52.9192336325
21
-24.6014825428
31
0.0000000000
11
-52.4711611849
21
-24.6942813851
31
0.0000000000
11
-52.3609308650
21
-24.7433134573
31
0.0000000000
0
SPLINE
5
248
100
AcDbEntity
8
0
100
AcDbSpline
62
7
6
CONTINUOUS
70
0
71
3
72
9
73
5
74
3
42
0.0000001000
43
0.0000001000
44
0.0000000001
12
0.3337005123
22
0.1668502562
32
0.0000000000
13
0.2975431607
23
0.2250846673
33
0.0000000000
40
0.0000000000
40
0.0000000000
40
0.0000000000
40
0.0000000000
40
0.5198780241
40
1.0000000000
40
1.0000000000
40
1.0000000000
40
1.0000000000
10
-48.7639759645
20
-9.2714212472
30
0.0000000000
10
-48.7061481102
20
-9.2425073200
30
0.0000000000
10
-48.5970241460
20
-9.1825162564
30
0.0000000000
10
-48.4937577227
20
-9.1128091776
30
0.0000000000
10
-48.4461387193
20
-9.0767864792
30
0.0000000000
11
-48.7639759645
21
-9.2714212472
31
0.0000000000
11
-48.5942689445
21
-9.1775052707
31
0.0000000000
11
-48.4461387193
21
-9.0767864792
31
0.0000000000
0
SPLINE
5
249
100
AcDbEntity
8
0
100
AcDbSpline
62
7
6
CONTINUOUS
70
0
71
3
72
12
73
8
74
6
42
0.0000001000
43
0.0000001000
44
0.0000000001
12
-0.5849072382
22
0.5251926490
32
0.0000000000
13
-0.5849072382
23
-0.5251926490
33
0.0000000000
40
0.0000000000
40
0.0000000000
40
0.0000000000
40
0.0000000000
40
0.0783641248
40
0.3571872729
40
0.6428127271
40
0.9216358752
40
1.0000000000
40
1.0000000000
40
1.0000000000
40
1.0000000000
10
27.8222125966
20
12.2691942993
30
0.0000000000
10
27.8069340153
20
12.2829130534
30
0.0000000000
10
27.7331991452
20
12.3409042940
30
0.0000000000
10
27.5743166700
20
12.4054096294
30
0.0000000000
10
27.3499534248
20
12.4054096294
30
0.0000000000
10
27.1910709496
20
12.3409042940
30
0.0000000000
10
27.1173360796
20
12.2829130534
30
0.0000000000
10
27.1020574983
20
12.2691942993
30
0.0000000000
11
27.8222125966
21
12.2691942993
31
0.0000000000
11
27.7738799484
21
12.3072926633
31
0.0000000000
11
27.5733955144
21
12.3909058700
31
0.0000000000
11
27.3508745805
21
12.3909058700
31
0.0000000000
11
27.1503901465
21
12.3072926633
31
0.0000000000
11
27.1020574983
21
12.2691942993
31
0.0000000000
0
SPLINE
5
24A
100
AcDbEntity
8
0
100
AcDbSpline
62
7
6
CONTINUOUS
70
0
71
3
72
9
73
5
74
3
42
0.0000001000
43
0.0000001000
44
0.0000000001
12
-0.1133259654
22
-0.1740915321
32
0.0000000000
13
0.0000000000
23
-0.2019879796
33
0.0000000000
40
0.0000000000
40
0.0000000000
40
0.0000000000
40
0.0000000000
40
0.1389027314
40
1.0000000000
40
1.0000000000
40
1.0000000000
40
1.0000000000
10
42.3607458151
20
6.1536368848
30
0.0000000000
10
42.3554987197
20
6.1455762884
30
0.0000000000
10
42.3209811798
20
6.0855072325
30
0.0000000000
10
42.3113774523
20
6.0163191597
30
0.0000000000
10
42.3113774523
20
5.9583420605
30
0.0000000000
11
42.3607458151
21
6.1536368848
31
0.0000000000
11
42.3463902449
21
6.1287128345
31
0.0000000000
11
42.3113774523
21
5.9583420605
31
0.0000000000
0
SPLINE
5
24B
100
AcDbEntity
8
0
100
AcDbSpline
62
7
6
CONTINUOUS
70
0
71
3
72
10
73
6
74
4
42
0.0000001000
43
0.0000001000
44
0.0000000001
12
0.2987583372
22
0.4665855764
32
0.0000000000
13
0.4967753502
23
0.2467109096
33
0.0000000000
40
0.0000000000
40
0.0000000000
40
0.0000000000
40
0.0000000000
40
0.1096273789
40
0.9191473465
40
1.0000000000
40
1.0000000000
40
1.0000000000
40
1.0000000000
10
44.3256930370
20
9.2363144177
30
0.0000000000
10
44.3366104015
20
9.2533646023
30
0.0000000000
10
44.4318095779
20
9.3941048323
30
0.0000000000
10
44.5699373799
20
9.5250799219
30
0.0000000000
10
44.7155247046
20
9.6019022953
30
0.0000000000
10
44.7289132397
20
9.6085513725
30
0.0000000000
11
44.3256930370
21
9.2363144177
31
0.0000000000
11
44.3597711639
21
9.2866474257
31
0.0000000000
11
44.6892701940
21
9.5876220308
31
0.0000000000
11
44.7289132397
21
9.6085513725
31
0.0000000000
0
SPLINE
5
24C
100
AcDbEntity
8
0
100
AcDbSpline
62
7
6
CONTINUOUS
70
0
71
3
72
11
73
7
74
5
42
0.0000001000
43
0.0000001000
44
0.0000000001
12
-2.8277221229
22
-1.4155927054
32
0.0000000000
13
0.0000000000
23
-3.1482940371
33
0.0000000000
40
0.0000000000
40
0.0000000000
40
0.0000000000
40
0.0000000000
40
0.2066708847
40
0.4438020375
40
0.7100116955
40
1.0000000000
40
1.0000000000
40
1.0000000000
40
1.0000000000
10
-57.0105023291
20
10.9003012537
30
0.0000000000
10
-57.2053049401
20
10.8027806548
30
0.0000000000
10
-57.5863246547
20
10.5183813114
30
0.0000000000
10
-58.0073823522
20
9.8883121687
30
0.0000000000
10
-58.2601693613
20
9.0861623626
30
0.0000000000
10
-58.3099175105
20
8.5002877370
30
0.0000000000
10
-58.3099175105
20
8.1959649203
30
0.0000000000
11
-57.0105023291
21
10.9003012537
31
0.0000000000
11
-57.5346203309
21
10.5141692131
31
0.0000000000
11
-57.9594843880
21
9.9002960437
31
0.0000000000
11
-58.2233894675
21
9.1048237039
31
0.0000000000
11
-58.3099175105
21
8.1959649203
31
0.0000000000
0
SPLINE
5
24D
100
AcDbEntity
8
0
100
AcDbSpline
62
7
6
CONTINUOUS
70
0
71
3
72
11
73
7
74
5
42
0.0000001000
43
0.0000001000
44
0.0000000001
12
2.0795181192
22
1.0410325174
32
0.0000000000
13
2.0708386380
23
-1.0354193190
33
0.0000000000
40
0.0000000000
40
0.0000000000
40
0.0000000000
40
0.0000000000
40
0.0132603554
40
0.3150215417
40
0.6427955956
40
1.0000000000
40
1.0000000000
40
1.0000000000
40
1.0000000000
10
-55.5962887668
20
11.6074080349
30
0.0000000000
10
-55.5870970503
20
11.6120095219
30
0.0000000000
10
-55.3678140709
20
11.7194784689
30
0.0000000000
10
-54.8768301117
20
11.8478828966
30
0.0000000000
10
-54.1063174632
20
11.7784560287
30
0.0000000000
10
-53.6067409363
20
11.5887172146
30
0.0000000000
10
-53.3601700422
20
11.4654317675
30
0.0000000000
11
-55.5962887668
21
11.6074080349
31
0.0000000000
11
-55.5685984704
21
11.6209780880
31
0.0000000000
11
-54.8942344617
21
11.8036148945
31
0.0000000000
11
-54.1373817724
21
11.7481162064
31
0.0000000000
11
-53.3601700422
21
11.4654317675
31
0.0000000000
0
SPLINE
5
24E
100
AcDbEntity
8
0
100
AcDbSpline
62
7
6
CONTINUOUS
70
0
71
3
72
9
73
5
74
3
42
0.0000001000
43
0.0000001000
44
0.0000000001
12
-0.5001690376
22
-1.5705100140
32
0.0000000000
13
-0.1336751893
23
-1.6419937421
33
0.0000000000
40
0.0000000000
40
0.0000000000
40
0.0000000000
40
0.0000000000
40
0.4676932553
40
1.0000000000
40
1.0000000000
40
1.0000000000
40
1.0000000000
10
-47.0637943403
20
-13.3141653578
30
0.0000000000
10
-47.1417695688
20
-13.5590043382
30
0.0000000000
10
-47.2840128947
20
-14.0903251249
30
0.0000000000
10
-47.3672589047
20
-14.6349547575
30
0.0000000000
10
-47.3909776397
20
-14.9263028720
30
0.0000000000
11
-47.0637943403
21
-13.3141653578
31
0.0000000000
11
-47.2619171623
21
-14.0589057717
31
0.0000000000
11
-47.3909776397
21
-14.9263028720
31
0.0000000000
0
SPLINE
5
24F
100
AcDbEntity
8
0
100
AcDbSpline
62
7
6
CONTINUOUS
70
0
71
3
72
9
73
5
74
3
42
0.0000001000
43
0.0000001000
44
0.0000000001
12
1.1743467599
22
-1.1709836571
32
0.0000000000
13
1.4818000126
23
-0.7409000063
33
0.0000000000
40
0.0000000000
40
0.0000000000
40
0.0000000000
40
0.0000000000
40
0.4439538577
40
1.0000000000
40
1.0000000000
40
1.0000000000
40
1.0000000000
10
-56.1031648976
20
-25.9320195988
30
0.0000000000
10
-55.9293796395
20
-26.1053071694
30
0.0000000000
10
-55.5156362366
20
-26.4732617509
30
0.0000000000
10
-55.0490333315
20
-26.7764552149
30
0.0000000000
10
-54.7743836046
20
-26.9137800783
30
0.0000000000
11
-56.1031648976
21
-25.9320195988
31
0.0000000000
11
-55.5515953348
21
-26.4192527870
31
0.0000000000
11
-54.7743836046
21
-26.9137800783
31
0.0000000000
0
SPLINE
5
250
100
AcDbEntity
8
0
100
AcDbSpline
62
7
6
CONTINUOUS
70
0
71
3
72
12
73
8
74
6
42
0.0000001000
43
0.0000001000
44
0.0000000001
12
0.2695044215
22
0.1361784974
32
0.0000000000
13
0.1662370475
23
0.2506877608
33
0.0000000000
40
0.0000000000
40
0.0000000000
40
0.0000000000
40
0.0000000000
40
0.0073231025
40
0.2350045285
40
0.4405990705
40
0.7114481932
40
1.0000000000
40
1.0000000000
40
1.0000000000
40
1.0000000000
10
-47.7323460461
20
-15.4888533265
30
0.0000000000
10
-47.7316881766
20
-15.4885209101
30
0.0000000000
10
-47.7106073156
20
-15.4778010748
30
0.0000000000
10
-47.6729370594
20
-15.4546893538
30
0.0000000000
10
-47.6176938113
20
-15.4105382811
30
0.0000000000
10
-47.5637301811
20
-15.3558069475
30
0.0000000000
10
-47.5297831565
20
-15.3110045314
30
0.0000000000
10
-47.5137938230
20
-15.2868923959
30
0.0000000000
11
-47.7323460461
21
-15.4888533265
31
0.0000000000
11
-47.7303753124
21
-15.4878512562
31
0.0000000000
11
-47.6718911194
21
-15.4523046430
31
0.0000000000
11
-47.6235157073
21
-15.4138455951
31
0.0000000000
11
-47.5662715198
21
-15.3559528528
31
0.0000000000
11
-47.5137938230
21
-15.2868923959
31
0.0000000000
0
SPLINE
5
251
100
AcDbEntity
8
0
100
AcDbSpline
62
7
6
CONTINUOUS
70
0
71
3
72
11
73
7
74
5
42
0.0000001000
43
0.0000001000
44
0.0000000001
12
0.2118634459
22
0.3194929990
32
0.0000000000
13
0.0324291910
23
0.3819864826
33
0.0000000000
40
0.0000000000
40
0.0000000000
40
0.0000000000
40
0.0000000000
40
0.2393278930
40
0.4872337972
40
0.7404616202
40
1.0000000000
40
1.0000000000
40
1.0000000000
40
1.0000000000
10
-47.5137938230
20
-15.2868923959
30
0.0000000000
10
-47.4968922123
20
-15.2614045338
30
0.0000000000
10
-47.4659438693
20
-15.2072358878
30
0.0000000000
10
-47.4294163024
20
-15.1197656435
30
0.0000000000
10
-47.4030510613
20
-15.0260295680
30
0.0000000000
10
-47.3931849112
20
-14.9611150917
30
0.0000000000
10
-47.3903793713
20
-14.9280683741
30
0.0000000000
11
-47.5137938230
21
-15.2868923959
31
0.0000000000
11
-47.4681565931
21
-15.2073721261
31
0.0000000000
11
-47.4314779587
21
-15.1197690405
31
0.0000000000
11
-47.4051980748
21
-15.0263859335
31
0.0000000000
11
-47.3903793713
21
-14.9280683741
31
0.0000000000
0
SPLINE
5
252
100
AcDbEntity
8
0
100
AcDbSpline
62
7
6
CONTINUOUS
70
0
71
3
72
9
73
5
74
3
42
0.0000001000
43
0.0000001000
44
0.0000000001
12
-0.7015721037
22
-0.3507860519
32
0.0000000000
13
-0.7820050871
23
-0.0879014359
33
0.0000000000
40
0.0000000000
40
0.0000000000
40
0.0000000000
40
0.0000000000
40
0.6997551303
40
1.0000000000
40
1.0000000000
40
1.0000000000
40
1.0000000000
10
-63.9667717600
20
-6.7983515447
30
0.0000000000
10
-64.1304146529
20
-6.8801729912
30
0.0000000000
10
-64.3767656424
20
-6.9751419066
30
0.0000000000
10
-64.6356591855
20
-7.0217292403
30
0.0000000000
10
-64.7139235240
20
-7.0305265587
30
0.0000000000
11
-63.9667717600
21
-6.7983515447
31
0.0000000000
11
-64.4813269426
21
-6.9893925709
31
0.0000000000
11
-64.7139235240
21
-7.0305265587
31
0.0000000000
0
SPLINE
5
253
100
AcDbEntity
8
0
100
AcDbSpline
62
7
6
CONTINUOUS
70
0
71
3
72
10
73
6
74
4
42
0.0000001000
43
0.0000001000
44
0.0000000001
12
0.1858502836
22
-2.0884472046
32
0.0000000000
13
1.7603092819
23
-1.1411763408
33
0.0000000000
40
0.0000000000
40
0.0000000000
40
0.0000000000
40
0.0000000000
40
0.3943742429
40
0.7298504047
40
1.0000000000
40
1.0000000000
40
1.0000000000
40
1.0000000000
10
-47.3914361825
20
-6.1506895945
30
0.0000000000
10
-47.3670046609
20
-6.4252328562
30
0.0000000000
10
-47.2758809437
20
-6.9317048419
30
0.0000000000
10
-46.9865723467
20
-7.5772980539
30
0.0000000000
10
-46.6822189725
20
-7.8909568984
30
0.0000000000
10
-46.5237033592
20
-7.9937196740
30
0.0000000000
11
-47.3914361825
21
-6.1506895945
31
0.0000000000
11
-47.2334818089
21
-6.9622739663
31
0.0000000000
11
-46.9280470518
21
-7.5957446547
31
0.0000000000
11
-46.5237033592
21
-7.9937196740
31
0.0000000000
0
SPLINE
5
254
100
AcDbEntity
8
0
100
AcDbSpline
62
7
6
CONTINUOUS
70
0
71
3
72
9
73
5
74
3
42
0.0000001000
43
0.0000001000
44
0.0000000001
12
-0.7015721037
22
-0.3507860519
32
0.0000000000
13
-0.7820050871
23
-0.0879014359
33
0.0000000000
40
0.0000000000
40
0.0000000000
40
0.0000000000
40
0.0000000000
40
0.6997551303
40
1.0000000000
40
1.0000000000
40
1.0000000000
40
1.0000000000
10
-63.9667717600
20
-34.5111644658
30
0.0000000000
10
-64.1304146529
20
-34.5929859123
30
0.0000000000
10
-64.3767656424
20
-34.6879548277
30
0.0000000000
10
-64.6356591855
20
-34.7345421614
30
0.0000000000
10
-64.7139235240
20
-34.7433394798
30
0.0000000000
11
-63.9667717600
21
-34.5111644658
31
0.0000000000
11
-64.4813269426
21
-34.7022054920
31
0.0000000000
11
-64.7139235240
21
-34.7433394798
31
0.0000000000
0
SPLINE
5
255
100
AcDbEntity
8
0
100
AcDbSpline
62
7
6
CONTINUOUS
70
0
71
3
72
28
73
24
74
22
42
0.0000001000
43
0.0000001000
44
0.0000000001
12
-0.0657797178
22
0.6771065016
32
0.0000000000
13
-0.6085196946
23
0.3053058021
33
0.0000000000
40
0.0000000000
40
0.0000000000
40
0.0000000000
40
0.0000000000
40
0.0126063498
40
0.0726384169
40
0.1319791833
40
0.1906270334
40
0.2484838522
40
0.3053756704
40
0.3610768001
40
0.4152961453
40
0.4678202929
40
0.5189513898
40
0.5688067702
40
0.6177683678
40
0.6664457128
40
0.7154577183
40
0.7649935449
40
0.8143586892
40
0.8618259361
40
0.8975421192
40
0.9316766445
40
0.9746620156
40
1.0000000000
40
1.0000000000
40
1.0000000000
40
1.0000000000
10
-47.3918715954
20
-6.1496789434
30
0.0000000000
10
-47.3921480095
20
-6.1468336629
30
0.0000000000
10
-47.3938277933
20
-6.1304474853
30
0.0000000000
10
-47.3977858926
20
-6.1007724523
30
0.0000000000
10
-47.4050792855
20
-6.0610560641
30
0.0000000000
10
-47.4141487727
20
-6.0222143330
30
0.0000000000
10
-47.4248803443
20
-5.9843760662
30
0.0000000000
10
-47.4371525322
20
-5.9477131916
30
0.0000000000
10
-47.4508332869
20
-5.9124355539
30
0.0000000000
10
-47.4657831388
20
-5.8787567192
30
0.0000000000
10
-47.4819297566
20
-5.8467911915
30
0.0000000000
10
-47.4991860790
20
-5.8165452616
30
0.0000000000
10
-47.5175225075
20
-5.7878965060
30
0.0000000000
10
-47.5369819454
20
-5.7606793389
30
0.0000000000
10
-47.5577160760
20
-5.7346636468
30
0.0000000000
10
-47.5799006202
20
-5.7096973695
30
0.0000000000
10
-47.6035389059
20
-5.6858810504
30
0.0000000000
10
-47.6282140048
20
-5.6636611701
30
0.0000000000
10
-47.6516295036
20
-5.6447961834
30
0.0000000000
10
-47.6730906325
20
-5.6290702799
30
0.0000000000
10
-47.6942909023
20
-5.6147300211
30
0.0000000000
10
-47.7141847395
20
-5.6027293513
30
0.0000000000
10
-47.7278717417
20
-5.5954074452
30
0.0000000000
10
-47.7330112959
20
-5.5928288340
30
0.0000000000
11
-47.3918715954
21
-6.1496789434
31
0.0000000000
11
-47.3927460798
21
-6.1411476594
31
0.0000000000
11
-47.3981380802
21
-6.1006697413
31
0.0000000000
11
-47.4054242392
21
-6.0609675571
31
0.0000000000
11
-47.4144940686
21
-6.0221183568
31
0.0000000000
11
-47.4252349503
21
-5.9842565972
31
0.0000000000
11
-47.4375261306
21
-5.9475609670
31
0.0000000000
11
-47.4512375687
21
-5.9122394925
31
0.0000000000
11
-47.4662212845
21
-5.8785388555
31
0.0000000000
11
-47.4823420084
21
-5.8466540782
31
0.0000000000
11
-47.4995851052
21
-5.8164484744
31
0.0000000000
11
-47.5178744886
21
-5.7878899308
31
0.0000000000
11
-47.5372514834
21
-5.7608019797
31
0.0000000000
11
-47.5578943399
21
-5.7349126885
31
0.0000000000
11
-47.5800441823
21
-5.7099949306
31
0.0000000000
11
-47.6037837784
21
-5.6860820159
31
0.0000000000
11
-47.6287371405
21
-5.6636117067
31
0.0000000000
11
-47.6538753757
21
-5.6433479857
31
0.0000000000
11
-47.6734704438
21
-5.6289852973
31
0.0000000000
11
-47.6927228443
21
-5.6160053718
31
0.0000000000
11
-47.7177778763
21
-5.6009317735
31
0.0000000000
11
-47.7330112959
21
-5.5928288340
31
0.0000000000
0
SPLINE
5
256
100
AcDbEntity
8
0
100
AcDbSpline
62
7
6
CONTINUOUS
70
0
71
3
72
12
73
8
74
6
42
0.0000001000
43
0.0000001000
44
0.0000000001
12
0.0000000000
22
-0.8523607339
32
0.0000000000
13
0.8744689866
23
-0.0607869167
33
0.0000000000
40
0.0000000000
40
0.0000000000
40
0.0000000000
40
0.0000000000
40
0.2444347680
40
0.5054882114
40
0.7514874981
40
0.9578769265
40
1.0000000000
40
1.0000000000
40
1.0000000000
40
1.0000000000
10
42.3113774523
20
5.9583420605
30
0.0000000000
10
42.3113774523
20
5.8888931945
30
0.0000000000
10
42.3387051267
20
5.7450598135
30
0.0000000000
10
42.4339045293
20
5.5513828095
30
0.0000000000
10
42.5703722975
20
5.3979693076
30
0.0000000000
10
42.6956789045
20
5.3259900230
30
0.0000000000
10
42.7677857586
20
5.3159040325
30
0.0000000000
10
42.7800641991
20
5.3150505219
30
0.0000000000
11
42.3113774523
21
5.9583420605
31
0.0000000000
11
42.3463902449
21
5.7529584941
31
0.0000000000
11
42.4444939095
21
5.5532408693
31
0.0000000000
11
42.5862578123
21
5.3987457112
31
0.0000000000
11
42.7436038736
21
5.3200726805
31
0.0000000000
11
42.7800641991
21
5.3150505219
31
0.0000000000
0
SPLINE
5
257
100
AcDbEntity
8
0
100
AcDbSpline
62
7
6
CONTINUOUS
70
0
71
3
72
10
73
6
74
4
42
0.0000001000
43
0.0000001000
44
0.0000000001
12
0.0000000000
22
1.6970834306
32
0.0000000000
13
1.2650425359
23
1.1405671746
33
0.0000000000
40
0.0000000000
40
0.0000000000
40
0.0000000000
40
0.0000000000
40
0.3643415471
40
0.7377572530
40
1.0000000000
40
1.0000000000
40
1.0000000000
40
1.0000000000
10
24.9621350474
20
9.4687497006
30
0.0000000000
10
24.9621350474
20
9.6748557015
30
0.0000000000
10
25.0327143551
20
10.0952595832
30
0.0000000000
10
25.3037629194
20
10.6019077692
30
0.0000000000
10
25.5488055811
20
10.8690158074
30
0.0000000000
10
25.6593883244
20
10.9687176304
30
0.0000000000
11
24.9621350474
21
9.4687497006
31
0.0000000000
11
25.0634026134
21
10.0787185789
31
0.0000000000
11
25.3590012154
21
10.6392714062
31
0.0000000000
11
25.6593883244
21
10.9687176304
31
0.0000000000
0
SPLINE
5
258
100
AcDbEntity
8
0
100
AcDbSpline
62
7
6
CONTINUOUS
70
0
71
3
72
12
73
8
74
6
42
0.0000001000
43
0.0000001000
44
0.0000000001
12
6.7806175300
22
3.3903087650
32
0.0000000000
13
-0.0000000000
23
7.5809608633
33
0.0000000000
40
0.0000000000
40
0.0000000000
40
0.0000000000
40
0.0000000000
40
0.2443907903
40
0.4656505255
40
0.6598407760
40
0.8343417827
40
1.0000000000
40
1.0000000000
40
1.0000000000
40
1.0000000000
10
25.6512368480
20
-5.5203666041
30
0.0000000000
10
26.2036103404
20
-5.2441798579
30
0.0000000000
10
27.2200911494
20
-4.6382796629
30
0.0000000000
10
28.4747631566
20
-3.5222483863
30
0.0000000000
10
29.3495269766
20
-2.2978808817
30
0.0000000000
10
29.8523949101
20
-1.0306432695
30
0.0000000000
10
29.9621350474
20
-0.1673808748
30
0.0000000000
10
29.9621350474
20
0.2512352794
30
0.0000000000
11
25.6512368480
21
-5.5203666041
31
0.0000000000
11
27.2344843095
21
-4.5581359558
31
0.0000000000
11
28.4768959321
21
-3.4312133306
31
0.0000000000
11
29.3233175194
21
-2.2267249498
31
0.0000000000
11
29.8053520792
21
-0.9947881800
31
0.0000000000
11
29.9621350474
21
0.2512352794
31
0.0000000000
0
SPLINE
5
259
100
AcDbEntity
8
0
100
AcDbSpline
62
7
6
CONTINUOUS
70
0
71
3
72
11
73
7
74
5
42
0.0000001000
43
0.0000001000
44
0.0000000001
12
1.8394584678
22
0.9197292339
32
0.0000000000
13
0.5086539172
23
2.0113207936
33
0.0000000000
40
0.0000000000
40
0.0000000000
40
0.0000000000
40
0.0000000000
40
0.4724593266
40
0.7926366974
40
0.9648241158
40
1.0000000000
40
1.0000000000
40
1.0000000000
40
1.0000000000
10
23.4151688705
20
-1.0482306491
30
0.0000000000
10
23.7048586402
20
-0.9033857643
30
0.0000000000
10
24.1800628675
20
-0.6293992031
30
0.0000000000
10
24.6787975715
20
-0.1970065423
30
0.0000000000
10
24.9116404443
20
0.0926434331
30
0.0000000000
10
24.9561709303
20
0.2276519502
30
0.0000000000
10
24.9621350474
20
0.2512352794
30
0.0000000000
11
23.4151688705
21
-1.0482306491
31
0.0000000000
11
24.2480965338
21
-0.5478974226
31
0.0000000000
11
24.7395675590
21
-0.1096757423
31
0.0000000000
11
24.9397108577
21
0.1824565853
31
0.0000000000
11
24.9621350474
21
0.2512352794
31
0.0000000000
0
SPLINE
5
25A
100
AcDbEntity
8
0
100
AcDbSpline
62
7
6
CONTINUOUS
70
0
71
3
72
14
73
10
74
8
42
0.0000001000
43
0.0000001000
44
0.0000000001
12
15.0892338836
22
-7.5446169418
32
0.0000000000
13
15.0892338836
23
7.5446169418
33
0.0000000000
40
0.0000000000
40
0.0000000000
40
0.0000000000
40
0.0000000000
40
0.1373188474
40
0.2805095536
40
0.4271618844
40
0.5749191208
40
0.7211876439
40
0.8635806212
40
1.0000000000
40
1.0000000000
40
1.0000000000
40
1.0000000000
10
-26.6889075303
20
-23.5013369926
30
0.0000000000
10
-25.9982287952
20
-23.8466763602
30
0.0000000000
10
-24.5207262954
20
-24.4221794360
30
0.0000000000
10
-22.1762021915
20
-24.9713901175
30
0.0000000000
10
-19.7247781483
20
-25.2423185704
30
0.0000000000
10
-17.2417945619
20
-25.2404010972
30
0.0000000000
10
-14.7974054077
20
-24.9665958228
30
0.0000000000
10
-12.4649981771
20
-24.4172641841
30
0.0000000000
10
-10.9968585665
20
-23.8444143114
30
0.0000000000
10
-10.3107039291
20
-23.5013369926
30
0.0000000000
11
-26.6889075303
21
-23.5013369926
31
0.0000000000
11
-24.5367716968
21
-24.3586460965
31
0.0000000000
11
-22.1871823558
21
-24.9197841688
31
0.0000000000
11
-19.7285943591
21
-25.1960890902
31
0.0000000000
11
-17.2358897175
21
-25.1941322284
31
0.0000000000
11
-14.7841509887
21
-24.9148839214
31
0.0000000000
11
-12.4483132622
21
-24.3541080269
31
0.0000000000
11
-10.3107039291
21
-23.5013369926
31
0.0000000000
0
SPLINE
5
25B
100
AcDbEntity
8
0
100
AcDbSpline
62
7
6
CONTINUOUS
70
0
71
3
72
15
73
11
74
9
42
0.0000001000
43
0.0000001000
44
0.0000000001
12
10.9473818170
22
-5.4736909085
32
0.0000000000
13
10.9473818170
23
5.4736909085
33
0.0000000000
40
0.0000000000
40
0.0000000000
40
0.0000000000
40
0.0000000000
40
0.1011098316
40
0.2217458677
40
0.3566241292
40
0.4989904177
40
0.6415564919
40
0.7769835963
40
0.8983787218
40
1.0000000000
40
1.0000000000
40
1.0000000000
40
1.0000000000
10
-24.4528395528
20
-19.0292010376
30
0.0000000000
10
-24.0838769089
20
-19.2136823596
30
0.0000000000
10
-23.2414128688
20
-19.5524623336
30
0.0000000000
10
-21.8326040797
20
-19.9274198698
30
0.0000000000
10
-20.2248216253
20
-20.1725996426
30
0.0000000000
10
-18.5113844226
20
-20.2584868002
30
0.0000000000
10
-16.7955892318
20
-20.1747947703
30
0.0000000000
10
-15.1814052657
20
-19.9306357155
30
0.0000000000
10
-13.7650511000
20
-19.5550153323
30
0.0000000000
10
-12.9176008841
20
-19.2146155264
30
0.0000000000
10
-12.5467719066
20
-19.0292010376
30
0.0000000000
11
-24.4528395528
21
-19.0292010376
31
0.0000000000
11
-23.3086280246
21
-19.5006679989
31
0.0000000000
11
-21.8837141114
21
-19.8876586150
31
0.0000000000
11
-20.2524165933
21
-20.1409752710
31
0.0000000000
11
-18.5121798854
21
-20.2297307344
31
0.0000000000
11
-16.7693811797
21
-20.1432333517
31
0.0000000000
11
-15.1311373217
21
-19.8908793431
31
0.0000000000
11
-13.6969247849
21
-19.5026799977
31
0.0000000000
11
-12.5467719066
21
-19.0292010376
31
0.0000000000
0
SPLINE
5
25C
100
AcDbEntity
8
0
100
AcDbSpline
62
7
6
CONTINUOUS
70
0
71
3
72
15
73
11
74
9
42
0.0000001000
43
0.0000001000
44
0.0000000001
12
-10.9473818170
22
5.4736909085
32
0.0000000000
13
-10.9473818170
23
-5.4736909085
33
0.0000000000
40
0.0000000000
40
0.0000000000
40
0.0000000000
40
0.0000000000
40
0.1011098316
40
0.2217458677
40
0.3566241292
40
0.4989904177
40
0.6415564919
40
0.7769835963
40
0.8983787218
40
1.0000000000
40
1.0000000000
40
1.0000000000
40
1.0000000000
10
36.9507027765
20
33.0672055023
30
0.0000000000
10
36.5817401326
20
33.2516868242
30
0.0000000000
10
35.7392760925
20
33.5904667982
30
0.0000000000
10
34.3304673034
20
33.9654243344
30
0.0000000000
10
32.7226848490
20
34.2106041072
30
0.0000000000
10
31.0092476463
20
34.2964912648
30
0.0000000000
10
29.2934524555
20
34.2127992350
30
0.0000000000
10
27.6792684894
20
33.9686401801
30
0.0000000000
10
26.2629143237
20
33.5930197969
30
0.0000000000
10
25.4154641078
20
33.2526199911
30
0.0000000000
10
25.0446351302
20
33.0672055023
30
0.0000000000
11
36.9507027765
21
33.0672055023
31
0.0000000000
11
35.8064912482
21
33.5386724635
31
0.0000000000
11
34.3815773351
21
33.9256630797
31
0.0000000000
11
32.7502798170
21
34.1789797357
31
0.0000000000
11
31.0100431090
21
34.2677351990
31
0.0000000000
11
29.2672444034
21
34.1812378163
31
0.0000000000
11
27.6290005454
21
33.9288838077
31
0.0000000000
11
26.1947880086
21
33.5406844624
31
0.0000000000
11
25.0446351302
21
33.0672055023
31
0.0000000000
0
SPLINE
5
25D
100
AcDbEntity
8
0
100
AcDbSpline
62
7
6
CONTINUOUS
70
0
71
3
72
14
73
10
74
8
42
0.0000001000
43
0.0000001000
44
0.0000000001
12
-15.0892338836
22
7.5446169418
32
0.0000000000
13
-15.0892338836
23
-7.5446169418
33
0.0000000000
40
0.0000000000
40
0.0000000000
40
0.0000000000
40
0.0000000000
40
0.1373188474
40
0.2805095536
40
0.4271618844
40
0.5749191208
40
0.7211876439
40
0.8635806212
40
1.0000000000
40
1.0000000000
40
1.0000000000
40
1.0000000000
10
39.1867707540
20
37.5393414573
30
0.0000000000
10
38.4960920189
20
37.8846808248
30
0.0000000000
10
37.0185895191
20
38.4601839006
30
0.0000000000
10
34.6740654151
20
39.0093945821
30
0.0000000000
10
32.2226413720
20
39.2803230351
30
0.0000000000
10
29.7396577856
20
39.2784055618
30
0.0000000000
10
27.2952686314
20
39.0046002874
30
0.0000000000
10
24.9628614008
20
38.4552686487
30
0.0000000000
10
23.4947217902
20
37.8824187760
30
0.0000000000
10
22.8085671527
20
37.5393414573
30
0.0000000000
11
39.1867707540
21
37.5393414573
31
0.0000000000
11
37.0346349205
21
38.3966505612
31
0.0000000000
11
34.6850455795
21
38.9577886335
31
0.0000000000
11
32.2264575827
21
39.2340935549
31
0.0000000000
11
29.7337529412
21
39.2321366931
31
0.0000000000
11
27.2820142124
21
38.9528883860
31
0.0000000000
11
24.9461764859
21
38.3921124916
31
0.0000000000
11
22.8085671527
21
37.5393414573
31
0.0000000000
0
SPLINE
5
25E
100
AcDbEntity
8
0
100
AcDbSpline
62
7
6
CONTINUOUS
70
0
71
3
72
12
73
8
74
6
42
0.0000001000
43
0.0000001000
44
0.0000000001
12
6.7772524636
22
3.3886262318
32
0.0000000000
13
0.0013517539
23
7.6021598308
33
0.0000000000
40
0.0000000000
40
0.0000000000
40
0.0000000000
40
0.0000000000
40
0.2686047081
40
0.5068437585
40
0.7142641694
40
0.9019540600
40
1.0000000000
40
1.0000000000
40
1.0000000000
40
1.0000000000
10
63.9355080955
20
13.6217690197
30
0.0000000000
10
64.5423087354
20
13.9251693396
30
0.0000000000
10
65.6450261994
20
14.5929973346
30
0.0000000000
10
66.9682132160
20
15.8429404395
30
0.0000000000
10
67.8312677376
20
17.2118942114
30
0.0000000000
10
68.1924736304
20
18.4203512546
30
0.0000000000
10
68.2461771024
20
19.1444271150
30
0.0000000000
10
68.2462212804
20
19.3928807506
30
0.0000000000
11
63.9355080955
21
13.6217690197
31
0.0000000000
11
65.6650931910
21
14.6945524714
31
0.0000000000
11
66.9629214463
21
15.9492768478
31
0.0000000000
11
67.7895272132
21
17.2860101102
31
0.0000000000
11
68.1910037926
21
18.6503289133
31
0.0000000000
11
68.2462212804
21
19.3928807506
31
0.0000000000
0
SPLINE
5
25F
100
AcDbEntity
8
0
100
AcDbSpline
62
7
6
CONTINUOUS
70
0
71
3
72
11
73
7
74
5
42
0.0000001000
43
0.0000001000
44
0.0000000001
12
-0.0064255619
22
1.9747297057
32
0.0000000000
13
-1.8392354475
23
0.9196177237
33
0.0000000000
40
0.0000000000
40
0.0000000000
40
0.0000000000
40
0.0000000000
40
0.0346052406
40
0.2076175627
40
0.5287788551
40
1.0000000000
40
1.0000000000
40
1.0000000000
40
1.0000000000
10
63.2464059096
20
19.3935991174
30
0.0000000000
10
63.2463317902
20
19.4163777829
30
0.0000000000
10
63.1818884843
20
19.5530285593
30
0.0000000000
10
62.9734602567
20
19.8414855352
30
0.0000000000
10
62.4575245194
20
20.2750242416
30
0.0000000000
10
61.9883356624
20
20.5483890593
30
0.0000000000
10
61.6994401180
20
20.6928368315
30
0.0000000000
11
63.2464059096
21
19.3935991174
31
0.0000000000
11
63.2243660458
21
19.4612812166
31
0.0000000000
11
63.0233600576
21
19.7548266348
31
0.0000000000
11
62.5302108811
21
20.1940863032
31
0.0000000000
11
61.6994401180
21
20.6928368315
31
0.0000000000
0
SPLINE
5
260
100
AcDbEntity
8
0
100
AcDbSpline
62
7
6
CONTINUOUS
70
0
71
3
72
11
73
7
74
5
42
0.0000001000
43
0.0000001000
44
0.0000000001
12
1.8396618500
22
0.9198309250
32
0.0000000000
13
-0.0064270516
23
1.9751875208
33
0.0000000000
40
0.0000000000
40
0.0000000000
40
0.0000000000
40
0.0000000000
40
0.4727958316
40
0.7936328497
40
0.9651261297
40
1.0000000000
40
1.0000000000
40
1.0000000000
40
1.0000000000
10
61.6994401180
20
18.0939049747
30
0.0000000000
10
61.9893682694
20
18.2388690504
30
0.0000000000
10
62.4593316334
20
18.5128334159
30
0.0000000000
10
62.9749892632
20
18.9468186018
30
0.0000000000
10
63.1823793521
20
19.2347549207
30
0.0000000000
10
63.2464806216
20
19.3706383062
30
0.0000000000
10
63.2464059096
20
19.3935991174
30
0.0000000000
11
61.6994401180
21
18.0939049747
31
0.0000000000
11
62.5330149841
21
18.5947135098
31
0.0000000000
11
63.0253200600
21
19.0341477164
31
0.0000000000
11
63.2243280173
21
19.3253743944
31
0.0000000000
11
63.2464059096
21
19.3935991174
31
0.0000000000
0
SPLINE
5
261
100
AcDbEntity
8
0
100
AcDbSpline
62
7
6
CONTINUOUS
70
0
71
3
72
12
73
8
74
6
42
0.0000001000
43
0.0000001000
44
0.0000000001
12
0.0013518180
22
7.6025204295
32
0.0000000000
13
-6.7775739339
23
3.3887869670
33
0.0000000000
40
0.0000000000
40
0.0000000000
40
0.0000000000
40
0.0000000000
40
0.0847950919
40
0.2747393959
40
0.4857415241
40
0.7283460798
40
1.0000000000
40
1.0000000000
40
1.0000000000
40
1.0000000000
10
68.2462212804
20
19.3928807506
30
0.0000000000
10
68.2462594896
20
19.6077662233
30
0.0000000000
10
68.2018280807
20
20.3039984881
30
0.0000000000
10
67.8672602617
20
21.5011081717
30
0.0000000000
10
67.0058270657
20
22.9030954926
30
0.0000000000
10
65.6677039308
20
24.1793938378
30
0.0000000000
10
64.5492262716
20
24.8581136985
30
0.0000000000
10
63.9355080955
20
25.1649727865
30
0.0000000000
11
68.2462212804
21
19.3928807506
31
0.0000000000
11
68.2050394493
21
20.0357111041
31
0.0000000000
11
67.8232940426
21
21.4234773627
31
0.0000000000
11
66.9984192519
21
22.7931494447
31
0.0000000000
11
65.6835425626
21
24.0779180509
31
0.0000000000
11
63.9355080955
21
25.1649727865
31
0.0000000000
0
SPLINE
5
262
100
AcDbEntity
8
0
100
AcDbSpline
62
7
6
CONTINUOUS
70
0
71
3
72
9
73
5
74
3
42
0.0000001000
43
0.0000001000
44
0.0000000001
12
-0.4967160887
22
-0.2466814789
32
0.0000000000
13
-0.5522684218
23
0.0420367256
33
0.0000000000
40
0.0000000000
40
0.0000000000
40
0.0000000000
40
0.0000000000
40
0.7180777760
40
1.0000000000
40
1.0000000000
40
1.0000000000
40
1.0000000000
10
46.9649094769
20
5.1365598733
30
0.0000000000
10
46.8460158821
20
5.0775143774
30
0.0000000000
10
46.6619841975
20
5.0311962778
30
0.0000000000
10
46.4770808384
20
5.0333072062
30
0.0000000000
10
46.4251819245
20
5.0372575686
30
0.0000000000
11
46.9649094769
21
5.1365598733
31
0.0000000000
11
46.5812682900
21
5.0359661169
31
0.0000000000
11
46.4251819245
21
5.0372575686
31
0.0000000000
0
SPLINE
5
263
100
AcDbEntity
8
0
100
AcDbSpline
62
7
6
CONTINUOUS
70
0
71
3
72
17
73
13
74
11
42
0.0000001000
43
0.0000001000
44
0.0000000001
12
3.3142790975
22
-5.6344269463
32
0.0000000000
13
-5.8292134121
23
-2.9146067061
33
0.0000000000
40
0.0000000000
40
0.0000000000
40
0.0000000000
40
0.0000000000
40
0.0737574867
40
0.1621640085
40
0.2593935585
40
0.3640608413
40
0.4738835506
40
0.5860430215
40
0.6974957335
40
0.8052650908
40
0.9067389707
40
1.0000000000
40
1.0000000000
40
1.0000000000
40
1.0000000000
10
-53.1772871984
20
-24.6118462132
30
0.0000000000
10
-53.0958028996
20
-24.7503732702
30
0.0000000000
10
-52.9584213731
20
-25.0784760892
30
0.0000000000
10
-52.8584602845
20
-25.6369886708
30
0.0000000000
10
-52.8630648537
20
-26.2706023707
30
0.0000000000
10
-52.9732343199
20
-26.9411883610
30
0.0000000000
10
-53.1840482937
20
-27.6209457539
30
0.0000000000
10
-53.4865399702
20
-28.2812792042
30
0.0000000000
10
-53.8678585094
20
-28.8942208845
30
0.0000000000
10
-54.3120302507
20
-29.4338888367
30
0.0000000000
10
-54.8002070733
20
-29.8773694427
30
0.0000000000
10
-55.1588562153
20
-30.1072066935
30
0.0000000000
10
-55.3400690295
20
-30.1978131006
30
0.0000000000
11
-53.1772871984
21
-24.6118462132
31
0.0000000000
11
-52.9863242376
21
-25.0531938057
31
0.0000000000
11
-52.8787529126
21
-25.6192310628
31
0.0000000000
11
-52.8787529126
21
-26.2529011950
31
0.0000000000
11
-52.9863242376
21
-26.9265097771
31
0.0000000000
11
-53.1967655046
21
-27.6106168815
31
0.0000000000
11
-53.5008794203
21
-28.2753237452
31
0.0000000000
11
-53.8853747473
21
-28.8915794885
31
0.0000000000
11
-54.3334471948
21
-29.4324507784
31
0.0000000000
11
-54.8255138469
21
-29.8742989441
31
0.0000000000
11
-55.3400690295
21
-30.1978131006
31
0.0000000000
0
SPLINE
5
264
100
AcDbEntity
8
0
100
AcDbSpline
62
7
6
CONTINUOUS
70
0
71
3
72
19
73
15
74
13
42
0.0000001000
43
0.0000001000
44
0.0000000001
12
-6.6067262161
22
3.3113691204
32
0.0000000000
13
6.5788401672
23
3.2894200836
33
0.0000000000
40
0.0000000000
40
0.0000000000
40
0.0000000000
40
0.0000000000
40
0.0446997208
40
0.1088314443
40
0.1792983043
40
0.2576313340
40
0.3437820509
40
0.4365230072
40
0.5338319544
40
0.6332114005
40
0.7319646195
40
0.8274541840
40
0.9173656102
40
1.0000000000
40
1.0000000000
40
1.0000000000
40
1.0000000000
10
-64.1174827998
20
-35.3176998450
30
0.0000000000
10
-64.2159224055
20
-35.2683607533
30
0.0000000000
10
-64.4407853062
20
-35.1181614767
30
0.0000000000
10
-64.7244435442
20
-34.7729686042
30
0.0000000000
10
-64.9319818035
20
-34.2878568692
30
0.0000000000
10
-65.0341669426
20
-33.7169178503
30
0.0000000000
10
-65.0295623734
20
-33.0833041504
30
0.0000000000
10
-64.9193929072
20
-32.4127181601
30
0.0000000000
10
-64.7085789335
20
-31.7329607672
30
0.0000000000
10
-64.4060872569
20
-31.0726273169
30
0.0000000000
10
-64.0247687178
20
-30.4596856366
30
0.0000000000
10
-63.5805969765
20
-29.9200176844
30
0.0000000000
10
-63.0924201538
20
-29.4765370784
30
0.0000000000
10
-62.7337710118
20
-29.2466998276
30
0.0000000000
10
-62.5525581976
20
-29.1560934205
30
0.0000000000
11
-64.1174827998
21
-35.3176998450
31
0.0000000000
11
-64.3917478069
21
-35.1349715008
31
0.0000000000
11
-64.6958617226
21
-34.7743785529
31
0.0000000000
11
-64.9063029895
21
-34.3007127154
31
0.0000000000
11
-65.0138743145
21
-33.7346754583
31
0.0000000000
11
-65.0138743145
21
-33.1010053261
31
0.0000000000
11
-64.9063029895
21
-32.4273967440
31
0.0000000000
11
-64.6958617226
21
-31.7432896396
31
0.0000000000
11
-64.3917478069
21
-31.0785827759
31
0.0000000000
11
-64.0072524798
21
-30.4623270326
31
0.0000000000
11
-63.5591800323
21
-29.9214557427
31
0.0000000000
11
-63.0671133802
21
-29.4796075770
31
0.0000000000
11
-62.5525581976
21
-29.1560934205
31
0.0000000000
0
SPLINE
5
265
100
AcDbEntity
8
0
100
AcDbSpline
62
7
6
CONTINUOUS
70
0
71
3
72
19
73
15
74
13
42
0.0000001000
43
0.0000001000
44
0.0000000001
12
-6.6067262160
22
3.3113691204
32
0.0000000000
13
6.5788401672
23
3.2894200836
33
0.0000000000
40
0.0000000000
40
0.0000000000
40
0.0000000000
40
0.0000000000
40
0.0446997208
40
0.1088314443
40
0.1792983043
40
0.2576313340
40
0.3437820509
40
0.4365230072
40
0.5338319544
40
0.6332114005
40
0.7319646195
40
0.8274541840
40
0.9173656102
40
1.0000000000
40
1.0000000000
40
1.0000000000
40
1.0000000000
10
-64.1174827998
20
-7.6048869239
30
0.0000000000
10
-64.2159224055
20
-7.5555478322
30
0.0000000000
10
-64.4407853062
20
-7.4053485556
30
0.0000000000
10
-64.7244435442
20
-7.0601556831
30
0.0000000000
10
-64.9319818035
20
-6.5750439481
30
0.0000000000
10
-65.0341669426
20
-6.0041049292
30
0.0000000000
10
-65.0295623734
20
-5.3704912293
30
0.0000000000
10
-64.9193929072
20
-4.6999052390
30
0.0000000000
10
-64.7085789335
20
-4.0201478461
30
0.0000000000
10
-64.4060872569
20
-3.3598143958
30
0.0000000000
10
-64.0247687178
20
-2.7468727155
30
0.0000000000
10
-63.5805969765
20
-2.2072047633
30
0.0000000000
10
-63.0924201538
20
-1.7637241573
30
0.0000000000
10
-62.7337710118
20
-1.5338869065
30
0.0000000000
10
-62.5525581976
20
-1.4432804994
30
0.0000000000
11
-64.1174827998
21
-7.6048869239
31
0.0000000000
11
-64.3917478069
21
-7.4221585797
31
0.0000000000
11
-64.6958617226
21
-7.0615656318
31
0.0000000000
11
-64.9063029895
21
-6.5878997943
31
0.0000000000
11
-65.0138743145
21
-6.0218625372
31
0.0000000000
11
-65.0138743145
21
-5.3881924050
31
0.0000000000
11
-64.9063029895
21
-4.7145838229
31
0.0000000000
11
-64.6958617226
21
-4.0304767185
31
0.0000000000
11
-64.3917478069
21
-3.3657698548
31
0.0000000000
11
-64.0072524798
21
-2.7495141115
31
0.0000000000
11
-63.5591800323
21
-2.2086428216
31
0.0000000000
11
-63.0671133802
21
-1.7667946559
31
0.0000000000
11
-62.5525581976
21
-1.4432804994
31
0.0000000000
0
SPLINE
5
266
100
AcDbEntity
8
0
100
AcDbSpline
62
7
6
CONTINUOUS
70
0
71
3
72
17
73
13
74
11
42
0.0000001000
43
0.0000001000
44
0.0000000001
12
3.3142790975
22
-5.6344269463
32
0.0000000000
13
-5.8292134121
23
-2.9146067061
33
0.0000000000
40
0.0000000000
40
0.0000000000
40
0.0000000000
40
0.0000000000
40
0.0737574867
40
0.1621640085
40
0.2593935585
40
0.3640608413
40
0.4738835506
40
0.5860430215
40
0.6974957335
40
0.8052650908
40
0.9067389707
40
1.0000000000
40
1.0000000000
40
1.0000000000
40
1.0000000000
10
-53.1772871984
20
3.1009667079
30
0.0000000000
10
-53.0958028996
20
2.9624396510
30
0.0000000000
10
-52.9584213731
20
2.6343368319
30
0.0000000000
10
-52.8584602845
20
2.0758242503
30
0.0000000000
10
-52.8630648537
20
1.4422105504
30
0.0000000000
10
-52.9732343199
20
0.7716245601
30
0.0000000000
10
-53.1840482937
20
0.0918671672
30
0.0000000000
10
-53.4865399702
20
-0.5684662831
30
0.0000000000
10
-53.8678585094
20
-1.1814079634
30
0.0000000000
10
-54.3120302507
20
-1.7210759156
30
0.0000000000
10
-54.8002070733
20
-2.1645565216
30
0.0000000000
10
-55.1588562153
20
-2.3943937724
30
0.0000000000
10
-55.3400690295
20
-2.4850001795
30
0.0000000000
11
-53.1772871984
21
3.1009667079
31
0.0000000000
11
-52.9863242376
21
2.6596191154
31
0.0000000000
11
-52.8787529126
21
2.0935818583
31
0.0000000000
11
-52.8787529126
21
1.4599117261
31
0.0000000000
11
-52.9863242376
21
0.7863031440
31
0.0000000000
11
-53.1967655046
21
0.1021960396
31
0.0000000000
11
-53.5008794203
21
-0.5625108241
31
0.0000000000
11
-53.8853747473
21
-1.1787665674
31
0.0000000000
11
-54.3334471948
21
-1.7196378573
31
0.0000000000
11
-54.8255138469
21
-2.1614860230
31
0.0000000000
11
-55.3400690295
21
-2.4850001795
31
0.0000000000
0
SPLINE
5
267
100
AcDbEntity
8
0
100
AcDbSpline
62
7
6
CONTINUOUS
70
0
71
3
72
10
73
6
74
4
42
0.0000001000
43
0.0000001000
44
0.0000000001
12
0.0000000000
22
-0.2437493709
32
0.0000000000
13
-0.2141659548
23
-0.1070829774
33
0.0000000000
40
0.0000000000
40
0.0000000000
40
0.0000000000
40
0.0000000000
40
0.1633303941
40
0.5338384012
40
1.0000000000
40
1.0000000000
40
1.0000000000
40
1.0000000000
10
-50.0322143271
20
8.2834512522
30
0.0000000000
10
-50.0322143271
20
8.2701806919
30
0.0000000000
10
-50.0384074216
20
8.2268064337
30
0.0000000000
10
-50.0879260756
20
8.1596258948
30
0.0000000000
10
-50.1449108789
20
8.1233138808
30
0.0000000000
10
-50.1781895269
20
8.1066745569
30
0.0000000000
11
-50.0322143271
21
8.2834512522
31
0.0000000000
11
-50.0378987471
21
8.2443426359
31
0.0000000000
11
-50.0862396554
21
8.1699536272
31
0.0000000000
11
-50.1781895269
21
8.1066745569
31
0.0000000000
0
SPLINE
5
268
100
AcDbEntity
8
0
100
AcDbSpline
62
7
6
CONTINUOUS
70
0
71
3
72
11
73
7
74
5
42
0.0000001000
43
0.0000001000
44
0.0000000001
12
0.0000000000
22
1.2131125212
32
0.0000000000
13
-1.0751508703
23
0.5375754352
33
0.0000000000
40
0.0000000000
40
0.0000000000
40
0.0000000000
40
0.0000000000
40
0.1164302548
40
0.3659874940
40
0.6572740540
40
1.0000000000
40
1.0000000000
40
1.0000000000
40
1.0000000000
10
-48.0321964655
20
8.2834512522
30
0.0000000000
10
-48.0321964655
20
8.3305322521
30
0.0000000000
10
-48.0481921316
20
8.4785269227
30
0.0000000000
10
-48.1672176282
20
8.7214641203
30
0.0000000000
10
-48.4221679572
20
8.9733044137
30
0.0000000000
10
-48.6411485981
20
9.1059210454
30
0.0000000000
10
-48.7639759645
20
9.1673347286
30
0.0000000000
11
-48.0321964655
21
8.2834512522
31
0.0000000000
11
-48.0474623927
21
8.4234068473
31
0.0000000000
11
-48.1720345917
21
8.6963000796
31
0.0000000000
11
-48.4149324194
21
8.9484913478
31
0.0000000000
11
-48.7639759645
21
9.1673347286
31
0.0000000000
0
SPLINE
5
269
100
AcDbEntity
8
0
100
AcDbSpline
62
9
6
CONTINUOUS
70
0
71
3
72
15
73
11
74
9
42
0.0000001000
43
0.0000001000
44
0.0000000001
12
0.0000000000
22
4.8283669482
32
0.0000000000
13
4.3408275008
23
-2.1991522287
33
0.0000000000
40
0.0000000000
40
0.0000000000
40
0.0000000000
40
0.0000000000
40
0.1486086696
40
0.3083154454
40
0.4697984460
40
0.6233501920
40
0.7610628647
40
0.8793795165
40
0.9822246065
40
1.0000000000
40
1.0000000000
40
1.0000000000
40
1.0000000000
10
61.0497071538
20
22.0450213325
30
0.0000000000
10
61.0497071538
20
22.2842003954
30
0.0000000000
10
61.1157336676
20
22.7812342442
30
0.0000000000
10
61.3663454589
20
23.4991109242
30
0.0000000000
10
61.7506527003
20
24.1649003019
30
0.0000000000
10
62.2338434471
20
24.7173676046
30
0.0000000000
10
62.7744674538
20
25.1067208083
30
0.0000000000
10
63.3324869002
20
25.2967563782
30
0.0000000000
10
63.7311940458
20
25.2578986635
30
0.0000000000
10
63.9096277291
20
25.1776864560
30
0.0000000000
10
63.9353477015
20
25.1646561905
30
0.0000000000
11
61.0497071538
21
22.0450213325
31
0.0000000000
11
61.1362278268
21
22.7573230874
31
0.0000000000
11
61.3873205997
21
23.4864204566
31
0.0000000000
11
61.7784067623
21
24.1609443099
31
0.0000000000
11
62.2712040762
21
24.7148675526
31
0.0000000000
11
62.8174741068
21
25.0939683185
31
0.0000000000
11
63.3637441373
21
25.2611375832
31
0.0000000000
11
63.8565414512
21
25.2000116543
31
0.0000000000
11
63.9353477015
21
25.1646561905
31
0.0000000000
0
SPLINE
5
26A
100
AcDbEntity
8
0
100
AcDbSpline
62
7
6
CONTINUOUS
70
0
71
3
72
9
73
5
74
3
42
0.0000001000
43
0.0000001000
44
0.0000000001
12
0.0000000000
22
0.2299459045
32
0.0000000000
13
-0.0668167741
23
0.2200241752
33
0.0000000000
40
0.0000000000
40
0.0000000000
40
0.0000000000
40
0.0000000000
40
0.4894462839
40
1.0000000000
40
1.0000000000
40
1.0000000000
40
1.0000000000
10
-48.4104225739
20
-6.9380941209
30
0.0000000000
10
-48.4104225739
20
-6.9005787314
30
0.0000000000
10
-48.4171447008
20
-6.8238564372
30
0.0000000000
10
-48.4347675352
20
-6.7490045431
30
0.0000000000
10
-48.4461387193
20
-6.7115598230
30
0.0000000000
11
-48.4104225739
21
-6.9380941209
31
0.0000000000
11
-48.4196141620
21
-6.8259239165
31
0.0000000000
11
-48.4461387193
21
-6.7115598230
31
0.0000000000
0
SPLINE
5
26B
100
AcDbEntity
8
0
100
AcDbSpline
62
9
6
CONTINUOUS
70
0
71
3
72
15
73
11
74
9
42
0.0000001000
43
0.0000001000
44
0.0000000001
12
0.0000000000
22
4.8283669482
32
0.0000000000
13
4.3408275008
23
-2.1991522287
33
0.0000000000
40
0.0000000000
40
0.0000000000
40
0.0000000000
40
0.0000000000
40
0.1486086696
40
0.3083154454
40
0.4697984460
40
0.6233501920
40
0.7610628647
40
0.8793795165
40
0.9822246065
40
1.0000000000
40
1.0000000000
40
1.0000000000
40
1.0000000000
10
36.3009698123
20
34.4193900033
30
0.0000000000
10
36.3009698123
20
34.6585690661
30
0.0000000000
10
36.3669963261
20
35.1556029149
30
0.0000000000
10
36.6176081173
20
35.8734795949
30
0.0000000000
10
37.0019153587
20
36.5392689726
30
0.0000000000
10
37.4851061056
20
37.0917362754
30
0.0000000000
10
38.0257301123
20
37.4810894790
30
0.0000000000
10
38.5837495586
20
37.6711250489
30
0.0000000000
10
38.9824567043
20
37.6322673343
30
0.0000000000
10
39.1608903876
20
37.5520551267
30
0.0000000000
10
39.1866103600
20
37.5390248613
30
0.0000000000
11
36.3009698123
21
34.4193900033
31
0.0000000000
11
36.3874904853
21
35.1316917582
31
0.0000000000
11
36.6385832582
21
35.8607891274
31
0.0000000000
11
37.0296694208
21
36.5353129806
31
0.0000000000
11
37.5224667347
21
37.0892362234
31
0.0000000000
11
38.0687367652
21
37.4683369892
31
0.0000000000
11
38.6150067958
21
37.6355062539
31
0.0000000000
11
39.1078041097
21
37.5743803251
31
0.0000000000
11
39.1866103600
21
37.5390248613
31
0.0000000000
0
SPLINE
5
26C
100
AcDbEntity
8
0
100
AcDbSpline
62
9
6
CONTINUOUS
70
0
71
3
72
15
73
11
74
9
42
0.0000001000
43
0.0000001000
44
0.0000000001
12
0.0000000000
22
4.8283669482
32
0.0000000000
13
-4.3408275008
23
-2.1991522287
33
0.0000000000
40
0.0000000000
40
0.0000000000
40
0.0000000000
40
0.0000000000
40
0.1486086696
40
0.3083154454
40
0.4697984460
40
0.6233501920
40
0.7610628647
40
0.8793795165
40
0.9822246065
40
1.0000000000
40
1.0000000000
40
1.0000000000
40
1.0000000000
10
25.6943680945
20
34.4193900033
30
0.0000000000
10
25.6943680945
20
34.6585690661
30
0.0000000000
10
25.6283415807
20
35.1556029149
30
0.0000000000
10
25.3777297894
20
35.8734795949
30
0.0000000000
10
24.9934225480
20
36.5392689726
30
0.0000000000
10
24.5102318011
20
37.0917362754
30
0.0000000000
10
23.9696077944
20
37.4810894790
30
0.0000000000
10
23.4115883481
20
37.6711250489
30
0.0000000000
10
23.0128812025
20
37.6322673343
30
0.0000000000
10
22.8344475191
20
37.5520551267
30
0.0000000000
10
22.8087275468
20
37.5390248613
30
0.0000000000
11
25.6943680945
21
34.4193900033
31
0.0000000000
11
25.6078474214
21
35.1316917582
31
0.0000000000
11
25.3567546485
21
35.8607891274
31
0.0000000000
11
24.9656684859
21
36.5353129806
31
0.0000000000
11
24.4728711721
21
37.0892362234
31
0.0000000000
11
23.9266011415
21
37.4683369892
31
0.0000000000
11
23.3803311109
21
37.6355062539
31
0.0000000000
11
22.8875337971
21
37.5743803251
31
0.0000000000
11
22.8087275468
21
37.5390248613
31
0.0000000000
0
SPLINE
5
26D
100
AcDbEntity
8
0
100
AcDbSpline
62
9
6
CONTINUOUS
70
0
71
3
72
17
73
13
74
11
42
0.0000001000
43
0.0000001000
44
0.0000000001
12
0.0000000000
22
7.3071747676
32
0.0000000000
13
-0.0000000000
23
-7.3071747676
33
0.0000000000
40
0.0000000000
40
0.0000000000
40
0.0000000000
40
0.0000000000
40
0.0930781453
40
0.1889104620
40
0.2890387931
40
0.3932862509
40
0.5000000000
40
0.6067137491
40
0.7109612069
40
0.8110895380
40
0.9069218547
40
1.0000000000
40
1.0000000000
40
1.0000000000
40
1.0000000000
10
24.9621350474
20
0.2512352794
30
0.0000000000
10
24.9621350474
20
0.4779480377
30
0.0000000000
10
25.0481904105
20
0.9420876267
30
0.0000000000
10
25.4165689437
20
1.5574189718
30
0.0000000000
10
25.9817382041
20
2.0399373839
30
0.0000000000
10
26.6859073327
20
2.3464726835
30
0.0000000000
10
27.4621350474
20
2.4516200007
30
0.0000000000
10
28.2383627621
20
2.3464726835
30
0.0000000000
10
28.9425318907
20
2.0399373839
30
0.0000000000
10
29.5077011511
20
1.5574189718
30
0.0000000000
10
29.8760796843
20
0.9420876267
30
0.0000000000
10
29.9621350474
20
0.4779480377
30
0.0000000000
10
29.9621350474
20
0.2512352794
30
0.0000000000
11
24.9621350474
21
0.2512352794
31
0.0000000000
11
25.0844937567
21
0.9202766977
31
0.0000000000
11
25.4395925615
21
1.5238276805
31
0.0000000000
11
25.9926719167
21
2.0028084524
31
0.0000000000
11
26.6895925615
21
2.3103330382
31
0.0000000000
11
27.4621350474
21
2.4162987888
31
0.0000000000
11
28.2346775334
21
2.3103330382
31
0.0000000000
11
28.9315981782
21
2.0028084524
31
0.0000000000
11
29.4846775334
21
1.5238276805
31
0.0000000000
11
29.8397763382
21
0.9202766977
31
0.0000000000
11
29.9621350474
21
0.2512352794
31
0.0000000000
0
SPLINE
5
26E
100
AcDbEntity
8
0
100
AcDbSpline
62
9
6
CONTINUOUS
70
0
71
3
72
15
73
11
74
9
42
0.0000001000
43
0.0000001000
44
0.0000000001
12
4.3408275008
22
2.1991522287
32
0.0000000000
13
0.0000000000
23
-4.8283669482
33
0.0000000000
40
0.0000000000
40
0.0000000000
40
0.0000000000
40
0.0000000000
40
0.0177753935
40
0.1206204835
40
0.2389371353
40
0.3766498080
40
0.5302015540
40
0.6916845546
40
0.8513913304
40
1.0000000000
40
1.0000000000
40
1.0000000000
40
1.0000000000
10
23.4153292646
20
-1.0485472451
30
0.0000000000
10
23.4410492369
20
-1.0355169796
30
0.0000000000
10
23.6194829203
20
-0.9553047721
30
0.0000000000
10
24.0181900659
20
-0.9164470574
30
0.0000000000
10
24.5762095122
20
-1.1064826273
30
0.0000000000
10
25.1168335189
20
-1.4958358310
30
0.0000000000
10
25.6000242658
20
-2.0483031337
30
0.0000000000
10
25.9843315072
20
-2.7140925114
30
0.0000000000
10
26.2349432985
20
-3.4319691914
30
0.0000000000
10
26.3009698123
20
-3.9290030402
30
0.0000000000
10
26.3009698123
20
-4.1681821031
30
0.0000000000
11
23.4153292646
21
-1.0485472451
31
0.0000000000
11
23.4941355149
21
-1.0131917813
31
0.0000000000
11
23.9869328287
21
-0.9520658524
31
0.0000000000
11
24.5332028593
21
-1.1192351171
31
0.0000000000
11
25.0794728899
21
-1.4983358830
31
0.0000000000
11
25.5722702037
21
-2.0522591257
31
0.0000000000
11
25.9633563663
21
-2.7267829790
31
0.0000000000
11
26.2144491392
21
-3.4558803482
31
0.0000000000
11
26.3009698123
21
-4.1681821031
31
0.0000000000
0
SPLINE
5
26F
100
AcDbEntity
8
0
100
AcDbSpline
62
7
6
CONTINUOUS
70
0
71
3
72
9
73
5
74
3
42
0.0000001000
43
0.0000001000
44
0.0000000001
12
0.3337005123
22
0.1668502562
32
0.0000000000
13
0.2975431607
23
0.2250846673
33
0.0000000000
40
0.0000000000
40
0.0000000000
40
0.0000000000
40
0.0000000000
40
0.5198780241
40
1.0000000000
40
1.0000000000
40
1.0000000000
40
1.0000000000
10
-48.7639759645
20
-13.6015482661
30
0.0000000000
10
-48.7061481102
20
-13.5726343389
30
0.0000000000
10
-48.5970241460
20
-13.5126432754
30
0.0000000000
10
-48.4937577227
20
-13.4429361965
30
0.0000000000
10
-48.4461387193
20
-13.4069134981
30
0.0000000000
11
-48.7639759645
21
-13.6015482661
31
0.0000000000
11
-48.5942689445
21
-13.5076322896
31
0.0000000000
11
-48.4461387193
21
-13.4069134981
31
0.0000000000
0
SPLINE
5
270
100
AcDbEntity
8
0
100
AcDbSpline
62
7
6
CONTINUOUS
70
0
71
3
72
14
73
10
74
8
42
0.0000001000
43
0.0000001000
44
0.0000000001
12
2.9207351352
22
2.6333459360
32
0.0000000000
13
2.9207351352
23
-2.6333459360
33
0.0000000000
40
0.0000000000
40
0.0000000000
40
0.0000000000
40
0.0000000000
40
0.0545572270
40
0.2294020128
40
0.4091970512
40
0.5908029488
40
0.7705979872
40
0.9454427730
40
1.0000000000
40
1.0000000000
40
1.0000000000
40
1.0000000000
10
25.6593883244
20
10.9687176304
30
0.0000000000
10
25.7125040609
20
11.0166069810
30
0.0000000000
10
25.9450508410
20
11.2077913361
30
0.0000000000
10
26.4187974582
20
11.4684671606
30
0.0000000000
10
27.1051467048
20
11.6411657063
30
0.0000000000
10
27.8191233900
20
11.6411657063
30
0.0000000000
10
28.5054726366
20
11.4684671606
30
0.0000000000
10
28.9792192539
20
11.2077913361
30
0.0000000000
10
29.2117660340
20
11.0166069810
30
0.0000000000
10
29.2648817705
20
10.9687176304
30
0.0000000000
11
25.6593883244
21
10.9687176304
31
0.0000000000
11
25.8249832126
21
11.1049955264
31
0.0000000000
11
26.4235975149
21
11.4381607408
31
0.0000000000
11
27.1063479517
21
11.6117759853
31
0.0000000000
11
27.8179221431
21
11.6117759853
31
0.0000000000
11
28.5006725799
21
11.4381607408
31
0.0000000000
11
29.0992868823
21
11.1049955264
31
0.0000000000
11
29.2648817705
21
10.9687176304
31
0.0000000000
0
SPLINE
5
271
100
AcDbEntity
8
0
100
AcDbSpline
62
9
6
CONTINUOUS
70
0
71
3
72
15
73
11
74
9
42
0.0000001000
43
0.0000001000
44
0.0000000001
12
4.3408275008
22
2.1991522287
32
0.0000000000
13
0.0000000000
23
-4.8283669482
33
0.0000000000
40
0.0000000000
40
0.0000000000
40
0.0000000000
40
0.0000000000
40
0.0177753935
40
0.1206204835
40
0.2389371353
40
0.3766498080
40
0.5302015540
40
0.6916845546
40
0.8513913304
40
1.0000000000
40
1.0000000000
40
1.0000000000
40
1.0000000000
10
-12.5466115126
20
-19.0295176336
30
0.0000000000
10
-12.5208915402
20
-19.0164873682
30
0.0000000000
10
-12.3424578569
20
-18.9362751607
30
0.0000000000
10
-11.9437507112
20
-18.8974174460
30
0.0000000000
10
-11.3857312649
20
-19.0874530159
30
0.0000000000
10
-10.8451072582
20
-19.4768062195
30
0.0000000000
10
-10.3619165113
20
-20.0292735223
30
0.0000000000
10
-9.9776092699
20
-20.6950629000
30
0.0000000000
10
-9.7269974787
20
-21.4129395800
30
0.0000000000
10
-9.6609709649
20
-21.9099734288
30
0.0000000000
10
-9.6609709649
20
-22.1491524916
30
0.0000000000
11
-12.5466115126
21
-19.0295176336
31
0.0000000000
11
-12.4678052623
21
-18.9941621699
31
0.0000000000
11
-11.9750079484
21
-18.9330362410
31
0.0000000000
11
-11.4287379178
21
-19.1002055057
31
0.0000000000
11
-10.8824678873
21
-19.4793062716
31
0.0000000000
11
-10.3896705734
21
-20.0332295143
31
0.0000000000
11
-9.9985844108
21
-20.7077533675
31
0.0000000000
11
-9.7474916379
21
-21.4368507368
31
0.0000000000
11
-9.6609709649
21
-22.1491524916
31
0.0000000000
0
SPLINE
5
272
100
AcDbEntity
8
0
100
AcDbSpline
62
7
6
CONTINUOUS
70
0
71
3
72
11
73
7
74
5
42
0.0000001000
43
0.0000001000
44
0.0000000001
12
1.0751508703
22
0.5375754352
32
0.0000000000
13
0.0000000000
23
1.2131125212
33
0.0000000000
40
0.0000000000
40
0.0000000000
40
0.0000000000
40
0.0000000000
40
0.3427259460
40
0.6340125060
40
0.8835697452
40
1.0000000000
40
1.0000000000
40
1.0000000000
40
1.0000000000
10
-48.7639759645
20
7.3995677757
30
0.0000000000
10
-48.6411485981
20
7.4609814589
30
0.0000000000
10
-48.4221679572
20
7.5935980906
30
0.0000000000
10
-48.1672176282
20
7.8454383840
30
0.0000000000
10
-48.0481921316
20
8.0883755816
30
0.0000000000
10
-48.0321964655
20
8.2363702522
30
0.0000000000
10
-48.0321964655
20
8.2834512522
30
0.0000000000
11
-48.7639759645
21
7.3995677757
31
0.0000000000
11
-48.4149324194
21
7.6184111565
31
0.0000000000
11
-48.1720345917
21
7.8706024247
31
0.0000000000
11
-48.0474623927
21
8.1434956570
31
0.0000000000
11
-48.0321964655
21
8.2834512522
31
0.0000000000
0
SPLINE
5
273
100
AcDbEntity
8
0
100
AcDbSpline
62
7
6
CONTINUOUS
70
0
71
3
72
11
73
7
74
5
42
0.0000001000
43
0.0000001000
44
0.0000000001
12
0.8651459660
22
1.8453504294
32
0.0000000000
13
1.7713915818
23
1.0079521883
33
0.0000000000
40
0.0000000000
40
0.0000000000
40
0.0000000000
40
0.0000000000
40
0.2671267769
40
0.5263999241
40
0.7725310628
40
1.0000000000
40
1.0000000000
40
1.0000000000
40
1.0000000000
10
-48.4104225739
20
-9.9606699557
30
0.0000000000
10
-48.3333880227
20
-9.7963557848
30
0.0000000000
10
-48.1598668375
20
-9.4822336830
30
0.0000000000
10
-47.8458134021
20
-9.0596893228
30
0.0000000000
10
-47.4931393298
20
-8.7057142237
30
0.0000000000
10
-47.2298595198
20
-8.5170375520
30
0.0000000000
10
-47.0955473329
20
-8.4406116143
30
0.0000000000
11
-48.4104225739
21
-9.9606699557
31
0.0000000000
11
-48.1468553822
21
-9.4842945210
31
0.0000000000
11
-47.8305357404
21
-9.0610089337
31
0.0000000000
11
-47.4746046448
21
-8.7075231009
31
0.0000000000
11
-47.0955473329
21
-8.4406116143
31
0.0000000000
0
SPLINE
5
274
100
AcDbEntity
8
0
100
AcDbSpline
62
7
6
CONTINUOUS
70
0
71
3
72
9
73
5
74
3
42
0.0000001000
43
0.0000001000
44
0.0000000001
12
-0.3375463086
22
0.1684275444
32
0.0000000000
13
-0.2483310875
23
0.2813574240
33
0.0000000000
40
0.0000000000
40
0.0000000000
40
0.0000000000
40
0.0000000000
40
0.0973118613
40
1.0000000000
40
1.0000000000
40
1.0000000000
40
1.0000000000
10
-48.1143413680
20
-12.7885976134
30
0.0000000000
10
-48.1252904545
20
-12.7831342808
30
0.0000000000
10
-48.2366971181
20
-12.7247529557
30
0.0000000000
10
-48.3357007315
20
-12.6434055035
30
0.0000000000
10
-48.4104225739
20
-12.5587461670
30
0.0000000000
11
-48.1143413680
21
-12.7885976134
31
0.0000000000
11
-48.1468553822
21
-12.7715544100
31
0.0000000000
11
-48.4104225739
21
-12.5587461670
31
0.0000000000
0
SPLINE
5
275
100
AcDbEntity
8
0
100
AcDbSpline
62
7
6
CONTINUOUS
70
0
71
3
72
14
73
10
74
8
42
0.0000001000
43
0.0000001000
44
0.0000000001
12
-0.0583427172
22
0.0533889316
32
0.0000000000
13
-0.6294261426
23
-0.3581542694
33
0.0000000000
40
0.0000000000
40
0.0000000000
40
0.0000000000
40
0.0000000000
40
0.0208591814
40
0.0740277105
40
0.1584224156
40
0.2804257838
40
0.4514891807
40
0.6865626822
40
1.0000000000
40
1.0000000000
40
1.0000000000
40
1.0000000000
10
-46.5242644732
20
-7.9946484857
30
0.0000000000
10
-46.5246701337
20
-7.9942772692
30
0.0000000000
10
-46.5477678214
20
-8.0256160523
30
0.0000000000
10
-46.5622890550
20
-8.0395412401
30
0.0000000000
10
-46.6116350388
20
-8.0927308592
30
0.0000000000
10
-46.6761393710
20
-8.1506340567
30
0.0000000000
10
-46.7761873183
20
-8.2328787275
30
0.0000000000
10
-46.9169762383
20
-8.3333958161
30
0.0000000000
10
-47.0299070092
20
-8.4032775701
30
0.0000000000
10
-47.0956688898
20
-8.4406972080
30
0.0000000000
11
-46.5242644732
21
-7.9946484857
31
0.0000000000
11
-46.5363917052
21
-8.0099666804
31
0.0000000000
11
-46.5614498939
21
-8.0392011787
31
0.0000000000
11
-46.6038220611
21
-8.0832464887
31
0.0000000000
11
-46.6686973870
21
-8.1432261766
31
0.0000000000
11
-46.7645098642
21
-8.2217553810
31
0.0000000000
11
-46.9026745420
21
-8.3212113515
31
0.0000000000
11
-47.0956688898
21
-8.4406972080
31
0.0000000000
0
SPLINE
5
276
100
AcDbEntity
8
0
100
AcDbSpline
62
9
6
CONTINUOUS
70
0
71
3
72
15
73
11
74
9
42
0.0000001000
43
0.0000001000
44
0.0000000001
12
-4.3408275008
22
2.1991522287
32
0.0000000000
13
0.0000000000
23
-4.8283669482
33
0.0000000000
40
0.0000000000
40
0.0000000000
40
0.0000000000
40
0.0000000000
40
0.0177753935
40
0.1206204835
40
0.2389371353
40
0.3766498080
40
0.5302015540
40
0.6916845546
40
0.8513913304
40
1.0000000000
40
1.0000000000
40
1.0000000000
40
1.0000000000
10
-24.4529999468
20
-19.0295176336
30
0.0000000000
10
-24.4787199192
20
-19.0164873682
30
0.0000000000
10
-24.6571536025
20
-18.9362751607
30
0.0000000000
10
-25.0558607482
20
-18.8974174460
30
0.0000000000
10
-25.6138801945
20
-19.0874530159
30
0.0000000000
10
-26.1545042012
20
-19.4768062195
30
0.0000000000
10
-26.6376949481
20
-20.0292735223
30
0.0000000000
10
-27.0220021895
20
-20.6950629000
30
0.0000000000
10
-27.2726139807
20
-21.4129395800
30
0.0000000000
10
-27.3386404945
20
-21.9099734288
30
0.0000000000
10
-27.3386404945
20
-22.1491524916
30
0.0000000000
11
-24.4529999468
21
-19.0295176336
31
0.0000000000
11
-24.5318061971
21
-18.9941621699
31
0.0000000000
11
-25.0246035110
21
-18.9330362410
31
0.0000000000
11
-25.5708735416
21
-19.1002055057
31
0.0000000000
11
-26.1171435721
21
-19.4793062716
31
0.0000000000
11
-26.6099408860
21
-20.0332295143
31
0.0000000000
11
-27.0010270486
21
-20.7077533675
31
0.0000000000
11
-27.2521198215
21
-21.4368507368
31
0.0000000000
11
-27.3386404945
21
-22.1491524916
31
0.0000000000
0
SPLINE
5
277
100
AcDbEntity
8
0
100
AcDbSpline
62
7
6
CONTINUOUS
70
0
71
3
72
11
73
7
74
5
42
0.0000001000
43
0.0000001000
44
0.0000000001
12
-1.4500798497
22
-0.7250399249
32
0.0000000000
13
-1.4562263735
23
0.7298778378
33
0.0000000000
40
0.0000000000
40
0.0000000000
40
0.0000000000
40
0.0000000000
40
0.3385528590
40
0.6436421792
40
0.9258839168
40
1.0000000000
40
1.0000000000
40
1.0000000000
40
1.0000000000
10
-62.5525581976
20
-7.5054583259
30
0.0000000000
10
-62.7162010906
20
-7.5872797724
30
0.0000000000
10
-63.0439327622
20
-7.7136211419
30
0.0000000000
10
-63.5473091421
20
-7.7721897544
30
0.0000000000
10
-63.9046204798
20
-7.7016859001
30
0.0000000000
10
-64.0815062014
20
-7.6229188194
30
0.0000000000
10
-64.1174827998
20
-7.6048869239
30
0.0000000000
11
-62.5525581976
21
-7.5054583259
31
0.0000000000
11
-63.0671133802
21
-7.6964993521
31
0.0000000000
11
-63.5591800323
21
-7.7467178384
31
0.0000000000
11
-64.0072524798
21
-7.6539189960
31
0.0000000000
11
-64.1174827998
21
-7.6048869239
31
0.0000000000
0
SPLINE
5
278
100
AcDbEntity
8
0
100
AcDbSpline
62
7
6
CONTINUOUS
70
0
71
3
72
10
73
6
74
4
42
0.0000001000
43
0.0000001000
44
0.0000000001
12
0.4325406252
22
-0.0300671737
32
0.0000000000
13
0.0000000000
23
0.4216051689
33
0.0000000000
40
0.0000000000
40
0.0000000000
40
0.0000000000
40
0.0000000000
40
0.2524408631
40
0.5874545420
40
1.0000000000
40
1.0000000000
40
1.0000000000
40
1.0000000000
10
42.7800641991
20
5.3150505219
30
0.0000000000
10
42.8164611753
20
5.3125204608
30
0.0000000000
10
42.9023111109
20
5.3241380654
30
0.0000000000
10
43.0034989218
20
5.4388529844
30
0.0000000000
10
43.0184842335
20
5.5468115708
30
0.0000000000
10
43.0184842335
20
5.6047886700
30
0.0000000000
11
42.7800641991
21
5.3150505219
31
0.0000000000
11
42.8853677764
21
5.3328039359
31
0.0000000000
11
42.9834714410
21
5.4344178960
31
0.0000000000
11
43.0184842335
21
5.6047886700
31
0.0000000000
0
SPLINE
5
279
100
AcDbEntity
8
0
100
AcDbSpline
62
9
6
CONTINUOUS
70
0
71
3
72
10
73
6
74
4
42
0.0000001000
43
0.0000001000
44
0.0000000001
12
0.0000000000
22
-1.5688447271
32
0.0000000000
13
1.4104322246
23
-0.7145538885
33
0.0000000000
40
0.0000000000
40
0.0000000000
40
0.0000000000
40
0.0000000000
40
0.4026746201
40
0.7468391539
40
1.0000000000
40
1.0000000000
40
1.0000000000
40
1.0000000000
10
-27.3386404945
20
-22.1491524916
30
0.0000000000
10
-27.3386404945
20
-22.3597304764
30
0.0000000000
10
-27.2932009358
20
-22.7535208119
30
0.0000000000
10
-27.0595378619
20
-23.2373249620
30
0.0000000000
10
-26.8077692081
20
-23.4407213743
30
0.0000000000
10
-26.6887471363
20
-23.5010203967
30
0.0000000000
11
-27.3386404945
21
-22.1491524916
31
0.0000000000
11
-27.2521198215
21
-22.7749335734
31
0.0000000000
11
-27.0010270486
21
-23.2529381698
31
0.0000000000
11
-26.6887471363
21
-23.5010203967
31
0.0000000000
0
SPLINE
5
27A
100
AcDbEntity
8
0
100
AcDbSpline
62
9
6
CONTINUOUS
70
0
71
3
72
10
73
6
74
4
42
0.0000001000
43
0.0000001000
44
0.0000000001
12
0.0000000000
22
-1.5688447271
32
0.0000000000
13
-1.4104322246
23
-0.7145538885
33
0.0000000000
40
0.0000000000
40
0.0000000000
40
0.0000000000
40
0.0000000000
40
0.4026746201
40
0.7468391539
40
1.0000000000
40
1.0000000000
40
1.0000000000
40
1.0000000000
10
-9.6609709649
20
-22.1491524916
30
0.0000000000
10
-9.6609709649
20
-22.3597304764
30
0.0000000000
10
-9.7064105236
20
-22.7535208119
30
0.0000000000
10
-9.9400735975
20
-23.2373249620
30
0.0000000000
10
-10.1918422513
20
-23.4407213743
30
0.0000000000
10
-10.3108643231
20
-23.5010203967
30
0.0000000000
11
-9.6609709649
21
-22.1491524916
31
0.0000000000
11
-9.7474916379
21
-22.7749335734
31
0.0000000000
11
-9.9985844108
21
-23.2529381698
31
0.0000000000
11
-10.3108643231
21
-23.5010203967
31
0.0000000000
0
SPLINE
5
27B
100
AcDbEntity
8
0
100
AcDbSpline
62
9
6
CONTINUOUS
70
0
71
3
72
10
73
6
74
4
42
0.0000001000
43
0.0000001000
44
0.0000000001
12
0.0000000000
22
-1.5688447271
32
0.0000000000
13
-1.4104322246
23
-0.7145538885
33
0.0000000000
40
0.0000000000
40
0.0000000000
40
0.0000000000
40
0.0000000000
40
0.4026746201
40
0.7468391539
40
1.0000000000
40
1.0000000000
40
1.0000000000
40
1.0000000000
10
26.3009698123
20
-4.1681821031
30
0.0000000000
10
26.3009698123
20
-4.3787600879
30
0.0000000000
10
26.2555302535
20
-4.7725504233
30
0.0000000000
10
26.0218671796
20
-5.2563545735
30
0.0000000000
10
25.7700985258
20
-5.4597509858
30
0.0000000000
10
25.6510764540
20
-5.5200500081
30
0.0000000000
11
26.3009698123
21
-4.1681821031
31
0.0000000000
11
26.2144491392
21
-4.7939631849
31
0.0000000000
11
25.9633563663
21
-5.2719677812
31
0.0000000000
11
25.6510764540
21
-5.5200500081
31
0.0000000000
0
SPLINE
5
27C
100
AcDbEntity
8
0
100
AcDbSpline
62
9
6
CONTINUOUS
70
0
71
3
72
9
73
5
74
3
42
0.0000001000
43
0.0000001000
44
0.0000000001
12
-0.1435266820
22
0.0150589403
32
0.0000000000
13
-0.0933595686
23
-0.1080905082
33
0.0000000000
40
0.0000000000
40
0.0000000000
40
0.0000000000
40
0.0000000000
40
0.2291162403
40
1.0000000000
40
1.0000000000
40
1.0000000000
40
1.0000000000
10
-47.7365606824
20
-5.5961413294
30
0.0000000000
10
-47.7475221137
20
-5.5949912469
30
0.0000000000
10
-47.8022291090
20
-5.6066621879
30
0.0000000000
10
-47.7979533203
20
-5.6722000057
30
0.0000000000
10
-47.8219431121
20
-5.6999750782
30
0.0000000000
11
-47.7365606824
21
-5.5961413294
31
0.0000000000
11
-47.7694943787
21
-5.6031669525
31
0.0000000000
11
-47.8219431121
21
-5.6999750782
31
0.0000000000
0
SPLINE
5
27D
100
AcDbEntity
8
0
100
AcDbSpline
62
9
6
CONTINUOUS
70
0
71
3
72
10
73
6
74
4
42
0.0000001000
43
0.0000001000
44
0.0000000001
12
1.4104322246
22
0.7145538885
32
0.0000000000
13
0.0000000000
23
1.5688447271
33
0.0000000000
40
0.0000000000
40
0.0000000000
40
0.0000000000
40
0.0000000000
40
0.2531608461
40
0.5973253799
40
1.0000000000
40
1.0000000000
40
1.0000000000
40
1.0000000000
10
25.0444747362
20
33.0675220983
30
0.0000000000
10
25.1634968080
20
33.1278211206
30
0.0000000000
10
25.4152654618
20
33.3312175329
30
0.0000000000
10
25.6489285357
20
33.8150216830
30
0.0000000000
10
25.6943680945
20
34.2088120185
30
0.0000000000
10
25.6943680945
20
34.4193900033
30
0.0000000000
11
25.0444747362
21
33.0675220983
31
0.0000000000
11
25.3567546485
21
33.3156043251
31
0.0000000000
11
25.6078474214
21
33.7936089215
31
0.0000000000
11
25.6943680945
21
34.4193900033
31
0.0000000000
0
SPLINE
5
27E
100
AcDbEntity
8
0
100
AcDbSpline
62
9
6
CONTINUOUS
70
0
71
3
72
10
73
6
74
4
42
0.0000001000
43
0.0000001000
44
0.0000000001
12
-1.0775356565
22
1.6538220014
32
0.0000000000
13
-0.1682940990
23
1.9666945364
33
0.0000000000
40
0.0000000000
40
0.0000000000
40
0.0000000000
40
0.0000000000
40
0.3143610222
40
0.6481324065
40
1.0000000000
40
1.0000000000
40
1.0000000000
40
1.0000000000
10
-47.0955473329
20
-8.4406116143
30
0.0000000000
10
-47.2084590698
20
-8.2673125560
30
0.0000000000
10
-47.4038112491
20
-7.8846678758
30
0.0000000000
10
-47.5955460393
20
-7.2526601664
30
0.0000000000
10
-47.6629843695
20
-6.8049165832
30
0.0000000000
10
-47.6827234494
20
-6.5742445586
30
0.0000000000
11
-47.0955473329
21
-8.4406116143
31
0.0000000000
11
-47.3812386103
21
-7.8897803249
31
0.0000000000
11
-47.5769044677
21
-7.2606812060
31
0.0000000000
11
-47.6827234494
21
-6.5742445586
31
0.0000000000
0
SPLINE
5
27F
100
AcDbEntity
8
0
100
AcDbSpline
62
9
6
CONTINUOUS
70
0
71
3
72
10
73
6
74
4
42
0.0000001000
43
0.0000001000
44
0.0000000001
12
0.1610944353
22
2.0436532870
32
0.0000000000
13
0.6555455720
23
1.9433522352
33
0.0000000000
40
0.0000000000
40
0.0000000000
40
0.0000000000
40
0.0000000000
40
0.3903242018
40
0.8042395108
40
1.0000000000
40
1.0000000000
40
1.0000000000
40
1.0000000000
10
-47.6826307486
20
-15.2174260892
30
0.0000000000
10
-47.6616710629
20
-14.9515303098
30
0.0000000000
10
-47.5870537881
20
-14.4058506925
30
0.0000000000
10
-47.4282502724
20
-13.7402543365
30
0.0000000000
10
-47.3035159173
20
-13.3424275368
30
0.0000000000
10
-47.2607392767
20
-13.2156170087
30
0.0000000000
11
-47.6826307486
21
-15.2174260892
31
0.0000000000
11
-47.5767352350
21
-14.4243025142
31
0.0000000000
11
-47.3807396323
21
-13.5987253601
31
0.0000000000
11
-47.2607392767
21
-13.2156170087
31
0.0000000000
0
SPLINE
5
280
100
AcDbEntity
8
0
100
AcDbSpline
62
9
6
CONTINUOUS
70
0
71
3
72
10
73
6
74
4
42
0.0000001000
43
0.0000001000
44
0.0000000001
12
-1.4104322246
22
0.7145538885
32
0.0000000000
13
0.0000000000
23
1.5688447271
33
0.0000000000
40
0.0000000000
40
0.0000000000
40
0.0000000000
40
0.0000000000
40
0.2531608461
40
0.5973253799
40
1.0000000000
40
1.0000000000
40
1.0000000000
40
1.0000000000
10
36.9508631705
20
33.0675220983
30
0.0000000000
10
36.8318410987
20
33.1278211206
30
0.0000000000
10
36.5800724449
20
33.3312175329
30
0.0000000000
10
36.3464093710
20
33.8150216830
30
0.0000000000
10
36.3009698123
20
34.2088120185
30
0.0000000000
10
36.3009698123
20
34.4193900033
30
0.0000000000
11
36.9508631705
21
33.0675220983
31
0.0000000000
11
36.6385832582
21
33.3156043251
31
0.0000000000
11
36.3874904853
21
33.7936089215
31
0.0000000000
11
36.3009698123
21
34.4193900033
31
0.0000000000
0
SPLINE
5
281
100
AcDbEntity
8
0
100
AcDbSpline
62
7
6
CONTINUOUS
70
0
71
3
72
11
73
7
74
5
42
0.0000001000
43
0.0000001000
44
0.0000000001
12
-1.4500798497
22
-0.7250399249
32
0.0000000000
13
-1.4562263735
23
0.7298778378
33
0.0000000000
40
0.0000000000
40
0.0000000000
40
0.0000000000
40
0.0000000000
40
0.3385528590
40
0.6436421792
40
0.9258839168
40
1.0000000000
40
1.0000000000
40
1.0000000000
40
1.0000000000
10
-62.5525581976
20
-35.2182712470
30
0.0000000000
10
-62.7162010906
20
-35.3000926935
30
0.0000000000
10
-63.0439327622
20
-35.4264340630
30
0.0000000000
10
-63.5473091421
20
-35.4850026755
30
0.0000000000
10
-63.9046204798
20
-35.4144988212
30
0.0000000000
10
-64.0815062014
20
-35.3357317405
30
0.0000000000
10
-64.1174827998
20
-35.3176998450
30
0.0000000000
11
-62.5525581976
21
-35.2182712470
31
0.0000000000
11
-63.0671133802
21
-35.4093122732
31
0.0000000000
11
-63.5591800323
21
-35.4595307595
31
0.0000000000
11
-64.0072524798
21
-35.3667319172
31
0.0000000000
11
-64.1174827998
21
-35.3176998450
31
0.0000000000
0
SPLINE
5
282
100
AcDbEntity
8
0
100
AcDbSpline
62
7
6
CONTINUOUS
70
0
71
3
72
8
73
4
74
2
42
0.0000001000
43
0.0000001000
44
0.0000000001
12
0.0150588037
22
0.0964405316
32
0.0000000000
13
0.0000074399
23
0.0977866295
33
0.0000000000
40
0.0000000000
40
0.0000000000
40
0.0000000000
40
0.0000000000
40
1.0000000000
40
1.0000000000
40
1.0000000000
40
1.0000000000
10
-48.0393275039
20
-5.8086672749
30
0.0000000000
10
-48.0343079026
20
-5.7765204310
30
0.0000000000
10
-48.0317464789
20
-5.7439280897
30
0.0000000000
10
-48.0317439989
20
-5.7113325466
30
0.0000000000
11
-48.0393275039
21
-5.8086672749
31
0.0000000000
11
-48.0317439989
21
-5.7113325466
31
0.0000000000
0
SPLINE
5
283
100
AcDbEntity
8
0
100
AcDbSpline
62
9
6
CONTINUOUS
70
0
71
3
72
10
73
6
74
4
42
0.0000001000
43
0.0000001000
44
0.0000000001
12
0.2269840895
22
0.0786120013
32
0.0000000000
13
0.0002723803
23
0.2818072857
33
0.0000000000
40
0.0000000000
40
0.0000000000
40
0.0000000000
40
0.0000000000
40
0.1793168052
40
0.5227955967
40
1.0000000000
40
1.0000000000
40
1.0000000000
40
1.0000000000
10
-47.7321527077
20
-15.4890684459
30
0.0000000000
10
-47.7185853538
20
-15.4843696282
30
0.0000000000
10
-47.6945784477
20
-15.4258224829
30
0.0000000000
10
-47.6848327958
20
-15.3412668196
30
0.0000000000
10
-47.6805627462
20
-15.2611969837
30
0.0000000000
10
-47.6805194192
20
-15.2163704245
30
0.0000000000
11
-47.7321527077
21
-15.4890684459
31
0.0000000000
11
-47.7043417247
21
-15.4458940146
31
0.0000000000
11
-47.6867890639
21
-15.3507039354
31
0.0000000000
11
-47.6805194192
21
-15.2163704245
31
0.0000000000
0
SPLINE
5
284
100
AcDbEntity
8
0
100
AcDbSpline
62
7
6
CONTINUOUS
70
0
71
3
72
9
73
5
74
3
42
0.0000001000
43
0.0000001000
44
0.0000000001
12
-0.2338398098
22
-0.1200248238
32
0.0000000000
13
-0.2574934479
23
-0.0103381987
33
0.0000000000
40
0.0000000000
40
0.0000000000
40
0.0000000000
40
0.0000000000
40
0.1515449505
40
1.0000000000
40
1.0000000000
40
1.0000000000
40
1.0000000000
10
-48.1943219653
20
-15.7192131158
30
0.0000000000
10
-48.2061343794
20
-15.7252761678
30
0.0000000000
10
-48.2862946523
20
-15.7610007889
30
0.0000000000
10
-48.3733148473
20
-15.7692163220
30
0.0000000000
10
-48.4461387193
20
-15.7721401543
30
0.0000000000
11
-48.1943219653
21
-15.7192131158
31
0.0000000000
11
-48.2305876927
21
-15.7354721694
31
0.0000000000
11
-48.4461387193
21
-15.7721401543
31
0.0000000000
0
SPLINE
5
285
100
AcDbEntity
8
0
100
AcDbSpline
62
7
6
CONTINUOUS
70
0
71
3
72
10
73
6
74
4
42
0.0000001000
43
0.0000001000
44
0.0000000001
12
0.2141659548
22
-0.1070829774
32
0.0000000000
13
-0.0000000000
23
-0.2437493709
33
0.0000000000
40
0.0000000000
40
0.0000000000
40
0.0000000000
40
0.0000000000
40
0.4661615988
40
0.8366696059
40
1.0000000000
40
1.0000000000
40
1.0000000000
40
1.0000000000
10
-50.1781895269
20
8.4602279474
30
0.0000000000
10
-50.1449108789
20
8.4435886235
30
0.0000000000
10
-50.0879260756
20
8.4072766095
30
0.0000000000
10
-50.0384074216
20
8.3400960706
30
0.0000000000
10
-50.0322143271
20
8.2967218124
30
0.0000000000
10
-50.0322143271
20
8.2834512522
30
0.0000000000
11
-50.1781895269
21
8.4602279474
31
0.0000000000
11
-50.0862396554
21
8.3969488771
31
0.0000000000
11
-50.0378987471
21
8.3225598684
31
0.0000000000
11
-50.0322143271
21
8.2834512522
31
0.0000000000
0
SPLINE
5
286
100
AcDbEntity
8
0
100
AcDbSpline
62
9
6
CONTINUOUS
70
0
71
3
72
10
73
6
74
4
42
0.0000001000
43
0.0000001000
44
0.0000000001
12
-1.4104322246
22
0.7145538885
32
0.0000000000
13
0.0000000000
23
1.5688447271
33
0.0000000000
40
0.0000000000
40
0.0000000000
40
0.0000000000
40
0.0000000000
40
0.2531608461
40
0.5973253799
40
1.0000000000
40
1.0000000000
40
1.0000000000
40
1.0000000000
10
61.6996005120
20
20.6931534275
30
0.0000000000
10
61.5805784402
20
20.7534524498
30
0.0000000000
10
61.3288097864
20
20.9568488621
30
0.0000000000
10
61.0951467125
20
21.4406530123
30
0.0000000000
10
61.0497071538
20
21.8344433477
30
0.0000000000
10
61.0497071538
20
22.0450213325
30
0.0000000000
11
61.6996005120
21
20.6931534275
31
0.0000000000
11
61.3873205997
21
20.9412356544
31
0.0000000000
11
61.1362278268
21
21.4192402507
31
0.0000000000
11
61.0497071538
21
22.0450213325
31
0.0000000000
0
SPLINE
5
287
100
AcDbEntity
8
0
100
AcDbSpline
62
9
6
CONTINUOUS
70
0
71
3
72
15
73
11
74
9
42
0.0000001000
43
0.0000001000
44
0.0000000001
12
4.3408275008
22
2.1991522287
32
0.0000000000
13
0.0000000000
23
-4.8283669482
33
0.0000000000
40
0.0000000000
40
0.0000000000
40
0.0000000000
40
0.0000000000
40
0.0177753935
40
0.1206204835
40
0.2389371353
40
0.3766498080
40
0.5302015540
40
0.6916845546
40
0.8513913304
40
1.0000000000
40
1.0000000000
40
1.0000000000
40
1.0000000000
10
61.6996005120
20
18.0935883787
30
0.0000000000
10
61.7253204844
20
18.1066186441
30
0.0000000000
10
61.9037541677
20
18.1868308516
30
0.0000000000
10
62.3024613134
20
18.2256885663
30
0.0000000000
10
62.8604807597
20
18.0356529964
30
0.0000000000
10
63.4011047664
20
17.6462997928
30
0.0000000000
10
63.8842955133
20
17.0938324900
30
0.0000000000
10
64.2686027547
20
16.4280431123
30
0.0000000000
10
64.5192145459
20
15.7101664323
30
0.0000000000
10
64.5852410597
20
15.2131325835
30
0.0000000000
10
64.5852410597
20
14.9739535207
30
0.0000000000
11
61.6996005120
21
18.0935883787
31
0.0000000000
11
61.7784067623
21
18.1289438424
31
0.0000000000
11
62.2712040762
21
18.1900697713
31
0.0000000000
11
62.8174741068
21
18.0229005066
31
0.0000000000
11
63.3637441373
21
17.6437997407
31
0.0000000000
11
63.8565414512
21
17.0898764980
31
0.0000000000
11
64.2476276138
21
16.4153526448
31
0.0000000000
11
64.4987203867
21
15.6862552755
31
0.0000000000
11
64.5852410597
21
14.9739535207
31
0.0000000000
0
SPLINE
5
288
100
AcDbEntity
8
0
100
AcDbSpline
62
9
6
CONTINUOUS
70
0
71
3
72
10
73
6
74
4
42
0.0000001000
43
0.0000001000
44
0.0000000001
12
0.0007702980
22
0.6109595044
32
0.0000000000
13
-0.1198837930
23
0.6016800978
33
0.0000000000
40
0.0000000000
40
0.0000000000
40
0.0000000000
40
0.0000000000
40
0.3363255683
40
0.7332120082
40
1.0000000000
40
1.0000000000
40
1.0000000000
40
1.0000000000
10
-47.6807284681
20
-6.5732470680
30
0.0000000000
10
-47.6806421111
20
-6.5047533005
30
0.0000000000
10
-47.6886017045
20
-6.3558721150
30
0.0000000000
10
-47.7095116131
20
-6.1514153783
30
0.0000000000
10
-47.7402941276
20
-6.0223480244
30
0.0000000000
10
-47.7509553131
20
-5.9688410161
30
0.0000000000
11
-47.6807284681
21
-6.5732470680
31
0.0000000000
11
-47.6894953491
21
-6.3679527071
31
0.0000000000
11
-47.7182775846
21
-6.1271852365
31
0.0000000000
11
-47.7509553131
21
-5.9688410161
31
0.0000000000
0
SPLINE
5
289
100
AcDbEntity
8
0
100
AcDbSpline
62
9
6
CONTINUOUS
70
0
71
3
72
9
73
5
74
3
42
0.0000001000
43
0.0000001000
44
0.0000000001
12
-0.0543778626
22
0.2729149358
32
0.0000000000
13
-0.1795500687
23
0.2110914173
33
0.0000000000
40
0.0000000000
40
0.0000000000
40
0.0000000000
40
0.0000000000
40
0.2744295622
40
1.0000000000
40
1.0000000000
40
1.0000000000
40
1.0000000000
10
-47.7509553131
20
-5.9688410161
30
0.0000000000
10
-47.7559296107
20
-5.9438757073
30
0.0000000000
10
-47.7726967217
20
-5.8516160217
30
0.0000000000
10
-47.7785177050
20
-5.7510289764
30
0.0000000000
10
-47.8219431123
20
-5.6999750791
30
0.0000000000
11
-47.7509553131
21
-5.9688410161
31
0.0000000000
11
-47.7643080223
21
-5.8926109904
31
0.0000000000
11
-47.8219431123
21
-5.6999750791
31
0.0000000000
0
SPLINE
5
28A
100
AcDbEntity
8
0
100
AcDbSpline
62
7
6
CONTINUOUS
70
0
71
3
72
12
73
8
74
6
42
0.0000001000
43
0.0000001000
44
0.0000000001
12
0.5599645953
22
0.8247188641
32
0.0000000000
13
0.1537915072
23
0.9849211772
33
0.0000000000
40
0.0000000000
40
0.0000000000
40
0.0000000000
40
0.0000000000
40
0.2293150475
40
0.4451162442
40
0.6518879084
40
0.8411119993
40
1.0000000000
40
1.0000000000
40
1.0000000000
40
1.0000000000
10
-48.4461387193
20
-6.7115598230
30
0.0000000000
10
-48.4033359500
20
-6.6485196745
30
0.0000000000
10
-48.3241567990
20
-6.5234379706
30
0.0000000000
10
-48.2207887227
20
-6.3329041359
30
0.0000000000
10
-48.1369084095
20
-6.1474762528
30
0.0000000000
10
-48.0751473608
20
-5.9735504139
30
0.0000000000
10
-48.0474727122
20
-5.8608313271
30
0.0000000000
10
-48.0393275039
20
-5.8086672749
30
0.0000000000
11
-48.4461387193
21
-6.7115598230
31
0.0000000000
11
-48.3240349754
21
-6.5183089184
31
0.0000000000
11
-48.2217222279
21
-6.3290739588
31
0.0000000000
11
-48.1372881412
21
-6.1410394563
31
0.0000000000
11
-48.0750422084
21
-5.9629765577
31
0.0000000000
11
-48.0393275039
21
-5.8086672749
31
0.0000000000
0
SPLINE
5
28B
100
AcDbEntity
8
0
100
AcDbSpline
62
7
6
CONTINUOUS
70
0
71
3
72
15
73
11
74
9
42
0.0000001000
43
0.0000001000
44
0.0000000001
12
4.3531042426
22
2.1618590914
32
0.0000000000
13
0.0000000000
23
-4.8306705937
33
0.0000000000
40
0.0000000000
40
0.0000000000
40
0.0000000000
40
0.0000000000
40
0.0819371107
40
0.1828571278
40
0.2993106887
40
0.4311005963
40
0.5739205911
40
0.7211845328
40
0.8654989351
40
1.0000000000
40
1.0000000000
40
1.0000000000
40
1.0000000000
10
44.7289132397
20
9.6085513725
30
0.0000000000
10
44.8478068345
20
9.6675968684
30
0.0000000000
10
45.1427207978
20
9.7418224257
30
0.0000000000
10
45.6291164539
20
9.6597452892
30
0.0000000000
10
46.1328713337
20
9.3953312624
30
0.0000000000
10
46.6093573797
20
8.9763984124
30
0.0000000000
10
47.0256689608
20
8.4349037967
30
0.0000000000
10
47.3509786268
20
7.8116822966
30
0.0000000000
10
47.5604353722
20
7.1548905883
30
0.0000000000
10
47.6146783112
20
6.7052489261
30
0.0000000000
10
47.6146783112
20
6.4886721464
30
0.0000000000
11
44.7289132397
21
9.6085513725
31
0.0000000000
11
45.1125544265
21
9.7091451290
31
0.0000000000
11
45.5953318903
21
9.6413716416
31
0.0000000000
11
46.0984908263
21
9.3897921736
31
0.0000000000
11
46.5812682900
21
8.9747881972
31
0.0000000000
11
47.0045525225
21
8.4299808665
31
0.0000000000
11
47.3340515527
21
7.7995072313
31
0.0000000000
11
47.5430713286
21
7.1344445160
31
0.0000000000
11
47.6146783112
21
6.4886721464
31
0.0000000000
0
SPLINE
5
28C
100
AcDbEntity
8
0
100
AcDbSpline
62
7
6
CONTINUOUS
70
0
71
3
72
19
73
15
74
13
42
0.0000001000
43
0.0000001000
44
0.0000000001
12
6.6067262161
22
-3.3113691204
32
0.0000000000
13
-6.5788401672
23
-3.2894200836
33
0.0000000000
40
0.0000000000
40
0.0000000000
40
0.0000000000
40
0.0000000000
40
0.0446997208
40
0.1088314443
40
0.1792983043
40
0.2576313340
40
0.3437820509
40
0.4365230072
40
0.5338319544
40
0.6332114005
40
0.7319646195
40
0.8274541840
40
0.9173656102
40
1.0000000000
40
1.0000000000
40
1.0000000000
40
1.0000000000
10
-52.3609308650
20
-24.7433134573
30
0.0000000000
10
-52.2624912593
20
-24.7926525490
30
0.0000000000
10
-52.0376283586
20
-24.9428518255
30
0.0000000000
10
-51.7539701206
20
-25.2880446981
30
0.0000000000
10
-51.5464318613
20
-25.7731564331
30
0.0000000000
10
-51.4442467222
20
-26.3440954520
30
0.0000000000
10
-51.4488512914
20
-26.9777091519
30
0.0000000000
10
-51.5590207576
20
-27.6482951421
30
0.0000000000
10
-51.7698347313
20
-28.3280525351
30
0.0000000000
10
-52.0723264079
20
-28.9883859854
30
0.0000000000
10
-52.4536449470
20
-29.6013276657
30
0.0000000000
10
-52.8978166883
20
-30.1409956179
30
0.0000000000
10
-53.3859935109
20
-30.5844762239
30
0.0000000000
10
-53.7446426529
20
-30.8143134747
30
0.0000000000
10
-53.9258554671
20
-30.9049198818
30
0.0000000000
11
-52.3609308650
21
-24.7433134573
31
0.0000000000
11
-52.0866658579
21
-24.9260418015
31
0.0000000000
11
-51.7825519422
21
-25.2866347494
31
0.0000000000
11
-51.5721106753
21
-25.7603005869
31
0.0000000000
11
-51.4645393503
21
-26.3263378440
31
0.0000000000
11
-51.4645393503
21
-26.9600079762
31
0.0000000000
11
-51.5721106753
21
-27.6336165582
31
0.0000000000
11
-51.7825519422
21
-28.3177236627
31
0.0000000000
11
-52.0866658579
21
-28.9824305264
31
0.0000000000
11
-52.4711611849
21
-29.5986862697
31
0.0000000000
11
-52.9192336325
21
-30.1395575596
31
0.0000000000
11
-53.4113002845
21
-30.5814057253
31
0.0000000000
11
-53.9258554671
21
-30.9049198818
31
0.0000000000
0
SPLINE
5
28D
100
AcDbEntity
8
0
100
AcDbSpline
62
7
6
CONTINUOUS
70
0
71
3
72
13
73
9
74
7
42
0.0000001000
43
0.0000001000
44
0.0000000001
12
0.0000000000
22
1.0719779232
32
0.0000000000
13
-0.6014364481
23
-0.9239276484
33
0.0000000000
40
0.0000000000
40
0.0000000000
40
0.0000000000
40
0.0000000000
40
0.1943571726
40
0.4019283359
40
0.5975295028
40
0.7616357225
40
0.8944131086
40
1.0000000000
40
1.0000000000
40
1.0000000000
40
1.0000000000
10
43.0184842335
20
5.6047886700
30
0.0000000000
10
43.0184842335
20
5.6742375360
30
0.0000000000
10
42.9911565592
20
5.8180709170
30
0.0000000000
10
42.8959571566
20
6.0117479210
30
0.0000000000
10
42.7594893884
20
6.1651614229
30
0.0000000000
10
42.6025425632
20
6.2553156491
30
0.0000000000
10
42.4463265561
20
6.2491620044
30
0.0000000000
10
42.3819137501
20
6.1861551009
30
0.0000000000
10
42.3607458151
20
6.1536368848
30
0.0000000000
11
43.0184842335
21
5.6047886700
31
0.0000000000
11
42.9834714410
21
5.8101722364
31
0.0000000000
11
42.8853677764
21
6.0098898612
31
0.0000000000
11
42.7436038736
21
6.1643850193
31
0.0000000000
11
42.5862578123
21
6.2430580500
31
0.0000000000
11
42.4444939095
21
6.2303267946
31
0.0000000000
11
42.3607458151
21
6.1536368848
31
0.0000000000
0
SPLINE
5
28E
100
AcDbEntity
8
0
100
AcDbSpline
62
7
6
CONTINUOUS
70
0
71
3
72
9
73
5
74
3
42
0.0000001000
43
0.0000001000
44
0.0000000001
12
0.0780104948
22
0.1788740227
32
0.0000000000
13
0.0000000000
23
0.1951449546
33
0.0000000000
40
0.0000000000
40
0.0000000000
40
0.0000000000
40
0.0000000000
40
0.4701811983
40
1.0000000000
40
1.0000000000
40
1.0000000000
40
1.0000000000
10
-48.4461387193
20
-15.7721401543
30
0.0000000000
10
-48.4339123633
20
-15.7441057535
30
0.0000000000
10
-48.4156380483
20
-15.6810133749
30
0.0000000000
10
-48.4104225739
20
-15.6157858238
30
0.0000000000
10
-48.4104225739
20
-15.5813220018
30
0.0000000000
11
-48.4461387193
21
-15.7721401543
31
0.0000000000
11
-48.4196148072
21
-15.6843040298
31
0.0000000000
11
-48.4104225739
21
-15.5813220018
31
0.0000000000
0
SPLINE
5
28F
100
AcDbEntity
8
0
100
AcDbSpline
62
7
6
CONTINUOUS
70
0
71
3
72
19
73
15
74
13
42
0.0000001000
43
0.0000001000
44
0.0000000001
12
6.6067262161
22
-3.3113691204
32
0.0000000000
13
-6.5788401672
23
-3.2894200836
33
0.0000000000
40
0.0000000000
40
0.0000000000
40
0.0000000000
40
0.0000000000
40
0.0446997208
40
0.1088314443
40
0.1792983043
40
0.2576313340
40
0.3437820509
40
0.4365230072
40
0.5338319544
40
0.6332114005
40
0.7319646195
40
0.8274541840
40
0.9173656102
40
1.0000000000
40
1.0000000000
40
1.0000000000
40
1.0000000000
10
-52.3609308650
20
2.9694994638
30
0.0000000000
10
-52.2624912593
20
2.9201603721
30
0.0000000000
10
-52.0376283586
20
2.7699610956
30
0.0000000000
10
-51.7539701206
20
2.4247682230
30
0.0000000000
10
-51.5464318613
20
1.9396564880
30
0.0000000000
10
-51.4442467222
20
1.3687174691
30
0.0000000000
10
-51.4488512914
20
0.7351037692
30
0.0000000000
10
-51.5590207576
20
0.0645177790
30
0.0000000000
10
-51.7698347313
20
-0.6152396140
30
0.0000000000
10
-52.0723264079
20
-1.2755730643
30
0.0000000000
10
-52.4536449470
20
-1.8885147446
30
0.0000000000
10
-52.8978166883
20
-2.4281826968
30
0.0000000000
10
-53.3859935109
20
-2.8716633028
30
0.0000000000
10
-53.7446426529
20
-3.1015005536
30
0.0000000000
10
-53.9258554671
20
-3.1921069607
30
0.0000000000
11
-52.3609308650
21
2.9694994638
31
0.0000000000
11
-52.0866658579
21
2.7867711196
31
0.0000000000
11
-51.7825519422
21
2.4261781717
31
0.0000000000
11
-51.5721106753
21
1.9525123342
31
0.0000000000
11
-51.4645393503
21
1.3864750771
31
0.0000000000
11
-51.4645393503
21
0.7528049449
31
0.0000000000
11
-51.5721106753
21
0.0791963629
31
0.0000000000
11
-51.7825519422
21
-0.6049107416
31
0.0000000000
11
-52.0866658579
21
-1.2696176052
31
0.0000000000
11
-52.4711611849
21
-1.8858733486
31
0.0000000000
11
-52.9192336325
21
-2.4267446385
31
0.0000000000
11
-53.4113002845
21
-2.8685928042
31
0.0000000000
11
-53.9258554671
21
-3.1921069607
31
0.0000000000
0
SPLINE
5
290
100
AcDbEntity
8
0
100
AcDbSpline
62
7
6
CONTINUOUS
70
0
71
3
72
11
73
7
74
5
42
0.0000001000
43
0.0000001000
44
0.0000000001
12
0.0000000000
22
-1.5711153311
32
0.0000000000
13
-1.4157928347
23
-0.7031176927
33
0.0000000000
40
0.0000000000
40
0.0000000000
40
0.0000000000
40
0.0000000000
40
0.3682819303
40
0.6875848219
40
0.9716303090
40
1.0000000000
40
1.0000000000
40
1.0000000000
40
1.0000000000
10
47.6146783112
20
6.4886721464
30
0.0000000000
10
47.6146783112
20
6.2958010175
30
0.0000000000
10
47.5760528175
20
5.9332421748
30
0.0000000000
10
47.3725671769
20
5.4558355998
30
0.0000000000
10
47.1238853366
20
5.2200313239
30
0.0000000000
10
46.9782980119
20
5.1432089506
30
0.0000000000
10
46.9649094769
20
5.1365598733
30
0.0000000000
11
47.6146783112
21
6.4886721464
31
0.0000000000
11
47.5430713286
21
5.9145067595
31
0.0000000000
11
47.3340515527
21
5.4584638201
31
0.0000000000
11
47.0045525225
21
5.1574892151
31
0.0000000000
11
46.9649094769
21
5.1365598733
31
0.0000000000
0
SPLINE
5
291
100
AcDbEntity
8
0
100
AcDbSpline
62
9
6
CONTINUOUS
70
0
71
3
72
10
73
6
74
4
42
0.0000001000
43
0.0000001000
44
0.0000000001
12
0.4630089069
22
0.2719608320
32
0.0000000000
13
-0.0441544362
23
0.5424003662
33
0.0000000000
40
0.0000000000
40
0.0000000000
40
0.0000000000
40
0.0000000000
40
0.4363943227
40
0.7941456153
40
1.0000000000
40
1.0000000000
40
1.0000000000
40
1.0000000000
10
-47.6820492894
20
-6.5739074786
30
0.0000000000
10
-47.6146978033
20
-6.5343467576
30
0.0000000000
10
-47.4992610310
20
-6.4479544616
30
0.0000000000
10
-47.3989685163
20
-6.2918852540
30
0.0000000000
10
-47.3890106183
20
-6.1879572783
30
0.0000000000
10
-47.3920404130
20
-6.1507387804
30
0.0000000000
11
-47.6820492894
21
-6.5739074786
31
0.0000000000
11
-47.4986368361
21
-6.4280605317
31
0.0000000000
11
-47.4024970760
21
-6.2617457136
31
0.0000000000
11
-47.3920404130
21
-6.1507387804
31
0.0000000000
0
SPLINE
5
292
100
AcDbEntity
8
0
100
AcDbSpline
62
9
6
CONTINUOUS
70
0
71
3
72
10
73
6
74
4
42
0.0000001000
43
0.0000001000
44
0.0000000001
12
0.3955761037
22
0.1631654465
32
0.0000000000
13
0.0313802124
23
0.4347256242
33
0.0000000000
40
0.0000000000
40
0.0000000000
40
0.0000000000
40
0.0000000000
40
0.4964609409
40
0.8753464350
40
1.0000000000
40
1.0000000000
40
1.0000000000
40
1.0000000000
10
-47.6820492894
20
-15.2171353596
30
0.0000000000
10
-47.6165865945
20
-15.1901336026
30
0.0000000000
10
-47.5052507386
20
-15.1315301317
30
0.0000000000
10
-47.4071087783
20
-15.0168556388
30
0.0000000000
10
-47.3934093980
20
-14.9448743608
30
0.0000000000
10
-47.3921055129
20
-14.9268109945
30
0.0000000000
11
-47.6820492894
21
-15.2171353596
31
0.0000000000
11
-47.4984755478
21
-15.1102203695
31
0.0000000000
11
-47.4023810743
21
-14.9796404327
31
0.0000000000
11
-47.3921055129
21
-14.9268109945
31
0.0000000000
0
SPLINE
5
293
100
AcDbEntity
8
0
100
AcDbSpline
62
7
6
CONTINUOUS
70
0
71
3
72
11
73
7
74
5
42
0.0000001000
43
0.0000001000
44
0.0000000001
12
-2.0708386380
22
1.0354193190
32
0.0000000000
13
-2.0795181192
23
-1.0410325174
33
0.0000000000
40
0.0000000000
40
0.0000000000
40
0.0000000000
40
0.0000000000
40
0.3572044044
40
0.6849784583
40
0.9867396446
40
1.0000000000
40
1.0000000000
40
1.0000000000
40
1.0000000000
10
-54.7743836046
20
10.7583249863
30
0.0000000000
10
-55.0209544987
20
10.8816104334
30
0.0000000000
10
-55.5205310255
20
11.0713492475
30
0.0000000000
10
-56.2910436741
20
11.1407761154
30
0.0000000000
10
-56.7820276332
20
11.0123716878
30
0.0000000000
10
-57.0013106127
20
10.9049027407
30
0.0000000000
10
-57.0105023291
20
10.9003012537
30
0.0000000000
11
-54.7743836046
21
10.7583249863
31
0.0000000000
11
-55.5515953348
21
11.0410094252
31
0.0000000000
11
-56.3084480241
21
11.0965081133
31
0.0000000000
11
-56.9828120328
21
10.9138713068
31
0.0000000000
11
-57.0105023291
21
10.9003012537
31
0.0000000000
0
SPLINE
5
294
100
AcDbEntity
8
0
100
AcDbSpline
62
9
6
CONTINUOUS
70
0
71
3
72
10
73
6
74
4
42
0.0000001000
43
0.0000001000
44
0.0000000001
12
0.0000000000
22
-1.5688447271
32
0.0000000000
13
-1.4104322246
23
-0.7145538885
33
0.0000000000
40
0.0000000000
40
0.0000000000
40
0.0000000000
40
0.0000000000
40
0.4026746201
40
0.7468391539
40
1.0000000000
40
1.0000000000
40
1.0000000000
40
1.0000000000
10
64.5852410597
20
14.9739535207
30
0.0000000000
10
64.5852410597
20
14.7633755359
30
0.0000000000
10
64.5398015010
20
14.3695852004
30
0.0000000000
10
64.3061384271
20
13.8857810503
30
0.0000000000
10
64.0543697733
20
13.6823846380
30
0.0000000000
10
63.9353477015
20
13.6220856156
30
0.0000000000
11
64.5852410597
21
14.9739535207
31
0.0000000000
11
64.4987203867
21
14.3481724389
31
0.0000000000
11
64.2476276138
21
13.8701678425
31
0.0000000000
11
63.9353477015
21
13.6220856156
31
0.0000000000
0
ENDSEC
0
SECTION
2
OBJECTS
0
DICTIONARY
5
295
100
AcDbDictionary
3
ACAD_GROUP
350
296
3
ACAD_MLINESTYLE
350
297
0
DICTIONARY
5
296
102
{ACAD_REACTORS
330
295
102
}
100
AcDbDictionary
0
DICTIONARY
5
297
102
{ACAD_REACTORS
330
295
102
}
100
AcDbDictionary
3
STANDARD
350
298
0
MLINESTYLE
5
298
102
{ACAD_REACTORS
330
297
102
}
100
AcDbMlineStyle
2
STANDARD
70
0
3

62
256
51
90.0
52
90.0
71
2
49
0.5
62
256
6
BYLAYER
49
-0.5
62
256
6
BYLAYER
0
ENDSEC
0
EOF
