0
SECTION
2
HEADER
9
$ACADVER
1
AC1014
9
$HANDSEED
5
       3C0
9
$EXTMAX
10
297.0000000000
20
210.0000000000
9
$EXTMIN
10
0.0000000000
20
0.0000000000
9
$LIMMIN
10
0.0000000000
20
0.0000000000
9
$LIMMAX
10
297.0000000000
20
210.0000000000
9
$VIEWCTR
10
148.5000000000
20
105.0000000000
9
$VIEWSIZE
40
210.0000000000
9
$CLAYER
8
0
9
$LTSCALE
40
16.3350000000
9
$CELTYPE
6
BYLAYER
9
$DIMSCALE
40
1
9
$DIMASZ
40
3.0000000000
9
$DIMEXO
40
1.8562500000
9
$DIMDLI
40
11.2860000000
9
$DIMEXE
40
5.3460000000
9
$DIMCEN
40
2.6730000000
9
$DIMLFAC
40
1.0000000000
9
$DIMTXT
40
3.0000000000
9
$DIMTOL
70
1
9
$DIMLIM
70
0
9
$DIMTFAC
40
1.0000000000
9
$DIMTP
40
0.0100000000
9
$DIMTM
40
0.0100000000
9
$MEASUREMENT
70
1
0
ENDSEC
0
SECTION
2
CLASSES
0
ENDSEC
0
SECTION
2
TABLES
0
TABLE
2
VPORT
5
8
100
AcDbSymbolTable
70
2
0
VPORT
5
1F4
100
AcDbSymbolTableRecord
100
AcDbViewportTableRecord
2
*ACTIVE
70
0
10
0.0
20
0.0
11
1.0
21
1.0
12
148.5000000000
22
105.0000000000
13
0.0
23
0.0
14
1.0
24
1.0
15
0.0
25
0.0
16
0.0
26
0.0
36
1.0
17
0.0
27
0.0
37
0.0
40
210.0000000000
41
1.4142857143
42
50.0
43
0.0
44
0.0
50
0.0
51
0.0
71
0
72
100
73
1
74
1
75
0
76
0
77
0
78
0
0
ENDTAB
0
TABLE
2
LTYPE
5
5
100
AcDbSymbolTable
70
6
0
LTYPE
5
14
100
AcDbSymbolTableRecord
100
AcDbLinetypeTableRecord
2
BYBLOCK
70
0
3

72
65
73
0
40
0.0
0
LTYPE
5
15
100
AcDbSymbolTableRecord
100
AcDbLinetypeTableRecord
2
BYLAYER
70
0
3

72
65
73
0
40
0.0
0
LTYPE
5
16
100
AcDbSymbolTableRecord
100
AcDbLinetypeTableRecord
2
CONTINUOUS
70
64
3
Solid line
72
65
73
0
40
0
0
LTYPE
5
1F5
100
AcDbSymbolTableRecord
100
AcDbLinetypeTableRecord
2
CENTER
70
64
3
____ _ ____ _ ____ _ ____ _ ____ _ ____ _ ____
72
65
73
4
40
0.6
49
0.375
74
0
49
-0.075
74
0
49
0.075
74
0
49
-0.075
74
0
0
LTYPE
5
1F6
100
AcDbSymbolTableRecord
100
AcDbLinetypeTableRecord
2
HIDDEN
70
64
3
- - - - - - - - - - - - - - - - - - - -
72
65
73
2
40
0.2
49
0.1
74
0
49
-0.1
74
0
0
LTYPE
5
1F7
100
AcDbSymbolTableRecord
100
AcDbLinetypeTableRecord
2
PHANTOM
70
64
3
_____ _ _ _____ _ _ _____ _ _ _____
72
65
73
6
40
0.8
49
0.45
74
0
49
-0.05
74
0
49
0.1
74
0
49
-0.05
74
0
49
0.1
74
0
49
-0.05
74
0
0
LTYPE
5
1F8
100
AcDbSymbolTableRecord
100
AcDbLinetypeTableRecord
2
DOT
70
64
3
. . . . . . . . . . . . . . . . . . . .
72
65
73
2
40
0.2
49
0.1
74
0
49
-0.1
74
0
0
LTYPE
5
1F9
100
AcDbSymbolTableRecord
100
AcDbLinetypeTableRecord
2
DASHED
70
64
3
- - - - - - - - - - - - - - - - - - - -
72
65
73
2
40
0.2
49
0.1
74
0
49
-0.1
74
0
0
ENDTAB
0
TABLE
2
LAYER
5
2
100
AcDbSymbolTable
70
36
0
LAYER
5
10
100
AcDbSymbolTableRecord
100
AcDbLayerTableRecord
2
0
70
0
62
7
6
CONTINUOUS
0
LAYER
5
1FA
100
AcDbSymbolTableRecord
100
AcDbLayerTableRecord
2
DEFAULT_1
70
0
62
7
6
CENTER
0
LAYER
5
1FB
100
AcDbSymbolTableRecord
100
AcDbLayerTableRecord
2
DEFAULT_2
70
0
62
8
6
HIDDEN
0
LAYER
5
1FC
100
AcDbSymbolTableRecord
100
AcDbLayerTableRecord
2
DEFAULT_3
70
0
62
7
6
PHANTOM
0
LAYER
5
1FD
100
AcDbSymbolTableRecord
100
AcDbLayerTableRecord
2
ASSI
70
0
62
7
6
CONTINUOUS
0
LAYER
5
1FE
100
AcDbSymbolTableRecord
100
AcDbLayerTableRecord
2
COORDINATE
70
0
62
7
6
CONTINUOUS
0
LAYER
5
1FF
100
AcDbSymbolTableRecord
100
AcDbLayerTableRecord
2
COORD_ORIGINE
70
0
62
7
6
CONTINUOUS
0
LAYER
5
200
100
AcDbSymbolTableRecord
100
AcDbLayerTableRecord
2
CURVE
70
0
62
7
6
CONTINUOUS
0
LAYER
5
201
100
AcDbSymbolTableRecord
100
AcDbLayerTableRecord
2
DRAFT
70
0
62
7
6
CONTINUOUS
0
LAYER
5
202
100
AcDbSymbolTableRecord
100
AcDbLayerTableRecord
2
IGES
70
0
62
7
6
CONTINUOUS
0
LAYER
5
203
100
AcDbSymbolTableRecord
100
AcDbLayerTableRecord
2
NOTE
70
0
62
7
6
CONTINUOUS
0
LAYER
5
204
100
AcDbSymbolTableRecord
100
AcDbLayerTableRecord
2
PIANI
70
0
62
7
6
CONTINUOUS
0
LAYER
5
205
100
AcDbSymbolTableRecord
100
AcDbLayerTableRecord
2
PIANI_ORIGINE
70
0
62
7
6
CONTINUOUS
0
LAYER
5
206
100
AcDbSymbolTableRecord
100
AcDbLayerTableRecord
2
PUNTI
70
0
62
7
6
CONTINUOUS
0
LAYER
5
207
100
AcDbSymbolTableRecord
100
AcDbLayerTableRecord
2
RACCORDO
70
0
62
7
6
CONTINUOUS
0
LAYER
5
208
100
AcDbSymbolTableRecord
100
AcDbLayerTableRecord
2
SMUSSO
70
0
62
7
6
CONTINUOUS
0
LAYER
5
209
100
AcDbSymbolTableRecord
100
AcDbLayerTableRecord
2
SNAPLINE
70
0
62
7
6
CONTINUOUS
0
LAYER
5
20A
100
AcDbSymbolTableRecord
100
AcDbLayerTableRecord
2
SUPERFICI
70
0
62
7
6
CONTINUOUS
0
LAYER
5
20B
100
AcDbSymbolTableRecord
100
AcDbLayerTableRecord
2
TRASH
70
0
62
7
6
CONTINUOUS
0
ENDTAB
0
TABLE
2
STYLE
5
3
100
AcDbSymbolTable
70
1
0
STYLE
5
11
100
AcDbSymbolTableRecord
100
AcDbTextStyleTableRecord
2
STANDARD
70
0
40
0.0
41
0.8000000000
50
0.0
71
0
42
0.2
3
txt
4

0
ENDTAB
0
TABLE
2
VIEW
5
6
100
AcDbSymbolTable
70
0
0
ENDTAB
0
TABLE
2
UCS
5
7
100
AcDbSymbolTable
70
0
0
ENDTAB
0
TABLE
2
APPID
5
9
100
AcDbSymbolTable
70
1
0
APPID
5
20C
100
AcDbSymbolTableRecord
100
AcDbRegAppTableRecord
2
ACAD
70
0
0
ENDTAB
0
TABLE
2
DIMSTYLE
5
A
100
AcDbSymbolTable
70
1
0
DIMSTYLE
105
20D
100
AcDbSymbolTableRecord
100
AcDbDimStyleTableRecord
2
STANDARD
70
0
3

4

5

6

7

40
1.0
41
3.0000000000
42
0.0625
43
0.38
44
0.18
45
0.0
46
0.0
47
0.0100000000
48
0.0100000000
140
3.0000000000
141
0.09
142
0.0
143
25.4
144
1.0000000000
145
0.0
146
1.0000000000
147
0.09
71
1
72
0
73
0
74
0
75
0
76
0
77
1
78
8
170
0
171
2
172
0
173
0
174
0
175
0
176
0
177
0
178
0
270
2
271
2
272
2
273
2
274
2
340
11
275
0
280
0
281
0
282
0
283
1
284
8
285
0
286
0
287
3
288
0
0
ENDTAB
0
TABLE
2
BLOCK_RECORD
5
1
100
AcDbSymbolTable
70
0
0
BLOCK_RECORD
5
1B
100
AcDbSymbolTableRecord
100
AcDbBlockTableRecord
2
*MODEL_SPACE
0
BLOCK_RECORD
5
1C
100
AcDbSymbolTableRecord
100
AcDbBlockTableRecord
2
*PAPER_SPACE
0
ENDTAB
0
ENDSEC
0
SECTION
2
BLOCKS
0
BLOCK
5
1E
100
AcDbEntity
8
0
100
AcDbBlockBegin
2
*MODEL_SPACE
70
0
10
0.0
20
0.0
30
0.0
3
*MODEL_SPACE
1

0
ENDBLK
5
1F
100
AcDbEntity
8
0
100
AcDbBlockEnd
0
BLOCK
5
20
100
AcDbEntity
8
0
100
AcDbBlockBegin
2
*PAPER_SPACE
70
0
10
0.0
20
0.0
30
0.0
3
*PAPER_SPACE
1

0
ENDBLK
5
21
100
AcDbEntity
8
0
100
AcDbBlockEnd
0
ENDSEC
0
SECTION
2
ENTITIES
0
LINE
5
20E
100
AcDbEntity
8
0
100
AcDbLine
62
7
6
CONTINUOUS
10
-319.9266062802
20
-565.5993799298
11
-310.0271113436
21
-570.5491273981
0
LINE
5
20F
100
AcDbEntity
8
0
100
AcDbLine
62
7
6
CONTINUOUS
10
-321.3408198425
20
-564.5744359034
11
-311.4413249059
21
-569.5241833717
0
LINE
5
210
100
AcDbEntity
8
0
100
AcDbLine
62
7
6
CONTINUOUS
10
-283.2321483986
20
-454.0698275460
11
-289.4145767338
21
-449.5562665290
0
LINE
5
211
100
AcDbEntity
8
0
100
AcDbLine
62
7
6
CONTINUOUS
10
-286.1308619374
20
-447.8395117897
11
-279.9482893525
21
-452.3530006819
0
LINE
5
212
100
AcDbEntity
8
0
100
AcDbLine
62
7
6
CONTINUOUS
10
53.4257741863
20
209.6562476317
11
95.1450742763
21
230.5158976767
0
LINE
5
213
100
AcDbEntity
8
0
100
AcDbLine
62
7
6
CONTINUOUS
10
-278.2073061902
20
43.8397074434
11
-319.9266062802
21
22.9800573984
0
LINE
5
214
100
AcDbEntity
8
0
100
AcDbLine
62
7
6
CONTINUOUS
10
-320.5048730620
20
20.9588731999
11
-321.3408198425
21
20.5408998097
0
LINE
5
215
100
AcDbEntity
8
0
100
AcDbLine
62
7
6
CONTINUOUS
10
-320.2801596708
20
20.0105697238
11
-319.8948225556
21
20.2032382813
0
LINE
5
216
100
AcDbEntity
8
0
100
AcDbLine
62
9
6
CONTINUOUS
10
63.3252691229
20
203.2922866010
11
100.0960482317
21
221.6776761554
0
LINE
5
217
100
AcDbEntity
8
0
100
AcDbLine
62
9
6
CONTINUOUS
10
-265.4793841288
20
38.8899599751
11
-310.0271113436
21
16.6160963677
0
LINE
5
218
100
AcDbEntity
8
DEFAULT_3
100
AcDbLine
62
8
6
PHANTOM
10
63.6788225135
20
200.9067032303
11
-264.1354393798
21
36.9995722837
0
LINE
5
219
100
AcDbEntity
8
0
100
AcDbLine
62
9
6
CONTINUOUS
10
-308.6128977812
20
14.1769387790
11
-264.0651705664
21
36.4508023863
0
LINE
5
21A
100
AcDbEntity
8
0
100
AcDbLine
62
9
6
CONTINUOUS
10
64.7394826853
20
200.8531290122
11
109.2872099001
21
223.1269926196
0
LINE
5
21B
100
AcDbEntity
8
DEFAULT_3
100
AcDbLine
62
8
6
PHANTOM
10
63.6788225135
20
199.4924896679
11
-264.0651705664
21
35.6204931280
0
LINE
5
21C
100
AcDbEntity
8
DEFAULT_3
100
AcDbLine
62
8
6
PHANTOM
10
63.6788225135
20
197.9193574830
11
-264.0651705664
21
34.0473609430
0
LINE
5
21D
100
AcDbEntity
8
0
100
AcDbLine
62
7
6
CONTINUOUS
10
-294.0673322829
20
-433.8585096398
11
-283.9025280536
21
-432.6107554298
0
LINE
5
21E
100
AcDbEntity
8
0
100
AcDbLine
62
7
6
CONTINUOUS
10
-279.9411108044
20
-428.8478358063
11
-294.0673322829
21
-430.1499169288
0
LINE
5
21F
100
AcDbEntity
8
0
100
AcDbLine
62
7
6
CONTINUOUS
10
-321.9266062802
20
-563.8673291222
11
-321.9266062802
21
19.8337930285
0
LINE
5
220
100
AcDbEntity
8
0
100
AcDbLine
62
9
6
CONTINUOUS
10
-321.3408198425
20
-564.5744359034
11
-321.3408198425
21
19.1266862473
0
LINE
5
221
100
AcDbEntity
8
0
100
AcDbLine
62
7
6
CONTINUOUS
10
-320.5123927178
20
22.2729506172
11
-320.5123927178
21
20.9739125115
0
LINE
5
222
100
AcDbEntity
8
0
100
AcDbLine
62
9
6
CONTINUOUS
10
-320.2801596708
20
19.6570163332
11
-320.2801596708
21
20.0105697238
0
LINE
5
223
100
AcDbEntity
8
0
100
AcDbLine
62
9
6
CONTINUOUS
10
-319.9266062802
20
21.5658438360
11
-319.9266062802
21
20.2668057304
0
LINE
5
224
100
AcDbEntity
8
0
100
AcDbLine
62
9
6
CONTINUOUS
10
-319.9266062802
20
-565.2815426846
11
-319.9266062802
21
-565.5993799298
0
LINE
5
225
100
AcDbEntity
8
0
100
AcDbLine
62
7
6
CONTINUOUS
10
99.7674377288
20
236.0992210065
11
99.1142404641
21
235.6373407912
0
LINE
5
226
100
AcDbEntity
8
0
100
AcDbLine
62
7
6
CONTINUOUS
10
-294.0894392693
20
-412.0918284181
11
-283.9908117494
21
-410.7300092582
0
LINE
5
227
100
AcDbEntity
8
0
100
AcDbLine
62
7
6
CONTINUOUS
10
-279.9287661342
20
-406.9018295853
11
-289.7039743261
21
-408.1708591148
0
LINE
5
228
100
AcDbEntity
8
0
100
AcDbLine
62
7
6
CONTINUOUS
10
-294.0894393275
20
-400.8338434797
11
-279.9336467477
21
-399.7328731156
0
LINE
5
229
100
AcDbEntity
8
0
100
AcDbLine
62
7
6
CONTINUOUS
10
-311.7948782965
20
15.4143756460
11
-311.7948782965
21
16.2009417385
0
LINE
5
22A
100
AcDbEntity
8
0
100
AcDbLine
62
9
6
CONTINUOUS
10
-311.4413249059
20
-569.5241833717
11
-311.4413249059
21
14.1769387790
0
LINE
5
22B
100
AcDbEntity
8
0
100
AcDbLine
62
9
6
CONTINUOUS
10
-308.6128977812
20
-569.5241833717
11
-308.6128977812
21
14.1769387790
0
LINE
5
22C
100
AcDbEntity
8
0
100
AcDbLine
62
7
6
CONTINUOUS
10
-294.0895835191
20
-451.8937699216
11
-294.0895835191
21
-467.0704425025
0
LINE
5
22D
100
AcDbEntity
8
0
100
AcDbLine
62
7
6
CONTINUOUS
10
-294.0894393275
20
-382.2005184617
11
-294.0894393275
21
-390.8779262741
0
LINE
5
22E
100
AcDbEntity
8
0
100
AcDbLine
62
7
6
CONTINUOUS
10
-294.0894393275
20
-397.0049961797
11
-294.0894393275
21
-400.8338434797
0
LINE
5
22F
100
AcDbEntity
8
0
100
AcDbLine
62
7
6
CONTINUOUS
10
-294.0894392693
20
-407.0780037878
11
-294.0894392693
21
-412.0918284181
0
LINE
5
230
100
AcDbEntity
8
0
100
AcDbLine
62
7
6
CONTINUOUS
10
-294.0894392693
20
-419.4671692246
11
-294.0894392693
21
-424.4809921229
0
LINE
5
231
100
AcDbEntity
8
0
100
AcDbLine
62
7
6
CONTINUOUS
10
-294.0747965021
20
-426.2289847213
11
-294.0747965021
21
-429.8174960818
0
LINE
5
232
100
AcDbEntity
8
0
100
AcDbLine
62
7
6
CONTINUOUS
10
-294.0673322829
20
-430.1499169288
11
-294.0673322829
21
-433.8585096398
0
LINE
5
233
100
AcDbEntity
8
0
100
AcDbLine
62
7
6
CONTINUOUS
10
-294.0673322829
20
-441.5279838504
11
-294.0673322829
21
-445.2365748293
0
LINE
5
234
100
AcDbEntity
8
0
100
AcDbLine
62
7
6
CONTINUOUS
10
-294.0456120839
20
-53.7611626872
11
-294.0456120839
21
-68.1112928285
0
LINE
5
235
100
AcDbEntity
8
0
100
AcDbLine
62
7
6
CONTINUOUS
10
-294.0456120839
20
-72.6227274619
11
-294.0456120839
21
-86.2745267605
0
LINE
5
236
100
AcDbEntity
8
0
100
AcDbLine
62
7
6
CONTINUOUS
10
-294.0456120839
20
-129.4413430417
11
-294.0456120839
21
-146.0619952040
0
LINE
5
237
100
AcDbEntity
8
0
100
AcDbLine
62
7
6
CONTINUOUS
10
-294.0456120839
20
-148.7398384172
11
-294.0456120839
21
-163.0899676925
0
LINE
5
238
100
AcDbEntity
8
0
100
AcDbLine
62
7
6
CONTINUOUS
10
-294.0456120839
20
-169.0276751518
11
-294.0456120839
21
-171.6474816726
0
LINE
5
239
100
AcDbEntity
8
0
100
AcDbLine
62
7
6
CONTINUOUS
10
-294.0456120839
20
-182.6502183803
11
-294.0456120839
21
-185.5901719762
0
LINE
5
23A
100
AcDbEntity
8
0
100
AcDbLine
62
7
6
CONTINUOUS
10
-293.2147050475
20
-97.1026596943
11
-293.2147050475
21
-99.5880538723
0
LINE
5
23B
100
AcDbEntity
8
0
100
AcDbLine
62
7
6
CONTINUOUS
10
-292.4611639782
20
-159.5324587074
11
-292.4611639782
21
-147.9476013746
0
LINE
5
23C
100
AcDbEntity
8
0
100
AcDbLine
62
7
6
CONTINUOUS
10
-292.4611639782
20
-145.2697650892
11
-292.4611639782
21
-138.3420693495
0
LINE
5
23D
100
AcDbEntity
8
0
100
AcDbLine
62
7
6
CONTINUOUS
10
-292.4611639782
20
-135.5767922116
11
-292.4611639782
21
-128.6490964733
0
LINE
5
23E
100
AcDbEntity
8
0
100
AcDbLine
62
7
6
CONTINUOUS
10
-292.4611639782
20
-82.7168514986
11
-292.4611639782
21
-71.8305034090
0
LINE
5
23F
100
AcDbEntity
8
0
100
AcDbLine
62
7
6
CONTINUOUS
10
-292.4611639782
20
-64.5536972409
11
-292.4611639782
21
-52.9689637478
0
LINE
5
240
100
AcDbEntity
8
0
100
AcDbLine
62
7
6
CONTINUOUS
10
-291.8110072926
20
-386.1683075122
11
-291.8110072926
21
-381.9252456728
0
LINE
5
241
100
AcDbEntity
8
0
100
AcDbLine
62
7
6
CONTINUOUS
10
-289.7068882928
20
-111.6284927703
11
-289.7068882928
21
-108.6794217096
0
LINE
5
242
100
AcDbEntity
8
0
100
AcDbLine
62
7
6
CONTINUOUS
10
-287.9652539055
20
-51.5067249827
11
-287.9652539055
21
-62.3057474007
0
LINE
5
243
100
AcDbEntity
8
0
100
AcDbLine
62
7
6
CONTINUOUS
10
-287.9652539055
20
-70.9216479475
11
-287.9652539055
21
-80.4688964622
0
LINE
5
244
100
AcDbEntity
8
0
100
AcDbLine
62
7
6
CONTINUOUS
10
-287.9652539055
20
-146.4855184922
11
-287.9652539055
21
-157.2845036711
0
LINE
5
245
100
AcDbEntity
8
0
100
AcDbLine
62
7
6
CONTINUOUS
10
-287.3497477928
20
-379.9646641116
11
-287.3497477928
21
-383.9376777623
0
LINE
5
246
100
AcDbEntity
8
0
100
AcDbLine
62
7
6
CONTINUOUS
10
-286.3808461049
20
-156.4922997708
11
-286.3808461049
21
-145.6933145919
0
LINE
5
247
100
AcDbEntity
8
0
100
AcDbLine
62
7
6
CONTINUOUS
10
-286.3808461049
20
-79.6766925619
11
-286.3808461049
21
-70.1294440472
0
LINE
5
248
100
AcDbEntity
8
0
100
AcDbLine
62
7
6
CONTINUOUS
10
-286.3808461049
20
-61.5135435004
11
-286.3808461049
21
-50.7145210824
0
LINE
5
249
100
AcDbEntity
8
0
100
AcDbLine
62
7
6
CONTINUOUS
10
-285.1227068030
20
-392.2157159538
11
-285.1227068030
21
-396.6563911812
0
LINE
5
24A
100
AcDbEntity
8
0
100
AcDbLine
62
7
6
CONTINUOUS
10
-285.0932789699
20
-382.8242116112
11
-285.0932789699
21
-380.4567188321
0
LINE
5
24B
100
AcDbEntity
8
0
100
AcDbLine
62
7
6
CONTINUOUS
10
-288.9964213963
20
-119.8664896277
11
-289.3036500055
21
-120.4293053459
0
LINE
5
24C
100
AcDbEntity
8
0
100
AcDbLine
62
7
6
CONTINUOUS
10
-290.4852305590
20
-96.9806782365
11
-281.0249760994
21
-87.7502584499
0
LINE
5
24D
100
AcDbEntity
8
0
100
AcDbLine
62
7
6
CONTINUOUS
10
-281.0249760994
20
-85.2601477573
11
-293.2147050475
21
-97.1026596943
0
LINE
5
24E
100
AcDbEntity
8
0
100
AcDbLine
62
7
6
CONTINUOUS
10
-279.9043624650
20
-46.6031282017
11
-281.4887829936
21
-47.3953384659
0
LINE
5
24F
100
AcDbEntity
8
0
100
AcDbLine
62
7
6
CONTINUOUS
10
-292.4611639782
20
-52.9689637478
11
-294.0456120839
21
-53.7611626872
0
LINE
5
250
100
AcDbEntity
8
0
100
AcDbLine
62
7
6
CONTINUOUS
10
-286.3808461049
20
-50.7145210824
11
-287.9652539055
21
-51.5067249827
0
LINE
5
251
100
AcDbEntity
8
0
100
AcDbLine
62
7
6
CONTINUOUS
10
-279.9336467477
20
-395.9163326992
11
-282.7412055770
21
-396.2937180218
0
LINE
5
252
100
AcDbEntity
8
0
100
AcDbLine
62
7
6
CONTINUOUS
10
-285.1227068030
20
-396.6563911812
11
-291.1489528228
21
-397.4493523900
0
LINE
5
253
100
AcDbEntity
8
0
100
AcDbLine
62
7
6
CONTINUOUS
10
-260.1053725918
20
-268.7210553002
11
-263.3227084462
21
-263.5183819473
0
LINE
5
254
100
AcDbEntity
8
0
100
AcDbLine
62
7
6
CONTINUOUS
10
-258.6911590294
20
-268.0139485190
11
-261.9084948838
21
-262.8112751661
0
LINE
5
255
100
AcDbEntity
8
0
100
AcDbLine
62
7
6
CONTINUOUS
10
-272.1968985501
20
-273.1541997069
11
-268.6260093051
21
-279.3130726185
0
LINE
5
256
100
AcDbEntity
8
0
100
AcDbLine
62
7
6
CONTINUOUS
10
-263.5160327636
20
-275.5230407867
11
-265.8660327636
21
-271.4698903389
0
LINE
5
257
100
AcDbEntity
8
0
100
AcDbLine
62
7
6
CONTINUOUS
10
-262.2315757132
20
-274.5921371269
11
-264.4518192012
21
-270.7627835577
0
LINE
5
258
100
AcDbEntity
8
0
100
AcDbLine
62
7
6
CONTINUOUS
10
-263.5160327636
20
-269.7667398911
11
-261.1660327636
21
-273.8198903389
0
LINE
5
259
100
AcDbEntity
8
0
100
AcDbLine
62
7
6
CONTINUOUS
10
-272.5545910030
20
-260.2358083623
11
-273.0693425366
21
-259.1245456494
0
LINE
5
25A
100
AcDbEntity
8
0
100
AcDbLine
62
7
6
CONTINUOUS
10
-271.1542871420
20
-260.8164968795
11
-271.2278476249
21
-259.6267440871
0
LINE
5
25B
100
AcDbEntity
8
0
100
AcDbLine
62
7
6
CONTINUOUS
10
-284.6760132830
20
-119.2443185239
11
-284.6760132830
21
-122.1933906686
0
LINE
5
25C
100
AcDbEntity
8
0
100
AcDbLine
62
7
6
CONTINUOUS
10
-282.7412055770
20
-396.2937180218
11
-282.7412055770
21
-390.1968878872
0
LINE
5
25D
100
AcDbEntity
8
0
100
AcDbLine
62
7
6
CONTINUOUS
10
-281.4887829936
20
-47.3953384659
11
-281.4887829936
21
-59.0675119447
0
LINE
5
25E
100
AcDbEntity
8
0
100
AcDbLine
62
7
6
CONTINUOUS
10
-281.4887829936
20
-142.3740895402
11
-281.4887829936
21
-154.0462682151
0
LINE
5
25F
100
AcDbEntity
8
0
100
AcDbLine
62
7
6
CONTINUOUS
10
-281.0249760994
20
-99.3298158372
11
-281.0249760994
21
-96.8695225215
0
LINE
5
260
100
AcDbEntity
8
0
100
AcDbLine
62
7
6
CONTINUOUS
10
-281.0249760994
20
-87.7502584499
11
-281.0249760994
21
-85.2601477573
0
LINE
5
261
100
AcDbEntity
8
0
100
AcDbLine
62
7
6
CONTINUOUS
10
-279.9482893525
20
-459.9248980782
11
-279.9482893525
21
-444.7482254973
0
LINE
5
262
100
AcDbEntity
8
0
100
AcDbLine
62
7
6
CONTINUOUS
10
-279.9411108044
20
-432.4124362054
11
-279.9411108044
21
-428.8478358063
0
LINE
5
263
100
AcDbEntity
8
0
100
AcDbLine
62
7
6
CONTINUOUS
10
-279.9385274615
20
-383.8024703411
11
-279.9385274615
21
-380.2468358570
0
LINE
5
264
100
AcDbEntity
8
0
100
AcDbLine
62
7
6
CONTINUOUS
10
-279.9336465852
20
-417.4030957808
11
-279.9336465852
21
-414.1264765413
0
LINE
5
265
100
AcDbEntity
8
0
100
AcDbLine
62
7
6
CONTINUOUS
10
-279.9336465852
20
-403.2765517481
11
-279.9336465852
21
-400.0001074457
0
LINE
5
266
100
AcDbEntity
8
0
100
AcDbLine
62
7
6
CONTINUOUS
10
-279.9336467477
20
-399.7328731156
11
-279.9336467477
21
-395.9163326992
0
LINE
5
267
100
AcDbEntity
8
0
100
AcDbLine
62
7
6
CONTINUOUS
10
-279.9336467477
20
-387.7667143805
11
-279.9336467477
21
-383.9501739641
0
LINE
5
268
100
AcDbEntity
8
0
100
AcDbLine
62
7
6
CONTINUOUS
10
-279.9336467477
20
-373.9703462417
11
-279.9336467477
21
-370.0275723621
0
LINE
5
269
100
AcDbEntity
8
0
100
AcDbLine
62
7
6
CONTINUOUS
10
-279.9287661342
20
-410.4964949223
11
-279.9287661342
21
-406.9018295853
0
LINE
5
26A
100
AcDbEntity
8
0
100
AcDbLine
62
7
6
CONTINUOUS
10
-279.9043624650
20
-422.7322790632
11
-279.9043624650
21
-419.1437677027
0
LINE
5
26B
100
AcDbEntity
8
0
100
AcDbLine
62
7
6
CONTINUOUS
10
-279.9043624650
20
-178.5195471667
11
-279.9043624650
21
-175.8997406459
0
LINE
5
26C
100
AcDbEntity
8
0
100
AcDbLine
62
7
6
CONTINUOUS
10
-279.9043624650
20
-164.9843131553
11
-279.9043624650
21
-161.9570503423
0
LINE
5
26D
100
AcDbEntity
8
0
100
AcDbLine
62
7
6
CONTINUOUS
10
-279.9043624650
20
-156.0193428830
11
-279.9043624650
21
-141.5818792759
0
LINE
5
26E
100
AcDbEntity
8
0
100
AcDbLine
62
7
6
CONTINUOUS
10
-279.9043624650
20
-132.0636685929
11
-279.9043624650
21
-129.2983914550
0
LINE
5
26F
100
AcDbEntity
8
0
100
AcDbLine
62
7
6
CONTINUOUS
10
-279.9043624650
20
-79.2039019510
11
-279.9043624650
21
-76.4384507420
0
LINE
5
270
100
AcDbEntity
8
0
100
AcDbLine
62
7
6
CONTINUOUS
10
-279.9043624650
20
-61.0406680190
11
-279.9043624650
21
-46.6031282017
0
LINE
5
271
100
AcDbEntity
8
0
100
AcDbLine
62
7
6
CONTINUOUS
10
-277.8891081386
20
-260.6006644591
11
-277.8891081386
21
-262.8300638701
0
LINE
5
272
100
AcDbEntity
8
0
100
AcDbLine
62
7
6
CONTINUOUS
10
-277.8537527996
20
-263.9171845941
11
-277.8537527996
21
-268.5071192342
0
LINE
5
273
100
AcDbEntity
8
0
100
AcDbLine
62
7
6
CONTINUOUS
10
-277.8183974605
20
-263.8995069246
11
-277.8183974605
21
-260.5653091200
0
LINE
5
274
100
AcDbEntity
8
0
100
AcDbLine
62
7
6
CONTINUOUS
10
-276.4041838981
20
-262.0876017498
11
-276.4041838981
21
-259.8582023388
0
LINE
5
275
100
AcDbEntity
8
0
100
AcDbLine
62
7
6
CONTINUOUS
10
-272.1968985501
20
-263.4547151845
11
-272.1968985501
21
-265.2733685324
0
LINE
5
276
100
AcDbEntity
8
0
100
AcDbLine
62
7
6
CONTINUOUS
10
-272.1968985501
20
-271.3355463589
11
-272.1968985501
21
-273.1541997069
0
LINE
5
277
100
AcDbEntity
8
0
100
AcDbLine
62
7
6
CONTINUOUS
10
-264.0651705664
20
-547.2503197644
11
-264.0651705664
21
-281.5934919878
0
LINE
5
278
100
AcDbEntity
8
0
100
AcDbLine
62
7
6
CONTINUOUS
10
-264.0651705664
20
-271.4296538076
11
-264.0651705664
21
-270.4825619427
0
LINE
5
279
100
AcDbEntity
8
0
100
AcDbLine
62
7
6
CONTINUOUS
10
-264.0651705664
20
-261.7329373248
11
-264.0651705664
21
36.4508023863
0
LINE
5
27A
100
AcDbEntity
8
0
100
AcDbLine
62
7
6
CONTINUOUS
10
-260.1053725918
20
-279.9793855494
11
-260.1053725918
21
-277.3813093381
0
LINE
5
27B
100
AcDbEntity
8
0
100
AcDbLine
62
7
6
CONTINUOUS
10
-260.1053725918
20
-271.3191315116
11
-260.1053725918
21
-268.7210553002
0
LINE
5
27C
100
AcDbEntity
8
0
100
AcDbLine
62
7
6
CONTINUOUS
10
-258.9032910638
20
-277.9823501021
11
-258.9032910638
21
-271.9201722756
0
LINE
5
27D
100
AcDbEntity
8
0
100
AcDbLine
62
7
6
CONTINUOUS
10
-258.6911590294
20
-279.2722787682
11
-258.6911590294
21
-277.8762840849
0
LINE
5
27E
100
AcDbEntity
8
0
100
AcDbLine
62
7
6
CONTINUOUS
10
-258.6911590294
20
-270.6120247304
11
-258.6911590294
21
-268.0139485190
0
LINE
5
27F
100
AcDbEntity
8
0
100
AcDbLine
62
7
6
CONTINUOUS
10
-257.4890775014
20
-277.2752433209
11
-257.4890775014
21
-271.2130654944
0
LINE
5
280
100
AcDbEntity
8
0
100
AcDbLine
62
7
6
CONTINUOUS
10
-281.4887829936
20
-59.0675119447
11
-286.3808461049
21
-61.5135435004
0
LINE
5
281
100
AcDbEntity
8
0
100
AcDbLine
62
7
6
CONTINUOUS
10
-287.9652539055
20
-62.3057474007
11
-292.4611639782
21
-64.5536972409
0
LINE
5
282
100
AcDbEntity
8
0
100
AcDbLine
62
7
6
CONTINUOUS
10
-294.0456120839
20
-68.1112928285
11
-279.9043624650
21
-61.0406680190
0
LINE
5
283
100
AcDbEntity
8
0
100
AcDbLine
62
7
6
CONTINUOUS
10
-292.4611639782
20
-71.8305034090
11
-294.0456120839
21
-72.6227274619
0
LINE
5
284
100
AcDbEntity
8
0
100
AcDbLine
62
7
6
CONTINUOUS
10
-286.3808461049
20
-70.1294440472
11
-287.9652539055
21
-70.9216479475
0
LINE
5
285
100
AcDbEntity
8
0
100
AcDbLine
62
7
6
CONTINUOUS
10
-279.9043624650
20
-76.4384507420
11
-286.3808461049
21
-79.6766925619
0
LINE
5
286
100
AcDbEntity
8
0
100
AcDbLine
62
7
6
CONTINUOUS
10
-287.9652539055
20
-80.4688964622
11
-292.4611639782
21
-82.7168514986
0
LINE
5
287
100
AcDbEntity
8
0
100
AcDbLine
62
7
6
CONTINUOUS
10
-294.0456120839
20
-86.2745267605
11
-279.9043624650
21
-79.2039019510
0
LINE
5
288
100
AcDbEntity
8
0
100
AcDbLine
62
7
6
CONTINUOUS
10
-283.9044732000
20
-274.0419372158
11
-285.6722401529
21
-273.1580537393
0
LINE
5
289
100
AcDbEntity
8
0
100
AcDbLine
62
7
6
CONTINUOUS
10
-268.6260093051
20
-279.3130726185
11
-263.3227084462
21
-281.9647230479
0
LINE
5
28A
100
AcDbEntity
8
0
100
AcDbLine
62
7
6
CONTINUOUS
10
-277.8537527996
20
-268.5071192342
11
-272.1968985501
21
-271.3355463589
0
LINE
5
28B
100
AcDbEntity
8
0
100
AcDbLine
62
7
6
CONTINUOUS
10
-260.1053725918
20
-277.3813093381
11
-258.9032910638
21
-277.9823501021
0
LINE
5
28C
100
AcDbEntity
8
0
100
AcDbLine
62
7
6
CONTINUOUS
10
-275.0253256748
20
-265.3313981565
11
-277.8537527996
21
-263.9171845941
0
LINE
5
28D
100
AcDbEntity
8
0
100
AcDbLine
62
7
6
CONTINUOUS
10
-273.6668544532
20
-264.5964202049
11
-276.4395392372
21
-263.2100778129
0
LINE
5
28E
100
AcDbEntity
8
0
100
AcDbLine
62
7
6
CONTINUOUS
10
-258.9032910638
20
-271.9201722756
11
-260.1053725918
21
-271.3191315116
0
LINE
5
28F
100
AcDbEntity
8
0
100
AcDbLine
62
7
6
CONTINUOUS
10
-272.1968985501
20
-265.2733685324
11
-273.6111121124
21
-264.5662617512
0
LINE
5
290
100
AcDbEntity
8
0
100
AcDbLine
62
7
6
CONTINUOUS
10
-257.4890775014
20
-271.2130654944
11
-258.6911590294
21
-270.6120247304
0
LINE
5
291
100
AcDbEntity
8
0
100
AcDbLine
62
7
6
CONTINUOUS
10
-263.3227084462
20
-263.5183819473
11
-268.6260093051
21
-260.8667315179
0
LINE
5
292
100
AcDbEntity
8
0
100
AcDbLine
62
7
6
CONTINUOUS
10
-261.9084948838
20
-262.8112751661
11
-267.2117957427
21
-260.1596247367
0
LINE
5
293
100
AcDbEntity
8
0
100
AcDbLine
62
7
6
CONTINUOUS
10
-274.0657740990
20
-254.3645390138
11
-275.8335410519
21
-253.4806555373
0
LINE
5
294
100
AcDbEntity
8
0
100
AcDbLine
62
7
6
CONTINUOUS
10
-291.2529058725
20
-181.5740123496
11
-279.9043624650
21
-164.9843131553
0
LINE
5
295
100
AcDbEntity
8
0
100
AcDbLine
62
7
6
CONTINUOUS
10
-282.5780908895
20
-165.9137210754
11
-294.0456120839
21
-182.6502183803
0
LINE
5
296
100
AcDbEntity
8
0
100
AcDbLine
62
7
6
CONTINUOUS
10
53.4257741863
20
-378.9231896966
11
63.3252691229
21
-383.8729371649
0
LINE
5
297
100
AcDbEntity
8
0
100
AcDbLine
62
7
6
CONTINUOUS
10
-292.4611639782
20
-128.6490964733
11
-294.0456120839
21
-129.4413430417
0
LINE
5
298
100
AcDbEntity
8
0
100
AcDbLine
62
7
6
CONTINUOUS
10
-279.9043624650
20
-129.2983914550
11
-292.4611639782
21
-135.5767922116
0
LINE
5
299
100
AcDbEntity
8
0
100
AcDbLine
62
7
6
CONTINUOUS
10
-292.4611639782
20
-138.3420693495
11
-279.9043624650
21
-132.0636685929
0
LINE
5
29A
100
AcDbEntity
8
0
100
AcDbLine
62
7
6
CONTINUOUS
10
-294.0456120839
20
-146.0619952040
11
-292.4611639782
21
-145.2697650892
0
LINE
5
29B
100
AcDbEntity
8
0
100
AcDbLine
62
7
6
CONTINUOUS
10
-279.9043624650
20
-141.5818792759
11
-281.4887829936
21
-142.3740895402
0
LINE
5
29C
100
AcDbEntity
8
0
100
AcDbLine
62
7
6
CONTINUOUS
10
-292.4611639782
20
-147.9476013746
11
-294.0456120839
21
-148.7398384172
0
LINE
5
29D
100
AcDbEntity
8
0
100
AcDbLine
62
7
6
CONTINUOUS
10
-286.3808461049
20
-145.6933145919
11
-287.9652539055
21
-146.4855184922
0
LINE
5
29E
100
AcDbEntity
8
0
100
AcDbLine
62
7
6
CONTINUOUS
10
-281.4887829936
20
-154.0462682151
11
-286.3808461049
21
-156.4922997708
0
LINE
5
29F
100
AcDbEntity
8
0
100
AcDbLine
62
7
6
CONTINUOUS
10
-287.9652539055
20
-157.2845036711
11
-292.4611639782
21
-159.5324587074
0
LINE
5
2A0
100
AcDbEntity
8
0
100
AcDbLine
62
7
6
CONTINUOUS
10
-294.0456120839
20
-163.0899676925
11
-279.9043624650
21
-156.0193428830
0
LINE
5
2A1
100
AcDbEntity
8
0
100
AcDbLine
62
7
6
CONTINUOUS
10
63.3252691229
20
-382.5738990592
11
53.4257741863
21
-377.6241515909
0
LINE
5
2A2
100
AcDbEntity
8
0
100
AcDbLine
62
7
6
CONTINUOUS
10
-279.9043624650
20
-161.9570503423
11
-294.0456120839
21
-169.0276751518
0
LINE
5
2A3
100
AcDbEntity
8
0
100
AcDbLine
62
7
6
CONTINUOUS
10
-294.0456120839
20
-171.6474816726
11
-282.5780908895
21
-165.9137210754
0
LINE
5
2A4
100
AcDbEntity
8
0
100
AcDbLine
62
7
6
CONTINUOUS
10
-279.9043624650
20
-175.8997406459
11
-291.2529058725
21
-181.5740123496
0
LINE
5
2A5
100
AcDbEntity
8
0
100
AcDbLine
62
7
6
CONTINUOUS
10
-294.0456120839
20
-185.5901719762
11
-279.9043624650
21
-178.5195471667
0
LINE
5
2A6
100
AcDbEntity
8
0
100
AcDbLine
62
7
6
CONTINUOUS
10
-278.3007478636
20
-271.7281220835
11
-279.4986089541
21
-271.9830784843
0
LINE
5
2A7
100
AcDbEntity
8
0
100
AcDbLine
62
7
6
CONTINUOUS
10
63.6788225135
20
-341.1525280881
11
62.5661880899
21
-340.5962108762
0
LINE
5
2A8
100
AcDbEntity
8
0
100
AcDbLine
62
7
6
CONTINUOUS
10
62.5746977528
20
-339.8720847693
11
62.3371817270
21
-339.7533267564
0
LINE
5
2A9
100
AcDbEntity
8
0
100
AcDbLine
62
7
6
CONTINUOUS
10
99.7674377288
20
-372.4856977463
11
99.3730165550
21
-372.2067998596
0
LINE
5
2AA
100
AcDbEntity
8
0
100
AcDbLine
62
7
6
CONTINUOUS
10
-289.4145767338
20
-464.7329391099
11
-283.2321483986
21
-454.0698275460
0
LINE
5
2AB
100
AcDbEntity
8
0
100
AcDbLine
62
7
6
CONTINUOUS
10
-279.9482893525
20
-452.3530006819
11
-286.1308619374
21
-463.0161843707
0
LINE
5
2AC
100
AcDbEntity
8
0
100
AcDbLine
62
7
6
CONTINUOUS
10
-279.9336467477
20
-370.0275723621
11
-285.2550602768
21
-376.9369669700
0
LINE
5
2AD
100
AcDbEntity
8
0
100
AcDbLine
62
7
6
CONTINUOUS
10
-285.0932789699
20
-380.4567188321
11
-279.9336467477
21
-373.9703462417
0
LINE
5
2AE
100
AcDbEntity
8
0
100
AcDbLine
62
7
6
CONTINUOUS
10
-268.6260093051
20
-260.8667315179
11
-272.1968985501
21
-263.4547151845
0
LINE
5
2AF
100
AcDbEntity
8
0
100
AcDbLine
62
7
6
CONTINUOUS
10
-265.8660327636
20
-271.4698903389
11
-263.5160327636
21
-269.7667398911
0
LINE
5
2B0
100
AcDbEntity
8
0
100
AcDbLine
62
7
6
CONTINUOUS
10
-264.4518192012
20
-270.7627835577
11
-263.3862762516
21
-269.9905367697
0
LINE
5
2B1
100
AcDbEntity
8
0
100
AcDbLine
62
7
6
CONTINUOUS
10
-261.1660327636
20
-273.8198903389
11
-263.5160327636
21
-275.5230407867
0
LINE
5
2B2
100
AcDbEntity
8
0
100
AcDbLine
62
7
6
CONTINUOUS
10
-276.9960147332
20
-272.4999520619
11
-277.9919532568
21
-273.1549553510
0
LINE
5
2B3
100
AcDbEntity
8
0
100
AcDbLine
62
7
6
CONTINUOUS
10
-263.3227084462
20
-281.9647230479
11
-260.1053725918
21
-279.9793855494
0
LINE
5
2B4
100
AcDbEntity
8
0
100
AcDbLine
62
7
6
CONTINUOUS
10
-261.9084948838
20
-281.2576162667
11
-258.6911590294
21
-279.2722787682
0
LINE
5
2B5
100
AcDbEntity
8
0
100
AcDbLine
62
7
6
CONTINUOUS
10
-273.6111121124
20
-264.5662617512
11
-275.0253256748
21
-265.3313981565
0
LINE
5
2B6
100
AcDbEntity
8
0
100
AcDbLine
62
7
6
CONTINUOUS
10
-276.4041838981
20
-259.8582023388
11
-277.8891081386
21
-260.6006644591
0
LINE
5
2B7
100
AcDbEntity
8
0
100
AcDbLine
62
7
6
CONTINUOUS
10
-276.4395392372
20
-263.2100778129
11
-277.8537527996
21
-263.9171845941
0
LINE
5
2B8
100
AcDbEntity
8
0
100
AcDbLine
62
7
6
CONTINUOUS
10
-267.2117957427
20
-260.1596247367
11
-268.6260093051
21
-260.8667315179
0
LINE
5
2B9
100
AcDbEntity
8
0
100
AcDbLine
62
7
6
CONTINUOUS
10
-278.4170349298
20
-266.3786175226
11
-277.8537527996
21
-266.0969764574
0
LINE
5
2BA
100
AcDbEntity
8
0
100
AcDbLine
62
7
6
CONTINUOUS
10
-272.1968985501
20
-263.8591549700
11
-273.6111121124
21
-264.5662617512
0
LINE
5
2BB
100
AcDbEntity
8
0
100
AcDbLine
62
7
6
CONTINUOUS
10
-261.9084948838
20
-262.8112751661
11
-263.3227084462
21
-263.5183819473
0
LINE
5
2BC
100
AcDbEntity
8
0
100
AcDbLine
62
7
6
CONTINUOUS
10
-264.4518192012
20
-270.7627835577
11
-265.8660327636
21
-271.4698903389
0
LINE
5
2BD
100
AcDbEntity
8
0
100
AcDbLine
62
7
6
CONTINUOUS
10
-258.6911590294
20
-268.0139485190
11
-260.1053725918
21
-268.7210553002
0
LINE
5
2BE
100
AcDbEntity
8
0
100
AcDbLine
62
7
6
CONTINUOUS
10
-258.6911590294
20
-270.6120247304
11
-260.1053725918
21
-271.3191315116
0
LINE
5
2BF
100
AcDbEntity
8
0
100
AcDbLine
62
7
6
CONTINUOUS
10
-257.4890775014
20
-271.2130654944
11
-258.9032910638
21
-271.9201722756
0
LINE
5
2C0
100
AcDbEntity
8
0
100
AcDbLine
62
7
6
CONTINUOUS
10
-257.4890775014
20
-277.2752433209
11
-258.9032910638
21
-277.9823501021
0
LINE
5
2C1
100
AcDbEntity
8
0
100
AcDbLine
62
7
6
CONTINUOUS
10
-258.6911590294
20
-279.2722787682
11
-260.1053725918
21
-279.9793855494
0
LINE
5
2C2
100
AcDbEntity
8
0
100
AcDbLine
62
7
6
CONTINUOUS
10
-261.9084948838
20
-281.2576162667
11
-263.3227084462
21
-281.9647230479
0
LINE
5
2C3
100
AcDbEntity
8
0
100
AcDbLine
62
7
6
CONTINUOUS
10
-279.9336467477
20
-383.9501739641
11
-294.0894393275
21
-397.0049961797
0
LINE
5
2C4
100
AcDbEntity
8
0
100
AcDbLine
62
7
6
CONTINUOUS
10
-291.1489528228
20
-397.4493523900
11
-285.1227068030
21
-392.2157159538
0
LINE
5
2C5
100
AcDbEntity
8
0
100
AcDbLine
62
7
6
CONTINUOUS
10
-282.7412055770
20
-390.1968878872
11
-279.9336467477
21
-387.7667143805
0
LINE
5
2C6
100
AcDbEntity
8
0
100
AcDbLine
62
7
6
CONTINUOUS
10
-294.0673322829
20
-445.2365748293
11
-279.9411108044
21
-432.4124362054
0
LINE
5
2C7
100
AcDbEntity
8
0
100
AcDbLine
62
7
6
CONTINUOUS
10
-283.9025280536
20
-432.6107554298
11
-294.0673322829
21
-441.5279838504
0
LINE
5
2C8
100
AcDbEntity
8
0
100
AcDbLine
62
7
6
CONTINUOUS
10
-289.7039743261
20
-419.0026735847
11
-279.9287661342
21
-410.4964949223
0
LINE
5
2C9
100
AcDbEntity
8
0
100
AcDbLine
62
7
6
CONTINUOUS
10
-283.9908117494
20
-410.7300092582
11
-294.0894392693
21
-419.4671692246
0
LINE
5
2CA
100
AcDbEntity
8
0
100
AcDbLine
62
7
6
CONTINUOUS
10
-293.2147050475
20
-99.5880538723
11
-281.0249760994
21
-99.3298158372
0
LINE
5
2CB
100
AcDbEntity
8
0
100
AcDbLine
62
7
6
CONTINUOUS
10
-281.0249760994
20
-96.8695225215
11
-290.4852305590
21
-96.9806782365
0
LINE
5
2CC
100
AcDbEntity
8
0
100
AcDbLine
62
7
6
CONTINUOUS
10
-321.3408198425
20
19.1266862473
11
-311.4413249059
21
14.1769387790
0
LINE
5
2CD
100
AcDbEntity
8
0
100
AcDbLine
62
7
6
CONTINUOUS
10
-310.3806647341
20
14.7072688649
11
-320.2801596708
21
19.6570163332
0
LINE
5
2CE
100
AcDbEntity
8
0
100
AcDbLine
62
7
6
CONTINUOUS
10
-308.6128977812
20
14.1769387790
11
-309.6735579530
21
14.7072688649
0
LINE
5
2CF
100
AcDbEntity
8
0
100
AcDbLine
62
7
6
CONTINUOUS
10
-310.0271113436
20
15.3170582621
11
-319.9266062802
21
20.2668057304
0
LINE
5
2D0
100
AcDbEntity
8
0
100
AcDbLine
62
7
6
CONTINUOUS
10
-319.9266062802
20
21.5658438360
11
-310.0271113436
21
16.6160963677
0
LINE
5
2D1
100
AcDbEntity
8
0
100
AcDbLine
62
7
6
CONTINUOUS
10
-287.3497477928
20
-383.9376777623
11
-291.8110072926
21
-386.1683075122
0
LINE
5
2D2
100
AcDbEntity
8
0
100
AcDbLine
62
7
6
CONTINUOUS
10
-279.9385274615
20
-380.2468358570
11
-285.0932789699
21
-382.8242116112
0
LINE
5
2D3
100
AcDbEntity
8
0
100
AcDbLine
62
7
6
CONTINUOUS
10
-294.0894393275
20
-390.8779262741
11
-279.9385274615
21
-383.8024703411
0
LINE
5
2D4
100
AcDbEntity
8
0
100
AcDbLine
62
7
6
CONTINUOUS
10
-275.3788790654
20
43.8397074434
11
-265.4793841288
21
38.8899599751
0
LINE
5
2D5
100
AcDbEntity
8
0
100
AcDbLine
62
7
6
CONTINUOUS
10
-289.7039743261
20
-408.1708591148
11
-279.9336465852
21
-403.2765517481
0
LINE
5
2D6
100
AcDbEntity
8
0
100
AcDbLine
62
7
6
CONTINUOUS
10
-279.9336465852
20
-400.0001074457
11
-294.0894392693
21
-407.0780037878
0
LINE
5
2D7
100
AcDbEntity
8
0
100
AcDbLine
62
7
6
CONTINUOUS
10
-294.0894392693
20
-424.4809921229
11
-279.9336465852
21
-417.4030957808
0
LINE
5
2D8
100
AcDbEntity
8
0
100
AcDbLine
62
7
6
CONTINUOUS
10
-279.9043624650
20
-419.1437677027
11
-294.0747965021
21
-426.2289847213
0
LINE
5
2D9
100
AcDbEntity
8
0
100
AcDbLine
62
7
6
CONTINUOUS
10
-294.0747965021
20
-429.8174960818
11
-279.9043624650
21
-422.7322790632
0
LINE
5
2DA
100
AcDbEntity
8
0
100
AcDbLine
62
7
6
CONTINUOUS
10
-279.9336465852
20
-414.1264765413
11
-289.7039743261
21
-419.0026735847
0
LINE
5
2DB
100
AcDbEntity
8
0
100
AcDbLine
62
7
6
CONTINUOUS
10
52.8399877487
20
208.9491408505
11
52.8399877487
21
207.6501027448
0
LINE
5
2DC
100
AcDbEntity
8
0
100
AcDbLine
62
7
6
CONTINUOUS
10
52.8399877487
20
-376.9170448097
11
52.8399877487
21
-378.2160829154
0
LINE
5
2DD
100
AcDbEntity
8
0
100
AcDbLine
62
9
6
CONTINUOUS
10
53.4257741863
20
208.2420340693
11
53.4257741863
21
206.9429959636
0
LINE
5
2DE
100
AcDbEntity
8
0
100
AcDbLine
62
9
6
CONTINUOUS
10
53.4257741863
20
-377.6241515909
11
53.4257741863
21
-378.9231896966
0
LINE
5
2DF
100
AcDbEntity
8
0
100
AcDbLine
62
7
6
CONTINUOUS
10
62.5661880899
20
-340.5962108762
11
62.5661880899
21
-339.8891040950
0
LINE
5
2E0
100
AcDbEntity
8
0
100
AcDbLine
62
7
6
CONTINUOUS
10
62.5661880899
20
173.8228789717
11
62.5661880899
21
174.5299857529
0
LINE
5
2E1
100
AcDbEntity
8
0
100
AcDbLine
62
7
6
CONTINUOUS
10
63.6788225135
20
201.3834590981
11
63.6788225135
21
-382.3176630526
0
LINE
5
2E2
100
AcDbEntity
8
0
100
AcDbLine
62
7
6
CONTINUOUS
10
64.7394826853
20
200.8531290122
11
64.7394826853
21
-382.8479931385
0
LINE
5
2E3
100
AcDbEntity
8
0
100
AcDbLine
62
7
6
CONTINUOUS
10
-279.9482893525
20
-444.7482254973
11
-286.1308619374
21
-447.8395117897
0
LINE
5
2E4
100
AcDbEntity
8
0
100
AcDbLine
62
7
6
CONTINUOUS
10
-289.4145767338
20
-449.5562665290
11
-294.0895835191
21
-451.8937699216
0
LINE
5
2E5
100
AcDbEntity
8
0
100
AcDbLine
62
7
6
CONTINUOUS
10
-286.1308619374
20
-463.0161843707
11
-279.9482893525
21
-459.9248980782
0
LINE
5
2E6
100
AcDbEntity
8
0
100
AcDbLine
62
7
6
CONTINUOUS
10
-294.0895835191
20
-467.0704425025
11
-289.4145767338
21
-464.7329391099
0
LINE
5
2E7
100
AcDbEntity
8
0
100
AcDbLine
62
7
6
CONTINUOUS
10
93.6554819164
20
225.3893735131
11
93.6554819164
21
227.8142446437
0
LINE
5
2E8
100
AcDbEntity
8
0
100
AcDbLine
62
7
6
CONTINUOUS
10
98.6554819164
20
-371.3021296944
11
98.6554819164
21
-367.7355018068
0
LINE
5
2E9
100
AcDbEntity
8
0
100
AcDbLine
62
7
6
CONTINUOUS
10
98.6554819164
20
234.9156529547
11
98.6554819164
21
227.4584144419
0
LINE
5
2EA
100
AcDbEntity
8
0
100
AcDbLine
62
7
6
CONTINUOUS
10
103.6554819164
20
-371.3021296944
11
103.6554819164
21
-367.7362075100
0
LINE
5
2EB
100
AcDbEntity
8
0
100
AcDbLine
62
7
6
CONTINUOUS
10
103.6554819164
20
234.9156529547
11
103.6554819164
21
227.4586918263
0
LINE
5
2EC
100
AcDbEntity
8
0
100
AcDbLine
62
7
6
CONTINUOUS
10
108.6554819164
20
225.3893735131
11
108.6554819164
21
227.8142446437
0
LINE
5
2ED
100
AcDbEntity
8
0
100
AcDbLine
62
7
6
CONTINUOUS
10
108.6554819164
20
-361.7758502528
11
108.6554819164
21
-364.2007213834
0
LINE
5
2EE
100
AcDbEntity
8
0
100
AcDbLine
62
9
6
CONTINUOUS
10
109.2872099001
20
223.1269926196
11
109.2872099001
21
-360.5741295311
0
LINE
5
2EF
100
AcDbEntity
8
0
100
AcDbLine
62
7
6
CONTINUOUS
10
109.8729963377
20
223.8340994008
11
109.8729963377
21
-359.8670227499
0
LINE
5
2F0
100
AcDbEntity
8
0
100
AcDbLine
62
7
6
CONTINUOUS
10
53.4257741863
20
-376.2099380285
11
63.6788225135
21
-371.0834138649
0
LINE
5
2F1
100
AcDbEntity
8
DEFAULT_3
100
AcDbLine
62
8
6
PHANTOM
10
-264.0651705664
20
-542.7255579774
11
63.6788225135
21
-378.8535614375
0
LINE
5
2F2
100
AcDbEntity
8
DEFAULT_3
100
AcDbLine
62
8
6
PHANTOM
10
-264.0651705664
20
-542.8844766000
11
63.6788225135
21
-379.0124800601
0
LINE
5
2F3
100
AcDbEntity
8
0
100
AcDbLine
62
9
6
CONTINUOUS
10
63.3252691229
20
-382.5738990592
11
63.4979264531
21
-382.4875703941
0
LINE
5
2F4
100
AcDbEntity
8
0
100
AcDbLine
62
9
6
CONTINUOUS
10
109.2872099001
20
-360.5741295311
11
64.7394826853
21
-382.8479931385
0
LINE
5
2F5
100
AcDbEntity
8
0
100
AcDbLine
62
9
6
CONTINUOUS
10
-264.0651705664
20
-547.2503197644
11
-308.6128977812
21
-569.5241833717
0
LINE
5
2F6
100
AcDbEntity
8
0
100
AcDbLine
62
7
6
CONTINUOUS
10
108.7674235287
20
-361.6558771319
11
64.2196963139
21
-383.9297407393
0
LINE
5
2F7
100
AcDbEntity
8
0
100
AcDbLine
62
7
6
CONTINUOUS
10
-264.5849569378
20
-548.3320673652
11
-309.1326841526
21
-570.6059309726
0
LINE
5
2F8
100
AcDbEntity
8
0
100
AcDbLine
62
7
6
CONTINUOUS
10
102.5435261040
20
-372.4856977463
11
103.1967233687
21
-372.0238175309
0
LINE
5
2F9
100
AcDbEntity
8
0
100
AcDbLine
62
7
6
CONTINUOUS
10
63.6788225135
20
173.2665617599
11
62.5661880899
21
173.8228789717
0
LINE
5
2FA
100
AcDbEntity
8
0
100
AcDbLine
62
7
6
CONTINUOUS
10
62.5746977528
20
174.5470050787
11
62.3371817270
21
174.6657630915
0
LINE
5
2FB
100
AcDbEntity
8
0
100
AcDbLine
62
7
6
CONTINUOUS
10
63.3252691229
20
201.9932484953
11
53.4257741863
21
206.9429959636
0
LINE
5
2FC
100
AcDbEntity
8
0
100
AcDbLine
62
7
6
CONTINUOUS
10
53.4257741863
20
208.2420340693
11
63.3252691229
21
203.2922866010
0
LINE
5
2FD
100
AcDbEntity
8
0
100
AcDbLine
62
7
6
CONTINUOUS
10
108.6786747767
20
224.8454737437
11
109.2872099001
21
224.5412061820
0
LINE
5
2FE
100
AcDbEntity
8
0
100
AcDbLine
62
7
6
CONTINUOUS
10
102.5435261040
20
236.0992210065
11
103.1967233687
21
235.6373407912
0
SPLINE
5
2FF
100
AcDbEntity
8
0
100
AcDbSpline
62
7
6
CONTINUOUS
70
0
71
3
72
13
73
9
74
7
42
0.0000001000
43
0.0000001000
44
0.0000000001
12
0.0000000000
22
3.8350899536
32
0.0000000000
13
2.0268558855
23
3.2571953911
33
0.0000000000
40
0.0000000000
40
0.0000000000
40
0.0000000000
40
0.0000000000
40
0.1581392036
40
0.3239317453
40
0.4956759678
40
0.6713802388
40
0.8488723156
40
1.0000000000
40
1.0000000000
40
1.0000000000
40
1.0000000000
10
62.5661880899
20
-339.8891040950
30
0.0000000000
10
62.5661880899
20
-339.6869447380
30
0.0000000000
10
62.5909007406
20
-339.2725754483
30
0.0000000000
10
62.6943830551
20
-338.6464389522
30
0.0000000000
10
62.8631331208
20
-338.0114033653
30
0.0000000000
10
63.0937500161
20
-337.3802744605
30
0.0000000000
10
63.3675409844
20
-336.7956861937
30
0.0000000000
10
63.5760115234
20
-336.4304728508
30
0.0000000000
10
63.6781162023
20
-336.2663887185
30
0.0000000000
11
62.5661880899
21
-339.8891040950
31
0.0000000000
11
62.6005445519
21
-339.2835999379
31
0.0000000000
11
62.7029145396
21
-338.6560656373
31
0.0000000000
11
62.8712140951
21
-338.0192759818
31
0.0000000000
11
63.1020171248
21
-337.3861941725
31
0.0000000000
11
63.3906251447
21
-336.7697079294
31
0.0000000000
11
63.6781162023
21
-336.2663887185
31
0.0000000000
0
SPLINE
5
300
100
AcDbEntity
8
0
100
AcDbSpline
62
7
6
CONTINUOUS
70
0
71
3
72
15
73
11
74
9
42
0.0000001000
43
0.0000001000
44
0.0000000001
12
-1.6222826825
22
1.9889722638
32
0.0000000000
13
0.0000000000
23
2.5665175100
33
0.0000000000
40
0.0000000000
40
0.0000000000
40
0.0000000000
40
0.0000000000
40
0.1036544851
40
0.2726674161
40
0.4240567277
40
0.5598297850
40
0.6821468928
40
0.7937948610
40
0.8982910305
40
1.0000000000
40
1.0000000000
40
1.0000000000
40
1.0000000000
10
63.6786577843
20
-342.8576307889
30
0.0000000000
10
63.6226054922
20
-342.7889088236
30
0.0000000000
10
63.4770336967
20
-342.6066052590
30
0.0000000000
10
63.2598891605
20
-342.3158162282
30
0.0000000000
10
63.0433080528
20
-341.9908923771
30
0.0000000000
10
62.8687804755
20
-341.6867794412
30
0.0000000000
10
62.7344017920
20
-341.3999493159
30
0.0000000000
10
62.6384301849
20
-341.1261275217
30
0.0000000000
10
62.5798014062
20
-340.8598679917
30
0.0000000000
10
62.5661880899
20
-340.6832234933
30
0.0000000000
10
62.5661880899
20
-340.5962108762
30
0.0000000000
11
63.6786577843
21
-342.8576307889
31
0.0000000000
11
63.5127869183
21
-342.6496281461
31
0.0000000000
11
63.2541891953
21
-342.3013643641
31
0.0000000000
11
63.0397692868
21
-341.9773427390
31
0.0000000000
11
62.8675290865
21
-341.6744229093
31
0.0000000000
11
62.7356329416
21
-341.3895460529
31
0.0000000000
11
62.6421174949
21
-341.1186886402
31
0.0000000000
11
62.5855588964
21
-340.8565290116
31
0.0000000000
11
62.5661880899
21
-340.5962108762
31
0.0000000000
0
SPLINE
5
301
100
AcDbEntity
8
0
100
AcDbSpline
62
7
6
CONTINUOUS
70
0
71
3
72
8
73
4
74
2
42
0.0000001000
43
0.0000001000
44
0.0000000001
12
0.0000000000
22
0.6882998543
32
0.0000000000
13
0.0403264304
23
0.6872535657
33
0.0000000000
40
0.0000000000
40
0.0000000000
40
0.0000000000
40
0.0000000000
40
1.0000000000
40
1.0000000000
40
1.0000000000
40
1.0000000000
10
62.5661880899
20
-340.5962108762
30
0.0000000000
10
62.5661880899
20
-340.3667775915
30
0.0000000000
10
62.5721195901
20
-340.1372682538
30
0.0000000000
10
62.5855617335
20
-339.9081837319
30
0.0000000000
11
62.5661880899
21
-340.5962108762
31
0.0000000000
11
62.5855617335
21
-339.9081837319
31
0.0000000000
0
SPLINE
5
302
100
AcDbEntity
8
0
100
AcDbSpline
62
7
6
CONTINUOUS
70
0
71
3
72
8
73
4
74
2
42
0.0000001000
43
0.0000001000
44
0.0000000001
12
0.0010370535
22
0.0176737366
32
0.0000000000
13
0.0010669463
23
0.0176720128
33
0.0000000000
40
0.0000000000
40
0.0000000000
40
0.0000000000
40
0.0000000000
40
1.0000000000
40
1.0000000000
40
1.0000000000
40
1.0000000000
10
62.5855617335
20
-339.9081837319
30
0.0000000000
10
62.5859074180
20
-339.9022924863
30
0.0000000000
10
62.5862580696
20
-339.8964015217
30
0.0000000000
10
62.5866137183
20
-339.8905108508
30
0.0000000000
11
62.5855617335
21
-339.9081837319
31
0.0000000000
11
62.5866137183
21
-339.8905108508
31
0.0000000000
0
SPLINE
5
303
100
AcDbEntity
8
0
100
AcDbSpline
62
7
6
CONTINUOUS
70
0
71
3
72
14
73
10
74
8
42
0.0000001000
43
0.0000001000
44
0.0000000001
12
0.2227241590
22
3.6890181300
32
0.0000000000
13
2.0301873525
23
3.0884928604
33
0.0000000000
40
0.0000000000
40
0.0000000000
40
0.0000000000
40
0.0000000000
40
0.1644880653
40
0.3227456111
40
0.4741193142
40
0.6216994345
40
0.7680094445
40
0.9155948140
40
1.0000000000
40
1.0000000000
40
1.0000000000
40
1.0000000000
10
62.5866137183
20
-339.8905108508
30
0.0000000000
10
62.5988255403
20
-339.6882443657
30
0.0000000000
10
62.6343469702
20
-339.2920522557
30
0.0000000000
10
62.7267493725
20
-338.7149094546
30
0.0000000000
10
62.8589324194
20
-338.1668774953
30
0.0000000000
10
63.0320050304
20
-337.6457745390
30
0.0000000000
10
63.2479953893
20
-337.1460060070
30
0.0000000000
10
63.4695650790
20
-336.7354769263
30
0.0000000000
10
63.6212918987
20
-336.4931835681
30
0.0000000000
10
63.6784113458
20
-336.4062886300
30
0.0000000000
11
62.5866137183
21
-339.8905108508
31
0.0000000000
11
62.6421443635
21
-339.2852651024
31
0.0000000000
11
62.7357117946
21
-338.7080386890
31
0.0000000000
11
62.8676624491
21
-338.1645007183
31
0.0000000000
11
63.0399503572
21
-337.6471251849
31
0.0000000000
11
63.2543966748
21
-337.1508620962
31
0.0000000000
11
63.5129844541
21
-336.6707432777
31
0.0000000000
11
63.6784113458
21
-336.4062886300
31
0.0000000000
0
SPLINE
5
304
100
AcDbEntity
8
0
100
AcDbSpline
62
7
6
CONTINUOUS
70
0
71
3
72
26
73
22
74
20
42
0.0000001000
43
0.0000001000
44
0.0000000001
12
12.4603809719
22
-3.7790197219
32
0.0000000000
13
-0.0043092175
23
13.0471745113
33
0.0000000000
40
0.0000000000
40
0.0000000000
40
0.0000000000
40
0.0000000000
40
0.0572384065
40
0.1207173582
40
0.1860086427
40
0.2524747474
40
0.3194494158
40
0.3862542265
40
0.4522148031
40
0.5166771450
40
0.5790245958
40
0.6386961056
40
0.6952067191
40
0.7481716478
40
0.7973358411
40
0.8426114224
40
0.8841248265
40
0.9222715671
40
0.9577648014
40
0.9916422954
40
1.0000000000
40
1.0000000000
40
1.0000000000
40
1.0000000000
10
97.2659337407
20
-367.4070204308
30
0.0000000000
10
97.5036711912
20
-367.4791221199
30
0.0000000000
10
98.0103245976
20
-367.6137714749
30
0.0000000000
10
98.8027409867
20
-367.7702889654
30
0.0000000000
10
99.6430531552
20
-367.8822714098
30
0.0000000000
10
100.5036535353
20
-367.9449775997
30
0.0000000000
10
101.3730015187
20
-367.9575614462
30
0.0000000000
10
102.2394302163
20
-367.9198525918
30
0.0000000000
10
103.0913147161
20
-367.8323607254
30
0.0000000000
10
103.9172359728
20
-367.6962665694
30
0.0000000000
10
104.7061438066
20
-367.5134013279
30
0.0000000000
10
105.4475157940
20
-367.2862124007
30
0.0000000000
10
106.1315096309
20
-367.0177124204
30
0.0000000000
10
106.7491032756
20
-366.7114061520
30
0.0000000000
10
107.2922097777
20
-366.3711876394
30
0.0000000000
10
107.7537364053
20
-366.0012032050
30
0.0000000000
10
108.1275273114
20
-365.6057032256
30
0.0000000000
10
108.4081154361
20
-365.1890006443
30
0.0000000000
10
108.5903572472
20
-364.7558270972
30
0.0000000000
10
108.6501918601
20
-364.4208335189
30
0.0000000000
10
108.6554613178
20
-364.2371619111
30
0.0000000000
10
108.6554493128
20
-364.2008137678
30
0.0000000000
11
97.2659337407
21
-367.4070204308
31
0.0000000000
11
97.9858449534
21
-367.5993755848
31
0.0000000000
11
98.7963962453
21
-367.7603812968
31
0.0000000000
11
99.6388501239
21
-367.8732487150
31
0.0000000000
11
100.5018138458
21
-367.9364515012
31
0.0000000000
11
101.3736173070
21
-367.9491349462
31
0.0000000000
11
102.2424708612
21
-367.9111275281
31
0.0000000000
11
103.0966247547
21
-367.8229432320
31
0.0000000000
11
103.9245280213
21
-367.6857745992
31
0.0000000000
11
104.7149846895
21
-367.5014766003
31
0.0000000000
11
105.4573051891
21
-367.2725415495
31
0.0000000000
11
106.1414509085
21
-367.0020654005
31
0.0000000000
11
106.7581699507
21
-366.6937058794
31
0.0000000000
11
107.2991222486
21
-366.3516330197
31
0.0000000000
11
107.7569923503
21
-365.9804727699
31
0.0000000000
11
108.1255883481
21
-365.5852444358
31
0.0000000000
11
108.3999256136
21
-365.1712928025
31
0.0000000000
11
108.5762942058
21
-364.7442158558
31
0.0000000000
11
108.6523090420
21
-364.3097890787
31
0.0000000000
11
108.6554493128
21
-364.2008137678
31
0.0000000000
0
SPLINE
5
305
100
AcDbEntity
8
0
100
AcDbSpline
62
7
6
CONTINUOUS
70
0
71
3
72
8
73
4
74
2
42
0.0000001000
43
0.0000001000
44
0.0000000001
12
-0.0000208623
22
0.0631656288
32
0.0000000000
13
-0.0021373624
23
0.0631340569
33
0.0000000000
40
0.0000000000
40
0.0000000000
40
0.0000000000
40
0.0000000000
40
1.0000000000
40
1.0000000000
40
1.0000000000
40
1.0000000000
10
108.6554493128
20
-361.7759426372
30
0.0000000000
10
108.6554423587
20
-361.7548874276
30
0.0000000000
10
108.6550814850
20
-361.7338314392
30
0.0000000000
10
108.6543690309
20
-361.7127867536
30
0.0000000000
11
108.6554493128
21
-361.7759426372
31
0.0000000000
11
108.6543690309
21
-361.7127867536
31
0.0000000000
0
SPLINE
5
306
100
AcDbEntity
8
0
100
AcDbSpline
62
7
6
CONTINUOUS
70
0
71
3
72
22
73
18
74
16
42
0.0000001000
43
0.0000001000
44
0.0000000001
12
9.2047452187
22
-0.0773173501
32
0.0000000000
13
-0.0030465654
23
9.2241967627
33
0.0000000000
40
0.0000000000
40
0.0000000000
40
0.0000000000
40
0.0000000000
40
0.0373945327
40
0.1318866653
40
0.2251846700
40
0.3163634953
40
0.4045509106
40
0.4889533384
40
0.5688848332
40
0.6438011305
40
0.7133414739
40
0.7773815661
40
0.8361002428
40
0.8900569388
40
0.9402603802
40
0.9881784363
40
1.0000000000
40
1.0000000000
40
1.0000000000
40
1.0000000000
10
101.0294067634
20
-365.5253235826
30
0.0000000000
10
101.1441424786
20
-365.5262873313
30
0.0000000000
10
101.5488429434
20
-365.5250373158
30
0.0000000000
10
102.2394302163
20
-365.4949814613
30
0.0000000000
10
103.0913147161
20
-365.4074895948
30
0.0000000000
10
103.9172359728
20
-365.2713954388
30
0.0000000000
10
104.7061438066
20
-365.0885301973
30
0.0000000000
10
105.4475157940
20
-364.8613412701
30
0.0000000000
10
106.1315096309
20
-364.5928412898
30
0.0000000000
10
106.7491032756
20
-364.2865350214
30
0.0000000000
10
107.2922097777
20
-363.9463165088
30
0.0000000000
10
107.7537364053
20
-363.5763320744
30
0.0000000000
10
108.1275273114
20
-363.1808320950
30
0.0000000000
10
108.4081154361
20
-362.7641295137
30
0.0000000000
10
108.5903572472
20
-362.3309559666
30
0.0000000000
10
108.6501918601
20
-361.9959623883
30
0.0000000000
10
108.6554613178
20
-361.8122907805
30
0.0000000000
10
108.6554493128
20
-361.7759426372
30
0.0000000000
11
101.0294067634
21
-365.5253235826
31
0.0000000000
11
101.3736173070
21
-365.5242638156
31
0.0000000000
11
102.2424708612
21
-365.4862563975
31
0.0000000000
11
103.0966247547
21
-365.3980721014
31
0.0000000000
11
103.9245280213
21
-365.2609034686
31
0.0000000000
11
104.7149846895
21
-365.0766054697
31
0.0000000000
11
105.4573051891
21
-364.8476704189
31
0.0000000000
11
106.1414509085
21
-364.5771942699
31
0.0000000000
11
106.7581699507
21
-364.2688347488
31
0.0000000000
11
107.2991222486
21
-363.9267618891
31
0.0000000000
11
107.7569923503
21
-363.5556016393
31
0.0000000000
11
108.1255883481
21
-363.1603733052
31
0.0000000000
11
108.3999256136
21
-362.7464216719
31
0.0000000000
11
108.5762942058
21
-362.3193447252
31
0.0000000000
11
108.6523090420
21
-361.8849179481
31
0.0000000000
11
108.6554493128
21
-361.7759426372
31
0.0000000000
0
SPLINE
5
307
100
AcDbEntity
8
0
100
AcDbSpline
62
7
6
CONTINUOUS
70
0
71
3
72
13
73
9
74
7
42
0.0000001000
43
0.0000001000
44
0.0000000001
12
0.0000000000
22
3.8350899536
32
0.0000000000
13
2.0268558855
23
3.2571953911
33
0.0000000000
40
0.0000000000
40
0.0000000000
40
0.0000000000
40
0.0000000000
40
0.1581392036
40
0.3239317453
40
0.4956759678
40
0.6713802388
40
0.8488723156
40
1.0000000000
40
1.0000000000
40
1.0000000000
40
1.0000000000
10
62.5661880899
20
174.5299857529
30
0.0000000000
10
62.5661880899
20
174.7321451100
30
0.0000000000
10
62.5909007406
20
175.1465143997
30
0.0000000000
10
62.6943830551
20
175.7726508957
30
0.0000000000
10
62.8631331208
20
176.4076864826
30
0.0000000000
10
63.0937500161
20
177.0388153875
30
0.0000000000
10
63.3675409844
20
177.6234036543
30
0.0000000000
10
63.5760115234
20
177.9886169971
30
0.0000000000
10
63.6781162023
20
178.1527011295
30
0.0000000000
11
62.5661880899
21
174.5299857529
31
0.0000000000
11
62.6005445519
21
175.1354899100
31
0.0000000000
11
62.7029145396
21
175.7630242107
31
0.0000000000
11
62.8712140951
21
176.3998138661
31
0.0000000000
11
63.1020171248
21
177.0328956754
31
0.0000000000
11
63.3906251447
21
177.6493819185
31
0.0000000000
11
63.6781162023
21
178.1527011295
31
0.0000000000
0
SPLINE
5
308
100
AcDbEntity
8
0
100
AcDbSpline
62
7
6
CONTINUOUS
70
0
71
3
72
15
73
11
74
9
42
0.0000001000
43
0.0000001000
44
0.0000000001
12
-1.6222826825
22
1.9889722638
32
0.0000000000
13
0.0000000000
23
2.5665175100
33
0.0000000000
40
0.0000000000
40
0.0000000000
40
0.0000000000
40
0.0000000000
40
0.1036544851
40
0.2726674161
40
0.4240567277
40
0.5598297850
40
0.6821468928
40
0.7937948610
40
0.8982910305
40
1.0000000000
40
1.0000000000
40
1.0000000000
40
1.0000000000
10
63.6786577843
20
171.5614590590
30
0.0000000000
10
63.6226054922
20
171.6301810243
30
0.0000000000
10
63.4770336967
20
171.8124845890
30
0.0000000000
10
63.2598891605
20
172.1032736198
30
0.0000000000
10
63.0433080528
20
172.4281974708
30
0.0000000000
10
62.8687804755
20
172.7323104068
30
0.0000000000
10
62.7344017920
20
173.0191405321
30
0.0000000000
10
62.6384301849
20
173.2929623262
30
0.0000000000
10
62.5798014062
20
173.5592218563
30
0.0000000000
10
62.5661880899
20
173.7358663547
30
0.0000000000
10
62.5661880899
20
173.8228789717
30
0.0000000000
11
63.6786577843
21
171.5614590590
31
0.0000000000
11
63.5127869183
21
171.7694617019
31
0.0000000000
11
63.2541891953
21
172.1177254838
31
0.0000000000
11
63.0397692868
21
172.4417471089
31
0.0000000000
11
62.8675290865
21
172.7446669387
31
0.0000000000
11
62.7356329416
21
173.0295437951
31
0.0000000000
11
62.6421174949
21
173.3004012078
31
0.0000000000
11
62.5855588964
21
173.5625608363
31
0.0000000000
11
62.5661880899
21
173.8228789717
31
0.0000000000
0
SPLINE
5
309
100
AcDbEntity
8
0
100
AcDbSpline
62
7
6
CONTINUOUS
70
0
71
3
72
8
73
4
74
2
42
0.0000001000
43
0.0000001000
44
0.0000000001
12
0.0000000000
22
0.6882998543
32
0.0000000000
13
0.0403264304
23
0.6872535657
33
0.0000000000
40
0.0000000000
40
0.0000000000
40
0.0000000000
40
0.0000000000
40
1.0000000000
40
1.0000000000
40
1.0000000000
40
1.0000000000
10
62.5661880899
20
173.8228789717
30
0.0000000000
10
62.5661880899
20
174.0523122565
30
0.0000000000
10
62.5721195901
20
174.2818215942
30
0.0000000000
10
62.5855617335
20
174.5109061161
30
0.0000000000
11
62.5661880899
21
173.8228789717
31
0.0000000000
11
62.5855617335
21
174.5109061161
31
0.0000000000
0
SPLINE
5
30A
100
AcDbEntity
8
0
100
AcDbSpline
62
7
6
CONTINUOUS
70
0
71
3
72
8
73
4
74
2
42
0.0000001000
43
0.0000001000
44
0.0000000001
12
0.0010370535
22
0.0176737366
32
0.0000000000
13
0.0010669463
23
0.0176720128
33
0.0000000000
40
0.0000000000
40
0.0000000000
40
0.0000000000
40
0.0000000000
40
1.0000000000
40
1.0000000000
40
1.0000000000
40
1.0000000000
10
62.5855617335
20
174.5109061161
30
0.0000000000
10
62.5859074180
20
174.5167973616
30
0.0000000000
10
62.5862580696
20
174.5226883262
30
0.0000000000
10
62.5866137183
20
174.5285789972
30
0.0000000000
11
62.5855617335
21
174.5109061161
31
0.0000000000
11
62.5866137183
21
174.5285789972
31
0.0000000000
0
SPLINE
5
30B
100
AcDbEntity
8
0
100
AcDbSpline
62
7
6
CONTINUOUS
70
0
71
3
72
14
73
10
74
8
42
0.0000001000
43
0.0000001000
44
0.0000000001
12
0.2227241590
22
3.6890181300
32
0.0000000000
13
2.0301873525
23
3.0884928604
33
0.0000000000
40
0.0000000000
40
0.0000000000
40
0.0000000000
40
0.0000000000
40
0.1644880653
40
0.3227456111
40
0.4741193142
40
0.6216994345
40
0.7680094445
40
0.9155948140
40
1.0000000000
40
1.0000000000
40
1.0000000000
40
1.0000000000
10
62.5866137183
20
174.5285789972
30
0.0000000000
10
62.5988255403
20
174.7308454822
30
0.0000000000
10
62.6343469702
20
175.1270375922
30
0.0000000000
10
62.7267493725
20
175.7041803933
30
0.0000000000
10
62.8589324194
20
176.2522123527
30
0.0000000000
10
63.0320050304
20
176.7733153089
30
0.0000000000
10
63.2479953893
20
177.2730838409
30
0.0000000000
10
63.4695650790
20
177.6836129216
30
0.0000000000
10
63.6212918987
20
177.9259062798
30
0.0000000000
10
63.6784113458
20
178.0128012180
30
0.0000000000
11
62.5866137183
21
174.5285789972
31
0.0000000000
11
62.6421443635
21
175.1338247456
31
0.0000000000
11
62.7357117946
21
175.7110511589
31
0.0000000000
11
62.8676624491
21
176.2545891296
31
0.0000000000
11
63.0399503572
21
176.7719646630
31
0.0000000000
11
63.2543966748
21
177.2682277518
31
0.0000000000
11
63.5129844541
21
177.7483465702
31
0.0000000000
11
63.6784113458
21
178.0128012180
31
0.0000000000
0
SPLINE
5
30C
100
AcDbEntity
8
0
100
AcDbSpline
62
7
6
CONTINUOUS
70
0
71
3
72
11
73
7
74
5
42
0.0000001000
43
0.0000001000
44
0.0000000001
12
-2.6372161335
22
1.3186080667
32
0.0000000000
13
-2.9039928971
23
0.5133255146
33
0.0000000000
40
0.0000000000
40
0.0000000000
40
0.0000000000
40
0.0000000000
40
0.2418597775
40
0.4985878578
40
0.7682496076
40
1.0000000000
40
1.0000000000
40
1.0000000000
40
1.0000000000
10
106.4587827753
20
230.4658950731
30
0.0000000000
10
106.2461706062
20
230.5722011576
30
0.0000000000
10
105.7972295109
20
230.7704596684
30
0.0000000000
10
105.0834162018
20
231.0186894031
30
0.0000000000
10
104.3630886753
20
231.2117119680
30
0.0000000000
10
103.8799452667
20
231.3101033217
30
0.0000000000
10
103.6556114356
20
231.3497577848
30
0.0000000000
11
106.4587827753
21
230.4658950731
31
0.0000000000
11
105.8072481009
21
230.7558033871
31
0.0000000000
11
105.0928062689
21
231.0059321653
31
0.0000000000
11
104.3251188795
21
231.2128988450
31
0.0000000000
11
103.6556114356
21
231.3497577848
31
0.0000000000
0
SPLINE
5
30D
100
AcDbEntity
8
0
100
AcDbSpline
62
7
6
CONTINUOUS
70
0
71
3
72
10
73
6
74
4
42
0.0000001000
43
0.0000001000
44
0.0000000001
12
-1.3279739586
22
-0.2347766742
32
0.0000000000
13
-1.2934995483
23
-0.3817599222
33
0.0000000000
40
0.0000000000
40
0.0000000000
40
0.0000000000
40
0.0000000000
40
0.2029829126
40
0.8049457502
40
1.0000000000
40
1.0000000000
40
1.0000000000
40
1.0000000000
10
98.6554730880
20
231.3497807067
30
0.0000000000
10
98.5656210807
20
231.3338954889
30
0.0000000000
10
98.2099608588
20
231.2671934760
30
0.0000000000
10
97.7717935268
20
231.1656282848
30
0.0000000000
10
97.4269136719
20
231.0683744823
30
0.0000000000
10
97.3428128106
20
231.0435531839
30
0.0000000000
11
98.6554730880
21
231.3497807067
31
0.0000000000
11
98.3864358116
21
231.2992978595
31
0.0000000000
11
97.5959791433
21
231.1149998606
31
0.0000000000
11
97.3428128106
21
231.0435531839
31
0.0000000000
0
SPLINE
5
30E
100
AcDbEntity
8
0
100
AcDbSpline
62
7
6
CONTINUOUS
70
0
71
3
72
12
73
8
74
6
42
0.0000001000
43
0.0000001000
44
0.0000000001
12
-2.8565070994
22
-0.8430617000
32
0.0000000000
13
-2.2734457055
23
-1.9258558304
33
0.0000000000
40
0.0000000000
40
0.0000000000
40
0.0000000000
40
0.0000000000
40
0.1725593637
40
0.4196247896
40
0.6511884175
40
0.8661351617
40
1.0000000000
40
1.0000000000
40
1.0000000000
40
1.0000000000
10
97.3428128106
20
231.0435531839
30
0.0000000000
10
97.1785071281
20
230.9950604537
30
0.0000000000
10
96.7817536566
20
230.8676667462
30
0.0000000000
10
96.1794542020
20
230.6312356807
30
0.0000000000
10
95.5618605572
20
230.3249294122
30
0.0000000000
10
95.0727572922
20
230.0185401779
30
0.0000000000
10
94.7983278017
20
229.8065368285
30
0.0000000000
10
94.6968829878
20
229.7206020354
30
0.0000000000
11
97.3428128106
21
231.0435531839
31
0.0000000000
11
96.8536586438
21
230.8860648097
31
0.0000000000
11
96.1695129243
21
230.6155886608
31
0.0000000000
11
95.5527938821
21
230.3072291397
31
0.0000000000
11
95.0118415843
21
229.9651562800
31
0.0000000000
11
94.6968829878
21
229.7206020354
31
0.0000000000
0
SPLINE
5
30F
100
AcDbEntity
8
0
100
AcDbSpline
62
7
6
CONTINUOUS
70
0
71
3
72
13
73
9
74
7
42
0.0000001000
43
0.0000001000
44
0.0000000001
12
-1.7100552510
22
-1.4486028268
32
0.0000000000
13
0.0007413820
23
-2.2447091340
33
0.0000000000
40
0.0000000000
40
0.0000000000
40
0.0000000000
40
0.0000000000
40
0.0851927288
40
0.3264857407
40
0.5482103166
40
0.7545116208
40
0.9514215770
40
1.0000000000
40
1.0000000000
40
1.0000000000
40
1.0000000000
10
94.6968829878
20
229.7206020354
30
0.0000000000
10
94.6483215634
20
229.6794652261
30
0.0000000000
10
94.4656208514
20
229.5177995514
30
0.0000000000
10
94.1834365214
20
229.2192264859
30
0.0000000000
10
93.9028483967
20
228.8025239046
30
0.0000000000
10
93.7206065856
20
228.3693503574
30
0.0000000000
10
93.6607719727
20
228.0343567791
30
0.0000000000
10
93.6555025150
20
227.8506851713
30
0.0000000000
10
93.6555145201
20
227.8143370281
30
0.0000000000
11
94.6968829878
21
229.7206020354
31
0.0000000000
11
94.5539714826
21
229.5939960302
31
0.0000000000
11
94.1853754847
21
229.1987676961
31
0.0000000000
11
93.9110382193
21
228.7848160628
31
0.0000000000
11
93.7346696271
21
228.3577391161
31
0.0000000000
11
93.6586547908
21
227.9233123389
31
0.0000000000
11
93.6555145201
21
227.8143370281
31
0.0000000000
0
SPLINE
5
310
100
AcDbEntity
8
0
100
AcDbSpline
62
7
6
CONTINUOUS
70
0
71
3
72
9
73
5
74
3
42
0.0000001000
43
0.0000001000
44
0.0000000001
12
0.0001466041
22
-0.4438786226
32
0.0000000000
13
-0.1019262796
23
-0.4320235744
33
0.0000000000
40
0.0000000000
40
0.0000000000
40
0.0000000000
40
0.0000000000
40
0.2456627200
40
1.0000000000
40
1.0000000000
40
1.0000000000
40
1.0000000000
10
108.6554493128
20
225.3892811287
30
0.0000000000
10
108.6554613178
20
225.3529329854
30
0.0000000000
10
108.6512166947
20
225.2049828915
30
0.0000000000
10
108.6292954949
20
225.0581011850
30
0.0000000000
10
108.6036665640
20
224.9494706890
30
0.0000000000
11
108.6554493128
21
225.3892811287
31
0.0000000000
11
108.6523090420
21
225.2803058178
31
0.0000000000
11
108.6036665640
21
224.9494706890
31
0.0000000000
0
SPLINE
5
311
100
AcDbEntity
8
0
100
AcDbSpline
62
7
6
CONTINUOUS
70
0
71
3
72
27
73
23
74
21
42
0.0000001000
43
0.0000001000
44
0.0000000001
12
-3.2438651262
22
-13.7494099894
32
0.0000000000
13
-12.6073363987
23
6.3036681993
33
0.0000000000
40
0.0000000000
40
0.0000000000
40
0.0000000000
40
0.0000000000
40
0.0075864394
40
0.0403673642
40
0.0755990205
40
0.1139400678
40
0.1557557957
40
0.2011629769
40
0.2500804503
40
0.3022726555
40
0.3573842088
40
0.4149672139
40
0.4745034952
40
0.5354235196
40
0.5971232637
40
0.6589798855
40
0.7203668067
40
0.7806686846
40
0.8392967241
40
0.8957048578
40
0.9494075127
40
1.0000000000
40
1.0000000000
40
1.0000000000
40
1.0000000000
10
108.6036665640
20
224.9494706890
30
0.0000000000
10
108.5954634352
20
224.9147010002
30
0.0000000000
10
108.5468579420
20
224.7308735879
30
0.0000000000
10
108.4081154361
20
224.4010942522
30
0.0000000000
10
108.1275273114
20
223.9843916708
30
0.0000000000
10
107.7537364053
20
223.5888916914
30
0.0000000000
10
107.2922097777
20
223.2189072570
30
0.0000000000
10
106.7491032756
20
222.8786887445
30
0.0000000000
10
106.1315096309
20
222.5723824760
30
0.0000000000
10
105.4475157940
20
222.3038824958
30
0.0000000000
10
104.7061438066
20
222.0766935686
30
0.0000000000
10
103.9172359728
20
221.8938283270
30
0.0000000000
10
103.0913147161
20
221.7577341710
30
0.0000000000
10
102.2394302163
20
221.6702423046
30
0.0000000000
10
101.3730015187
20
221.6325334502
30
0.0000000000
10
100.5036535353
20
221.6451172967
30
0.0000000000
10
99.6430531552
20
221.7078234867
30
0.0000000000
10
98.8027409867
20
221.8198059310
30
0.0000000000
10
97.9939787298
20
221.9795520451
30
0.0000000000
10
97.2275476311
20
222.1849287536
30
0.0000000000
10
96.5137343220
20
222.4331584883
30
0.0000000000
10
96.0647932266
20
222.6314169991
30
0.0000000000
10
95.8521810575
20
222.7377230836
30
0.0000000000
11
108.6036665640
21
224.9494706890
31
0.0000000000
11
108.5762942058
21
224.8458790407
31
0.0000000000
11
108.3999256136
21
224.4188020939
31
0.0000000000
11
108.1255883481
21
224.0048504606
31
0.0000000000
11
107.7569923503
21
223.6096221265
31
0.0000000000
11
107.2991222486
21
223.2384618767
31
0.0000000000
11
106.7581699507
21
222.8963890170
31
0.0000000000
11
106.1414509085
21
222.5880294959
31
0.0000000000
11
105.4573051891
21
222.3175533470
31
0.0000000000
11
104.7149846895
21
222.0886182961
31
0.0000000000
11
103.9245280213
21
221.9043202972
31
0.0000000000
11
103.0966247547
21
221.7671516645
31
0.0000000000
11
102.2424708612
21
221.6789673684
31
0.0000000000
11
101.3736173070
21
221.6409599502
31
0.0000000000
11
100.5018138458
21
221.6536433952
31
0.0000000000
11
99.6388501239
21
221.7168461814
31
0.0000000000
11
98.7963962453
21
221.8297135997
31
0.0000000000
11
97.9858449534
21
221.9907193117
31
0.0000000000
11
97.2181575639
21
222.1976859914
31
0.0000000000
11
96.5037157319
21
222.4478147696
31
0.0000000000
11
95.8521810575
21
222.7377230836
31
0.0000000000
0
SPLINE
5
312
100
AcDbEntity
8
0
100
AcDbSpline
62
7
6
CONTINUOUS
70
0
71
3
72
14
73
10
74
8
42
0.0000001000
43
0.0000001000
44
0.0000000001
12
3.2353829529
22
-1.6176914764
32
0.0000000000
13
0.0011973611
23
-3.6252937129
33
0.0000000000
40
0.0000000000
40
0.0000000000
40
0.0000000000
40
0.0000000000
40
0.1838584119
40
0.3537951558
40
0.5098562077
40
0.6529556164
40
0.7850718775
40
0.9093691237
40
1.0000000000
40
1.0000000000
40
1.0000000000
40
1.0000000000
10
106.4587827753
20
230.4658950731
30
0.0000000000
10
106.6570668992
20
230.3667530112
30
0.0000000000
10
107.0304666659
20
230.1587889791
30
0.0000000000
10
107.5335677436
20
229.8031782832
30
0.0000000000
10
107.9519540961
20
229.4198982541
30
0.0000000000
10
108.2797968621
20
229.0132484459
30
0.0000000000
10
108.5118432668
20
228.5876600752
30
0.0000000000
10
108.6326183228
20
228.1834492651
30
0.0000000000
10
108.6554131401
20
227.9236734413
30
0.0000000000
10
108.6554493128
20
227.8141522593
30
0.0000000000
11
106.4587827753
21
230.4658950731
31
0.0000000000
11
107.0385994033
21
230.1401277359
31
0.0000000000
11
107.5388569597
21
229.7829068199
31
0.0000000000
11
107.9527903192
21
229.3990631252
31
0.0000000000
11
108.2748017432
21
228.9937874792
31
0.0000000000
11
108.5005365797
21
228.5725605399
31
0.0000000000
11
108.6269421521
21
228.1410786790
31
0.0000000000
11
108.6554493128
21
227.8141522593
31
0.0000000000
0
SPLINE
5
313
100
AcDbEntity
8
0
100
AcDbSpline
62
7
6
CONTINUOUS
70
0
71
3
72
10
73
6
74
4
42
0.0000001000
43
0.0000001000
44
0.0000000001
12
0.0004259631
22
-0.3738637456
32
0.0000000000
13
-0.1847506574
23
-0.3243511399
33
0.0000000000
40
0.0000000000
40
0.0000000000
40
0.0000000000
40
0.0000000000
40
0.1436547420
40
0.7335149866
40
1.0000000000
40
1.0000000000
40
1.0000000000
40
1.0000000000
10
103.7554247463
20
227.8141526283
30
0.0000000000
10
103.7554451435
20
227.7962501950
30
0.0000000000
10
103.7517917503
20
227.7048636692
30
0.0000000000
10
103.7200369457
20
227.5826596283
30
0.0000000000
10
103.6725629285
20
227.4871218130
30
0.0000000000
10
103.6561518347
20
227.4583102404
30
0.0000000000
11
103.7554247463
21
227.8141526283
31
0.0000000000
11
103.7532608882
21
227.7605221771
31
0.0000000000
11
103.7001457143
21
227.5474646988
31
0.0000000000
11
103.6561518347
21
227.4583102404
31
0.0000000000
0
SPLINE
5
314
100
AcDbEntity
8
0
100
AcDbSpline
62
7
6
CONTINUOUS
70
0
71
3
72
20
73
16
74
14
42
0.0000001000
43
0.0000001000
44
0.0000000001
12
-2.3154817332
22
-4.0650958996
32
0.0000000000
13
-4.1729292040
23
2.0864646020
33
0.0000000000
40
0.0000000000
40
0.0000000000
40
0.0000000000
40
0.0000000000
40
0.0300710563
40
0.0878934335
40
0.1531862407
40
0.2259506093
40
0.3054877454
40
0.3906104767
40
0.4797965581
40
0.5713074118
40
0.6632889045
40
0.7538641480
40
0.8412248667
40
0.9237272256
40
1.0000000000
40
1.0000000000
40
1.0000000000
40
1.0000000000
10
103.6561518347
20
227.4583102404
30
0.0000000000
10
103.6329421742
20
227.4175629978
30
0.0000000000
10
103.5555293016
20
227.3038355706
30
0.0000000000
10
103.3855778869
20
227.1345188339
30
0.0000000000
10
103.1333235925
20
226.9614216102
30
0.0000000000
10
102.8288296474
20
226.8116361690
30
0.0000000000
10
102.4798725261
20
226.6887475022
30
0.0000000000
10
102.0955538937
20
226.5959184266
30
0.0000000000
10
101.6860533339
20
226.5356196660
30
0.0000000000
10
101.2623140686
20
226.5094809383
30
0.0000000000
10
100.8357039187
20
226.5182142218
30
0.0000000000
10
100.4176860514
20
226.5615784105
30
0.0000000000
10
100.0194321164
20
226.6384082352
30
0.0000000000
10
99.6516384942
20
226.7465994913
30
0.0000000000
10
99.4230979147
20
226.8419590135
30
0.0000000000
10
99.3170042853
20
226.8950058281
30
0.0000000000
11
103.6561518347
21
227.4583102404
31
0.0000000000
11
103.5776187454
21
227.3416842819
31
0.0000000000
11
103.3890221978
21
227.1487940798
31
0.0000000000
11
103.1395004937
21
226.9740556344
31
0.0000000000
11
102.8358599349
21
226.8222353550
31
0.0000000000
11
102.4863830441
21
226.6974745030
31
0.0000000000
11
102.1006026399
21
226.6031762292
31
0.0000000000
11
101.6890418061
21
226.5419127447
31
0.0000000000
11
101.2629268495
21
226.5153551577
31
0.0000000000
11
100.8338810751
21
226.5242278900
31
0.0000000000
11
100.4136077334
21
226.5682889165
31
0.0000000000
11
100.0135707854
21
226.6463363672
31
0.0000000000
11
99.6446821964
21
226.7562413112
31
0.0000000000
11
99.3170042853
21
226.8950058281
31
0.0000000000
0
SPLINE
5
315
100
AcDbEntity
8
0
100
AcDbSpline
62
7
6
CONTINUOUS
70
0
71
3
72
9
73
5
74
3
42
0.0000001000
43
0.0000001000
44
0.0000000001
12
0.0004263260
22
-0.3741822730
32
0.0000000000
13
0.1849420702
23
-0.3249819440
33
0.0000000000
40
0.0000000000
40
0.0000000000
40
0.0000000000
40
0.0000000000
40
0.4342228399
40
1.0000000000
40
1.0000000000
40
1.0000000000
40
1.0000000000
10
98.5555390866
20
227.8143366590
30
0.0000000000
10
98.5556007934
20
227.7601771626
30
0.0000000000
10
98.5712534598
20
227.6353464279
30
0.0000000000
10
98.6200758035
20
227.5194034009
30
0.0000000000
10
98.6549544699
20
227.4581142805
30
0.0000000000
11
98.5555390866
21
227.8143366590
31
0.0000000000
11
98.5754484091
21
227.6534442230
31
0.0000000000
11
98.6549544699
21
227.4581142805
31
0.0000000000
0
SPLINE
5
316
100
AcDbEntity
8
0
100
AcDbSpline
62
7
6
CONTINUOUS
70
0
71
3
72
11
73
7
74
5
42
0.0000001000
43
0.0000001000
44
0.0000000001
12
0.4368333141
22
-0.7676076053
32
0.0000000000
13
0.7871102044
23
-0.3935551022
33
0.0000000000
40
0.0000000000
40
0.0000000000
40
0.0000000000
40
0.0000000000
40
0.0194009351
40
0.3077120283
40
0.6337773079
40
1.0000000000
40
1.0000000000
40
1.0000000000
40
1.0000000000
10
98.6549544699
20
227.4581142805
30
0.0000000000
10
98.6577794615
20
227.4531501787
30
0.0000000000
10
98.7033407371
20
227.3748644720
30
0.0000000000
10
98.8209187326
20
227.2286723268
30
0.0000000000
10
99.0445190148
20
227.0452997112
30
0.0000000000
10
99.2209184127
20
226.9430487645
30
0.0000000000
10
99.3170042853
20
226.8950058281
30
0.0000000000
11
98.6549544699
21
227.4581142805
31
0.0000000000
11
98.6635704620
21
227.4433075521
31
0.0000000000
11
98.8196653635
21
227.2432890782
31
0.0000000000
11
99.0394752515
21
227.0588447836
31
0.0000000000
11
99.3170042853
21
226.8950058281
31
0.0000000000
0
SPLINE
5
317
100
AcDbEntity
8
0
100
AcDbSpline
62
7
6
CONTINUOUS
70
0
71
3
72
14
73
10
74
8
42
0.0000001000
43
0.0000001000
44
0.0000000001
12
0.0011973611
22
-3.6252937129
32
0.0000000000
13
3.2353829529
23
-1.6176914764
33
0.0000000000
40
0.0000000000
40
0.0000000000
40
0.0000000000
40
0.0000000000
40
0.0906308763
40
0.2149281225
40
0.3470443836
40
0.4901437923
40
0.6462048442
40
0.8161415881
40
1.0000000000
40
1.0000000000
40
1.0000000000
40
1.0000000000
10
93.6555145201
20
225.3894658975
30
0.0000000000
10
93.6555506927
20
225.2799447154
30
0.0000000000
10
93.6783455100
20
225.0201688916
30
0.0000000000
10
93.7991205661
20
224.6159580815
30
0.0000000000
10
94.0311669707
20
224.1903697108
30
0.0000000000
10
94.3590097368
20
223.7837199026
30
0.0000000000
10
94.7773960893
20
223.4004398735
30
0.0000000000
10
95.2804971669
20
223.0448291776
30
0.0000000000
10
95.6538969336
20
222.8368651455
30
0.0000000000
10
95.8521810575
20
222.7377230836
30
0.0000000000
11
93.6555145201
21
225.3894658975
31
0.0000000000
11
93.6840216807
21
225.0625394778
31
0.0000000000
11
93.8104272532
21
224.6310576168
31
0.0000000000
11
94.0361620896
21
224.2098306775
31
0.0000000000
11
94.3581735136
21
223.8045550315
31
0.0000000000
11
94.7721068731
21
223.4207113368
31
0.0000000000
11
95.2723644295
21
223.0634904208
31
0.0000000000
11
95.8521810575
21
222.7377230836
31
0.0000000000
0
SPLINE
5
318
100
AcDbEntity
8
0
100
AcDbSpline
62
7
6
CONTINUOUS
70
0
71
3
72
10
73
6
74
4
42
0.0000001000
43
0.0000001000
44
0.0000000001
12
-0.1847506574
22
-0.3243511399
32
0.0000000000
13
0.0004259631
23
-0.3738637456
33
0.0000000000
40
0.0000000000
40
0.0000000000
40
0.0000000000
40
0.0000000000
40
0.2664850134
40
0.8563452580
40
1.0000000000
40
1.0000000000
40
1.0000000000
40
1.0000000000
10
98.6548119982
20
228.1701790469
30
0.0000000000
10
98.6384009044
20
228.1413674743
30
0.0000000000
10
98.5909268871
20
228.0458296590
30
0.0000000000
10
98.5591720825
20
227.9236256181
30
0.0000000000
10
98.5555186893
20
227.8322390923
30
0.0000000000
10
98.5555390866
20
227.8143366590
30
0.0000000000
11
98.6548119982
21
228.1701790469
31
0.0000000000
11
98.6108181186
21
228.0810245885
31
0.0000000000
11
98.5577029446
21
227.8679671102
31
0.0000000000
11
98.5555390866
21
227.8143366590
31
0.0000000000
0
SPLINE
5
319
100
AcDbEntity
8
0
100
AcDbSpline
62
7
6
CONTINUOUS
70
0
71
3
72
9
73
5
74
3
42
0.0000001000
43
0.0000001000
44
0.0000000001
12
0.1849420702
22
-0.3249819440
32
0.0000000000
13
0.0004263260
23
-0.3741822730
33
0.0000000000
40
0.0000000000
40
0.0000000000
40
0.0000000000
40
0.0000000000
40
0.5657771601
40
1.0000000000
40
1.0000000000
40
1.0000000000
40
1.0000000000
10
103.6560093630
20
228.1703750068
30
0.0000000000
10
103.6908880294
20
228.1090858864
30
0.0000000000
10
103.7397103731
20
227.9931428594
30
0.0000000000
10
103.7553630395
20
227.8683121247
30
0.0000000000
10
103.7554247463
20
227.8141526283
30
0.0000000000
11
103.6560093630
21
228.1703750068
31
0.0000000000
11
103.7355154237
21
227.9750450643
31
0.0000000000
11
103.7554247463
21
227.8141526283
31
0.0000000000
0
SPLINE
5
31A
100
AcDbEntity
8
0
100
AcDbSpline
62
7
6
CONTINUOUS
70
0
71
3
72
17
73
13
74
11
42
0.0000001000
43
0.0000001000
44
0.0000000001
12
0.0017270178
22
-5.2289544313
32
0.0000000000
13
-5.0051332808
23
-1.4772013601
33
0.0000000000
40
0.0000000000
40
0.0000000000
40
0.0000000000
40
0.0000000000
40
0.0208539644
40
0.1053843583
40
0.1939463123
40
0.2891292379
40
0.3927125900
40
0.5056832456
40
0.6283566824
40
0.7605136320
40
0.9015176980
40
1.0000000000
40
1.0000000000
40
1.0000000000
40
1.0000000000
10
108.6554493128
20
227.8141522593
30
0.0000000000
10
108.6554613178
20
227.7778041160
30
0.0000000000
10
108.6501918601
20
227.5941325082
30
0.0000000000
10
108.5903572472
20
227.2591389299
30
0.0000000000
10
108.4081154361
20
226.8259653827
30
0.0000000000
10
108.1275273114
20
226.4092628014
30
0.0000000000
10
107.7537364053
20
226.0137628220
30
0.0000000000
10
107.2922097777
20
225.6437783876
30
0.0000000000
10
106.7491032756
20
225.3035598751
30
0.0000000000
10
106.1315096309
20
224.9972536066
30
0.0000000000
10
105.5292101762
20
224.7608225411
30
0.0000000000
10
105.1324567047
20
224.6334288336
30
0.0000000000
10
104.9681510222
20
224.5849361034
30
0.0000000000
11
108.6554493128
21
227.8141522593
31
0.0000000000
11
108.6523090420
21
227.7051769484
31
0.0000000000
11
108.5762942058
21
227.2707501713
31
0.0000000000
11
108.3999256136
21
226.8436732245
31
0.0000000000
11
108.1255883481
21
226.4297215912
31
0.0000000000
11
107.7569923503
21
226.0344932571
31
0.0000000000
11
107.2991222486
21
225.6633330073
31
0.0000000000
11
106.7581699507
21
225.3212601476
31
0.0000000000
11
106.1414509085
21
225.0129006265
31
0.0000000000
11
105.4573051891
21
224.7424244776
31
0.0000000000
11
104.9681510222
21
224.5849361034
31
0.0000000000
0
SPLINE
5
31B
100
AcDbEntity
8
0
100
AcDbSpline
62
7
6
CONTINUOUS
70
0
71
3
72
17
73
13
74
11
42
0.0000001000
43
0.0000001000
44
0.0000000001
12
-7.2811078327
22
-2.1489262703
32
0.0000000000
13
-7.3058405304
23
2.0623140271
33
0.0000000000
40
0.0000000000
40
0.0000000000
40
0.0000000000
40
0.0000000000
40
0.0346516752
40
0.1415912614
40
0.2521583509
40
0.3652952421
40
0.4798801806
40
0.5947564624
40
0.7087604455
40
0.8207493536
40
0.9296297126
40
1.0000000000
40
1.0000000000
40
1.0000000000
40
1.0000000000
10
104.9681510222
20
224.5849361034
30
0.0000000000
10
104.8840501609
20
224.5601148050
30
0.0000000000
10
104.5391703060
20
224.4628610025
30
0.0000000000
10
103.9172359728
20
224.3186994576
30
0.0000000000
10
103.0913147161
20
224.1826053016
30
0.0000000000
10
102.2394302163
20
224.0951134352
30
0.0000000000
10
101.3730015187
20
224.0574045808
30
0.0000000000
10
100.5036535353
20
224.0699884273
30
0.0000000000
10
99.6430531552
20
224.1326946173
30
0.0000000000
10
98.8027409867
20
224.2446770616
30
0.0000000000
10
98.0793869895
20
224.3875534003
30
0.0000000000
10
97.6398879731
20
224.5002755509
30
0.0000000000
10
97.4685166072
20
224.5486507611
30
0.0000000000
11
104.9681510222
21
224.5849361034
31
0.0000000000
11
104.7149846895
21
224.5134894267
31
0.0000000000
11
103.9245280213
21
224.3291914278
31
0.0000000000
11
103.0966247547
21
224.1920227951
31
0.0000000000
11
102.2424708612
21
224.1038384990
31
0.0000000000
11
101.3736173070
21
224.0658310808
31
0.0000000000
11
100.5018138458
21
224.0785145258
31
0.0000000000
11
99.6388501239
21
224.1417173120
31
0.0000000000
11
98.7963962453
21
224.2545847303
31
0.0000000000
11
97.9858449534
21
224.4155904423
31
0.0000000000
11
97.4685166072
21
224.5486507611
31
0.0000000000
0
SPLINE
5
31C
100
AcDbEntity
8
0
100
AcDbSpline
62
7
6
CONTINUOUS
70
0
71
3
72
9
73
5
74
3
42
0.0000001000
43
0.0000001000
44
0.0000000001
12
-0.9798640117
22
0.2765988783
32
0.0000000000
13
-0.9470337865
23
0.3744058536
33
0.0000000000
40
0.0000000000
40
0.0000000000
40
0.0000000000
40
0.0000000000
40
0.2563915607
40
1.0000000000
40
1.0000000000
40
1.0000000000
40
1.0000000000
10
97.4685166072
20
224.5486507611
30
0.0000000000
10
97.3847736528
20
224.5722899672
30
0.0000000000
10
97.0592395133
20
224.6683293048
30
0.0000000000
10
96.7384565039
20
224.7798821161
30
0.0000000000
10
96.5037157319
20
224.8726859002
30
0.0000000000
11
97.4685166072
21
224.5486507611
31
0.0000000000
11
97.2181575639
21
224.6225571220
31
0.0000000000
11
96.5037157319
21
224.8726859002
31
0.0000000000
0
SPLINE
5
31D
100
AcDbEntity
8
0
100
AcDbSpline
62
7
6
CONTINUOUS
70
0
71
3
72
8
73
4
74
2
42
0.0000001000
43
0.0000001000
44
0.0000000001
12
-0.6634375657
22
0.2622872717
32
0.0000000000
13
-0.6378365072
23
0.3189182536
33
0.0000000000
40
0.0000000000
40
0.0000000000
40
0.0000000000
40
0.0000000000
40
1.0000000000
40
1.0000000000
40
1.0000000000
40
1.0000000000
10
96.5037157319
20
224.8726859002
30
0.0000000000
10
96.2825698767
20
224.9601149908
30
0.0000000000
10
96.0647932266
20
225.0562881297
30
0.0000000000
10
95.8521810575
20
225.1625942142
30
0.0000000000
11
96.5037157319
21
224.8726859002
31
0.0000000000
11
95.8521810575
21
225.1625942142
31
0.0000000000
0
SPLINE
5
31E
100
AcDbEntity
8
0
100
AcDbSpline
62
7
6
CONTINUOUS
70
0
71
3
72
14
73
10
74
8
42
0.0000001000
43
0.0000001000
44
0.0000000001
12
0.0011973611
22
-3.6252937129
32
0.0000000000
13
3.2353829529
23
-1.6176914764
33
0.0000000000
40
0.0000000000
40
0.0000000000
40
0.0000000000
40
0.0000000000
40
0.0906308763
40
0.2149281225
40
0.3470443836
40
0.4901437923
40
0.6462048442
40
0.8161415881
40
1.0000000000
40
1.0000000000
40
1.0000000000
40
1.0000000000
10
93.6555145201
20
227.8143370281
30
0.0000000000
10
93.6555506927
20
227.7048158460
30
0.0000000000
10
93.6783455100
20
227.4450400222
30
0.0000000000
10
93.7991205661
20
227.0408292121
30
0.0000000000
10
94.0311669707
20
226.6152408414
30
0.0000000000
10
94.3590097368
20
226.2085910332
30
0.0000000000
10
94.7773960893
20
225.8253110041
30
0.0000000000
10
95.2804971669
20
225.4697003082
30
0.0000000000
10
95.6538969336
20
225.2617362761
30
0.0000000000
10
95.8521810575
20
225.1625942142
30
0.0000000000
11
93.6555145201
21
227.8143370281
31
0.0000000000
11
93.6840216807
21
227.4874106083
31
0.0000000000
11
93.8104272532
21
227.0559287474
31
0.0000000000
11
94.0361620896
21
226.6347018081
31
0.0000000000
11
94.3581735136
21
226.2294261621
31
0.0000000000
11
94.7721068731
21
225.8455824674
31
0.0000000000
11
95.2723644295
21
225.4883615514
31
0.0000000000
11
95.8521810575
21
225.1625942142
31
0.0000000000
0
SPLINE
5
31F
100
AcDbEntity
8
0
100
AcDbSpline
62
7
6
CONTINUOUS
70
0
71
3
72
10
73
6
74
4
42
0.0000001000
43
0.0000001000
44
0.0000000001
12
0.7219252891
22
0.5113118816
32
0.0000000000
13
-0.0000258973
23
0.8866455414
33
0.0000000000
40
0.0000000000
40
0.0000000000
40
0.0000000000
40
0.0000000000
40
0.1774504663
40
0.6209785461
40
1.0000000000
40
1.0000000000
40
1.0000000000
40
1.0000000000
10
103.1967593108
20
-372.0238682778
30
0.0000000000
10
103.2394613038
20
-371.9936241005
30
0.0000000000
10
103.3842290372
20
-371.8810495557
30
0.0000000000
10
103.5847519475
20
-371.6572473095
30
0.0000000000
10
103.6554851883
20
-371.4141489218
30
0.0000000000
10
103.6554819164
20
-371.3021296944
30
0.0000000000
11
103.1967593108
21
-372.0238682778
31
0.0000000000
11
103.3205454259
21
-371.9271296944
31
0.0000000000
11
103.5702964821
21
-371.6256535008
31
0.0000000000
11
103.6554819164
21
-371.3021296944
31
0.0000000000
0
SPLINE
5
320
100
AcDbEntity
8
0
100
AcDbSpline
62
7
6
CONTINUOUS
70
0
71
3
72
8
73
4
74
2
42
0.0000001000
43
0.0000001000
44
0.0000000001
12
0.1778807629
22
-0.1263196766
32
0.0000000000
13
0.1945155095
23
-0.0972577547
33
0.0000000000
40
0.0000000000
40
0.0000000000
40
0.0000000000
40
0.0000000000
40
1.0000000000
40
1.0000000000
40
1.0000000000
40
1.0000000000
10
99.7661955285
20
-372.4849056245
30
0.0000000000
10
99.8254891161
20
-372.5270121834
30
0.0000000000
10
99.8885618852
20
-372.5635715299
30
0.0000000000
10
99.9534003884
20
-372.5959907815
30
0.0000000000
11
99.7661955285
21
-372.4849056245
31
0.0000000000
11
99.9534003884
21
-372.5959907815
31
0.0000000000
0
SPLINE
5
321
100
AcDbEntity
8
0
100
AcDbSpline
62
7
6
CONTINUOUS
70
0
71
3
72
14
73
10
74
8
42
0.0000001000
43
0.0000001000
44
0.0000000001
12
2.4046852019
22
-1.2023426009
32
0.0000000000
13
2.2102390594
23
1.5524642044
33
0.0000000000
40
0.0000000000
40
0.0000000000
40
0.0000000000
40
0.0000000000
40
0.1538404250
40
0.3253766633
40
0.5050093789
40
0.6819100992
40
0.8456531640
40
0.9879371005
40
1.0000000000
40
1.0000000000
40
1.0000000000
40
1.0000000000
10
99.9534003884
20
-372.5959907815
30
0.0000000000
10
100.0767129863
20
-372.6576470804
30
0.0000000000
10
100.3532556416
20
-372.7569750656
30
0.0000000000
10
100.8001264768
20
-372.8375727706
30
0.0000000000
10
101.2747060459
20
-372.8540654115
30
0.0000000000
10
101.7399664141
20
-372.8049734143
30
0.0000000000
10
102.1604637154
20
-372.6943544293
30
0.0000000000
10
102.4196614182
20
-372.5705589122
30
0.0000000000
10
102.5344048049
20
-372.4921994659
30
0.0000000000
10
102.5432921022
20
-372.4859570594
30
0.0000000000
11
99.9534003884
21
-372.5959907815
31
0.0000000000
11
100.3407586390
21
-372.7409771586
31
0.0000000000
11
100.7941209242
21
-372.8255248535
31
0.0000000000
11
101.2767585279
21
-372.8427843149
31
0.0000000000
11
101.7495710217
21
-372.7913572837
31
0.0000000000
11
102.1742539495
21
-372.6754100722
31
0.0000000000
11
102.5164020260
21
-372.5043360340
31
0.0000000000
11
102.5432921022
21
-372.4859570594
31
0.0000000000
0
SPLINE
5
322
100
AcDbEntity
8
0
100
AcDbSpline
62
7
6
CONTINUOUS
70
0
71
3
72
10
73
6
74
4
42
0.0000001000
43
0.0000001000
44
0.0000000001
12
0.0000258944
22
-0.8865472936
32
0.0000000000
13
0.7223512071
23
-0.5115113000
33
0.0000000000
40
0.0000000000
40
0.0000000000
40
0.0000000000
40
0.0000000000
40
0.3790634573
40
0.8226406892
40
1.0000000000
40
1.0000000000
40
1.0000000000
40
1.0000000000
10
98.6554819164
20
-371.3021296944
30
0.0000000000
10
98.6554851883
20
-371.4141489218
30
0.0000000000
10
98.7262326303
20
-371.6572571186
30
0.0000000000
10
98.9266381921
20
-371.8809947350
30
0.0000000000
10
99.0715127960
20
-371.9936087768
30
0.0000000000
10
99.1142180334
20
-372.0238492073
30
0.0000000000
11
98.6554819164
21
-371.3021296944
31
0.0000000000
11
98.7406673507
21
-371.6256535008
31
0.0000000000
11
98.9904184070
21
-371.9271296944
31
0.0000000000
11
99.1142180334
21
-372.0238492073
31
0.0000000000
0
SPLINE
5
323
100
AcDbEntity
8
0
100
AcDbSpline
62
7
6
CONTINUOUS
70
0
71
3
72
8
73
4
74
2
42
0.0000001000
43
0.0000001000
44
0.0000000001
12
0.3236956160
22
-0.1618478080
32
0.0000000000
13
0.3423217389
23
-0.1197196267
33
0.0000000000
40
0.0000000000
40
0.0000000000
40
0.0000000000
40
0.0000000000
40
1.0000000000
40
1.0000000000
40
1.0000000000
40
1.0000000000
10
99.3877149635
20
-372.1860131709
30
0.0000000000
10
99.4956135021
20
-372.2399624402
30
0.0000000000
10
99.6074095030
20
-372.2862320503
30
0.0000000000
10
99.7215167493
20
-372.3261385926
30
0.0000000000
11
99.3877149635
21
-372.1860131709
31
0.0000000000
11
99.7215167493
21
-372.3261385926
31
0.0000000000
0
SPLINE
5
324
100
AcDbEntity
8
0
100
AcDbSpline
62
7
6
CONTINUOUS
70
0
71
3
72
14
73
10
74
8
42
0.0000001000
43
0.0000001000
44
0.0000000001
12
3.3987792199
22
-1.1886495458
32
0.0000000000
13
2.9388290600
23
2.0814594515
33
0.0000000000
40
0.0000000000
40
0.0000000000
40
0.0000000000
40
0.0000000000
40
0.0536190753
40
0.2249842792
40
0.4054500444
40
0.5859158097
40
0.7572810136
40
0.9116191167
40
1.0000000000
40
1.0000000000
40
1.0000000000
40
1.0000000000
10
99.7215167493
20
-372.3261385926
30
0.0000000000
10
99.7822632155
20
-372.3473833557
30
0.0000000000
10
100.0399023387
20
-372.4289589950
30
0.0000000000
10
100.5173903280
20
-372.5250532184
30
0.0000000000
10
101.1554959444
20
-372.5660131980
30
0.0000000000
10
101.7935188080
20
-372.5250723961
30
0.0000000000
10
102.3898491171
20
-372.4050187033
30
0.0000000000
10
102.8573590389
20
-372.2318591158
30
0.0000000000
10
103.1101805414
20
-372.0851886861
30
0.0000000000
10
103.1967593108
20
-372.0238682778
30
0.0000000000
11
99.7215167493
21
-372.3261385926
31
0.0000000000
11
99.9054819164
21
-372.3846614492
31
0.0000000000
11
100.5084343037
21
-372.5095369773
31
0.0000000000
11
101.1554819164
21
-372.5521296944
31
0.0000000000
11
101.8025295292
21
-372.5095369773
31
0.0000000000
11
102.4054819164
21
-372.3846614492
31
0.0000000000
11
102.9232488694
21
-372.1860131709
31
0.0000000000
11
103.1967593108
21
-372.0238682778
31
0.0000000000
0
SPLINE
5
325
100
AcDbEntity
8
0
100
AcDbSpline
62
7
6
CONTINUOUS
70
0
71
3
72
8
73
4
74
2
42
0.0000001000
43
0.0000001000
44
0.0000000001
12
0.2599983988
22
-0.1841100529
32
0.0000000000
13
0.2841301800
23
-0.1420650900
33
0.0000000000
40
0.0000000000
40
0.0000000000
40
0.0000000000
40
0.0000000000
40
1.0000000000
40
1.0000000000
40
1.0000000000
40
1.0000000000
10
99.1142180334
20
-372.0238492073
30
0.0000000000
10
99.2008841663
20
-372.0852192250
30
0.0000000000
10
99.2930049035
20
-372.1386581409
30
0.0000000000
10
99.3877149635
20
-372.1860131709
30
0.0000000000
11
99.1142180334
21
-372.0238492073
31
0.0000000000
11
99.3877149635
21
-372.1860131709
31
0.0000000000
0
SPLINE
5
326
100
AcDbEntity
8
0
100
AcDbSpline
62
7
6
CONTINUOUS
70
0
71
3
72
14
73
10
74
8
42
0.0000001000
43
0.0000001000
44
0.0000000001
12
2.2102390594
22
1.5524642044
32
0.0000000000
13
2.4046852019
23
-1.2023426009
33
0.0000000000
40
0.0000000000
40
0.0000000000
40
0.0000000000
40
0.0000000000
40
0.0120628995
40
0.1543468360
40
0.3180899008
40
0.4949906211
40
0.6746233367
40
0.8461595750
40
1.0000000000
40
1.0000000000
40
1.0000000000
40
1.0000000000
10
99.7676717307
20
236.0994803197
30
0.0000000000
10
99.7765590279
20
236.1057227262
30
0.0000000000
10
99.8913024147
20
236.1840821725
30
0.0000000000
10
100.1505001174
20
236.3078776896
30
0.0000000000
10
100.5709974187
20
236.4184966745
30
0.0000000000
10
101.0362577870
20
236.4675886718
30
0.0000000000
10
101.5108373561
20
236.4510960309
30
0.0000000000
10
101.9577081912
20
236.3704983259
30
0.0000000000
10
102.2342508466
20
236.2711703406
30
0.0000000000
10
102.3575634444
20
236.2095140417
30
0.0000000000
11
99.7676717307
21
236.0994803197
31
0.0000000000
11
99.7945618069
21
236.1178592942
31
0.0000000000
11
100.1367098834
21
236.2889333325
31
0.0000000000
11
100.5613928111
21
236.4048805440
31
0.0000000000
11
101.0342053050
21
236.4563075751
31
0.0000000000
11
101.5168429087
21
236.4390481138
31
0.0000000000
11
101.9702051938
21
236.3545004188
31
0.0000000000
11
102.3575634444
21
236.2095140417
31
0.0000000000
0
SPLINE
5
327
100
AcDbEntity
8
0
100
AcDbSpline
62
7
6
CONTINUOUS
70
0
71
3
72
10
73
6
74
4
42
0.0000001000
43
0.0000001000
44
0.0000000001
12
0.7223512071
22
-0.5115113000
32
0.0000000000
13
0.0000258944
23
-0.8865472936
33
0.0000000000
40
0.0000000000
40
0.0000000000
40
0.0000000000
40
0.0000000000
40
0.1773593108
40
0.6209365427
40
1.0000000000
40
1.0000000000
40
1.0000000000
40
1.0000000000
10
103.1967457995
20
235.6373724676
30
0.0000000000
10
103.2394510369
20
235.6071320371
30
0.0000000000
10
103.3843256407
20
235.4945179953
30
0.0000000000
10
103.5847312026
20
235.2707803789
30
0.0000000000
10
103.6554786445
20
235.0276721821
30
0.0000000000
10
103.6554819164
20
234.9156529547
30
0.0000000000
11
103.1967457995
21
235.6373724676
31
0.0000000000
11
103.3205454259
21
235.5406529547
31
0.0000000000
11
103.5702964821
21
235.2391767611
31
0.0000000000
11
103.6554819164
21
234.9156529547
31
0.0000000000
0
SPLINE
5
328
100
AcDbEntity
8
0
100
AcDbSpline
62
7
6
CONTINUOUS
70
0
71
3
72
8
73
4
74
2
42
0.0000001000
43
0.0000001000
44
0.0000000001
12
0.1945155095
22
-0.0972577547
32
0.0000000000
13
0.1778807629
23
-0.1263196766
33
0.0000000000
40
0.0000000000
40
0.0000000000
40
0.0000000000
40
0.0000000000
40
1.0000000000
40
1.0000000000
40
1.0000000000
40
1.0000000000
10
102.3575634444
20
236.2095140417
30
0.0000000000
10
102.4224019476
20
236.1770947901
30
0.0000000000
10
102.4854747167
20
236.1405354437
30
0.0000000000
10
102.5447683044
20
236.0984288848
30
0.0000000000
11
102.3575634444
21
236.2095140417
31
0.0000000000
11
102.5447683044
21
236.0984288848
31
0.0000000000
0
SPLINE
5
329
100
AcDbEntity
8
0
100
AcDbSpline
62
7
6
CONTINUOUS
70
0
71
3
72
10
73
6
74
4
42
0.0000001000
43
0.0000001000
44
0.0000000001
12
-0.0000258973
22
0.8866455414
32
0.0000000000
13
0.7219252891
23
0.5113118816
33
0.0000000000
40
0.0000000000
40
0.0000000000
40
0.0000000000
40
0.0000000000
40
0.3790214539
40
0.8225495337
40
1.0000000000
40
1.0000000000
40
1.0000000000
40
1.0000000000
10
98.6554819164
20
234.9156529547
30
0.0000000000
10
98.6554786445
20
235.0276721821
30
0.0000000000
10
98.7262118853
20
235.2707705697
30
0.0000000000
10
98.9267347956
20
235.4945728160
30
0.0000000000
10
99.0715025290
20
235.6071473607
30
0.0000000000
10
99.1142045221
20
235.6373915380
30
0.0000000000
11
98.6554819164
21
234.9156529547
31
0.0000000000
11
98.7406673507
21
235.2391767611
31
0.0000000000
11
98.9904184070
21
235.5406529547
31
0.0000000000
11
99.1142045221
21
235.6373915380
31
0.0000000000
0
SPLINE
5
32A
100
AcDbEntity
8
0
100
AcDbSpline
62
7
6
CONTINUOUS
70
0
71
3
72
18
73
14
74
12
42
0.0000001000
43
0.0000001000
44
0.0000000001
12
3.1786133224
22
-2.2572503088
32
0.0000000000
13
-3.4758654038
23
1.7379327019
33
0.0000000000
40
0.0000000000
40
0.0000000000
40
0.0000000000
40
0.0000000000
40
0.0337690076
40
0.1065413247
40
0.1692707721
40
0.2356121766
40
0.3165219449
40
0.4149573090
40
0.5282386013
40
0.6506226683
40
0.7748967936
40
0.8935695861
40
1.0000000000
40
1.0000000000
40
1.0000000000
40
1.0000000000
10
102.5447683044
20
236.0984288848
30
0.0000000000
10
102.5805478436
20
236.0730205171
30
0.0000000000
10
102.6890907839
20
235.9864842623
30
0.0000000000
10
102.8327822961
20
235.8121633162
30
0.0000000000
10
102.8766855721
20
235.5388794793
30
0.0000000000
10
102.7518961064
20
235.2825766669
30
0.0000000000
10
102.5051305761
20
235.0736853412
30
0.0000000000
10
102.1604637154
20
234.9090688658
30
0.0000000000
10
101.7399664141
20
234.7984498809
30
0.0000000000
10
101.2747060459
20
234.7493578836
30
0.0000000000
10
100.8001264768
20
234.7658505245
30
0.0000000000
10
100.3532556416
20
234.8464482296
30
0.0000000000
10
100.0767129863
20
234.9457762148
30
0.0000000000
10
99.9534003884
20
235.0074325137
30
0.0000000000
11
102.5447683044
21
236.0984288848
31
0.0000000000
11
102.6475361987
21
236.0158349164
31
0.0000000000
11
102.8166315886
21
235.7891537738
31
0.0000000000
11
102.8511505113
21
235.5478349720
31
0.0000000000
11
102.7482964489
21
235.3114287251
31
0.0000000000
11
102.5164020260
21
235.0990872612
31
0.0000000000
11
102.1742539495
21
234.9280132229
31
0.0000000000
11
101.7495710217
21
234.8120660115
31
0.0000000000
11
101.2767585279
21
234.7606389803
31
0.0000000000
11
100.7941209242
21
234.7778984416
31
0.0000000000
11
100.3407586390
21
234.8624461366
31
0.0000000000
11
99.9534003884
21
235.0074325137
31
0.0000000000
0
SPLINE
5
32B
100
AcDbEntity
8
0
100
AcDbSpline
62
7
6
CONTINUOUS
70
0
71
3
72
12
73
8
74
6
42
0.0000001000
43
0.0000001000
44
0.0000000001
12
-1.2656957114
22
0.6328478557
32
0.0000000000
13
1.1633498208
23
0.8171328555
33
0.0000000000
40
0.0000000000
40
0.0000000000
40
0.0000000000
40
0.0000000000
40
0.2464194451
40
0.4462674629
40
0.6185356582
40
0.8007230441
40
1.0000000000
40
1.0000000000
40
1.0000000000
40
1.0000000000
10
99.9534003884
20
235.0074325137
30
0.0000000000
10
99.8494363768
20
235.0594145195
30
0.0000000000
10
99.6693781694
20
235.1728309311
30
0.0000000000
10
99.4781815368
20
235.4047832393
30
0.0000000000
10
99.4342782607
20
235.6780670761
30
0.0000000000
10
99.5541081373
20
235.9241834786
30
0.0000000000
10
99.6903954604
20
236.0452017370
30
0.0000000000
10
99.7676717307
20
236.0994803197
30
0.0000000000
11
99.9534003884
21
235.0074325137
31
0.0000000000
11
99.6634276342
21
235.2011116390
31
0.0000000000
11
99.4943322443
21
235.4277927816
31
0.0000000000
11
99.4598133216
21
235.6691115834
31
0.0000000000
11
99.5626673839
21
235.9055178304
31
0.0000000000
11
99.7676717307
21
236.0994803197
31
0.0000000000
0
SPLINE
5
32C
100
AcDbEntity
8
0
100
AcDbSpline
62
7
6
CONTINUOUS
70
0
71
3
72
10
73
6
74
4
42
0.0000001000
43
0.0000001000
44
0.0000000001
12
-1.0735264972
22
0.5367632486
32
0.0000000000
13
-0.0000352147
23
1.2056453647
33
0.0000000000
40
0.0000000000
40
0.0000000000
40
0.0000000000
40
0.0000000000
40
0.3950875622
40
0.7212632404
40
1.0000000000
40
1.0000000000
40
1.0000000000
40
1.0000000000
10
99.3877149635
20
234.0317694782
30
0.0000000000
10
99.2463359745
20
234.1024589727
30
0.0000000000
10
98.9987708676
20
234.2562572505
30
0.0000000000
10
98.7262326303
20
234.5605255305
30
0.0000000000
10
98.6554851883
20
234.8036337273
30
0.0000000000
10
98.6554819164
20
234.9156529547
30
0.0000000000
11
99.3877149635
21
234.0317694782
31
0.0000000000
11
98.9904184070
21
234.2906529547
31
0.0000000000
11
98.7406673507
21
234.5921291483
31
0.0000000000
11
98.6554819164
21
234.9156529547
31
0.0000000000
0
SPLINE
5
32D
100
AcDbEntity
8
0
100
AcDbSpline
62
7
6
CONTINUOUS
70
0
71
3
72
16
73
12
74
10
42
0.0000001000
43
0.0000001000
44
0.0000000001
12
0.0001419387
22
-4.8595541861
32
0.0000000000
13
-4.3270271144
23
2.1635135572
33
0.0000000000
40
0.0000000000
40
0.0000000000
40
0.0000000000
40
0.0000000000
40
0.0691540148
40
0.1500775274
40
0.2480979363
40
0.3627307187
40
0.4900101768
40
0.6240489681
40
0.7580877595
40
0.8853672176
40
1.0000000000
40
1.0000000000
40
1.0000000000
40
1.0000000000
10
103.6554819164
20
234.9156529547
30
0.0000000000
10
103.6554851883
20
234.8036337273
30
0.0000000000
10
103.5847519475
20
234.5605353396
30
0.0000000000
10
103.3120843413
20
234.2562128926
30
0.0000000000
10
102.9065740126
20
234.0041521187
30
0.0000000000
10
102.3898491171
20
233.8127639458
30
0.0000000000
10
101.7935188080
20
233.6927102530
30
0.0000000000
10
101.1554959444
20
233.6517694511
30
0.0000000000
10
100.5173903280
20
233.6927294308
30
0.0000000000
10
99.9212881549
20
233.8126947003
30
0.0000000000
10
99.5530546827
20
233.9490996186
30
0.0000000000
10
99.3877149635
20
234.0317694782
30
0.0000000000
11
103.6554819164
21
234.9156529547
31
0.0000000000
11
103.5702964821
21
234.5921291483
31
0.0000000000
11
103.3205454259
21
234.2906529547
31
0.0000000000
11
102.9232488694
21
234.0317694782
31
0.0000000000
11
102.4054819164
21
233.8331212000
31
0.0000000000
11
101.8025295292
21
233.7082456718
31
0.0000000000
11
101.1554819164
21
233.6656529547
31
0.0000000000
11
100.5084343037
21
233.7082456718
31
0.0000000000
11
99.9054819164
21
233.8331212000
31
0.0000000000
11
99.3877149635
21
234.0317694782
31
0.0000000000
0
SPLINE
5
32E
100
AcDbEntity
8
0
100
AcDbSpline
62
7
6
CONTINUOUS
70
0
71
3
72
8
73
4
74
2
42
0.0000001000
43
0.0000001000
44
0.0000000001
12
0.0000000000
22
0.3534303628
32
0.0000000000
13
0.0134596449
23
0.3533300318
33
0.0000000000
40
0.0000000000
40
0.0000000000
40
0.0000000000
40
0.0000000000
40
1.0000000000
40
1.0000000000
40
1.0000000000
40
1.0000000000
10
-283.8641604397
20
-267.7741273598
30
0.0000000000
10
-283.8641604397
20
-267.6563172388
30
0.0000000000
10
-283.8618603175
20
-267.5384816981
30
0.0000000000
10
-283.8573737692
20
-267.4207050208
30
0.0000000000
11
-283.8641604397
21
-267.7741273598
31
0.0000000000
11
-283.8573737692
21
-267.4207050208
31
0.0000000000
0
SPLINE
5
32F
100
AcDbEntity
8
0
100
AcDbSpline
62
7
6
CONTINUOUS
70
0
71
3
72
8
73
4
74
2
42
0.0000001000
43
0.0000001000
44
0.0000000001
12
0.0007172671
22
0.0188290270
32
0.0000000000
13
0.0007544702
23
0.0188279858
33
0.0000000000
40
0.0000000000
40
0.0000000000
40
0.0000000000
40
0.0000000000
40
1.0000000000
40
1.0000000000
40
1.0000000000
40
1.0000000000
10
-283.8573737692
20
-267.4207050208
30
0.0000000000
10
-283.8571346802
20
-267.4144286785
30
0.0000000000
10
-283.8568893820
20
-267.4081525033
30
0.0000000000
10
-283.8566378920
20
-267.4018765081
30
0.0000000000
11
-283.8573737692
21
-267.4207050208
31
0.0000000000
11
-283.8566378920
21
-267.4018765081
31
0.0000000000
0
SPLINE
5
330
100
AcDbEntity
8
0
100
AcDbSpline
62
7
6
CONTINUOUS
70
0
71
3
72
23
73
19
74
17
42
0.0000001000
43
0.0000001000
44
0.0000000001
12
0.6443543557
22
16.0800187179
32
0.0000000000
13
14.4193234282
23
-7.2129855948
33
0.0000000000
40
0.0000000000
40
0.0000000000
40
0.0000000000
40
0.0000000000
40
0.0472739746
40
0.1212219207
40
0.1978588502
40
0.2761998981
40
0.3551754306
40
0.4336852695
40
0.5106516032
40
0.5850728575
40
0.6560809517
40
0.7230047937
40
0.7854430240
40
0.8433472963
40
0.8971097228
40
0.9476281311
40
0.9962912219
40
1.0000000000
40
1.0000000000
40
1.0000000000
40
1.0000000000
10
-283.8566378920
20
-267.4018765081
30
0.0000000000
10
-283.8464841615
20
-267.1484877095
30
0.0000000000
10
-283.7945658270
20
-266.4994895027
30
0.0000000000
10
-283.6136534110
20
-265.4523491789
30
0.0000000000
10
-283.2847003891
20
-264.2677587832
30
0.0000000000
10
-282.8361295113
20
-263.0943776689
30
0.0000000000
10
-282.2778109313
20
-261.9579007643
30
0.0000000000
10
-281.6220210617
20
-260.8833334019
30
0.0000000000
10
-280.8831537876
20
-259.8942870120
30
0.0000000000
10
-280.0773608699
20
-259.0124660412
30
0.0000000000
10
-279.2221247251
20
-258.2571846118
30
0.0000000000
10
-278.3357726898
20
-257.6450028492
30
0.0000000000
10
-277.4369678146
20
-257.1895366202
30
0.0000000000
10
-276.5442989024
20
-256.9015304286
30
0.0000000000
10
-275.6762764988
20
-256.7891774516
30
0.0000000000
10
-274.8521399534
20
-256.8581813972
30
0.0000000000
10
-274.3233333311
20
-257.0337693252
30
0.0000000000
10
-274.0704231142
20
-257.1573045245
30
0.0000000000
10
-274.0525970907
20
-257.1662216454
30
0.0000000000
11
-283.8566378920
21
-267.4018765081
31
0.0000000000
11
-283.7970291523
21
-266.6434294117
31
0.0000000000
11
-283.5971348921
21
-265.4708581000
31
0.0000000000
11
-283.2689429667
21
-264.2826067302
31
0.0000000000
11
-282.8197846413
21
-263.1052188742
31
0.0000000000
11
-282.2596933706
21
-261.9649954313
31
0.0000000000
11
-281.6011806682
21
-260.8874071090
31
0.0000000000
11
-280.8589566196
21
-259.8965254498
31
0.0000000000
11
-280.0496012837
21
-259.0144851124
31
0.0000000000
11
-279.1911943211
21
-258.2609894206
31
0.0000000000
11
-278.3029111250
21
-257.6528702230
31
0.0000000000
11
-277.4045944741
21
-257.2037118976
31
0.0000000000
11
-276.5163112780
21
-256.9235478991
31
0.0000000000
11
-275.6579043155
21
-256.8186366283
31
0.0000000000
11
-274.8485489795
21
-256.8913216297
31
0.0000000000
11
-274.1063249310
21
-257.1399792404
31
0.0000000000
11
-274.0525970907
21
-257.1662216454
31
0.0000000000
0
SPLINE
5
331
100
AcDbEntity
8
0
100
AcDbSpline
62
7
6
CONTINUOUS
70
0
71
3
72
13
73
9
74
7
42
0.0000001000
43
0.0000001000
44
0.0000000001
12
0.0000000000
22
-5.3621237719
32
0.0000000000
13
4.8067091774
23
-2.4044626107
33
0.0000000000
40
0.0000000000
40
0.0000000000
40
0.0000000000
40
0.0000000000
40
0.1987427427
40
0.3839314396
40
0.5556078083
40
0.7151725504
40
0.8655577878
40
1.0000000000
40
1.0000000000
40
1.0000000000
40
1.0000000000
10
-283.8641604397
20
-267.7741273598
30
0.0000000000
10
-283.8641604397
20
-268.1293550882
30
0.0000000000
10
-283.8237772843
20
-268.8166307312
30
0.0000000000
10
-283.6285809046
20
-269.7939434521
30
0.0000000000
10
-283.3036726340
20
-270.6628951802
30
0.0000000000
10
-282.8539173563
20
-271.4037631187
30
0.0000000000
10
-282.3006533439
20
-271.9833587966
30
0.0000000000
10
-281.8703167135
20
-272.2638716765
30
0.0000000000
10
-281.6549085084
20
-272.3716254340
30
0.0000000000
11
-283.8641604397
21
-267.7741273598
31
0.0000000000
11
-283.7970291523
21
-268.8376940204
31
0.0000000000
11
-283.5971348921
21
-269.8103710720
31
0.0000000000
11
-283.2689429667
21
-270.6704305164
31
0.0000000000
11
-282.8197846413
21
-271.3986600469
31
0.0000000000
11
-282.2596933706
21
-271.9787922191
31
0.0000000000
11
-281.6549085084
21
-272.3716254340
31
0.0000000000
0
SPLINE
5
332
100
AcDbEntity
8
0
100
AcDbSpline
62
7
6
CONTINUOUS
70
0
71
3
72
23
73
19
74
17
42
0.0000001000
43
0.0000001000
44
0.0000000001
12
-2.7381353183
22
-3.8440367233
32
0.0000000000
13
1.4085563897
23
-4.5044391713
33
0.0000000000
40
0.0000000000
40
0.0000000000
40
0.0000000000
40
0.0000000000
40
0.0771456939
40
0.1493823823
40
0.2171223952
40
0.2802329081
40
0.3381606561
40
0.3904930749
40
0.4380923279
40
0.4847332509
40
0.5326035783
40
0.5811943921
40
0.6308354999
40
0.6854337001
40
0.7488804789
40
0.8221071777
40
0.9056350886
40
1.0000000000
40
1.0000000000
40
1.0000000000
40
1.0000000000
10
-277.8891081386
20
-262.8300638701
30
0.0000000000
10
-277.9595199216
20
-262.9289141635
30
0.0000000000
10
-278.0828714356
20
-263.1298658485
30
0.0000000000
10
-278.2268022551
20
-263.4402642018
30
0.0000000000
10
-278.3329890155
20
-263.7420356230
30
0.0000000000
10
-278.4090088035
20
-264.0293898809
30
0.0000000000
10
-278.4611456155
20
-264.2972732233
30
0.0000000000
10
-278.4950651605
20
-264.5433921088
30
0.0000000000
10
-278.5159249298
20
-264.7731010364
30
0.0000000000
10
-278.5270071067
20
-264.9964488336
30
0.0000000000
10
-278.5294552211
20
-265.2216150934
30
0.0000000000
10
-278.5233804330
20
-265.4514308646
30
0.0000000000
10
-278.5083808834
20
-265.6914415828
30
0.0000000000
10
-278.4823778959
20
-265.9540175335
30
0.0000000000
10
-278.4410441064
20
-266.2521540240
30
0.0000000000
10
-278.3787858016
20
-266.5930492563
30
0.0000000000
10
-278.2897413696
20
-266.9780884474
30
0.0000000000
10
-278.2130142542
20
-267.2473806803
30
0.0000000000
10
-278.1687081546
20
-267.3890676814
30
0.0000000000
11
-277.8891081386
21
-262.8300638701
31
0.0000000000
11
-278.0804373346
21
-263.1398314217
31
0.0000000000
11
-278.2245626509
21
-263.4487921671
31
0.0000000000
11
-278.3311954714
21
-263.7501862097
31
0.0000000000
11
-278.4077404332
21
-264.0380348111
31
0.0000000000
11
-278.4602154547
21
-264.3063434991
31
0.0000000000
11
-278.4940937789
21
-264.5509936013
31
0.0000000000
11
-278.5145146172
21
-264.7747098307
31
0.0000000000
11
-278.5255100599
21
-264.9945584737
31
0.0000000000
11
-278.5280487164
21
-265.2204698587
31
0.0000000000
11
-278.5220644977
21
-265.4497177760
31
0.0000000000
11
-278.5075216982
21
-265.6835488855
31
0.0000000000
11
-278.4822088516
21
-265.9399806504
31
0.0000000000
11
-278.4411949629
21
-266.2365977807
31
0.0000000000
11
-278.3792402881
21
-266.5765950634
31
0.0000000000
11
-278.2905750789
21
-266.9607073385
31
0.0000000000
11
-278.1687081546
21
-267.3890676814
31
0.0000000000
0
SPLINE
5
333
100
AcDbEntity
8
0
100
AcDbSpline
62
7
6
CONTINUOUS
70
0
71
3
72
12
73
8
74
6
42
0.0000001000
43
0.0000001000
44
0.0000000001
12
3.6166639089
22
0.7700887706
32
0.0000000000
13
2.5898593224
23
2.6337765214
33
0.0000000000
40
0.0000000000
40
0.0000000000
40
0.0000000000
40
0.0000000000
40
0.1014858646
40
0.3325040242
40
0.5819366938
40
0.8487493125
40
1.0000000000
40
1.0000000000
40
1.0000000000
40
1.0000000000
10
-278.3006567976
20
-271.7281164852
30
0.0000000000
10
-278.1783100431
20
-271.7020654436
30
0.0000000000
10
-277.7813307971
20
-271.5982100109
30
0.0000000000
10
-277.1160297686
20
-271.3245191423
30
0.0000000000
10
-276.3260554134
20
-270.8478065758
30
0.0000000000
10
-275.6830701012
20
-270.3332422257
30
0.0000000000
10
-275.3111995552
20
-269.9770165821
30
0.0000000000
10
-275.1806268876
20
-269.8442297456
30
0.0000000000
11
-278.3006567976
21
-271.7281164852
31
0.0000000000
11
-277.9375494963
21
-271.6337755062
31
0.0000000000
11
-277.1466460184
21
-271.3145585674
31
0.0000000000
11
-276.3557425404
21
-270.8428720283
31
0.0000000000
11
-275.5843137310
21
-270.2303303770
31
0.0000000000
11
-275.1806268876
21
-269.8442297456
31
0.0000000000
0
SPLINE
5
334
100
AcDbEntity
8
0
100
AcDbSpline
62
7
6
CONTINUOUS
70
0
71
3
72
8
73
4
74
2
42
0.0000001000
43
0.0000001000
44
0.0000000001
12
0.0815087450
22
0.8124708248
32
0.0000000000
13
0.0000000000
23
0.8158270821
33
0.0000000000
40
0.0000000000
40
0.0000000000
40
0.0000000000
40
0.0000000000
40
1.0000000000
40
1.0000000000
40
1.0000000000
40
1.0000000000
10
-272.1325660698
20
-263.4094432125
30
0.0000000000
10
-272.1053964881
20
-263.1386196043
30
0.0000000000
10
-272.0908325329
20
-262.8665125483
30
0.0000000000
10
-272.0908325329
20
-262.5945701876
30
0.0000000000
11
-272.1325660698
21
-263.4094432125
31
0.0000000000
11
-272.0908325329
21
-262.5945701876
31
0.0000000000
0
SPLINE
5
335
100
AcDbEntity
8
0
100
AcDbSpline
62
7
6
CONTINUOUS
70
0
71
3
72
11
73
7
74
5
42
0.0000001000
43
0.0000001000
44
0.0000000001
12
2.8626522607
22
1.8830272411
32
0.0000000000
13
2.1802063759
23
2.6419075593
33
0.0000000000
40
0.0000000000
40
0.0000000000
40
0.0000000000
40
0.0000000000
40
0.0343867813
40
0.3790034239
40
0.7419867714
40
1.0000000000
40
1.0000000000
40
1.0000000000
40
1.0000000000
10
-276.9957710872
20
-272.4997960002
30
0.0000000000
10
-276.9629586215
20
-272.4782122515
30
0.0000000000
10
-276.6028385064
20
-272.2380094025
30
0.0000000000
10
-275.9309293373
20
-271.7195111085
30
0.0000000000
10
-275.1350408302
20
-270.9543403586
30
0.0000000000
10
-274.6661488686
20
-270.4219981448
30
0.0000000000
10
-274.4786415066
20
-270.1947824451
30
0.0000000000
11
-276.9957710872
21
-272.4997960002
31
0.0000000000
11
-276.8977508211
21
-272.4344224324
31
0.0000000000
11
-275.9612102860
21
-271.7166325370
31
0.0000000000
11
-275.0631964589
21
-270.8574073221
31
0.0000000000
11
-274.4786415066
21
-270.1947824451
31
0.0000000000
0
SPLINE
5
336
100
AcDbEntity
8
0
100
AcDbSpline
62
7
6
CONTINUOUS
70
0
71
3
72
9
73
5
74
3
42
0.0000001000
43
0.0000001000
44
0.0000000001
12
0.1627677366
22
1.3315262022
32
0.0000000000
13
0.0000000000
23
1.3407163552
33
0.0000000000
40
0.0000000000
40
0.0000000000
40
0.0000000000
40
0.0000000000
40
0.0997468937
40
1.0000000000
40
1.0000000000
40
1.0000000000
40
1.0000000000
10
-271.2201058177
20
-262.7481217679
30
0.0000000000
10
-271.2146939590
20
-262.7038499004
30
0.0000000000
10
-271.1629086336
20
-262.2596877677
30
0.0000000000
10
-271.1362383783
20
-261.8124943502
30
0.0000000000
10
-271.1362383783
20
-261.4101663291
30
0.0000000000
11
-271.2201058177
21
-262.7481217679
31
0.0000000000
11
-271.2046129892
21
-262.6152121547
31
0.0000000000
11
-271.1362383783
21
-261.4101663291
31
0.0000000000
0
SPLINE
5
337
100
AcDbEntity
8
0
100
AcDbSpline
62
7
6
CONTINUOUS
70
0
71
3
72
14
73
10
74
8
42
0.0000001000
43
0.0000001000
44
0.0000000001
12
5.6050508211
22
-2.8023852227
32
0.0000000000
13
5.2275796806
23
3.4379157780
33
0.0000000000
40
0.0000000000
40
0.0000000000
40
0.0000000000
40
0.0000000000
40
0.0754156359
40
0.2247512389
40
0.3805440020
40
0.5460150298
40
0.7232108240
40
0.9130172437
40
1.0000000000
40
1.0000000000
40
1.0000000000
40
1.0000000000
10
-283.9044317851
20
-274.0418543819
30
0.0000000000
10
-283.7635289612
20
-274.1123022698
30
0.0000000000
10
-283.3316653942
20
-274.2983563536
30
0.0000000000
10
-282.5544265460
20
-274.4858280982
30
0.0000000000
10
-281.5673380078
20
-274.5120527872
30
0.0000000000
10
-280.5365744790
20
-274.3441504289
30
0.0000000000
10
-279.4809213246
20
-273.9876993816
30
0.0000000000
10
-278.6339529201
20
-273.5594554144
30
0.0000000000
10
-278.1435111330
20
-273.2546532227
30
0.0000000000
10
-277.9919413698
20
-273.1549734260
30
0.0000000000
11
-283.9044317851
21
-274.0418543819
31
0.0000000000
11
-283.4706438793
21
-274.2286817259
31
0.0000000000
11
-282.5635898371
21
-274.4507139112
31
0.0000000000
11
-281.5898757406
21
-274.4818550114
31
0.0000000000
11
-280.5676400410
21
-274.3215249267
31
0.0000000000
11
-279.5159250553
21
-273.9727103032
31
0.0000000000
11
-278.4543222437
21
-273.4419088974
31
0.0000000000
11
-277.9919413698
21
-273.1549734260
31
0.0000000000
0
SPLINE
5
338
100
AcDbEntity
8
0
100
AcDbSpline
62
7
6
CONTINUOUS
70
0
71
3
72
9
73
5
74
3
42
0.0000001000
43
0.0000001000
44
0.0000000001
12
0.5913254304
22
-1.2761630967
32
0.0000000000
13
0.2098966766
23
-1.3904680351
33
0.0000000000
40
0.0000000000
40
0.0000000000
40
0.0000000000
40
0.0000000000
40
0.4333298338
40
1.0000000000
40
1.0000000000
40
1.0000000000
40
1.0000000000
10
-272.5546944431
20
-260.2355430987
30
0.0000000000
10
-272.4692814596
20
-260.4198762796
30
0.0000000000
10
-272.3041082102
20
-260.8599852180
30
0.0000000000
10
-272.2036358431
20
-261.3189217562
30
0.0000000000
10
-272.1639884482
20
-261.5815673404
30
0.0000000000
11
-272.5546944431
21
-260.2355430987
31
0.0000000000
11
-272.3382816578
21
-260.8048362936
31
0.0000000000
11
-272.1639884482
21
-261.5815673404
31
0.0000000000
0
SPLINE
5
339
100
AcDbEntity
8
0
100
AcDbSpline
62
7
6
CONTINUOUS
70
0
71
3
72
8
73
4
74
2
42
0.0000001000
43
0.0000001000
44
0.0000000001
12
0.0113823453
22
-0.0754027532
32
0.0000000000
13
0.0104416357
23
-0.0755354007
33
0.0000000000
40
0.0000000000
40
0.0000000000
40
0.0000000000
40
0.0000000000
40
1.0000000000
40
1.0000000000
40
1.0000000000
40
1.0000000000
10
-272.1639884482
20
-261.5815673404
30
0.0000000000
10
-272.1601943331
20
-261.6067015915
30
0.0000000000
10
-272.1565585318
20
-261.6318594691
30
0.0000000000
10
-272.1530779865
20
-261.6570379360
30
0.0000000000
11
-272.1639884482
21
-261.5815673404
31
0.0000000000
11
-272.1530779865
21
-261.6570379360
31
0.0000000000
0
SPLINE
5
33A
100
AcDbEntity
8
0
100
AcDbSpline
62
7
6
CONTINUOUS
70
0
71
3
72
8
73
4
74
2
42
0.0000001000
43
0.0000001000
44
0.0000000001
12
0.1288074326
22
-0.9318004654
32
0.0000000000
13
0.0000000000
23
-0.9395963065
33
0.0000000000
40
0.0000000000
40
0.0000000000
40
0.0000000000
40
0.0000000000
40
1.0000000000
40
1.0000000000
40
1.0000000000
40
1.0000000000
10
-272.1530779865
20
-261.6570379360
30
0.0000000000
10
-272.1101421757
20
-261.9676380912
30
0.0000000000
10
-272.0908325329
20
-262.2813714187
30
0.0000000000
10
-272.0908325329
20
-262.5945701876
30
0.0000000000
11
-272.1530779865
21
-261.6570379360
31
0.0000000000
11
-272.0908325329
21
-262.5945701876
31
0.0000000000
0
SPLINE
5
33B
100
AcDbEntity
8
0
100
AcDbSpline
62
7
6
CONTINUOUS
70
0
71
3
72
8
73
4
74
2
42
0.0000001000
43
0.0000001000
44
0.0000000001
12
0.0368499223
22
-0.5944623568
32
0.0000000000
13
0.0000000000
23
-0.5951582595
33
0.0000000000
40
0.0000000000
40
0.0000000000
40
0.0000000000
40
0.0000000000
40
1.0000000000
40
1.0000000000
40
1.0000000000
40
1.0000000000
10
-271.1543576955
20
-260.8150979833
30
0.0000000000
10
-271.1420743881
20
-261.0132521022
30
0.0000000000
10
-271.1362383783
20
-261.2117802426
30
0.0000000000
10
-271.1362383783
20
-261.4101663291
30
0.0000000000
11
-271.1543576955
21
-260.8150979833
31
0.0000000000
11
-271.1362383783
21
-261.4101663291
31
0.0000000000
0
SPLINE
5
33C
100
AcDbEntity
8
0
100
AcDbSpline
62
7
6
CONTINUOUS
70
0
71
3
72
14
73
10
74
8
42
0.0000001000
43
0.0000001000
44
0.0000000001
12
5.6049648883
22
-2.8023422585
32
0.0000000000
13
0.3862203809
23
-6.2455528223
33
0.0000000000
40
0.0000000000
40
0.0000000000
40
0.0000000000
40
0.0000000000
40
0.0716092638
40
0.2208322789
40
0.3764153021
40
0.5416078958
40
0.7184876283
40
0.9079688028
40
1.0000000000
40
1.0000000000
40
1.0000000000
40
1.0000000000
10
-274.0658155138
20
-254.3646218476
30
0.0000000000
10
-273.9320263774
20
-254.4315130696
30
0.0000000000
10
-273.5305888789
20
-254.6600858823
30
0.0000000000
10
-272.9181051385
20
-255.1604131035
30
0.0000000000
10
-272.3016527079
20
-255.9302037506
30
0.0000000000
10
-271.8140851664
20
-256.8518645358
30
0.0000000000
10
-271.4622764541
20
-257.9070902300
30
0.0000000000
10
-271.2918381920
20
-258.8500094275
30
0.0000000000
10
-271.2396805889
20
-259.4351479162
30
0.0000000000
10
-271.2278324809
20
-259.6267431506
30
0.0000000000
11
-274.0658155138
21
-254.3646218476
31
0.0000000000
11
-273.6761061325
21
-254.5865817346
31
0.0000000000
11
-272.9515057966
21
-255.1745090784
31
0.0000000000
11
-272.3393003452
21
-255.9306245612
31
0.0000000000
11
-271.8508940076
21
-256.8408431821
31
0.0000000000
11
-271.4953848698
21
-257.8882092905
31
0.0000000000
11
-271.2793953943
21
-259.0532124373
31
0.0000000000
11
-271.2278324809
21
-259.6267431506
31
0.0000000000
0
SPLINE
5
33D
100
AcDbEntity
8
0
100
AcDbSpline
62
7
6
CONTINUOUS
70
0
71
3
72
8
73
4
74
2
42
0.0000001000
43
0.0000001000
44
0.0000000001
12
0.0004130068
22
-0.0098973603
32
0.0000000000
13
0.0004253494
23
-0.0098969440
33
0.0000000000
40
0.0000000000
40
0.0000000000
40
0.0000000000
40
0.0000000000
40
1.0000000000
40
1.0000000000
40
1.0000000000
40
1.0000000000
10
-283.8570856247
20
-267.7637510046
30
0.0000000000
10
-283.8569479558
20
-267.7670501247
30
0.0000000000
10
-283.8568082318
20
-267.7703491771
30
0.0000000000
10
-283.8566664486
20
-267.7736481584
30
0.0000000000
11
-283.8570856247
21
-267.7637510046
31
0.0000000000
11
-283.8566664486
21
-267.7736481584
31
0.0000000000
0
SPLINE
5
33E
100
AcDbEntity
8
0
100
AcDbSpline
62
7
6
CONTINUOUS
70
0
71
3
72
16
73
12
74
10
42
0.0000001000
43
0.0000001000
44
0.0000000001
12
0.3021564840
22
-7.0305168284
32
0.0000000000
13
6.8887017775
23
1.4659574256
33
0.0000000000
40
0.0000000000
40
0.0000000000
40
0.0000000000
40
0.0000000000
40
0.0924266602
40
0.2253295925
40
0.3485352372
40
0.4630488250
40
0.5709746291
40
0.6754432307
40
0.7802083745
40
0.8889677693
40
1.0000000000
40
1.0000000000
40
1.0000000000
40
1.0000000000
10
-283.8566664486
20
-267.7736481584
30
0.0000000000
10
-283.8473573437
20
-267.9902505551
30
0.0000000000
10
-283.8030220852
20
-268.5175647084
30
0.0000000000
10
-283.6424385243
20
-269.3215773502
30
0.0000000000
10
-283.3366425050
20
-270.1394142708
30
0.0000000000
10
-282.9133434200
20
-270.8367017423
30
0.0000000000
10
-282.3795877314
20
-271.3958606307
30
0.0000000000
10
-281.7468404196
20
-271.8003089794
30
0.0000000000
10
-281.0323535748
20
-272.0375512139
30
0.0000000000
10
-280.2677936174
20
-272.1015668846
30
0.0000000000
10
-279.7534574224
20
-272.0373095326
30
0.0000000000
10
-279.4985014475
20
-271.9830533582
30
0.0000000000
11
-283.8566664486
21
-267.7736481584
31
0.0000000000
11
-283.8009780515
21
-268.4215778851
31
0.0000000000
11
-283.6128422773
21
-269.3370386395
31
0.0000000000
11
-283.3039557592
21
-270.1465063519
31
0.0000000000
11
-282.8812185117
21
-270.8318988512
31
0.0000000000
11
-282.3540737864
21
-271.3779056015
31
0.0000000000
11
-281.7342971253
21
-271.7723297144
31
0.0000000000
11
-281.0357333149
21
-272.0063604068
31
0.0000000000
11
-280.2739871164
21
-272.0747698199
31
0.0000000000
11
-279.4985014475
21
-271.9830533582
31
0.0000000000
0
SPLINE
5
33F
100
AcDbEntity
8
0
100
AcDbSpline
62
7
6
CONTINUOUS
70
0
71
3
72
21
73
17
74
15
42
0.0000001000
43
0.0000001000
44
0.0000000001
12
0.0000000000
22
18.5840814707
32
0.0000000000
13
18.4594693729
23
2.3368062228
33
0.0000000000
40
0.0000000000
40
0.0000000000
40
0.0000000000
40
0.0000000000
40
0.0718545800
40
0.1470684736
40
0.2249426475
40
0.3046586921
40
0.3853208574
40
0.4659951703
40
0.5457471728
40
0.6236796445
40
0.6989716650
40
0.7709205533
40
0.8389884629
40
0.9028553819
40
0.9624790208
40
1.0000000000
40
1.0000000000
40
1.0000000000
40
1.0000000000
10
-286.7632982425
20
-268.0923254113
30
0.0000000000
10
-286.7632982425
20
-267.6472082881
30
0.0000000000
10
-286.7113336901
20
-266.7356160264
30
0.0000000000
10
-286.4930128460
20
-265.3573596760
30
0.0000000000
10
-286.1364493537
20
-263.9579520535
30
0.0000000000
10
-285.6482293074
20
-262.5632460165
30
0.0000000000
10
-285.0373363835
20
-261.1987695318
30
0.0000000000
10
-284.3150046723
20
-259.8896186993
30
0.0000000000
10
-283.4945061626
20
-258.6598542784
30
0.0000000000
10
-282.5908857248
20
-257.5320669408
30
0.0000000000
10
-281.6206465262
20
-256.5269429887
30
0.0000000000
10
-280.6013898722
20
-255.6628976550
30
0.0000000000
10
-279.5514176859
20
-254.9557914115
30
0.0000000000
10
-278.4893259744
20
-254.4187768480
30
0.0000000000
10
-277.5406554895
20
-254.0984494881
30
0.0000000000
10
-276.9475243255
20
-253.9860808412
30
0.0000000000
10
-276.7166518703
20
-253.9568544220
30
0.0000000000
11
-286.7632982425
21
-268.0923254113
31
0.0000000000
11
-286.6908519046
21
-266.7589406924
31
0.0000000000
11
-286.4748624291
21
-265.3779480701
31
0.0000000000
11
-286.1193532913
21
-263.9750728240
31
0.0000000000
11
-285.6309469537
21
-262.5764478655
31
0.0000000000
11
-285.0187415024
21
-261.2081269313
31
0.0000000000
11
-284.2941411665
21
-259.8955992516
31
0.0000000000
11
-283.4706438793
21
-258.6633147335
31
0.0000000000
11
-282.5635898371
21
-257.5342285060
31
0.0000000000
11
-281.5898757406
21
-256.5293733093
31
0.0000000000
11
-280.5676400410
21
-255.6674676944
31
0.0000000000
11
-279.5159250553
21
-254.9645673322
31
0.0000000000
11
-278.4543222437
21
-254.4337659264
31
0.0000000000
11
-277.4026072579
21
-254.0849513029
31
0.0000000000
11
-276.7166518703
21
-253.9568544220
31
0.0000000000
0
SPLINE
5
340
100
AcDbEntity
8
0
100
AcDbSpline
62
7
6
CONTINUOUS
70
0
71
3
72
11
73
7
74
5
42
0.0000001000
43
0.0000001000
44
0.0000000001
12
2.6988596564
22
0.3416518597
32
0.0000000000
13
2.4354295684
23
-1.2176538717
33
0.0000000000
40
0.0000000000
40
0.0000000000
40
0.0000000000
40
0.0000000000
40
0.1241920938
40
0.4827433596
40
0.8264337112
40
1.0000000000
40
1.0000000000
40
1.0000000000
40
1.0000000000
10
-276.7166518703
20
-253.9568544220
30
0.0000000000
10
-276.6049261932
20
-253.9427109354
30
0.0000000000
10
-276.1690181137
20
-253.9006373970
30
0.0000000000
10
-275.4158207529
20
-253.9206481313
30
0.0000000000
10
-274.6385819047
20
-254.1081198760
30
0.0000000000
10
-274.2067183378
20
-254.2941739598
30
0.0000000000
10
-274.0658155138
20
-254.3646218476
30
0.0000000000
11
-276.7166518703
21
-253.9568544220
31
0.0000000000
11
-276.3803715583
21
-253.9246212182
31
0.0000000000
11
-275.4066574618
21
-253.9557623184
31
0.0000000000
11
-274.4996034197
21
-254.1777945037
31
0.0000000000
11
-274.0658155138
21
-254.3646218476
31
0.0000000000
0
SPLINE
5
341
100
AcDbEntity
8
0
100
AcDbSpline
62
7
6
CONTINUOUS
70
0
71
3
72
28
73
24
74
22
42
0.0000001000
43
0.0000001000
44
0.0000000001
12
0.0000000000
22
22.5317686710
32
0.0000000000
13
4.8437492835
23
-22.0219960840
33
0.0000000000
40
0.0000000000
40
0.0000000000
40
0.0000000000
40
0.0000000000
40
0.0535681012
40
0.1097286954
40
0.1679053629
40
0.2274234581
40
0.2875471548
40
0.3475139836
40
0.4065683209
40
0.4639951447
40
0.5191554092
40
0.5715246027
40
0.6207362594
40
0.6666318348
40
0.7093159414
40
0.7492085554
40
0.7870706955
40
0.8239635998
40
0.8611109382
40
0.8996924175
40
0.9406571000
40
0.9846262997
40
1.0000000000
40
1.0000000000
40
1.0000000000
40
1.0000000000
10
-284.5712672208
20
-268.1276807504
30
0.0000000000
10
-284.5712672208
20
-267.7253527292
30
0.0000000000
10
-284.5220852685
20
-266.9006945052
30
0.0000000000
10
-284.3161396450
20
-265.6545871714
30
0.0000000000
10
-283.9803012204
20
-264.3907692864
30
0.0000000000
10
-283.5213383484
20
-263.1347262960
30
0.0000000000
10
-282.9484679781
20
-261.9115548418
30
0.0000000000
10
-282.2731874750
20
-260.7458130158
30
0.0000000000
10
-281.5090329091
20
-259.6608826078
30
0.0000000000
10
-280.6712779383
20
-258.6785061413
30
0.0000000000
10
-279.7765762618
20
-257.8183359710
30
0.0000000000
10
-278.8425529889
20
-257.0975696891
30
0.0000000000
10
-277.8873609159
20
-256.5307013651
30
0.0000000000
10
-276.9292587874
20
-256.1294546133
30
0.0000000000
10
-275.9863711646
20
-255.9029425450
30
0.0000000000
10
-275.0769315134
20
-255.8579112242
30
0.0000000000
10
-274.2201680131
20
-255.9983911740
30
0.0000000000
10
-273.4368201587
20
-256.3238015037
30
0.0000000000
10
-272.7471640880
20
-256.8265769468
30
0.0000000000
10
-272.1673647654
20
-257.4927242320
30
0.0000000000
10
-271.7082179628
20
-258.3051069152
30
0.0000000000
10
-271.4566791952
20
-259.0187909914
30
0.0000000000
10
-271.3504432177
20
-259.4521084287
30
0.0000000000
10
-271.3256211011
20
-259.5649616179
30
0.0000000000
11
-284.5712672208
21
-268.1276807504
31
0.0000000000
11
-284.5028926099
21
-266.9226349247
31
0.0000000000
11
-284.2991606869
21
-265.6737457461
31
0.0000000000
11
-283.9642188464
21
-264.4064369966
31
0.0000000000
11
-283.5048855383
21
-263.1465074278
31
0.0000000000
11
-282.9305114642
21
-261.9196055724
31
0.0000000000
11
-282.2527892238
21
-260.7507076141
31
0.0000000000
11
-281.4855152876
21
-259.6636089444
31
0.0000000000
11
-280.6443091402
21
-258.6804397574
31
0.0000000000
11
-279.7462953131
21
-257.8212145424
31
0.0000000000
11
-278.8097547780
21
-257.1034246471
31
0.0000000000
11
-277.8537527996
21
-256.5416822038
31
0.0000000000
11
-276.8977508211
21
-256.1474226686
31
0.0000000000
11
-275.9612102860
21
-255.9286720289
31
0.0000000000
11
-275.0631964589
21
-255.8898834167
31
0.0000000000
11
-274.2219903116
21
-256.0318464564
31
0.0000000000
11
-273.4547163754
21
-256.3516711899
31
0.0000000000
11
-272.7769941350
21
-256.8428469078
31
0.0000000000
11
-272.2026200608
21
-257.4953746891
31
0.0000000000
11
-271.7432867527
21
-258.2959709498
31
0.0000000000
11
-271.4083449122
21
-259.2283378587
31
0.0000000000
11
-271.3256211011
21
-259.5649616179
31
0.0000000000
0
SPLINE
5
342
100
AcDbEntity
8
0
100
AcDbSpline
62
7
6
CONTINUOUS
70
0
71
3
72
8
73
4
74
2
42
0.0000001000
43
0.0000001000
44
0.0000000001
12
0.0170437112
22
-0.0774888460
32
0.0000000000
13
0.0162007508
23
-0.0776706790
33
0.0000000000
40
0.0000000000
40
0.0000000000
40
0.0000000000
40
0.0000000000
40
1.0000000000
40
1.0000000000
40
1.0000000000
40
1.0000000000
10
-271.3256211011
20
-259.5649616179
30
0.0000000000
10
-271.3199398640
20
-259.5907912333
30
0.0000000000
10
-271.3144000650
20
-259.6166520478
30
0.0000000000
10
-271.3089998147
20
-259.6425422742
30
0.0000000000
11
-271.3256211011
21
-259.5649616179
31
0.0000000000
11
-271.3089998147
21
-259.6425422742
31
0.0000000000
0
SPLINE
5
343
100
AcDbEntity
8
0
100
AcDbSpline
62
7
6
CONTINUOUS
70
0
71
3
72
9
73
5
74
3
42
0.0000001000
43
0.0000001000
44
0.0000000001
12
0.2416786224
22
-1.1586711608
32
0.0000000000
13
0.0732293203
23
-1.1813342236
33
0.0000000000
40
0.0000000000
40
0.0000000000
40
0.0000000000
40
0.0000000000
40
0.5404077947
40
1.0000000000
40
1.0000000000
40
1.0000000000
40
1.0000000000
10
-271.3089998147
20
-259.6425422742
30
0.0000000000
10
-271.2654648109
20
-259.8512605831
30
0.0000000000
10
-271.2016876638
20
-260.2410214129
30
0.0000000000
10
-271.1655762371
20
-260.6341206496
30
0.0000000000
10
-271.1543576955
20
-260.8150979833
30
0.0000000000
11
-271.3089998147
21
-259.6425422742
31
0.0000000000
11
-271.2046129892
21
-260.2734951144
31
0.0000000000
11
-271.1543576955
21
-260.8150979833
31
0.0000000000
0
SPLINE
5
344
100
AcDbEntity
8
0
100
AcDbSpline
62
7
6
CONTINUOUS
70
0
71
3
72
8
73
4
74
2
42
0.0000001000
43
0.0000001000
44
0.0000000001
12
0.2123008957
22
-0.1246822634
32
0.0000000000
13
0.2022543637
23
-0.1404245382
33
0.0000000000
40
0.0000000000
40
0.0000000000
40
0.0000000000
40
0.0000000000
40
1.0000000000
40
1.0000000000
40
1.0000000000
40
1.0000000000
10
-274.2178514180
20
-257.0917102472
30
0.0000000000
10
-274.1470844527
20
-257.1332710017
30
0.0000000000
10
-274.0779011908
20
-257.1775421431
30
0.0000000000
10
-274.0104830695
20
-257.2243503224
30
0.0000000000
11
-274.2178514180
21
-257.0917102472
31
0.0000000000
11
-274.0104830695
21
-257.2243503224
31
0.0000000000
0
SPLINE
5
345
100
AcDbEntity
8
0
100
AcDbSpline
62
7
6
CONTINUOUS
70
0
71
3
72
13
73
9
74
7
42
0.0000001000
43
0.0000001000
44
0.0000000001
12
3.8516506686
22
-2.6741883654
32
0.0000000000
13
0.1191447595
23
-4.6779200416
33
0.0000000000
40
0.0000000000
40
0.0000000000
40
0.0000000000
40
0.0000000000
40
0.0559082864
40
0.2283191433
40
0.4112539472
40
0.6080742625
40
0.8203859394
40
1.0000000000
40
1.0000000000
40
1.0000000000
40
1.0000000000
10
-274.0104830695
20
-257.2243503224
30
0.0000000000
10
-273.9387033399
20
-257.2741867521
30
0.0000000000
10
-273.6537395341
20
-257.4894542926
30
0.0000000000
10
-273.2071416334
20
-257.9573072655
30
0.0000000000
10
-272.7573863557
20
-258.6981752039
30
0.0000000000
10
-272.4324780852
20
-259.5671269321
30
0.0000000000
10
-272.2520633431
20
-260.4704306856
30
0.0000000000
10
-272.2068845296
20
-261.0812235282
30
0.0000000000
10
-272.1997511716
20
-261.3612969329
30
0.0000000000
11
-274.0104830695
21
-257.2243503224
31
0.0000000000
11
-273.8013656191
21
-257.3822781650
31
0.0000000000
11
-273.2412743485
21
-257.9624103373
31
0.0000000000
11
-272.7921160230
21
-258.6906398678
31
0.0000000000
11
-272.4639240976
21
-259.5506993122
31
0.0000000000
11
-272.2640298375
21
-260.5233763637
31
0.0000000000
11
-272.1997511716
21
-261.3612969329
31
0.0000000000
0
SPLINE
5
346
100
AcDbEntity
8
0
100
AcDbSpline
62
7
6
CONTINUOUS
70
0
71
3
72
13
73
9
74
7
42
0.0000001000
43
0.0000001000
44
0.0000000001
12
4.8067091774
22
-2.4044626107
32
0.0000000000
13
0.0000000000
23
-5.3621237719
33
0.0000000000
40
0.0000000000
40
0.0000000000
40
0.0000000000
40
0.0000000000
40
0.1344422122
40
0.2848274496
40
0.4443921917
40
0.6160685604
40
0.8012572573
40
1.0000000000
40
1.0000000000
40
1.0000000000
40
1.0000000000
10
-274.0525970907
20
-257.1662216454
30
0.0000000000
10
-273.8371888857
20
-257.2739754029
30
0.0000000000
10
-273.4068522552
20
-257.5544882829
30
0.0000000000
10
-272.8535882428
20
-258.1340839608
30
0.0000000000
10
-272.4038329651
20
-258.8749518992
30
0.0000000000
10
-272.0789246946
20
-259.7439036274
30
0.0000000000
10
-271.8837283149
20
-260.7212163482
30
0.0000000000
10
-271.8433451595
20
-261.4084919913
30
0.0000000000
10
-271.8433451595
20
-261.7637197197
30
0.0000000000
11
-274.0525970907
21
-257.1662216454
31
0.0000000000
11
-273.4478122285
21
-257.5590548603
31
0.0000000000
11
-272.8877209579
21
-258.1391870326
31
0.0000000000
11
-272.4385626324
21
-258.8674165631
31
0.0000000000
11
-272.1103707070
21
-259.7274760075
31
0.0000000000
11
-271.9104764469
21
-260.7001530590
31
0.0000000000
11
-271.8433451595
21
-261.7637197197
31
0.0000000000
0
SPLINE
5
347
100
AcDbEntity
8
0
100
AcDbSpline
62
7
6
CONTINUOUS
70
0
71
3
72
18
73
14
74
12
42
0.0000001000
43
0.0000001000
44
0.0000000001
12
0.0000000000
22
-10.0499444532
32
0.0000000000
13
9.2017758367
23
4.0651372609
33
0.0000000000
40
0.0000000000
40
0.0000000000
40
0.0000000000
40
0.0000000000
40
0.1133066799
40
0.2192603806
40
0.3178384215
40
0.4096803967
40
0.4961792796
40
0.5794628477
40
0.6621759801
40
0.7470621192
40
0.8365005389
40
0.9321974276
40
1.0000000000
40
1.0000000000
40
1.0000000000
40
1.0000000000
10
-284.5712672208
20
-268.1276807504
30
0.0000000000
10
-284.5712672208
20
-268.5072560302
30
0.0000000000
10
-284.5299249734
20
-269.2427805541
30
0.0000000000
10
-284.3307843517
20
-270.2921935865
30
0.0000000000
10
-283.9992876363
20
-271.2327401643
30
0.0000000000
10
-283.5401408337
20
-272.0451228474
30
0.0000000000
10
-282.9603415111
20
-272.7112701327
30
0.0000000000
10
-282.2706854404
20
-273.2140455757
30
0.0000000000
10
-281.4873375860
20
-273.5394559055
30
0.0000000000
10
-280.6305740857
20
-273.6799358553
30
0.0000000000
10
-279.7211344345
20
-273.6349045345
30
0.0000000000
10
-278.8931299244
20
-273.4359911013
30
0.0000000000
10
-278.3810783907
20
-273.2384359391
30
0.0000000000
10
-278.1731103667
20
-273.1465603514
30
0.0000000000
11
-284.5712672208
21
-268.1276807504
31
0.0000000000
11
-284.5028926099
21
-269.2643519651
31
0.0000000000
11
-284.2991606869
21
-270.3095092207
31
0.0000000000
11
-283.9642188464
21
-271.2418761297
31
0.0000000000
11
-283.5048855383
21
-272.0424723904
31
0.0000000000
11
-282.9305114642
21
-272.6950001716
31
0.0000000000
11
-282.2527892238
21
-273.1861758896
31
0.0000000000
11
-281.4855152876
21
-273.5060006230
31
0.0000000000
11
-280.6443091402
21
-273.6479636627
31
0.0000000000
11
-279.7462953131
21
-273.6091750506
31
0.0000000000
11
-278.8097547780
21
-273.3904244108
31
0.0000000000
11
-278.1731103667
21
-273.1465603514
31
0.0000000000
0
SPLINE
5
348
100
AcDbEntity
8
0
100
AcDbSpline
62
7
6
CONTINUOUS
70
0
71
3
72
9
73
5
74
3
42
0.0000001000
43
0.0000001000
44
0.0000000001
12
1.2303725036
22
0.5435508534
32
0.0000000000
13
1.1234721267
23
0.7390099902
33
0.0000000000
40
0.0000000000
40
0.0000000000
40
0.0000000000
40
0.0000000000
40
0.2624656053
40
1.0000000000
40
1.0000000000
40
1.0000000000
40
1.0000000000
10
-278.1731103667
20
-273.1465603514
30
0.0000000000
10
-278.0654668787
20
-273.0990058835
30
0.0000000000
10
-277.6598111497
20
-272.9076657652
30
0.0000000000
10
-277.2719708655
20
-272.6814777621
30
0.0000000000
10
-276.9957710872
20
-272.4997960002
30
0.0000000000
11
-278.1731103667
21
-273.1465603514
31
0.0000000000
11
-277.8537527996
21
-272.9961648757
31
0.0000000000
11
-276.9957710872
21
-272.4997960002
31
0.0000000000
0
SPLINE
5
349
100
AcDbEntity
8
0
100
AcDbSpline
62
7
6
CONTINUOUS
70
0
71
3
72
9
73
5
74
3
42
0.0000001000
43
0.0000001000
44
0.0000000001
12
0.3037795857
22
0.2291843229
32
0.0000000000
13
0.3247456120
23
0.1984428140
33
0.0000000000
40
0.0000000000
40
0.0000000000
40
0.0000000000
40
0.0000000000
40
0.4956255797
40
1.0000000000
40
1.0000000000
40
1.0000000000
40
1.0000000000
10
-278.1687081546
20
-267.3890676814
30
0.0000000000
10
-278.1185211768
20
-267.3512044771
30
0.0000000000
10
-278.0151906657
20
-267.2775227891
30
0.0000000000
10
-277.9084105435
20
-267.2089708979
30
0.0000000000
10
-277.8538127503
20
-267.1756077381
30
0.0000000000
11
-278.1687081546
21
-267.3890676814
31
0.0000000000
11
-278.0152473091
21
-267.2794275259
31
0.0000000000
11
-277.8538127503
21
-267.1756077381
31
0.0000000000
0
SPLINE
5
34A
100
AcDbEntity
8
0
100
AcDbSpline
62
7
6
CONTINUOUS
70
0
71
3
72
17
73
13
74
11
42
0.0000001000
43
0.0000001000
44
0.0000000001
12
5.8623396320
22
4.2124240216
32
0.0000000000
13
3.0369054219
23
-6.5538791576
33
0.0000000000
40
0.0000000000
40
0.0000000000
40
0.0000000000
40
0.0000000000
40
0.0945212920
40
0.2255575623
40
0.3470786215
40
0.4599073776
40
0.5659280602
40
0.6680550727
40
0.7698930103
40
0.8751010932
40
0.9867310704
40
1.0000000000
40
1.0000000000
40
1.0000000000
40
1.0000000000
10
-279.2007190856
20
-258.2682964455
30
0.0000000000
10
-279.0160137802
20
-258.1355751918
30
0.0000000000
10
-278.5621120572
20
-257.8371833973
30
0.0000000000
10
-277.8150379690
20
-257.4586062143
30
0.0000000000
10
-276.9748789928
20
-257.1875415633
30
0.0000000000
10
-276.1579167306
20
-257.0817975850
30
0.0000000000
10
-275.3822588055
20
-257.1467424750
30
0.0000000000
10
-274.6677719607
20
-257.3839847095
30
0.0000000000
10
-274.0350246489
20
-257.7884330581
30
0.0000000000
10
-273.5012689603
20
-258.3475919466
30
0.0000000000
10
-273.2121856617
20
-258.8237899104
30
0.0000000000
10
-273.0828685830
20
-259.0953365938
30
0.0000000000
10
-273.0694364216
20
-259.1243242476
30
0.0000000000
11
-279.2007190856
21
-258.2682964455
31
0.0000000000
11
-278.6300434376
21
-257.8946848993
31
0.0000000000
11
-277.7845689427
21
-257.4719476518
31
0.0000000000
11
-276.9485376993
21
-257.2082638885
31
0.0000000000
11
-276.1406252640
21
-257.1095238690
31
0.0000000000
11
-275.3788790654
21
-257.1779332821
31
0.0000000000
11
-274.6803152550
21
-257.4119639745
31
0.0000000000
11
-274.0605385939
21
-257.8063880873
31
0.0000000000
11
-273.5333938686
21
-258.3523948377
31
0.0000000000
11
-273.1106566211
21
-259.0377873370
31
0.0000000000
11
-273.0694364216
21
-259.1243242476
31
0.0000000000
0
SPLINE
5
34B
100
AcDbEntity
8
0
100
AcDbSpline
62
7
6
CONTINUOUS
70
0
71
3
72
20
73
16
74
14
42
0.0000001000
43
0.0000001000
44
0.0000000001
12
-6.6502428143
22
-0.6912327740
32
0.0000000000
13
4.9251246166
23
4.5218004985
33
0.0000000000
40
0.0000000000
40
0.0000000000
40
0.0000000000
40
0.0000000000
40
0.0605784697
40
0.1180586992
40
0.1757672670
40
0.2369623545
40
0.3039483185
40
0.3777636601
40
0.4583188143
40
0.5446693091
40
0.6352741831
40
0.7282130790
40
0.8213742251
40
0.9126279961
40
1.0000000000
40
1.0000000000
40
1.0000000000
40
1.0000000000
10
-277.8537527996
20
-268.1540659816
30
0.0000000000
10
-277.9880399772
20
-268.1680239228
30
0.0000000000
10
-278.2551605428
20
-268.1627667344
30
0.0000000000
10
-278.6326264146
20
-268.0361797936
30
0.0000000000
10
-278.9518440065
20
-267.7957066480
30
0.0000000000
10
-279.1978065686
20
-267.4558332626
30
0.0000000000
10
-279.3642031963
20
-267.0333875869
30
0.0000000000
10
-279.4481702748
20
-266.5443823332
30
0.0000000000
10
-279.4484018104
20
-266.0057204026
30
0.0000000000
10
-279.3655373318
20
-265.4360381966
30
0.0000000000
10
-279.2027324495
20
-264.8553828484
30
0.0000000000
10
-278.9658777830
20
-264.2844565182
30
0.0000000000
10
-278.6634509649
20
-263.7437000986
30
0.0000000000
10
-278.3064206274
20
-263.2526492016
30
0.0000000000
10
-278.0325474744
20
-262.9617567937
30
0.0000000000
10
-277.8891081386
20
-262.8300638701
30
0.0000000000
11
-277.8537527996
21
-268.1540659816
31
0.0000000000
11
-278.2585936150
21
-268.1416262834
31
0.0000000000
11
-278.6224485094
21
-268.0178965445
31
0.0000000000
11
-278.9319046659
21
-267.7874358911
31
0.0000000000
11
-279.1755540779
21
-267.4587377270
31
0.0000000000
11
-279.3444141081
21
-267.0439168307
31
0.0000000000
11
-279.4322586850
21
-266.5582629679
31
0.0000000000
11
-279.4358479263
21
-266.0196775268
31
0.0000000000
11
-279.3550478147
21
-265.4480140634
31
0.0000000000
11
-279.1928350890
21
-264.8643453221
31
0.0000000000
11
-278.9551877629
21
-264.2901879454
31
0.0000000000
11
-278.6508649715
21
-263.7467088230
31
0.0000000000
11
-278.2910847956
21
-263.2539454452
31
0.0000000000
11
-277.8891081386
21
-262.8300638701
31
0.0000000000
0
SPLINE
5
34C
100
AcDbEntity
8
0
100
AcDbSpline
62
7
6
CONTINUOUS
70
0
71
3
72
16
73
12
74
10
42
0.0000001000
43
0.0000001000
44
0.0000000001
12
0.0000000000
22
-6.5994417060
32
0.0000000000
13
6.4649702725
23
1.3765727573
33
0.0000000000
40
0.0000000000
40
0.0000000000
40
0.0000000000
40
0.0000000000
40
0.1423751203
40
0.2745217613
40
0.3965484801
40
0.5097112710
40
0.6165414700
40
0.7206928574
40
0.8263602658
40
0.9374270193
40
1.0000000000
40
1.0000000000
40
1.0000000000
40
1.0000000000
10
-282.2024595039
20
-267.6503836731
30
0.0000000000
10
-282.2024595039
20
-267.9635824419
30
0.0000000000
10
-282.1652274570
20
-268.5685099426
30
0.0000000000
10
-281.9845640675
20
-269.4255053542
30
0.0000000000
10
-281.6838472811
20
-270.1805612594
30
0.0000000000
10
-281.2678205557
20
-270.8145605603
30
0.0000000000
10
-280.7441654917
20
-271.3091296052
30
0.0000000000
10
-280.1261285419
20
-271.6472239083
30
0.0000000000
10
-279.4333552037
20
-271.8175254458
30
0.0000000000
10
-278.8136770851
20
-271.8174678576
30
0.0000000000
10
-278.4355009511
20
-271.7568285721
30
0.0000000000
10
-278.3006567976
20
-271.7281164852
30
0.0000000000
11
-282.2024595039
21
-267.6503836731
31
0.0000000000
11
-282.1402140502
21
-268.5879159246
31
0.0000000000
11
-281.9550103789
21
-269.4401175670
31
0.0000000000
11
-281.6514088190
21
-270.1860045675
31
0.0000000000
11
-281.2368850485
21
-270.8072107126
31
0.0000000000
11
-280.7216460184
21
-271.2884398455
31
0.0000000000
11
-280.1183786235
21
-271.6178425078
31
0.0000000000
11
-279.4419373092
21
-271.7873077127
31
0.0000000000
11
-278.7089783058
21
-271.7926626644
31
0.0000000000
11
-278.3006567976
21
-271.7281164852
31
0.0000000000
0
SPLINE
5
34D
100
AcDbEntity
8
0
100
AcDbSpline
62
7
6
CONTINUOUS
70
0
71
3
72
12
73
8
74
6
42
0.0000001000
43
0.0000001000
44
0.0000000001
12
0.2743156880
22
1.4752127108
32
0.0000000000
13
0.8704151595
23
1.2219658449
33
0.0000000000
40
0.0000000000
40
0.0000000000
40
0.0000000000
40
0.0000000000
40
0.1184172553
40
0.3169538991
40
0.5300598996
40
0.7573087454
40
1.0000000000
40
1.0000000000
40
1.0000000000
40
1.0000000000
10
-276.9587741131
20
-263.4696191242
30
0.0000000000
10
-276.9479462094
20
-263.4113889108
30
0.0000000000
10
-276.9159265123
20
-263.2560946705
30
0.0000000000
10
-276.8480759346
20
-262.9996088551
30
0.0000000000
10
-276.7418879081
20
-262.6978253015
30
0.0000000000
10
-276.5979532085
20
-262.3874140066
30
0.0000000000
10
-276.4745979472
20
-262.1864552245
30
0.0000000000
10
-276.4041838981
20
-262.0876017498
30
0.0000000000
11
-276.9587741131
21
-263.4696191242
31
0.0000000000
11
-276.9228266812
21
-263.2956187279
31
0.0000000000
11
-276.8462829424
21
-263.0077623458
31
0.0000000000
11
-276.7396473589
21
-262.7063521462
31
0.0000000000
11
-276.5955186241
21
-262.3973796580
31
0.0000000000
11
-276.4041838981
21
-262.0876017498
31
0.0000000000
0
SPLINE
5
34E
100
AcDbEntity
8
0
100
AcDbSpline
62
7
6
CONTINUOUS
70
0
71
3
72
14
73
10
74
8
42
0.0000001000
43
0.0000001000
44
0.0000000001
12
2.7992191271
22
0.2292312730
32
0.0000000000
13
-0.0255094818
23
-2.8112385081
33
0.0000000000
40
0.0000000000
40
0.0000000000
40
0.0000000000
40
0.0000000000
40
0.1432974779
40
0.2798384121
40
0.4176200293
40
0.5642699140
40
0.7250265977
40
0.9021131543
40
1.0000000000
40
1.0000000000
40
1.0000000000
40
1.0000000000
10
-276.4041838981
20
-262.0876017498
30
0.0000000000
10
-276.2704768844
20
-262.0766523287
30
0.0000000000
10
-276.0045983751
20
-262.0882727021
30
0.0000000000
10
-275.6313540957
20
-262.2247413805
30
0.0000000000
10
-275.3178854278
20
-262.4741665423
30
0.0000000000
10
-275.0784536232
20
-262.8215486905
30
0.0000000000
10
-274.9188835715
20
-263.2501331151
30
0.0000000000
10
-274.8556900310
20
-263.6554295742
30
0.0000000000
10
-274.8478353013
20
-263.9131703708
30
0.0000000000
10
-274.8486676489
20
-264.0048981275
30
0.0000000000
11
-276.4041838981
21
-262.0876017498
31
0.0000000000
11
-276.0023154670
21
-262.1094846670
31
0.0000000000
11
-275.6425968106
21
-262.2423947683
31
0.0000000000
11
-275.3382919873
21
-262.4814468561
31
0.0000000000
11
-275.1006249277
21
-262.8178379112
31
0.0000000000
11
-274.9383615407
21
-263.2391720010
31
0.0000000000
11
-274.8574859989
21
-263.7299158574
31
0.0000000000
11
-274.8486676489
21
-264.0048981275
31
0.0000000000
0
SPLINE
5
34F
100
AcDbEntity
8
0
100
AcDbSpline
62
7
6
CONTINUOUS
70
0
71
3
72
25
73
21
74
19
42
0.0000001000
43
0.0000001000
44
0.0000000001
12
0.0000000000
22
15.9322687331
32
0.0000000000
13
6.7075120115
23
-14.4757503394
33
0.0000000000
40
0.0000000000
40
0.0000000000
40
0.0000000000
40
0.0000000000
40
0.0628732497
40
0.1290162133
40
0.1975890015
40
0.2676105023
40
0.3380206399
40
0.4077387550
40
0.4757210114
40
0.5410195571
40
0.6028464696
40
0.6606460291
40
0.7141785030
40
0.7636141142
40
0.8096200269
40
0.8533894306
40
0.8965308702
40
0.9407819234
40
0.9876560538
40
1.0000000000
40
1.0000000000
40
1.0000000000
40
1.0000000000
10
-282.2024595039
20
-267.6503836731
30
0.0000000000
10
-282.2024595039
20
-267.3164791697
30
0.0000000000
10
-282.1574039281
20
-266.6307960023
30
0.0000000000
10
-281.9701843470
20
-265.5963545912
30
0.0000000000
10
-281.6660131550
20
-264.5504966938
30
0.0000000000
10
-281.2522775502
20
-263.5186622794
30
0.0000000000
10
-280.7389951644
20
-262.5257222305
30
0.0000000000
10
-280.1385826936
20
-261.5957203615
30
0.0000000000
10
-279.4655264517
20
-260.7511356572
30
0.0000000000
10
-278.7359720143
20
-260.0123461383
30
0.0000000000
10
-277.9672366234
20
-259.3971472849
30
0.0000000000
10
-277.1772622681
20
-258.9204347184
30
0.0000000000
10
-276.3840856422
20
-258.5941385150
30
0.0000000000
10
-275.6055745581
20
-258.4274977087
30
0.0000000000
10
-274.8599368331
20
-258.4274284149
30
0.0000000000
10
-274.1671634949
20
-258.5977299524
30
0.0000000000
10
-273.5491265450
20
-258.9358242554
30
0.0000000000
10
-273.0254714811
20
-259.4303933003
30
0.0000000000
10
-272.7216270225
20
-259.8934336834
30
0.0000000000
10
-272.5822934989
20
-260.1759804710
30
0.0000000000
10
-272.5546944431
20
-260.2355430987
30
0.0000000000
11
-282.2024595039
21
-267.6503836731
31
0.0000000000
11
-282.1402140502
21
-266.6506059679
31
0.0000000000
11
-281.9550103789
21
-265.6132006542
31
0.0000000000
11
-281.6514088190
21
-264.5637120938
31
0.0000000000
11
-281.2368850485
21
-263.5279821781
31
0.0000000000
11
-280.7216460184
21
-262.5315140151
31
0.0000000000
11
-280.1183786235
21
-261.5988439579
31
0.0000000000
11
-279.4419373092
21
-260.7529374388
31
0.0000000000
11
-278.7089783058
21
-260.0146234837
31
0.0000000000
11
-277.9375494963
21
-259.4020818324
31
0.0000000000
11
-277.1466460184
21
-258.9303952933
31
0.0000000000
11
-276.3557425404
21
-258.6111783544
31
0.0000000000
11
-275.5843137310
21
-258.4522911963
31
0.0000000000
11
-274.8513547275
21
-258.4576461480
31
0.0000000000
11
-274.1749134133
21
-258.6271113528
31
0.0000000000
11
-273.5716460184
21
-258.9565140151
31
0.0000000000
11
-273.0564069882
21
-259.4377431480
31
0.0000000000
11
-272.6418832177
21
-260.0589492932
31
0.0000000000
11
-272.5546944431
21
-260.2355430987
31
0.0000000000
0
SPLINE
5
350
100
AcDbEntity
8
0
100
AcDbSpline
62
7
6
CONTINUOUS
70
0
71
3
72
11
73
7
74
5
42
0.0000001000
43
0.0000001000
44
0.0000000001
12
0.0000000000
22
-4.5869067018
32
0.0000000000
13
2.5320973087
23
-3.8328426899
33
0.0000000000
40
0.0000000000
40
0.0000000000
40
0.0000000000
40
0.0000000000
40
0.2753528522
40
0.5336655008
40
0.7747990716
40
1.0000000000
40
1.0000000000
40
1.0000000000
40
1.0000000000
10
-286.7632982425
20
-268.0923254113
30
0.0000000000
10
-286.7632982425
20
-268.5133313591
30
0.0000000000
10
-286.7192902873
20
-269.3302989847
30
0.0000000000
10
-286.5079708449
20
-270.4993859996
30
0.0000000000
10
-286.1561621325
20
-271.5546116937
30
0.0000000000
10
-285.8210238419
20
-272.1881317577
30
0.0000000000
10
-285.6309469537
20
-272.4758516683
30
0.0000000000
11
-286.7632982425
21
-268.0923254113
31
0.0000000000
11
-286.6908519046
21
-269.3532637923
31
0.0000000000
11
-286.4748624291
21
-270.5182669391
31
0.0000000000
11
-286.1193532913
21
-271.5656330474
31
0.0000000000
11
-285.6309469537
21
-272.4758516683
31
0.0000000000
0
SPLINE
5
351
100
AcDbEntity
8
0
100
AcDbSpline
62
7
6
CONTINUOUS
70
0
71
3
72
10
73
6
74
4
42
0.0000001000
43
0.0000001000
44
0.0000000001
12
1.2993533373
22
-1.9668347355
32
0.0000000000
13
2.1097945516
23
-1.0548445078
33
0.0000000000
40
0.0000000000
40
0.0000000000
40
0.0000000000
40
0.0000000000
40
0.4133281042
40
0.8097599555
40
1.0000000000
40
1.0000000000
40
1.0000000000
40
1.0000000000
10
-285.6309469537
20
-272.4758516683
30
0.0000000000
10
-285.4519272032
20
-272.7468343592
30
0.0000000000
10
-285.0521421605
20
-273.2460631260
30
0.0000000000
10
-284.4396584200
20
-273.7463903473
30
0.0000000000
10
-284.0382209216
20
-273.9749631599
30
0.0000000000
10
-283.9044317851
20
-274.0418543819
30
0.0000000000
11
-285.6309469537
21
-272.4758516683
31
0.0000000000
11
-285.0187415024
21
-273.2319671511
31
0.0000000000
11
-284.2941411665
21
-273.8198944950
31
0.0000000000
11
-283.9044317851
21
-274.0418543819
31
0.0000000000
0
SPLINE
5
352
100
AcDbEntity
8
0
100
AcDbSpline
62
7
6
CONTINUOUS
70
0
71
3
72
8
73
4
74
2
42
0.0000001000
43
0.0000001000
44
0.0000000001
12
0.1268081301
22
-0.0545729923
32
0.0000000000
13
0.1290501397
23
-0.0490725712
33
0.0000000000
40
0.0000000000
40
0.0000000000
40
0.0000000000
40
0.0000000000
40
1.0000000000
40
1.0000000000
40
1.0000000000
40
1.0000000000
10
-281.8439667402
20
-272.2713001366
30
0.0000000000
10
-281.8016973635
20
-272.2894911341
30
0.0000000000
10
-281.7590322806
20
-272.3067667052
30
0.0000000000
10
-281.7160155674
20
-272.3231242289
30
0.0000000000
11
-281.8439667402
21
-272.2713001366
31
0.0000000000
11
-281.7160155674
21
-272.3231242289
31
0.0000000000
0
SPLINE
5
353
100
AcDbEntity
8
0
100
AcDbSpline
62
7
6
CONTINUOUS
70
0
71
3
72
12
73
8
74
6
42
0.0000001000
43
0.0000001000
44
0.0000000001
12
3.4130153210
22
-1.2978322829
32
0.0000000000
13
3.2568476126
23
1.6386594159
33
0.0000000000
40
0.0000000000
40
0.0000000000
40
0.0000000000
40
0.0000000000
40
0.1437666728
40
0.3668492835
40
0.6042570499
40
0.8599546595
40
1.0000000000
40
1.0000000000
40
1.0000000000
40
1.0000000000
10
-281.7160155674
20
-272.3231242289
30
0.0000000000
10
-281.5524562817
20
-272.3853192386
30
0.0000000000
10
-281.1221306596
20
-272.5101556717
30
0.0000000000
10
-280.3847824909
20
-272.5718929325
30
0.0000000000
10
-279.5167600873
20
-272.4595399556
30
0.0000000000
10
-278.7816195244
20
-272.2223579154
30
0.0000000000
10
-278.3439913710
20
-272.0221895928
30
0.0000000000
10
-278.1919559267
20
-271.9456940542
30
0.0000000000
11
-281.7160155674
21
-272.3231242289
31
0.0000000000
11
-281.2125100102
21
-272.4697487545
31
0.0000000000
11
-280.4031546742
21
-272.5424337558
31
0.0000000000
11
-279.5447477117
21
-272.4375224851
31
0.0000000000
11
-278.6564645156
21
-272.1573584866
31
0.0000000000
11
-278.1919559267
21
-271.9456940542
31
0.0000000000
0
SPLINE
5
354
100
AcDbEntity
8
0
100
AcDbSpline
62
7
6
CONTINUOUS
70
0
71
3
72
9
73
5
74
3
42
0.0000001000
43
0.0000001000
44
0.0000000001
12
1.0622695674
22
0.5344732809
32
0.0000000000
13
0.9679515515
23
0.6903797686
33
0.0000000000
40
0.0000000000
40
0.0000000000
40
0.0000000000
40
0.0000000000
40
0.4159662902
40
1.0000000000
40
1.0000000000
40
1.0000000000
40
1.0000000000
10
-278.1919559267
20
-271.9456940542
30
0.0000000000
10
-278.0446664829
20
-271.8715864315
30
0.0000000000
10
-277.6969669293
20
-271.6806579178
30
0.0000000000
10
-277.3651259037
20
-271.4634526139
30
0.0000000000
10
-277.1766871252
20
-271.3290509281
30
0.0000000000
11
-278.1919559267
21
-271.9456940542
31
0.0000000000
11
-277.7581478647
21
-271.7082001611
31
0.0000000000
11
-277.1766871252
21
-271.3290509281
31
0.0000000000
0
SPLINE
5
355
100
AcDbEntity
8
0
100
AcDbSpline
62
7
6
CONTINUOUS
70
0
71
3
72
16
73
12
74
10
42
0.0000001000
43
0.0000001000
44
0.0000000001
12
6.7517219836
22
-3.3774173698
32
0.0000000000
13
4.9679540297
23
5.6656942231
33
0.0000000000
40
0.0000000000
40
0.0000000000
40
0.0000000000
40
0.0000000000
40
0.0079206565
40
0.1118480467
40
0.2197377480
40
0.3345555410
40
0.4582188720
40
0.5915651559
40
0.7344911420
40
0.8861396666
40
1.0000000000
40
1.0000000000
40
1.0000000000
40
1.0000000000
10
-281.6549085084
20
-272.3716254340
30
0.0000000000
10
-281.6370824849
20
-272.3805425549
30
0.0000000000
10
-281.3841722680
20
-272.5040777542
30
0.0000000000
10
-280.8553656458
20
-272.6796656823
30
0.0000000000
10
-280.0312291003
20
-272.7486696278
30
0.0000000000
10
-279.1632066967
20
-272.6363166509
30
0.0000000000
10
-278.2705377846
20
-272.3483104593
30
0.0000000000
10
-277.3717329094
20
-271.8928442302
30
0.0000000000
10
-276.4853808740
20
-271.2806624676
30
0.0000000000
10
-275.7151521516
20
-270.6004533185
30
0.0000000000
10
-275.2574100259
20
-270.1148720858
30
0.0000000000
10
-275.0688590585
20
-269.8998394747
30
0.0000000000
11
-281.6549085084
21
-272.3716254340
31
0.0000000000
11
-281.6011806682
21
-272.3978678390
31
0.0000000000
11
-280.8589566196
21
-272.6465254498
31
0.0000000000
11
-280.0496012837
21
-272.7192104511
31
0.0000000000
11
-279.1911943211
21
-272.6142991804
31
0.0000000000
11
-278.3029111250
21
-272.3341351819
31
0.0000000000
11
-277.4045944741
21
-271.8849768564
31
0.0000000000
11
-276.5163112780
21
-271.2768576588
31
0.0000000000
11
-275.6579043155
21
-270.5233619670
31
0.0000000000
11
-275.0688590585
21
-269.8998394747
31
0.0000000000
0
SPLINE
5
356
100
AcDbEntity
8
0
100
AcDbSpline
62
7
6
CONTINUOUS
70
0
71
3
72
9
73
5
74
3
42
0.0000001000
43
0.0000001000
44
0.0000000001
12
0.2306712199
22
1.5101023957
32
0.0000000000
13
0.0000000000
23
1.5269229258
33
0.0000000000
40
0.0000000000
40
0.0000000000
40
0.0000000000
40
0.0000000000
40
0.2581884652
40
1.0000000000
40
1.0000000000
40
1.0000000000
40
1.0000000000
10
-271.9630222852
20
-263.2853317287
30
0.0000000000
10
-271.9431700691
20
-263.1553680555
30
0.0000000000
10
-271.8751923403
20
-262.6506090002
30
0.0000000000
10
-271.8433451595
20
-262.1412827327
30
0.0000000000
10
-271.8433451595
20
-261.7637197197
30
0.0000000000
11
-271.9630222852
21
-263.2853317287
31
0.0000000000
11
-271.9104764469
21
-262.8944176677
31
0.0000000000
11
-271.8433451595
21
-261.7637197197
31
0.0000000000
0
SPLINE
5
357
100
AcDbEntity
8
0
100
AcDbSpline
62
7
6
CONTINUOUS
70
0
71
3
72
10
73
6
74
4
42
0.0000001000
43
0.0000001000
44
0.0000000001
12
0.8588211978
22
-0.4294105989
32
0.0000000000
13
0.0000000000
23
-0.9645276564
33
0.0000000000
40
0.0000000000
40
0.0000000000
40
0.0000000000
40
0.0000000000
40
0.3950875622
40
0.7212632404
40
1.0000000000
40
1.0000000000
40
1.0000000000
40
1.0000000000
10
109.2872099001
20
224.5412061820
30
0.0000000000
10
109.4003130912
20
224.4846545864
30
0.0000000000
10
109.5983657106
20
224.3616161794
30
0.0000000000
10
109.8163943383
20
224.1182007639
30
0.0000000000
10
109.8729963377
20
223.9237158386
30
0.0000000000
10
109.8729963377
20
223.8340994008
30
0.0000000000
11
109.2872099001
21
224.5412061820
31
0.0000000000
11
109.6050471453
21
224.3340994008
31
0.0000000000
11
109.8048479903
21
224.0929184459
31
0.0000000000
11
109.8729963377
21
223.8340994008
31
0.0000000000
0
SPLINE
5
358
100
AcDbEntity
8
0
100
AcDbSpline
62
7
6
CONTINUOUS
70
0
71
3
72
9
73
5
74
3
42
0.0000001000
43
0.0000001000
44
0.0000000001
12
-1.6714232180
22
0.8408005266
32
0.0000000000
13
0.0000000000
23
1.8705382765
33
0.0000000000
40
0.0000000000
40
0.0000000000
40
0.0000000000
40
0.0000000000
40
0.4420922587
40
1.0000000000
40
1.0000000000
40
1.0000000000
40
1.0000000000
10
62.3377825554
20
-339.7535832737
30
0.0000000000
10
62.0914748002
20
-339.6296794724
30
0.0000000000
10
61.6464388473
20
-339.1192938920
30
0.0000000000
10
61.5575021700
20
-338.4785679502
30
0.0000000000
10
61.5575021700
20
-338.1307053552
30
0.0000000000
11
62.3377825554
21
-339.7535832737
31
0.0000000000
11
61.7675789251
21
-339.1529299987
31
0.0000000000
11
61.5575021700
21
-338.1307053552
31
0.0000000000
0
SPLINE
5
359
100
AcDbEntity
8
0
100
AcDbSpline
62
7
6
CONTINUOUS
70
0
71
3
72
9
73
5
74
3
42
0.0000001000
43
0.0000001000
44
0.0000000001
12
-1.6714232180
22
0.8408005266
32
0.0000000000
13
0.0000000000
23
1.8705382765
33
0.0000000000
40
0.0000000000
40
0.0000000000
40
0.0000000000
40
0.0000000000
40
0.4420922587
40
1.0000000000
40
1.0000000000
40
1.0000000000
40
1.0000000000
10
62.3377825554
20
174.6655065743
30
0.0000000000
10
62.0914748002
20
174.7894103756
30
0.0000000000
10
61.6464388473
20
175.2997959560
30
0.0000000000
10
61.5575021700
20
175.9405218978
30
0.0000000000
10
61.5575021700
20
176.2883844928
30
0.0000000000
11
62.3377825554
21
174.6655065743
31
0.0000000000
11
61.7675789251
21
175.2661598492
31
0.0000000000
11
61.5575021700
21
176.2883844928
31
0.0000000000
0
SPLINE
5
35A
100
AcDbEntity
8
0
100
AcDbSpline
62
7
6
CONTINUOUS
70
0
71
3
72
9
73
5
74
3
42
0.0000001000
43
0.0000001000
44
0.0000000001
12
0.0000000000
22
-0.3100831148
32
0.0000000000
13
-0.2799904430
23
-0.1475251505
33
0.0000000000
40
0.0000000000
40
0.0000000000
40
0.0000000000
40
0.0000000000
40
0.6403297784
40
1.0000000000
40
1.0000000000
40
1.0000000000
40
1.0000000000
10
63.6788225135
20
-382.3176630526
30
0.0000000000
10
63.6788225135
20
-382.3838482033
30
0.0000000000
10
63.6628433210
20
-382.4935800658
30
0.0000000000
10
63.5812499606
20
-382.5694319490
30
0.0000000000
10
63.5476818857
20
-382.5871187502
30
0.0000000000
11
63.6788225135
21
-382.3176630526
31
0.0000000000
11
63.6314553408
21
-382.5104858172
31
0.0000000000
11
63.5476818857
21
-382.5871187502
31
0.0000000000
0
SPLINE
5
35B
100
AcDbEntity
8
0
100
AcDbSpline
62
7
6
CONTINUOUS
70
0
71
3
72
10
73
6
74
4
42
0.0000001000
43
0.0000001000
44
0.0000000001
12
0.0000000000
22
0.7323450078
32
0.0000000000
13
-0.6550292881
23
0.3275146441
33
0.0000000000
40
0.0000000000
40
0.0000000000
40
0.0000000000
40
0.0000000000
40
0.3342904765
40
0.6865843886
40
1.0000000000
40
1.0000000000
40
1.0000000000
40
1.0000000000
10
63.6788225135
20
201.3834590981
30
0.0000000000
10
63.6788225135
20
201.4650644186
30
0.0000000000
10
63.6415942512
20
201.6330345750
30
0.0000000000
10
63.5190814949
20
201.8470772990
30
0.0000000000
10
63.3937012579
20
201.9590324278
30
0.0000000000
10
63.3252691229
20
201.9932484953
30
0.0000000000
11
63.6788225135
21
201.3834590981
31
0.0000000000
11
63.6314553408
21
201.6236490354
31
0.0000000000
11
63.5020458182
21
201.8468474458
31
0.0000000000
11
63.3252691229
21
201.9932484953
31
0.0000000000
0
SPLINE
5
35C
100
AcDbEntity
8
0
100
AcDbSpline
62
7
6
CONTINUOUS
70
0
71
3
72
9
73
5
74
3
42
0.0000001000
43
0.0000001000
44
0.0000000001
12
0.8145087617
22
-0.4072543809
32
0.0000000000
13
0.8222726718
23
0.4332501435
33
0.0000000000
40
0.0000000000
40
0.0000000000
40
0.0000000000
40
0.0000000000
40
0.7878668781
40
1.0000000000
40
1.0000000000
40
1.0000000000
40
1.0000000000
10
63.3252691229
20
-383.8729371649
30
0.0000000000
10
63.5391772814
20
-383.9798912441
30
0.0000000000
10
63.8677596954
20
-384.0669429210
30
0.0000000000
10
64.1567764177
20
-383.9564514973
30
0.0000000000
10
64.2149201740
20
-383.9258159288
30
0.0000000000
11
63.3252691229
21
-383.8729371649
31
0.0000000000
11
64.0323759041
21
-383.9944397479
31
0.0000000000
11
64.2149201740
21
-383.9258159288
31
0.0000000000
0
SPLINE
5
35D
100
AcDbEntity
8
0
100
AcDbSpline
62
7
6
CONTINUOUS
70
0
71
3
72
8
73
4
74
2
42
0.0000001000
43
0.0000001000
44
0.0000000001
12
0.4261474305
22
-0.5139505213
32
0.0000000000
13
0.3050369847
23
-0.5886548192
33
0.0000000000
40
0.0000000000
40
0.0000000000
40
0.0000000000
40
0.0000000000
40
1.0000000000
40
1.0000000000
40
1.0000000000
40
1.0000000000
10
108.5801031189
20
224.9805460102
30
0.0000000000
10
108.7221522624
20
224.8092291698
30
0.0000000000
10
108.8440541778
20
224.6238738545
30
0.0000000000
10
108.9457331727
20
224.4276555815
30
0.0000000000
11
108.5801031189
21
224.9805460102
31
0.0000000000
11
108.9457331727
21
224.4276555815
31
0.0000000000
0
SPLINE
5
35E
100
AcDbEntity
8
0
100
AcDbSpline
62
7
6
CONTINUOUS
70
0
71
3
72
8
73
4
74
2
42
0.0000001000
43
0.0000001000
44
0.0000000001
12
0.0391346960
22
-0.0755214239
32
0.0000000000
13
0.0371370510
23
-0.0765741056
33
0.0000000000
40
0.0000000000
40
0.0000000000
40
0.0000000000
40
0.0000000000
40
1.0000000000
40
1.0000000000
40
1.0000000000
40
1.0000000000
10
108.9457331727
20
224.4276555815
30
0.0000000000
10
108.9587780714
20
224.4024817735
30
0.0000000000
10
108.9714901091
20
224.3771291658
30
0.0000000000
10
108.9838691261
20
224.3516044639
30
0.0000000000
11
108.9457331727
21
224.4276555815
31
0.0000000000
11
108.9838691261
21
224.3516044639
31
0.0000000000
0
SPLINE
5
35F
100
AcDbEntity
8
0
100
AcDbSpline
62
7
6
CONTINUOUS
70
0
71
3
72
8
73
4
74
2
42
0.0000001000
43
0.0000001000
44
0.0000000001
12
0.1252405504
22
-0.2582376057
32
0.0000000000
13
0.1024974850
23
-0.2692093935
33
0.0000000000
40
0.0000000000
40
0.0000000000
40
0.0000000000
40
0.0000000000
40
1.0000000000
40
1.0000000000
40
1.0000000000
40
1.0000000000
10
108.9838691261
20
224.3516044639
30
0.0000000000
10
109.0256159763
20
224.2655252620
30
0.0000000000
10
109.0635753807
20
224.1774888334
30
0.0000000000
10
109.0977412091
20
224.0877523689
30
0.0000000000
11
108.9838691261
21
224.3516044639
31
0.0000000000
11
109.0977412091
21
224.0877523689
31
0.0000000000
0
SPLINE
5
360
100
AcDbEntity
8
0
100
AcDbSpline
62
7
6
CONTINUOUS
70
0
71
3
72
8
73
4
74
2
42
0.0000001000
43
0.0000001000
44
0.0000000001
12
0.2330769458
22
-0.6121760274
32
0.0000000000
13
0.0907217345
23
-0.6467791075
33
0.0000000000
40
0.0000000000
40
0.0000000000
40
0.0000000000
40
0.0000000000
40
1.0000000000
40
1.0000000000
40
1.0000000000
40
1.0000000000
10
109.0977412091
20
224.0877523689
30
0.0000000000
10
109.1754335244
20
223.8836936931
30
0.0000000000
10
109.2335093622
20
223.6708441786
30
0.0000000000
10
109.2637499404
20
223.4552511428
30
0.0000000000
11
109.0977412091
21
224.0877523689
31
0.0000000000
11
109.2637499404
21
223.4552511428
31
0.0000000000
0
SPLINE
5
361
100
AcDbEntity
8
0
100
AcDbSpline
62
7
6
CONTINUOUS
70
0
71
3
72
8
73
4
74
2
42
0.0000001000
43
0.0000001000
44
0.0000000001
12
0.0458583949
22
-0.3269365589
32
0.0000000000
13
0.0000000000
23
-0.3287994259
33
0.0000000000
40
0.0000000000
40
0.0000000000
40
0.0000000000
40
0.0000000000
40
1.0000000000
40
1.0000000000
40
1.0000000000
40
1.0000000000
10
109.2637499404
20
223.4552511428
30
0.0000000000
10
109.2790360720
20
223.3462722898
30
0.0000000000
10
109.2872099001
20
223.2365924282
30
0.0000000000
10
109.2872099001
20
223.1269926196
30
0.0000000000
11
109.2637499404
21
223.4552511428
31
0.0000000000
11
109.2872099001
21
223.1269926196
31
0.0000000000
0
SPLINE
5
362
100
AcDbEntity
8
0
100
AcDbSpline
62
7
6
CONTINUOUS
70
0
71
3
72
9
73
5
74
3
42
0.0000001000
43
0.0000001000
44
0.0000000001
12
-0.8526058095
22
-0.4263029047
32
0.0000000000
13
-0.0008235719
23
-0.9465569463
33
0.0000000000
40
0.0000000000
40
0.0000000000
40
0.0000000000
40
0.0000000000
40
0.5674777269
40
1.0000000000
40
1.0000000000
40
1.0000000000
40
1.0000000000
10
53.4257741863
20
209.6562476317
30
0.0000000000
10
53.2644959174
20
209.5756084972
30
0.0000000000
10
52.9889941600
20
209.4013531003
30
0.0000000000
10
52.8401077067
20
209.0855617400
30
0.0000000000
10
52.8399889690
20
208.9490927527
30
0.0000000000
11
53.4257741863
21
209.6562476317
31
0.0000000000
11
52.9925877446
21
209.3322574205
31
0.0000000000
11
52.8399889690
21
208.9490927527
31
0.0000000000
0
SPLINE
5
363
100
AcDbEntity
8
0
100
AcDbSpline
62
7
6
CONTINUOUS
70
0
71
3
72
10
73
6
74
4
42
0.0000001000
43
0.0000001000
44
0.0000000001
12
-1.5300412434
22
0.0284044483
32
0.0000000000
13
-1.3673629862
23
-0.6836814931
33
0.0000000000
40
0.0000000000
40
0.0000000000
40
0.0000000000
40
0.0000000000
40
0.0470819375
40
0.5530874734
40
1.0000000000
40
1.0000000000
40
1.0000000000
40
1.0000000000
10
96.6348881877
20
230.8080902233
30
0.0000000000
10
96.6108757523
20
230.8085360021
30
0.0000000000
10
96.3287476264
20
230.8112605574
30
0.0000000000
10
95.8186091969
20
230.7636537490
30
0.0000000000
10
95.3487714920
20
230.6177462845
30
0.0000000000
10
95.1450742763
20
230.5158976767
30
0.0000000000
11
96.6348881877
21
230.8080902233
31
0.0000000000
11
96.5628428981
21
230.8087893157
31
0.0000000000
11
95.7930546987
21
230.7324908975
31
0.0000000000
11
95.1450742763
21
230.5158976767
31
0.0000000000
0
SPLINE
5
364
100
AcDbEntity
8
0
100
AcDbSpline
62
7
6
CONTINUOUS
70
0
71
3
72
9
73
5
74
3
42
0.0000001000
43
0.0000001000
44
0.0000000001
12
-0.8527188799
22
0.4263594399
32
0.0000000000
13
0.0008236811
23
0.9466824762
33
0.0000000000
40
0.0000000000
40
0.0000000000
40
0.0000000000
40
0.0000000000
40
0.5647532595
40
1.0000000000
40
1.0000000000
40
1.0000000000
40
1.0000000000
10
53.4257741863
20
206.9429959636
30
0.0000000000
10
53.2652489307
20
207.0232585914
30
0.0000000000
10
52.9899784650
20
207.1974259641
30
0.0000000000
10
52.8398694675
20
207.5127078263
30
0.0000000000
10
52.8399889690
20
207.6500546470
30
0.0000000000
11
53.4257741863
21
206.9429959636
31
0.0000000000
11
52.9942489254
21
207.2649897107
31
0.0000000000
11
52.8399889690
21
207.6500546470
31
0.0000000000
0
SPLINE
5
365
100
AcDbEntity
8
0
100
AcDbSpline
62
7
6
CONTINUOUS
70
0
71
3
72
9
73
5
74
3
42
0.0000001000
43
0.0000001000
44
0.0000000001
12
1.1199617721
22
0.5901006018
32
0.0000000000
13
0.0000000000
23
1.2403324592
33
0.0000000000
40
0.0000000000
40
0.0000000000
40
0.0000000000
40
0.0000000000
40
0.3596702216
40
1.0000000000
40
1.0000000000
40
1.0000000000
40
1.0000000000
10
108.7626473888
20
-361.6519523214
30
0.0000000000
10
108.8969196884
20
-361.5812051166
30
0.0000000000
10
109.2232931298
20
-361.2777975837
30
0.0000000000
10
109.2872099001
20
-360.8388701340
30
0.0000000000
10
109.2872099001
20
-360.5741295311
30
0.0000000000
11
108.7626473888
21
-361.6519523214
31
0.0000000000
11
109.0977412091
21
-361.3454205894
31
0.0000000000
11
109.2872099001
21
-360.5741295311
31
0.0000000000
0
SPLINE
5
366
100
AcDbEntity
8
0
100
AcDbSpline
62
7
6
CONTINUOUS
70
0
71
3
72
9
73
5
74
3
42
0.0000001000
43
0.0000001000
44
0.0000000001
12
-0.8527187660
22
0.4263593830
32
0.0000000000
13
0.0008268632
23
0.9466806995
33
0.0000000000
40
0.0000000000
40
0.0000000000
40
0.0000000000
40
0.0000000000
40
0.5647322514
40
1.0000000000
40
1.0000000000
40
1.0000000000
40
1.0000000000
10
53.4257741863
20
-378.9231896966
30
0.0000000000
10
53.2652549235
20
-378.8429300651
30
0.0000000000
10
52.9899859017
20
-378.6687648456
30
0.0000000000
10
52.8398690095
20
-378.3534844169
30
0.0000000000
10
52.8399889785
20
-378.2161312247
30
0.0000000000
11
53.4257741863
21
-378.9231896966
31
0.0000000000
11
52.9942621666
21
-378.6012118145
31
0.0000000000
11
52.8399889785
21
-378.2161312247
31
0.0000000000
0
SPLINE
5
367
100
AcDbEntity
8
0
100
AcDbSpline
62
7
6
CONTINUOUS
70
0
71
3
72
10
73
6
74
4
42
0.0000001000
43
0.0000001000
44
0.0000000001
12
0.0000000000
22
-0.9645276564
32
0.0000000000
13
-0.8588211978
23
-0.4294105989
33
0.0000000000
40
0.0000000000
40
0.0000000000
40
0.0000000000
40
0.0000000000
40
0.2787367596
40
0.6049124378
40
1.0000000000
40
1.0000000000
40
1.0000000000
40
1.0000000000
10
109.8729963377
20
-359.8670227499
30
0.0000000000
10
109.8729963377
20
-359.9566391878
30
0.0000000000
10
109.8163943383
20
-360.1511241131
30
0.0000000000
10
109.5983657106
20
-360.3945395286
30
0.0000000000
10
109.4003130912
20
-360.5175779355
30
0.0000000000
10
109.2872099001
20
-360.5741295311
30
0.0000000000
11
109.8729963377
21
-359.8670227499
31
0.0000000000
11
109.8048479903
21
-360.1258417950
31
0.0000000000
11
109.6050471453
21
-360.3670227499
31
0.0000000000
11
109.2872099001
21
-360.5741295311
31
0.0000000000
0
SPLINE
5
368
100
AcDbEntity
8
0
100
AcDbSpline
62
7
6
CONTINUOUS
70
0
71
3
72
9
73
5
74
3
42
0.0000001000
43
0.0000001000
44
0.0000000001
12
-0.8526051250
22
-0.4263025625
32
0.0000000000
13
-0.0008267530
23
-0.9465545362
33
0.0000000000
40
0.0000000000
40
0.0000000000
40
0.0000000000
40
0.0000000000
40
0.5674568652
40
1.0000000000
40
1.0000000000
40
1.0000000000
40
1.0000000000
10
53.4257741863
20
-376.2099380285
30
0.0000000000
10
53.2645019758
20
-376.2905741338
30
0.0000000000
10
52.9890014143
20
-376.4648265337
30
0.0000000000
10
52.8401081806
20
-376.7806178969
30
0.0000000000
10
52.8399889785
20
-376.9170931190
30
0.0000000000
11
53.4257741863
21
-376.2099380285
31
0.0000000000
11
52.9926010888
21
-376.5339121535
31
0.0000000000
11
52.8399889785
21
-376.9170931190
31
0.0000000000
0
SPLINE
5
369
100
AcDbEntity
8
0
100
AcDbSpline
62
7
6
CONTINUOUS
70
0
71
3
72
11
73
7
74
5
42
0.0000001000
43
0.0000001000
44
0.0000000001
12
0.0000000000
22
4.3954668886
32
0.0000000000
13
3.9497413483
23
1.9941227511
33
0.0000000000
40
0.0000000000
40
0.0000000000
40
0.0000000000
40
0.0000000000
40
0.2844020035
40
0.5881399820
40
0.8743623169
40
1.0000000000
40
1.0000000000
40
1.0000000000
40
1.0000000000
10
61.5575021700
20
176.2883844928
30
0.0000000000
10
61.5575021700
20
176.7050776893
30
0.0000000000
10
61.7214682158
20
177.5680779751
30
0.0000000000
10
62.2926646317
20
178.7301399992
30
0.0000000000
10
62.9985302269
20
179.5236556713
30
0.0000000000
10
63.5080144268
20
179.8648992471
30
0.0000000000
10
63.6734265441
20
179.9484115679
30
0.0000000000
11
61.5575021700
21
176.2883844928
31
0.0000000000
11
61.7675789251
21
177.5206858914
31
0.0000000000
11
62.3562009129
21
178.7189916401
31
0.0000000000
11
63.2067843295
21
179.6459625889
31
0.0000000000
11
63.6734265441
21
179.9484115679
31
0.0000000000
0
SPLINE
5
36A
100
AcDbEntity
8
0
100
AcDbSpline
62
7
6
CONTINUOUS
70
0
71
3
72
11
73
7
74
5
42
0.0000001000
43
0.0000001000
44
0.0000000001
12
0.0000000000
22
4.3954668886
32
0.0000000000
13
3.9497413483
23
1.9941227511
33
0.0000000000
40
0.0000000000
40
0.0000000000
40
0.0000000000
40
0.0000000000
40
0.2844020035
40
0.5881399820
40
0.8743623169
40
1.0000000000
40
1.0000000000
40
1.0000000000
40
1.0000000000
10
61.5575021700
20
-338.1307053552
30
0.0000000000
10
61.5575021700
20
-337.7140121587
30
0.0000000000
10
61.7214682158
20
-336.8510118728
30
0.0000000000
10
62.2926646317
20
-335.6889498487
30
0.0000000000
10
62.9985302269
20
-334.8954341767
30
0.0000000000
10
63.5080144268
20
-334.5541906008
30
0.0000000000
10
63.6734265441
20
-334.4706782800
30
0.0000000000
11
61.5575021700
21
-338.1307053552
31
0.0000000000
11
61.7675789251
21
-336.8984039565
31
0.0000000000
11
62.3562009129
21
-335.7000982079
31
0.0000000000
11
63.2067843295
21
-334.7731272590
31
0.0000000000
11
63.6734265441
21
-334.4706782800
31
0.0000000000
0
SPLINE
5
36B
100
AcDbEntity
8
0
100
AcDbSpline
62
7
6
CONTINUOUS
70
0
71
3
72
10
73
6
74
4
42
0.0000001000
43
0.0000001000
44
0.0000000001
12
2.6201171525
22
-1.3100585763
32
0.0000000000
13
-0.0000000000
23
-2.9293800310
33
0.0000000000
40
0.0000000000
40
0.0000000000
40
0.0000000000
40
0.0000000000
40
0.3134156114
40
0.6657095235
40
1.0000000000
40
1.0000000000
40
1.0000000000
40
1.0000000000
10
63.3252691229
20
203.2922866010
30
0.0000000000
10
63.5989976627
20
203.1554223311
30
0.0000000000
10
64.1005186106
20
202.7076018158
30
0.0000000000
10
64.5905696360
20
201.8514309199
30
0.0000000000
10
64.7394826853
20
201.1795502943
30
0.0000000000
10
64.7394826853
20
200.8531290122
30
0.0000000000
11
63.3252691229
21
203.2922866010
31
0.0000000000
11
64.0323759041
21
202.7066824028
31
0.0000000000
11
64.5500139943
21
201.8138887615
31
0.0000000000
11
64.7394826853
21
200.8531290122
31
0.0000000000
0
SPLINE
5
36C
100
AcDbEntity
8
0
100
AcDbSpline
62
7
6
CONTINUOUS
70
0
71
3
72
9
73
5
74
3
42
0.0000001000
43
0.0000001000
44
0.0000000001
12
-0.0006526410
22
-0.7472126625
32
0.0000000000
13
0.6368576978
23
-0.4088518437
33
0.0000000000
40
0.0000000000
40
0.0000000000
40
0.0000000000
40
0.0000000000
40
0.5514622508
40
1.0000000000
40
1.0000000000
40
1.0000000000
40
1.0000000000
10
52.8399889785
20
-376.9170931190
30
0.0000000000
10
52.8398690095
20
-377.0544463112
30
0.0000000000
10
52.9583557350
20
-377.3032963507
30
0.0000000000
10
53.1548116053
20
-377.4642329570
30
0.0000000000
10
53.2500298447
20
-377.5253614522
30
0.0000000000
11
52.8399889785
21
-376.9170931190
31
0.0000000000
11
52.9942621666
21
-377.3021737088
31
0.0000000000
11
53.2500298447
21
-377.5253614522
31
0.0000000000
0
SPLINE
5
36D
100
AcDbEntity
8
0
100
AcDbSpline
62
7
6
CONTINUOUS
70
0
71
3
72
8
73
4
74
2
42
0.0000001000
43
0.0000001000
44
0.0000000001
12
0.1700088358
22
-0.1091427900
32
0.0000000000
13
0.1796700180
23
-0.0898350090
33
0.0000000000
40
0.0000000000
40
0.0000000000
40
0.0000000000
40
0.0000000000
40
1.0000000000
40
1.0000000000
40
1.0000000000
40
1.0000000000
10
53.2500298447
20
-377.5253614522
30
0.0000000000
10
53.3066994567
20
-377.5617423822
30
0.0000000000
10
53.3658841803
20
-377.5942065879
30
0.0000000000
10
53.4257741863
20
-377.6241515909
30
0.0000000000
11
53.2500298447
21
-377.5253614522
31
0.0000000000
11
53.4257741863
21
-377.6241515909
31
0.0000000000
0
SPLINE
5
36E
100
AcDbEntity
8
0
100
AcDbSpline
62
7
6
CONTINUOUS
70
0
71
3
72
9
73
5
74
3
42
0.0000001000
43
0.0000001000
44
0.0000000001
12
-0.2055681679
22
-0.1083125359
32
0.0000000000
13
-0.2036271904
23
0.1018135952
33
0.0000000000
40
0.0000000000
40
0.0000000000
40
0.0000000000
40
0.0000000000
40
0.2121331219
40
1.0000000000
40
1.0000000000
40
1.0000000000
40
1.0000000000
10
63.5476818857
20
-382.5871187502
30
0.0000000000
10
63.5331459466
20
-382.5947776423
30
0.0000000000
10
63.4608917660
20
-382.6224004982
30
0.0000000000
10
63.3787461625
20
-382.6006375790
30
0.0000000000
10
63.3252691229
20
-382.5738990592
30
0.0000000000
11
63.5476818857
21
-382.5871187502
31
0.0000000000
11
63.5020458182
21
-382.6042747050
31
0.0000000000
11
63.3252691229
21
-382.5738990592
31
0.0000000000
0
SPLINE
5
36F
100
AcDbEntity
8
0
100
AcDbSpline
62
7
6
CONTINUOUS
70
0
71
3
72
9
73
5
74
3
42
0.0000001000
43
0.0000001000
44
0.0000000001
12
1.1199617721
22
0.5901006018
32
0.0000000000
13
0.0000000000
23
1.2403324592
33
0.0000000000
40
0.0000000000
40
0.0000000000
40
0.0000000000
40
0.0000000000
40
0.3596702216
40
1.0000000000
40
1.0000000000
40
1.0000000000
40
1.0000000000
10
64.2149201740
20
-383.9258159288
30
0.0000000000
10
64.3491924736
20
-383.8550687240
30
0.0000000000
10
64.6755659151
20
-383.5516611911
30
0.0000000000
10
64.7394826853
20
-383.1127337414
30
0.0000000000
10
64.7394826853
20
-382.8479931385
30
0.0000000000
11
64.2149201740
21
-383.9258159288
31
0.0000000000
11
64.5500139943
21
-383.6192841968
31
0.0000000000
11
64.7394826853
21
-382.8479931385
31
0.0000000000
0
SPLINE
5
370
100
AcDbEntity
8
0
100
AcDbSpline
62
7
6
CONTINUOUS
70
0
71
3
72
9
73
5
74
3
42
0.0000001000
43
0.0000001000
44
0.0000000001
12
-0.0006501206
22
-0.7472039595
32
0.0000000000
13
0.6368478350
23
-0.4088514549
33
0.0000000000
40
0.0000000000
40
0.0000000000
40
0.0000000000
40
0.0000000000
40
0.5514430924
40
1.0000000000
40
1.0000000000
40
1.0000000000
40
1.0000000000
10
52.8399889690
20
208.9490927527
30
0.0000000000
10
52.8398694675
20
208.8117459320
30
0.0000000000
10
52.9583483605
20
208.5628981266
30
0.0000000000
10
53.1548001030
20
208.4019609281
30
0.0000000000
10
53.2500209349
20
208.3408298800
30
0.0000000000
11
52.8399889690
21
208.9490927527
31
0.0000000000
11
52.9942489254
21
208.5640278164
31
0.0000000000
11
53.2500209349
21
208.3408298800
31
0.0000000000
0
SPLINE
5
371
100
AcDbEntity
8
0
100
AcDbSpline
62
7
6
CONTINUOUS
70
0
71
3
72
8
73
4
74
2
42
0.0000001000
43
0.0000001000
44
0.0000000001
12
0.1700171150
22
-0.1091496917
32
0.0000000000
13
0.1796791444
23
-0.0898395722
33
0.0000000000
40
0.0000000000
40
0.0000000000
40
0.0000000000
40
0.0000000000
40
1.0000000000
40
1.0000000000
40
1.0000000000
40
1.0000000000
10
53.2500209349
20
208.3408298800
30
0.0000000000
10
53.3066933065
20
208.3044466494
30
0.0000000000
10
53.3658811382
20
208.2719805934
30
0.0000000000
10
53.4257741863
20
208.2420340693
30
0.0000000000
11
53.2500209349
21
208.3408298800
31
0.0000000000
11
53.4257741863
21
208.2420340693
31
0.0000000000
0
SPLINE
5
372
100
AcDbEntity
8
0
100
AcDbSpline
62
7
6
CONTINUOUS
70
0
71
3
72
10
73
6
74
4
42
0.0000001000
43
0.0000001000
44
0.0000000001
12
0.0000000000
22
-0.9645276564
32
0.0000000000
13
-0.8588211978
23
-0.4294105989
33
0.0000000000
40
0.0000000000
40
0.0000000000
40
0.0000000000
40
0.0000000000
40
0.2787367596
40
0.6049124378
40
1.0000000000
40
1.0000000000
40
1.0000000000
40
1.0000000000
10
109.8729963377
20
223.8340994008
30
0.0000000000
10
109.8729963377
20
223.7444829630
30
0.0000000000
10
109.8163943383
20
223.5499980376
30
0.0000000000
10
109.5983657106
20
223.3065826221
30
0.0000000000
10
109.4003130912
20
223.1835442152
30
0.0000000000
10
109.2872099001
20
223.1269926196
30
0.0000000000
11
109.8729963377
21
223.8340994008
31
0.0000000000
11
109.8048479903
21
223.5752803557
31
0.0000000000
11
109.6050471453
21
223.3340994008
31
0.0000000000
11
109.2872099001
21
223.1269926196
31
0.0000000000
0
SPLINE
5
373
100
AcDbEntity
8
0
100
AcDbSpline
62
7
6
CONTINUOUS
70
0
71
3
72
8
73
4
74
2
42
0.0000001000
43
0.0000001000
44
0.0000000001
12
-0.1026186647
22
0.0576903742
32
0.0000000000
13
-0.1038686511
23
0.0519343256
33
0.0000000000
40
0.0000000000
40
0.0000000000
40
0.0000000000
40
0.0000000000
40
1.0000000000
40
1.0000000000
40
1.0000000000
40
1.0000000000
10
-272.4469564352
20
37.5362485059
30
0.0000000000
10
-272.4811626568
20
37.5554786306
30
0.0000000000
10
-272.5158290570
20
37.5736104276
30
0.0000000000
10
-272.5504519407
20
37.5909218694
30
0.0000000000
11
-272.4469564352
21
37.5362485059
31
0.0000000000
11
-272.5504519407
21
37.5909218694
31
0.0000000000
0
SPLINE
5
374
100
AcDbEntity
8
0
100
AcDbSpline
62
7
6
CONTINUOUS
70
0
71
3
72
12
73
8
74
6
42
0.0000001000
43
0.0000001000
44
0.0000000001
12
2.0634393451
22
-1.0317196726
32
0.0000000000
13
2.2486039804
23
0.5250938537
33
0.0000000000
40
0.0000000000
40
0.0000000000
40
0.0000000000
40
0.0000000000
40
0.1923077250
40
0.4058314877
40
0.6306946942
40
0.8555579008
40
1.0000000000
40
1.0000000000
40
1.0000000000
40
1.0000000000
10
-311.4413249059
20
-569.5241833717
30
0.0000000000
10
-311.3090531305
20
-569.5903192594
30
0.0000000000
10
-311.0144670676
20
-569.6994434824
30
0.0000000000
10
-310.5375817514
20
-569.7954142548
30
0.0000000000
10
-310.0271113436
20
-569.8281879206
30
0.0000000000
10
-309.5698096286
20
-569.7988278375
30
0.0000000000
10
-309.2897809292
20
-569.7486116253
30
0.0000000000
10
-309.1815165694
20
-569.7233297392
30
0.0000000000
11
-311.4413249059
21
-569.5241833717
31
0.0000000000
11
-311.0271113436
21
-569.6831019943
31
0.0000000000
11
-310.5447494338
21
-569.7830024168
31
0.0000000000
11
-310.0271113436
21
-569.8170765906
31
0.0000000000
11
-309.5094732533
21
-569.7830024168
31
0.0000000000
11
-309.1815165694
21
-569.7233297392
31
0.0000000000
0
SPLINE
5
375
100
AcDbEntity
8
0
100
AcDbSpline
62
7
6
CONTINUOUS
70
0
71
3
72
8
73
4
74
2
42
0.0000001000
43
0.0000001000
44
0.0000000001
12
0.1553373035
22
0.0362743569
32
0.0000000000
13
0.1534057109
23
0.0442633148
33
0.0000000000
40
0.0000000000
40
0.0000000000
40
0.0000000000
40
0.0000000000
40
1.0000000000
40
1.0000000000
40
1.0000000000
40
1.0000000000
10
-309.1815165694
20
-569.7233297392
30
0.0000000000
10
-309.1297374683
20
-569.7112382869
30
0.0000000000
10
-309.0782465805
20
-569.6978564326
30
0.0000000000
10
-309.0271113436
20
-569.6831019943
30
0.0000000000
11
-309.1815165694
21
-569.7233297392
31
0.0000000000
11
-309.0271113436
21
-569.6831019943
31
0.0000000000
0
SPLINE
5
376
100
AcDbEntity
8
0
100
AcDbSpline
62
7
6
CONTINUOUS
70
0
71
3
72
8
73
4
74
2
42
0.0000001000
43
0.0000001000
44
0.0000000001
12
0.4270467991
22
0.1232190560
32
0.0000000000
13
0.3968153262
23
0.1984076631
33
0.0000000000
40
0.0000000000
40
0.0000000000
40
0.0000000000
40
0.0000000000
40
1.0000000000
40
1.0000000000
40
1.0000000000
40
1.0000000000
10
-309.0271113436
20
-569.6831019943
30
0.0000000000
10
-308.8847624105
20
-569.6420289757
30
0.0000000000
10
-308.7451695566
20
-569.5903192594
30
0.0000000000
10
-308.6128977812
20
-569.5241833717
30
0.0000000000
11
-309.0271113436
21
-569.6831019943
31
0.0000000000
11
-308.6128977812
21
-569.5241833717
31
0.0000000000
0
SPLINE
5
377
100
AcDbEntity
8
0
100
AcDbSpline
62
7
6
CONTINUOUS
70
0
71
3
72
10
73
6
74
4
42
0.0000001000
43
0.0000001000
44
0.0000000001
12
-0.8588211978
22
-0.4294105989
32
0.0000000000
13
0.0000000000
23
-0.9645276564
33
0.0000000000
40
0.0000000000
40
0.0000000000
40
0.0000000000
40
0.0000000000
40
0.3950875622
40
0.7212632404
40
1.0000000000
40
1.0000000000
40
1.0000000000
40
1.0000000000
10
-321.3408198425
20
20.5408998097
30
0.0000000000
10
-321.4539230337
20
20.4843482141
30
0.0000000000
10
-321.6519756531
20
20.3613098071
30
0.0000000000
10
-321.8700042807
20
20.1178943916
30
0.0000000000
10
-321.9266062802
20
19.9234094663
30
0.0000000000
10
-321.9266062802
20
19.8337930285
30
0.0000000000
11
-321.3408198425
21
20.5408998097
31
0.0000000000
11
-321.6586570877
21
20.3337930285
31
0.0000000000
11
-321.8584579327
21
20.0926120736
31
0.0000000000
11
-321.9266062802
21
19.8337930285
31
0.0000000000
0
SPLINE
5
378
100
AcDbEntity
8
0
100
AcDbSpline
62
7
6
CONTINUOUS
70
0
71
3
72
9
73
5
74
3
42
0.0000001000
43
0.0000001000
44
0.0000000001
12
-0.2131744153
22
0.1065872076
32
0.0000000000
13
0.0000000000
23
0.2367008792
33
0.0000000000
40
0.0000000000
40
0.0000000000
40
0.0000000000
40
0.0000000000
40
0.5679903392
40
1.0000000000
40
1.0000000000
40
1.0000000000
40
1.0000000000
10
-320.2801596708
20
19.6570163332
30
0.0000000000
10
-320.3205200069
20
19.6771965012
30
0.0000000000
10
-320.3893960277
20
19.7208070465
30
0.0000000000
10
-320.4266062802
20
19.7997073396
30
0.0000000000
10
-320.4266062802
20
19.8337930285
30
0.0000000000
11
-320.2801596708
21
19.6570163332
31
0.0000000000
11
-320.3885460464
21
19.7381221704
31
0.0000000000
11
-320.4266062802
21
19.8337930285
31
0.0000000000
0
SPLINE
5
379
100
AcDbEntity
8
0
100
AcDbSpline
62
7
6
CONTINUOUS
70
0
71
3
72
11
73
7
74
5
42
0.0000001000
43
0.0000001000
44
0.0000000001
12
-0.6499098581
22
-0.3249549290
32
0.0000000000
13
-0.6499098581
23
0.3249549290
33
0.0000000000
40
0.0000000000
40
0.0000000000
40
0.0000000000
40
0.0000000000
40
0.2353701082
40
0.5000000000
40
0.7646298918
40
1.0000000000
40
1.0000000000
40
1.0000000000
40
1.0000000000
10
-309.6735579530
20
14.7072688649
30
0.0000000000
10
-309.7245477375
20
14.6817739726
30
0.0000000000
10
-309.8417329335
20
14.6454057210
30
0.0000000000
10
-310.0271113436
20
14.6280330839
30
0.0000000000
10
-310.2124897536
20
14.6454057210
30
0.0000000000
10
-310.3296749496
20
14.6817739726
30
0.0000000000
10
-310.3806647341
20
14.7072688649
30
0.0000000000
11
-309.6735579530
21
14.7072688649
31
0.0000000000
11
-309.8357696274
21
14.6530756770
31
0.0000000000
11
-310.0271113436
21
14.6340455602
31
0.0000000000
11
-310.2184530597
21
14.6530756770
31
0.0000000000
11
-310.3806647341
21
14.7072688649
31
0.0000000000
0
SPLINE
5
37A
100
AcDbEntity
8
0
100
AcDbSpline
62
7
6
CONTINUOUS
70
0
71
3
72
9
73
5
74
3
42
0.0000001000
43
0.0000001000
44
0.0000000001
12
0.0265720122
22
-0.7550442721
32
0.0000000000
13
0.6430714109
23
-0.4047968968
33
0.0000000000
40
0.0000000000
40
0.0000000000
40
0.0000000000
40
0.0000000000
40
0.4576413841
40
1.0000000000
40
1.0000000000
40
1.0000000000
40
1.0000000000
10
-275.9601872344
20
38.1844035163
30
0.0000000000
10
-275.9561337502
20
38.0692236811
30
0.0000000000
10
-275.8673319444
20
37.8109883198
30
0.0000000000
10
-275.6714670605
20
37.6468574172
30
0.0000000000
10
-275.5552086204
20
37.5736757223
30
0.0000000000
11
-275.9601872344
21
38.1844035163
31
0.0000000000
11
-275.8524321637
21
37.8525741320
31
0.0000000000
11
-275.5552086204
21
37.5736757223
31
0.0000000000
0
SPLINE
5
37B
100
AcDbEntity
8
0
100
AcDbSpline
62
7
6
CONTINUOUS
70
0
71
3
72
8
73
4
74
2
42
0.0000001000
43
0.0000001000
44
0.0000000001
12
0.1716022711
22
-0.1080192116
32
0.0000000000
13
0.1785004203
23
-0.0892502101
33
0.0000000000
40
0.0000000000
40
0.0000000000
40
0.0000000000
40
0.0000000000
40
1.0000000000
40
1.0000000000
40
1.0000000000
40
1.0000000000
10
-275.5552086204
20
37.5736757223
30
0.0000000000
10
-275.4980078634
20
37.5376693184
30
0.0000000000
10
-275.4383792055
20
37.5054964828
30
0.0000000000
10
-275.3788790654
20
37.4757464127
30
0.0000000000
11
-275.5552086204
21
37.5736757223
31
0.0000000000
11
-275.3788790654
21
37.4757464127
31
0.0000000000
0
SPLINE
5
37C
100
AcDbEntity
8
0
100
AcDbSpline
62
7
6
CONTINUOUS
70
0
71
3
72
9
73
5
74
3
42
0.0000001000
43
0.0000001000
44
0.0000000001
12
1.1199617721
22
0.5901006018
32
0.0000000000
13
-0.0000000000
23
1.2403324592
33
0.0000000000
40
0.0000000000
40
0.0000000000
40
0.0000000000
40
0.0000000000
40
0.3596702216
40
1.0000000000
40
1.0000000000
40
1.0000000000
40
1.0000000000
10
-264.5897330777
20
-548.3281425546
30
0.0000000000
10
-264.4554607781
20
-548.2573953499
30
0.0000000000
10
-264.1290873367
20
-547.9539878170
30
0.0000000000
10
-264.0651705664
20
-547.5150603673
30
0.0000000000
10
-264.0651705664
20
-547.2503197644
30
0.0000000000
11
-264.5897330777
21
-548.3281425546
31
0.0000000000
11
-264.2546392574
21
-548.0216108227
31
0.0000000000
11
-264.0651705664
21
-547.2503197644
31
0.0000000000
0
SPLINE
5
37D
100
AcDbEntity
8
0
100
AcDbSpline
62
7
6
CONTINUOUS
70
0
71
3
72
10
73
6
74
4
42
0.0000001000
43
0.0000001000
44
0.0000000001
12
2.6201171525
22
-1.3100585763
32
0.0000000000
13
0.0000000000
23
-2.9293800310
33
0.0000000000
40
0.0000000000
40
0.0000000000
40
0.0000000000
40
0.0000000000
40
0.3134156114
40
0.6657095235
40
1.0000000000
40
1.0000000000
40
1.0000000000
40
1.0000000000
10
-265.4793841288
20
38.8899599751
30
0.0000000000
10
-265.2056555890
20
38.7530957052
30
0.0000000000
10
-264.7041346411
20
38.3052751900
30
0.0000000000
10
-264.2140836157
20
37.4491042940
30
0.0000000000
10
-264.0651705664
20
36.7772236685
30
0.0000000000
10
-264.0651705664
20
36.4508023863
30
0.0000000000
11
-265.4793841288
21
38.8899599751
31
0.0000000000
11
-264.7722773476
21
38.3043557769
31
0.0000000000
11
-264.2546392574
21
37.4115621356
31
0.0000000000
11
-264.0651705664
21
36.4508023863
31
0.0000000000
0
SPLINE
5
37E
100
AcDbEntity
8
0
100
AcDbSpline
62
7
6
CONTINUOUS
70
0
71
3
72
10
73
6
74
4
42
0.0000001000
43
0.0000001000
44
0.0000000001
12
0.0000000000
22
-0.9645276564
32
0.0000000000
13
0.8588211978
23
-0.4294105989
33
0.0000000000
40
0.0000000000
40
0.0000000000
40
0.0000000000
40
0.0000000000
40
0.2787367596
40
0.6049124378
40
1.0000000000
40
1.0000000000
40
1.0000000000
40
1.0000000000
10
-321.9266062802
20
-563.8673291222
30
0.0000000000
10
-321.9266062802
20
-563.9569455601
30
0.0000000000
10
-321.8700042807
20
-564.1514304854
30
0.0000000000
10
-321.6519756531
20
-564.3948459009
30
0.0000000000
10
-321.4539230337
20
-564.5178843079
30
0.0000000000
10
-321.3408198425
20
-564.5744359034
30
0.0000000000
11
-321.9266062802
21
-563.8673291222
31
0.0000000000
11
-321.8584579327
21
-564.1261481673
31
0.0000000000
11
-321.6586570877
21
-564.3673291222
31
0.0000000000
11
-321.3408198425
21
-564.5744359034
31
0.0000000000
0
SPLINE
5
37F
100
AcDbEntity
8
0
100
AcDbSpline
62
7
6
CONTINUOUS
70
0
71
3
72
9
73
5
74
3
42
0.0000001000
43
0.0000001000
44
0.0000000001
12
0.8145087617
22
-0.4072543809
32
0.0000000000
13
0.8222726718
23
0.4332501435
33
0.0000000000
40
0.0000000000
40
0.0000000000
40
0.0000000000
40
0.0000000000
40
0.7878668781
40
1.0000000000
40
1.0000000000
40
1.0000000000
40
1.0000000000
10
-310.0271113436
20
-570.5491273981
30
0.0000000000
10
-309.8132031851
20
-570.6560814773
30
0.0000000000
10
-309.4846207711
20
-570.7431331542
30
0.0000000000
10
-309.1956040488
20
-570.6326417305
30
0.0000000000
10
-309.1374602925
20
-570.6020061620
30
0.0000000000
11
-310.0271113436
21
-570.5491273981
31
0.0000000000
11
-309.3200045624
21
-570.6706299811
31
0.0000000000
11
-309.1374602925
21
-570.6020061620
31
0.0000000000
0
SPLINE
5
380
100
AcDbEntity
8
0
100
AcDbSpline
62
7
6
CONTINUOUS
70
0
71
3
72
9
73
5
74
3
42
0.0000001000
43
0.0000001000
44
0.0000000001
12
-0.7585007827
22
0.3792503913
32
0.0000000000
13
-0.1865201715
23
0.8311897993
33
0.0000000000
40
0.0000000000
40
0.0000000000
40
0.0000000000
40
0.0000000000
40
0.6349047725
40
1.0000000000
40
1.0000000000
40
1.0000000000
40
1.0000000000
10
-319.9266062802
20
-565.5993799298
30
0.0000000000
10
-320.0871315358
20
-565.5191173020
30
0.0000000000
10
-320.3319861427
20
-565.3641939199
30
0.0000000000
10
-320.4778124475
20
-565.0976171626
30
0.0000000000
10
-320.5005116557
20
-564.9964626863
30
0.0000000000
11
-319.9266062802
21
-565.5993799298
31
0.0000000000
11
-320.3581315411
21
-565.2773861827
31
0.0000000000
11
-320.5005116557
21
-564.9964626863
31
0.0000000000
0
SPLINE
5
381
100
AcDbEntity
8
0
100
AcDbSpline
62
7
6
CONTINUOUS
70
0
71
3
72
8
73
4
74
2
42
0.0000001000
43
0.0000001000
44
0.0000000001
12
-0.4645632085
22
0.2322816043
32
0.0000000000
13
-0.5054898992
23
0.1313545713
33
0.0000000000
40
0.0000000000
40
0.0000000000
40
0.0000000000
40
0.0000000000
40
1.0000000000
40
1.0000000000
40
1.0000000000
40
1.0000000000
10
-272.5504519407
20
37.5909218694
30
0.0000000000
10
-272.7053063435
20
37.6683490708
30
0.0000000000
10
-272.8696285599
20
37.7266330229
30
0.0000000000
10
-273.0381251930
20
37.7704178800
30
0.0000000000
11
-272.5504519407
21
37.5909218694
31
0.0000000000
11
-273.0381251930
21
37.7704178800
31
0.0000000000
0
SPLINE
5
382
100
AcDbEntity
8
0
100
AcDbSpline
62
7
6
CONTINUOUS
70
0
71
3
72
9
73
5
74
3
42
0.0000001000
43
0.0000001000
44
0.0000000001
12
-0.5440217537
22
0.1413673039
32
0.0000000000
13
-0.5575130645
23
0.0537623547
33
0.0000000000
40
0.0000000000
40
0.0000000000
40
0.0000000000
40
0.0000000000
40
0.4840467244
40
1.0000000000
40
1.0000000000
40
1.0000000000
40
1.0000000000
10
-273.0381251930
20
37.7704178800
30
0.0000000000
10
-273.1259025089
20
37.7932273402
30
0.0000000000
10
-273.3095834965
20
37.8322208005
30
0.0000000000
10
-273.4949055742
20
37.8572227205
30
0.0000000000
10
-273.5907891381
20
37.8664690082
30
0.0000000000
11
-273.0381251930
21
37.7704178800
31
0.0000000000
11
-273.3041073791
21
37.8276984185
31
0.0000000000
11
-273.5907891381
21
37.8664690082
31
0.0000000000
0
SPLINE
5
383
100
AcDbEntity
8
0
100
AcDbSpline
62
7
6
CONTINUOUS
70
0
71
3
72
8
73
4
74
2
42
0.0000001000
43
0.0000001000
44
0.0000000001
12
-0.3007188188
22
0.0289990546
32
0.0000000000
13
-0.3018777362
23
0.0052846043
33
0.0000000000
40
0.0000000000
40
0.0000000000
40
0.0000000000
40
0.0000000000
40
1.0000000000
40
1.0000000000
40
1.0000000000
40
1.0000000000
10
-273.5907891381
20
37.8664690082
30
0.0000000000
10
-273.6910287444
20
37.8761353597
30
0.0000000000
10
-273.7915591025
20
37.8818086716
30
0.0000000000
10
-273.8921850146
20
37.8835702064
30
0.0000000000
11
-273.5907891381
21
37.8664690082
31
0.0000000000
11
-273.8921850146
21
37.8835702064
31
0.0000000000
0
SPLINE
5
384
100
AcDbEntity
8
0
100
AcDbSpline
62
7
6
CONTINUOUS
70
0
71
3
72
9
73
5
74
3
42
0.0000001000
43
0.0000001000
44
0.0000000001
12
-0.5882234304
22
0.0102973082
32
0.0000000000
13
-0.5843631405
23
-0.0787727901
33
0.0000000000
40
0.0000000000
40
0.0000000000
40
0.0000000000
40
0.0000000000
40
0.5037505063
40
1.0000000000
40
1.0000000000
40
1.0000000000
40
1.0000000000
10
-273.8921850146
20
37.8835702064
30
0.0000000000
10
-273.9909576315
20
37.8852992978
30
0.0000000000
10
-274.1872148707
20
37.8812498309
30
0.0000000000
10
-274.3831074276
20
37.8626508245
30
0.0000000000
10
-274.4797707318
20
37.8496205054
30
0.0000000000
11
-273.8921850146
21
37.8835702064
31
0.0000000000
11
-274.1885944552
21
37.8775272981
31
0.0000000000
11
-274.4797707318
21
37.8496205054
31
0.0000000000
0
SPLINE
5
385
100
AcDbEntity
8
0
100
AcDbSpline
62
7
6
CONTINUOUS
70
0
71
3
72
9
73
5
74
3
42
0.0000001000
43
0.0000001000
44
0.0000000001
12
-1.0483978206
22
-0.1413251721
32
0.0000000000
13
-0.9151437023
23
-0.5401633726
33
0.0000000000
40
0.0000000000
40
0.0000000000
40
0.0000000000
40
0.0000000000
40
0.5325538851
40
1.0000000000
40
1.0000000000
40
1.0000000000
40
1.0000000000
10
-274.4797707318
20
37.8496205054
30
0.0000000000
10
-274.6658801759
20
37.8245327489
30
0.0000000000
10
-275.0115297432
20
37.7509698980
30
0.0000000000
10
-275.3384758385
20
37.6222577345
30
0.0000000000
10
-275.4810692946
20
37.5380919778
30
0.0000000000
11
-274.4797707318
21
37.8496205054
31
0.0000000000
11
-275.0287296561
21
37.7305392875
31
0.0000000000
11
-275.4810692946
21
37.5380919778
31
0.0000000000
0
SPLINE
5
386
100
AcDbEntity
8
0
100
AcDbSpline
62
7
6
CONTINUOUS
70
0
71
3
72
10
73
6
74
4
42
0.0000001000
43
0.0000001000
44
0.0000000001
12
0.0000000000
22
0.7323450078
32
0.0000000000
13
-0.6550292881
23
0.3275146441
33
0.0000000000
40
0.0000000000
40
0.0000000000
40
0.0000000000
40
0.0000000000
40
0.3342904765
40
0.6865843886
40
1.0000000000
40
1.0000000000
40
1.0000000000
40
1.0000000000
10
-309.6735579530
20
14.7072688649
30
0.0000000000
10
-309.6735579530
20
14.7888741854
30
0.0000000000
10
-309.7107862153
20
14.9568443418
30
0.0000000000
10
-309.8332989716
20
15.1708870658
30
0.0000000000
10
-309.9586792086
20
15.2828421946
30
0.0000000000
10
-310.0271113436
20
15.3170582621
30
0.0000000000
11
-309.6735579530
21
14.7072688649
31
0.0000000000
11
-309.7209251257
21
14.9474588022
31
0.0000000000
11
-309.8503346483
21
15.1706572125
31
0.0000000000
11
-310.0271113436
21
15.3170582621
31
0.0000000000
0
SPLINE
5
387
100
AcDbEntity
8
0
100
AcDbSpline
62
7
6
CONTINUOUS
70
0
71
3
72
11
73
7
74
5
42
0.0000001000
43
0.0000001000
44
0.0000000001
12
-2.5996468375
22
1.2998234188
32
0.0000000000
13
-2.5996468375
23
-1.2998234188
33
0.0000000000
40
0.0000000000
40
0.0000000000
40
0.0000000000
40
0.0000000000
40
0.2336626321
40
0.4987792929
40
0.7649440475
40
1.0000000000
40
1.0000000000
40
1.0000000000
40
1.0000000000
10
-275.3788790654
20
43.8397074434
30
0.0000000000
10
-275.5813591730
20
43.9409474972
30
0.0000000000
10
-276.0487271053
20
44.0865383305
30
0.0000000000
10
-276.7905213116
20
44.1568261378
30
0.0000000000
10
-277.5337782541
20
44.0874630715
30
0.0000000000
10
-278.0036187023
20
43.9415511873
30
0.0000000000
10
-278.2073061902
20
43.8397074434
30
0.0000000000
11
-275.3788790654
21
43.8397074434
31
0.0000000000
11
-276.0228348296
21
44.0554634533
31
0.0000000000
11
-276.7895241997
21
44.1325990705
31
0.0000000000
11
-277.5593579401
21
44.0562939922
31
0.0000000000
11
-278.2073061902
21
43.8397074434
31
0.0000000000
0
SPLINE
5
388
100
AcDbEntity
8
0
100
AcDbSpline
62
7
6
CONTINUOUS
70
0
71
3
72
9
73
5
74
3
42
0.0000001000
43
0.0000001000
44
0.0000000001
12
-0.8526051250
22
-0.4263025625
32
0.0000000000
13
-0.0008267530
23
-0.9465545362
33
0.0000000000
40
0.0000000000
40
0.0000000000
40
0.0000000000
40
0.0000000000
40
0.5674568652
40
1.0000000000
40
1.0000000000
40
1.0000000000
40
1.0000000000
10
-319.9266062802
20
22.9800573984
30
0.0000000000
10
-320.0878784906
20
22.8994212932
30
0.0000000000
10
-320.3633790522
20
22.7251688932
30
0.0000000000
10
-320.5122722859
20
22.4093775301
30
0.0000000000
10
-320.5123914880
20
22.2729023079
30
0.0000000000
11
-319.9266062802
21
22.9800573984
31
0.0000000000
11
-320.3597793777
21
22.6560832734
31
0.0000000000
11
-320.5123914880
21
22.2729023079
31
0.0000000000
0
SPLINE
5
389
100
AcDbEntity
8
0
100
AcDbSpline
62
7
6
CONTINUOUS
70
0
71
3
72
9
73
5
74
3
42
0.0000001000
43
0.0000001000
44
0.0000000001
12
0.9645385627
22
-0.4822692813
32
0.0000000000
13
1.0755387149
23
-0.1037168410
33
0.0000000000
40
0.0000000000
40
0.0000000000
40
0.0000000000
40
0.0000000000
40
0.7325519874
40
1.0000000000
40
1.0000000000
40
1.0000000000
40
1.0000000000
10
-275.3788790654
20
37.4757464127
30
0.0000000000
10
-275.1433541851
20
37.3579839726
30
0.0000000000
10
-274.7919436354
20
37.2576785710
30
0.0000000000
10
-274.4344254319
20
37.2094455617
30
0.0000000000
10
-274.3385418680
20
37.2001992740
30
0.0000000000
11
-275.3788790654
21
37.4757464127
31
0.0000000000
11
-274.6252236270
21
37.2389698636
31
0.0000000000
11
-274.3385418680
21
37.2001992740
31
0.0000000000
0
SPLINE
5
38A
100
AcDbEntity
8
0
100
AcDbSpline
62
7
6
CONTINUOUS
70
0
71
3
72
8
73
4
74
2
42
0.0000001000
43
0.0000001000
44
0.0000000001
12
0.3007188188
22
-0.0289990546
32
0.0000000000
13
0.3018777362
23
-0.0052846043
33
0.0000000000
40
0.0000000000
40
0.0000000000
40
0.0000000000
40
0.0000000000
40
1.0000000000
40
1.0000000000
40
1.0000000000
40
1.0000000000
10
-274.3385418680
20
37.2001992740
30
0.0000000000
10
-274.2383022617
20
37.1905329224
30
0.0000000000
10
-274.1377719036
20
37.1848596105
30
0.0000000000
10
-274.0371459915
20
37.1830980758
30
0.0000000000
11
-274.3385418680
21
37.2001992740
31
0.0000000000
11
-274.0371459915
21
37.1830980758
31
0.0000000000
0
SPLINE
5
38B
100
AcDbEntity
8
0
100
AcDbSpline
62
7
6
CONTINUOUS
70
0
71
3
72
11
73
7
74
5
42
0.0000001000
43
0.0000001000
44
0.0000000001
12
2.3680927183
22
-0.0414553029
32
0.0000000000
13
0.4392006748
23
2.2979709494
33
0.0000000000
40
0.0000000000
40
0.0000000000
40
0.0000000000
40
0.0000000000
40
0.1251293282
40
0.4857242534
40
0.7832291343
40
1.0000000000
40
1.0000000000
40
1.0000000000
40
1.0000000000
10
-274.0371459915
20
37.1830980758
30
0.0000000000
10
-273.9383733746
20
37.1813689844
30
0.0000000000
10
-273.5546026366
20
37.1892875044
30
0.0000000000
10
-272.9380218567
20
37.2917660532
30
0.0000000000
10
-272.3035212511
20
37.5661179368
30
0.0000000000
10
-272.0089763868
20
37.9048443338
30
0.0000000000
10
-271.9772410833
20
38.0708887178
30
0.0000000000
11
-274.0371459915
21
37.1830980758
31
0.0000000000
11
-273.7407365508
21
37.1891409840
31
0.0000000000
11
-272.9006013500
21
37.3361289947
31
0.0000000000
11
-272.2712171046
21
37.6508211174
31
0.0000000000
11
-271.9772410833
21
38.0708887178
31
0.0000000000
0
SPLINE
5
38C
100
AcDbEntity
8
0
100
AcDbSpline
62
7
6
CONTINUOUS
70
0
71
3
72
8
73
4
74
2
42
0.0000001000
43
0.0000001000
44
0.0000000001
12
0.0206251423
22
0.1079141737
32
0.0000000000
13
-0.0039464332
23
0.1121379806
33
0.0000000000
40
0.0000000000
40
0.0000000000
40
0.0000000000
40
0.0000000000
40
1.0000000000
40
1.0000000000
40
1.0000000000
40
1.0000000000
10
-271.9772410833
20
38.0708887178
30
0.0000000000
10
-271.9703660358
20
38.1068601091
30
0.0000000000
10
-271.9678282940
20
38.1439235447
30
0.0000000000
10
-271.9691437717
20
38.1813028715
30
0.0000000000
11
-271.9772410833
21
38.0708887178
31
0.0000000000
11
-271.9691437717
21
38.1813028715
31
0.0000000000
0
SPLINE
5
38D
100
AcDbEntity
8
0
100
AcDbSpline
62
7
6
CONTINUOUS
70
0
71
3
72
8
73
4
74
2
42
0.0000001000
43
0.0000001000
44
0.0000000001
12
-0.3396385001
22
0.1698192501
32
0.0000000000
13
-0.2878408600
23
0.2521527658
33
0.0000000000
40
0.0000000000
40
0.0000000000
40
0.0000000000
40
0.0000000000
40
1.0000000000
40
1.0000000000
40
1.0000000000
40
1.0000000000
10
-319.9266062802
20
20.2668057304
30
0.0000000000
10
-320.0398191135
20
20.3234121470
30
0.0000000000
10
-320.1505116853
20
20.3890207027
30
0.0000000000
10
-320.2464586386
20
20.4730716246
30
0.0000000000
11
-319.9266062802
21
20.2668057304
31
0.0000000000
11
-320.2464586386
21
20.4730716246
31
0.0000000000
0
SPLINE
5
38E
100
AcDbEntity
8
0
100
AcDbSpline
62
7
6
CONTINUOUS
70
0
71
3
72
8
73
4
74
2
42
0.0000001000
43
0.0000001000
44
0.0000000001
12
-0.1202754400
22
0.1053630289
32
0.0000000000
13
-0.1021519436
23
0.1267496878
33
0.0000000000
40
0.0000000000
40
0.0000000000
40
0.0000000000
40
0.0000000000
40
1.0000000000
40
1.0000000000
40
1.0000000000
40
1.0000000000
10
-320.2464586386
20
20.4730716246
30
0.0000000000
10
-320.2865504520
20
20.5081926343
30
0.0000000000
10
-320.3240676520
20
20.5465337165
30
0.0000000000
10
-320.3581182999
20
20.5887836124
30
0.0000000000
11
-320.2464586386
21
20.4730716246
31
0.0000000000
11
-320.3581182999
21
20.5887836124
31
0.0000000000
0
SPLINE
5
38F
100
AcDbEntity
8
0
100
AcDbSpline
62
7
6
CONTINUOUS
70
0
71
3
72
8
73
4
74
2
42
0.0000001000
43
0.0000001000
44
0.0000000001
12
-0.1811140456
22
0.2247255209
32
0.0000000000
13
-0.0767048925
23
0.2735733431
33
0.0000000000
40
0.0000000000
40
0.0000000000
40
0.0000000000
40
0.0000000000
40
1.0000000000
40
1.0000000000
40
1.0000000000
40
1.0000000000
10
-320.3581182999
20
20.5887836124
30
0.0000000000
10
-320.4184896484
20
20.6636921194
30
0.0000000000
10
-320.4679639522
20
20.7508879123
30
0.0000000000
10
-320.4935322497
20
20.8420790267
30
0.0000000000
11
-320.3581182999
21
20.5887836124
31
0.0000000000
11
-320.4935322497
21
20.8420790267
31
0.0000000000
0
SPLINE
5
390
100
AcDbEntity
8
0
100
AcDbSpline
62
7
6
CONTINUOUS
70
0
71
3
72
8
73
4
74
2
42
0.0000001000
43
0.0000001000
44
0.0000000001
12
-0.0364409115
22
0.1299690495
32
0.0000000000
13
0.0001159153
23
0.1327121822
33
0.0000000000
40
0.0000000000
40
0.0000000000
40
0.0000000000
40
0.0000000000
40
1.0000000000
40
1.0000000000
40
1.0000000000
40
1.0000000000
10
-320.4935322497
20
20.8420790267
30
0.0000000000
10
-320.5056792202
20
20.8854020432
30
0.0000000000
10
-320.5124301265
20
20.9296268082
30
0.0000000000
10
-320.5123914880
20
20.9738642023
30
0.0000000000
11
-320.4935322497
21
20.8420790267
31
0.0000000000
11
-320.5123914880
21
20.9738642023
31
0.0000000000
0
SPLINE
5
391
100
AcDbEntity
8
0
100
AcDbSpline
62
7
6
CONTINUOUS
70
0
71
3
72
12
73
8
74
6
42
0.0000001000
43
0.0000001000
44
0.0000000001
12
2.2059851676
22
-1.1029925838
32
0.0000000000
13
2.3740486885
23
0.6850022970
33
0.0000000000
40
0.0000000000
40
0.0000000000
40
0.0000000000
40
0.0000000000
40
0.1798812304
40
0.3796075656
40
0.5899406152
40
0.8002736648
40
1.0000000000
40
1.0000000000
40
1.0000000000
40
1.0000000000
10
-311.4413249059
20
14.1769387790
30
0.0000000000
10
-311.3090531305
20
14.1108028913
30
0.0000000000
10
-311.0144670676
20
14.0016786683
30
0.0000000000
10
-310.5375817514
20
13.9057078959
30
0.0000000000
10
-310.0271113436
20
13.8729342302
30
0.0000000000
10
-309.5166409357
20
13.9057078959
30
0.0000000000
10
-309.1851646916
20
13.9724158236
30
0.0000000000
10
-309.0271113436
20
14.0180201564
30
0.0000000000
11
-311.4413249059
21
14.1769387790
31
0.0000000000
11
-311.0271113436
21
14.0180201564
31
0.0000000000
11
-310.5447494338
21
13.9181197339
31
0.0000000000
11
-310.0271113436
21
13.8840455602
31
0.0000000000
11
-309.5094732533
21
13.9181197339
31
0.0000000000
11
-309.0271113436
21
14.0180201564
31
0.0000000000
0
SPLINE
5
392
100
AcDbEntity
8
0
100
AcDbSpline
62
7
6
CONTINUOUS
70
0
71
3
72
8
73
4
74
2
42
0.0000001000
43
0.0000001000
44
0.0000000001
12
0.4270467991
22
0.1232190560
32
0.0000000000
13
0.3968153262
23
0.1984076631
33
0.0000000000
40
0.0000000000
40
0.0000000000
40
0.0000000000
40
0.0000000000
40
1.0000000000
40
1.0000000000
40
1.0000000000
40
1.0000000000
10
-309.0271113436
20
14.0180201564
30
0.0000000000
10
-308.8847624105
20
14.0590931750
30
0.0000000000
10
-308.7451695566
20
14.1108028913
30
0.0000000000
10
-308.6128977812
20
14.1769387790
30
0.0000000000
11
-309.0271113436
21
14.0180201564
31
0.0000000000
11
-308.6128977812
21
14.1769387790
31
0.0000000000
0
SPLINE
5
393
100
AcDbEntity
8
0
100
AcDbSpline
62
7
6
CONTINUOUS
70
0
71
3
72
9
73
5
74
3
42
0.0000001000
43
0.0000001000
44
0.0000000001
12
1.1199617721
22
0.5901006018
32
0.0000000000
13
-0.0000000000
23
1.2403324592
33
0.0000000000
40
0.0000000000
40
0.0000000000
40
0.0000000000
40
0.0000000000
40
0.3596702216
40
1.0000000000
40
1.0000000000
40
1.0000000000
40
1.0000000000
10
-309.1374602925
20
-570.6020061620
30
0.0000000000
10
-309.0031879929
20
-570.5312589573
30
0.0000000000
10
-308.6768145514
20
-570.2278514244
30
0.0000000000
10
-308.6128977812
20
-569.7889239747
30
0.0000000000
10
-308.6128977812
20
-569.5241833717
30
0.0000000000
11
-309.1374602925
21
-570.6020061620
31
0.0000000000
11
-308.8023664722
21
-570.2954744300
31
0.0000000000
11
-308.6128977812
21
-569.5241833717
31
0.0000000000
0
SPLINE
5
394
100
AcDbEntity
8
0
100
AcDbSpline
62
7
6
CONTINUOUS
70
0
71
3
72
8
73
4
74
2
42
0.0000001000
43
0.0000001000
44
0.0000000001
12
-0.0121604524
22
0.3455395057
32
0.0000000000
13
-0.1891866157
23
0.2954110829
33
0.0000000000
40
0.0000000000
40
0.0000000000
40
0.0000000000
40
0.0000000000
40
1.0000000000
40
1.0000000000
40
1.0000000000
40
1.0000000000
10
-271.9691437717
20
38.1813028715
30
0.0000000000
10
-271.9731972559
20
38.2964827068
30
0.0000000000
10
-272.0138366372
20
38.4146618949
30
0.0000000000
10
-272.0768988424
20
38.5131322559
30
0.0000000000
11
-271.9691437717
21
38.1813028715
31
0.0000000000
11
-272.0768988424
21
38.5131322559
31
0.0000000000
0
SPLINE
5
395
100
AcDbEntity
8
0
100
AcDbSpline
62
7
6
CONTINUOUS
70
0
71
3
72
8
73
4
74
2
42
0.0000001000
43
0.0000001000
44
0.0000000001
12
-0.3345218593
22
0.5223491332
32
0.0000000000
13
-0.5412959758
23
0.2706479879
33
0.0000000000
40
0.0000000000
40
0.0000000000
40
0.0000000000
40
0.0000000000
40
1.0000000000
40
1.0000000000
40
1.0000000000
40
1.0000000000
10
-272.0768988424
20
38.5131322559
30
0.0000000000
10
-272.1884061289
20
38.6872486336
30
0.0000000000
10
-272.3700199487
20
38.7997439791
30
0.0000000000
10
-272.5504519407
20
38.8899599751
30
0.0000000000
11
-272.0768988424
21
38.5131322559
31
0.0000000000
11
-272.5504519407
21
38.8899599751
31
0.0000000000
0
SPLINE
5
396
100
AcDbEntity
8
0
100
AcDbSpline
62
7
6
CONTINUOUS
70
0
71
3
72
9
73
5
74
3
42
0.0000001000
43
0.0000001000
44
0.0000000001
12
-0.0006526410
22
-0.7472126625
32
0.0000000000
13
0.6368576978
23
-0.4088518437
33
0.0000000000
40
0.0000000000
40
0.0000000000
40
0.0000000000
40
0.0000000000
40
0.5514622508
40
1.0000000000
40
1.0000000000
40
1.0000000000
40
1.0000000000
10
-320.5123914880
20
22.2729023079
30
0.0000000000
10
-320.5125114570
20
22.1355491157
30
0.0000000000
10
-320.3940247315
20
21.8866990762
30
0.0000000000
10
-320.1975688612
20
21.7257624699
30
0.0000000000
10
-320.1023506218
20
21.6646339747
30
0.0000000000
11
-320.5123914880
21
22.2729023079
31
0.0000000000
11
-320.3581182999
21
21.8878217181
31
0.0000000000
11
-320.1023506218
21
21.6646339747
31
0.0000000000
0
SPLINE
5
397
100
AcDbEntity
8
0
100
AcDbSpline
62
7
6
CONTINUOUS
70
0
71
3
72
8
73
4
74
2
42
0.0000001000
43
0.0000001000
44
0.0000000001
12
0.1700088358
22
-0.1091427900
32
0.0000000000
13
0.1796700180
23
-0.0898350090
33
0.0000000000
40
0.0000000000
40
0.0000000000
40
0.0000000000
40
0.0000000000
40
1.0000000000
40
1.0000000000
40
1.0000000000
40
1.0000000000
10
-320.1023506218
20
21.6646339747
30
0.0000000000
10
-320.0456810098
20
21.6282530447
30
0.0000000000
10
-319.9864962862
20
21.5957888390
30
0.0000000000
10
-319.9266062802
20
21.5658438360
30
0.0000000000
11
-320.1023506218
21
21.6646339747
31
0.0000000000
11
-319.9266062802
21
21.5658438360
31
0.0000000000
0
SPLINE
5
398
100
AcDbEntity
8
0
100
AcDbSpline
62
7
6
CONTINUOUS
70
0
71
3
72
8
73
4
74
2
42
0.0000001000
43
0.0000001000
44
0.0000000001
12
0.5432563319
22
-0.2716281660
32
0.0000000000
13
0.4434114582
23
-0.4251306051
33
0.0000000000
40
0.0000000000
40
0.0000000000
40
0.0000000000
40
0.0000000000
40
1.0000000000
40
1.0000000000
40
1.0000000000
40
1.0000000000
10
-310.0271113436
20
16.6160963677
30
0.0000000000
10
-309.8460258996
20
16.5255536457
30
0.0000000000
10
-309.6814016985
20
16.4026382437
30
0.0000000000
10
-309.5335978791
20
16.2609280420
30
0.0000000000
11
-310.0271113436
21
16.6160963677
31
0.0000000000
11
-309.5335978791
21
16.2609280420
31
0.0000000000
0
SPLINE
5
399
100
AcDbEntity
8
0
100
AcDbSpline
62
7
6
CONTINUOUS
70
0
71
3
72
10
73
6
74
4
42
0.0000001000
43
0.0000001000
44
0.0000000001
12
1.6951553638
22
-1.6252679361
32
0.0000000000
13
0.0000000000
23
-2.3220009873
33
0.0000000000
40
0.0000000000
40
0.0000000000
40
0.0000000000
40
0.0000000000
40
0.1338218164
40
0.5782672567
40
1.0000000000
40
1.0000000000
40
1.0000000000
40
1.0000000000
10
-309.5335978791
20
16.2609280420
30
0.0000000000
10
-309.4579816225
20
16.1884292729
30
0.0000000000
10
-309.1502544440
20
15.8538927033
30
0.0000000000
10
-308.7618108305
20
15.1752406867
30
0.0000000000
10
-308.6128977812
20
14.5033600611
30
0.0000000000
10
-308.6128977812
20
14.1769387790
30
0.0000000000
11
-309.5335978791
21
16.2609280420
31
0.0000000000
11
-309.3200045624
21
16.0304921696
31
0.0000000000
11
-308.8023664722
21
15.1376985282
31
0.0000000000
11
-308.6128977812
21
14.1769387790
31
0.0000000000
0
SPLINE
5
39A
100
AcDbEntity
8
0
100
AcDbSpline
62
7
6
CONTINUOUS
70
0
71
3
72
9
73
5
74
3
42
0.0000001000
43
0.0000001000
44
0.0000000001
12
0.0000000000
22
0.2367008792
32
0.0000000000
13
0.2131744153
23
0.1065872076
33
0.0000000000
40
0.0000000000
40
0.0000000000
40
0.0000000000
40
0.0000000000
40
0.4320096608
40
1.0000000000
40
1.0000000000
40
1.0000000000
40
1.0000000000
10
-320.4266062802
20
19.8337930285
30
0.0000000000
10
-320.4266062802
20
19.8678787173
30
0.0000000000
10
-320.3893960277
20
19.9467790104
30
0.0000000000
10
-320.3205200069
20
19.9903895557
30
0.0000000000
10
-320.2801596708
20
20.0105697238
30
0.0000000000
11
-320.4266062802
21
19.8337930285
31
0.0000000000
11
-320.3885460464
21
19.9294638866
31
0.0000000000
11
-320.2801596708
21
20.0105697238
31
0.0000000000
0
SPLINE
5
39B
100
AcDbEntity
8
0
100
AcDbSpline
62
7
6
CONTINUOUS
70
0
71
3
72
13
73
9
74
7
42
0.0000001000
43
0.0000001000
44
0.0000000001
12
-3.4491117346
22
1.7245558673
32
0.0000000000
13
0.1370112701
23
-3.8931780543
33
0.0000000000
40
0.0000000000
40
0.0000000000
40
0.0000000000
40
0.0000000000
40
0.2048569879
40
0.4345867758
40
0.6557607996
40
0.8382379977
40
0.9711962877
40
1.0000000000
40
1.0000000000
40
1.0000000000
40
1.0000000000
10
-272.5504519407
20
38.8899599751
30
0.0000000000
10
-272.7859768210
20
39.0077224153
30
0.0000000000
10
-273.3320853637
20
39.1636017328
30
0.0000000000
10
-274.1783819058
20
39.2090525647
30
0.0000000000
10
-274.9913091494
20
39.0739403347
30
0.0000000000
10
-275.6258097550
20
38.7995884511
30
0.0000000000
10
-275.9472507228
20
38.4299315530
30
0.0000000000
10
-275.9615027121
20
38.2217828432
30
0.0000000000
10
-275.9601872344
20
38.1844035163
30
0.0000000000
11
-272.5504519407
21
38.8899599751
31
0.0000000000
11
-273.3041073791
21
39.1267365242
31
0.0000000000
11
-274.1885944552
21
39.1765654038
31
0.0000000000
11
-275.0287296561
21
39.0295773931
31
0.0000000000
11
-275.6581139015
21
38.7148852704
31
0.0000000000
11
-275.9520899228
21
38.2948176700
31
0.0000000000
11
-275.9601872344
21
38.1844035163
31
0.0000000000
0
SPLINE
5
39C
100
AcDbEntity
8
0
100
AcDbSpline
62
7
6
CONTINUOUS
70
0
71
3
72
10
73
6
74
4
42
0.0000001000
43
0.0000001000
44
0.0000000001
12
0.0000000000
22
-0.9645276564
32
0.0000000000
13
0.8588211978
23
-0.4294105989
33
0.0000000000
40
0.0000000000
40
0.0000000000
40
0.0000000000
40
0.0000000000
40
0.2787367596
40
0.6049124378
40
1.0000000000
40
1.0000000000
40
1.0000000000
40
1.0000000000
10
-321.9266062802
20
19.8337930285
30
0.0000000000
10
-321.9266062802
20
19.7441765906
30
0.0000000000
10
-321.8700042807
20
19.5496916653
30
0.0000000000
10
-321.6519756531
20
19.3062762498
30
0.0000000000
10
-321.4539230337
20
19.1832378428
30
0.0000000000
10
-321.3408198425
20
19.1266862473
30
0.0000000000
11
-321.9266062802
21
19.8337930285
31
0.0000000000
11
-321.8584579327
21
19.5749739834
31
0.0000000000
11
-321.6586570877
21
19.3337930285
31
0.0000000000
11
-321.3408198425
21
19.1266862473
31
0.0000000000
0
SPLINE
5
39D
100
AcDbEntity
8
0
100
AcDbSpline
62
7
6
CONTINUOUS
70
0
71
3
72
14
73
10
74
8
42
0.0000001000
43
0.0000001000
44
0.0000000001
12
-8.5702936577
22
9.1121894305
32
0.0000000000
13
-1.1153563954
23
-12.4594506182
33
0.0000000000
40
0.0000000000
40
0.0000000000
40
0.0000000000
40
0.0000000000
40
0.1046435288
40
0.2181171849
40
0.3492811249
40
0.4997889865
40
0.6679393094
40
0.8432571917
40
1.0000000000
40
1.0000000000
40
1.0000000000
40
1.0000000000
10
-286.0339647767
20
-375.4543664121
30
0.0000000000
10
-286.3329067003
20
-375.1365225265
30
0.0000000000
10
-287.1594517272
20
-374.6397645289
30
0.0000000000
10
-288.6737360999
20
-374.6511630549
30
0.0000000000
10
-290.2024023841
20
-375.3506539359
30
0.0000000000
10
-291.6318095219
20
-376.5936024413
30
0.0000000000
10
-292.8476001232
20
-378.2765837690
30
0.0000000000
10
-293.7122037973
20
-380.1873962468
30
0.0000000000
10
-294.0311646296
20
-381.5495420351
30
0.0000000000
10
-294.0894393275
20
-382.2005184617
30
0.0000000000
11
-286.0339647767
21
-375.4543664121
31
0.0000000000
11
-287.1534004027
21
-374.7758511487
31
0.0000000000
11
-288.5724707257
21
-374.7420414761
31
0.0000000000
11
-290.0853692927
21
-375.3770609893
31
0.0000000000
11
-291.5248138227
21
-376.5906196287
31
0.0000000000
11
-292.7696381278
21
-378.2861625014
31
0.0000000000
11
-293.6732290773
21
-380.2844638530
31
0.0000000000
11
-294.0894393275
21
-382.2005184617
31
0.0000000000
0
SPLINE
5
39E
100
AcDbEntity
8
0
100
AcDbSpline
62
7
6
CONTINUOUS
70
0
71
3
72
10
73
6
74
4
42
0.0000001000
43
0.0000001000
44
0.0000000001
12
-0.5341306631
22
1.5961003209
32
0.0000000000
13
-1.0751432760
23
1.2949512484
33
0.0000000000
40
0.0000000000
40
0.0000000000
40
0.0000000000
40
0.0000000000
40
0.3637611649
40
0.6967657905
40
1.0000000000
40
1.0000000000
40
1.0000000000
40
1.0000000000
10
-285.2550602768
20
-376.9369669700
30
0.0000000000
10
-285.3198256076
20
-376.7434338660
30
0.0000000000
10
-285.4607125156
20
-376.3779260628
30
0.0000000000
10
-285.7196372933
20
-375.8788609667
30
0.0000000000
10
-285.9252913695
20
-375.5852575848
30
0.0000000000
10
-286.0339647767
20
-375.4543664121
30
0.0000000000
11
-285.2550602768
21
-376.9369669700
31
0.0000000000
11
-285.4777038434
21
-376.3666369463
31
0.0000000000
11
-285.7385542641
21
-375.8705566397
31
0.0000000000
11
-286.0339647767
21
-375.4543664121
31
0.0000000000
0
SPLINE
5
39F
100
AcDbEntity
8
0
100
AcDbSpline
62
7
6
CONTINUOUS
70
0
71
3
72
10
73
6
74
4
42
0.0000001000
43
0.0000001000
44
0.0000000001
12
1.6646213267
22
-0.9591234210
32
0.0000000000
13
0.0350330038
23
-1.9208473617
33
0.0000000000
40
0.0000000000
40
0.0000000000
40
0.0000000000
40
0.0000000000
40
0.2762444184
40
0.6199381658
40
1.0000000000
40
1.0000000000
40
1.0000000000
40
1.0000000000
10
-288.1214747724
20
-378.2801581549
30
0.0000000000
10
-287.9681939889
20
-378.3684756521
30
0.0000000000
10
-287.6776177073
20
-378.6601994854
30
0.0000000000
10
-287.4185615664
20
-379.2563732026
30
0.0000000000
10
-287.3541860287
20
-379.7213171877
30
0.0000000000
10
-287.3497477928
20
-379.9646641116
30
0.0000000000
11
-288.1214747724
21
-378.2801581549
31
0.0000000000
11
-287.7350406758
21
-378.6439211257
31
0.0000000000
11
-287.4557468267
21
-379.2422369427
31
0.0000000000
11
-287.3497477928
21
-379.9646641116
31
0.0000000000
0
SPLINE
5
3A0
100
AcDbEntity
8
0
100
AcDbSpline
62
7
6
CONTINUOUS
70
0
71
3
72
13
73
9
74
7
42
0.0000001000
43
0.0000001000
44
0.0000000001
12
0.3268243233
22
5.8610052119
32
0.0000000000
13
4.9702283388
23
-3.1233037784
33
0.0000000000
40
0.0000000000
40
0.0000000000
40
0.0000000000
40
0.0000000000
40
0.1783276532
40
0.3850918851
40
0.5790867746
40
0.7522814111
40
0.8928557146
40
1.0000000000
40
1.0000000000
40
1.0000000000
40
1.0000000000
10
-291.8110072926
20
-381.9252456728
30
0.0000000000
10
-291.7915800211
20
-381.5768525713
30
0.0000000000
10
-291.6219675549
20
-380.8317639015
30
0.0000000000
10
-291.1358989535
20
-379.8012854600
30
0.0000000000
10
-290.4404705454
20
-378.9010322500
30
0.0000000000
10
-289.6101744097
20
-378.3286088425
30
0.0000000000
10
-288.8089066604
20
-378.0745242042
30
0.0000000000
10
-288.2989852936
20
-378.1686101044
30
0.0000000000
10
-288.1214747724
20
-378.2801581549
30
0.0000000000
11
-291.8110072926
21
-381.9252456728
31
0.0000000000
11
-291.6015493352
21
-380.8996122526
31
0.0000000000
11
-291.0854679283
21
-379.8010687842
31
0.0000000000
11
-290.3718568749
21
-378.9136232290
31
0.0000000000
11
-289.5311706927
21
-378.3418995511
31
0.0000000000
11
-288.7329167904
21
-378.1327972607
31
0.0000000000
11
-288.1214747724
21
-378.2801581549
31
0.0000000000
0
SPLINE
5
3A1
100
AcDbEntity
8
0
100
AcDbSpline
62
7
6
CONTINUOUS
70
0
71
3
72
10
73
6
74
4
42
0.0000001000
43
0.0000001000
44
0.0000000001
12
-1.4679206853
22
-3.6453951855
32
0.0000000000
13
-3.3598867033
23
-2.0383470111
33
0.0000000000
40
0.0000000000
40
0.0000000000
40
0.0000000000
40
0.0000000000
40
0.3089650942
40
0.6281047575
40
1.0000000000
40
1.0000000000
40
1.0000000000
40
1.0000000000
10
-282.1455632897
20
-116.3199107130
30
0.0000000000
10
-282.2967420406
20
-116.6953440019
30
0.0000000000
10
-282.6803580303
20
-117.4310990937
30
0.0000000000
10
-283.5286834885
20
-118.4420311262
30
0.0000000000
10
-284.2595046563
20
-118.9916346720
30
0.0000000000
10
-284.6760132830
20
-119.2443185239
30
0.0000000000
11
-282.1455632897
21
-116.3199107130
31
0.0000000000
11
-282.7102503957
21
-117.3947944253
31
0.0000000000
11
-283.5147704049
21
-118.3569222963
31
0.0000000000
11
-284.6760132830
21
-119.2443185239
31
0.0000000000
0
SPLINE
5
3A2
100
AcDbEntity
8
0
100
AcDbSpline
62
7
6
CONTINUOUS
70
0
71
3
72
10
73
6
74
4
42
0.0000001000
43
0.0000001000
44
0.0000000001
12
0.0000000000
22
-4.3954412576
32
0.0000000000
13
-1.6418347062
23
-4.0772886391
33
0.0000000000
40
0.0000000000
40
0.0000000000
40
0.0000000000
40
0.0000000000
40
0.3888845770
40
0.7175974463
40
1.0000000000
40
1.0000000000
40
1.0000000000
40
1.0000000000
10
-281.4117047786
20
-112.0103377775
30
0.0000000000
10
-281.4117047786
20
-112.5801108822
30
0.0000000000
10
-281.4641106409
20
-113.6330539387
30
0.0000000000
10
-281.7179886489
20
-115.0798488901
30
0.0000000000
10
-281.9910105184
20
-115.9360984717
30
0.0000000000
10
-282.1455632897
20
-116.3199107130
30
0.0000000000
11
-281.4117047786
21
-112.0103377775
31
0.0000000000
11
-281.5066181401
21
-113.7170199304
31
0.0000000000
11
-281.7638495309
21
-115.1387755948
31
0.0000000000
11
-282.1455632897
21
-116.3199107130
31
0.0000000000
0
SPLINE
5
3A3
100
AcDbEntity
8
0
100
AcDbSpline
62
7
6
CONTINUOUS
70
0
71
3
72
10
73
6
74
4
42
0.0000001000
43
0.0000001000
44
0.0000000001
12
1.7516815061
22
-2.8980481344
32
0.0000000000
13
0.0000000000
23
-3.3863064078
33
0.0000000000
40
0.0000000000
40
0.0000000000
40
0.0000000000
40
0.0000000000
40
0.2444349366
40
0.5684766276
40
1.0000000000
40
1.0000000000
40
1.0000000000
40
1.0000000000
10
-282.0476021994
20
-108.7182602712
30
0.0000000000
10
-281.9048781468
20
-108.9543883419
30
0.0000000000
10
-281.6585292279
20
-109.5550286389
30
0.0000000000
10
-281.4491269866
20
-110.6686449655
30
0.0000000000
10
-281.4117047786
20
-111.5232476571
30
0.0000000000
10
-281.4117047786
20
-112.0103377775
30
0.0000000000
11
-282.0476021994
21
-108.7182602712
31
0.0000000000
11
-281.7165641939
21
-109.4769126470
31
0.0000000000
11
-281.4938519609
21
-110.5513782480
31
0.0000000000
11
-281.4117047786
21
-112.0103377775
31
0.0000000000
0
SPLINE
5
3A4
100
AcDbEntity
8
0
100
AcDbSpline
62
7
6
CONTINUOUS
70
0
71
3
72
10
73
6
74
4
42
0.0000001000
43
0.0000001000
44
0.0000000001
12
1.8340875188
22
0.9170437594
32
0.0000000000
13
1.0607278077
23
-1.7549082031
33
0.0000000000
40
0.0000000000
40
0.0000000000
40
0.0000000000
40
0.0000000000
40
0.3504226780
40
0.6399486150
40
1.0000000000
40
1.0000000000
40
1.0000000000
40
1.0000000000
10
-283.8215322910
20
-108.2342827732
30
0.0000000000
10
-283.6072970043
20
-108.1271651298
30
0.0000000000
10
-283.1777727828
20
-107.9727952509
30
0.0000000000
10
-282.4734732559
20
-108.1433160218
30
0.0000000000
10
-282.1749077048
20
-108.5076412282
30
0.0000000000
10
-282.0476021994
20
-108.7182602712
30
0.0000000000
11
-283.8215322910
21
-108.2342827732
31
0.0000000000
11
-283.1305457114
21
-108.0371126054
31
0.0000000000
11
-282.5547178217
21
-108.1816622815
31
0.0000000000
11
-282.0476021994
21
-108.7182602712
31
0.0000000000
0
SPLINE
5
3A5
100
AcDbEntity
8
0
100
AcDbSpline
62
7
6
CONTINUOUS
70
0
71
3
72
10
73
6
74
4
42
0.0000001000
43
0.0000001000
44
0.0000000001
12
0.7415383007
22
1.1937060539
32
0.0000000000
13
1.2569210618
23
0.6284605309
33
0.0000000000
40
0.0000000000
40
0.0000000000
40
0.0000000000
40
0.0000000000
40
0.3660963603
40
0.6894343387
40
1.0000000000
40
1.0000000000
40
1.0000000000
40
1.0000000000
10
-284.8170391757
20
-109.2035787549
30
0.0000000000
10
-284.7265476847
20
-109.0579082744
30
0.0000000000
10
-284.5372379048
20
-108.7943216210
30
0.0000000000
10
-284.2023743523
20
-108.4635404078
30
0.0000000000
10
-283.9516511313
20
-108.2993421933
30
0.0000000000
10
-283.8215322910
20
-108.2342827732
30
0.0000000000
11
-284.8170391757
21
-109.2035787549
31
0.0000000000
11
-284.5137792187
21
-108.7879938802
31
0.0000000000
11
-284.1880930889
21
-108.4711497150
31
0.0000000000
11
-283.8215322910
21
-108.2342827732
31
0.0000000000
0
SPLINE
5
3A6
100
AcDbEntity
8
0
100
AcDbSpline
62
7
6
CONTINUOUS
70
0
71
3
72
10
73
6
74
4
42
0.0000001000
43
0.0000001000
44
0.0000000001
12
0.3393650651
22
0.9404972808
32
0.0000000000
13
0.5276017713
23
0.8493174633
33
0.0000000000
40
0.0000000000
40
0.0000000000
40
0.0000000000
40
0.0000000000
40
0.3209336150
40
0.6506259768
40
1.0000000000
40
1.0000000000
40
1.0000000000
40
1.0000000000
10
-285.2549894911
20
-110.1005896861
30
0.0000000000
10
-285.2186849387
20
-109.9999772887
30
0.0000000000
10
-285.1376946182
20
-109.7985897976
30
0.0000000000
10
-284.9916349954
20
-109.4987420674
30
0.0000000000
10
-284.8784826269
20
-109.3024885746
30
0.0000000000
10
-284.8170391757
20
-109.2035787549
30
0.0000000000
11
-285.2549894911
21
-110.1005896861
31
0.0000000000
11
-285.1353688128
21
-109.8028334626
31
0.0000000000
11
-284.9912171338
21
-109.5063791678
31
0.0000000000
11
-284.8170391757
21
-109.2035787549
31
0.0000000000
0
SPLINE
5
3A7
100
AcDbEntity
8
0
100
AcDbSpline
62
7
6
CONTINUOUS
70
0
71
3
72
10
73
6
74
4
42
0.0000001000
43
0.0000001000
44
0.0000000001
12
0.6572140929
22
5.1037054833
32
0.0000000000
13
1.7465793613
23
4.8403719443
33
0.0000000000
40
0.0000000000
40
0.0000000000
40
0.0000000000
40
0.0000000000
40
0.4707795230
40
0.7933509898
40
1.0000000000
40
1.0000000000
40
1.0000000000
40
1.0000000000
10
-286.1986690037
20
-115.1528341483
30
0.0000000000
10
-286.0955346913
20
-114.3519274705
30
0.0000000000
10
-285.9080957596
20
-113.0034541780
30
0.0000000000
10
-285.6001498103
20
-111.3163106347
30
0.0000000000
10
-285.3752991232
20
-110.4340090433
30
0.0000000000
10
-285.2549894911
20
-110.1005896861
30
0.0000000000
11
-286.1986690037
21
-115.1528341483
31
0.0000000000
11
-285.8530539840
21
-112.7550551774
31
0.0000000000
11
-285.5414627198
21
-111.1246594918
31
0.0000000000
11
-285.2549894911
21
-110.1005896861
31
0.0000000000
0
SPLINE
5
3A8
100
AcDbEntity
8
0
100
AcDbSpline
62
7
6
CONTINUOUS
70
0
71
3
72
10
73
6
74
4
42
0.0000001000
43
0.0000001000
44
0.0000000001
12
2.1830490987
22
5.5936524174
32
0.0000000000
13
0.7668857281
23
5.9553788304
33
0.0000000000
40
0.0000000000
40
0.0000000000
40
0.0000000000
40
0.0000000000
40
0.2199500873
40
0.5438144980
40
1.0000000000
40
1.0000000000
40
1.0000000000
40
1.0000000000
10
-287.3905849436
20
-121.0275292306
30
0.0000000000
10
-287.2305309970
20
-120.6174211182
30
0.0000000000
10
-286.9292402980
20
-119.5679511417
30
0.0000000000
10
-286.5378148089
20
-117.6046392300
30
0.0000000000
10
-286.3152830539
20
-116.0584199754
30
0.0000000000
10
-286.1986690037
20
-115.1528341483
30
0.0000000000
11
-287.3905849436
21
-121.0275292306
31
0.0000000000
11
-287.0012777474
21
-119.7655097084
31
0.0000000000
11
-286.6038814916
21
-117.8618863041
31
0.0000000000
11
-286.1986690037
21
-115.1528341483
31
0.0000000000
0
SPLINE
5
3A9
100
AcDbEntity
8
0
100
AcDbSpline
62
7
6
CONTINUOUS
70
0
71
3
72
10
73
6
74
4
42
0.0000001000
43
0.0000001000
44
0.0000000001
12
0.6762129927
22
1.0958990684
32
0.0000000000
13
0.4681758522
23
1.1996125004
33
0.0000000000
40
0.0000000000
40
0.0000000000
40
0.0000000000
40
0.0000000000
40
0.3471010258
40
0.6777145629
40
1.0000000000
40
1.0000000000
40
1.0000000000
40
1.0000000000
10
-287.9677424466
20
-122.1769138100
30
0.0000000000
10
-287.8895043722
20
-122.0501179131
30
0.0000000000
10
-287.7435424713
20
-121.7982507779
30
0.0000000000
10
-287.5509368648
20
-121.4143736118
30
0.0000000000
10
-287.4408803634
20
-121.1564017770
30
0.0000000000
10
-287.3905849436
20
-121.0275292306
30
0.0000000000
11
-287.9677424466
21
-122.1769138100
31
0.0000000000
11
-287.7440390463
21
-121.7899482422
31
0.0000000000
11
-287.5533574424
21
-121.4092948337
31
0.0000000000
11
-287.3905849436
21
-121.0275292306
31
0.0000000000
0
SPLINE
5
3AA
100
AcDbEntity
8
0
100
AcDbSpline
62
7
6
CONTINUOUS
70
0
71
3
72
10
73
6
74
4
42
0.0000001000
43
0.0000001000
44
0.0000000001
12
2.5603373355
22
1.2801686677
32
0.0000000000
13
1.5031750342
23
2.4361083526
33
0.0000000000
40
0.0000000000
40
0.0000000000
40
0.0000000000
40
0.0000000000
40
0.3449874977
40
0.6690497356
40
1.0000000000
40
1.0000000000
40
1.0000000000
40
1.0000000000
10
-290.0333190063
20
-124.1100822025
30
0.0000000000
10
-289.7388908827
20
-123.9628681408
30
0.0000000000
10
-289.1950552388
20
-123.6181976272
30
0.0000000000
10
-288.5029145510
20
-122.9540588391
30
0.0000000000
10
-288.1335678383
20
-122.4456573778
30
0.0000000000
10
-287.9677424466
20
-122.1769138100
30
0.0000000000
11
-290.0333190063
21
-124.1100822025
31
0.0000000000
11
-289.1995186252
21
-123.5809167996
31
0.0000000000
11
-288.5282461391
21
-122.9406716921
31
0.0000000000
11
-287.9677424466
21
-122.1769138100
31
0.0000000000
0
SPLINE
5
3AB
100
AcDbEntity
8
0
100
AcDbSpline
62
7
6
CONTINUOUS
70
0
71
3
72
10
73
6
74
4
42
0.0000001000
43
0.0000001000
44
0.0000000001
12
2.2239187116
22
-2.5949740100
32
0.0000000000
13
3.0567570461
23
1.5283785230
33
0.0000000000
40
0.0000000000
40
0.0000000000
40
0.0000000000
40
0.0000000000
40
0.3258396788
40
0.6220701944
40
1.0000000000
40
1.0000000000
40
1.0000000000
40
1.0000000000
10
-293.1632147311
20
-123.7136854881
30
0.0000000000
10
-292.9216677449
20
-123.9955339874
30
0.0000000000
10
-292.3384195508
20
-124.4634946893
30
0.0000000000
10
-291.1561229739
20
-124.5795974953
30
0.0000000000
10
-290.4183988717
20
-124.3026221352
30
0.0000000000
10
-290.0333190063
20
-124.1100822025
30
0.0000000000
11
-293.1632147311
21
-123.7136854881
31
0.0000000000
11
-292.2688934496
21
-124.3771921973
31
0.0000000000
11
-291.2641717382
21
-124.5015214805
31
0.0000000000
11
-290.0333190063
21
-124.1100822025
31
0.0000000000
0
SPLINE
5
3AC
100
AcDbEntity
8
0
100
AcDbSpline
62
7
6
CONTINUOUS
70
0
71
3
72
10
73
6
74
4
42
0.0000001000
43
0.0000001000
44
0.0000000001
12
0.0000000000
22
-5.0935599921
32
0.0000000000
13
3.3145487130
23
-3.8675729110
33
0.0000000000
40
0.0000000000
40
0.0000000000
40
0.0000000000
40
0.0000000000
40
0.4473068651
40
0.7662470778
40
1.0000000000
40
1.0000000000
40
1.0000000000
40
1.0000000000
10
-294.3537266980
20
-118.8482189487
30
0.0000000000
10
-294.3537266980
20
-119.6076803995
30
0.0000000000
10
-294.2844469220
20
-120.9129026092
30
0.0000000000
10
-293.8862074781
20
-122.5754250229
30
0.0000000000
10
-293.4214765469
20
-123.4123333315
30
0.0000000000
10
-293.1632147311
20
-123.7136854881
30
0.0000000000
11
-294.3537266980
21
-118.8482189487
31
0.0000000000
11
-294.1924610542
21
-121.1208888873
31
0.0000000000
11
-293.7708206795
21
-122.6897589274
31
0.0000000000
11
-293.1632147311
21
-123.7136854881
31
0.0000000000
0
SPLINE
5
3AD
100
AcDbEntity
8
0
100
AcDbSpline
62
7
6
CONTINUOUS
70
0
71
3
72
10
73
6
74
4
42
0.0000001000
43
0.0000001000
44
0.0000000001
12
-0.9962193377
22
-4.1021384392
32
0.0000000000
13
0.0000000000
23
-4.2213733243
33
0.0000000000
40
0.0000000000
40
0.0000000000
40
0.0000000000
40
0.0000000000
40
0.3008954935
40
0.6331241429
40
1.0000000000
40
1.0000000000
40
1.0000000000
40
1.0000000000
10
-293.8791581102
20
-114.6624684301
30
0.0000000000
10
-293.9790774133
20
-115.0739067534
30
0.0000000000
10
-294.1528679525
20
-115.9488321442
30
0.0000000000
10
-294.3167155927
20
-117.3477138074
30
0.0000000000
10
-294.3537266980
20
-118.3319789632
30
0.0000000000
10
-294.3537266980
20
-118.8482189487
30
0.0000000000
11
-293.8791581102
21
-114.6624684301
31
0.0000000000
11
-294.1284440398
21
-115.9079582031
31
0.0000000000
11
-294.2935285478
21
-117.3006693739
31
0.0000000000
11
-294.3537266980
21
-118.8482189487
31
0.0000000000
0
SPLINE
5
3AE
100
AcDbEntity
8
0
100
AcDbSpline
62
7
6
CONTINUOUS
70
0
71
3
72
10
73
6
74
4
42
0.0000001000
43
0.0000001000
44
0.0000000001
12
-2.0404763351
22
-3.1370932923
32
0.0000000000
13
-0.8831636409
23
-3.6366083075
33
0.0000000000
40
0.0000000000
40
0.0000000000
40
0.0000000000
40
0.0000000000
40
0.3075482695
40
0.6349036344
40
1.0000000000
40
1.0000000000
40
1.0000000000
40
1.0000000000
10
-292.4335457827
20
-111.2280228739
30
0.0000000000
10
-292.6427274379
20
-111.5496254117
30
0.0000000000
10
-293.0354858727
20
-112.2398096253
30
0.0000000000
10
-293.5246625122
20
-113.3899588310
30
0.0000000000
10
-293.7716781650
20
-114.2198976047
30
0.0000000000
10
-293.8791581102
20
-114.6624684301
30
0.0000000000
11
-292.4335457827
21
-111.2280228739
31
0.0000000000
11
-293.0039502467
21
-112.2276753946
31
0.0000000000
11
-293.4857029004
21
-113.3540415636
31
0.0000000000
11
-293.8791581102
21
-114.6624684301
31
0.0000000000
0
SPLINE
5
3AF
100
AcDbEntity
8
0
100
AcDbSpline
62
7
6
CONTINUOUS
70
0
71
3
72
10
73
6
74
4
42
0.0000001000
43
0.0000001000
44
0.0000000001
12
-3.2309524735
22
-1.9268518762
32
0.0000000000
13
-2.0511509058
23
-3.1535047171
33
0.0000000000
40
0.0000000000
40
0.0000000000
40
0.0000000000
40
0.0000000000
40
0.3783125821
40
0.7056204302
40
1.0000000000
40
1.0000000000
40
1.0000000000
40
1.0000000000
10
-289.7068882928
20
-108.6794217096
30
0.0000000000
10
-290.1143249504
20
-108.9224058125
30
0.0000000000
10
-290.8453413065
20
-109.4281605251
30
0.0000000000
10
-291.7563588961
20
-110.2966775737
30
0.0000000000
10
-292.2322734756
20
-110.9185804199
30
0.0000000000
10
-292.4335457827
20
-111.2280228739
30
0.0000000000
11
-289.7068882928
21
-108.6794217096
31
0.0000000000
11
-290.8728335108
21
-109.4955006803
31
0.0000000000
11
-291.7612848177
21
-110.3479934650
31
0.0000000000
11
-292.4335457827
21
-111.2280228739
31
0.0000000000
0
SPLINE
5
3B0
100
AcDbEntity
8
0
100
AcDbSpline
62
7
6
CONTINUOUS
70
0
71
3
72
10
73
6
74
4
42
0.0000001000
43
0.0000001000
44
0.0000000001
12
1.3000560687
22
3.1832928993
32
0.0000000000
13
2.8834203900
23
1.8733356132
33
0.0000000000
40
0.0000000000
40
0.0000000000
40
0.0000000000
40
0.0000000000
40
0.3045858199
40
0.6250358981
40
1.0000000000
40
1.0000000000
40
1.0000000000
40
1.0000000000
10
-291.9024419250
20
-114.2112649059
30
0.0000000000
10
-291.7704490438
20
-113.8880696134
30
0.0000000000
10
-291.4345555139
20
-113.2489211017
30
0.0000000000
10
-290.6988744696
20
-112.3600771748
30
0.0000000000
10
-290.0672813384
20
-111.8626373056
30
0.0000000000
10
-289.7068882928
20
-111.6284927703
30
0.0000000000
11
-291.9024419250
21
-114.2112649059
31
0.0000000000
11
-291.4136504045
21
-113.2849935040
31
0.0000000000
11
-290.7135005958
21
-112.4341558311
31
0.0000000000
11
-289.7068882928
21
-111.6284927703
31
0.0000000000
0
SPLINE
5
3B1
100
AcDbEntity
8
0
100
AcDbSpline
62
7
6
CONTINUOUS
70
0
71
3
72
10
73
6
74
4
42
0.0000001000
43
0.0000001000
44
0.0000000001
12
0.0000000000
22
3.8808585452
32
0.0000000000
13
1.4672931099
23
3.5927863808
33
0.0000000000
40
0.0000000000
40
0.0000000000
40
0.0000000000
40
0.0000000000
40
0.3953999411
40
0.7238096444
40
1.0000000000
40
1.0000000000
40
1.0000000000
40
1.0000000000
10
-292.5487567219
20
-118.0162863771
30
0.0000000000
10
-292.5487567219
20
-117.5047892970
30
0.0000000000
10
-292.5018979571
20
-116.5670416210
30
0.0000000000
10
-292.2772587378
20
-115.2897154152
30
0.0000000000
10
-292.0375259936
20
-114.5420292220
30
0.0000000000
10
-291.9024419250
20
-114.2112649059
30
0.0000000000
11
-292.5487567219
21
-118.0162863771
31
0.0000000000
11
-292.4630230304
21
-116.4841920260
31
0.0000000000
11
-292.2348678521
21
-115.2302681680
31
0.0000000000
11
-291.9024419250
21
-114.2112649059
31
0.0000000000
0
SPLINE
5
3B2
100
AcDbEntity
8
0
100
AcDbSpline
62
7
6
CONTINUOUS
70
0
71
3
72
10
73
6
74
4
42
0.0000001000
43
0.0000001000
44
0.0000000001
12
-1.6818153022
22
2.4741482700
32
0.0000000000
13
-0.0000000000
23
2.9916404150
33
0.0000000000
40
0.0000000000
40
0.0000000000
40
0.0000000000
40
0.0000000000
40
0.2431358867
40
0.5667567941
40
1.0000000000
40
1.0000000000
40
1.0000000000
40
1.0000000000
10
-291.9312069616
20
-120.9072023995
30
0.0000000000
10
-292.0675101799
20
-120.7066843217
30
0.0000000000
10
-292.3058918213
20
-120.1855940830
30
0.0000000000
10
-292.5112912803
20
-119.2049686231
30
0.0000000000
10
-292.5487567219
20
-118.4483223385
30
0.0000000000
10
-292.5487567219
20
-118.0162863771
30
0.0000000000
11
-291.9312069616
21
-120.9072023995
31
0.0000000000
11
-292.2495923046
21
-120.2532105228
31
0.0000000000
11
-292.4672025734
21
-119.3098259275
31
0.0000000000
11
-292.5487567219
21
-118.0162863771
31
0.0000000000
0
SPLINE
5
3B3
100
AcDbEntity
8
0
100
AcDbSpline
62
7
6
CONTINUOUS
70
0
71
3
72
10
73
6
74
4
42
0.0000001000
43
0.0000001000
44
0.0000000001
12
-1.6963800727
22
-0.8481900364
32
0.0000000000
13
-1.0662206187
23
1.5685360312
33
0.0000000000
40
0.0000000000
40
0.0000000000
40
0.0000000000
40
0.0000000000
40
0.3630693485
40
0.6539060517
40
1.0000000000
40
1.0000000000
40
1.0000000000
40
1.0000000000
10
-290.2541398326
20
-121.2714204710
30
0.0000000000
10
-290.4594410352
20
-121.3740710723
30
0.0000000000
10
-290.8611362220
20
-121.5231578991
30
0.0000000000
10
-291.5167379939
20
-121.4000070762
30
0.0000000000
10
-291.8082027937
20
-121.0881560089
30
0.0000000000
10
-291.9312069616
20
-120.9072023995
30
0.0000000000
11
-290.2541398326
21
-121.2714204710
31
0.0000000000
11
-290.9138345228
21
-121.4688400329
31
0.0000000000
11
-291.4542172263
21
-121.3581446341
31
0.0000000000
11
-291.9312069616
21
-120.9072023995
31
0.0000000000
0
SPLINE
5
3B4
100
AcDbEntity
8
0
100
AcDbSpline
62
7
6
CONTINUOUS
70
0
71
3
72
10
73
6
74
4
42
0.0000001000
43
0.0000001000
44
0.0000000001
12
-0.7062524552
22
-1.0717234174
32
0.0000000000
13
-1.1480012592
23
-0.5740006296
33
0.0000000000
40
0.0000000000
40
0.0000000000
40
0.0000000000
40
0.0000000000
40
0.3227384010
40
0.6490683755
40
1.0000000000
40
1.0000000000
40
1.0000000000
40
1.0000000000
10
-289.3036500055
20
-120.4293053459
30
0.0000000000
10
-289.3796282682
20
-120.5446007799
30
0.0000000000
10
-289.5509476776
20
-120.7651030205
30
0.0000000000
10
-289.8706992128
20
-121.0526628191
30
0.0000000000
10
-290.1198498503
20
-121.2042754799
30
0.0000000000
10
-290.2541398326
20
-121.2714204710
30
0.0000000000
11
-289.3036500055
21
-120.4293053459
31
0.0000000000
11
-289.5589550575
21
-120.7555122313
31
0.0000000000
11
-289.8704003370
21
-121.0355725494
31
0.0000000000
11
-290.2541398326
21
-121.2714204710
31
0.0000000000
0
SPLINE
5
3B5
100
AcDbEntity
8
0
100
AcDbSpline
62
7
6
CONTINUOUS
70
0
71
3
72
10
73
6
74
4
42
0.0000001000
43
0.0000001000
44
0.0000000001
12
-0.6635804024
22
-5.3334803856
32
0.0000000000
13
-2.0442009940
23
-4.9706734222
33
0.0000000000
40
0.0000000000
40
0.0000000000
40
0.0000000000
40
0.0000000000
40
0.4860442754
40
0.8063566586
40
1.0000000000
40
1.0000000000
40
1.0000000000
40
1.0000000000
10
-287.9895755524
20
-114.5961163142
30
0.0000000000
10
-288.0970853711
20
-115.4602188506
30
0.0000000000
10
-288.2925039288
20
-116.8926793083
30
0.0000000000
10
-288.6231198103
20
-118.6525148644
30
0.0000000000
10
-288.8644727593
20
-119.5456436909
30
0.0000000000
10
-288.9964213963
20
-119.8664896277
30
0.0000000000
11
-287.9895755524
21
-114.5961163142
31
0.0000000000
11
-288.3585287000
21
-117.1822248900
31
0.0000000000
11
-288.6927434916
21
-118.8710235300
31
0.0000000000
11
-288.9964213963
21
-119.8664896277
31
0.0000000000
0
SPLINE
5
3B6
100
AcDbEntity
8
0
100
AcDbSpline
62
7
6
CONTINUOUS
70
0
71
3
72
10
73
6
74
4
42
0.0000001000
43
0.0000001000
44
0.0000000001
12
-2.1007742084
22
-5.5454154547
32
0.0000000000
13
-0.7321529252
23
-5.8846271703
33
0.0000000000
40
0.0000000000
40
0.0000000000
40
0.0000000000
40
0.0000000000
40
0.2265796270
40
0.5510341228
40
1.0000000000
40
1.0000000000
40
1.0000000000
40
1.0000000000
10
-286.8264846386
20
-108.7914957890
30
0.0000000000
10
-286.9851488508
20
-109.2103218441
30
0.0000000000
10
-287.2844223072
20
-110.2607595763
30
0.0000000000
10
-287.6671339358
20
-112.2007179780
30
0.0000000000
10
-287.8800049923
20
-113.7154507145
30
0.0000000000
10
-287.9895755524
20
-114.5961163142
30
0.0000000000
11
-286.8264846386
21
-108.7914957890
31
0.0000000000
11
-287.2163211584
21
-110.0773160945
31
0.0000000000
11
-287.6048530439
21
-111.9616928389
31
0.0000000000
11
-287.9895755524
21
-114.5961163142
31
0.0000000000
0
SPLINE
5
3B7
100
AcDbEntity
8
0
100
AcDbSpline
62
7
6
CONTINUOUS
70
0
71
3
72
10
73
6
74
4
42
0.0000001000
43
0.0000001000
44
0.0000000001
12
-0.8901006915
22
-1.4146402614
32
0.0000000000
13
-0.5921040761
23
-1.5629776305
33
0.0000000000
40
0.0000000000
40
0.0000000000
40
0.0000000000
40
0.0000000000
40
0.3273648342
40
0.6568911630
40
1.0000000000
40
1.0000000000
40
1.0000000000
40
1.0000000000
10
-286.0850052593
20
-107.2963795782
30
0.0000000000
10
-286.1821344811
20
-107.4507474031
30
0.0000000000
10
-286.3667767697
20
-107.7671049987
30
0.0000000000
10
-286.6147513990
20
-108.2664189660
30
0.0000000000
10
-286.7587659250
20
-108.6127386433
30
0.0000000000
10
-286.8264846386
20
-108.7914957890
30
0.0000000000
11
-286.0850052593
21
-107.2963795782
31
0.0000000000
11
-286.3607674445
21
-107.7689542463
31
0.0000000000
11
-286.6059154942
21
-108.2621483375
31
0.0000000000
11
-286.8264846386
21
-108.7914957890
31
0.0000000000
0
SPLINE
5
3B8
100
AcDbEntity
8
0
100
AcDbSpline
62
7
6
CONTINUOUS
70
0
71
3
72
10
73
6
74
4
42
0.0000001000
43
0.0000001000
44
0.0000000001
12
-2.5426876171
22
-1.2713438086
32
0.0000000000
13
-1.5139581816
23
-2.4061392358
33
0.0000000000
40
0.0000000000
40
0.0000000000
40
0.0000000000
40
0.0000000000
40
0.3463815069
40
0.6713202359
40
1.0000000000
40
1.0000000000
40
1.0000000000
40
1.0000000000
10
-284.0231514346
20
-105.3860200454
30
0.0000000000
10
-284.3167314241
20
-105.5328100402
30
0.0000000000
10
-284.8586865265
20
-105.8759398476
30
0.0000000000
10
-285.5489366934
20
-106.5321405840
30
0.0000000000
10
-285.9191361200
20
-107.0327631527
30
0.0000000000
10
-286.0850052593
20
-107.2963795782
30
0.0000000000
11
-284.0231514346
21
-105.3860200454
31
0.0000000000
11
-284.8550782258
21
-105.9128278179
31
0.0000000000
11
-285.5263452611
21
-106.5474104687
31
0.0000000000
11
-286.0850052593
21
-107.2963795782
31
0.0000000000
0
SPLINE
5
3B9
100
AcDbEntity
8
0
100
AcDbSpline
62
7
6
CONTINUOUS
70
0
71
3
72
10
73
6
74
4
42
0.0000001000
43
0.0000001000
44
0.0000000001
12
-2.2577114900
22
2.6743974442
32
0.0000000000
13
-3.1304520903
23
-1.5652260451
33
0.0000000000
40
0.0000000000
40
0.0000000000
40
0.0000000000
40
0.0000000000
40
0.3370129078
40
0.6340109568
40
1.0000000000
40
1.0000000000
40
1.0000000000
40
1.0000000000
10
-280.8329212359
20
-105.8616440511
30
0.0000000000
10
-281.0865472073
20
-105.5612085647
30
0.0000000000
10
-281.6856557485
20
-105.0625566885
30
0.0000000000
10
-282.8951766689
20
-104.9198452332
30
0.0000000000
10
-283.6412477128
20
-105.1950681845
30
0.0000000000
10
-284.0231514346
20
-105.3860200454
30
0.0000000000
11
-280.8329212359
21
-105.8616440511
31
0.0000000000
11
-281.7708634564
21
-105.1464147699
31
0.0000000000
11
-282.8005276955
21
-105.0039090855
31
0.0000000000
11
-284.0231514346
21
-105.3860200454
31
0.0000000000
0
SPLINE
5
3BA
100
AcDbEntity
8
0
100
AcDbSpline
62
7
6
CONTINUOUS
70
0
71
3
72
10
73
6
74
4
42
0.0000001000
43
0.0000001000
44
0.0000000001
12
0.0000000000
22
5.4061742895
32
0.0000000000
13
-3.4873570776
23
4.1309879038
33
0.0000000000
40
0.0000000000
40
0.0000000000
40
0.0000000000
40
0.0000000000
40
0.4496808131
40
0.7685588544
40
1.0000000000
40
1.0000000000
40
1.0000000000
40
1.0000000000
10
-279.6067343546
20
-111.0373007685
30
0.0000000000
10
-279.6067343546
20
-110.2269498184
30
0.0000000000
10
-279.6754438185
20
-108.8378114923
30
0.0000000000
10
-280.0814146645
20
-107.0697836334
30
0.0000000000
10
-280.5638819302
20
-106.1803375754
30
0.0000000000
10
-280.8329212359
20
-105.8616440511
30
0.0000000000
11
-279.6067343546
21
-111.0373007685
31
0.0000000000
11
-279.7704293830
21
-108.6117653845
31
0.0000000000
11
-280.2038895618
21
-106.9432394223
31
0.0000000000
11
-280.8329212359
21
-105.8616440511
31
0.0000000000
0
SPLINE
5
3BB
100
AcDbEntity
8
0
100
AcDbSpline
62
7
6
CONTINUOUS
70
0
71
3
72
13
73
9
74
7
42
0.0000001000
43
0.0000001000
44
0.0000000001
12
11.2836308091
22
6.2071611491
32
0.0000000000
13
-0.0000000000
23
12.8782442036
33
0.0000000000
40
0.0000000000
40
0.0000000000
40
0.0000000000
40
0.0000000000
40
0.1464207446
40
0.2792100327
40
0.4140725375
40
0.5685252781
40
0.7591145343
40
1.0000000000
40
1.0000000000
40
1.0000000000
40
1.0000000000
10
-284.6760132830
20
-122.1933906686
30
0.0000000000
10
-284.1252940748
20
-121.8904382829
30
0.0000000000
10
-283.1316530889
20
-121.1994871470
30
0.0000000000
10
-281.9170057497
20
-119.8857574696
30
0.0000000000
10
-280.9647214228
20
-118.3319016244
30
0.0000000000
10
-280.2176993367
20
-116.4010675930
30
0.0000000000
10
-279.7090887300
20
-113.9275123487
30
0.0000000000
10
-279.6067343546
20
-112.0713613858
30
0.0000000000
10
-279.6067343546
20
-111.0373007685
30
0.0000000000
11
-284.6760132830
21
-122.1933906686
31
0.0000000000
11
-283.1311586272
21
-121.1121551528
31
0.0000000000
11
-281.9677132425
21
-119.8588345654
31
0.0000000000
11
-281.0528878632
21
-118.3825073939
31
0.0000000000
11
-280.3215557178
21
-116.5327525498
31
0.0000000000
11
-279.8058547603
21
-114.1330855326
31
0.0000000000
11
-279.6067343546
21
-111.0373007685
31
0.0000000000
0
ENDSEC
0
SECTION
2
OBJECTS
0
DICTIONARY
5
3BC
100
AcDbDictionary
3
ACAD_GROUP
350
3BD
3
ACAD_MLINESTYLE
350
3BE
0
DICTIONARY
5
3BD
102
{ACAD_REACTORS
330
3BC
102
}
100
AcDbDictionary
0
DICTIONARY
5
3BE
102
{ACAD_REACTORS
330
3BC
102
}
100
AcDbDictionary
3
STANDARD
350
3BF
0
MLINESTYLE
5
3BF
102
{ACAD_REACTORS
330
3BE
102
}
100
AcDbMlineStyle
2
STANDARD
70
0
3

62
256
51
90.0
52
90.0
71
2
49
0.5
62
256
6
BYLAYER
49
-0.5
62
256
6
BYLAYER
0
ENDSEC
0
EOF
