  0
SECTION
  2
HEADER
  9
$ACADVER
  1
AC1024
  9
$DWGCODEPAGE
  3
ANSI_1252
  9
$EXTMAX
 10
420.0
 20
297.0
 30
0.0
  9
$EXTMIN
 10
0.0
 20
0.0
 30
0.0
  9
$LIMMIN
 10
0.0
 20
0.0
  9
$LIMMAX
 10
420.0
 20
297.0
  9
$VIEWCTR
 10
210.0
 20
148.5
  9
$VIEWSIZE
 40
297.0
  9
$CLAYER
  8
0
  9
$LTSCALE
 40
23.1
  9
$CELTYPE
  6
BYLAYER
  9
$DIMSCALE
 40
1.0
  9
$DIMASZ
 40
3.0
  9
$DIMEXO
 40
0.5
  9
$DIMDLI
 40
15.96
  9
$DIMEXE
 40
1.5
  9
$DIMCEN
 40
3.78
  9
$DIMLFAC
 40
1.0
  9
$DIMBLK
  1
_FILLED
  9
$DIMALT
 70
0
  9
$DIMALTF
 40
0.0393700787
  9
$DIMTXT
 40
3.0
  9
$DIMTOL
 70
1
  9
$DIMLIM
 70
0
  9
$DIMTFAC
 40
1.0
  9
$DIMTP
 40
0.01
  9
$DIMTM
 40
0.01
  9
$DIMGAP
 40
0.625
  9
$DIMDSEP
 70
44
  9
$AUNITS
 70
0
  9
$PDMODE
 70
3
  9
$PDSIZE
 40
3.0
  9
$HANDSEED
  5
2C6
  9
$TILEMODE
 70
1
  9
$MEASUREMENT
 70
1
  9
$INSUNITS
 70
4
  0
ENDSEC
  0
SECTION
  2
CLASSES
  0
CLASS
  1
ACDBDICTIONARYWDFLT
  2
AcDbDictionaryWithDefault
  3
AutoCAD 2000
 90
0
 91
1
280
0
281
0
  0
CLASS
  1
ACDBPLACEHOLDER
  2
AcDbPlaceHolder
  3
AutoCAD 2000
 90
0
 91
1
280
0
281
0
  0
CLASS
  1
LAYOUT
  2
AcDbLayout
  3
AutoCAD 2000
 90
0
 91
0
280
0
281
0
  0
ENDSEC
  0
SECTION
  2
TABLES
  0
TABLE
  2
VPORT
  5
8
100
AcDbSymbolTable
 70
2
  0
VPORT
  5
1F4
100
AcDbSymbolTableRecord
100
AcDbViewportTableRecord
  2
*ACTIVE
 70
0
 10
0.0
 20
0.0
 11
1.0
 21
1.0
 12
210.0
 22
148.5
 13
0.0
 23
0.0
 14
1.0
 24
1.0
 15
0.0
 25
0.0
 16
0.0
 26
0.0
 36
1.0
 17
0.0
 27
0.0
 37
0.0
 40
297.0
 41
1.4141414141
 42
50.0
 43
0.0
 44
0.0
 50
0.0
 51
0.0
 71
0
 72
100
 73
1
 74
1
 75
0
 76
0
 77
0
 78
0
  0
ENDTAB
  0
TABLE
  2
LTYPE
  5
5
100
AcDbSymbolTable
 70
6
  0
LTYPE
  5
14
100
AcDbSymbolTableRecord
100
AcDbLinetypeTableRecord
  2
BYBLOCK
 70
0
  3

 72
65
 73
0
 40
0.0
  0
LTYPE
  5
15
100
AcDbSymbolTableRecord
100
AcDbLinetypeTableRecord
  2
BYLAYER
 70
0
  3

 72
65
 73
0
 40
0.0
  0
LTYPE
  5
16
100
AcDbSymbolTableRecord
100
AcDbLinetypeTableRecord
  2
CONTINUOUS
 70
64
  3
Solid line
 72
65
 73
0
 40
0.0
  0
LTYPE
  5
1F5
100
AcDbSymbolTableRecord
100
AcDbLinetypeTableRecord
  2
CENTER
 70
64
  3
____ _ ____ _ ____ _ ____ _ ____ _ ____ _ ____
 72
65
 73
4
 40
0.6
 49
0.375
 74
0
 49
-0.075
 74
0
 49
0.075
 74
0
 49
-0.075
 74
0
  0
LTYPE
  5
1F6
100
AcDbSymbolTableRecord
100
AcDbLinetypeTableRecord
  2
HIDDEN
 70
64
  3
- - - - - - - - - - - - - - - - - - - -
 72
65
 73
2
 40
0.2
 49
0.1
 74
0
 49
-0.1
 74
0
  0
LTYPE
  5
1F7
100
AcDbSymbolTableRecord
100
AcDbLinetypeTableRecord
  2
PHANTOM
 70
64
  3
_____ _ _ _____ _ _ _____ _ _ _____
 72
65
 73
6
 40
0.8
 49
0.45
 74
0
 49
-0.05
 74
0
 49
0.1
 74
0
 49
-0.05
 74
0
 49
0.1
 74
0
 49
-0.05
 74
0
  0
LTYPE
  5
1F8
100
AcDbSymbolTableRecord
100
AcDbLinetypeTableRecord
  2
DOT
 70
64
  3
. . . . . . . . . . . . . . . . . . . .
 72
65
 73
2
 40
0.2
 49
0.1
 74
0
 49
-0.1
 74
0
  0
LTYPE
  5
1F9
100
AcDbSymbolTableRecord
100
AcDbLinetypeTableRecord
  2
DASHED
 70
64
  3
- - - - - - - - - - - - - - - - - - - -
 72
65
 73
2
 40
0.2
 49
0.1
 74
0
 49
-0.1
 74
0
  0
ENDTAB
  0
TABLE
  2
LAYER
  5
2
100
AcDbSymbolTable
 70
36
  0
LAYER
  5
10
100
AcDbSymbolTableRecord
100
AcDbLayerTableRecord
  2
0
 70
0
 62
7
  6
CONTINUOUS
370
-3
390
F
  0
LAYER
  5
1FA
100
AcDbSymbolTableRecord
100
AcDbLayerTableRecord
  2
DEFAULT_1
 70
0
 62
7
  6
CENTER
370
-3
390
F
  0
LAYER
  5
1FB
100
AcDbSymbolTableRecord
100
AcDbLayerTableRecord
  2
DEFAULT_2
 70
0
 62
7
  6
HIDDEN
370
-3
390
F
  0
LAYER
  5
1FC
100
AcDbSymbolTableRecord
100
AcDbLayerTableRecord
  2
DEFAULT_3
 70
0
 62
7
  6
PHANTOM
370
-3
390
F
  0
LAYER
  5
1FD
100
AcDbSymbolTableRecord
100
AcDbLayerTableRecord
  2
ASSI
 70
0
 62
7
  6
CONTINUOUS
370
-3
390
F
  0
LAYER
  5
1FE
100
AcDbSymbolTableRecord
100
AcDbLayerTableRecord
  2
COORDINATE
 70
0
 62
7
  6
CONTINUOUS
370
-3
390
F
  0
LAYER
  5
1FF
100
AcDbSymbolTableRecord
100
AcDbLayerTableRecord
  2
COORD_ORIGINE
 70
0
 62
7
  6
CONTINUOUS
370
-3
390
F
  0
LAYER
  5
200
100
AcDbSymbolTableRecord
100
AcDbLayerTableRecord
  2
COPY_PUBLISH
 70
0
 62
7
  6
CONTINUOUS
370
-3
390
F
  0
LAYER
  5
201
100
AcDbSymbolTableRecord
100
AcDbLayerTableRecord
  2
COSMETICI
 70
0
 62
7
  6
CONTINUOUS
370
-3
390
F
  0
LAYER
  5
202
100
AcDbSymbolTableRecord
100
AcDbLayerTableRecord
  2
CURVE
 70
0
 62
7
  6
CONTINUOUS
370
-3
390
F
  0
LAYER
  5
203
100
AcDbSymbolTableRecord
100
AcDbLayerTableRecord
  2
DRAFT
 70
0
 62
7
  6
CONTINUOUS
370
-3
390
F
  0
LAYER
  5
204
100
AcDbSymbolTableRecord
100
AcDbLayerTableRecord
  2
IMPORT_IGES
 70
0
 62
7
  6
CONTINUOUS
370
-3
390
F
  0
LAYER
  5
205
100
AcDbSymbolTableRecord
100
AcDbLayerTableRecord
  2
NOTE
 70
0
 62
7
  6
CONTINUOUS
370
-3
390
F
  0
LAYER
  5
206
100
AcDbSymbolTableRecord
100
AcDbLayerTableRecord
  2
PIANI
 70
0
 62
7
  6
CONTINUOUS
370
-3
390
F
  0
LAYER
  5
207
100
AcDbSymbolTableRecord
100
AcDbLayerTableRecord
  2
PIANI_ORIGINE
 70
0
 62
7
  6
CONTINUOUS
370
-3
390
F
  0
LAYER
  5
208
100
AcDbSymbolTableRecord
100
AcDbLayerTableRecord
  2
PUNTI
 70
0
 62
7
  6
CONTINUOUS
370
-3
390
F
  0
LAYER
  5
209
100
AcDbSymbolTableRecord
100
AcDbLayerTableRecord
  2
RACCORDO
 70
0
 62
7
  6
CONTINUOUS
370
-3
390
F
  0
LAYER
  5
20A
100
AcDbSymbolTableRecord
100
AcDbLayerTableRecord
  2
SIMBOLI
 70
0
 62
7
  6
CONTINUOUS
370
-3
390
F
  0
LAYER
  5
20B
100
AcDbSymbolTableRecord
100
AcDbLayerTableRecord
  2
SMUSSO
 70
0
 62
7
  6
CONTINUOUS
370
-3
390
F
  0
LAYER
  5
20C
100
AcDbSymbolTableRecord
100
AcDbLayerTableRecord
  2
SUPERFICI
 70
0
 62
7
  6
CONTINUOUS
370
-3
390
F
  0
LAYER
  5
20D
100
AcDbSymbolTableRecord
100
AcDbLayerTableRecord
  2
TRASH
 70
0
 62
7
  6
CONTINUOUS
370
-3
390
F
  0
ENDTAB
  0
TABLE
  2
STYLE
  5
3
100
AcDbSymbolTable
 70
1
  0
STYLE
  5
11
100
AcDbSymbolTableRecord
100
AcDbTextStyleTableRecord
  2
STANDARD
 70
0
 40
0.0
 41
0.8
 50
0.0
 71
0
 42
0.2
  3
txt
  4

  0
STYLE
  5
20E
100
AcDbSymbolTableRecord
100
AcDbTextStyleTableRecord
  2
TEXTSTYLE_1
 70
0
 40
0.0
 41
0.8
 50
0.0
 71
0
 42
0.2
  3
gdt
  4

  0
ENDTAB
  0
TABLE
  2
VIEW
  5
6
100
AcDbSymbolTable
 70
0
  0
ENDTAB
  0
TABLE
  2
UCS
  5
7
100
AcDbSymbolTable
 70
0
  0
ENDTAB
  0
TABLE
  2
APPID
  5
9
100
AcDbSymbolTable
 70
1
  0
APPID
  5
20F
100
AcDbSymbolTableRecord
100
AcDbRegAppTableRecord
  2
ACAD
 70
0
  0
ENDTAB
  0
TABLE
  2
BLOCK_RECORD
  5
1
100
AcDbSymbolTable
 70
0
  0
BLOCK_RECORD
  5
210
100
AcDbSymbolTableRecord
100
AcDbBlockTableRecord
  2
*Model_Space
  0
BLOCK_RECORD
  5
211
100
AcDbSymbolTableRecord
100
AcDbBlockTableRecord
  2
*Paper_Space
  0
BLOCK_RECORD
  5
212
100
AcDbSymbolTableRecord
100
AcDbBlockTableRecord
  2
_FILLED
  0
ENDTAB
  0
TABLE
  2
DIMSTYLE
  5
A
100
AcDbSymbolTable
 70
1
100
AcDbDimStyleTable
 71
0
  0
DIMSTYLE
105
213
100
AcDbSymbolTableRecord
100
AcDbDimStyleTableRecord
  2
STANDARD
 70
0
  3

  4

 40
1.0
 41
3.0
 42
0.5
 43
0.38
 44
1.5
 45
0.0
 46
0.0
 47
0.01
 48
0.01
140
3.0
141
0.09
142
0.0
143
25.4
144
1.0
145
0.0
146
1.0
147
0.625
 71
1
 72
0
 73
0
 74
0
 75
0
 76
0
 77
1
 78
8
 79
2
170
0
171
1
172
0
173
0
174
0
175
0
176
0
177
0
178
0
270
2
179
2
271
2
272
2
273
2
274
2
275
0
280
0
281
0
282
0
283
1
284
8
285
0
286
0
287
3
288
0
340
11
278
44
341
212
342
212
343
212
344
212
  0
ENDTAB
  0
ENDSEC
  0
SECTION
  2
BLOCKS
  0
BLOCK
  5
20
100
AcDbEntity
  8
0
100
AcDbBlockBegin
  2
*Model_Space
 70
0
 10
0.0
 20
0.0
 30
0.0
  3
*Model_Space
  1

  0
ENDBLK
  5
21
100
AcDbEntity
  8
0
100
AcDbBlockEnd
  0
BLOCK
  5
1C
100
AcDbEntity
  8
0
100
AcDbBlockBegin
  2
*Paper_Space
 70
0
 10
0.0
 20
0.0
 30
0.0
  3
*Paper_Space
  1

  0
ENDBLK
  5
1D
100
AcDbEntity
  8
0
100
AcDbBlockEnd
  0
BLOCK
  5
214
100
AcDbEntity
  8
0
100
AcDbBlockBegin
  2
_FILLED
 70
64
 10
0.0
 20
0.0
  3
_FILLED
  1

  0
SOLID
  5
215
100
AcDbEntity
  8
0
  6
BYBLOCK
 62
0
100
AcDbTrace
 10
0.0
 20
0.0
 11
-1.0
 21
0.3166666667
 12
-1.0
 22
-0.3166666667
 13
-1.0
 23
-0.3166666667
  0
ENDBLK
  5
216
100
AcDbEntity
  8
0
  6
BYBLOCK
 62
0
100
AcDbBlockEnd
  0
ENDSEC
  0
SECTION
  2
ENTITIES
  0
LINE
  5
217
100
AcDbEntity
  8
0
100
AcDbLine
 62
7
  6
CONTINUOUS
 10
-16.4402326626
 20
-7.1851337377
 11
-16.4402326626
 21
0.4080398365
  0
LINE
  5
218
100
AcDbEntity
  8
0
100
AcDbLine
 62
7
  6
CONTINUOUS
 10
-15.3088618127
 20
4.4496939624
 11
-15.3088618127
 21
0.8163144298
  0
LINE
  5
219
100
AcDbEntity
  8
0
100
AcDbLine
 62
7
  6
CONTINUOUS
 10
-15.3088618127
 20
-7.838373087
 11
-15.3088618127
 21
-8.6138304663
  0
LINE
  5
21A
100
AcDbEntity
  8
0
100
AcDbLine
 62
7
  6
CONTINUOUS
 10
-15.0613744393
 20
-1.7352715772
 11
-15.0613744393
 21
-6.634093238
  0
LINE
  5
21B
100
AcDbEntity
  8
0
100
AcDbLine
 62
7
  6
CONTINUOUS
 10
-14.8138870659
 20
1.1021066451
 11
-14.8138870659
 21
1.4695498336
  0
LINE
  5
21C
100
AcDbEntity
  8
0
100
AcDbLine
 62
7
  6
CONTINUOUS
 10
-15.3088618127
 20
-8.6138304663
 11
-5.0558134855
 21
-14.5338120695
  0
LINE
  5
21D
100
AcDbEntity
  8
0
100
AcDbLine
 62
7
  6
CONTINUOUS
 10
-16.4402326626
 20
-7.1851337377
 11
-7.3185551853
 21
-12.4518759916
  0
LINE
  5
21E
100
AcDbEntity
  8
0
100
AcDbLine
 62
7
  6
CONTINUOUS
 10
-13.7885822331
 20
-2.4701658452
 11
-13.7885822331
 21
-5.89919897
  0
LINE
  5
21F
100
AcDbEntity
  8
ASSI
100
AcDbLine
 62
7
  6
CONTINUOUS
 10
-9.0156114601
 20
10.8184343604
 11
-11.2783531599
 21
8.4097207881
  0
LINE
  5
220
100
AcDbEntity
  8
ASSI
100
AcDbLine
 62
7
  6
CONTINUOUS
 10
-8.8034794258
 20
10.9409167384
 11
-9.0156114601
 21
10.8184343604
  0
LINE
  5
221
100
AcDbEntity
  8
ASSI
100
AcDbLine
 62
7
  6
CONTINUOUS
 10
-1.166726189
 20
14.5338120695
 11
-8.0964409781
 21
10.5326816
  0
LINE
  5
222
100
AcDbEntity
  8
0
100
AcDbLine
 62
7
  6
CONTINUOUS
 10
-15.0613744393
 20
-6.634093238
 11
-8.6974134086
 21
-10.3085645779
  0
LINE
  5
223
100
AcDbEntity
  8
0
100
AcDbLine
 62
7
  6
CONTINUOUS
 10
-15.3088618127
 20
4.4496939624
 11
-10.5713830458
 21
7.1850548278
  0
LINE
  5
224
100
AcDbEntity
  8
0
100
AcDbLine
 62
7
  6
CONTINUOUS
 10
-6.0457595625
 20
-11.2678776982
 11
-5.5507882323
 21
-11.5536679408
  0
LINE
  5
225
100
AcDbEntity
  8
0
100
AcDbLine
 62
7
  6
CONTINUOUS
 10
-5.5861435714
 20
-11.0039942693
 11
-5.5507882323
 21
-11.0244080019
  0
LINE
  5
226
100
AcDbEntity
  8
0
100
AcDbLine
 62
7
  6
CONTINUOUS
 10
-13.7885822331
 20
-5.89919897
 11
-8.6974134086
 21
-8.8387760419
  0
LINE
  5
227
100
AcDbEntity
  8
ASSI
100
AcDbLine
 62
7
  6
CONTINUOUS
 10
-11.2783531599
 20
8.4097207881
 11
-11.2783531599
 21
7.5932505113
  0
LINE
  5
228
100
AcDbEntity
  8
0
100
AcDbLine
 62
7
  6
CONTINUOUS
 10
-5.5507882323
 20
-9.5124922488
 11
-5.0558134855
 21
-9.7982844641
  0
LINE
  5
229
100
AcDbEntity
  8
0
100
AcDbLine
 62
7
  6
CONTINUOUS
 10
-8.6974134086
 20
-10.3085645779
 11
-8.6974134086
 21
-5.4097429172
  0
LINE
  5
22A
100
AcDbEntity
  8
0
100
AcDbLine
 62
7
  6
CONTINUOUS
 10
-8.6974134086
 20
-5.4097429172
 11
-15.0613744393
 21
-1.7352715772
  0
LINE
  5
22B
100
AcDbEntity
  8
0
100
AcDbLine
 62
7
  6
CONTINUOUS
 10
-7.3185551853
 20
-12.4518759916
 11
-7.3185551853
 21
-4.8587024174
  0
LINE
  5
22C
100
AcDbEntity
  8
0
100
AcDbLine
 62
7
  6
CONTINUOUS
 10
7.3185551853
 20
14.1260661723
 11
6.6114484041
 21
13.717791579
  0
LINE
  5
22D
100
AcDbEntity
  8
0
100
AcDbLine
 62
7
  6
CONTINUOUS
 10
-15.7331258814
 20
0.8163144298
 11
-16.4402326626
 21
0.4080398365
  0
LINE
  5
22E
100
AcDbEntity
  8
0
100
AcDbLine
 62
7
  6
CONTINUOUS
 10
6.8235804385
 20
13.595309201
 11
6.1164736573
 21
13.1870346076
  0
LINE
  5
22F
100
AcDbEntity
  8
0
100
AcDbLine
 62
7
  6
CONTINUOUS
 10
-14.8138870659
 20
1.1021066451
 11
-15.520993847
 21
0.6938320518
  0
LINE
  5
230
100
AcDbEntity
  8
0
100
AcDbLine
 62
7
  6
CONTINUOUS
 10
6.2932503526
 20
13.0849659593
 11
5.5861435714
 21
12.676691366
  0
LINE
  5
231
100
AcDbEntity
  8
0
100
AcDbLine
 62
7
  6
CONTINUOUS
 10
-14.3189157357
 20
1.1837595911
 11
-14.6371103706
 21
1.0000379968
  0
LINE
  5
232
100
AcDbEntity
  8
RACCORDO
100
AcDbLine
 62
7
  6
CONTINUOUS
 10
3.6094288039
 20
11.776120036
 11
5.3293011274
 21
12.7553362506
  0
LINE
  5
233
100
AcDbEntity
  8
RACCORDO
100
AcDbLine
 62
250
  6
CONTINUOUS
 10
3.6968691178
 20
11.7256330946
 11
5.4787831636
 21
12.7401730129
  0
LINE
  5
234
100
AcDbEntity
  8
0
100
AcDbLine
 62
7
  6
CONTINUOUS
 10
1.9445436483
 20
-10.4918935956
 11
3.1112698372
 21
-11.1655466746
  0
LINE
  5
235
100
AcDbEntity
  8
0
100
AcDbLine
 62
7
  6
CONTINUOUS
 10
-5.5507882323
 20
-5.9200230309
 11
-5.0558134855
 21
-6.2058152463
  0
LINE
  5
236
100
AcDbEntity
  8
0
100
AcDbLine
 62
7
  6
CONTINUOUS
 10
-16.4402326626
 20
0.4080398365
 11
-7.3185551853
 21
-4.8587024174
  0
LINE
  5
237
100
AcDbEntity
  8
0
100
AcDbLine
 62
7
  6
CONTINUOUS
 10
-6.6114484041
 20
-4.4504278241
 11
-6.8235804385
 21
-4.3279454461
  0
LINE
  5
238
100
AcDbEntity
  8
0
100
AcDbLine
 62
7
  6
CONTINUOUS
 10
-15.520993847
 20
0.6938320518
 11
-15.7331258814
 21
0.8163144298
  0
LINE
  5
239
100
AcDbEntity
  8
0
100
AcDbLine
 62
7
  6
CONTINUOUS
 10
-6.6114484041
 20
-12.0436013983
 11
-6.6114484041
 21
-4.4504278241
  0
LINE
  5
23A
100
AcDbEntity
  8
0
100
AcDbLine
 62
7
  6
CONTINUOUS
 10
-6.1164736573
 20
-11.512844427
 11
-6.1164736573
 21
-3.9196708528
  0
LINE
  5
23B
100
AcDbEntity
  8
0
100
AcDbLine
 62
7
  6
CONTINUOUS
 10
-2.1920310217
 20
-6.8791763588
 11
0.9899494937
 21
-6.2667644688
  0
LINE
  5
23C
100
AcDbEntity
  8
0
100
AcDbLine
 62
7
  6
CONTINUOUS
 10
-6.1164736573
 20
-3.9196708528
 11
-6.2932503526
 21
-3.8176022045
  0
LINE
  5
23D
100
AcDbEntity
  8
0
100
AcDbLine
 62
7
  6
CONTINUOUS
 10
-14.6371103706
 20
1.0000379968
 11
-14.8138870659
 21
1.1021066451
  0
LINE
  5
23E
100
AcDbEntity
  8
0
100
AcDbLine
 62
7
  6
CONTINUOUS
 10
-5.5507882323
 20
-3.8788473389
 11
-14.8138870659
 21
1.4695498336
  0
LINE
  5
23F
100
AcDbEntity
  8
0
100
AcDbLine
 62
7
  6
CONTINUOUS
 10
-5.5861435714
 20
-11.0039942693
 11
-5.5861435714
 21
-3.8584336093
  0
LINE
  5
240
100
AcDbEntity
  8
0
100
AcDbLine
 62
7
  6
CONTINUOUS
 10
-5.5507882323
 20
-9.5124922488
 11
-5.5507882323
 21
-11.5536679408
  0
LINE
  5
241
100
AcDbEntity
  8
0
100
AcDbLine
 62
7
  6
CONTINUOUS
 10
-5.5507882323
 20
-5.9200230309
 11
-5.5507882323
 21
-3.8788473389
  0
LINE
  5
242
100
AcDbEntity
  8
RACCORDO
100
AcDbLine
 62
7
  6
CONTINUOUS
 10
-5.2666524217
 20
-9.3484357928
 11
-5.2666524217
 21
-6.0840794869
  0
LINE
  5
243
100
AcDbEntity
  8
0
100
AcDbLine
 62
7
  6
CONTINUOUS
 10
-5.0558134855
 20
-1.4702876409
 11
-5.0558134855
 21
-6.2058152463
  0
LINE
  5
244
100
AcDbEntity
  8
0
100
AcDbLine
 62
7
  6
CONTINUOUS
 10
-5.0558134855
 20
-9.7982844641
 11
-5.0558134855
 21
-14.5338120695
  0
LINE
  5
245
100
AcDbEntity
  8
ASSI
100
AcDbLine
 62
7
  6
CONTINUOUS
 10
0.0353553391
 20
5.8374843218
 11
-0.1767766953
 21
5.7150019438
  0
LINE
  5
246
100
AcDbEntity
  8
ASSI
100
AcDbLine
 62
7
  6
CONTINUOUS
 10
7.6721085759
 20
9.4303796529
 11
0.0353553391
 21
5.021014045
  0
LINE
  5
247
100
AcDbEntity
  8
0
100
AcDbLine
 62
7
  6
CONTINUOUS
 10
7.6721085759
 20
9.3084890989
 11
8.9802561211
 21
10.0637970966
  0
LINE
  5
248
100
AcDbEntity
  8
0
100
AcDbLine
 62
7
  6
CONTINUOUS
 10
8.9802606348
 20
10.7184689991
 11
7.2045405172
 21
9.70034759
  0
LINE
  5
249
100
AcDbEntity
  8
DRAFT
100
AcDbLine
 62
7
  6
CONTINUOUS
 10
-3.4572360199
 20
-8.3037014397
 11
-3.4572360199
 21
-5.2828166525
  0
LINE
  5
24A
100
AcDbEntity
  8
0
100
AcDbLine
 62
7
  6
CONTINUOUS
 10
-3.2526911935
 20
-5.1647150333
 11
-3.2526911935
 21
-8.1855998205
  0
LINE
  5
24B
100
AcDbEntity
  8
ASSI
100
AcDbLine
 62
7
  6
CONTINUOUS
 10
-0.1767766953
 20
5.7150019438
 11
-2.4395183951
 21
3.3062883715
  0
LINE
  5
24C
100
AcDbEntity
  8
ASSI
100
AcDbLine
 62
7
  6
CONTINUOUS
 10
-2.4395183951
 20
2.4898180947
 11
5.5507882323
 21
7.1033209993
  0
LINE
  5
24D
100
AcDbEntity
  8
0
100
AcDbLine
 62
7
  6
CONTINUOUS
 10
10.5358955534
 20
9.8202648937
 11
7.6721085759
 21
8.1782928263
  0
LWPOLYLINE
  5
24E
100
AcDbEntity
  8
ASSI
100
AcDbPolyline
 62
7
  6
CONTINUOUS
 90
8
 70
0
 10
5.5507882323
 20
7.1033209993
 10
5.6346442696
 20
7.1456075182
 10
5.7152591905
 20
7.1757405023
 10
5.792632995
 20
7.1937199516
 10
5.8677157463
 20
7.1994610657
 10
5.9395573813
 20
7.193048645
 10
6.00530771
 20
7.174737091
 10
6.0511458952
 20
7.1526693596
  0
LINE
  5
24F
100
AcDbEntity
  8
0
100
AcDbLine
 62
7
  6
CONTINUOUS
 10
-1.8736894697
 20
-4.3684967209
 11
0.9899494937
 21
-3.8173536384
  0
LINE
  5
250
100
AcDbEntity
  8
0
100
AcDbLine
 62
7
  6
CONTINUOUS
 10
0.7071067812
 20
-3.6540438011
 11
-1.3080040448
 21
-4.0418770463
  0
LINE
  5
251
100
AcDbEntity
  8
0
100
AcDbLine
 62
7
  6
CONTINUOUS
 10
1.9092361427
 20
-5.735979879
 11
1.9445436483
 21
-5.7563659902
  0
LINE
  5
252
100
AcDbEntity
  8
0
100
AcDbLine
 62
7
  6
CONTINUOUS
 10
-15.3088618127
 20
4.4496939624
 11
-5.0558134855
 21
-1.4702876409
  0
LINE
  5
253
100
AcDbEntity
  8
RACCORDO
100
AcDbLine
 62
7
  6
CONTINUOUS
 10
5.9026546722
 20
-7.7510376484
 11
4.5254833996
 21
-6.9558762156
  0
LINE
  5
254
100
AcDbEntity
  8
ASSI
100
AcDbLine
 62
7
  6
CONTINUOUS
 10
-2.4395183951
 20
3.3062883715
 11
-2.4395183951
 21
2.4898180947
  0
LINE
  5
255
100
AcDbEntity
  8
0
100
AcDbLine
 62
7
  6
CONTINUOUS
 10
-2.1920310217
 20
-7.2874114972
 11
-2.1920310217
 21
-4.5523031433
  0
LINE
  5
256
100
AcDbEntity
  8
ASSI
100
AcDbLine
 62
7
  6
CONTINUOUS
 10
7.6721085759
 20
6.6952042257
 11
5.5507882323
 21
5.4703804457
  0
LINE
  5
257
100
AcDbEntity
  8
0
100
AcDbLine
 62
7
  6
CONTINUOUS
 10
-15.0613744393
 20
-6.634093238
 11
-13.7885822331
 21
-5.89919897
  0
LINE
  5
258
100
AcDbEntity
  8
0
100
AcDbLine
 62
7
  6
CONTINUOUS
 10
2.404163056
 20
-3.0008044517
 11
2.1213203436
 21
-2.8374946144
  0
LINE
  5
259
100
AcDbEntity
  8
ASSI
100
AcDbLine
 62
7
  6
CONTINUOUS
 10
0.0353553391
 20
5.021014045
 11
0.0353553391
 21
5.8374843218
  0
LINE
  5
25A
100
AcDbEntity
  8
0
100
AcDbLine
 62
7
  6
CONTINUOUS
 10
-5.0558134855
 20
-1.4702876409
 11
1.9445436483
 21
2.5716308331
  0
LINE
  5
25B
100
AcDbEntity
  8
0
100
AcDbLine
 62
7
  6
CONTINUOUS
 10
9.545941546
 20
5.6132765534
 11
3.1112698372
 21
1.8979777541
  0
LINE
  5
25C
100
AcDbEntity
  8
0
100
AcDbLine
 62
7
  6
CONTINUOUS
 10
-6.2932503526
 20
-3.8176022045
 11
-5.9750557177
 21
-3.6338806102
  0
LINE
  5
25D
100
AcDbEntity
  8
0
100
AcDbLine
 62
7
  6
CONTINUOUS
 10
13.9300035894
 20
7.8590511647
 11
14.6371103706
 21
8.267325758
  0
LINE
  5
25E
100
AcDbEntity
  8
0
100
AcDbLine
 62
7
  6
CONTINUOUS
 10
0.9899494937
 20
-6.2667644688
 11
0.9899494937
 21
-3.8173536384
  0
LINE
  5
25F
100
AcDbEntity
  8
0
100
AcDbLine
 62
7
  6
CONTINUOUS
 10
1.4495689014
 20
-2.4496889876
 11
1.4495689014
 21
-3.2253554781
  0
LINE
  5
260
100
AcDbEntity
  8
DRAFT
100
AcDbLine
 62
7
  6
CONTINUOUS
 10
6.7882250994
 20
2.3565917755
 11
12.4526665568
 21
5.6500822938
  0
LINE
  5
261
100
AcDbEntity
  8
RACCORDO
100
AcDbLine
 62
250
  6
CONTINUOUS
 10
9.545941546
 20
5.2052629156
 11
14.0373639971
 21
7.7985557039
  0
LINE
  5
262
100
AcDbEntity
  8
0
100
AcDbLine
 62
7
  6
CONTINUOUS
 10
-6.8235804385
 20
-4.3279454461
 11
-6.1164736573
 21
-3.9196708528
  0
LINE
  5
263
100
AcDbEntity
  8
0
100
AcDbLine
 62
7
  6
CONTINUOUS
 10
14.8138870659
 20
8.1652571097
 11
15.520993847
 21
8.573531703
  0
LINE
  5
264
100
AcDbEntity
  8
0
100
AcDbLine
 62
7
  6
CONTINUOUS
 10
-7.3185551853
 20
-4.8587024174
 11
-6.6114484041
 21
-4.4504278241
  0
LINE
  5
265
100
AcDbEntity
  8
0
100
AcDbLine
 62
7
  6
CONTINUOUS
 10
15.7331258814
 20
8.451049325
 11
16.4402326626
 21
8.8593239184
  0
LINE
  5
266
100
AcDbEntity
  8
RACCORDO
100
AcDbLine
 62
250
  6
CONTINUOUS
 10
9.545941546
 20
4.7153599784
 11
14.2494947391
 21
7.4311344813
  0
LINE
  5
267
100
AcDbEntity
  8
0
100
AcDbLine
 62
7
  6
CONTINUOUS
 10
6.7882250994
 20
2.7146531965
 11
9.545941546
 21
4.3069241105
  0
LINE
  5
268
100
AcDbEntity
  8
ASSI
100
AcDbLine
 62
7
  6
CONTINUOUS
 10
-11.2783531599
 20
7.5932505113
 11
-2.4395183951
 21
2.4898180947
  0
LINE
  5
269
100
AcDbEntity
  8
ASSI
100
AcDbLine
 62
7
  6
CONTINUOUS
 10
-11.2783531599
 20
8.4097207881
 11
-2.4395183951
 21
3.3062883715
  0
LINE
  5
26A
100
AcDbEntity
  8
0
100
AcDbLine
 62
7
  6
CONTINUOUS
 10
1.9445436483
 20
-10.4918935956
 11
1.9445436483
 21
-5.7563659902
  0
LINE
  5
26B
100
AcDbEntity
  8
0
100
AcDbLine
 62
7
  6
CONTINUOUS
 10
1.9445436483
 20
-2.1638967723
 11
1.9445436483
 21
2.5716308331
  0
LINE
  5
26C
100
AcDbEntity
  8
0
100
AcDbLine
 62
7
  6
CONTINUOUS
 10
2.404163056
 20
-5.4502152821
 11
2.404163056
 21
-3.0008044517
  0
LINE
  5
26D
100
AcDbEntity
  8
0
100
AcDbLine
 62
7
  6
CONTINUOUS
 10
3.1112698372
 20
1.8979777541
 11
3.1112698372
 21
-11.1655466746
  0
LINE
  5
26E
100
AcDbEntity
  8
DRAFT
100
AcDbLine
 62
7
  6
CONTINUOUS
 10
5.9026546722
 20
-0.0856221471
 11
7.0710678119
 21
0.591759458
  0
LINE
  5
26F
100
AcDbEntity
  8
0
100
AcDbLine
 62
7
  6
CONTINUOUS
 10
4.5254833996
 20
0.0609985412
 11
6.7882250994
 21
1.3674772398
  0
LINE
  5
270
100
AcDbEntity
  8
0
100
AcDbLine
 62
7
  6
CONTINUOUS
 10
-5.0558134855
 20
-6.2058152463
 11
1.9445436483
 21
-2.1638967723
  0
LINE
  5
271
100
AcDbEntity
  8
DRAFT
100
AcDbLine
 62
7
  6
CONTINUOUS
 10
7.0710678119
 20
0.591759458
 11
8.2361070501
 21
1.2616840109
  0
LINE
  5
272
100
AcDbEntity
  8
RACCORDO
100
AcDbLine
 62
7
  6
CONTINUOUS
 10
5.0870999756
 20
0.3852689134
 11
5.9026546722
 21
-0.0856221471
  0
LINE
  5
273
100
AcDbEntity
  8
0
100
AcDbLine
 62
7
  6
CONTINUOUS
 10
4.5254833996
 20
-7.6954690884
 11
4.5254833996
 21
0.0609985412
  0
LINE
  5
274
100
AcDbEntity
  8
DRAFT
100
AcDbLine
 62
7
  6
CONTINUOUS
 10
7.7781745931
 20
-0.6329854121
 11
8.9408281228
 21
0.0410713091
  0
LINE
  5
275
100
AcDbEntity
  8
0
100
AcDbLine
 62
7
  6
CONTINUOUS
 10
2.1213203436
 20
-2.8374946144
 11
0.7071067812
 21
-3.6540438011
  0
LINE
  5
276
100
AcDbEntity
  8
0
100
AcDbLine
 62
7
  6
CONTINUOUS
 10
0.9899494937
 20
-3.8173536384
 11
2.404163056
 21
-3.0008044517
  0
LINE
  5
277
100
AcDbEntity
  8
DRAFT
100
AcDbLine
 62
7
  6
CONTINUOUS
 10
6.6073757449
 20
-1.3062348488
 11
7.7781745931
 21
-0.6329854121
  0
LWPOLYLINE
  5
278
100
AcDbEntity
  8
ASSI
100
AcDbPolyline
 62
7
  6
CONTINUOUS
 90
31
 70
0
 10
4.7284001971
 20
-2.5762839786
 10
4.7399289769
 20
-2.5699766598
 10
4.7891560752
 20
-2.5480432806
 10
4.8413660591
 20
-2.5328220091
 10
4.8966167137
 20
-2.524442873
 10
4.954850254
 20
-2.5227758446
 10
5.0149458106
 20
-2.5278530106
 10
5.0769394548
 20
-2.5398050203
 10
5.1407951154
 20
-2.5585012243
 10
5.2052837093
 20
-2.5835817613
 10
5.2704174979
 20
-2.6151703093
 10
5.3361842199
 20
-2.6531431903
 10
5.4013180085
 20
-2.6967695087
 10
5.4658066024
 20
-2.7461587836
 10
5.529662263
 20
-2.8012014958
 10
5.5916559072
 20
-2.8608381925
 10
5.6517514638
 20
-2.925157869
 10
5.7099850041
 20
-2.99407153
 10
5.7652356587
 20
-3.0662527371
 10
5.8174456426
 20
-3.1417647894
 10
5.8666727409
 20
-3.2205443878
 10
5.9119694386
 20
-3.3010751957
 10
5.9532595955
 20
-3.3833911379
 10
5.9906193517
 20
-3.4674582897
 10
6.0233296131
 20
-3.5516585408
 10
6.051300309
 20
-3.6359944694
 10
6.07462151
 20
-3.7204634974
 10
6.0928443336
 20
-3.8034397789
 10
6.1058191523
 20
-3.8843813656
 10
6.1136955935
 20
-3.963830206
 10
6.1164736573
 20
-4.0417862999
  0
LINE
  5
279
100
AcDbEntity
  8
0
100
AcDbLine
 62
7
  6
CONTINUOUS
 10
1.9445436483
 20
2.5716308331
 11
3.1112698372
 21
1.8979777541
  0
LINE
  5
27A
100
AcDbEntity
  8
RACCORDO
100
AcDbLine
 62
7
  6
CONTINUOUS
 10
10.1331262506
 20
-1.7222821206
 11
10.4437076325
 21
-1.901607918
  0
LINE
  5
27B
100
AcDbEntity
  8
DRAFT
100
AcDbLine
 62
7
  6
CONTINUOUS
 10
7.0710678119
 20
0.591759458
 11
6.2578984302
 21
1.0612732676
  0
LINE
  5
27C
100
AcDbEntity
  8
DRAFT
100
AcDbLine
 62
7
  6
CONTINUOUS
 10
10.3944696834
 20
-0.8773859626
 11
10.6558383745
 21
-1.0282969691
  0
LWPOLYLINE
  5
27D
100
AcDbEntity
  8
ASSI
100
AcDbPolyline
 62
7
  6
CONTINUOUS
 90
8
 70
0
 10
4.5254833996
 20
-2.8518421283
 10
4.5319802078
 20
-2.8297617433
 10
4.5553014088
 20
-2.7722234537
 10
4.5832721047
 20
-2.7201873835
 10
4.6159823661
 20
-2.6737601224
 10
4.6533421223
 20
-2.6328350807
 10
4.6946322792
 20
-2.5981999767
 10
4.7284001971
 20
-2.5762839786
  0
LINE
  5
27E
100
AcDbEntity
  8
0
100
AcDbLine
 62
7
  6
CONTINUOUS
 10
-1.9800014876
 20
-6.8383686269
 11
-2.1920310217
 21
-6.9607918225
  0
LINE
  5
27F
100
AcDbEntity
  8
0
100
AcDbLine
 62
7
  6
CONTINUOUS
 10
-1.1314733502
 20
-6.6750587896
 11
-2.1920310217
 21
-7.2874114972
  0
LINE
  5
280
100
AcDbEntity
  8
0
100
AcDbLine
 62
7
  6
CONTINUOUS
 10
-0.3890522301
 20
-6.5321705729
 11
-5.5507882323
 21
-9.5124922488
  0
LINE
  5
281
100
AcDbEntity
  8
0
100
AcDbLine
 62
7
  6
CONTINUOUS
 10
0.9899494937
 20
-6.2667644688
 11
2.404163056
 21
-5.4502152821
  0
LINE
  5
282
100
AcDbEntity
  8
0
100
AcDbLine
 62
7
  6
CONTINUOUS
 10
12.1975919755
 20
0.1637142504
 11
10.3944696834
 21
-0.8773859626
  0
LINE
  5
283
100
AcDbEntity
  8
0
100
AcDbLine
 62
7
  6
CONTINUOUS
 10
1.9445436483
 20
-5.7563659902
 11
-5.0558134855
 21
-9.7982844641
  0
LINE
  5
284
100
AcDbEntity
  8
ASSI
100
AcDbLine
 62
7
  6
CONTINUOUS
 10
-9.0156114601
 20
10.8184343604
 11
-0.1767766953
 21
5.7150019438
  0
LINE
  5
285
100
AcDbEntity
  8
ASSI
100
AcDbLine
 62
7
  6
CONTINUOUS
 10
-8.8034794258
 20
10.9409167384
 11
0.0353553391
 21
5.8374843218
  0
LINE
  5
286
100
AcDbEntity
  8
RACCORDO
100
AcDbLine
 62
7
  6
CONTINUOUS
 10
8.2361070501
 20
1.2616840109
 11
6.7882250994
 21
2.097672903
  0
LINE
  5
287
100
AcDbEntity
  8
DRAFT
100
AcDbLine
 62
7
  6
CONTINUOUS
 10
5.9026546722
 20
-0.0856221471
 11
6.6073757449
 21
-1.3062348488
  0
LINE
  5
288
100
AcDbEntity
  8
0
100
AcDbLine
 62
7
  6
CONTINUOUS
 10
6.1164736573
 20
12.982897311
 11
6.1164736573
 21
13.1870346076
  0
LINE
  5
289
100
AcDbEntity
  8
DRAFT
100
AcDbLine
 62
7
  6
CONTINUOUS
 10
6.6073757449
 20
-7.3442191769
 11
6.6073757449
 21
-1.3062348488
  0
LINE
  5
28A
100
AcDbEntity
  8
0
100
AcDbLine
 62
7
  6
CONTINUOUS
 10
6.6114484041
 20
13.472826823
 11
6.6114484041
 21
13.717791579
  0
LINE
  5
28B
100
AcDbEntity
  8
0
100
AcDbLine
 62
7
  6
CONTINUOUS
 10
6.7882250994
 20
-9.0425187893
 11
6.7882250994
 21
-7.2447610426
  0
LINE
  5
28C
100
AcDbEntity
  8
0
100
AcDbLine
 62
7
  6
CONTINUOUS
 10
6.7882250994
 20
1.3674772398
 11
6.7882250994
 21
2.7146531965
  0
LWPOLYLINE
  5
28D
100
AcDbEntity
  8
ASSI
100
AcDbPolyline
 62
7
  6
CONTINUOUS
 90
11
 70
0
 10
6.1164736573
 20
-4.0417862999
 10
6.1136955935
 20
-4.1165343555
 10
6.1058191523
 20
-4.1868876789
 10
6.0928443336
 20
-4.2528462703
 10
6.07462151
 20
-4.3147792919
 10
6.051300309
 20
-4.3723175815
 10
6.0233296131
 20
-4.4243536516
 10
5.9906193517
 20
-4.4707809127
 10
5.9532595955
 20
-4.5117059545
 10
5.9119694386
 20
-4.5463410585
 10
5.8782015207
 20
-4.5682570566
  0
LINE
  5
28E
100
AcDbEntity
  8
RACCORDO
100
AcDbLine
 62
250
  6
CONTINUOUS
 10
10.6558383745
 20
-1.7791499591
 11
14.2494947391
 21
0.3248539026
  0
LINE
  5
28F
100
AcDbEntity
  8
RACCORDO
100
AcDbLine
 62
7
  6
CONTINUOUS
 10
10.5942367503
 20
-1.9161665839
 11
14.1878931149
 21
0.1878372777
  0
LINE
  5
290
100
AcDbEntity
  8
DRAFT
100
AcDbLine
 62
7
  6
CONTINUOUS
 10
12.4526665568
 20
0.016437384
 11
10.6558383745
 21
-1.0282969691
  0
LINE
  5
291
100
AcDbEntity
  8
0
100
AcDbLine
 62
7
  6
CONTINUOUS
 10
8.9408281228
 20
-2.4107001166
 11
10.3944696834
 21
-1.5713856979
  0
LINE
  5
292
100
AcDbEntity
  8
0
100
AcDbLine
 62
7
  6
CONTINUOUS
 10
-6.1164736573
 20
-11.3087071303
 11
-5.5861435714
 21
-11.0025011853
  0
LINE
  5
293
100
AcDbEntity
  8
0
100
AcDbLine
 62
7
  6
CONTINUOUS
 10
14.2494947391
 20
0.4503477762
 11
14.6371103706
 21
0.6741521839
  0
LINE
  5
294
100
AcDbEntity
  8
0
100
AcDbLine
 62
7
  6
CONTINUOUS
 10
-6.6114484041
 20
-11.7986366423
 11
-6.1164736573
 21
-11.512844427
  0
LINE
  5
295
100
AcDbEntity
  8
0
100
AcDbLine
 62
7
  6
CONTINUOUS
 10
14.8138870659
 20
0.5720835355
 11
15.520993847
 21
0.9803581289
  0
LINE
  5
296
100
AcDbEntity
  8
0
100
AcDbLine
 62
7
  6
CONTINUOUS
 10
-7.3185551853
 20
-12.4518759916
 11
-6.6114484041
 21
-12.0436013983
  0
LINE
  5
297
100
AcDbEntity
  8
0
100
AcDbLine
 62
7
  6
CONTINUOUS
 10
15.7331258814
 20
0.8578757509
 11
16.4402326626
 21
1.2661503442
  0
LWPOLYLINE
  5
298
100
AcDbEntity
  8
ASSI
100
AcDbPolyline
 62
7
  6
CONTINUOUS
 90
28
 70
0
 10
5.8782015207
 20
-4.5682570566
 10
5.8666727409
 20
-4.5745643754
 10
5.8174456426
 20
-4.5964977546
 10
5.7652356587
 20
-4.6117190261
 10
5.7099850041
 20
-4.6200981621
 10
5.6517514638
 20
-4.6217651906
 10
5.5916559072
 20
-4.6166880246
 10
5.529662263
 20
-4.6047360149
 10
5.4658066024
 20
-4.5860398109
 10
5.4013180085
 20
-4.5609592739
 10
5.3361842199
 20
-4.5293707259
 10
5.2704174979
 20
-4.4913978448
 10
5.2052837093
 20
-4.4477715265
 10
5.1407951154
 20
-4.3983822516
 10
5.0769394548
 20
-4.3433395394
 10
5.0149458106
 20
-4.2837028427
 10
4.954850254
 20
-4.2193831662
 10
4.8966167137
 20
-4.1504695052
 10
4.8413660591
 20
-4.0782882981
 10
4.7891560752
 20
-4.0027762458
 10
4.7399289769
 20
-3.9239966474
 10
4.6946322792
 20
-3.8434658395
 10
4.6533421223
 20
-3.7611498973
 10
4.6159823661
 20
-3.6770827455
 10
4.5832721047
 20
-3.5928824944
 10
4.5553014088
 20
-3.5085465658
 10
4.5319802078
 20
-3.4240775378
 10
4.5254833996
 20
-3.3944948016
  0
LINE
  5
299
100
AcDbEntity
  8
DRAFT
100
AcDbLine
 62
7
  6
CONTINUOUS
 10
12.4526665568
 20
0.016437384
 11
12.1975919755
 21
0.1637142504
  0
LINE
  5
29A
100
AcDbEntity
  8
DRAFT
100
AcDbLine
 62
7
  6
CONTINUOUS
 10
7.0710678119
 20
0.591759458
 11
7.7781745931
 21
-0.6329854121
  0
LINE
  5
29B
100
AcDbEntity
  8
ASSI
100
AcDbLine
 62
7
  6
CONTINUOUS
 10
7.6721085759
 20
6.6952042257
 11
7.6721085759
 21
9.4303796529
  0
LINE
  5
29C
100
AcDbEntity
  8
DRAFT
100
AcDbLine
 62
7
  6
CONTINUOUS
 10
7.7781745931
 20
-6.6748654604
 11
7.7781745931
 21
-0.6329854121
  0
LINE
  5
29D
100
AcDbEntity
  8
DRAFT
100
AcDbLine
 62
7
  6
CONTINUOUS
 10
8.9408281228
 20
-5.9969130189
 11
8.9408281228
 21
0.0410713091
  0
LINE
  5
29E
100
AcDbEntity
  8
0
100
AcDbLine
 62
7
  6
CONTINUOUS
 10
5.1659483516
 20
-7.325672652
 11
4.5254833996
 21
-7.6954690884
  0
LINE
  5
29F
100
AcDbEntity
  8
ASSI
100
AcDbLine
 62
250
  6
CONTINUOUS
 10
4.136711337
 20
6.2868507225
 11
5.5507882323
 21
5.4703804457
  0
LINE
  5
2A0
100
AcDbEntity
  8
0
100
AcDbLine
 62
7
  6
CONTINUOUS
 10
14.6371103706
 20
0.6741521839
 11
14.8138870659
 21
0.5720835355
  0
LINE
  5
2A1
100
AcDbEntity
  8
0
100
AcDbLine
 62
7
  6
CONTINUOUS
 10
15.520993847
 20
0.9803581289
 11
15.7331258814
 21
0.8578757509
  0
LINE
  5
2A2
100
AcDbEntity
  8
DRAFT
100
AcDbLine
 62
7
  6
CONTINUOUS
 10
8.2361070501
 20
1.2616840109
 11
8.9408281228
 21
0.0410713091
  0
LINE
  5
2A3
100
AcDbEntity
  8
0
100
AcDbLine
 62
7
  6
CONTINUOUS
 10
8.9802561211
 20
10.0637970966
 11
8.9802561211
 21
10.7184664111
  0
LINE
  5
2A4
100
AcDbEntity
  8
0
100
AcDbLine
 62
7
  6
CONTINUOUS
 10
9.545941546
 20
4.3069241105
 11
9.545941546
 21
5.6132765534
  0
LINE
  5
2A5
100
AcDbEntity
  8
0
100
AcDbLine
 62
7
  6
CONTINUOUS
 10
10.3944696834
 20
-0.8773859626
 11
10.3944696834
 21
-1.5713856979
  0
LINE
  5
2A6
100
AcDbEntity
  8
DRAFT
100
AcDbLine
 62
7
  6
CONTINUOUS
 10
7.7781745931
 20
-6.6748654604
 11
8.9408281228
 21
-5.9969130189
  0
LINE
  5
2A7
100
AcDbEntity
  8
0
100
AcDbLine
 62
7
  6
CONTINUOUS
 10
-5.0558134855
 20
-14.5338120695
 11
1.9445436483
 21
-10.4918935956
  0
LINE
  5
2A8
100
AcDbEntity
  8
DRAFT
100
AcDbLine
 62
7
  6
CONTINUOUS
 10
5.9026546722
 20
-7.7510376484
 11
6.6073757449
 21
-7.3442191769
  0
LINE
  5
2A9
100
AcDbEntity
  8
DRAFT
100
AcDbLine
 62
7
  6
CONTINUOUS
 10
7.0710678119
 20
-7.0830611439
 11
7.7781745931
 21
-6.6748654604
  0
LINE
  5
2AA
100
AcDbEntity
  8
DRAFT
100
AcDbLine
 62
7
  6
CONTINUOUS
 10
6.6073757449
 20
-7.3442191769
 11
7.7781745931
 21
-6.6748654604
  0
LINE
  5
2AB
100
AcDbEntity
  8
DRAFT
100
AcDbLine
 62
7
  6
CONTINUOUS
 10
5.9026546722
 20
-7.7510376484
 11
7.0710678119
 21
-7.0830611439
  0
LINE
  5
2AC
100
AcDbEntity
  8
ASSI
100
AcDbLine
 62
7
  6
CONTINUOUS
 10
7.6721085759
 20
6.6952042257
 11
9.545941546
 21
5.6132765534
  0
LWPOLYLINE
  5
2AD
100
AcDbEntity
  8
ASSI
100
AcDbPolyline
 62
7
  6
CONTINUOUS
 90
22
 70
0
 10
6.0511458952
 20
7.1526693596
 10
6.0647218318
 20
7.1440479999
 10
6.1180446473
 20
7.1014597756
 10
6.163160668
 20
7.0486620304
 10
6.1997399403
 20
6.9852442916
 10
6.2281124179
 20
6.911617032
 10
6.2471524726
 20
6.8307012831
 10
6.2564848954
 20
6.7422040117
 10
6.2564848954
 20
6.6464182509
 10
6.2471524726
 20
6.5471441317
 10
6.2281124179
 20
6.4442414047
 10
6.1997399403
 20
6.3378503193
 10
6.163160668
 20
6.2321917536
 10
6.1180446473
 20
6.1272951587
 10
6.0647218318
 20
6.0231310836
 10
6.00530771
 20
5.9238320539
 10
5.9395573813
 20
5.8295936685
 10
5.8677157463
 20
5.7402203285
 10
5.792632995
 20
5.6592577632
 10
5.7152591905
 20
5.5878878826
 10
5.6346442696
 20
5.5249287768
 10
5.5507882323
 20
5.4703804457
  0
LINE
  5
2AE
100
AcDbEntity
  8
RACCORDO
100
AcDbLine
 62
7
  6
CONTINUOUS
 10
10.6558383745
 20
-1.0282969691
 11
10.6558383745
 21
-1.7791499591
  0
LINE
  5
2AF
100
AcDbEntity
  8
0
100
AcDbLine
 62
7
  6
CONTINUOUS
 10
3.1112698372
 20
-11.1655466746
 11
6.7882250994
 21
-9.0425187893
  0
LINE
  5
2B0
100
AcDbEntity
  8
0
100
AcDbLine
 62
7
  6
CONTINUOUS
 10
12.1975919755
 20
5.5017736351
 11
12.1975919755
 21
0.1637142504
  0
LINE
  5
2B1
100
AcDbEntity
  8
DRAFT
100
AcDbLine
 62
7
  6
CONTINUOUS
 10
12.4526665568
 20
5.6500822938
 11
12.4526665568
 21
0.016437384
  0
LINE
  5
2B2
100
AcDbEntity
  8
ASSI
100
AcDbLine
 62
7
  6
CONTINUOUS
 10
-1.166726189
 20
14.5338120695
 11
7.6721085759
 21
9.4303796529
  0
LINE
  5
2B3
100
AcDbEntity
  8
0
100
AcDbLine
 62
7
  6
CONTINUOUS
 10
8.9802561211
 20
10.0637970966
 11
9.9669816237
 21
9.4940741579
  0
LINE
  5
2B4
100
AcDbEntity
  8
RACCORDO
100
AcDbLine
 62
7
  6
CONTINUOUS
 10
14.2494947391
 20
0.3248539026
 11
14.2494947391
 21
7.4311344813
  0
LINE
  5
2B5
100
AcDbEntity
  8
0
100
AcDbLine
 62
7
  6
CONTINUOUS
 10
14.6371103706
 20
0.6741521839
 11
14.6371103706
 21
8.267325758
  0
LINE
  5
2B6
100
AcDbEntity
  8
0
100
AcDbLine
 62
7
  6
CONTINUOUS
 10
14.8138870659
 20
0.5720835355
 11
14.8138870659
 21
8.1652571097
  0
LINE
  5
2B7
100
AcDbEntity
  8
0
100
AcDbLine
 62
7
  6
CONTINUOUS
 10
14.0373639971
 20
7.7985557039
 11
5.4787831636
 21
12.7401730129
  0
LINE
  5
2B8
100
AcDbEntity
  8
0
100
AcDbLine
 62
7
  6
CONTINUOUS
 10
6.1164736573
 20
13.1870346076
 11
6.2932503526
 21
13.0849659593
  0
LINE
  5
2B9
100
AcDbEntity
  8
0
100
AcDbLine
 62
7
  6
CONTINUOUS
 10
14.6371103706
 20
8.267325758
 11
14.8138870659
 21
8.1652571097
  0
LINE
  5
2BA
100
AcDbEntity
  8
0
100
AcDbLine
 62
7
  6
CONTINUOUS
 10
15.520993847
 20
0.9803581289
 11
15.520993847
 21
8.573531703
  0
LINE
  5
2BB
100
AcDbEntity
  8
0
100
AcDbLine
 62
7
  6
CONTINUOUS
 10
15.7331258814
 20
0.8578757509
 11
15.7331258814
 21
8.451049325
  0
LINE
  5
2BC
100
AcDbEntity
  8
0
100
AcDbLine
 62
7
  6
CONTINUOUS
 10
6.6114484041
 20
13.717791579
 11
6.8235804385
 21
13.595309201
  0
LINE
  5
2BD
100
AcDbEntity
  8
0
100
AcDbLine
 62
7
  6
CONTINUOUS
 10
15.520993847
 20
8.573531703
 11
15.7331258814
 21
8.451049325
  0
LINE
  5
2BE
100
AcDbEntity
  8
0
100
AcDbLine
 62
7
  6
CONTINUOUS
 10
16.4402326626
 20
8.8593239184
 11
7.3185551853
 21
14.1260661723
  0
LINE
  5
2BF
100
AcDbEntity
  8
0
100
AcDbLine
 62
7
  6
CONTINUOUS
 10
16.4402326626
 20
1.2661503442
 11
16.4402326626
 21
8.8593239184
  0
ELLIPSE
  5
2C0
100
AcDbEntity
  8
RACCORDO
100
AcDbEllipse
 62
7
  6
CONTINUOUS
 10
14.0373614124
 20
0.4473400113
 30
0.0
 11
-0.1500090756
 21
0.2598066021
 31
0.0
 40
0.5773246348
 41
-3.1381022081
 42
-2.3562489028
  0
ELLIPSE
  5
2C1
100
AcDbEntity
  8
RACCORDO
100
AcDbEllipse
 62
7
  6
CONTINUOUS
 10
14.0373614124
 20
7.553614621
 30
0.0
 11
-0.1500072483
 21
0.2598034362
 31
0.0
 40
0.577338704
 41
-2.3562367205
 42
-0.7854525783
  0
ELLIPSE
  5
2C2
100
AcDbEntity
  8
RACCORDO
100
AcDbEllipse
 62
7
  6
CONTINUOUS
 10
5.4787857484
 20
12.4952289452
 30
0.0
 11
-0.1500090756
 21
0.2598066021
 31
0.0
 40
0.5773246348
 41
-0.7854403913
 42
-0.0034904615
  0
ELLIPSE
  5
2C3
100
AcDbEntity
  8
RACCORDO
100
AcDbEllipse
 62
7
  6
CONTINUOUS
 10
10.4437050478
 20
-1.6566638503
 30
0.0
 11
-0.1500090756
 21
0.2598066021
 31
0.0
 40
0.5773246348
 41
2.3561522622
 42
3.9269364044
  0
ENDSEC
  0
SECTION
  2
OBJECTS
  0
DICTIONARY
  5
C
100
AcDbDictionary
280
0
281
1
  3
ACAD_GROUP
350
D
  3
ACAD_MLINESTYLE
350
17
  3
ACAD_LAYOUT
350
1A
  3
ACAD_PLOTSETTINGS
350
19
  3
ACAD_PLOTSTYLENAME
350
E
  0
DICTIONARY
  5
D
102
{ACAD_REACTORS
330
C
102
}
100
AcDbDictionary
280
0
281
1
  0
ACDBDICTIONARYWDFLT
  5
E
102
{ACAD_REACTORS
330
C
102
}
100
AcDbDictionary
281
1
  3
Normal
350
F
100
AcDbDictionaryWithDefault
340
F
  0
DICTIONARY
  5
17
102
{ACAD_REACTORS
330
C
102
}
100
AcDbDictionary
280
0
281
1
  3
Standard
350
18
  0
DICTIONARY
  5
19
102
{ACAD_REACTORS
330
C
102
}
100
AcDbDictionary
281
1
  0
DICTIONARY
  5
1A
102
{ACAD_REACTORS
330
C
102
}
100
AcDbDictionary
281
1
  3
Model
350
2C4
  3
Layout1
350
2C5
  0
ACDBPLACEHOLDER
  5
F
102
{ACAD_REACTORS
330
E
102
}
  0
MLINESTYLE
  5
18
102
{ACAD_REACTORS
330
17
102
}
100
AcDbMlineStyle
  2
STANDARD
 70
0
  3

 62
256
 51
90.0
 52
90.0
 71
2
 49
0.5
 62
256
  6
BYLAYER
 49
-0.5
 62
256
  6
BYLAYER
  0
LAYOUT
  5
2C4
102
{ACAD_REACTORS
330
1A
102
}
100
AcDbPlotSettings
  1

  2
none_device
  4
ISO_A3_(420.00_x_297.00_MM)
  6

 40
0.0
 41
0.0
 42
0.0
 43
0.0
 44
420.0
 45
297.0
 46
0.0
 47
0.0
 48
0.0
 49
0.0
140
0.0
141
0.0
142
1.0
143
1.0
 70
1024
 72
1
 73
0
 74
0
  7

 75
0
147
1.0
148
0.0
149
0.0
100
AcDbLayout
  1
Model
 70
0
 71
0
 10
0.0
 20
0.0
 11
420.0
 21
297.0
 12
0.0
 22
0.0
 32
0.0
 14
0.0
 24
0.0
 34
0.0
 15
0.0
 25
0.0
 35
0.0
146
0.0
 13
0.0
 23
0.0
 33
0.0
 16
1.0
 26
0.0
 36
0.0
 17
0.0
 27
1.0
 37
0.0
 76
0
330
210
345
0
346
0
  0
LAYOUT
  5
2C5
102
{ACAD_REACTORS
330
1A
102
}
100
AcDbPlotSettings
  1

  2
none_device
  4
ISO_A3_(420.00_x_297.00_MM)
  6

 40
0.0
 41
0.0
 42
0.0
 43
0.0
 44
420.0
 45
297.0
 46
0.0
 47
0.0
 48
0.0
 49
0.0
140
0.0
141
0.0
142
1.0
143
1.0
 70
0
 72
1
 73
0
 74
0
  7

 75
0
147
1.0
148
0.0
149
0.0
100
AcDbLayout
  1
Layout1
 70
0
 71
1
 10
0.0
 20
0.0
 11
420.0
 21
297.0
 12
0.0
 22
0.0
 32
0.0
 14
0.0
 24
0.0
 34
0.0
 15
0.0
 25
0.0
 35
0.0
146
0.0
 13
0.0
 23
0.0
 33
0.0
 16
1.0
 26
0.0
 36
0.0
 17
0.0
 27
1.0
 37
0.0
 76
0
330
211
345
0
346
0
  0
ENDSEC
  0
EOF
