  0
SECTION
  2
HEADER
  9
$ACADVER
  1
AC1021
  9
$DWGCODEPAGE
  3
ANSI_1252
  9
$EXTMAX
 10
558.8
 20
431.8
 30
0.0
  9
$EXTMIN
 10
0.0
 20
0.0
 30
0.0
  9
$LIMMIN
 10
0.0
 20
0.0
  9
$LIMMAX
 10
558.8
 20
431.8
  9
$VIEWCTR
 10
279.4
 20
215.9
  9
$VIEWSIZE
 40
431.8
  9
$CLAYER
  8
0
  9
$LTSCALE
 40
30.734
  9
$CELTYPE
  6
BYLAYER
  9
$DIMSCALE
 40
1.0
  9
$DIMASZ
 40
3.0
  9
$DIMEXO
 40
0.5
  9
$DIMDLI
 40
21.2344
  9
$DIMEXE
 40
1.5
  9
$DIMCEN
 40
5.0292
  9
$DIMLFAC
 40
1.0
  9
$DIMBLK
  1
_FILLED
  9
$DIMALT
 70
0
  9
$DIMALTF
 40
25.4
  9
$DIMTXT
 40
3.0
  9
$DIMTOL
 70
1
  9
$DIMLIM
 70
0
  9
$DIMTFAC
 40
1.0
  9
$DIMTP
 40
0.01
  9
$DIMTM
 40
0.01
  9
$DIMGAP
 40
0.625
  9
$DIMDSEP
 70
44
  9
$AUNITS
 70
0
  9
$PDMODE
 70
3
  9
$PDSIZE
 40
3.0
  9
$HANDSEED
  5
339
  9
$TILEMODE
 70
1
  9
$MEASUREMENT
 70
1
  9
$INSUNITS
 70
4
  0
ENDSEC
  0
SECTION
  2
CLASSES
  0
CLASS
  1
ACDBDICTIONARYWDFLT
  2
AcDbDictionaryWithDefault
  3
AutoCAD 2000
 90
0
 91
1
280
0
281
0
  0
CLASS
  1
ACDBPLACEHOLDER
  2
AcDbPlaceHolder
  3
AutoCAD 2000
 90
0
 91
1
280
0
281
0
  0
CLASS
  1
LAYOUT
  2
AcDbLayout
  3
AutoCAD 2000
 90
0
 91
0
280
0
281
0
  0
ENDSEC
  0
SECTION
  2
TABLES
  0
TABLE
  2
VPORT
  5
8
100
AcDbSymbolTable
 70
2
  0
VPORT
  5
1F4
100
AcDbSymbolTableRecord
100
AcDbViewportTableRecord
  2
*ACTIVE
 70
0
 10
0.0
 20
0.0
 11
1.0
 21
1.0
 12
279.4
 22
215.9
 13
0.0
 23
0.0
 14
1.0
 24
1.0
 15
0.0
 25
0.0
 16
0.0
 26
0.0
 36
1.0
 17
0.0
 27
0.0
 37
0.0
 40
431.8
 41
1.2941176471
 42
50.0
 43
0.0
 44
0.0
 50
0.0
 51
0.0
 71
0
 72
100
 73
1
 74
1
 75
0
 76
0
 77
0
 78
0
  0
ENDTAB
  0
TABLE
  2
LTYPE
  5
5
100
AcDbSymbolTable
 70
6
  0
LTYPE
  5
14
100
AcDbSymbolTableRecord
100
AcDbLinetypeTableRecord
  2
BYBLOCK
 70
0
  3

 72
65
 73
0
 40
0.0
  0
LTYPE
  5
15
100
AcDbSymbolTableRecord
100
AcDbLinetypeTableRecord
  2
BYLAYER
 70
0
  3

 72
65
 73
0
 40
0.0
  0
LTYPE
  5
16
100
AcDbSymbolTableRecord
100
AcDbLinetypeTableRecord
  2
CONTINUOUS
 70
64
  3
Solid line
 72
65
 73
0
 40
0.0
  0
LTYPE
  5
1F5
100
AcDbSymbolTableRecord
100
AcDbLinetypeTableRecord
  2
CENTER
 70
64
  3
____ _ ____ _ ____ _ ____ _ ____ _ ____ _ ____
 72
65
 73
4
 40
0.6
 49
0.375
 74
0
 49
-0.075
 74
0
 49
0.075
 74
0
 49
-0.075
 74
0
  0
LTYPE
  5
1F6
100
AcDbSymbolTableRecord
100
AcDbLinetypeTableRecord
  2
HIDDEN
 70
64
  3
- - - - - - - - - - - - - - - - - - - -
 72
65
 73
2
 40
0.2
 49
0.1
 74
0
 49
-0.1
 74
0
  0
LTYPE
  5
1F7
100
AcDbSymbolTableRecord
100
AcDbLinetypeTableRecord
  2
PHANTOM
 70
64
  3
_____ _ _ _____ _ _ _____ _ _ _____
 72
65
 73
6
 40
0.8
 49
0.45
 74
0
 49
-0.05
 74
0
 49
0.1
 74
0
 49
-0.05
 74
0
 49
0.1
 74
0
 49
-0.05
 74
0
  0
LTYPE
  5
1F8
100
AcDbSymbolTableRecord
100
AcDbLinetypeTableRecord
  2
DOT
 70
64
  3
. . . . . . . . . . . . . . . . . . . .
 72
65
 73
2
 40
0.2
 49
0.1
 74
0
 49
-0.1
 74
0
  0
LTYPE
  5
1F9
100
AcDbSymbolTableRecord
100
AcDbLinetypeTableRecord
  2
DASHED
 70
64
  3
- - - - - - - - - - - - - - - - - - - -
 72
65
 73
2
 40
0.2
 49
0.1
 74
0
 49
-0.1
 74
0
  0
ENDTAB
  0
TABLE
  2
LAYER
  5
2
100
AcDbSymbolTable
 70
36
  0
LAYER
  5
10
100
AcDbSymbolTableRecord
100
AcDbLayerTableRecord
  2
0
 70
0
 62
7
  6
CONTINUOUS
370
-3
390
F
  0
LAYER
  5
1FA
100
AcDbSymbolTableRecord
100
AcDbLayerTableRecord
  2
DEFAULT_1
 70
0
 62
7
  6
CENTER
370
-3
390
F
  0
LAYER
  5
1FB
100
AcDbSymbolTableRecord
100
AcDbLayerTableRecord
  2
DEFAULT_2
 70
0
 62
7
  6
HIDDEN
370
-3
390
F
  0
LAYER
  5
1FC
100
AcDbSymbolTableRecord
100
AcDbLayerTableRecord
  2
DEFAULT_3
 70
0
 62
7
  6
PHANTOM
370
-3
390
F
  0
LAYER
  5
1FD
100
AcDbSymbolTableRecord
100
AcDbLayerTableRecord
  2
ASSI
 70
0
 62
7
  6
CONTINUOUS
370
-3
390
F
  0
LAYER
  5
1FE
100
AcDbSymbolTableRecord
100
AcDbLayerTableRecord
  2
COORDINATE
 70
0
 62
7
  6
CONTINUOUS
370
-3
390
F
  0
LAYER
  5
1FF
100
AcDbSymbolTableRecord
100
AcDbLayerTableRecord
  2
COORD_ORIGINE
 70
0
 62
7
  6
CONTINUOUS
370
-3
390
F
  0
LAYER
  5
200
100
AcDbSymbolTableRecord
100
AcDbLayerTableRecord
  2
COPY_PUBLISH
 70
0
 62
7
  6
CONTINUOUS
370
-3
390
F
  0
LAYER
  5
201
100
AcDbSymbolTableRecord
100
AcDbLayerTableRecord
  2
COSMETIC
 70
0
 62
7
  6
CONTINUOUS
370
-3
390
F
  0
LAYER
  5
202
100
AcDbSymbolTableRecord
100
AcDbLayerTableRecord
  2
COSMETICHE
 70
0
 62
7
  6
CONTINUOUS
370
-3
390
F
  0
LAYER
  5
203
100
AcDbSymbolTableRecord
100
AcDbLayerTableRecord
  2
COSMETICI
 70
0
 62
7
  6
CONTINUOUS
370
-3
390
F
  0
LAYER
  5
204
100
AcDbSymbolTableRecord
100
AcDbLayerTableRecord
  2
CURVE
 70
0
 62
7
  6
CONTINUOUS
370
-3
390
F
  0
LAYER
  5
205
100
AcDbSymbolTableRecord
100
AcDbLayerTableRecord
  2
DRAFT
 70
0
 62
7
  6
CONTINUOUS
370
-3
390
F
  0
LAYER
  5
206
100
AcDbSymbolTableRecord
100
AcDbLayerTableRecord
  2
IMPORT_IGES
 70
0
 62
7
  6
CONTINUOUS
370
-3
390
F
  0
LAYER
  5
207
100
AcDbSymbolTableRecord
100
AcDbLayerTableRecord
  2
NOTE
 70
0
 62
7
  6
CONTINUOUS
370
-3
390
F
  0
LAYER
  5
208
100
AcDbSymbolTableRecord
100
AcDbLayerTableRecord
  2
PIANI
 70
0
 62
7
  6
CONTINUOUS
370
-3
390
F
  0
LAYER
  5
209
100
AcDbSymbolTableRecord
100
AcDbLayerTableRecord
  2
PIANI_ORIGINE
 70
0
 62
7
  6
CONTINUOUS
370
-3
390
F
  0
LAYER
  5
20A
100
AcDbSymbolTableRecord
100
AcDbLayerTableRecord
  2
PUNTI
 70
0
 62
7
  6
CONTINUOUS
370
-3
390
F
  0
LAYER
  5
20B
100
AcDbSymbolTableRecord
100
AcDbLayerTableRecord
  2
RACCORDO
 70
0
 62
7
  6
CONTINUOUS
370
-3
390
F
  0
LAYER
  5
20C
100
AcDbSymbolTableRecord
100
AcDbLayerTableRecord
  2
SIMBOLI
 70
0
 62
7
  6
CONTINUOUS
370
-3
390
F
  0
LAYER
  5
20D
100
AcDbSymbolTableRecord
100
AcDbLayerTableRecord
  2
SMUSSO
 70
0
 62
7
  6
CONTINUOUS
370
-3
390
F
  0
LAYER
  5
20E
100
AcDbSymbolTableRecord
100
AcDbLayerTableRecord
  2
SNAPLINE
 70
0
 62
7
  6
CONTINUOUS
370
-3
390
F
  0
LAYER
  5
20F
100
AcDbSymbolTableRecord
100
AcDbLayerTableRecord
  2
SUPERFICI
 70
0
 62
7
  6
CONTINUOUS
370
-3
390
F
  0
LAYER
  5
210
100
AcDbSymbolTableRecord
100
AcDbLayerTableRecord
  2
TRASH
 70
0
 62
7
  6
CONTINUOUS
370
-3
390
F
  0
LAYER
  5
211
100
AcDbSymbolTableRecord
100
AcDbLayerTableRecord
  2
XSEC_DATUMS
 70
0
 62
7
  6
CONTINUOUS
370
-3
390
F
  0
ENDTAB
  0
TABLE
  2
STYLE
  5
3
100
AcDbSymbolTable
 70
1
  0
STYLE
  5
11
100
AcDbSymbolTableRecord
100
AcDbTextStyleTableRecord
  2
STANDARD
 70
0
 40
0.0
 41
0.8
 50
0.0
 71
0
 42
0.2
  3
txt
  4

  0
STYLE
  5
212
100
AcDbSymbolTableRecord
100
AcDbTextStyleTableRecord
  2
TEXTSTYLE_1
 70
0
 40
0.0
 41
0.8
 50
0.0
 71
0
 42
0.2
  3
gdt
  4

  0
ENDTAB
  0
TABLE
  2
VIEW
  5
6
100
AcDbSymbolTable
 70
0
  0
ENDTAB
  0
TABLE
  2
UCS
  5
7
100
AcDbSymbolTable
 70
0
  0
ENDTAB
  0
TABLE
  2
APPID
  5
9
100
AcDbSymbolTable
 70
1
  0
APPID
  5
213
100
AcDbSymbolTableRecord
100
AcDbRegAppTableRecord
  2
ACAD
 70
0
  0
ENDTAB
  0
TABLE
  2
BLOCK_RECORD
  5
1
100
AcDbSymbolTable
 70
0
  0
BLOCK_RECORD
  5
214
100
AcDbSymbolTableRecord
100
AcDbBlockTableRecord
  2
*Model_Space
  0
BLOCK_RECORD
  5
215
100
AcDbSymbolTableRecord
100
AcDbBlockTableRecord
  2
*Paper_Space
  0
BLOCK_RECORD
  5
216
100
AcDbSymbolTableRecord
100
AcDbBlockTableRecord
  2
_FILLED
  0
ENDTAB
  0
TABLE
  2
DIMSTYLE
  5
A
100
AcDbSymbolTable
 70
1
100
AcDbDimStyleTable
 71
0
  0
DIMSTYLE
105
217
100
AcDbSymbolTableRecord
100
AcDbDimStyleTableRecord
  2
STANDARD
 70
0
  3

  4

 40
1.0
 41
3.0
 42
0.5
 43
0.38
 44
1.5
 45
0.0
 46
0.0
 47
0.01
 48
0.01
140
3.0
141
0.09
142
0.0
143
25.4
144
1.0
145
0.0
146
1.0
147
0.625
 71
1.0
 72
0.0
 73
0
 74
0
 75
0
 76
0
 77
1
 78
8
 79
2
170
0
171
1
172
0
173
0
174
0
175
0
176
0
177
0
178
0
270
2
179
2
271
2
272
2
273
2
274
2
275
0
280
0
281
0
282
0
283
1
284
8
285
0
286
0
287
3
288
0
340
11
278
44
341
216
342
216
343
216
344
216
  0
ENDTAB
  0
ENDSEC
  0
SECTION
  2
BLOCKS
  0
BLOCK
  5
20
100
AcDbEntity
  8
0
100
AcDbBlockBegin
  2
*Model_Space
 70
0
 10
0.0
 20
0.0
 30
0.0
  3
*Model_Space
  1

  0
ENDBLK
  5
21
100
AcDbEntity
  8
0
100
AcDbBlockEnd
  0
BLOCK
  5
1C
100
AcDbEntity
  8
0
100
AcDbBlockBegin
  2
*Paper_Space
 70
0
 10
0.0
 20
0.0
 30
0.0
  3
*Paper_Space
  1

  0
ENDBLK
  5
1D
100
AcDbEntity
  8
0
100
AcDbBlockEnd
  0
BLOCK
  5
218
100
AcDbEntity
  8
0
100
AcDbBlockBegin
  2
_FILLED
 70
64
 10
0.0
 20
0.0
  3
_FILLED
  1

  0
SOLID
  5
219
100
AcDbEntity
  8
0
  6
BYBLOCK
 62
0
100
AcDbTrace
 10
0.0
 20
0.0
 11
-1.0
 21
0.3166666667
 12
-1.0
 22
-0.3166666667
 13
-1.0
 23
-0.3166666667
  0
ENDBLK
  5
21A
100
AcDbEntity
  8
0
  6
BYBLOCK
 62
0
100
AcDbBlockEnd
  0
ENDSEC
  0
SECTION
  2
ENTITIES
  0
LWPOLYLINE
  5
21B
100
AcDbEntity
  8
0
100
AcDbPolyline
 62
7
  6
CONTINUOUS
 90
34
 70
0
 10
0.950814552
 20
31.0905445872
 10
1.2543353057
 20
31.2375049159
 10
1.5690519952
 20
31.3601784824
 10
1.8949646205
 20
31.4585652869
 10
2.2328245815
 20
31.5327727918
 10
2.5818804783
 20
31.5826935346
 10
2.9398781109
 20
31.6080051275
 10
3.3068753494
 20
31.6085483021
 10
3.6828143236
 20
31.5844823269
 10
4.0652672228
 20
31.5359626196
 10
4.4542762046
 20
31.4628309177
 10
4.8497991113
 20
31.3652454839
 10
5.2492816595
 20
31.2438365239
 10
5.6527494755
 20
31.0984498539
 10
6.0601769329
 20
30.9292396578
 10
6.4689328685
 20
30.7372986937
 10
6.8790258802
 20
30.5224798497
 10
7.2904473702
 20
30.2849302377
 10
7.7005403819
 20
30.0261839511
 10
8.1092963176
 20
29.7461038066
 10
8.516723775
 20
29.4448269874
 10
8.920191591
 20
29.1242991368
 10
9.3196741391
 20
28.7843956635
 10
9.7151970459
 20
28.4252411588
 10
10.1042060277
 20
28.0491550393
 10
10.4866589269
 20
27.6560277251
 10
10.8625979011
 20
27.2459687962
 10
11.2295951396
 20
26.8216264097
 10
11.5875927721
 20
26.3829081242
 10
11.936648669
 20
25.9299063811
 10
12.27450863
 20
25.465546662
 10
12.6004212552
 20
24.9908041272
 10
12.9151379447
 20
24.5047036163
 10
13.2186586984
 20
24.0072451293
  0
LINE
  5
21C
100
AcDbEntity
  8
ASSI
100
AcDbLine
 62
7
  6
CONTINUOUS
 10
-5.8830797978
 20
27.1471969114
 11
-0.2262255483
 21
30.413393658
  0
LINE
  5
21D
100
AcDbEntity
  8
0
100
AcDbLine
 62
7
  6
CONTINUOUS
 10
-0.1098456197
 20
30.4781326972
 11
0.950814552
 21
31.0905445872
  0
LINE
  5
21E
100
AcDbEntity
  8
0
100
AcDbLine
 62
7
  6
CONTINUOUS
 10
-0.2261782327
 20
30.4133117375
 11
-0.1098456197
 21
30.4781326972
  0
LINE
  5
21F
100
AcDbEntity
  8
RACCORDO
100
AcDbLine
 62
7
  6
CONTINUOUS
 10
3.9027561099
 20
-31.442522745
 11
-1.0469913584
 21
-28.5846005917
  0
LINE
  5
220
100
AcDbEntity
  8
ASSI
100
AcDbLine
 62
7
  6
CONTINUOUS
 10
-3.8754184832
 20
-26.9515022184
 11
-5.4664087408
 21
-26.0328843834
  0
LINE
  5
221
100
AcDbEntity
  8
ASSI
100
AcDbLine
 62
7
  6
CONTINUOUS
 10
-9.3554960374
 20
-23.7873741201
 11
-10.946486295
 21
-22.8687562851
  0
LINE
  5
222
100
AcDbEntity
  8
RACCORDO
100
AcDbLine
 62
7
  6
CONTINUOUS
 10
-13.7749134198
 20
-21.2356579118
 11
-18.7246608881
 21
-18.3777357585
  0
LWPOLYLINE
  5
223
100
AcDbEntity
  8
RACCORDO
100
AcDbPolyline
 62
7
  6
CONTINUOUS
 90
12
 70
0
 10
-18.7246608881
 20
-18.3777357585
 10
-18.7759176149
 20
-18.3457519697
 10
-18.8224567542
 20
-18.3120566563
 10
-18.8642783061
 20
-18.2766498182
 10
-18.9015627137
 20
-18.2393151119
 10
-18.9341295339
 20
-18.2002688809
 10
-18.9614374372
 20
-18.1601601562
 10
-18.9833985223
 20
-18.1189711784
 10
-19.0001006907
 20
-18.0767197069
 10
-19.0112663168
 20
-18.0341080505
 10
-19.016802859
 20
-17.9911301886
 10
-19.0174949267
 20
-17.9694611652
  0
LWPOLYLINE
  5
224
100
AcDbEntity
  8
RACCORDO
100
AcDbPolyline
 62
7
  6
CONTINUOUS
 90
22
 70
0
 10
-0.9762806807
 20
27.1850666467
 10
-1.0282043281
 20
27.1529998509
 10
-1.0797292297
 20
27.1165901498
 10
-1.1308553855
 20
27.0758375432
 10
-1.182042166
 20
27.030349002
 10
-1.2328302008
 20
26.9805175553
 10
-1.2818413788
 20
26.9275222913
 10
-1.3289271956
 20
26.8712869854
 10
-1.3742361557
 20
26.8118878621
 10
-1.4168356613
 20
26.7507326828
 10
-1.4564488669
 20
26.6882386748
 10
-1.493352618
 20
26.6239886107
 10
-1.5274448541
 20
26.5581385699
 10
-1.5589456072
 20
26.4902523483
 10
-1.5876348452
 20
26.4207661498
 10
-1.6127504107
 20
26.3511446659
 10
-1.6341673217
 20
26.2812699085
 10
-1.6520105603
 20
26.2112598655
 10
-1.6658929148
 20
26.1429331923
 10
-1.6756853145
 20
26.0768961073
 10
-1.6815168301
 20
26.012542392
 10
-1.6833874615
 20
25.9498720464
  0
LINE
  5
225
100
AcDbEntity
  8
RACCORDO
100
AcDbLine
 62
7
  6
CONTINUOUS
 10
-0.9762806807
 20
27.1850666467
 11
3.8320454318
 21
29.9613338816
  0
LINE
  5
226
100
AcDbEntity
  8
0
100
AcDbLine
 62
7
  6
CONTINUOUS
 10
-3.8408101656
 20
22.9569338108
 11
-3.4989600998
 21
23.1543137544
  0
LWPOLYLINE
  5
227
100
AcDbEntity
  8
RACCORDO
100
AcDbPolyline
 62
253
  6
CONTINUOUS
 90
4
 70
0
 10
-3.8408101656
 20
22.9569338108
 10
-3.6944315805
 20
23.0353694716
 10
-3.4400167471
 20
23.1452779461
 10
-3.3154914022
 20
23.184391721
  0
LWPOLYLINE
  5
228
100
AcDbEntity
  8
RACCORDO
100
AcDbPolyline
 62
7
  6
CONTINUOUS
 90
10
 70
0
 10
-4.3400777983
 20
22.841870669
 10
-4.1269858055
 20
22.9523580539
 10
-3.9087986575
 20
23.0420978078
 10
-3.6820390067
 20
23.1133690288
 10
-3.4466045036
 20
23.1660228342
 10
-3.2025974977
 20
23.2002081066
 10
-2.9520001962
 20
23.2156831161
 10
-2.6954733346
 20
23.2123672862
 10
-2.4323561773
 20
23.1903411933
 10
-2.1626487243
 20
23.1496048376
  0
LWPOLYLINE
  5
229
100
AcDbEntity
  8
RACCORDO
100
AcDbPolyline
 62
7
  6
CONTINUOUS
 90
4
 70
0
 10
-3.8524486801
 20
23.0598087704
 10
-3.9763438133
 20
22.9470428365
 10
-4.1402466982
 20
22.7703350278
 10
-4.1712583083
 20
22.7309352447
  0
LWPOLYLINE
  5
22A
100
AcDbEntity
  8
RACCORDO
100
AcDbPolyline
 62
7
  6
CONTINUOUS
 90
3
 70
0
 10
-4.7199035631
 20
22.5761841066
 10
-4.5325382583
 20
22.7194012033
 10
-4.3400777983
 20
22.841870669
  0
LWPOLYLINE
  5
22B
100
AcDbEntity
  8
RACCORDO
100
AcDbPolyline
 62
7
  6
CONTINUOUS
 90
11
 70
0
 10
-1.890482994
 20
23.1880939888
 10
-1.8710117865
 20
23.2002172313
 10
-1.8332166642
 20
23.2298450924
 10
-1.7989688454
 20
23.2653036052
 10
-1.768965159
 20
23.3058713073
 10
-1.7432925487
 20
23.3516528634
 10
-1.7218640708
 20
23.4025436087
 10
-1.7051157233
 20
23.4575080864
 10
-1.6931928389
 20
23.5162011442
 10
-1.685950085
 20
23.5789679343
 10
-1.6833874615
 20
23.6458084568
  0
LINE
  5
22C
100
AcDbEntity
  8
0
100
AcDbLine
 62
7
  6
CONTINUOUS
 10
-0.2691738991
 20
24.8542825423
 11
3.8320454318
 21
27.2222751836
  0
LINE
  5
22D
100
AcDbEntity
  8
0
100
AcDbLine
 62
7
  6
CONTINUOUS
 10
-0.7641486459
 20
24.4028763793
 11
-0.2691738991
 21
24.6886685946
  0
LINE
  5
22E
100
AcDbEntity
  8
RACCORDO
100
AcDbLine
 62
7
  6
CONTINUOUS
 10
1.7107250877
 20
25.633623192
 11
6.5190512003
 21
28.409890427
  0
LINE
  5
22F
100
AcDbEntity
  8
RACCORDO
100
AcDbLine
 62
253
  6
CONTINUOUS
 10
-0.7641486459
 20
24.1765654281
 11
-1.6833874615
 21
23.6458084568
  0
LINE
  5
230
100
AcDbEntity
  8
RACCORDO
100
AcDbLine
 62
7
  6
CONTINUOUS
 10
-0.971231267
 20
23.718828567
 11
-1.8904700825
 21
23.1880715956
  0
LINE
  5
231
100
AcDbEntity
  8
RACCORDO
100
AcDbLine
 62
253
  6
CONTINUOUS
 10
-1.2612882273
 20
23.4455852629
 11
-1.1198666491
 21
23.5272402873
  0
LINE
  5
232
100
AcDbEntity
  8
RACCORDO
100
AcDbLine
 62
253
  6
CONTINUOUS
 10
-0.799503985
 20
22.7903204172
 11
-0.6580826288
 21
22.8719753359
  0
LINE
  5
233
100
AcDbEntity
  8
RACCORDO
100
AcDbLine
 62
253
  6
CONTINUOUS
 10
-0.6580826288
 20
22.771321916
 11
-0.0923972038
 21
23.0979415906
  0
LINE
  5
234
100
AcDbEntity
  8
0
100
AcDbLine
 62
7
  6
CONTINUOUS
 10
1.003618307
 20
23.7077736333
 11
-0.0914151377
 21
23.0755150463
  0
LINE
  5
235
100
AcDbEntity
  8
0
100
AcDbLine
 62
7
  6
CONTINUOUS
 10
1.003618307
 20
23.0171968011
 11
0.4732882211
 21
22.7109908561
  0
LINE
  5
236
100
AcDbEntity
  8
0
100
AcDbLine
 62
7
  6
CONTINUOUS
 10
-10.4161562091
 20
-18.2761405694
 11
-9.3554960374
 21
-18.8885524594
  0
LINE
  5
237
100
AcDbEntity
  8
0
100
AcDbLine
 62
7
  6
CONTINUOUS
 10
-5.4664087408
 20
-21.1340627227
 11
-4.4057485691
 21
-21.7464746127
  0
LWPOLYLINE
  5
238
100
AcDbEntity
  8
ASSI
100
AcDbPolyline
 62
7
  6
CONTINUOUS
 90
41
 70
0
 10
-13.9516901151
 20
-16.01473224
 10
-14.1019523782
 20
-15.9224932731
 10
-14.2505281185
 20
-15.8208105945
 10
-14.3974173359
 20
-15.7096842045
 10
-14.5431630606
 20
-15.5886221624
 10
-14.6872222623
 20
-15.4581164087
 10
-14.8279658509
 20
-15.319642765
 10
-14.9653561897
 20
-15.1731107856
 10
-15.0994309153
 20
-15.0186109162
 10
-15.2286738466
 20
-14.8578903151
 10
-15.3530301365
 20
-14.6908783691
 10
-15.472554632
 20
-14.5176456916
 10
-15.5858956929
 20
-14.3401512804
 10
-15.6929831295
 20
-14.1583467595
 10
-15.7938871315
 20
-13.972280505
 10
-15.8874666283
 20
-13.784056643
 10
-15.9736384774
 20
-13.593650682
 10
-16.0524858212
 20
-13.4010871136
 10
-16.1231170162
 20
-13.2085435387
 10
-16.1854387988
 20
-13.0160201843
 10
-16.2395444327
 20
-12.8235168233
 10
-16.2848220654
 20
-12.633210376
 10
-16.321171488
 20
-12.4451257801
 10
-16.3486929094
 20
-12.2592380977
 10
-16.3670751043
 20
-12.0776494358
 10
-16.3762143308
 20
-11.9004085937
 10
-16.3762143308
 20
-11.727466772
 10
-16.3670751043
 20
-11.5607796796
 10
-16.3486929094
 20
-11.4004183156
 10
-16.321171488
 20
-11.2463116808
 10
-16.2848220654
 20
-11.1002024869
 10
-16.2395444327
 20
-10.9621815149
 10
-16.1854387988
 20
-10.8321579838
 10
-16.1231170162
 20
-10.7116022618
 10
-16.0524858212
 20
-10.6006218205
 10
-15.9736384774
 20
-10.4991091883
 10
-15.8874666283
 20
-10.4082123187
 10
-15.7938871315
 20
-10.3280517139
 10
-15.6929831295
 20
-10.2585068717
 10
-15.5858956929
 20
-10.2003642383
 10
-15.5116213795
 20
-10.1682512796
  0
LWPOLYLINE
  5
239
100
AcDbEntity
  8
ASSI
100
AcDbPolyline
 62
7
  6
CONTINUOUS
 90
41
 70
0
 10
-0.8702146631
 20
-23.5678122166
 10
-1.0204769263
 20
-23.4755732496
 10
-1.1690526666
 20
-23.3738905711
 10
-1.315941884
 20
-23.2627641811
 10
-1.4616876086
 20
-23.141702139
 10
-1.6057468104
 20
-23.0111963853
 10
-1.7464903989
 20
-22.8727227416
 10
-1.8838807378
 20
-22.7261907622
 10
-2.0179554634
 20
-22.5716908927
 10
-2.1471983946
 20
-22.4109702916
 10
-2.2715546845
 20
-22.2439583457
 10
-2.39107918
 20
-22.0707256682
 10
-2.504420241
 20
-21.893231257
 10
-2.6115076776
 20
-21.7114267361
 10
-2.7124116796
 20
-21.5253604815
 10
-2.8059911764
 20
-21.3371366196
 10
-2.8921630254
 20
-21.1467306586
 10
-2.9710103692
 20
-20.9541670902
 10
-3.0416415643
 20
-20.7616235153
 10
-3.1039633469
 20
-20.5691001608
 10
-3.1580689807
 20
-20.3765967999
 10
-3.2033466135
 20
-20.1862903526
 10
-3.239696036
 20
-19.9982057566
 10
-3.2672174574
 20
-19.8123180743
 10
-3.2855996523
 20
-19.6307294124
 10
-3.2947388789
 20
-19.4534885703
 10
-3.2947388789
 20
-19.2805467486
 10
-3.2855996523
 20
-19.1138596562
 10
-3.2672174574
 20
-18.9534982921
 10
-3.239696036
 20
-18.7993916574
 10
-3.2033466135
 20
-18.6532824635
 10
-3.1580689807
 20
-18.5152614915
 10
-3.1039633469
 20
-18.3852379604
 10
-3.0416415643
 20
-18.2646822383
 10
-2.9710103692
 20
-18.153701797
 10
-2.8921630254
 20
-18.0521891649
 10
-2.8059911764
 20
-17.9612922952
 10
-2.7124116796
 20
-17.8811316905
 10
-2.6115076776
 20
-17.8115868482
 10
-2.504420241
 20
-17.7534442148
 10
-2.4301459275
 20
-17.7213312562
  0
LINE
  5
23A
100
AcDbEntity
  8
RACCORDO
100
AcDbLine
 62
7
  6
CONTINUOUS
 10
-19.0175541069
 20
-7.7635827053
 11
-19.0175541069
 21
-17.9694611652
  0
LINE
  5
23B
100
AcDbEntity
  8
RACCORDO
100
AcDbLine
 62
253
  6
CONTINUOUS
 10
-18.7246608881
 20
-8.1718572986
 11
-18.7246608881
 21
-18.3777357585
  0
LWPOLYLINE
  5
23C
100
AcDbEntity
  8
RACCORDO
100
AcDbPolyline
 62
253
  6
CONTINUOUS
 90
22
 70
0
 10
-17.6640007163
 20
-7.5595637734
 10
-17.6620235023
 20
-7.4974072547
 10
-17.6561029178
 20
-7.4333151032
 10
-17.646272073
 20
-7.3676457484
 10
-17.632585946
 20
-7.3007664399
 10
-17.6151210752
 20
-7.233051194
 10
-17.5939751313
 20
-7.1648787017
 10
-17.5692663708
 20
-7.0966302113
 10
-17.5411329753
 20
-7.028687396
 10
-17.5097322781
 20
-6.9614302196
 10
-17.4752398847
 20
-6.8952348115
 10
-17.4378486904
 20
-6.8304713633
 10
-17.397767802
 20
-6.7675020585
 10
-17.3552213682
 20
-6.706679047
 10
-17.3104473257
 20
-6.6483424756
 10
-17.2636960693
 20
-6.5928185863
 10
-17.2152290509
 20
-6.540417891
 10
-17.1653173178
 20
-6.4914334358
 10
-17.1142399965
 20
-6.4461391616
 10
-17.0622827321
 20
-6.4047883724
 10
-17.0097360907
 20
-6.3676123186
 10
-16.9568939345
 20
-6.3348189037
  0
LINE
  5
23D
100
AcDbEntity
  8
0
100
AcDbLine
 62
253
  6
CONTINUOUS
 10
1.0255939208
 20
21.8798759879
 11
0.4108394883
 21
21.5249244833
  0
LINE
  5
23E
100
AcDbEntity
  8
0
100
AcDbLine
 62
7
  6
CONTINUOUS
 10
-0.1037981077
 20
20.4990339415
 11
1.2748917147
 21
21.2950721659
  0
LINE
  5
23F
100
AcDbEntity
  8
0
100
AcDbLine
 62
7
  6
CONTINUOUS
 10
-0.1038660768
 20
20.4991512637
 11
-0.1258643971
 21
20.4867352537
  0
LINE
  5
240
100
AcDbEntity
  8
0
100
AcDbLine
 62
7
  6
CONTINUOUS
 10
-4.4057485691
 20
-17.6641232287
 11
-5.4664087408
 21
-17.0517113387
  0
LINE
  5
241
100
AcDbEntity
  8
0
100
AcDbLine
 62
7
  6
CONTINUOUS
 10
-9.3554960374
 20
-14.8062010754
 11
-10.4161562091
 21
-14.1937891854
  0
LWPOLYLINE
  5
242
100
AcDbEntity
  8
RACCORDO
100
AcDbPolyline
 62
253
  6
CONTINUOUS
 90
22
 70
0
 10
-17.6640007163
 20
-7.5595637734
 10
-17.7434139919
 20
-7.5171601207
 10
-17.8217077094
 20
-7.4820899043
 10
-17.898881869
 20
-7.4543531242
 10
-17.9754290686
 20
-7.4338415711
 10
-18.0508567102
 20
-7.4206634543
 10
-18.1236869999
 20
-7.4151434016
 10
-18.1937885555
 20
-7.4174444144
 10
-18.2612927592
 20
-7.4274034914
 10
-18.3251159643
 20
-7.4448562561
 10
-18.3852197074
 20
-7.4699342302
 10
-18.4416424518
 20
-7.5025058922
 10
-18.493415941
 20
-7.542012301
 10
-18.5404454545
 20
-7.5885523043
 10
-18.5828257128
 20
-7.6420270544
 10
-18.6198726204
 20
-7.7015810679
 10
-18.6515109093
 20
-7.7674107171
 10
-18.6778158476
 20
-7.8393196297
 10
-18.6983291437
 20
-7.9158632042
 10
-18.712898034
 20
-7.996559907
 10
-18.7216752821
 20
-8.0818912718
 10
-18.7246608881
 20
-8.1718572986
  0
LWPOLYLINE
  5
243
100
AcDbEntity
  8
RACCORDO
100
AcDbPolyline
 62
253
  6
CONTINUOUS
 90
22
 70
0
 10
3.9027561099
 20
-21.2366442851
 10
3.9575754798
 20
-21.2660130651
 10
4.0160427055
 20
-21.2929343658
 10
4.0778308145
 20
-21.3172576325
 10
4.1425942628
 20
-21.3388468394
 10
4.2099708667
 20
-21.3575812511
 10
4.2795838291
 20
-21.373356097
 10
4.3510438459
 20
-21.386083158
 10
4.4239512839
 20
-21.395691259
 10
4.4978984149
 20
-21.4021266676
 10
4.5724716968
 20
-21.4053533945
 10
4.6472540853
 20
-21.4053533945
 10
4.7218273671
 20
-21.4021266676
 10
4.7957744982
 20
-21.395691259
 10
4.8686819361
 20
-21.386083158
 10
4.940141953
 20
-21.3733560971
 10
5.0097549154
 20
-21.3575812511
 10
5.0771315193
 20
-21.3388468394
 10
5.1418949676
 20
-21.3172576325
 10
5.2036830766
 20
-21.292934366
 10
5.2621503023
 20
-21.2660130655
 10
5.3169696723
 20
-21.2366442858
  0
LINE
  5
244
100
AcDbEntity
  8
RACCORDO
100
AcDbLine
 62
253
  6
CONTINUOUS
 10
2.8420959381
 20
-19.3995269799
 11
-5.4664087408
 21
-14.6023005083
  0
LINE
  5
245
100
AcDbEntity
  8
RACCORDO
100
AcDbLine
 62
253
  6
CONTINUOUS
 10
-9.3554960374
 20
-12.356790245
 11
-17.6640007163
 21
-7.5595637734
  0
LWPOLYLINE
  5
246
100
AcDbEntity
  8
ASSI
100
AcDbPolyline
 62
7
  6
CONTINUOUS
 90
38
 70
0
 10
-13.9516901151
 20
-10.4129229172
 10
-13.8014278519
 20
-10.5051618841
 10
-13.6528521116
 20
-10.6068445626
 10
-13.5059628942
 20
-10.7179709527
 10
-13.3602171696
 20
-10.8390329948
 10
-13.2161579678
 20
-10.9695387484
 10
-13.0754143793
 20
-11.1080123921
 10
-12.9380240404
 20
-11.2545443716
 10
-12.8039493148
 20
-11.409044241
 10
-12.6747063836
 20
-11.5697648421
 10
-12.5503500937
 20
-11.736776788
 10
-12.4308255982
 20
-11.9100094656
 10
-12.3174845372
 20
-12.0875038768
 10
-12.2103971006
 20
-12.2693083977
 10
-12.1094930986
 20
-12.4553746522
 10
-12.0159136018
 20
-12.6435985142
 10
-11.9297417528
 20
-12.8340044752
 10
-11.850894409
 20
-13.0265680436
 10
-11.7802632139
 20
-13.2191116185
 10
-11.7179414313
 20
-13.4116349729
 10
-11.6638357974
 20
-13.6041383338
 10
-11.6185581647
 20
-13.7944447812
 10
-11.5822087422
 20
-13.9825293771
 10
-11.5546873208
 20
-14.1684170594
 10
-11.5363051259
 20
-14.3500057214
 10
-11.5271658993
 20
-14.5272465635
 10
-11.5271658993
 20
-14.7001883852
 10
-11.5363051259
 20
-14.8668754776
 10
-11.5546873208
 20
-15.0272368416
 10
-11.5822087422
 20
-15.1813434763
 10
-11.6185581647
 20
-15.3274526703
 10
-11.6638357974
 20
-15.4654736422
 10
-11.7179414313
 20
-15.5954971734
 10
-11.7802632139
 20
-15.7160528954
 10
-11.850894409
 20
-15.8270333367
 10
-11.9297417528
 20
-15.9285459689
 10
-12.0159136018
 20
-16.0194428385
 10
-12.0939578924
 20
-16.0874383218
  0
LWPOLYLINE
  5
247
100
AcDbEntity
  8
ASSI
100
AcDbPolyline
 62
7
  6
CONTINUOUS
 90
38
 70
0
 10
-0.8702146631
 20
-17.9660028937
 10
-0.7199524
 20
-18.0582418607
 10
-0.5713766597
 20
-18.1599245392
 10
-0.4244874423
 20
-18.2710509293
 10
-0.2787417176
 20
-18.3921129714
 10
-0.1346825159
 20
-18.522618725
 10
0.0060610727
 20
-18.6610923687
 10
0.1434514115
 20
-18.8076243481
 10
0.2775261372
 20
-18.9621242176
 10
0.4067690684
 20
-19.1228448187
 10
0.5311253583
 20
-19.2898567646
 10
0.6506498538
 20
-19.4630894421
 10
0.7639909147
 20
-19.6405838533
 10
0.8710783513
 20
-19.8223883742
 10
0.9719823533
 20
-20.0084546288
 10
1.0655618501
 20
-20.1966784908
 10
1.1517336992
 20
-20.3870844517
 10
1.230581043
 20
-20.5796480202
 10
1.3012122381
 20
-20.7721915951
 10
1.3635340207
 20
-20.9647149495
 10
1.4176396545
 20
-21.1572183104
 10
1.4629172872
 20
-21.3475247577
 10
1.4992667098
 20
-21.5356093537
 10
1.5267881312
 20
-21.721497036
 10
1.5451703261
 20
-21.9030856979
 10
1.5543095526
 20
-22.0803265401
 10
1.5543095526
 20
-22.2532683617
 10
1.5451703261
 20
-22.4199554542
 10
1.5267881312
 20
-22.5803168182
 10
1.4992667098
 20
-22.7344234529
 10
1.4629172872
 20
-22.8805326468
 10
1.4176396545
 20
-23.0185536188
 10
1.3635340207
 20
-23.14857715
 10
1.3012122381
 20
-23.269132872
 10
1.230581043
 20
-23.3801133133
 10
1.1517336992
 20
-23.4816259454
 10
1.0655618501
 20
-23.5725228151
 10
0.9875175595
 20
-23.6405182984
  0
LWPOLYLINE
  5
248
100
AcDbEntity
  8
RACCORDO
100
AcDbPolyline
 62
253
  6
CONTINUOUS
 90
12
 70
0
 10
-18.7246608881
 20
-8.1718572986
 10
-18.77552583
 20
-8.1402052815
 10
-18.8221518867
 20
-8.1064470381
 10
-18.8642783061
 20
-8.0707713583
 10
-18.9016695004
 20
-8.033377755
 10
-18.9341163628
 20
-7.9944753483
 10
-18.9614374372
 20
-7.9542816963
 10
-18.9834799332
 20
-7.9130215782
 10
-19.0001205801
 20
-7.8709257372
 10
-19.0112663168
 20
-7.8282295905
 10
-19.0168548117
 20
-7.7851719122
 10
-19.0175541069
 20
-7.7635827053
  0
LINE
  5
249
100
AcDbEntity
  8
ASSI
100
AcDbLine
 62
7
  6
CONTINUOUS
 10
-13.7749134198
 20
-21.2356579118
 11
-13.7749134198
 21
-19.1944822198
  0
LWPOLYLINE
  5
24A
100
AcDbEntity
  8
ASSI
100
AcDbPolyline
 62
7
  6
CONTINUOUS
 90
13
 70
0
 10
-13.7749134198
 20
-19.1944822198
 10
-13.7713295741
 20
-19.0817336653
 10
-13.7610282543
 20
-18.9745123745
 10
-13.7440094604
 20
-18.8728183472
 10
-13.7201253062
 20
-18.77621143
 10
-13.6895236778
 20
-18.6851317765
 10
-13.6526482334
 20
-18.600899847
 10
-13.6094075746
 20
-18.5236154008
 10
-13.5598930997
 20
-18.4531786787
 10
-13.504822663
 20
-18.3906108625
 10
-13.4441153238
 20
-18.3360265885
 10
-13.3778520226
 20
-18.2893112205
 10
-13.3607227853
 20
-18.2790524379
  0
LWPOLYLINE
  5
24B
100
AcDbEntity
  8
RACCORDO
100
AcDbPolyline
 62
253
  6
CONTINUOUS
 90
3
 70
0
 10
-2.1806321202
 20
23.0833968924
 10
-2.1517664861
 20
23.1386592817
 10
-2.1458384563
 20
23.1474576694
  0
LINE
  5
24C
100
AcDbEntity
  8
0
100
AcDbLine
 62
7
  6
CONTINUOUS
 10
12.1579985266
 20
23.3948332393
 11
13.2186586984
 21
24.0072451293
  0
LINE
  5
24D
100
AcDbEntity
  8
ASSI
100
AcDbLine
 62
7
  6
CONTINUOUS
 10
-0.0923972038
 20
13.9241502978
 11
1.3824765303
 21
14.7757239074
  0
LINE
  5
24E
100
AcDbEntity
  8
RACCORDO
100
AcDbLine
 62
7
  6
CONTINUOUS
 10
13.4226937729
 20
23.3131858786
 11
12.5048171519
 21
22.7863493734
  0
LWPOLYLINE
  5
24F
100
AcDbEntity
  8
RACCORDO
100
AcDbPolyline
 62
7
  6
CONTINUOUS
 90
6
 70
0
 10
13.4226937729
 20
23.3131858786
 10
13.4470720066
 20
23.3260520107
 10
13.4686567652
 20
23.3338453694
 10
13.486694899
 20
23.3366169605
 10
13.500270342
 20
23.3347733152
 10
13.503848622
 20
23.3331250121
  0
LWPOLYLINE
  5
250
100
AcDbEntity
  8
RACCORDO
100
AcDbPolyline
 62
253
  6
CONTINUOUS
 90
13
 70
0
 10
-16.9568939351
 20
-6.3348189033
 10
-17.072511418
 20
-6.272433131
 10
-17.1876338091
 20
-6.2190551306
 10
-17.301768137
 20
-6.1749134749
 10
-17.4144256585
 20
-6.1401971858
 10
-17.5251239594
 20
-6.1150549229
 10
-17.633389019
 20
-6.0995943485
 10
-17.7387572344
 20
-6.0938816689
 10
-17.8407773965
 20
-6.0979413494
 10
-17.9390126295
 20
-6.1117560059
 10
-18.0330422711
 20
-6.1352664796
 10
-18.122463677
 20
-6.1683720944
 10
-18.2069543355
 20
-6.2109659591
  0
LINE
  5
251
100
AcDbEntity
  8
RACCORDO
100
AcDbLine
 62
253
  6
CONTINUOUS
 10
3.5492027193
 20
-18.1747821098
 11
-4.7593019596
 21
-13.3775556382
  0
LINE
  5
252
100
AcDbEntity
  8
RACCORDO
100
AcDbLine
 62
253
  6
CONTINUOUS
 10
-8.6483892562
 20
-11.1320453749
 11
-16.9568939351
 21
-6.3348189033
  0
LINE
  5
253
100
AcDbEntity
  8
ASSI
100
AcDbLine
 62
7
  6
CONTINUOUS
 10
-10.946486295
 20
-22.8687562851
 11
-10.946486295
 21
-20.8275805931
  0
LINE
  5
254
100
AcDbEntity
  8
0
100
AcDbLine
 62
7
  6
CONTINUOUS
 10
-10.4161562091
 20
-14.1937891854
 11
-10.4161562091
 21
-18.2761405694
  0
LINE
  5
255
100
AcDbEntity
  8
0
100
AcDbLine
 62
253
  6
CONTINUOUS
 10
1.3824765303
 20
14.019665404
 11
-0.3205514746
 21
13.0363583779
  0
LINE
  5
256
100
AcDbEntity
  8
RACCORDO
100
AcDbLine
 62
253
  6
CONTINUOUS
 10
-0.0923972038
 20
11.8733310524
 11
-0.6580826288
 21
11.5467113777
  0
LINE
  5
257
100
AcDbEntity
  8
RACCORDO
100
AcDbLine
 62
253
  6
CONTINUOUS
 10
-0.6580826288
 20
11.4460579578
 11
-0.799503985
 21
11.3644030391
  0
LINE
  5
258
100
AcDbEntity
  8
RACCORDO
100
AcDbLine
 62
7
  6
CONTINUOUS
 10
-0.7616239393
 20
11.2171895272
 11
-0.9030452955
 21
11.1355346085
  0
LINE
  5
259
100
AcDbEntity
  8
0
100
AcDbLine
 62
253
  6
CONTINUOUS
 10
1.3824765303
 20
12.4421585454
 11
-0.1616137423
 21
11.550620174
  0
LINE
  5
25A
100
AcDbEntity
  8
RACCORDO
100
AcDbLine
 62
7
  6
CONTINUOUS
 10
-0.3512504801
 20
11.3011599759
 11
-0.8919407161
 21
10.9889722101
  0
LWPOLYLINE
  5
25B
100
AcDbEntity
  8
RACCORDO
100
AcDbPolyline
 62
253
  6
CONTINUOUS
 90
15
 70
0
 10
-0.799503985
 20
11.3644030391
 10
-0.8633287727
 20
11.3311225608
 10
-0.9320145352
 20
11.3021160118
 10
-1.0050528983
 20
11.2776176787
 10
-1.0818925914
 20
11.2578455641
 10
-1.1619691946
 20
11.2429697588
 10
-1.2447125984
 20
11.2331154777
 10
-1.3295055326
 20
11.2284228968
 10
-1.4157109118
 20
11.2289716579
 10
-1.5027056615
 20
11.2347575778
 10
-1.589834617
 20
11.2458311614
 10
-1.6764307977
 20
11.2621756851
 10
-1.7618466301
 20
11.2836428756
 10
-1.8454233041
 20
11.3101939739
 10
-1.926510764
 20
11.3417049843
  0
LWPOLYLINE
  5
25C
100
AcDbEntity
  8
RACCORDO
100
AcDbPolyline
 62
7
  6
CONTINUOUS
 90
4
 70
0
 10
-1.0897719033
 20
11.0548165764
 10
-0.9983059496
 20
11.0880983421
 10
-0.913296338
 20
11.1297112618
 10
-0.9030993774
 20
11.1355033958
  0
LINE
  5
25D
100
AcDbEntity
  8
0
100
AcDbLine
 62
7
  6
CONTINUOUS
 10
-9.3554960374
 20
-23.7873741201
 11
-9.3554960374
 21
-18.8885524594
  0
LINE
  5
25E
100
AcDbEntity
  8
RACCORDO
100
AcDbLine
 62
7
  6
CONTINUOUS
 10
-9.3554960374
 20
-14.8062010754
 11
-9.3554960374
 21
-12.356790245
  0
LINE
  5
25F
100
AcDbEntity
  8
RACCORDO
100
AcDbLine
 62
7
  6
CONTINUOUS
 10
-8.7645057797
 20
21.0172115538
 11
-8.7645057797
 21
-3.47689675
  0
LINE
  5
260
100
AcDbEntity
  8
RACCORDO
100
AcDbLine
 62
253
  6
CONTINUOUS
 10
-8.4716125609
 20
20.6089369605
 11
-8.4716125609
 21
-3.8851713433
  0
LWPOLYLINE
  5
261
100
AcDbEntity
  8
RACCORDO
100
AcDbPolyline
 62
7
  6
CONTINUOUS
 90
19
 70
0
 10
-8.7645057795
 20
21.0172115537
 10
-8.7548317734
 20
21.4906358822
 10
-8.7258152326
 20
21.9530682534
 10
-8.6774736906
 20
22.4037473055
 10
-8.6097489489
 20
22.8424189409
 10
-8.5227354097
 20
23.2677922368
 10
-8.4169000337
 20
23.6777232242
 10
-8.2925114476
 20
24.0716697909
 10
-8.1498738385
 20
24.4490389809
 10
-7.9899420838
 20
24.8079560271
 10
-7.8134335604
 20
25.1477549905
 10
-7.6207931567
 20
25.468407474
 10
-7.4128999803
 20
25.7692116248
 10
-7.1907746625
 20
26.0495410866
 10
-6.9549259669
 20
26.3095433061
 10
-6.7055201757
 20
26.549577553
 10
-6.4430991269
 20
26.7694803277
 10
-6.1686705213
 20
26.9687619575
 10
-5.8830797977
 20
27.1471969112
  0
LWPOLYLINE
  5
262
100
AcDbEntity
  8
RACCORDO
100
AcDbPolyline
 62
253
  6
CONTINUOUS
 90
7
 70
0
 10
1.675369749
 20
20.3970412818
 10
1.6956606967
 20
20.4382335511
 10
1.7216538555
 20
20.4822138554
 10
1.7529044755
 20
20.5282296796
 10
1.7888778503
 20
20.5754936801
 10
1.8289584658
 20
20.6231971574
 10
1.8609233765
 20
20.6579723985
  0
LWPOLYLINE
  5
263
100
AcDbEntity
  8
RACCORDO
100
AcDbPolyline
 62
7
  6
CONTINUOUS
 90
3
 70
0
 10
-0.8087311281
 20
11.0638973577
 10
-0.7709073211
 20
11.1129143019
 10
-0.738490529
 20
11.1679515105
  0
LWPOLYLINE
  5
264
100
AcDbEntity
  8
0
100
AcDbPolyline
 62
253
  6
CONTINUOUS
 90
6
 70
0
 10
0.6397218514
 20
10.7479885671
 10
0.7968070688
 20
10.885398775
 10
0.9599664822
 20
11.0095354049
 10
1.1150486001
 20
11.1096315726
 10
1.2613319872
 20
11.1835400706
 10
1.3824765303
 20
11.2272518951
  0
LWPOLYLINE
  5
265
100
AcDbEntity
  8
RACCORDO
100
AcDbPolyline
 62
7
  6
CONTINUOUS
 90
3
 70
0
 10
-0.8930730899
 20
10.9899649812
 10
-0.8516762402
 20
11.0211770614
 10
-0.8087311281
 20
11.0638973577
  0
LWPOLYLINE
  5
266
100
AcDbEntity
  8
0
100
AcDbPolyline
 62
253
  6
CONTINUOUS
 90
9
 70
0
 10
0.8377307165
 20
10.8131209808
 10
0.8424944768
 20
10.8154547305
 10
0.847725885
 20
10.8172316756
 10
0.8533401746
 20
10.8184230238
 10
0.8592463752
 20
10.8190094713
 10
0.8653487867
 20
10.8189815155
 10
0.8715485294
 20
10.8183396096
 10
0.8777451467
 20
10.8170941544
 10
0.8838382325
 20
10.8152653307
  0
LINE
  5
267
100
AcDbEntity
  8
RACCORDO
100
AcDbLine
 62
7
  6
CONTINUOUS
 10
3.9291295378
 20
9.2470812315
 11
4.0923706639
 21
9.298776325
  0
LINE
  5
268
100
AcDbEntity
  8
RACCORDO
100
AcDbLine
 62
7
  6
CONTINUOUS
 10
7.7918434064
 20
-13.2754869899
 11
1.604659071
 21
-9.7030842982
  0
LINE
  5
269
100
AcDbEntity
  8
RACCORDO
100
AcDbLine
 62
7
  6
CONTINUOUS
 10
-2.2844282255
 20
-7.4575740349
 11
-8.4716125609
 21
-3.8851713433
  0
LWPOLYLINE
  5
26A
100
AcDbEntity
  8
RACCORDO
100
AcDbPolyline
 62
7
  6
CONTINUOUS
 90
12
 70
0
 10
-8.4716125609
 20
-3.8851713433
 10
-8.5228692877
 20
-3.8531875545
 10
-8.569408427
 20
-3.8194922411
 10
-8.6112299789
 20
-3.784085403
 10
-8.6485143865
 20
-3.7467506967
 10
-8.6810812067
 20
-3.7077044657
 10
-8.70838911
 20
-3.667595741
 10
-8.7303501951
 20
-3.6264067632
 10
-8.7470523635
 20
-3.5841552917
 10
-8.7582179896
 20
-3.5415436353
 10
-8.7637545318
 20
-3.4985657734
 10
-8.7644465995
 20
-3.47689675
  0
LINE
  5
26B
100
AcDbEntity
  8
0
100
AcDbLine
 62
7
  6
CONTINUOUS
 10
-5.4664087408
 20
-26.0328843834
 11
-5.4664087408
 21
-21.1340627227
  0
LINE
  5
26C
100
AcDbEntity
  8
RACCORDO
100
AcDbLine
 62
7
  6
CONTINUOUS
 10
-5.4664087408
 20
-17.0517113387
 11
-5.4664087408
 21
-14.6023005083
  0
LWPOLYLINE
  5
26D
100
AcDbEntity
  8
RACCORDO
100
AcDbPolyline
 62
7
  6
CONTINUOUS
 90
22
 70
0
 10
-5.4664087408
 20
-14.6023005083
 10
-5.4643401151
 20
-14.5395332802
 10
-5.4584305673
 20
-14.4755606052
 10
-5.4486800975
 20
-14.4103824833
 10
-5.4349915802
 20
-14.3436223373
 10
-5.4174621408
 20
-14.2756567445
 10
-5.3963831558
 20
-14.2076154366
 10
-5.3716952953
 20
-14.1394971481
 10
-5.3434578891
 20
-14.0713031445
 10
-5.3121403026
 20
-14.0041669544
 10
-5.2776910514
 20
-13.9381062589
 10
-5.2401616199
 20
-13.8731033768
 10
-5.2001758265
 20
-13.8102387934
 10
-5.1576926139
 20
-13.7495482499
 10
-5.1127530394
 20
-13.6909960051
 10
-5.0661040938
 20
-13.6355553212
 10
-5.0177172054
 20
-13.583278207
 10
-4.9676209459
 20
-13.5341126536
 10
-4.916648021
 20
-13.4888758965
 10
-4.8650759993
 20
-13.4478403475
 10
-4.8126273122
 20
-13.4107335947
 10
-4.7593019596
 20
-13.3775556382
  0
LINE
  5
26E
100
AcDbEntity
  8
RACCORDO
100
AcDbLine
 62
7
  6
CONTINUOUS
 10
1.4111279475
 20
21.1202608458
 11
1.4042731812
 21
21.0972704115
  0
LWPOLYLINE
  5
26F
100
AcDbEntity
  8
RACCORDO
100
AcDbPolyline
 62
253
  6
CONTINUOUS
 90
6
 70
0
 10
-2.2137175473
 20
11.5121719113
 10
-2.2279591003
 20
11.4744724866
 10
-2.2359075814
 20
11.440910953
 10
-2.2374269898
 20
11.4120615578
 10
-2.2324913277
 20
11.3884179225
 10
-2.2211188022
 20
11.3703153585
  0
LWPOLYLINE
  5
270
100
AcDbEntity
  8
RACCORDO
100
AcDbPolyline
 62
7
  6
CONTINUOUS
 90
3
 70
0
 10
-0.738490529
 20
11.1679515105
 10
-0.7111950419
 20
11.2292853671
 10
-0.6890208598
 20
11.2969158717
  0
LWPOLYLINE
  5
271
100
AcDbEntity
  8
0
100
AcDbPolyline
 62
7
  6
CONTINUOUS
 90
13
 70
0
 10
0.2215403873
 20
10.1340470477
 10
0.255370845
 20
10.1957977699
 10
0.3022663015
 20
10.2708061558
 10
0.361817002
 20
10.3554912226
 10
0.4324589149
 20
10.4457100687
 10
0.5140874777
 20
10.5398261391
 10
0.6036441003
 20
10.6331498758
 10
0.6934514643
 20
10.7177692778
 10
0.7788535608
 20
10.7905226786
 10
0.8584767596
 20
10.8516109557
 10
0.9288674484
 20
10.8998337188
 10
0.9880946347
 20
10.9355716825
 10
0.9946342598
 20
10.9392014412
  0
LWPOLYLINE
  5
272
100
AcDbEntity
  8
RACCORDO
100
AcDbPolyline
 62
7
  6
CONTINUOUS
 90
4
 70
0
 10
-0.6890208598
 20
11.2969158717
 10
-0.7096603793
 20
11.2639415952
 10
-0.7339580767
 20
11.2373104598
 10
-0.7616239392
 20
11.2171895271
  0
LWPOLYLINE
  5
273
100
AcDbEntity
  8
0
100
AcDbPolyline
 62
253
  6
CONTINUOUS
 90
3
 70
0
 10
0.1586298626
 20
10.1740438916
 10
0.2190628673
 20
10.2668833588
 10
0.3448590555
 20
10.4309763205
  0
LWPOLYLINE
  5
274
100
AcDbEntity
  8
0
100
AcDbPolyline
 62
253
  6
CONTINUOUS
 90
3
 70
0
 10
0.3448590555
 20
10.4309763205
 10
0.4892533554
 20
10.5961192328
 10
0.6397218514
 20
10.7479885671
  0
LWPOLYLINE
  5
275
100
AcDbEntity
  8
0
100
AcDbPolyline
 62
7
  6
CONTINUOUS
 90
37
 70
0
 10
-1.7149510176
 20
4.4153159314
 10
-1.8017095908
 20
4.3583662455
 10
-1.8826634401
 20
4.2912090465
 10
-1.9567135306
 20
4.214739306
 10
-2.0237714262
 20
4.1288377323
 10
-2.083925563
 20
4.0336236171
 10
-2.1364086539
 20
3.9303114497
 10
-2.1811224343
 20
3.8187974956
 10
-2.2181651689
 20
3.6991854893
 10
-2.2470643645
 20
3.5730011237
 10
-2.2677157042
 20
3.440160208
 10
-2.2802235049
 20
3.3007469329
 10
-2.2844282255
 20
3.1565395634
 10
-2.2802235049
 20
3.0074766879
 10
-2.2677157042
 20
2.853619718
 10
-2.2470643645
 20
2.696931153
 10
-2.2181651689
 20
2.5373747205
 10
-2.1811224343
 20
2.3749866929
 10
-2.1364086539
 20
2.211838386
 10
-2.083925563
 20
2.0479200608
 10
-2.0237714262
 20
1.8832414562
 10
-1.9567135306
 20
1.7199031054
 10
-1.8826634401
 20
1.5579221767
 10
-1.8017095908
 20
1.3972815017
 10
-1.7148845772
 20
1.2400301082
 10
-1.6221131908
 20
1.0862114122
 10
-1.52347064
 20
0.9357819978
 10
-1.420215145
 20
0.7906606444
 10
-1.3122876149
 20
0.6509153475
 10
-1.1997471405
 20
0.5164781116
 10
-1.0840292149
 20
0.3890637307
 10
-0.9650931356
 20
0.2687621661
 10
-0.8429796049
 20
0.1554834565
 10
-0.7192462237
 20
0.0506725111
 10
-0.5944121922
 20
-0.0451890334
 10
-0.46795831
 20
-0.1325828136
 10
-0.3398845772
 20
-0.2115088295
  0
LINE
  5
276
100
AcDbEntity
  8
RACCORDO
100
AcDbLine
 62
253
  6
CONTINUOUS
 10
15.7780734666
 20
15.0187838751
 11
14.8629112183
 21
14.4848180605
  0
LINE
  5
277
100
AcDbEntity
  8
0
100
AcDbLine
 62
7
  6
CONTINUOUS
 10
4.0095691486
 20
9.3605539756
 11
4.3518725238
 21
9.5581956544
  0
LINE
  5
278
100
AcDbEntity
  8
RACCORDO
100
AcDbLine
 62
253
  6
CONTINUOUS
 10
9.2060569688
 20
11.2186213139
 11
14.8629112183
 21
14.4848180605
  0
LWPOLYLINE
  5
279
100
AcDbEntity
  8
RACCORDO
100
AcDbPolyline
 62
7
  6
CONTINUOUS
 90
10
 70
0
 10
4.0095691484
 20
9.3605539759
 10
3.8145276433
 20
9.2574582342
 10
3.6107371655
 20
9.1685067983
 10
3.3986306336
 20
9.0941434866
 10
3.1787884523
 20
9.0347956865
 10
2.9515694828
 20
8.9907696594
 10
2.7170404203
 20
8.9623340508
 10
2.4754881653
 20
8.9498293916
 10
2.227490038
 20
8.9535863229
 10
1.9737802442
 20
8.9738489157
  0
LWPOLYLINE
  5
27A
100
AcDbEntity
  8
RACCORDO
100
AcDbPolyline
 62
7
  6
CONTINUOUS
 90
61
 70
0
 10
3.6602688648
 20
8.9857565181
 10
3.4537203099
 20
8.8782237354
 10
3.2364276599
 20
8.7880638301
 10
3.0098907223
 20
8.7163242602
 10
2.7741800926
 20
8.662864307
 10
2.5311054099
 20
8.6280939171
 10
2.2806100159
 20
8.6121569578
 10
2.0227505689
 20
8.6149095618
 10
1.7595066827
 20
8.6363300741
 10
1.4908369204
 20
8.6765621981
 10
1.2167827189
 20
8.7354622302
 10
0.9394480029
 20
8.8125774055
 10
0.6588078064
 20
8.9080477731
 10
0.3748870954
 20
9.0217332838
 10
0.0898646923
 20
9.1527610241
 10
-0.19626759
 20
9.3012640915
 10
-0.4835015644
 20
9.4671093884
 10
-0.7696338468
 20
9.6490247085
 10
-1.0546562499
 20
9.847133695
 10
-1.3385769609
 20
10.0613127047
 10
-1.6192171574
 20
10.2899186014
 10
-1.8965518734
 20
10.5330626046
 10
-2.1706060749
 20
10.7906334949
 10
-2.4392758372
 20
11.060654478
 10
-2.7025197233
 20
11.343221407
 10
-2.9603791703
 20
11.6382384289
 10
-3.2108745643
 20
11.9434411903
 10
-3.453949247
 20
12.2589081309
 10
-3.6896598767
 20
12.584560811
 10
-3.9161968144
 20
12.9178995581
 10
-4.1334894644
 20
13.258983569
 10
-4.3416084223
 20
13.607753647
 10
-4.5389558357
 20
13.9615325295
 10
-4.7254488017
 20
14.3203588003
 10
-4.9011702232
 20
14.6841938756
 10
-5.0647709562
 20
15.0502447418
 10
-5.2161577061
 20
15.4185284769
 10
-5.3554237675
 20
15.7890280029
 10
-5.4814998814
 20
16.1588990728
 10
-5.5942845165
 20
16.5281368631
 10
-5.6938792041
 20
16.8967461972
 10
-5.7795192782
 20
17.2618972991
 10
-5.8510973178
 20
17.6235635546
 10
-5.9087207439
 20
17.9817715779
 10
-5.9519471539
 20
18.3337714356
 10
-5.9806657193
 20
18.6795153377
 10
-5.9949872685
 20
19.0190510742
 10
-5.9948018841
 20
19.3497720821
 10
-5.9799978916
 20
19.6716104999
 10
-5.9506869654
 20
19.9846341891
 10
-5.907094211
 20
20.2864401711
 10
-5.8491096892
 20
20.5769420817
 10
-5.7768433391
 20
20.856226285
 10
-5.6908500843
 20
21.1221488954
 10
-5.5910242612
 20
21.3746070421
 10
-5.4774715334
 20
21.6137035958
 10
-5.3510638149
 20
21.8376032824
 10
-5.2117021596
 20
22.046189103
 10
-5.0594855137
 20
22.2395780565
 10
-4.8955826289
 20
22.4162858651
 10
-4.7199035631
 20
22.5761841066
  0
LINE
  5
27B
100
AcDbEntity
  8
0
100
AcDbLine
 62
7
  6
CONTINUOUS
 10
-4.4057485691
 20
-21.7464746127
 11
-4.4057485691
 21
-17.6641232287
  0
LINE
  5
27C
100
AcDbEntity
  8
ASSI
100
AcDbLine
 62
7
  6
CONTINUOUS
 10
-3.8754184832
 20
-26.9515022184
 11
-3.8754184832
 21
-24.9103265264
  0
LINE
  5
27D
100
AcDbEntity
  8
0
100
AcDbLine
 62
7
  6
CONTINUOUS
 10
-3.3450883973
 20
-11.3358670321
 11
-3.3450883973
 21
-12.5610064515
  0
LINE
  5
27E
100
AcDbEntity
  8
0
100
AcDbLine
 62
7
  6
CONTINUOUS
 10
-2.2844282255
 20
-7.4575740349
 11
-2.2844282255
 21
-10.7234551421
  0
LINE
  5
27F
100
AcDbEntity
  8
RACCORDO
100
AcDbLine
 62
253
  6
CONTINUOUS
 10
-2.2137175474
 20
11.5121719114
 11
-2.2137175474
 21
22.6425515449
  0
LWPOLYLINE
  5
280
100
AcDbEntity
  8
ASSI
100
AcDbPolyline
 62
7
  6
CONTINUOUS
 90
13
 70
0
 10
-3.8754184832
 20
-24.9103265264
 10
-3.8718346375
 20
-24.7975779719
 10
-3.8615333177
 20
-24.690356681
 10
-3.8445145238
 20
-24.5886626538
 10
-3.8206303695
 20
-24.4920557366
 10
-3.7900287412
 20
-24.4009760831
 10
-3.7531532968
 20
-24.3167441536
 10
-3.7099126379
 20
-24.2394597074
 10
-3.6603981631
 20
-24.1690229853
 10
-3.6053277264
 20
-24.1064551691
 10
-3.5446203871
 20
-24.0518708951
 10
-3.478357086
 20
-24.0051555271
 10
-3.4612278487
 20
-23.9948967445
  0
LWPOLYLINE
  5
281
100
AcDbEntity
  8
0
100
AcDbPolyline
 62
7
  6
CONTINUOUS
 90
10
 70
0
 10
-0.1538638705
 20
21.8894486735
 10
-0.1641023719
 20
21.7799841267
 10
-0.1821300202
 20
21.6778672591
 10
-0.2079468155
 20
21.5830980707
 10
-0.2418341341
 20
21.4951322726
 10
-0.2835105996
 20
21.4145141536
 10
-0.3321320832
 20
21.34287658
 10
-0.3874172084
 20
21.2807638404
 10
-0.4496473515
 20
21.2276316462
 10
-0.5038636548
 20
21.1919228842
  0
LINE
  5
282
100
AcDbEntity
  8
RACCORDO
100
AcDbLine
 62
7
  6
CONTINUOUS
 10
1.4042731812
 20
21.0972704115
 11
1.3894210546
 21
21.0178300925
  0
LINE
  5
283
100
AcDbEntity
  8
0
100
AcDbLine
 62
7
  6
CONTINUOUS
 10
-0.1248833611
 20
11.6878383344
 11
-0.1616137423
 21
11.550620174
  0
LINE
  5
284
100
AcDbEntity
  8
0
100
AcDbLine
 62
253
  6
CONTINUOUS
 10
0.8973232266
 20
10.8381036276
 11
0.8897290585
 21
10.8128827713
  0
LINE
  5
285
100
AcDbEntity
  8
0
100
AcDbLine
 62
7
  6
CONTINUOUS
 10
-0.1616137423
 20
11.550620174
 11
-0.469850091
 21
10.6332160576
  0
LINE
  5
286
100
AcDbEntity
  8
0
100
AcDbLine
 62
253
  6
CONTINUOUS
 10
0.8377307165
 20
10.8131209808
 11
0.5430057696
 21
9.9359308615
  0
LINE
  5
287
100
AcDbEntity
  8
0
100
AcDbLine
 62
253
  6
CONTINUOUS
 10
0.8897290585
 20
10.8128827713
 11
0.586622684
 21
9.9107470018
  0
LWPOLYLINE
  5
288
100
AcDbEntity
  8
RACCORDO
100
AcDbPolyline
 62
253
  6
CONTINUOUS
 90
3
 70
0
 10
-0.2671644145
 20
4.0411611491
 10
-0.1934388518
 20
4.1461062102
 10
-0.1686081408
 20
4.1702937753
  0
LWPOLYLINE
  5
289
100
AcDbEntity
  8
RACCORDO
100
AcDbPolyline
 62
253
  6
CONTINUOUS
 90
4
 70
0
 10
4.4682099454
 20
9.7004010091
 10
4.3291163236
 20
9.5778925127
 10
4.1036014453
 20
9.4175132677
 10
4.0095691486
 20
9.3605539756
  0
LWPOLYLINE
  5
28A
100
AcDbEntity
  8
RACCORDO
100
AcDbPolyline
 62
7
  6
CONTINUOUS
 90
16
 70
0
 10
-18.2069543355
 20
-6.2109659591
 10
-18.2984125259
 20
-6.2682547039
 10
-18.3863752504
 20
-6.3326290808
 10
-18.4703087796
 20
-6.4039455897
 10
-18.5495357371
 20
-6.4818347666
 10
-18.623755677
 20
-6.5661950368
 10
-18.692953369
 20
-6.6573497989
 10
-18.7566397976
 20
-6.7551414904
 10
-18.8142980216
 20
-6.859286296
 10
-18.8657524313
 20
-6.9701442734
 10
-18.9106303364
 20
-7.0879400477
 10
-18.9482592814
 20
-7.2121019746
 10
-18.9780958845
 20
-7.3419621297
 10
-18.9997931892
 20
-7.4772123714
 10
-19.0130575925
 20
-7.6178199256
 10
-19.0175541069
 20
-7.7635827053
  0
LINE
  5
28B
100
AcDbEntity
  8
RACCORDO
100
AcDbLine
 62
7
  6
CONTINUOUS
 10
-8.7645057797
 20
-0.7590145047
 11
-18.2069543355
 21
-6.2109659591
  0
LINE
  5
28C
100
AcDbEntity
  8
RACCORDO
100
AcDbLine
 62
253
  6
CONTINUOUS
 10
-8.7645057797
 20
-1.6046366571
 11
-16.9568939351
 21
-6.3348189033
  0
LWPOLYLINE
  5
28D
100
AcDbEntity
  8
0
100
AcDbPolyline
 62
7
  6
CONTINUOUS
 90
4
 70
0
 10
-0.0972488331
 20
12.1503693883
 10
-0.0926125954
 20
11.9868874162
 10
-0.1018829788
 20
11.8332607485
 10
-0.1248833611
 20
11.6878383344
  0
LINE
  5
28E
100
AcDbEntity
  8
RACCORDO
100
AcDbLine
 62
7
  6
CONTINUOUS
 10
-1.6833874615
 20
25.9498720464
 11
-1.6833874615
 21
23.6458084568
  0
LINE
  5
28F
100
AcDbEntity
  8
ASSI
100
AcDbLine
 62
7
  6
CONTINUOUS
 10
-1.0469913584
 20
-28.5846005917
 11
-1.0469913584
 21
-26.5434248997
  0
LINE
  5
290
100
AcDbEntity
  8
RACCORDO
100
AcDbLine
 62
253
  6
CONTINUOUS
 10
-0.799503985
 20
11.3644030391
 11
-0.799503985
 21
22.7903204172
  0
LINE
  5
291
100
AcDbEntity
  8
RACCORDO
100
AcDbLine
 62
7
  6
CONTINUOUS
 10
-0.7641486459
 20
24.4028763793
 11
-0.7641486459
 21
24.1765654281
  0
LINE
  5
292
100
AcDbEntity
  8
RACCORDO
100
AcDbLine
 62
7
  6
CONTINUOUS
 10
-0.6580826288
 20
11.5467113777
 11
-0.6580826288
 21
11.4460579578
  0
LINE
  5
293
100
AcDbEntity
  8
RACCORDO
100
AcDbLine
 62
7
  6
CONTINUOUS
 10
-0.6580826288
 20
22.771321916
 11
-0.6580826288
 21
22.8719753359
  0
LINE
  5
294
100
AcDbEntity
  8
0
100
AcDbLine
 62
7
  6
CONTINUOUS
 10
-0.2691738991
 20
24.8542825423
 11
-0.2691738991
 21
24.6886685946
  0
LINE
  5
295
100
AcDbEntity
  8
RACCORDO
100
AcDbLine
 62
7
  6
CONTINUOUS
 10
-0.0923972038
 20
11.8733310524
 11
-0.0923972038
 21
13.9241502978
  0
LWPOLYLINE
  5
296
100
AcDbEntity
  8
RACCORDO
100
AcDbPolyline
 62
7
  6
CONTINUOUS
 90
10
 70
0
 10
-0.6580826288
 20
11.4460579578
 10
-0.6584785227
 20
11.4270978424
 10
-0.659640201
 20
11.4087092648
 10
-0.6615676636
 20
11.3908922251
 10
-0.6642680605
 20
11.3736125161
 10
-0.6677342417
 20
11.3569043449
 10
-0.6719447573
 20
11.3408703327
 10
-0.6768924571
 20
11.3255446867
 10
-0.6825844913
 20
11.3108931997
 10
-0.6890208598
 20
11.2969158717
  0
LWPOLYLINE
  5
297
100
AcDbEntity
  8
RACCORDO
100
AcDbPolyline
 62
7
  6
CONTINUOUS
 90
22
 70
0
 10
1.003618307
 20
24.3984285917
 10
1.0054889384
 20
24.4610989373
 10
1.011320454
 20
24.5254526526
 10
1.0211128537
 20
24.5914897377
 10
1.0349952082
 20
24.6598164109
 10
1.0528384468
 20
24.7298264538
 10
1.0742553579
 20
24.7997012112
 10
1.0993709234
 20
24.8693226951
 10
1.1280601613
 20
24.9388088936
 10
1.1595609145
 20
25.0066951152
 10
1.1936531505
 20
25.0725451561
 10
1.2305569016
 20
25.1367952201
 10
1.2701701072
 20
25.1992892281
 10
1.3127696129
 20
25.2604444074
 10
1.3580785729
 20
25.3198435307
 10
1.4051643897
 20
25.3760788366
 10
1.4541755677
 20
25.4290741006
 10
1.5049636025
 20
25.4789055473
 10
1.556150383
 20
25.5243940885
 10
1.6072765388
 20
25.5651466951
 10
1.6588014404
 20
25.6015563962
 10
1.7107250877
 20
25.633623192
  0
LWPOLYLINE
  5
298
100
AcDbEntity
  8
RACCORDO
100
AcDbPolyline
 62
7
  6
CONTINUOUS
 90
11
 70
0
 10
-0.7641486459
 20
24.1765654281
 10
-0.7667112694
 20
24.1097249056
 10
-0.7739540234
 20
24.0469581155
 10
-0.7858769077
 20
23.9882650578
 10
-0.8026252552
 20
23.9333005801
 10
-0.8240537332
 20
23.8824098347
 10
-0.8497263435
 20
23.8366282786
 10
-0.8797300299
 20
23.7960605766
 10
-0.9139778486
 20
23.7606020637
 10
-0.951772971
 20
23.7309742026
 10
-0.9712441784
 20
23.7188509601
  0
LWPOLYLINE
  5
299
100
AcDbEntity
  8
0
100
AcDbPolyline
 62
7
  6
CONTINUOUS
 90
4
 70
0
 10
-0.5741991523
 20
3.7485377237
 10
-0.5627671135
 20
3.978244963
 10
-0.5295085682
 20
4.1927988119
 10
-0.4854935355
 20
4.3561784495
  0
LWPOLYLINE
  5
29A
100
AcDbEntity
  8
RACCORDO
100
AcDbPolyline
 62
253
  6
CONTINUOUS
 90
5
 70
0
 10
-0.4019102973
 20
3.4621752404
 10
-0.3933528169
 20
3.6270435295
 10
-0.3677858222
 20
3.7798477102
 10
-0.325539695
 20
3.9185123435
 10
-0.2671644145
 20
4.0411611491
  0
LINE
  5
29B
100
AcDbEntity
  8
0
100
AcDbLine
 62
7
  6
CONTINUOUS
 10
-0.0914151377
 20
23.0755150463
 11
-0.1538638705
 21
21.8894486735
  0
LINE
  5
29C
100
AcDbEntity
  8
0
100
AcDbLine
 62
7
  6
CONTINUOUS
 10
0.4732882211
 20
22.7109908561
 11
0.4108394883
 21
21.5249244833
  0
LWPOLYLINE
  5
29D
100
AcDbEntity
  8
RACCORDO
100
AcDbPolyline
 62
253
  6
CONTINUOUS
 90
8
 70
0
 10
-0.799503985
 20
11.3644030391
 10
-0.8022828798
 20
11.3149242467
 10
-0.8105758806
 20
11.2694322492
 10
-0.8242526229
 20
11.2286421719
 10
-0.8430981112
 20
11.1931952267
 10
-0.866816098
 20
11.1636486327
 10
-0.8950337412
 20
11.1404668564
 10
-0.9030452955
 20
11.1355346085
  0
LWPOLYLINE
  5
29E
100
AcDbEntity
  8
RACCORDO
100
AcDbPolyline
 62
253
  6
CONTINUOUS
 90
4
 70
0
 10
0.3439625589
 20
3.4370144958
 10
0.3514331399
 20
3.5643087732
 10
0.3737170757
 20
3.6807982401
 10
0.3811736216
 20
3.7018566231
  0
LWPOLYLINE
  5
29F
100
AcDbEntity
  8
0
100
AcDbPolyline
 62
7
  6
CONTINUOUS
 90
3
 70
0
 10
-0.5084370789
 20
4.366816523
 10
-0.5154000064
 20
4.2551100621
 10
-0.5154000064
 20
4.2451684587
  0
LWPOLYLINE
  5
2A0
100
AcDbEntity
  8
RACCORDO
100
AcDbPolyline
 62
7
  6
CONTINUOUS
 90
3
 70
0
 10
1.3894210546
 20
21.0178300925
 10
1.3828539473
 20
20.9363219767
 10
1.3825228565
 20
20.9135503468
  0
LWPOLYLINE
  5
2A1
100
AcDbEntity
  8
0
100
AcDbPolyline
 62
7
  6
CONTINUOUS
 90
10
 70
0
 10
0.4108394883
 20
21.5249244833
 10
0.3957828687
 20
21.3639472087
 10
0.3692716212
 20
21.2137753445
 10
0.3313057457
 20
21.0744088909
 10
0.2814714537
 20
20.9450474231
 10
0.2201825337
 20
20.8264913658
 10
0.148680352
 20
20.7211419928
 10
0.0673786974
 20
20.6297997288
 10
-0.024136219
 20
20.5516641491
 10
-0.1038660768
 20
20.4991512637
  0
LWPOLYLINE
  5
2A2
100
AcDbEntity
  8
0
100
AcDbPolyline
 62
253
  6
CONTINUOUS
 90
3
 70
0
 10
0.9056220902
 20
10.8839089506
 10
0.9028843471
 20
10.8629877212
 10
0.8973232266
 20
10.8381036276
  0
LWPOLYLINE
  5
2A3
100
AcDbEntity
  8
0
100
AcDbPolyline
 62
253
  6
CONTINUOUS
 90
3
 70
0
 10
0.8464492773
 20
10.842383266
 10
0.8452072871
 20
10.8367313326
 10
0.8377307165
 20
10.8131209808
  0
LINE
  5
2A4
100
AcDbEntity
  8
0
100
AcDbLine
 62
253
  6
CONTINUOUS
 10
1.3824765303
 20
9.7994327774
 11
1.2988688371
 21
9.5505911264
  0
LWPOLYLINE
  5
2A5
100
AcDbEntity
  8
RACCORDO
100
AcDbPolyline
 62
7
  6
CONTINUOUS
 90
6
 70
0
 10
15.3560308597
 20
-8.5785134414
 10
15.3757491082
 20
-8.5886715473
 10
15.3915021937
 20
-8.5980037347
 10
15.4030096265
 20
-8.6057172996
 10
15.4110087917
 20
-8.6103382001
 10
15.4145961803
 20
-8.6117220605
  0
LWPOLYLINE
  5
2A6
100
AcDbEntity
  8
0
100
AcDbPolyline
 62
7
  6
CONTINUOUS
 90
13
 70
0
 10
-0.3398845772
 20
-0.2115088295
 10
-0.2118108445
 20
-0.2804791499
 10
-0.0853569623
 20
-0.3391111432
 10
0.0394770693
 20
-0.3874048092
 10
0.1632104505
 20
-0.425478071
 10
0.2853239811
 20
-0.4532130056
 10
0.4042600605
 20
-0.4702558443
 10
0.5199779861
 20
-0.4764696232
 10
0.6325184604
 20
-0.4719913062
 10
0.7404459906
 20
-0.4568780158
 10
0.8437014855
 20
-0.4309935199
 10
0.9423440363
 20
-0.3944740505
 10
1.0351818631
 20
-0.347747068
  0
LINE
  5
2A7
100
AcDbEntity
  8
RACCORDO
100
AcDbLine
 62
253
  6
CONTINUOUS
 10
17.2910361536
 20
-10.2876586032
 11
17.2915755988
 21
-10.2879667295
  0
LINE
  5
2A8
100
AcDbEntity
  8
RACCORDO
100
AcDbLine
 62
7
  6
CONTINUOUS
 10
16.2771490128
 20
-10.8258534212
 11
14.8629112183
 21
-10.0092902432
  0
LINE
  5
2A9
100
AcDbEntity
  8
RACCORDO
100
AcDbLine
 62
253
  6
CONTINUOUS
 10
17.1923112611
 20
-10.2974496712
 11
15.4138709649
 21
-9.2706005332
  0
LINE
  5
2AA
100
AcDbEntity
  8
RACCORDO
100
AcDbLine
 62
7
  6
CONTINUOUS
 10
17.291575616
 20
-10.2879667394
 11
15.4138709649
 21
-9.203803607
  0
LWPOLYLINE
  5
2AB
100
AcDbEntity
  8
RACCORDO
100
AcDbPolyline
 62
7
  6
CONTINUOUS
 90
25
 70
0
 10
16.2771247807
 20
-10.8258394299
 10
16.3935554468
 20
-10.8975903534
 10
16.5085135215
 20
-10.9770392445
 10
16.6219990048
 20
-11.0641861032
 10
16.7344838968
 20
-11.1594687808
 10
16.8454961973
 20
-11.2624494259
 10
16.9536199058
 20
-11.3718144846
 10
17.05881802
 20
-11.48764574
 10
17.1611275421
 20
-11.609861409
 10
17.2592434786
 20
-11.736902588
 10
17.3531121104
 20
-11.868831091
 10
17.4427871566
 20
-12.0055851042
 10
17.5271247807
 20
-12.1454202823
 10
17.6060566112
 20
-12.2883760946
 10
17.6796510197
 20
-12.4344130719
 10
17.7469692837
 20
-12.5816684616
 10
17.807931007
 20
-12.7301578715
 10
17.8626165859
 20
-12.8798656938
 10
17.9103284867
 20
-13.0288823531
 10
17.950977378
 20
-13.1771989957
 10
17.9846525912
 20
-13.3248244754
 10
18.0109245873
 20
-13.4698757776
 10
18.0296501865
 20
-13.6117252309
 10
18.0409725687
 20
-13.7510005068
 10
18.0448917336
 20
-13.8877016052
  0
LWPOLYLINE
  5
2AC
100
AcDbEntity
  8
RACCORDO
100
AcDbPolyline
 62
253
  6
CONTINUOUS
 90
10
 70
0
 10
1.3824765303
 20
20.913235691
 10
1.3859456524
 20
20.8564943704
 10
1.3970014384
 20
20.7965337696
 10
1.4155977097
 20
20.736485802
 10
1.4416226287
 20
20.6767050416
 10
1.4749061519
 20
20.6175926373
 10
1.5152285064
 20
20.559702312
 10
1.5623127139
 20
20.5034528038
 10
1.6158221796
 20
20.4491240173
 10
1.6753697491
 20
20.397041282
  0
LWPOLYLINE
  5
2AD
100
AcDbEntity
  8
RACCORDO
100
AcDbPolyline
 62
7
  6
CONTINUOUS
 90
14
 70
0
 10
1.3824975642
 20
9.5680256066
 10
1.3866519548
 20
9.4982845787
 10
1.3994199054
 20
9.4292792736
 10
1.4200949575
 20
9.3638039677
 10
1.4488318622
 20
9.3007989255
 10
1.485532277
 20
9.2410105892
 10
1.5296401895
 20
9.1856834348
 10
1.5815118368
 20
9.1348478075
 10
1.6415095258
 20
9.0890446984
 10
1.7085804909
 20
9.0498079596
 10
1.7813102958
 20
9.0181476731
 10
1.8591716454
 20
8.9941976188
 10
1.9423045442
 20
8.9778761958
 10
1.9733492327
 20
8.9738976764
  0
LWPOLYLINE
  5
2AE
100
AcDbEntity
  8
RACCORDO
100
AcDbPolyline
 62
253
  6
CONTINUOUS
 90
16
 70
0
 10
-0.799503985
 20
22.7903204172
 10
-0.8022828798
 20
22.8430082077
 10
-0.8105758806
 20
22.8980767546
 10
-0.8242526229
 20
22.9546603912
 10
-0.8430981112
 20
23.0118696338
 10
-0.866816098
 20
23.0688051645
 10
-0.8950337412
 20
23.1245719679
 10
-0.9273074652
 20
23.1782934009
 10
-0.9631299332
 20
23.2291249731
 10
-1.0019380232
 20
23.2762676223
 10
-1.0431216786
 20
23.3189802742
 10
-1.0860335014
 20
23.3565914957
 10
-1.1299989296
 20
23.388510048
 10
-1.1743268364
 20
23.4142341769
 10
-1.2183203948
 20
23.4333595017
 10
-1.261288034
 20
23.4455853745
  0
LWPOLYLINE
  5
2AF
100
AcDbEntity
  8
RACCORDO
100
AcDbPolyline
 62
7
  6
CONTINUOUS
 90
16
 70
0
 10
1.003618307
 20
22.0943650021
 10
1.0061809305
 20
22.0245652263
 10
1.0134236844
 20
21.9534346855
 10
1.0253465688
 20
21.8809733797
 10
1.0420949163
 20
21.8066683301
 10
1.0635233942
 20
21.7310325156
 10
1.0891960046
 20
21.6556048726
 10
1.119199691
 20
21.5803896656
 10
1.1534475097
 20
21.5053826301
 10
1.1912426321
 20
21.4321099091
 10
1.2326577266
 20
21.360607031
 10
1.2776201247
 20
21.2908384673
 10
1.3252149915
 20
21.2242237756
 10
1.3751373822
 20
21.1612361417
 10
1.4276922416
 20
21.1014023797
 10
1.4828795698
 20
21.0447224897
  0
LINE
  5
2B0
100
AcDbEntity
  8
RACCORDO
100
AcDbLine
 62
7
  6
CONTINUOUS
 10
1.003618307
 20
24.3984285917
 11
1.003618307
 21
22.0943650021
  0
LINE
  5
2B1
100
AcDbEntity
  8
RACCORDO
100
AcDbLine
 62
7
  6
CONTINUOUS
 10
1.3824765303
 20
20.9132343723
 11
1.3824765303
 21
9.5670102
  0
LINE
  5
2B2
100
AcDbEntity
  8
RACCORDO
100
AcDbLine
 62
253
  6
CONTINUOUS
 10
1.6753697491
 20
20.3970412816
 11
1.6753697491
 21
9.2666616481
  0
LWPOLYLINE
  5
2B3
100
AcDbEntity
  8
0
100
AcDbPolyline
 62
7
  6
CONTINUOUS
 90
37
 70
0
 10
1.0351818631
 20
-0.347747068
 10
1.1219404364
 20
-0.2907973821
 10
1.2028942857
 20
-0.2236401831
 10
1.2769443761
 20
-0.1471704426
 10
1.3440022718
 20
-0.0612688689
 10
1.4041564085
 20
0.0339452463
 10
1.4566394995
 20
0.1372574137
 10
1.5013532799
 20
0.2487713678
 10
1.5383960144
 20
0.3683833741
 10
1.5672952101
 20
0.4945677397
 10
1.5879465497
 20
0.6274086555
 10
1.6004543505
 20
0.7668219305
 10
1.604659071
 20
0.9110293001
 10
1.6004543505
 20
1.0600921755
 10
1.5879465497
 20
1.2139491454
 10
1.5672952101
 20
1.3706377104
 10
1.5383960144
 20
1.5301941429
 10
1.5013532799
 20
1.6925821705
 10
1.4566394995
 20
1.8557304774
 10
1.4041564085
 20
2.0196488026
 10
1.3440022718
 20
2.1843274072
 10
1.2769443761
 20
2.347665758
 10
1.2028942857
 20
2.5096466867
 10
1.1219404364
 20
2.6702873617
 10
1.0351154228
 20
2.8275387552
 10
0.9423440363
 20
2.9813574512
 10
0.8437014855
 20
3.1317868656
 10
0.7404459906
 20
3.276908219
 10
0.6325184604
 20
3.4166535159
 10
0.5199779861
 20
3.5510907518
 10
0.4042600605
 20
3.6785051327
 10
0.2853239811
 20
3.7988066973
 10
0.1632104505
 20
3.912085407
 10
0.0394770693
 20
4.0168963523
 10
-0.0853569623
 20
4.1127578968
 10
-0.2118108445
 20
4.200151677
 10
-0.3398845772
 20
4.2790776929
  0
LWPOLYLINE
  5
2B4
100
AcDbEntity
  8
RACCORDO
100
AcDbPolyline
 62
253
  6
CONTINUOUS
 90
20
 70
0
 10
1.5961041945
 20
1.1136029268
 10
1.50006977
 20
1.0961115625
 10
1.3683006547
 20
1.0957737545
 10
1.2297512457
 20
1.1175360057
 10
1.0862749839
 20
1.1611063377
 10
0.9397983698
 20
1.225906112
 10
0.7923151161
 20
1.3110595945
 10
0.6458378032
 20
1.4154048479
 10
0.5023597248
 20
1.5375159149
 10
0.3638079467
 20
1.6757465821
 10
0.2320372683
 20
1.8282470708
 10
0.1088226961
 20
1.9929710037
 10
-0.0041562613
 20
2.1676814843
 10
-0.1053597766
 20
2.3500001304
 10
-0.1934232994
 20
2.5374703777
 10
-0.2671495384
 20
2.7275453551
 10
-0.3255283224
 20
2.9176046116
 10
-0.3677796185
 20
3.1050628531
 10
-0.3933509808
 20
3.2874057723
 10
-0.4019102973
 20
3.4621752404
  0
LWPOLYLINE
  5
2B5
100
AcDbEntity
  8
RACCORDO
100
AcDbPolyline
 62
253
  6
CONTINUOUS
 90
16
 70
0
 10
1.4652515996
 20
1.8243072889
 10
1.4432023158
 20
1.8283959356
 10
1.3311730235
 20
1.8673497267
 10
1.2171935158
 20
1.9245340358
 10
1.1032140161
 20
1.9989704198
 10
0.9911847415
 20
2.0893852515
 10
0.8830224842
 20
2.1942315692
 10
0.7805778862
 20
2.3117155088
 10
0.6856038769
 20
2.4398268482
 10
0.5997255911
 20
2.5763734277
 10
0.5244124422
 20
2.7190188309
 10
0.4609530124
 20
2.8653223901
 10
0.4104330922
 20
3.0127808025
 10
0.3737170688
 20
3.1588710151
 10
0.3514331381
 20
3.3010933954
 10
0.3439625589
 20
3.4370144958
  0
LWPOLYLINE
  5
2B6
100
AcDbEntity
  8
0
100
AcDbPolyline
 62
7
  6
CONTINUOUS
 90
17
 70
0
 10
1.5987686186
 20
0.7480325841
 10
1.5216942021
 20
0.7641676626
 10
1.3017600999
 20
0.8390519604
 10
1.0801551575
 20
0.9443426855
 10
0.8656493677
 20
1.0758940192
 10
0.6600315332
 20
1.2312976176
 10
0.4632825739
 20
1.409741739
 10
0.280722996
 20
1.6052678167
 10
0.1146416775
 20
1.8132630008
 10
-0.0359030954
 20
2.0331256296
 10
-0.1703631666
 20
2.2632492705
 10
-0.2877815755
 20
2.5018084502
 10
-0.3868578995
 20
2.746491715
 10
-0.4663721324
 20
2.9952268526
 10
-0.525113179
 20
3.2463755712
 10
-0.5616226657
 20
3.4981837494
 10
-0.5741991523
 20
3.7485377237
  0
LWPOLYLINE
  5
2B7
100
AcDbEntity
  8
0
100
AcDbPolyline
 62
7
  6
CONTINUOUS
 90
3
 70
0
 10
1.4948015331
 20
0.7733242172
 10
1.5646101127
 20
0.735922708
 10
1.5963822392
 20
0.7214337458
  0
LINE
  5
2B8
100
AcDbEntity
  8
RACCORDO
100
AcDbLine
 62
253
  6
CONTINUOUS
 10
17.381608304
 20
-10.4184042574
 11
17.1923112611
 21
-10.2974496712
  0
LWPOLYLINE
  5
2B9
100
AcDbEntity
  8
RACCORDO
100
AcDbPolyline
 62
253
  6
CONTINUOUS
 90
3
 70
0
 10
1.3869932638
 20
9.522133454
 10
1.3826109382
 20
9.5591953705
 10
1.3824765303
 20
9.567044717
  0
LWPOLYLINE
  5
2BA
100
AcDbEntity
  8
RACCORDO
100
AcDbPolyline
 62
7
  6
CONTINUOUS
 90
3
 70
0
 10
-0.1083556538
 20
23.2997934323
 10
-0.0966205235
 20
23.1979609471
 10
-0.0923972038
 20
23.0979415906
  0
LWPOLYLINE
  5
2BB
100
AcDbEntity
  8
RACCORDO
100
AcDbPolyline
 62
253
  6
CONTINUOUS
 90
22
 70
0
 10
3.9027561099
 20
-21.2366442851
 10
3.8997694581
 20
-21.1432242319
 10
3.8909914926
 20
-21.0477530593
 10
3.8764222136
 20
-20.9502307674
 10
3.8559090131
 20
-20.8500004575
 10
3.829604499
 20
-20.7477190283
 10
3.7979664945
 20
-20.6453571755
 10
3.7609195294
 20
-20.543023026
 10
3.718539074
 20
-20.4406084529
 10
3.6715093627
 20
-20.339759772
 10
3.6197357244
 20
-20.2404667334
 10
3.5633128301
 20
-20.1427395869
 10
3.5032089277
 20
-20.0482553971
 10
3.4393857747
 20
-19.9571014533
 10
3.3718816135
 20
-19.8691904661
 10
3.3017794193
 20
-19.7859376318
 10
3.2289467607
 20
-19.7073533952
 10
3.1535160691
 20
-19.6334273114
 10
3.0769676141
 20
-19.5655432418
 10
2.9997948188
 20
-19.5041624736
 10
2.9215042602
 20
-19.4488237197
 10
2.8420959381
 20
-19.3995269799
  0
LWPOLYLINE
  5
2BC
100
AcDbEntity
  8
RACCORDO
100
AcDbPolyline
 62
253
  6
CONTINUOUS
 90
25
 70
0
 10
5.3169696723
 20
-21.2366442851
 10
5.313184748
 20
-21.1009596485
 10
5.3018461829
 20
-20.9614852986
 10
5.2830025304
 20
-20.8188184857
 10
5.2567344824
 20
-20.6735701341
 10
5.2231545225
 20
-20.5263622164
 10
5.1824064425
 20
-20.3778250906
 10
5.1346647281
 20
-20.2285948076
 10
5.0801338172
 20
-20.0793104021
 10
5.0190472248
 20
-19.9306111471
 10
4.9516665366
 20
-19.7831338023
 10
4.8782802854
 20
-19.6375098815
 10
4.7992027201
 20
-19.4943629635
 10
4.7147724629
 20
-19.3543060256
 10
4.6253510573
 20
-19.2179388129
 10
4.5313214159
 20
-19.085845266
 10
4.4330861832
 20
-18.958591025
 10
4.3310660213
 20
-18.8367210184
 10
4.2256978059
 20
-18.7207571237
 10
4.117432746
 20
-18.6111959206
 10
4.0067344445
 20
-18.5085065597
 10
3.8940769223
 20
-18.4131287661
 10
3.7799425941
 20
-18.3254709605
 10
3.6648202025
 20
-18.2459085088
 10
3.5492027193
 20
-18.1747821098
  0
LINE
  5
2BD
100
AcDbEntity
  8
0
100
AcDbLine
 62
7
  6
CONTINUOUS
 10
3.8320454318
 20
29.9613338816
 11
3.8320454318
 21
27.2222751836
  0
LINE
  5
2BE
100
AcDbEntity
  8
RACCORDO
100
AcDbLine
 62
253
  6
CONTINUOUS
 10
3.9027561099
 20
-31.442522745
 11
3.9027561099
 21
-21.2366442851
  0
LWPOLYLINE
  5
2BF
100
AcDbEntity
  8
RACCORDO
100
AcDbPolyline
 62
253
  6
CONTINUOUS
 90
22
 70
0
 10
2.8420959381
 20
-19.3995269799
 10
2.8440731521
 20
-19.3373704612
 10
2.8499937366
 20
-19.2732783097
 10
2.8598245814
 20
-19.2076089549
 10
2.8735107084
 20
-19.1407296464
 10
2.8909755792
 20
-19.0730144005
 10
2.9121215232
 20
-19.0048419082
 10
2.9368302836
 20
-18.9365934177
 10
2.9649636791
 20
-18.8686506024
 10
2.9963643763
 20
-18.801393426
 10
3.0308567698
 20
-18.735198018
 10
3.068247964
 20
-18.6704345698
 10
3.1083288524
 20
-18.607465265
 10
3.1508752863
 20
-18.5466422534
 10
3.1956493287
 20
-18.4883056821
 10
3.2424005851
 20
-18.4327817928
 10
3.2908676035
 20
-18.3803810975
 10
3.3407793367
 20
-18.3313966423
 10
3.3918566579
 20
-18.2861023681
 10
3.4438139222
 20
-18.2447515788
 10
3.4963605634
 20
-18.2075755249
 10
3.5492027193
 20
-18.1747821098
  0
LWPOLYLINE
  5
2C0
100
AcDbEntity
  8
ASSI
100
AcDbPolyline
 62
7
  6
CONTINUOUS
 90
16
 70
0
 10
-12.0939578924
 20
-16.0874383218
 10
-12.1094930986
 20
-16.0996034433
 10
-12.2103971006
 20
-16.1691482855
 10
-12.3174845372
 20
-16.2272909189
 10
-12.4308255982
 20
-16.2739019139
 10
-12.5503500937
 20
-16.3091107
 10
-12.6747063836
 20
-16.3325191195
 10
-12.8039493148
 20
-16.3439932232
 10
-12.9380240404
 20
-16.3436669602
 10
-13.0754143793
 20
-16.3315440201
 10
-13.2161579678
 20
-16.3074904956
 10
-13.3602171696
 20
-16.2716402941
 10
-13.5059628942
 20
-16.2243988266
 10
-13.6528521116
 20
-16.1659012303
 10
-13.8014278519
 20
-16.0960123681
 10
-13.9516901151
 20
-16.01473224
  0
LWPOLYLINE
  5
2C1
100
AcDbEntity
  8
RACCORDO
100
AcDbPolyline
 62
7
  6
CONTINUOUS
 90
22
 70
0
 10
-8.6483892562
 20
-11.1320453749
 10
-8.7017146087
 20
-11.1652233314
 10
-8.7541632958
 20
-11.2023300842
 10
-8.8057353175
 20
-11.2433656332
 10
-8.8567082424
 20
-11.2886023903
 10
-8.906804502
 20
-11.3377679437
 10
-8.9551913904
 20
-11.3900450579
 10
-9.001840336
 20
-11.4454857418
 10
-9.0467799104
 20
-11.5040379866
 10
-9.0892631231
 20
-11.5647285301
 10
-9.1292489164
 20
-11.6275931134
 10
-9.166778348
 20
-11.6925959956
 10
-9.2012275992
 20
-11.7586566911
 10
-9.2325451857
 20
-11.8257928812
 10
-9.2607825918
 20
-11.8939868848
 10
-9.2854704523
 20
-11.9621051733
 10
-9.3065494374
 20
-12.0301464812
 10
-9.3240788767
 20
-12.098112074
 10
-9.337767394
 20
-12.16487222
 10
-9.3475178639
 20
-12.2300503419
 10
-9.3534274116
 20
-12.2940230169
 10
-9.3554960374
 20
-12.356790245
  0
LWPOLYLINE
  5
2C2
100
AcDbEntity
  8
ASSI
100
AcDbPolyline
 62
7
  6
CONTINUOUS
 90
13
 70
0
 10
-15.5116213795
 20
-10.1682512796
 10
-15.472554632
 20
-10.1537532433
 10
-15.3530301365
 20
-10.1185444572
 10
-15.2286738466
 20
-10.0951360377
 10
-15.0994309153
 20
-10.083661934
 10
-14.9653561897
 20
-10.083988197
 10
-14.8279658509
 20
-10.0961111371
 10
-14.6872222623
 20
-10.1201646615
 10
-14.5431630606
 20
-10.1560148631
 10
-14.3974173359
 20
-10.2032563306
 10
-14.2505281185
 20
-10.2617539269
 10
-14.1019523782
 20
-10.3316427891
 10
-13.9516901151
 20
-10.4129229172
  0
LWPOLYLINE
  5
2C3
100
AcDbEntity
  8
0
100
AcDbPolyline
 62
7
  6
CONTINUOUS
 90
13
 70
0
 10
-0.3398845772
 20
4.2790776929
 10
-0.46795831
 20
4.3480480133
 10
-0.5944121922
 20
4.4066800066
 10
-0.7192462237
 20
4.4549736726
 10
-0.8429796049
 20
4.4930469344
 10
-0.9650931356
 20
4.520781869
 10
-1.0840292149
 20
4.5378247077
 10
-1.1997471405
 20
4.5440384866
 10
-1.3122876149
 20
4.5395601697
 10
-1.420215145
 20
4.5244468792
 10
-1.52347064
 20
4.4985623833
 10
-1.6221131908
 20
4.4620429139
 10
-1.7149510176
 20
4.4153159314
  0
LWPOLYLINE
  5
2C4
100
AcDbEntity
  8
RACCORDO
100
AcDbPolyline
 62
253
  6
CONTINUOUS
 90
3
 70
0
 10
17.751775031
 20
-10.7250944004
 10
17.5688183574
 20
-10.5614899986
 10
17.381608304
 20
-10.4184042574
  0
LWPOLYLINE
  5
2C5
100
AcDbEntity
  8
0
100
AcDbPolyline
 62
7
  6
CONTINUOUS
 90
6
 70
0
 10
-0.3205514746
 20
13.0363583779
 10
-0.2495613302
 20
12.8533187976
 10
-0.1917713183
 20
12.6735303187
 10
-0.1471814388
 20
12.4969929411
 10
-0.1156150697
 20
12.322055614
 10
-0.0972488331
 20
12.1503693883
  0
LWPOLYLINE
  5
2C6
100
AcDbEntity
  8
RACCORDO
100
AcDbPolyline
 62
253
  6
CONTINUOUS
 90
9
 70
0
 10
1.6753697488
 20
9.2666616481
 10
1.6957474413
 20
9.2090137473
 10
1.721813318
 20
9.155846523
 10
1.7531221519
 20
9.1080695893
 10
1.7891392211
 20
9.0665003078
 10
1.8292480801
 20
9.0318499448
 10
1.8727610842
 20
9.0047115124
 10
1.9189324858
 20
8.9855494833
 10
1.9669728631
 20
8.974691661
  0
LWPOLYLINE
  5
2C7
100
AcDbEntity
  8
RACCORDO
100
AcDbPolyline
 62
7
  6
CONTINUOUS
 90
8
 70
0
 10
-0.6890208598
 20
23.0568441157
 10
-0.7111950419
 20
23.1500808099
 10
-0.738490529
 20
23.2429348108
 10
-0.7709073211
 20
23.3354061185
 10
-0.8087311281
 20
23.4281010469
 10
-0.8516762402
 20
23.5204132821
 10
-0.8988855277
 20
23.6105238816
 10
-0.9504402232
 20
23.6983867058
  0
LWPOLYLINE
  5
2C8
100
AcDbEntity
  8
RACCORDO
100
AcDbPolyline
 62
253
  6
CONTINUOUS
 90
8
 70
0
 10
-2.213717547
 20
22.6425515449
 10
-2.2280458063
 20
22.7036923127
 10
-2.2360669055
 20
22.7672783654
 10
-2.2376443908
 20
22.8322218071
 10
-2.2327522786
 20
22.8974115373
 10
-2.2214741087
 20
22.9617321266
 10
-2.2040014827
 20
23.0240828976
 10
-2.1806321202
 20
23.0833968924
  0
LWPOLYLINE
  5
2C9
100
AcDbEntity
  8
RACCORDO
100
AcDbPolyline
 62
253
  6
CONTINUOUS
 90
7
 70
0
 10
4.9063927958
 20
13.5137112255
 10
4.8678985881
 20
13.8981648775
 10
4.8102632325
 20
14.2916477876
 10
4.7341233695
 20
14.6898093747
 10
4.6392736496
 20
15.0927012458
 10
4.5259194223
 20
15.5002717939
 10
4.3953133758
 20
15.9080156162
  0
LINE
  5
2CA
100
AcDbEntity
  8
RACCORDO
100
AcDbLine
 62
253
  6
CONTINUOUS
 10
4.9255334111
 20
13.1383877993
 11
4.9063927958
 21
13.5137112255
  0
LINE
  5
2CB
100
AcDbEntity
  8
RACCORDO
100
AcDbLine
 62
253
  6
CONTINUOUS
 10
5.3169696723
 20
-31.442522745
 11
5.3169696723
 21
-21.2366442851
  0
LINE
  5
2CC
100
AcDbEntity
  8
RACCORDO
100
AcDbLine
 62
7
  6
CONTINUOUS
 10
-8.6483892562
 20
-11.1320453749
 11
-2.2844282255
 21
-7.4575740349
  0
LWPOLYLINE
  5
2CD
100
AcDbEntity
  8
RACCORDO
100
AcDbPolyline
 62
7
  6
CONTINUOUS
 90
9
 70
0
 10
-0.9773130578
 20
11.0638195759
 10
-0.6999783418
 20
10.8206755727
 10
-0.4193381453
 20
10.592069676
 10
-0.1354174343
 20
10.3778906663
 10
0.1496049687
 20
10.1797816798
 10
0.4357372511
 20
9.9978663597
 10
0.7229712255
 20
9.8320210628
 10
1.0091035079
 20
9.6835179954
 10
1.2941259109
 20
9.5524902552
  0
LINE
  5
2CE
100
AcDbEntity
  8
RACCORDO
100
AcDbLine
 62
7
  6
CONTINUOUS
 10
-1.0017948132
 20
11.0868288474
 11
-0.9773130578
 21
11.0638195759
  0
LWPOLYLINE
  5
2CF
100
AcDbEntity
  8
RACCORDO
100
AcDbPolyline
 62
7
  6
CONTINUOUS
 90
13
 70
0
 10
-2.2211114221
 20
11.3703073085
 10
-2.1977937744
 20
11.3466969066
 10
-2.1151053995
 20
11.2729570443
 10
-2.0253363799
 20
11.2071608714
 10
-1.928686311
 20
11.1495942029
 10
-1.8264294158
 20
11.1011962787
 10
-1.7210051115
 20
11.0630563673
 10
-1.6131109866
 20
11.0352815812
 10
-1.503796825
 20
11.0180526416
 10
-1.3958537739
 20
11.0116941231
 10
-1.290204929
 20
11.0159084587
 10
-1.1874578747
 20
11.0304529802
 10
-1.0897719033
 20
11.0548165764
  0
LWPOLYLINE
  5
2D0
100
AcDbEntity
  8
RACCORDO
100
AcDbPolyline
 62
7
  6
CONTINUOUS
 90
31
 70
0
 10
-2.2211188022
 20
11.3703153585
 10
-2.5545097078
 20
11.7333580987
 10
-2.8765688377
 20
12.1148968119
 10
-3.1860125259
 20
12.5132834908
 10
-3.4815976074
 20
12.9268078331
 10
-3.7621480053
 20
13.3537352812
 10
-4.0265472494
 20
13.792304898
 10
-4.273683438
 20
14.2406308925
 10
-4.5025646459
 20
14.6968972545
 10
-4.7123177528
 20
15.1594115547
 10
-4.9020375025
 20
15.6262989954
 10
-5.0708641012
 20
16.0956165357
 10
-5.2180655065
 20
16.5655928024
 10
-5.342938648
 20
17.0343945211
 10
-5.4448024395
 20
17.5000217968
 10
-5.5230726006
 20
17.9605422383
 10
-5.5772718275
 20
18.4143478852
 10
-5.6069142331
 20
18.8593240543
 10
-5.6116452357
 20
19.2929946519
 10
-5.5912419214
 20
19.714112051
 10
-5.5455566137
 20
20.1205366676
 10
-5.4748937229
 20
20.5089289906
 10
-5.3795252168
 20
20.8781267294
 10
-5.2598466155
 20
21.2266895715
 10
-5.1171835447
 20
21.5515607578
 10
-4.9528081337
 20
21.8513162642
 10
-4.7674572247
 20
22.1258312772
 10
-4.5622447792
 20
22.3743376775
 10
-4.3384515633
 20
22.5960849125
 10
-4.0974694442
 20
22.7904499233
 10
-3.8408101654
 20
22.9569338104
  0
LWPOLYLINE
  5
2D1
100
AcDbEntity
  8
RACCORDO
100
AcDbPolyline
 62
7
  6
CONTINUOUS
 90
10
 70
0
 10
-0.6890208598
 20
23.0568441157
 10
-0.6825844913
 20
23.0354342307
 10
-0.6768924571
 20
23.0142097253
 10
-0.6719447573
 20
22.9931705995
 10
-0.6677342417
 20
22.9722743895
 10
-0.6642680605
 20
22.9515635591
 10
-0.6615676636
 20
22.9311654995
 10
-0.659640201
 20
22.9111226742
 10
-0.6584785227
 20
22.8913926197
 10
-0.6580826288
 20
22.8719753359
  0
LINE
  5
2D2
100
AcDbEntity
  8
RACCORDO
100
AcDbLine
 62
7
  6
CONTINUOUS
 10
5.1693405347
 20
14.215027016
 11
5.2273250566
 21
13.8575660331
  0
LWPOLYLINE
  5
2D3
100
AcDbEntity
  8
RACCORDO
100
AcDbPolyline
 62
7
  6
CONTINUOUS
 90
20
 70
0
 10
5.2273250566
 20
13.8575660331
 10
5.2709178109
 20
13.505420231
 10
5.3002287371
 20
13.158549019
 10
5.3150327296
 20
12.8196153217
 10
5.3152181141
 20
12.4886802365
 10
5.3008965648
 20
12.165682666
 10
5.2721779994
 20
11.8531022434
 10
5.2289515895
 20
11.5510191604
 10
5.1713281633
 20
11.2593532253
 10
5.0997501237
 20
10.9803434957
 10
5.0141100496
 20
10.7140874047
 10
4.9145153621
 20
10.4604875193
 10
4.8017307269
 20
10.2214905987
 10
4.6756546131
 20
9.9972090649
 10
4.5363885516
 20
9.7875304958
 10
4.3850018018
 20
9.5940643848
 10
4.2214010687
 20
9.4169355443
 10
4.0456796473
 20
9.2560191619
 10
3.8591866813
 20
9.1125502937
 10
3.6602688648
 20
8.9857565181
  0
LWPOLYLINE
  5
2D4
100
AcDbEntity
  8
RACCORDO
100
AcDbPolyline
 62
253
  6
CONTINUOUS
 90
46
 70
0
 10
7.7918434064
 20
11.2186213139
 10
7.7874862039
 20
11.4982842422
 10
7.7773833331
 20
11.7740893818
 10
7.7615347941
 20
12.0460367325
 10
7.7397386838
 20
12.3130897941
 10
7.7121969053
 20
12.5762850669
 10
7.6795151677
 20
12.8387320519
 10
7.6418020854
 20
13.1012476828
 10
7.5989490439
 20
13.3630150259
 10
7.5512359093
 20
13.6246927817
 10
7.4987571519
 20
13.8862555964
 10
7.4414183014
 20
14.1477288239
 10
7.3792158122
 20
14.4098472264
 10
7.3121283174
 20
14.6729032173
 10
7.2401771839
 20
14.9366043833
 10
7.1634229667
 20
15.2008082468
 10
7.0817431354
 20
15.4658594107
 10
6.9952602203
 20
15.731413272
 10
6.9044023684
 20
15.9962935453
 10
6.8094166206
 20
16.2598372457
 10
6.7100559359
 20
16.5227073579
 10
6.6060073387
 20
16.7857165505
 10
6.4978896237
 20
17.047829276
 10
6.3850839962
 20
17.3100810818
 10
6.2654210958
 20
17.5763912788
 10
6.1393725439
 20
17.8465710148
 10
6.0064667191
 20
18.1208091421
 10
5.8631193976
 20
18.4035915281
 10
5.7093700475
 20
18.6957104441
 10
5.5451792006
 20
18.996373619
 10
5.3668442284
 20
19.307690106
 10
5.1738409045
 20
19.6311138707
 10
4.9666934554
 20
19.9651909475
 10
4.743271932
 20
20.3076684942
 10
4.5025379837
 20
20.6600389528
 10
4.2455299611
 20
21.0208098813
 10
3.9732329673
 20
21.3832511114
 10
3.6845128048
 20
21.7480845433
 10
3.380503671
 20
22.1145882768
 10
3.065593261
 20
22.4738664433
 10
2.7394797352
 20
22.8252344275
 10
2.4024649332
 20
23.1693768448
 10
2.059842068
 20
23.4994516722
 10
1.7133755441
 20
23.8131782353
 10
1.3613009571
 20
24.1128372085
 10
1.003618307
 20
24.3984285917
  0
LWPOLYLINE
  5
2D5
100
AcDbEntity
  8
RACCORDO
100
AcDbPolyline
 62
253
  6
CONTINUOUS
 90
46
 70
0
 10
9.2060569688
 20
11.2186213139
 10
9.2021609812
 20
11.5238611627
 10
9.1908478285
 20
11.8258603758
 10
9.1726736127
 20
12.1240774175
 10
9.1483281668
 20
12.4164917536
 10
9.1182712179
 20
12.7041325108
 10
9.082398624
 20
12.9912197116
 10
9.0407677321
 20
13.2785491985
 10
8.9937249443
 20
13.5647933232
 10
8.9412120006
 20
13.8511635993
 10
8.8833627325
 20
14.1374586039
 10
8.8203205783
 20
14.4234424163
 10
8.7518735523
 20
14.7103332712
 10
8.6779909443
 20
14.9982937667
 10
8.5988191839
 20
15.2867845544
 10
8.5143138031
 20
15.575994564
 10
8.4244078791
 20
15.8661098445
 10
8.329262187
 20
16.1565711082
 10
8.2291977441
 20
16.4464499648
 10
8.124604892
 20
16.7347805414
 10
8.0153241292
 20
17.0221589966
 10
7.9008130666
 20
17.3099966063
 10
7.781608426
 20
17.5969040524
 10
7.6572722963
 20
17.8838966747
 10
7.5254687405
 20
18.1759326519
 10
7.386143219
 20
18.4724147246
 10
7.2389441747
 20
18.7733842416
 10
7.0805394867
 20
19.084567259
 10
6.9101185073
 20
19.4060681968
 10
6.7274954698
 20
19.7367417624
 10
6.5297600906
 20
20.0801228854
 10
6.3155025046
 20
20.4365609219
 10
6.084762813
 20
20.8038590048
 10
5.8365902259
 20
21.1814160591
 10
5.5694613301
 20
21.5692787842
 10
5.2837154095
 20
21.9646542641
 10
4.9814598572
 20
22.3626501084
 10
4.6618291546
 20
22.7626037284
 10
4.3253745778
 20
23.1620158727
 10
3.9769806065
 20
23.5537928527
 10
3.6173490226
 20
23.9363315877
 10
3.2466128216
 20
24.3086823296
 10
2.869419249
 20
24.6657028121
 10
2.4878924595
 20
25.0053809554
 10
2.1014095769
 20
25.3282698047
 10
1.7107250882
 20
25.6336231923
  0
LINE
  5
2D6
100
AcDbEntity
  8
RACCORDO
100
AcDbLine
 62
253
  6
CONTINUOUS
 10
7.7918434064
 20
-13.2754869899
 11
7.7918434064
 21
11.2186213139
  0
LINE
  5
2D7
100
AcDbEntity
  8
RACCORDO
100
AcDbLine
 62
253
  6
CONTINUOUS
 10
9.2060569688
 20
-13.2754869899
 11
9.2060569688
 21
11.2186213139
  0
LINE
  5
2D8
100
AcDbEntity
  8
0
100
AcDbLine
 62
7
  6
CONTINUOUS
 10
-2.2844282255
 20
-10.7234551421
 11
-9.3554960374
 21
-14.8062010754
  0
LINE
  5
2D9
100
AcDbEntity
  8
RACCORDO
100
AcDbLine
 62
7
  6
CONTINUOUS
 10
-4.7593019596
 20
-13.3775556382
 11
1.604659071
 21
-9.7030842982
  0
LINE
  5
2DA
100
AcDbEntity
  8
ASSI
100
AcDbLine
 62
253
  6
CONTINUOUS
 10
-13.7749134198
 20
-19.1944822198
 11
-12.3617537203
 21
-18.3785415204
  0
LWPOLYLINE
  5
2DB
100
AcDbEntity
  8
ASSI
100
AcDbPolyline
 62
7
  6
CONTINUOUS
 90
35
 70
0
 10
-13.3607227853
 20
-18.2790524379
 10
-13.3069934359
 20
-18.2511420314
 10
-13.2314726183
 20
-18.2216435243
 10
-13.1513565151
 20
-18.2006911961
 10
-13.0678066386
 20
-18.1885888109
 10
-12.9807729647
 20
-18.1854652969
 10
-12.8903055176
 20
-18.1911917259
 10
-12.7977158819
 20
-18.2056850769
 10
-12.7029731409
 20
-18.2290730686
 10
-12.6061082114
 20
-18.2612279823
 10
-12.5085254278
 20
-18.3016836404
 10
-12.4102143322
 20
-18.3505609704
 10
-12.3111853826
 20
-18.4077390449
 10
-12.212874287
 20
-18.4723889038
 10
-12.1152915034
 20
-18.5446193982
 10
-12.0184265739
 20
-18.624321677
 10
-11.923683833
 20
-18.7103402277
 10
-11.8310941972
 20
-18.8027670673
 10
-11.7406267501
 20
-18.9015101786
 10
-11.6535930762
 20
-19.0051379975
 10
-11.5700431997
 20
-19.1137216859
 10
-11.4899270965
 20
-19.2271900818
 10
-11.4144062789
 20
-19.3438981362
 10
-11.3435476922
 20
-19.463893045
 10
-11.277284391
 20
-19.5871276123
 10
-11.2165770518
 20
-19.7118152
 10
-11.1615066151
 20
-19.8379769761
 10
-11.1119921402
 20
-19.9655917727
 10
-11.0687514814
 20
-20.0928094478
 10
-11.031876037
 20
-20.2196242161
 10
-11.0012744087
 20
-20.3460418631
 10
-10.9773902544
 20
-20.4702296028
 10
-10.9603714605
 20
-20.5915765068
 10
-10.9500701407
 20
-20.7106935035
 10
-10.946486295
 20
-20.8275805931
  0
LWPOLYLINE
  5
2DC
100
AcDbEntity
  8
RACCORDO
100
AcDbPolyline
 62
7
  6
CONTINUOUS
 90
3
 70
0
 10
3.6560183695
 20
9.1882713534
 10
3.6934189081
 20
9.1936212783
 10
3.9291295378
 20
9.2470812315
  0
LWPOLYLINE
  5
2DD
100
AcDbEntity
  8
RACCORDO
100
AcDbPolyline
 62
253
  6
CONTINUOUS
 90
21
 70
0
 10
1.6753697491
 20
9.2666616481
 10
1.9663320568
 20
9.2464833871
 10
2.2471105447
 20
9.2509792539
 10
2.5177052129
 20
9.2801492484
 10
2.7790842823
 20
9.3342802902
 10
3.030279532
 20
9.4130854597
 10
3.2683862994
 20
9.5157039991
 10
3.493215265
 20
9.6424038781
 10
3.7049557483
 20
9.792917127
 10
3.9012710455
 20
9.9655790791
 10
4.0819909074
 20
10.1606352245
 10
4.2472855831
 20
10.377840073
 10
4.3953291156
 20
10.6147924882
 10
4.5259303525
 20
10.8717116173
 10
4.6392804462
 20
11.148378313
 10
4.7341268969
 20
11.4417339968
 10
4.8102644752
 20
11.7519631601
 10
4.8678984105
 20
12.0788813116
 10
4.9063918913
 20
12.4188763991
 10
4.9255328784
 20
12.7720936312
 10
4.9255334111
 20
13.1383877993
  0
LINE
  5
2DE
100
AcDbEntity
  8
RACCORDO
100
AcDbLine
 62
7
  6
CONTINUOUS
 10
1.9733484421
 20
8.9738973835
 11
1.9737802442
 21
8.9738489157
  0
LWPOLYLINE
  5
2DF
100
AcDbEntity
  8
RACCORDO
100
AcDbPolyline
 62
253
  6
CONTINUOUS
 90
12
 70
0
 10
1.6753697491
 20
9.2666616477
 10
1.6394960634
 20
9.2798864124
 10
1.6044335556
 20
9.2949122122
 10
1.5705210065
 20
9.3117860125
 10
1.538198119
 20
9.3304356138
 10
1.5077564811
 20
9.3509748183
 10
1.4794123209
 20
9.3737265208
 10
1.453682551
 20
9.3986382909
 10
1.4310637779
 20
9.425717631
 10
1.4119558649
 20
9.4553793511
 10
1.3970136638
 20
9.4875794439
 10
1.3869932638
 20
9.522133454
  0
LINE
  5
2E0
100
AcDbEntity
  8
RACCORDO
100
AcDbLine
 62
7
  6
CONTINUOUS
 10
1.2941259109
 20
9.5524902552
 11
1.3856049561
 21
9.5158608669
  0
LWPOLYLINE
  5
2E1
100
AcDbEntity
  8
RACCORDO
100
AcDbPolyline
 62
253
  6
CONTINUOUS
 90
4
 70
0
 10
-1.926510764
 20
11.3417049843
 10
-2.0044871213
 20
11.3778543602
 10
-2.0787395228
 20
11.4184172937
 10
-2.1486708151
 20
11.4632643234
  0
LINE
  5
2E2
100
AcDbEntity
  8
RACCORDO
100
AcDbLine
 62
253
  6
CONTINUOUS
 10
-2.1486708151
 20
11.4632643234
 11
-2.2137175474
 21
11.512171911
  0
LINE
  5
2E3
100
AcDbEntity
  8
0
100
AcDbLine
 62
253
  6
CONTINUOUS
 10
-0.1616137423
 20
11.550620174
 11
-0.2864898253
 21
11.6695721767
  0
LINE
  5
2E4
100
AcDbEntity
  8
RACCORDO
100
AcDbLine
 62
253
  6
CONTINUOUS
 10
4.2472646136
 20
16.3159338065
 11
4.0819640322
 21
16.7240252711
  0
LINE
  5
2E5
100
AcDbEntity
  8
RACCORDO
100
AcDbLine
 62
7
  6
CONTINUOUS
 10
4.5319330052
 20
16.4203362753
 11
4.6712946604
 21
16.0508191084
  0
LINE
  5
2E6
100
AcDbEntity
  8
RACCORDO
100
AcDbLine
 62
253
  6
CONTINUOUS
 10
4.3953133758
 20
15.9080156162
 11
4.2472646136
 21
16.3159338065
  0
LWPOLYLINE
  5
2E7
100
AcDbEntity
  8
RACCORDO
100
AcDbPolyline
 62
7
  6
CONTINUOUS
 90
6
 70
0
 10
4.6712946604
 20
16.0508191084
 10
4.7977023789
 20
15.680946957
 10
4.9112551068
 20
15.3107225595
 10
5.0110809298
 20
14.9429880545
 10
5.0970741846
 20
14.577762589
 10
5.1693405347
 20
14.215027016
  0
LINE
  5
2E8
100
AcDbEntity
  8
0
100
AcDbLine
 62
7
  6
CONTINUOUS
 10
-5.4664087408
 20
-15.4182184161
 11
-10.4161562091
 21
-18.2761405694
  0
LINE
  5
2E9
100
AcDbEntity
  8
ASSI
100
AcDbLine
 62
7
  6
CONTINUOUS
 10
-13.7749134198
 20
-21.2356579118
 11
-11.2002986671
 21
-19.7491076211
  0
LINE
  5
2EA
100
AcDbEntity
  8
0
100
AcDbLine
 62
7
  6
CONTINUOUS
 10
-5.4664087408
 20
-16.6430421961
 11
-9.3554960374
 21
-18.8885524594
  0
LWPOLYLINE
  5
2EB
100
AcDbEntity
  8
0
100
AcDbPolyline
 62
253
  6
CONTINUOUS
 90
6
 70
0
 10
1.3824765303
 20
10.7153544764
 10
1.3774519907
 20
10.7148555722
 10
1.2798134072
 20
10.7153028641
 10
1.1806175239
 20
10.7255733595
 10
1.0814716473
 20
10.7455006419
 10
0.9839822738
 20
10.7747618223
  0
LINE
  5
2EC
100
AcDbEntity
  8
0
100
AcDbLine
 62
253
  6
CONTINUOUS
 10
0.9839822738
 20
10.7747618223
 11
0.8838382325
 21
10.8152653307
  0
LINE
  5
2ED
100
AcDbEntity
  8
RACCORDO
100
AcDbLine
 62
7
  6
CONTINUOUS
 10
-0.9504402232
 20
23.6983867058
 11
-0.9659309031
 21
23.7221591332
  0
LWPOLYLINE
  5
2EE
100
AcDbEntity
  8
RACCORDO
100
AcDbPolyline
 62
253
  6
CONTINUOUS
 90
8
 70
0
 10
4.0819640322
 20
16.7240252711
 10
3.90123701
 20
17.1277813249
 10
3.7049134771
 20
17.5271531729
 10
3.4931635034
 20
17.9221896102
 10
3.2683226764
 20
18.3085283379
 10
3.0301943853
 20
18.6861279573
 10
2.778975241
 20
19.0550298671
 10
2.5175906632
 20
19.4109959647
  0
LINE
  5
2EF
100
AcDbEntity
  8
0
100
AcDbLine
 62
7
  6
CONTINUOUS
 10
14.8629112183
 20
14.4848180605
 11
14.8629112183
 21
-10.0092902432
  0
LINE
  5
2F0
100
AcDbEntity
  8
DRAFT
100
AcDbLine
 62
7
  6
CONTINUOUS
 10
14.8629112183
 20
-10.0092902432
 11
14.8629112183
 21
14.4848180605
  0
LWPOLYLINE
  5
2F1
100
AcDbEntity
  8
RACCORDO
100
AcDbPolyline
 62
253
  6
CONTINUOUS
 90
6
 70
0
 10
15.8359135718
 20
15.1000101322
 10
15.8352023735
 20
15.0902802794
 10
15.8292782491
 20
15.0705118955
 10
15.8175178416
 20
15.0516338509
 10
15.8002761129
 20
15.0342159371
 10
15.7780734666
 20
15.0187838751
  0
LWPOLYLINE
  5
2F2
100
AcDbEntity
  8
RACCORDO
100
AcDbPolyline
 62
253
  6
CONTINUOUS
 90
22
 70
0
 10
7.7918434064
 20
11.2186213139
 10
7.8466627763
 20
11.1892525339
 10
7.905130002
 20
11.1623312332
 10
7.9669181111
 20
11.1380079666
 10
8.0316815593
 20
11.1164187596
 10
8.0990581633
 20
11.0976843479
 10
8.1686711256
 20
11.081909502
 10
8.2401311425
 20
11.069182441
 10
8.3130385804
 20
11.0595743401
 10
8.3869857115
 20
11.0531389314
 10
8.4615589933
 20
11.0499122045
 10
8.5363413819
 20
11.0499122045
 10
8.6109146637
 20
11.0531389314
 10
8.6848617948
 20
11.0595743401
 10
8.7577692327
 20
11.069182441
 10
8.8292292496
 20
11.081909502
 10
8.8988422119
 20
11.0976843479
 10
8.9662188159
 20
11.1164187596
 10
9.0309822641
 20
11.1380079666
 10
9.0927703732
 20
11.1623312332
 10
9.1512375989
 20
11.1892525339
 10
9.2060569688
 20
11.2186213139
  0
LWPOLYLINE
  5
2F3
100
AcDbEntity
  8
RACCORDO
100
AcDbPolyline
 62
253
  6
CONTINUOUS
 90
12
 70
0
 10
-8.4716125609
 20
20.6089369605
 10
-8.5224775028
 20
20.6405889776
 10
-8.5691035595
 20
20.674347221
 10
-8.6112299789
 20
20.7100229007
 10
-8.6486211732
 20
20.7474165041
 10
-8.6810680356
 20
20.7863189108
 10
-8.70838911
 20
20.8265125628
 10
-8.730431606
 20
20.8677726809
 10
-8.7470722529
 20
20.9098685218
 10
-8.7582179896
 20
20.9525646685
 10
-8.7638064845
 20
20.9956223468
 10
-8.7645057797
 20
21.0172115537
  0
LWPOLYLINE
  5
2F4
100
AcDbEntity
  8
RACCORDO
100
AcDbPolyline
 62
253
  6
CONTINUOUS
 90
4
 70
0
 10
2.5175906632
 20
19.4109959647
 10
2.247015792
 20
19.7526135492
 10
1.9662754873
 20
20.0812953215
 10
1.6753697491
 20
20.3970412816
  0
LWPOLYLINE
  5
2F5
100
AcDbEntity
  8
RACCORDO
100
AcDbPolyline
 62
253
  6
CONTINUOUS
 90
10
 70
0
 10
18.8863245819
 20
-12.7324451474
 10
18.8257975304
 20
-12.5005575045
 10
18.745980588
 20
-12.2611528726
 10
18.647992455
 20
-12.0201976603
 10
18.5325659074
 20
-11.780727563
 10
18.4004282496
 20
-11.5453670142
 10
18.2542920655
 20
-11.3194089423
 10
18.0964820419
 20
-11.1062004689
 10
17.9283401732
 20
-10.9073526399
 10
17.751775031
 20
-10.7250944004
  0
LWPOLYLINE
  5
2F6
100
AcDbEntity
  8
DRAFT
100
AcDbPolyline
 62
7
  6
CONTINUOUS
 90
8
 70
0
 10
14.8306854462
 20
15.3599139429
 10
14.7396356172
 20
16.2516847169
 10
14.5897617311
 20
17.1601303828
 10
14.3792266052
 20
18.0917186341
 10
14.1098674223
 20
19.0399817773
 10
13.7871957307
 20
19.9855167309
 10
13.4130487131
 20
20.9218558012
 10
12.9855891869
 20
21.8554666821
  0
LINE
  5
2F7
100
AcDbEntity
  8
DRAFT
100
AcDbLine
 62
7
  6
CONTINUOUS
 10
14.8629112183
 20
14.4848180605
 11
14.8306854462
 21
15.3599139429
  0
LINE
  5
2F8
100
AcDbEntity
  8
RACCORDO
100
AcDbLine
 62
253
  6
CONTINUOUS
 10
15.747509764
 20
15.8841980082
 11
15.7780734666
 21
15.0187838751
  0
LWPOLYLINE
  5
2F9
100
AcDbEntity
  8
RACCORDO
100
AcDbPolyline
 62
7
  6
CONTINUOUS
 90
10
 70
0
 10
15.8359135718
 20
15.1000101322
 10
15.8054314688
 20
15.9643733816
 10
15.7143349207
 20
16.8564214979
 10
15.5634358132
 20
17.7701065766
 10
15.3539291006
 20
18.6992357284
 10
15.0873613536
 20
19.6376010057
 10
14.7656187971
 20
20.5789655651
 10
14.390954279
 20
21.5169983173
 10
13.9659724024
 20
22.4453635733
 10
13.5112655615
 20
23.3255322112
  0
LINE
  5
2FA
100
AcDbEntity
  8
RACCORDO
100
AcDbLine
 62
253
  6
CONTINUOUS
 10
15.3560308597
 20
-9.7245688529
 11
15.3560308597
 21
-8.5785134414
  0
LINE
  5
2FB
100
AcDbEntity
  8
RACCORDO
100
AcDbLine
 62
7
  6
CONTINUOUS
 10
15.4138709649
 20
-9.6439427048
 11
15.4138709649
 21
-8.6121473577
  0
LINE
  5
2FC
100
AcDbEntity
  8
RACCORDO
100
AcDbLine
 62
253
  6
CONTINUOUS
 10
15.7780734666
 20
15.0187838751
 11
15.7780734666
 21
-8.3322660412
  0
LINE
  5
2FD
100
AcDbEntity
  8
RACCORDO
100
AcDbLine
 62
7
  6
CONTINUOUS
 10
15.8359135718
 20
15.1000101323
 11
15.8359135718
 21
-8.251039784
  0
LWPOLYLINE
  5
2FE
100
AcDbEntity
  8
RACCORDO
100
AcDbPolyline
 62
253
  6
CONTINUOUS
 90
6
 70
0
 10
15.7780734666
 20
-8.3322660412
 10
15.7995520873
 20
-8.3174329065
 10
15.8166218891
 20
-8.3005219373
 10
15.8286115549
 20
-8.2819582619
 10
15.8349824641
 20
-8.2621696838
 10
15.8359135712
 20
-8.2510487297
  0
LWPOLYLINE
  5
2FF
100
AcDbEntity
  8
RACCORDO
100
AcDbPolyline
 62
253
  6
CONTINUOUS
 90
6
 70
0
 10
15.7367048415
 20
-8.4237856087
 10
15.7448143692
 20
-8.4182261025
 10
15.7590276521
 20
-8.4030308139
 10
15.7695001759
 20
-8.3832173547
 10
15.7759137384
 20
-8.359387747
 10
15.7780734666
 20
-8.3322660412
  0
LINE
  5
300
100
AcDbEntity
  8
RACCORDO
100
AcDbLine
 62
253
  6
CONTINUOUS
 10
15.3560308597
 20
-8.5785134414
 11
15.7780734666
 21
-8.3322660412
  0
LINE
  5
301
100
AcDbEntity
  8
RACCORDO
100
AcDbLine
 62
7
  6
CONTINUOUS
 10
15.4138703116
 20
-8.6121484953
 11
15.7367048415
 21
-8.4237856087
  0
LINE
  5
302
100
AcDbEntity
  8
0
100
AcDbLine
 62
7
  6
CONTINUOUS
 10
-4.4057485691
 20
-20.5216508327
 11
-5.4664087408
 21
-21.1340627227
  0
LINE
  5
303
100
AcDbEntity
  8
0
100
AcDbLine
 62
7
  6
CONTINUOUS
 10
-9.3554960374
 20
-23.7873741201
 11
-5.4664087408
 21
-21.5418638568
  0
LINE
  5
304
100
AcDbEntity
  8
RACCORDO
100
AcDbLine
 62
7
  6
CONTINUOUS
 10
15.3560308597
 20
-9.7245688529
 11
9.2060569688
 21
-13.2754869899
  0
LINE
  5
305
100
AcDbEntity
  8
RACCORDO
100
AcDbLine
 62
253
  6
CONTINUOUS
 10
3.5492027193
 20
-18.1747821098
 11
17.1923112611
 21
-10.2974496712
  0
LWPOLYLINE
  5
306
100
AcDbEntity
  8
RACCORDO
100
AcDbPolyline
 62
7
  6
CONTINUOUS
 90
22
 70
0
 10
9.2060569688
 20
-13.2754869899
 10
9.1506629906
 20
-13.3050819815
 10
9.0923047557
 20
-13.3319530973
 10
9.0309822641
 20
-13.3561003372
 10
8.9663208219
 20
-13.3776278869
 10
8.898695123
 20
-13.3964315607
 10
8.8292292496
 20
-13.4121988018
 10
8.7578924435
 20
-13.4248788571
 10
8.6847154628
 20
-13.4345224798
 10
8.6109146637
 20
-13.4409693724
 10
8.5364796191
 20
-13.4441661025
 10
8.4614207561
 20
-13.4441661025
 10
8.3869857115
 20
-13.4409693724
 10
8.3131849124
 20
-13.4345224798
 10
8.2400079317
 20
-13.4248788571
 10
8.1686711256
 20
-13.4121988018
 10
8.0992052522
 20
-13.3964315607
 10
8.0315795533
 20
-13.3776278869
 10
7.9669181111
 20
-13.3561003372
 10
7.9055956195
 20
-13.3319530973
 10
7.8472373846
 20
-13.3050819815
 10
7.7918434064
 20
-13.2754869899
  0
LWPOLYLINE
  5
307
100
AcDbEntity
  8
RACCORDO
100
AcDbPolyline
 62
253
  6
CONTINUOUS
 90
6
 70
0
 10
17.1923112611
 20
-10.2974496712
 10
17.2167763203
 20
-10.2859361294
 10
17.2404805944
 20
-10.2797116296
 10
17.2627086221
 20
-10.2789640361
 10
17.2827895023
 20
-10.2837159052
 10
17.2910361536
 20
-10.2876586032
  0
LWPOLYLINE
  5
308
100
AcDbEntity
  8
ASSI
100
AcDbPolyline
 62
7
  6
CONTINUOUS
 90
13
 70
0
 10
-2.4301459275
 20
-17.7213312562
 10
-2.39107918
 20
-17.7068332198
 10
-2.2715546845
 20
-17.6716244337
 10
-2.1471983946
 20
-17.6482160143
 10
-2.0179554634
 20
-17.6367419106
 10
-1.8838807378
 20
-17.6370681735
 10
-1.7464903989
 20
-17.6491911136
 10
-1.6057468104
 20
-17.6732446381
 10
-1.4616876086
 20
-17.7090948397
 10
-1.315941884
 20
-17.7563363072
 10
-1.1690526666
 20
-17.8148339035
 10
-1.0204769263
 20
-17.8847227657
 10
-0.8702146631
 20
-17.9660028937
  0
LINE
  5
309
100
AcDbEntity
  8
RACCORDO
100
AcDbLine
 62
7
  6
CONTINUOUS
 10
-0.715114901
 20
24.4311878491
 11
-0.6782777122
 21
24.3969262053
  0
LWPOLYLINE
  5
30A
100
AcDbEntity
  8
RACCORDO
100
AcDbPolyline
 62
7
  6
CONTINUOUS
 90
15
 70
0
 10
1.4828795698
 20
21.0447224897
 10
1.7525870228
 20
20.7740074392
 10
2.0157041801
 20
20.4921924341
 10
2.2722310417
 20
20.1992774744
 10
2.5228283433
 20
19.8944189824
 10
2.7668353491
 20
19.5784605359
 10
3.0022698522
 20
19.2539328677
 10
3.229029503
 20
18.9208052859
 10
3.4472166511
 20
18.5791084825
 10
3.6551561381
 20
18.2314652661
 10
3.8527691039
 20
17.8778298249
 10
4.0401344086
 20
17.5182479708
 10
4.2158134744
 20
17.1554799477
 10
4.3797163592
 20
16.789501196
 10
4.5319330052
 20
16.4203362753
  0
LWPOLYLINE
  5
30B
100
AcDbEntity
  8
RACCORDO
100
AcDbPolyline
 62
7
  6
CONTINUOUS
 90
12
 70
0
 10
-0.6782777122
 20
24.3969262053
 10
-0.6013631932
 20
24.3160384075
 10
-0.527855257
 20
24.2287198049
 10
-0.4576657865
 20
24.1351367412
 10
-0.3926422108
 20
24.0377523788
 10
-0.3329217027
 20
23.9364657798
 10
-0.2783670893
 20
23.8313778821
 10
-0.2304142808
 20
23.7252546623
 10
-0.1892385786
 20
23.6180686288
 10
-0.1546646813
 20
23.5098472732
 10
-0.1276025946
 20
23.4034390465
 10
-0.1083556538
 20
23.2997934323
  0
LWPOLYLINE
  5
30C
100
AcDbEntity
  8
RACCORDO
100
AcDbPolyline
 62
253
  6
CONTINUOUS
 90
3
 70
0
 10
18.9522853627
 20
-13.1630559652
 10
18.9280697442
 20
-12.9535045543
 10
18.8863245819
 20
-12.7324451474
  0
LWPOLYLINE
  5
30D
100
AcDbEntity
  8
RACCORDO
100
AcDbPolyline
 62
7
  6
CONTINUOUS
 90
11
 70
0
 10
19.0177665019
 20
-13.2787931555
 10
19.0027268099
 20
-13.0027857239
 10
18.9436547688
 20
-12.6516696165
 10
18.8423371608
 20
-12.2945534505
 10
18.7016499517
 20
-11.9391585065
 10
18.5249149451
 20
-11.5931385494
 10
18.3166941405
 20
-11.2646644484
 10
18.0816138207
 20
-10.9618454529
 10
17.8246607135
 20
-10.6913747861
 10
17.5508775991
 20
-10.4599111118
 10
17.2909055595
 20
-10.2878874803
  0
LINE
  5
30E
100
AcDbEntity
  8
RACCORDO
100
AcDbLine
 62
253
  6
CONTINUOUS
 10
18.9600535521
 20
-13.3596606288
 11
18.9522853627
 21
-13.1630559652
  0
LINE
  5
30F
100
AcDbEntity
  8
RACCORDO
100
AcDbLine
 62
7
  6
CONTINUOUS
 10
18.0448917336
 20
-13.8877016052
 11
18.0448917336
 21
-24.0935800651
  0
LINE
  5
310
100
AcDbEntity
  8
RACCORDO
100
AcDbLine
 62
253
  6
CONTINUOUS
 10
18.9600539819
 20
-23.1458204053
 11
18.9600539819
 21
-13.3596604182
  0
LINE
  5
311
100
AcDbEntity
  8
RACCORDO
100
AcDbLine
 62
7
  6
CONTINUOUS
 10
19.0178940872
 20
-23.0645941488
 11
19.0178940872
 21
-13.2780436326
  0
LINE
  5
312
100
AcDbEntity
  8
RACCORDO
100
AcDbLine
 62
253
  6
CONTINUOUS
 10
19.0178898665
 20
-13.2787938505
 11
19.0178940872
 21
-13.2780436326
  0
LWPOLYLINE
  5
313
100
AcDbEntity
  8
ASSI
100
AcDbPolyline
 62
7
  6
CONTINUOUS
 90
16
 70
0
 10
0.9875175595
 20
-23.6405182984
 10
0.9719823533
 20
-23.6526834199
 10
0.8710783513
 20
-23.7222282621
 10
0.7639909147
 20
-23.7803708955
 10
0.6506498538
 20
-23.8269818905
 10
0.5311253583
 20
-23.8621906766
 10
0.4067690684
 20
-23.885599096
 10
0.2775261372
 20
-23.8970731997
 10
0.1434514115
 20
-23.8967469368
 10
0.0060610727
 20
-23.8846239967
 10
-0.1346825159
 20
-23.8605704722
 10
-0.2787417176
 20
-23.8247202706
 10
-0.4244874423
 20
-23.7774788032
 10
-0.5713766597
 20
-23.7189812069
 10
-0.7199524
 20
-23.6490923447
 10
-0.8702146631
 20
-23.5678122166
  0
LINE
  5
314
100
AcDbEntity
  8
ASSI
100
AcDbLine
 62
253
  6
CONTINUOUS
 10
-3.8754184832
 20
-24.9103265264
 11
-2.4622587837
 21
-24.094385827
  0
LWPOLYLINE
  5
315
100
AcDbEntity
  8
ASSI
100
AcDbPolyline
 62
7
  6
CONTINUOUS
 90
35
 70
0
 10
-3.4612278487
 20
-23.9948967445
 10
-3.4074984993
 20
-23.966986338
 10
-3.3319776817
 20
-23.9374878309
 10
-3.2518615785
 20
-23.9165355027
 10
-3.168311702
 20
-23.9044331175
 10
-3.0812780281
 20
-23.9013096035
 10
-2.990810581
 20
-23.9070360325
 10
-2.8982209452
 20
-23.9215293834
 10
-2.8034782043
 20
-23.9449173752
 10
-2.7066132748
 20
-23.9770722889
 10
-2.6090304912
 20
-24.017527947
 10
-2.5107193956
 20
-24.066405277
 10
-2.411690446
 20
-24.1235833514
 10
-2.3133793504
 20
-24.1882332104
 10
-2.2157965668
 20
-24.2604637047
 10
-2.1189316373
 20
-24.3401659836
 10
-2.0241888963
 20
-24.4261845343
 10
-1.9315992606
 20
-24.5186113738
 10
-1.8411318135
 20
-24.6173544852
 10
-1.7540981396
 20
-24.7209823041
 10
-1.6705482631
 20
-24.8295659925
 10
-1.5904321599
 20
-24.9430343884
 10
-1.5149113423
 20
-25.0597424428
 10
-1.4440527556
 20
-25.1797373516
 10
-1.3777894544
 20
-25.3029719189
 10
-1.3170821152
 20
-25.4276595066
 10
-1.2620116785
 20
-25.5538212827
 10
-1.2124972036
 20
-25.6814360792
 10
-1.1692565447
 20
-25.8086537544
 10
-1.1323811004
 20
-25.9354685227
 10
-1.101779472
 20
-26.0618861696
 10
-1.0778953178
 20
-26.1860739094
 10
-1.0608765239
 20
-26.3074208134
 10
-1.0505752041
 20
-26.4265378101
 10
-1.0469913584
 20
-26.5434248997
  0
LINE
  5
316
100
AcDbEntity
  8
0
100
AcDbLine
 62
253
  6
CONTINUOUS
 10
0.4108394883
 20
21.5249244833
 11
-0.1538638705
 21
21.8894486735
  0
LINE
  5
317
100
AcDbEntity
  8
0
100
AcDbLine
 62
7
  6
CONTINUOUS
 10
0.4732882211
 20
22.7109908561
 11
-0.0914151377
 21
23.0755150463
  0
LWPOLYLINE
  5
318
100
AcDbEntity
  8
RACCORDO
100
AcDbPolyline
 62
253
  6
CONTINUOUS
 90
6
 70
0
 10
18.9600539819
 20
-13.3592698752
 10
18.9822637797
 20
-13.3438318626
 10
18.9995077439
 20
-13.3264081598
 10
19.0112663168
 20
-13.3075253583
 10
19.017185804
 20
-13.2877535589
 10
19.0178898665
 20
-13.2787938505
  0
LINE
  5
319
100
AcDbEntity
  8
ASSI
100
AcDbLine
 62
7
  6
CONTINUOUS
 10
-3.8754184832
 20
-26.9515022184
 11
-1.3008037305
 21
-25.4649519277
  0
LINE
  5
31A
100
AcDbEntity
  8
RACCORDO
100
AcDbLine
 62
253
  6
CONTINUOUS
 10
5.3169696723
 20
-21.2366442851
 11
18.9600539819
 21
-13.3596604182
  0
LWPOLYLINE
  5
31B
100
AcDbEntity
  8
RACCORDO
100
AcDbPolyline
 62
253
  6
CONTINUOUS
 90
40
 70
0
 10
-2.2137175474
 20
22.6425515449
 10
-2.504679855
 20
22.662729806
 10
-2.7854583429
 20
22.6582339392
 10
-3.0560530111
 20
22.6290639446
 10
-3.3174320805
 20
22.5749329029
 10
-3.5686273302
 20
22.4961277334
 10
-3.8067340976
 20
22.3935091939
 10
-4.0315630632
 20
22.2668093149
 10
-4.2433035466
 20
22.1162960661
 10
-4.4396188437
 20
21.9436341139
 10
-4.6203387056
 20
21.7485779686
 10
-4.7856333813
 20
21.53137312
 10
-4.9336769138
 20
21.2944207048
 10
-5.0642781507
 20
21.0375015758
 10
-5.1776282444
 20
20.7608348801
 10
-5.2724746951
 20
20.4674791962
 10
-5.3486122734
 20
20.1572500329
 10
-5.4062462087
 20
19.8303318815
 10
-5.4447396896
 20
19.490336794
 10
-5.4638806766
 20
19.1371195619
 10
-5.4638812093
 20
18.7708253938
 10
-5.4447405941
 20
18.3955019676
 10
-5.4062463863
 20
18.0110483155
 10
-5.3486110307
 20
17.6175654054
 10
-5.2724711677
 20
17.2194038184
 10
-5.1776214478
 20
16.8165119472
 10
-5.0642672205
 20
16.4089413991
 10
-4.9336611741
 20
16.0011975769
 10
-4.7856124118
 20
15.5932793865
 10
-4.6203118305
 20
15.185187922
 10
-4.4395848082
 20
14.7814318681
 10
-4.2432612754
 20
14.3820600202
 10
-4.0315113016
 20
13.9870235829
 10
-3.8066704746
 20
13.6006848552
 10
-3.5685421836
 20
13.2230852358
 10
-3.3173230392
 20
12.8541833259
 10
-3.0559384615
 20
12.4982172283
 10
-2.7853635902
 20
12.1565996438
 10
-2.5046232855
 20
11.8279178715
 10
-2.2137175474
 20
11.5121719114
  0
LWPOLYLINE
  5
31C
100
AcDbEntity
  8
RACCORDO
100
AcDbPolyline
 62
7
  6
CONTINUOUS
 90
13
 70
0
 10
-1.1198666491
 20
23.5272402873
 10
-1.0771355421
 20
23.514874068
 10
-1.034687811
 20
23.4966991332
 10
-0.9925234558
 20
23.4727154829
 10
-0.9500341159
 20
23.4424015585
 10
-0.9078281518
 20
23.4062789185
 10
-0.8677306453
 20
23.3659122389
 10
-0.8298333832
 20
23.3211146546
 10
-0.7940445787
 20
23.2720730306
 10
-0.761913952
 20
23.2209126376
 10
-0.7339580767
 20
23.1683418993
 10
-0.7096603793
 20
23.113652392
 10
-0.6890208598
 20
23.0568441157
  0
LWPOLYLINE
  5
31D
100
AcDbEntity
  8
RACCORDO
100
AcDbPolyline
 62
253
  6
CONTINUOUS
 90
22
 70
0
 10
-2.2137175474
 20
22.6425515453
 10
-2.1759238661
 20
22.630435362
 10
-2.1348218211
 20
22.6188967153
 10
-2.0903300715
 20
22.6081312128
 10
-2.042515575
 20
22.5984262723
 10
-1.9912393203
 20
22.5899167144
 10
-1.9361163351
 20
22.58262677
 10
-1.8772072368
 20
22.5768723282
 10
-1.8145292204
 20
22.5729226931
 10
-1.7476286866
 20
22.5708558332
 10
-1.6765017275
 20
22.5710961155
 10
-1.6015479349
 20
22.5740338326
 10
-1.5230058136
 20
22.5797908527
 10
-1.4409729311
 20
22.5888395105
 10
-1.356369978
 20
22.6015931388
 10
-1.2708160199
 20
22.617947869
 10
-1.1847309782
 20
22.6381639105
 10
-1.0993160783
 20
22.6624481242
 10
-1.0172577188
 20
22.6901211463
 10
-0.9398113269
 20
22.7206888342
 10
-0.867019897
 20
22.7541736477
 10
-0.799503985
 20
22.7903204172
  0
LWPOLYLINE
  5
31E
100
AcDbEntity
  8
0
100
AcDbPolyline
 62
7
  6
CONTINUOUS
 90
19
 70
0
 10
12.1579985266
 20
23.3948332393
 10
12.4367792224
 20
22.9092466989
 10
12.7017687362
 20
22.4190047794
 10
12.952967068
 20
21.9241074807
 10
13.1908196808
 20
21.4235516947
 10
13.4148811116
 20
20.9183405296
 10
13.6238149722
 20
20.4114833101
 10
13.8175311997
 20
19.9029700132
 10
13.996119857
 20
19.3928106619
 10
14.1585147447
 20
18.8840446497
 10
14.3046196601
 20
18.3766779315
 10
14.4345308059
 20
17.8707045525
 10
14.5474705909
 20
17.3691460409
 10
14.6433370151
 20
16.8720366909
 10
14.7222320785
 20
16.3793422085
 10
14.7836841896
 20
15.8939812396
 10
14.8275361514
 20
15.4169266664
 10
14.8539451609
 20
14.9472056067
 10
14.8629112183
 20
14.4848180605
  0
LINE
  5
31F
100
AcDbEntity
  8
DRAFT
100
AcDbLine
 62
7
  6
CONTINUOUS
 10
12.9855891869
 20
21.8554666821
 11
12.5048171519
 21
22.7863493734
  0
LWPOLYLINE
  5
320
100
AcDbEntity
  8
RACCORDO
100
AcDbPolyline
 62
253
  6
CONTINUOUS
 90
12
 70
0
 10
-1.6725193209
 20
23.3139136339
 10
-1.6714243063
 20
23.314066358
 10
-1.6309076363
 20
23.3208969495
 10
-1.588601636
 20
23.3292214637
 10
-1.5448318127
 20
23.3389603524
 10
-1.5010896424
 20
23.3501754561
 10
-1.4571860008
 20
23.3630809076
 10
-1.4133242836
 20
23.3775187749
 10
-1.3715902216
 20
23.3930155462
 10
-1.3326835218
 20
23.4094317638
 10
-1.2959153185
 20
23.4269513853
 10
-1.2612882273
 20
23.4455852629
  0
LWPOLYLINE
  5
321
100
AcDbEntity
  8
RACCORDO
100
AcDbPolyline
 62
7
  6
CONTINUOUS
 90
7
 70
0
 10
-2.1626487243
 20
23.1496048376
 10
-2.1074613961
 20
23.1425557843
 10
-2.0549065367
 20
23.1417005119
 10
-2.004984146
 20
23.1470390204
 10
-1.9573892791
 20
23.1586923529
 10
-1.9124268811
 20
23.1765394662
 10
-1.890482994
 20
23.1880939888
  0
LINE
  5
322
100
AcDbEntity
  8
RACCORDO
100
AcDbLine
 62
7
  6
CONTINUOUS
 10
-1.2610029888
 20
23.5515180065
 11
-1.1198666491
 21
23.5272402873
  0
LWPOLYLINE
  5
323
100
AcDbEntity
  8
RACCORDO
100
AcDbPolyline
 62
253
  6
CONTINUOUS
 90
46
 70
0
 10
-1.6833874615
 20
25.9498720464
 10
-2.0498341052
 20
26.0791140653
 10
-2.40670518
 20
26.1870752319
 10
-2.7540006859
 20
26.2737555462
 10
-3.0932000293
 20
26.3382370471
 10
-3.4228238037
 20
26.3814376956
 10
-3.7384337899
 20
26.4061113753
 10
-4.0390681897
 20
26.4115909801
 10
-4.3256888013
 20
26.3985436161
 10
-4.5967427994
 20
26.3717244843
 10
-4.8514311949
 20
26.3310805545
 10
-5.0905529771
 20
26.2766648571
 10
-5.3149522879
 20
26.2133916842
 10
-5.5238779196
 20
26.1418262688
 10
-5.71808108
 20
26.061403378
 10
-5.9006595343
 20
25.9753416057
 10
-6.0714481231
 20
25.88440866
 10
-6.2306120058
 20
25.7878368327
 10
-6.3817444256
 20
25.6865415939
 10
-6.5251146311
 20
25.5810878137
 10
-6.6604533737
 20
25.470910622
 10
-6.7905461514
 20
25.3552308775
 10
-6.9159979827
 20
25.2340466946
 10
-7.0362038492
 20
25.1073599589
 10
-7.1521341929
 20
24.9743971862
 10
-7.2642587897
 20
24.8347476936
 10
-7.3721078637
 20
24.688822164
 10
-7.4752425291
 20
24.5370791627
 10
-7.5735898537
 20
24.3795578415
 10
-7.6672227696
 20
24.2162190485
 10
-7.7559211872
 20
24.0474038934
 10
-7.8395760329
 20
23.873445348
 10
-7.9182963803
 20
23.6940104405
 10
-7.9921893606
 20
23.5084413647
 10
-8.0613520898
 20
23.3168233159
 10
-8.1256874519
 20
23.1190710988
 10
-8.1850112303
 20
22.9142713219
 10
-8.2393633198
 20
22.7032558508
 10
-8.2887038256
 20
22.4851928199
 10
-8.3327288471
 20
22.2566732407
 10
-8.3718198044
 20
22.0184205362
 10
-8.4055952774
 20
21.7697112835
 10
-8.4326071056
 20
21.5049662253
 10
-8.4523725688
 20
21.2223256092
 10
-8.4653743873
 20
20.9236491875
 10
-8.4716125609
 20
20.6089369605
  0
LWPOLYLINE
  5
324
100
AcDbEntity
  8
RACCORDO
100
AcDbPolyline
 62
253
  6
CONTINUOUS
 90
9
 70
0
 10
13.4226937729
 20
23.3131858786
 10
13.8965887661
 20
22.3980080712
 10
14.3235546038
 20
21.4659032044
 10
14.7004522824
 20
20.5232055445
 10
15.0245969127
 20
19.5759513765
 10
15.2933384048
 20
18.6310926698
 10
15.5043325528
 20
17.6964212945
 10
15.656044661
 20
16.7788098806
 10
15.747509764
 20
15.8841980082
  0
LWPOLYLINE
  5
325
100
AcDbEntity
  8
RACCORDO
100
AcDbPolyline
 62
253
  6
CONTINUOUS
 90
18
 70
0
 10
-0.9762806803
 20
27.185066647
 10
-1.3777839975
 20
27.3346049149
 10
-1.7704815109
 20
27.4592311603
 10
-2.1537159641
 20
27.5595848164
 10
-2.5282861976
 20
27.6366040536
 10
-2.8922399752
 20
27.6906173824
 10
-3.2410961068
 20
27.7221636676
 10
-3.5741340276
 20
27.732780608
 10
-3.8918730229
 20
27.7240756696
 10
-4.1921741834
 20
27.6978340486
 10
-4.4747482677
 20
27.6560369348
 10
-4.7404911511
 20
27.6004820211
 10
-4.9893348242
 20
27.5330817934
 10
-5.2209814855
 20
27.4559051653
 10
-5.4367891998
 20
27.370453771
 10
-5.6391260722
 20
27.2774619412
 10
-5.8280276722
 20
27.1784281898
 10
-5.8830797978
 20
27.1471969114
  0
LINE
  5
326
100
AcDbEntity
  8
DRAFT
100
AcDbLine
 62
7
  6
CONTINUOUS
 10
4.0734714321
 20
26.9978433191
 11
3.7584072576
 21
27.1797574248
  0
LINE
  5
327
100
AcDbEntity
  8
0
100
AcDbLine
 62
7
  6
CONTINUOUS
 10
3.8320454318
 20
27.2222751836
 11
4.1471096062
 21
27.040361078
  0
LINE
  5
328
100
AcDbEntity
  8
RACCORDO
100
AcDbLine
 62
253
  6
CONTINUOUS
 10
12.7196420166
 20
23.7191191514
 11
13.4226937729
 21
23.3131858786
  0
LINE
  5
329
100
AcDbEntity
  8
RACCORDO
100
AcDbLine
 62
7
  6
CONTINUOUS
 10
12.7774861248
 20
23.7525176145
 11
13.503847923
 21
23.3331254157
  0
LWPOLYLINE
  5
32A
100
AcDbEntity
  8
RACCORDO
100
AcDbPolyline
 62
7
  6
CONTINUOUS
 90
3
 70
0
 10
13.503848622
 20
23.3331250121
 10
13.5091627583
 20
23.3285759146
 10
13.5111190522
 20
23.3256287547
  0
LWPOLYLINE
  5
32B
100
AcDbEntity
  8
RACCORDO
100
AcDbPolyline
 62
253
  6
CONTINUOUS
 90
6
 70
0
 10
18.9600539819
 20
-23.1458204053
 10
18.9822566289
 20
-23.1303883431
 10
18.9994983576
 20
-23.1129704292
 10
19.0112587649
 20
-23.0940923846
 10
19.0171828889
 20
-23.0743240011
 10
19.0178940817
 20
-23.0646212011
  0
LINE
  5
32C
100
AcDbEntity
  8
RACCORDO
100
AcDbLine
 62
253
  6
CONTINUOUS
 10
18.0448917336
 20
-23.6853482843
 11
18.9600539819
 21
-23.1458204053
  0
LINE
  5
32D
100
AcDbEntity
  8
RACCORDO
100
AcDbLine
 62
7
  6
CONTINUOUS
 10
18.0448917336
 20
-23.7860482956
 11
18.8990187715
 21
-23.282503323
  0
LWPOLYLINE
  5
32E
100
AcDbEntity
  8
0
100
AcDbPolyline
 62
7
  6
CONTINUOUS
 90
10
 70
0
 10
3.8320454318
 20
29.9613338816
 10
4.129079697
 20
29.8366500067
 10
4.4268749279
 20
29.6998217631
 10
4.7254311244
 20
29.5508491506
 10
5.0252555969
 20
29.3894392546
 10
5.3258410351
 20
29.2158849898
 10
5.6256655076
 20
29.0310651003
 10
5.9242217041
 20
28.8352725006
 10
6.222016935
 20
28.6282142762
 10
6.5190512003
 20
28.409890427
  0
LWPOLYLINE
  5
32F
100
AcDbEntity
  8
RACCORDO
100
AcDbPolyline
 62
253
  6
CONTINUOUS
 90
7
 70
0
 10
18.9085999583
 20
-23.2760846559
 10
18.9229322561
 20
-23.2629567864
 10
18.9354397779
 20
-23.2463926966
 10
18.9457686287
 20
-23.2263305726
 10
18.9535511444
 20
-23.202787789
 10
18.9584245422
 20
-23.175881973
 10
18.9600539819
 20
-23.1458204053
  0
LWPOLYLINE
  5
330
100
AcDbEntity
  8
RACCORDO
100
AcDbPolyline
 62
7
  6
CONTINUOUS
 90
10
 70
0
 10
18.8990830949
 20
-23.2824589685
 10
18.9203147129
 20
-23.2683188381
 10
18.941285197
 20
-23.2506190036
 10
18.9604034325
 20
-23.230161274
 10
18.9772850441
 20
-23.2071424051
 10
18.9915623203
 20
-23.1818616502
 10
19.0029437944
 20
-23.1546432309
 10
19.0112169272
 20
-23.125760612
 10
19.0162302592
 20
-23.0955392849
 10
19.0178995194
 20
-23.0646212325
  0
LINE
  5
331
100
AcDbEntity
  8
RACCORDO
100
AcDbLine
 62
7
  6
CONTINUOUS
 10
5.3169696723
 20
-31.442522745
 11
18.0448917336
 21
-24.0935800651
  0
LWPOLYLINE
  5
332
100
AcDbEntity
  8
RACCORDO
100
AcDbPolyline
 62
7
  6
CONTINUOUS
 90
22
 70
0
 10
5.3169696723
 20
-31.442522745
 10
5.261575694
 20
-31.4721177367
 10
5.2032174591
 20
-31.4989888524
 10
5.1418949676
 20
-31.5231360924
 10
5.0772335254
 20
-31.544663642
 10
5.0096078265
 20
-31.5634673158
 10
4.940141953
 20
-31.579234557
 10
4.868805147
 20
-31.5919146123
 10
4.7956281663
 20
-31.6015582349
 10
4.7218273672
 20
-31.6080051275
 10
4.6473923226
 20
-31.6112018576
 10
4.5723334595
 20
-31.6112018576
 10
4.497898415
 20
-31.6080051275
 10
4.4240976158
 20
-31.6015582349
 10
4.3509206352
 20
-31.5919146123
 10
4.2795838291
 20
-31.579234557
 10
4.2101179557
 20
-31.5634673158
 10
4.1424922568
 20
-31.544663642
 10
4.0778308146
 20
-31.5231360924
 10
4.016508323
 20
-31.4989888524
 10
3.9581500881
 20
-31.4721177367
 10
3.9027561099
 20
-31.442522745
  0
ARC
  5
333
100
AcDbEntity
  8
RACCORDO
100
AcDbCircle
 62
7
  6
CONTINUOUS
 10
15.6359135718
 20
-8.251039784
 40
0.2
100
AcDbArc
 50
300.2620969329
 51
359.9974372505
  0
ELLIPSE
  5
334
100
AcDbEntity
  8
RACCORDO
100
AcDbEllipse
 62
7
  6
CONTINUOUS
 10
16.2771005482
 20
-12.8670291107
 30
0.0
 11
-1.2500604053
 21
2.1650286333
 31
0.0
 40
0.5773474973
 41
3.9269562005
 42
5.497725112
  0
ELLIPSE
  5
335
100
AcDbEntity
  8
RACCORDO
100
AcDbEllipse
 62
7
  6
CONTINUOUS
 10
15.2138709649
 20
-9.6433381189
 30
0.0
 11
0.1999993287
 21
-0.0009022159
 31
0.0
 40
0.5743567055
 41
-0.7775712039
 42
0.0025905402
  0
ELLIPSE
  5
336
100
AcDbEntity
  8
RACCORDO
100
AcDbEllipse
 62
7
  6
CONTINUOUS
 10
17.8327567914
 20
-23.5628575121
 30
0.0
 11
-0.15001136
 21
0.2598105594
 31
0.0
 40
0.5773158418
 41
3.1468291281
 42
3.9269287905
  0
ENDSEC
  0
SECTION
  2
OBJECTS
  0
DICTIONARY
  5
C
100
AcDbDictionary
280
0
281
1
  3
ACAD_GROUP
350
D
  3
ACAD_MLINESTYLE
350
17
  3
ACAD_LAYOUT
350
1A
  3
ACAD_PLOTSETTINGS
350
19
  3
ACAD_PLOTSTYLENAME
350
E
  0
DICTIONARY
  5
D
102
{ACAD_REACTORS
330
C
102
}
100
AcDbDictionary
280
0
281
1
  0
ACDBDICTIONARYWDFLT
  5
E
102
{ACAD_REACTORS
330
C
102
}
100
AcDbDictionary
281
1
  3
Normal
350
F
100
AcDbDictionaryWithDefault
340
F
  0
DICTIONARY
  5
17
102
{ACAD_REACTORS
330
C
102
}
100
AcDbDictionary
280
0
281
1
  3
Standard
350
18
  0
DICTIONARY
  5
19
102
{ACAD_REACTORS
330
C
102
}
100
AcDbDictionary
281
1
  0
DICTIONARY
  5
1A
102
{ACAD_REACTORS
330
C
102
}
100
AcDbDictionary
281
1
  3
Model
350
337
  3
Layout1
350
338
  0
ACDBPLACEHOLDER
  5
F
102
{ACAD_REACTORS
330
E
102
}
  0
MLINESTYLE
  5
18
102
{ACAD_REACTORS
330
17
102
}
100
AcDbMlineStyle
  2
STANDARD
 70
0
  3

 62
256
 51
90.0
 52
90.0
 71
2
 49
0.5
 62
256
  6
BYLAYER
 49
-0.5
 62
256
  6
BYLAYER
  0
LAYOUT
  5
337
102
{ACAD_REACTORS
330
1A
102
}
100
AcDbPlotSettings
  1

  2
none_device
  4
ANSI_C_(22.00_x_17.00_Inches)
  6

 40
0.0
 41
0.0
 42
0.0
 43
0.0
 44
558.8
 45
431.8
 46
0.0
 47
0.0
 48
0.0
 49
0.0
140
0.0
141
0.0
142
1.0
143
1.0
 70
1024
 72
1
 73
0
 74
0
  7

 75
0
147
1.0
148
0.0
149
0.0
100
AcDbLayout
  1
Model
 70
0
 71
0
 10
0.0
 20
0.0
 11
558.8
 21
431.8
 12
0.0
 22
0.0
 32
0.0
 14
0.0
 24
0.0
 34
0.0
 15
0.0
 25
0.0
 35
0.0
146
0.0
 13
0.0
 23
0.0
 33
0.0
 16
1.0
 26
0.0
 36
0.0
 17
0.0
 27
1.0
 37
0.0
 76
0
330
214
345
0
346
0
  0
LAYOUT
  5
338
102
{ACAD_REACTORS
330
1A
102
}
100
AcDbPlotSettings
  1

  2
none_device
  4
ANSI_C_(22.00_x_17.00_Inches)
  6

 40
0.0
 41
0.0
 42
0.0
 43
0.0
 44
558.8
 45
431.8
 46
0.0
 47
0.0
 48
0.0
 49
0.0
140
0.0
141
0.0
142
1.0
143
1.0
 70
0
 72
1
 73
0
 74
0
  7

 75
0
147
1.0
148
0.0
149
0.0
100
AcDbLayout
  1
Layout1
 70
0
 71
1
 10
0.0
 20
0.0
 11
558.8
 21
431.8
 12
0.0
 22
0.0
 32
0.0
 14
0.0
 24
0.0
 34
0.0
 15
0.0
 25
0.0
 35
0.0
146
0.0
 13
0.0
 23
0.0
 33
0.0
 16
1.0
 26
0.0
 36
0.0
 17
0.0
 27
1.0
 37
0.0
 76
0
330
215
345
0
346
0
  0
ENDSEC
  0
EOF
