0
SECTION
2
HEADER
9
$ACADVER
1
AC1015
9
$DWGCODEPAGE
3
ANSI_1252
9
$EXTMAX
10
431.8000000000
20
558.8000000000
30
0.0000000000
9
$EXTMIN
10
0.0000000000
20
0.0000000000
30
0.0000000000
9
$LIMMIN
10
0.0000000000
20
0.0000000000
9
$LIMMAX
10
431.8000000000
20
558.8000000000
9
$VIEWCTR
10
215.9000000000
20
279.4000000000
9
$VIEWSIZE
40
558.8000000000
9
$CLAYER
8
0
9
$LTSCALE
40
36.4254814815
9
$CELTYPE
6
BYLAYER
9
$DIMSCALE
40
1
9
$DIMASZ
40
3.0000000000
9
$DIMEXO
40
4.1392592593
9
$DIMDLI
40
25.1666962963
9
$DIMEXE
40
11.9210666667
9
$DIMCEN
40
5.9605333333
9
$DIMLFAC
40
1.0000000000
9
$DIMBLK
1
_FILLED
9
$DIMTXT
40
3.0000000000
9
$DIMTOL
70
1
9
$DIMLIM
70
0
9
$DIMTFAC
40
1.0000000000
9
$DIMTP
40
0.0100000000
9
$DIMTM
40
0.0100000000
9
$PDMODE
70
3
9
$PDSIZE
40
3.0000000000
9
$HANDSEED
5
2B2
9
$MEASUREMENT
70
1
9
$INSUNITS
70
4
0
ENDSEC
0
SECTION
2
CLASSES
0
CLASS
1
ACDBDICTIONARYWDFLT
2
AcDbDictionaryWithDefault
3
AutoCAD 2000
90
0
280
0
281
0
0
CLASS
1
ACDBPLACEHOLDER
2
AcDbPlaceHolder
3
AutoCAD 2000
90
0
280
0
281
0
0
CLASS
1
LAYOUT
2
AcDbLayout
3
AutoCAD 2000
90
0
280
0
281
0
0
ENDSEC
0
SECTION
2
TABLES
0
TABLE
2
VPORT
5
8
100
AcDbSymbolTable
70
2
0
VPORT
5
1F4
100
AcDbSymbolTableRecord
100
AcDbViewportTableRecord
2
*ACTIVE
70
0
10
0.0
20
0.0
11
1.0
21
1.0
12
215.9000000000
22
279.4000000000
13
0.0
23
0.0
14
1.0
24
1.0
15
0.0
25
0.0
16
0.0
26
0.0
36
1.0
17
0.0
27
0.0
37
0.0
40
558.8000000000
41
0.7727272727
42
50.0
43
0.0
44
0.0
50
0.0
51
0.0
71
0
72
100
73
1
74
1
75
0
76
0
77
0
78
0
0
ENDTAB
0
TABLE
2
LTYPE
5
5
100
AcDbSymbolTable
70
6
0
LTYPE
5
14
100
AcDbSymbolTableRecord
100
AcDbLinetypeTableRecord
2
BYBLOCK
70
0
3

72
65
73
0
40
0.0
0
LTYPE
5
15
100
AcDbSymbolTableRecord
100
AcDbLinetypeTableRecord
2
BYLAYER
70
0
3

72
65
73
0
40
0.0
0
LTYPE
5
16
100
AcDbSymbolTableRecord
100
AcDbLinetypeTableRecord
2
CONTINUOUS
70
64
3
Solid line
72
65
73
0
40
0
0
LTYPE
5
1F5
100
AcDbSymbolTableRecord
100
AcDbLinetypeTableRecord
2
CENTER
70
64
3
____ _ ____ _ ____ _ ____ _ ____ _ ____ _ ____
72
65
73
4
40
0.6
49
0.375
74
0
49
-0.075
74
0
49
0.075
74
0
49
-0.075
74
0
0
LTYPE
5
1F6
100
AcDbSymbolTableRecord
100
AcDbLinetypeTableRecord
2
HIDDEN
70
64
3
- - - - - - - - - - - - - - - - - - - -
72
65
73
2
40
0.2
49
0.1
74
0
49
-0.1
74
0
0
LTYPE
5
1F7
100
AcDbSymbolTableRecord
100
AcDbLinetypeTableRecord
2
PHANTOM
70
64
3
_____ _ _ _____ _ _ _____ _ _ _____
72
65
73
6
40
0.8
49
0.45
74
0
49
-0.05
74
0
49
0.1
74
0
49
-0.05
74
0
49
0.1
74
0
49
-0.05
74
0
0
LTYPE
5
1F8
100
AcDbSymbolTableRecord
100
AcDbLinetypeTableRecord
2
DOT
70
64
3
. . . . . . . . . . . . . . . . . . . .
72
65
73
2
40
0.2
49
0.1
74
0
49
-0.1
74
0
0
LTYPE
5
1F9
100
AcDbSymbolTableRecord
100
AcDbLinetypeTableRecord
2
DASHED
70
64
3
- - - - - - - - - - - - - - - - - - - -
72
65
73
2
40
0.2
49
0.1
74
0
49
-0.1
74
0
0
ENDTAB
0
TABLE
2
LAYER
5
2
100
AcDbSymbolTable
70
36
0
LAYER
5
10
100
AcDbSymbolTableRecord
100
AcDbLayerTableRecord
2
0
70
0
62
7
6
CONTINUOUS
370
-3
390
F
0
LAYER
5
1FA
100
AcDbSymbolTableRecord
100
AcDbLayerTableRecord
2
DEFAULT_1
70
0
62
7
6
CENTER
370
-3
390
F
0
LAYER
5
1FB
100
AcDbSymbolTableRecord
100
AcDbLayerTableRecord
2
DEFAULT_2
70
0
62
9
6
HIDDEN
370
-3
390
F
0
LAYER
5
1FC
100
AcDbSymbolTableRecord
100
AcDbLayerTableRecord
2
DEFAULT_3
70
0
62
7
6
PHANTOM
370
-3
390
F
0
LAYER
5
1FD
100
AcDbSymbolTableRecord
100
AcDbLayerTableRecord
2
_BLACK_HOLE
70
0
62
7
6
CONTINUOUS
370
-3
390
F
0
LAYER
5
1FE
100
AcDbSymbolTableRecord
100
AcDbLayerTableRecord
2
ASSI
70
0
62
7
6
CONTINUOUS
370
-3
390
F
0
LAYER
5
1FF
100
AcDbSymbolTableRecord
100
AcDbLayerTableRecord
2
COORDINATE
70
0
62
7
6
CONTINUOUS
370
-3
390
F
0
LAYER
5
200
100
AcDbSymbolTableRecord
100
AcDbLayerTableRecord
2
COPY_PUBLISH
70
0
62
7
6
CONTINUOUS
370
-3
390
F
0
LAYER
5
201
100
AcDbSymbolTableRecord
100
AcDbLayerTableRecord
2
COSMETIC
70
0
62
7
6
CONTINUOUS
370
-3
390
F
0
LAYER
5
202
100
AcDbSymbolTableRecord
100
AcDbLayerTableRecord
2
CURVE
70
0
62
7
6
CONTINUOUS
370
-3
390
F
0
LAYER
5
203
100
AcDbSymbolTableRecord
100
AcDbLayerTableRecord
2
IMPORT_IGES
70
0
62
7
6
CONTINUOUS
370
-3
390
F
0
LAYER
5
204
100
AcDbSymbolTableRecord
100
AcDbLayerTableRecord
2
PIANI
70
0
62
7
6
CONTINUOUS
370
-3
390
F
0
LAYER
5
205
100
AcDbSymbolTableRecord
100
AcDbLayerTableRecord
2
RACCORDO
70
0
62
7
6
CONTINUOUS
370
-3
390
F
0
LAYER
5
206
100
AcDbSymbolTableRecord
100
AcDbLayerTableRecord
2
SMUSSO
70
0
62
7
6
CONTINUOUS
370
-3
390
F
0
LAYER
5
207
100
AcDbSymbolTableRecord
100
AcDbLayerTableRecord
2
TRASH
70
0
62
7
6
CONTINUOUS
370
-3
390
F
0
ENDTAB
0
TABLE
2
STYLE
5
3
100
AcDbSymbolTable
70
1
0
STYLE
5
11
100
AcDbSymbolTableRecord
100
AcDbTextStyleTableRecord
2
STANDARD
70
0
40
0.0
41
0.8000000000
50
0.0
71
0
42
0.2
3
txt
4

0
ENDTAB
0
TABLE
2
VIEW
5
6
100
AcDbSymbolTable
70
0
0
ENDTAB
0
TABLE
2
UCS
5
7
100
AcDbSymbolTable
70
0
0
ENDTAB
0
TABLE
2
APPID
5
9
100
AcDbSymbolTable
70
1
0
APPID
5
208
100
AcDbSymbolTableRecord
100
AcDbRegAppTableRecord
2
ACAD
70
0
0
ENDTAB
0
TABLE
2
BLOCK_RECORD
5
1
100
AcDbSymbolTable
70
0
0
BLOCK_RECORD
5
1F
100
AcDbSymbolTableRecord
100
AcDbBlockTableRecord
2
*MODEL_SPACE
0
BLOCK_RECORD
5
1B
100
AcDbSymbolTableRecord
100
AcDbBlockTableRecord
2
*PAPER_SPACE
0
ENDTAB
0
TABLE
2
DIMSTYLE
5
A
100
AcDbSymbolTable
70
1
100
AcDbDimStyleTable
71
0
0
DIMSTYLE
105
209
100
AcDbSymbolTableRecord
100
AcDbDimStyleTableRecord
2
STANDARD
70
0
3

4

40
1.0
41
3.0000000000
42
0.0625
43
0.38
44
0.18
45
0.0
46
0.0
47
0.0100000000
48
0.0100000000
140
3.0000000000
141
0.09
142
0.0
143
25.4
144
1.0000000000
145
0.0
146
1.0000000000
147
0.09
71
1
72
0
73
0
74
0
75
0
76
0
77
1
78
8
170
0
171
2
172
0
173
0
174
0
175
0
176
0
177
0
178
0
270
2
271
2
272
2
273
2
274
2
275
0
280
0
281
0
282
0
283
1
284
8
285
0
286
0
287
3
288
0
340
11
0
ENDTAB
0
ENDSEC
0
SECTION
2
BLOCKS
0
BLOCK
5
20
100
AcDbEntity
8
0
100
AcDbBlockBegin
2
*MODEL_SPACE
70
0
10
0.0
20
0.0
30
0.0
3
*MODEL_SPACE
1

0
ENDBLK
5
21
100
AcDbEntity
8
0
100
AcDbBlockEnd
0
BLOCK
5
1C
100
AcDbEntity
8
0
100
AcDbBlockBegin
2
*PAPER_SPACE
70
0
10
0.0
20
0.0
30
0.0
3
*PAPER_SPACE
1

0
ENDBLK
5
1D
100
AcDbEntity
8
0
100
AcDbBlockEnd
0
ENDSEC
0
SECTION
2
ENTITIES
0
LINE
5
20A
100
AcDbEntity
8
0
100
AcDbLine
62
0
6
CONTINUOUS
10
-31.6178329621
20
-37.7408055820
11
-22.7843738434
21
-40.2908055820
0
LINE
5
20B
100
AcDbEntity
8
0
100
AcDbLine
62
0
6
CONTINUOUS
10
-14.4705299671
20
-42.6908055820
11
-5.6370708485
21
-45.2408055820
0
LINE
5
20C
100
AcDbEntity
8
0
100
AcDbLine
62
0
6
CONTINUOUS
10
-5.6370708485
20
-40.0446531593
11
-14.4705299671
21
-37.4946531593
0
LINE
5
20D
100
AcDbEntity
8
0
100
AcDbLine
62
0
6
CONTINUOUS
10
-22.7843738434
20
-35.0946531593
11
-31.6178329621
21
-32.5446531593
0
LINE
5
20E
100
AcDbEntity
8
0
100
AcDbLine
62
0
6
CONTINUOUS
10
-35.3509054724
20
-12.5010516071
11
-35.3509054724
21
-10.9422058803
0
LINE
5
20F
100
AcDbEntity
8
0
100
AcDbLine
62
9
6
CONTINUOUS
10
-22.0204849929
20
30.6488910572
11
-22.0202958687
21
30.6490548374
0
LINE
5
210
100
AcDbEntity
8
0
100
AcDbLine
62
0
6
CONTINUOUS
10
-9.2704849929
20
41.6907149555
11
-22.0204849929
21
30.6488910572
0
LINE
5
211
100
AcDbEntity
8
0
100
AcDbLine
62
9
6
CONTINUOUS
10
-6.2653388081
20
43.2106394141
11
-19.0153388081
21
32.1688155159
0
LINE
5
212
100
AcDbEntity
8
0
100
AcDbLine
62
0
6
CONTINUOUS
10
-16.4317710818
20
32.7865533881
11
-8.7245662223
21
35.7578274106
0
LINE
5
213
100
AcDbEntity
8
0
100
AcDbLine
62
0
6
CONTINUOUS
10
-32.4930216400
20
-18.0025887875
11
-34.9611940407
21
-12.6135516071
0
LINE
5
214
100
AcDbEntity
8
0
100
AcDbLine
62
0
6
CONTINUOUS
10
-31.7086572304
20
-7.0695281660
11
-31.7086572304
21
7.1837001781
0
LINE
5
215
100
AcDbEntity
8
0
100
AcDbLine
62
0
6
CONTINUOUS
10
-31.6178329621
20
-37.7408055820
11
-31.6178329621
21
-32.5446531593
0
LINE
5
216
100
AcDbEntity
8
0
100
AcDbLine
62
9
6
CONTINUOUS
10
-30.5086572304
20
-9.2613779855
11
-30.5086572304
21
6.1444696935
0
LINE
5
217
100
AcDbEntity
8
0
100
AcDbLine
62
0
6
CONTINUOUS
10
-31.0304402521
20
10.7866320593
11
-24.2002678424
21
27.5806755862
0
LINE
5
218
100
AcDbEntity
8
0
100
AcDbLine
62
9
6
CONTINUOUS
10
-30.0072710950
20
8.8432340576
11
-23.1770986853
21
25.6372775845
0
LINE
5
219
100
AcDbEntity
8
0
100
AcDbLine
62
0
6
CONTINUOUS
10
-8.7245662223
20
35.7578274106
11
2.2254337777
21
45.2408055820
0
LINE
5
21A
100
AcDbEntity
8
0
100
AcDbLine
62
0
6
CONTINUOUS
10
-27.6865806489
20
-11.8928288213
11
-27.6865806489
21
-12.8948982591
0
LINE
5
21B
100
AcDbEntity
8
0
100
AcDbLine
62
0
6
CONTINUOUS
10
-26.5336006270
20
-21.5415787985
11
-26.5336006270
21
-12.9679273010
0
LINE
5
21C
100
AcDbEntity
8
0
100
AcDbLine
62
0
6
CONTINUOUS
10
-31.1620615961
20
-23.1499435781
11
-31.6178329621
21
-32.5446531593
0
LINE
5
21D
100
AcDbEntity
8
0
100
AcDbLine
62
0
6
CONTINUOUS
10
-11.7245662223
20
24.8459073229
11
-0.4745662223
21
34.5886931155
0
LINE
5
21E
100
AcDbEntity
8
0
100
AcDbLine
62
0
6
CONTINUOUS
10
12.9571577855
20
-32.9415787985
11
-28.6120615961
21
-20.9415787985
0
LINE
5
21F
100
AcDbEntity
8
0
100
AcDbLine
62
0
6
CONTINUOUS
10
19.9881178294
20
-33.1525887875
11
18.9316768384
21
-32.8476205422
0
LINE
5
220
100
AcDbEntity
8
0
100
AcDbLine
62
0
6
CONTINUOUS
10
-31.4365806489
20
-18.3075570328
11
-32.4930216400
21
-18.0025887875
0
LINE
5
221
100
AcDbEntity
8
0
100
AcDbLine
62
0
6
CONTINUOUS
10
-26.5336006270
20
-12.9679273010
11
-30.5086572304
21
-9.2613779855
0
LINE
5
222
100
AcDbEntity
8
0
100
AcDbLine
62
0
6
CONTINUOUS
10
-22.7843738434
20
-40.2908055820
11
-22.7843738434
21
-35.0946531593
0
LINE
5
223
100
AcDbEntity
8
0
100
AcDbLine
62
0
6
CONTINUOUS
10
-0.9303375883
20
33.5078274106
11
10.0196624117
21
42.9908055820
0
LINE
5
224
100
AcDbEntity
8
0
100
AcDbLine
62
0
6
CONTINUOUS
10
-4.0631681651
20
30.3863798631
11
-11.5631681651
21
23.8911893347
0
LINE
5
225
100
AcDbEntity
8
0
100
AcDbLine
62
0
6
CONTINUOUS
10
-11.7245662223
20
27.9635987765
11
-8.7245662223
21
35.7578274106
0
LINE
5
226
100
AcDbEntity
8
0
100
AcDbLine
62
0
6
CONTINUOUS
10
-35.3509054724
20
-10.9422058803
11
-31.7086572304
21
-5.8868688622
0
LINE
5
227
100
AcDbEntity
8
0
100
AcDbLine
62
9
6
CONTINUOUS
10
-3.9303375883
20
22.7814504197
11
-8.2636403543
21
19.0287001420
0
LINE
5
228
100
AcDbEntity
8
0
100
AcDbLine
62
0
6
CONTINUOUS
10
22.8460016619
20
-29.3010516071
11
22.4562902302
21
-29.1885516071
0
LINE
5
229
100
AcDbEntity
8
0
100
AcDbLine
62
0
6
CONTINUOUS
10
-34.9611940407
20
-12.6135516071
11
-35.3509054724
21
-12.5010516071
0
LINE
5
22A
100
AcDbEntity
8
0
100
AcDbLine
62
0
6
CONTINUOUS
10
32.8009054724
20
-30.7025416180
11
25.3131178294
21
-28.5410035124
0
LINE
5
22B
100
AcDbEntity
8
0
100
AcDbLine
62
0
6
CONTINUOUS
10
15.0040834247
20
-25.5650416180
11
15.3816768384
21
-25.6740434476
0
LINE
5
22C
100
AcDbEntity
8
0
100
AcDbLine
62
9
6
CONTINUOUS
10
-17.6843738434
20
-35.8740760227
11
-17.6843738434
21
-30.6779236000
0
LINE
5
22D
100
AcDbEntity
8
0
100
AcDbLine
62
0
6
CONTINUOUS
10
-12.3224043036
20
11.4206318236
11
-8.6809641331
21
16.7174710585
0
LINE
5
22E
100
AcDbEntity
8
0
100
AcDbLine
62
0
6
CONTINUOUS
10
-8.0492017290
20
16.5921471661
11
-11.8716805393
21
11.0319691076
0
LINE
5
22F
100
AcDbEntity
8
0
100
AcDbLine
62
0
6
CONTINUOUS
10
-31.4365806489
20
-18.3075570328
11
-27.6865806489
21
-12.8948982591
0
LINE
5
230
100
AcDbEntity
8
0
100
AcDbLine
62
9
6
CONTINUOUS
10
-18.6094681824
20
8.3544361665
11
-8.4938664088
21
17.1148042770
0
LINE
5
231
100
AcDbEntity
8
0
100
AcDbLine
62
9
6
CONTINUOUS
10
-2.9199432538
20
21.0342153082
11
-8.0492017290
21
16.5921471661
0
LINE
5
232
100
AcDbEntity
8
0
100
AcDbLine
62
0
6
CONTINUOUS
10
-4.3716805393
20
17.5271596360
11
-11.8716805393
21
11.0319691076
0
LINE
5
233
100
AcDbEntity
8
0
100
AcDbLine
62
9
6
CONTINUOUS
10
18.5104349975
20
36.0584895761
11
5.7604349975
21
25.0166656779
0
LINE
5
234
100
AcDbEntity
8
0
100
AcDbLine
62
0
6
CONTINUOUS
10
13.7036716836
20
-22.7647739531
11
15.1816768384
21
-23.1914372900
0
LINE
5
235
100
AcDbEntity
8
0
100
AcDbLine
62
0
6
CONTINUOUS
10
32.8009054724
20
-25.5063891953
11
28.8757385113
21
-24.3732910945
0
LINE
5
236
100
AcDbEntity
8
0
100
AcDbLine
62
0
6
CONTINUOUS
10
-14.4705299671
20
-42.6908055820
11
-14.4705299671
21
-37.4946531593
0
LINE
5
237
100
AcDbEntity
8
0
100
AcDbLine
62
0
6
CONTINUOUS
10
-11.7245662223
20
27.9635987765
11
-11.7245662223
21
24.8459073229
0
LINE
5
238
100
AcDbEntity
8
0
100
AcDbLine
62
0
6
CONTINUOUS
10
-3.9303375883
20
25.7135987765
11
-0.9303375883
21
33.5078274106
0
LINE
5
239
100
AcDbEntity
8
0
100
AcDbLine
62
0
6
CONTINUOUS
10
-2.4595513119
20
20.3085430008
11
-4.3716805393
21
17.5271596360
0
LINE
5
23A
100
AcDbEntity
8
0
100
AcDbLine
62
0
6
CONTINUOUS
10
30.8822143889
20
-22.0080244157
11
35.3509054724
21
-23.2980244157
0
LINE
5
23B
100
AcDbEntity
8
0
100
AcDbLine
62
9
6
CONTINUOUS
10
0.5817438400
20
14.1078553752
11
0.5260603225
21
14.0596320345
0
LINE
5
23C
100
AcDbEntity
8
0
100
AcDbLine
62
0
6
CONTINUOUS
10
-27.6865806489
20
-12.8948982591
11
-27.1294040846
21
-12.4123692000
0
LINE
5
23D
100
AcDbEntity
8
0
100
AcDbLine
62
9
6
CONTINUOUS
10
-9.8152111157
20
2.2544673868
11
1.1489348626
21
11.7496963348
0
LINE
5
23E
100
AcDbEntity
8
0
100
AcDbLine
62
0
6
CONTINUOUS
10
-8.3470671476
20
3.3461052532
11
1.2109823469
21
11.6236189261
0
LINE
5
23F
100
AcDbEntity
8
0
100
AcDbLine
62
0
6
CONTINUOUS
10
-9.8152111157
20
2.2544673868
11
-8.3470671476
21
3.3461052532
0
LINE
5
240
100
AcDbEntity
8
0
100
AcDbLine
62
0
6
CONTINUOUS
10
-5.6370708485
20
-45.2408055820
11
-5.6370708485
21
-40.0446531593
0
LINE
5
241
100
AcDbEntity
8
0
100
AcDbLine
62
0
6
CONTINUOUS
10
-3.9303375883
20
25.7135987765
11
-3.9303375883
21
22.5959073229
0
LINE
5
242
100
AcDbEntity
8
0
100
AcDbLine
62
0
6
CONTINUOUS
10
-7.3078366630
20
3.0461052532
11
1.6250644836
21
10.7822245757
0
LINE
5
243
100
AcDbEntity
8
0
100
AcDbLine
62
0
6
CONTINUOUS
10
-31.4365806489
20
-18.3075570328
11
-26.5336006270
21
-14.0614517795
0
LINE
5
244
100
AcDbEntity
8
0
100
AcDbLine
62
9
6
CONTINUOUS
10
23.4253093100
20
29.0032692129
11
10.6753093100
21
17.9614453147
0
LINE
5
245
100
AcDbEntity
8
0
100
AcDbLine
62
9
6
CONTINUOUS
10
-5.8396926949
20
1.1068340716
11
2.3189553682
21
8.1724305547
0
LINE
5
246
100
AcDbEntity
8
0
100
AcDbLine
62
0
6
CONTINUOUS
10
-7.3078366630
20
3.0461052532
11
-5.8396926949
21
1.1068340716
0
LINE
5
247
100
AcDbEntity
8
0
100
AcDbLine
62
0
6
CONTINUOUS
10
-0.4745662223
20
42.9025369918
11
-0.4745662223
21
34.5886931155
0
LINE
5
248
100
AcDbEntity
8
0
100
AcDbLine
62
0
6
CONTINUOUS
10
-28.6120615961
20
-20.9415787985
11
-31.1620615961
21
-23.1499435781
0
LINE
5
249
100
AcDbEntity
8
0
100
AcDbLine
62
0
6
CONTINUOUS
10
-8.3470671476
20
3.3461052532
11
-7.3078366630
21
3.0461052532
0
LINE
5
24A
100
AcDbEntity
8
0
100
AcDbLine
62
0
6
CONTINUOUS
10
-11.8716805393
20
11.0319691076
11
-12.3224043036
21
11.4206318236
0
LINE
5
24B
100
AcDbEntity
8
0
100
AcDbLine
62
0
6
CONTINUOUS
10
-8.8954027584
20
19.1540240343
11
-11.8218102517
21
23.4666486356
0
LINE
5
24C
100
AcDbEntity
8
0
100
AcDbLine
62
0
6
CONTINUOUS
10
-11.5631681651
20
23.8911893347
11
-8.2636403543
21
19.0287001420
0
LINE
5
24D
100
AcDbEntity
8
0
100
AcDbLine
62
0
6
CONTINUOUS
10
15.1816768384
20
-25.2698982591
11
18.9316768384
21
-32.8476205422
0
LINE
5
24E
100
AcDbEntity
8
0
100
AcDbLine
62
0
6
CONTINUOUS
10
18.5072143889
20
-19.2150924885
11
22.8460016619
21
-27.7422058803
0
LINE
5
24F
100
AcDbEntity
8
0
100
AcDbLine
62
0
6
CONTINUOUS
10
-0.1057020816
20
14.2990563362
11
1.7710118510
21
10.4856667686
0
LINE
5
250
100
AcDbEntity
8
0
100
AcDbLine
62
0
6
CONTINUOUS
10
0.8558663337
20
13.3894825886
11
0.5260603225
21
14.0596320345
0
LINE
5
251
100
AcDbEntity
8
0
100
AcDbLine
62
0
6
CONTINUOUS
10
14.2279510492
20
-22.9161203695
11
15.0040834247
21
-25.5650416180
0
LINE
5
252
100
AcDbEntity
8
0
100
AcDbLine
62
0
6
CONTINUOUS
10
10.4071577855
20
-40.3460960008
11
10.4071577855
21
-35.1499435781
0
LINE
5
253
100
AcDbEntity
8
0
100
AcDbLine
62
0
6
CONTINUOUS
10
10.8786968165
20
-32.3415787985
11
10.8786968165
21
-23.7679273010
0
LINE
5
254
100
AcDbEntity
8
0
100
AcDbLine
62
0
6
CONTINUOUS
10
-22.7843738434
20
-35.0946531593
11
-17.6843738434
21
-30.6779236000
0
LINE
5
255
100
AcDbEntity
8
0
100
AcDbLine
62
0
6
CONTINUOUS
10
12.4536968165
20
-23.2086421401
11
12.4536968165
21
-32.7962421355
0
LINE
5
256
100
AcDbEntity
8
0
100
AcDbLine
62
0
6
CONTINUOUS
10
12.9571577855
20
-38.1377312212
11
12.9571577855
21
-32.9415787985
0
LINE
5
257
100
AcDbEntity
8
0
100
AcDbLine
62
9
6
CONTINUOUS
10
14.8537534198
20
-6.9505303065
11
14.8537534198
21
-22.3563779855
0
LINE
5
258
100
AcDbEntity
8
0
100
AcDbLine
62
0
6
CONTINUOUS
10
15.1816768384
20
-23.1914372900
11
15.1816768384
21
-25.2698982591
0
LINE
5
259
100
AcDbEntity
8
0
100
AcDbLine
62
9
6
CONTINUOUS
10
30.2554817197
20
8.2658238067
11
17.5054817197
21
-2.7760000916
0
LINE
5
25A
100
AcDbEntity
8
0
100
AcDbLine
62
0
6
CONTINUOUS
10
-22.7843738434
20
-40.2908055820
11
-17.6843738434
21
-35.8740760227
0
LINE
5
25B
100
AcDbEntity
8
0
100
AcDbLine
62
0
6
CONTINUOUS
10
-4.0631681651
20
30.3863798631
11
-2.8308081081
21
28.5702601627
0
LINE
5
25C
100
AcDbEntity
8
0
100
AcDbLine
62
9
6
CONTINUOUS
10
7.5221948748
20
16.7751548841
11
14.3523672845
21
-3.9622905222
0
LINE
5
25D
100
AcDbEntity
8
0
100
AcDbLine
62
9
6
CONTINUOUS
10
10.6753093100
20
17.9614453147
11
17.5054817197
21
-2.7760000916
0
LINE
5
25E
100
AcDbEntity
8
0
100
AcDbLine
62
9
6
CONTINUOUS
10
18.1322143889
20
-6.5112998219
11
18.1322143889
21
-20.5790824994
0
LINE
5
25F
100
AcDbEntity
8
0
100
AcDbLine
62
0
6
CONTINUOUS
10
18.5072143889
20
-20.2543229730
11
18.5072143889
21
-19.2150924885
0
LINE
5
260
100
AcDbEntity
8
0
100
AcDbLine
62
0
6
CONTINUOUS
10
12.4536968165
20
-31.9385896049
11
14.2084217240
21
-22.9104827389
0
LINE
5
261
100
AcDbEntity
8
0
100
AcDbLine
62
9
6
CONTINUOUS
10
30.8822143889
20
4.5305240763
11
18.1322143889
21
-6.5112998219
0
LINE
5
262
100
AcDbEntity
8
0
100
AcDbLine
62
0
6
CONTINUOUS
10
-14.4705299671
20
-37.4946531593
11
-9.3705299671
21
-33.0779236000
0
LINE
5
263
100
AcDbEntity
8
0
100
AcDbLine
62
9
6
CONTINUOUS
10
1.4620363317
20
24.1569545094
11
3.5902954248
21
22.4193311746
0
LINE
5
264
100
AcDbEntity
8
0
100
AcDbLine
62
0
6
CONTINUOUS
10
-0.9303375883
20
33.5078274106
11
3.1768672712
21
27.1260270723
0
LINE
5
265
100
AcDbEntity
8
0
100
AcDbLine
62
0
6
CONTINUOUS
10
25.9322143889
20
-12.7848538654
11
30.2710016619
21
-21.3119672572
0
LINE
5
266
100
AcDbEntity
8
0
100
AcDbLine
62
0
6
CONTINUOUS
10
22.8460016619
20
-27.7422058803
11
22.8460016619
21
-29.3010516071
0
LINE
5
267
100
AcDbEntity
8
0
100
AcDbLine
62
9
6
CONTINUOUS
10
3.1768672712
20
27.1260270723
11
5.7604349975
21
25.0166656779
0
LINE
5
268
100
AcDbEntity
8
0
100
AcDbLine
62
0
6
CONTINUOUS
10
25.9322143889
20
-12.7848538654
11
18.5072143889
21
-19.2150924885
0
LINE
5
269
100
AcDbEntity
8
0
100
AcDbLine
62
0
6
CONTINUOUS
10
14.8537534198
20
-22.3563779855
11
10.8786968165
21
-23.7679273010
0
LINE
5
26A
100
AcDbEntity
8
0
100
AcDbLine
62
0
6
CONTINUOUS
10
-17.1169401423
20
29.5202430437
11
-11.7245662223
21
27.9635987765
0
LINE
5
26B
100
AcDbEntity
8
0
100
AcDbLine
62
0
6
CONTINUOUS
10
-3.9303375883
20
25.7135987765
11
1.4620363317
21
24.1569545094
0
LINE
5
26C
100
AcDbEntity
8
0
100
AcDbLine
62
0
6
CONTINUOUS
10
28.3322143889
20
-17.5016262842
11
28.3322143889
21
-15.6427376979
0
LINE
5
26D
100
AcDbEntity
8
0
100
AcDbLine
62
0
6
CONTINUOUS
10
30.2710016619
20
-21.3119672572
11
30.2710016619
21
-22.8708129840
0
LINE
5
26E
100
AcDbEntity
8
0
100
AcDbLine
62
0
6
CONTINUOUS
10
30.8822143889
20
4.5305240763
11
30.8822143889
21
-22.0080244157
0
LINE
5
26F
100
AcDbEntity
8
0
100
AcDbLine
62
0
6
CONTINUOUS
10
18.1322143889
20
-20.5790824994
11
18.5072143889
21
-20.2543229730
0
LINE
5
270
100
AcDbEntity
8
0
100
AcDbLine
62
0
6
CONTINUOUS
10
15.0040834247
20
-25.5650416180
11
13.4270193054
21
-26.9308192087
0
LINE
5
271
100
AcDbEntity
8
0
100
AcDbLine
62
0
6
CONTINUOUS
10
28.3322143889
20
-15.6427376979
11
27.6756758489
21
-16.2113167520
0
LINE
5
272
100
AcDbEntity
8
0
100
AcDbLine
62
0
6
CONTINUOUS
10
32.8009054724
20
-30.7025416180
11
32.8009054724
21
-25.5063891953
0
LINE
5
273
100
AcDbEntity
8
0
100
AcDbLine
62
0
6
CONTINUOUS
10
22.4562902302
20
-29.1885516071
11
19.9881178294
21
-33.1525887875
0
LINE
5
274
100
AcDbEntity
8
0
100
AcDbLine
62
0
6
CONTINUOUS
10
10.4071577855
20
-35.1499435781
11
12.9571577855
21
-32.9415787985
0
LINE
5
275
100
AcDbEntity
8
0
100
AcDbLine
62
9
6
CONTINUOUS
10
-19.2451992353
20
29.0113706692
11
-17.1169401423
21
29.5202430437
0
LINE
5
276
100
AcDbEntity
8
0
100
AcDbLine
62
0
6
CONTINUOUS
10
23.4253093100
20
29.0032692129
11
30.2554817197
21
8.2658238067
0
LINE
5
277
100
AcDbEntity
8
0
100
AcDbLine
62
0
6
CONTINUOUS
10
35.3509054724
20
-28.4941768384
11
35.3509054724
21
-23.2980244157
0
LINE
5
278
100
AcDbEntity
8
0
100
AcDbLine
62
0
6
CONTINUOUS
10
29.2732119538
20
-23.7349242188
11
27.4131178294
21
-26.7223501644
0
LINE
5
279
100
AcDbEntity
8
0
100
AcDbLine
62
0
6
CONTINUOUS
10
30.2710016619
20
-21.3119672572
11
22.8460016619
21
-27.7422058803
0
LINE
5
27A
100
AcDbEntity
8
0
100
AcDbLine
62
0
6
CONTINUOUS
10
30.8822143889
20
-22.0080244157
11
30.2710016619
21
-22.5373501644
0
LINE
5
27B
100
AcDbEntity
8
0
100
AcDbLine
62
0
6
CONTINUOUS
10
30.2710016619
20
-22.8708129840
11
22.8460016619
21
-29.3010516071
0
LINE
5
27C
100
AcDbEntity
8
0
100
AcDbLine
62
0
6
CONTINUOUS
10
10.4071577855
20
-40.3460960008
11
12.9571577855
21
-38.1377312212
0
LINE
5
27D
100
AcDbEntity
8
0
100
AcDbLine
62
0
6
CONTINUOUS
10
27.4131178294
20
-26.7223501644
11
19.9881178294
21
-33.1525887875
0
LINE
5
27E
100
AcDbEntity
8
0
100
AcDbLine
62
0
6
CONTINUOUS
10
-5.6370708485
20
-40.0446531593
11
10.4071577855
21
-35.1499435781
0
LINE
5
27F
100
AcDbEntity
8
0
100
AcDbLine
62
9
6
CONTINUOUS
10
-19.0153388081
20
32.1688155159
11
-16.4317710818
21
32.7865533881
0
LINE
5
280
100
AcDbEntity
8
0
100
AcDbLine
62
0
6
CONTINUOUS
10
32.8009054724
20
-25.5063891953
11
35.3509054724
21
-23.2980244157
0
LINE
5
281
100
AcDbEntity
8
0
100
AcDbLine
62
0
6
CONTINUOUS
10
-5.6370708485
20
-45.2408055820
11
10.4071577855
21
-40.3460960008
0
LINE
5
282
100
AcDbEntity
8
0
100
AcDbLine
62
0
6
CONTINUOUS
10
-0.4745662223
20
42.9025369918
11
7.3196624117
21
40.6525369918
0
LINE
5
283
100
AcDbEntity
8
0
100
AcDbLine
62
0
6
CONTINUOUS
10
10.0196624117
20
42.9908055820
11
18.5104349975
21
36.0584895761
0
LINE
5
284
100
AcDbEntity
8
0
100
AcDbLine
62
0
6
CONTINUOUS
10
32.8009054724
20
-30.7025416180
11
35.3509054724
21
-28.4941768384
0
LINE
5
285
100
AcDbEntity
8
0
100
AcDbLine
62
0
6
CONTINUOUS
10
-6.2653388081
20
43.2106394141
11
2.2254337777
21
45.2408055820
0
LINE
5
286
100
AcDbEntity
8
0
100
AcDbLine
62
0
6
CONTINUOUS
10
10.0196624117
20
42.9908055820
11
2.2254337777
21
45.2408055820
0
SPLINE
5
287
100
AcDbEntity
8
0
100
AcDbSpline
62
0
6
CONTINUOUS
70
0
71
3
72
10
73
6
74
4
42
0.0000001000
43
0.0000001000
44
0.0000000001
12
1.1892892507
22
-3.6108635960
32
0.0000000000
13
0.0000000000
23
-3.8016765815
33
0.0000000000
40
0.0000000000
40
0.0000000000
40
0.0000000000
40
0.0000000000
40
0.3431871418
40
0.6767824085
40
1.0000000000
40
1.0000000000
40
1.0000000000
40
1.0000000000
10
30.2554817197
20
8.2658238067
30
0.0000000000
10
30.3915313126
20
7.8527564876
30
0.0000000000
10
30.6209191792
20
7.0245995596
30
0.0000000000
10
30.8329699320
20
5.7731058621
30
0.0000000000
10
30.8822143889
20
4.9401136591
30
0.0000000000
10
30.8822143889
20
4.5305240763
30
0.0000000000
11
30.2554817197
21
8.2658238067
31
0.0000000000
11
30.6020884668
21
7.0080198955
31
0.0000000000
11
30.8119453413
21
5.7572819571
31
0.0000000000
11
30.8822143889
21
4.5305240763
31
0.0000000000
0
SPLINE
5
288
100
AcDbEntity
8
0
100
AcDbSpline
62
0
6
CONTINUOUS
70
0
71
3
72
10
73
6
74
4
42
0.0000001000
43
0.0000001000
44
0.0000000001
12
-2.7214259346
22
8.2626643021
32
0.0000000000
13
-6.7385911810
23
5.5017423950
33
0.0000000000
40
0.0000000000
40
0.0000000000
40
0.0000000000
40
0.0000000000
40
0.3270198512
40
0.6631991694
40
1.0000000000
40
1.0000000000
40
1.0000000000
40
1.0000000000
10
23.4253093100
20
29.0032692129
30
0.0000000000
10
23.1286558753
20
29.9039542965
30
0.0000000000
10
22.3344884466
20
31.6717142422
30
0.0000000000
10
20.6653238989
20
34.0605834298
30
0.0000000000
10
19.2669560330
20
35.4408257734
30
0.0000000000
10
18.5104349975
20
36.0584895761
30
0.0000000000
11
23.4253093100
21
29.0032692129
31
0.0000000000
11
22.2693967171
21
31.6026918407
31
0.0000000000
11
20.5977249404
21
34.0023488837
31
0.0000000000
11
18.5104349975
21
36.0584895761
31
0.0000000000
0
SPLINE
5
289
100
AcDbEntity
8
0
100
AcDbSpline
62
0
6
CONTINUOUS
70
0
71
3
72
9
73
5
74
3
42
0.0000001000
43
0.0000001000
44
0.0000000001
12
-3.2934407420
22
-0.7874703866
32
0.0000000000
13
-2.5708842843
23
-2.2263469972
33
0.0000000000
40
0.0000000000
40
0.0000000000
40
0.0000000000
40
0.0000000000
40
0.6656633098
40
1.0000000000
40
1.0000000000
40
1.0000000000
40
1.0000000000
10
-6.2653388081
20
43.2106394141
30
0.0000000000
10
-6.9961130297
20
43.0359093662
30
0.0000000000
10
-8.0649396037
20
42.6090302319
30
0.0000000000
10
-8.9838216900
20
41.9384232332
30
0.0000000000
10
-9.2703353376
20
41.6903067378
30
0.0000000000
11
-6.2653388081
21
43.2106394141
31
0.0000000000
11
-8.3526287510
21
42.3595961321
31
0.0000000000
11
-9.2703353376
21
41.6903067378
31
0.0000000000
0
SPLINE
5
28A
100
AcDbEntity
8
0
100
AcDbSpline
62
0
6
CONTINUOUS
70
0
71
3
72
10
73
6
74
4
42
0.0000001000
43
0.0000001000
44
0.0000000001
12
-1.3888678373
22
-3.4149514116
32
0.0000000000
13
-0.0000000000
23
-3.6865765980
33
0.0000000000
40
0.0000000000
40
0.0000000000
40
0.0000000000
40
0.0000000000
40
0.3224772072
40
0.6557283892
40
1.0000000000
40
1.0000000000
40
1.0000000000
40
1.0000000000
10
-31.0304402521
20
10.7866320593
30
0.0000000000
10
-31.1797329926
20
10.4195507279
30
0.0000000000
10
-31.4320053024
20
9.6512157426
30
0.0000000000
10
-31.6592314853
20
8.4404045256
30
0.0000000000
10
-31.7086572304
20
7.6067613993
30
0.0000000000
10
-31.7086572304
20
7.1837001781
30
0.0000000000
11
-31.0304402521
21
10.7866320593
31
0.0000000000
11
-31.4028833693
21
9.6576416429
31
0.0000000000
11
-31.6314392395
21
8.4505326667
31
0.0000000000
11
-31.7086572304
21
7.1837001781
31
0.0000000000
0
SPLINE
5
28B
100
AcDbEntity
8
0
100
AcDbSpline
62
0
6
CONTINUOUS
70
0
71
3
72
10
73
6
74
4
42
0.0000001000
43
0.0000001000
44
0.0000000001
12
-2.8687492686
22
-2.4844097437
32
0.0000000000
13
-1.4297143479
23
-3.5153849049
33
0.0000000000
40
0.0000000000
40
0.0000000000
40
0.0000000000
40
0.0000000000
40
0.3275917753
40
0.6596488818
40
1.0000000000
40
1.0000000000
40
1.0000000000
40
1.0000000000
10
-22.0204849929
20
30.6488910572
30
0.0000000000
10
-22.3337445482
20
30.3776003243
30
0.0000000000
10
-22.9218861179
20
29.7797082429
30
0.0000000000
10
-23.6576382694
20
28.7448120113
30
0.0000000000
10
-24.0380662167
20
27.9794973140
30
0.0000000000
10
-24.2002678424
20
27.5806755863
30
0.0000000000
11
-22.0204849929
21
30.6488910572
31
0.0000000000
11
-22.8925507403
21
29.7628474756
31
0.0000000000
11
-23.6236620420
21
28.7364605975
31
0.0000000000
11
-24.2002678424
21
27.5806755863
31
0.0000000000
0
SPLINE
5
28C
100
AcDbEntity
8
0
100
AcDbSpline
62
0
6
CONTINUOUS
70
0
71
3
72
9
73
5
74
3
42
0.0000001000
43
0.0000001000
44
0.0000000001
12
2.5222861759
22
2.1960772316
32
0.0000000000
13
0.0000000000
23
3.3151307282
33
0.0000000000
40
0.0000000000
40
0.0000000000
40
0.0000000000
40
0.0000000000
40
0.4272700803
40
1.0000000000
40
1.0000000000
40
1.0000000000
40
1.0000000000
10
1.7013785007
20
-0.8627281007
30
0.0000000000
10
2.0606109730
20
-0.5499554023
30
0.0000000000
10
2.7470562490
20
0.3666524088
30
0.0000000000
10
2.9545643718
20
1.4965446479
30
0.0000000000
10
2.9545643718
20
2.1294361665
30
0.0000000000
11
1.7013785007
21
-0.8627281007
31
0.0000000000
11
2.5597713960
21
0.2722599296
31
0.0000000000
11
2.9545643718
21
2.1294361665
31
0.0000000000
0
SPLINE
5
28D
100
AcDbEntity
8
0
100
AcDbSpline
62
0
6
CONTINUOUS
70
0
71
3
72
9
73
5
74
3
42
0.0000001000
43
0.0000001000
44
0.0000000001
12
0.0418947718
22
-1.3770802468
32
0.0000000000
13
-1.0401829377
23
-0.9008248486
33
0.0000000000
40
0.0000000000
40
0.0000000000
40
0.0000000000
40
0.0000000000
40
0.1284762639
40
1.0000000000
40
1.0000000000
40
1.0000000000
40
1.0000000000
10
-8.7324954716
20
-31.8814045645
30
0.0000000000
10
-8.7307013104
20
-31.9403786063
30
0.0000000000
10
-8.7512385389
20
-32.3978235986
30
0.0000000000
10
-9.0683485938
20
-32.8162268542
30
0.0000000000
10
-9.3705299671
20
-33.0779236000
30
0.0000000000
11
-8.7324954716
21
-31.8814045645
31
0.0000000000
11
-8.7408736788
21
-32.0572758246
31
0.0000000000
11
-9.3705299671
21
-33.0779236000
31
0.0000000000
0
SPLINE
5
28E
100
AcDbEntity
8
0
100
AcDbSpline
62
0
6
CONTINUOUS
70
0
71
3
72
8
73
4
74
2
42
0.0000001000
43
0.0000001000
44
0.0000000001
12
0.3616213602
22
-0.5329186650
32
0.0000000000
13
0.2411558767
23
-0.6010076976
33
0.0000000000
40
0.0000000000
40
0.0000000000
40
0.0000000000
40
0.0000000000
40
1.0000000000
40
1.0000000000
40
1.0000000000
40
1.0000000000
10
-8.8954027584
20
19.1540240343
30
0.0000000000
10
-8.7748623050
20
18.9763844793
30
0.0000000000
10
-8.6718151082
20
18.7853495933
30
0.0000000000
10
-8.5914298160
20
18.5850136941
30
0.0000000000
11
-8.8954027584
21
19.1540240343
31
0.0000000000
11
-8.5914298160
21
18.5850136941
31
0.0000000000
0
SPLINE
5
28F
100
AcDbEntity
8
0
100
AcDbSpline
62
0
6
CONTINUOUS
70
0
71
3
72
9
73
5
74
3
42
0.0000001000
43
0.0000001000
44
0.0000000001
12
0.4352122682
22
-1.0846342495
32
0.0000000000
13
-0.1423027089
23
-1.1663304226
33
0.0000000000
40
0.0000000000
40
0.0000000000
40
0.0000000000
40
0.0000000000
40
0.2580566553
40
1.0000000000
40
1.0000000000
40
1.0000000000
40
1.0000000000
10
-8.5914298160
20
18.5850136941
30
0.0000000000
10
-8.5539933419
20
18.4917146652
30
0.0000000000
10
-8.4279692107
20
18.1223527035
30
0.0000000000
10
-8.3835927430
20
17.7289083359
30
0.0000000000
10
-8.4187862590
20
17.4404579710
30
0.0000000000
11
-8.5914298160
21
18.5850136941
31
0.0000000000
11
-8.4943877926
21
18.2994783149
31
0.0000000000
11
-8.4187862590
21
17.4404579710
31
0.0000000000
0
SPLINE
5
290
100
AcDbEntity
8
0
100
AcDbSpline
62
0
6
CONTINUOUS
70
0
71
3
72
8
73
4
74
2
42
0.0000001000
43
0.0000001000
44
0.0000000001
12
-0.0941592609
22
-0.7717408294
32
0.0000000000
13
-0.4356813429
23
-0.6337421248
33
0.0000000000
40
0.0000000000
40
0.0000000000
40
0.0000000000
40
0.0000000000
40
1.0000000000
40
1.0000000000
40
1.0000000000
40
1.0000000000
10
-8.4187862590
20
17.4404579710
30
0.0000000000
10
-8.4501726793
20
17.1832110278
30
0.0000000000
10
-8.5357370188
20
16.9287184334
30
0.0000000000
10
-8.6809641331
20
16.7174710585
30
0.0000000000
11
-8.4187862590
21
17.4404579710
31
0.0000000000
11
-8.6809641331
21
16.7174710585
31
0.0000000000
0
SPLINE
5
291
100
AcDbEntity
8
0
100
AcDbSpline
62
0
6
CONTINUOUS
70
0
71
3
72
10
73
6
74
4
42
0.0000001000
43
0.0000001000
44
0.0000000001
12
0.0000000000
22
14.7187527693
32
0.0000000000
13
-6.1877084396
23
13.3841468884
33
0.0000000000
40
0.0000000000
40
0.0000000000
40
0.0000000000
40
0.0000000000
40
0.4706058153
40
0.9689772000
40
1.0000000000
40
1.0000000000
40
1.0000000000
40
1.0000000000
10
2.9545643718
20
2.1294361665
30
0.0000000000
10
2.9545643718
20
4.4383463823
30
0.0000000000
10
2.3703794090
20
9.2040045530
30
0.0000000000
10
0.7740246756
20
13.8728652309
30
0.0000000000
10
-0.3043692828
20
16.2408971572
30
0.0000000000
10
-0.3683559633
20
16.3793017281
30
0.0000000000
11
2.9545643718
21
2.1294361665
31
0.0000000000
11
2.1600518288
21
9.0104497025
31
0.0000000000
11
-0.1787814198
21
15.9630052363
31
0.0000000000
11
-0.3683559633
21
16.3793017281
31
0.0000000000
0
SPLINE
5
292
100
AcDbEntity
8
0
100
AcDbSpline
62
0
6
CONTINUOUS
70
0
71
3
72
8
73
4
74
2
42
0.0000001000
43
0.0000001000
44
0.0000000001
12
-3.0116018081
22
6.5141597026
32
0.0000000000
13
-4.0777901823
23
5.8898674581
33
0.0000000000
40
0.0000000000
40
0.0000000000
40
0.0000000000
40
0.0000000000
40
1.0000000000
40
1.0000000000
40
1.0000000000
40
1.0000000000
10
-0.3683559633
20
16.3793017281
30
0.0000000000
10
-1.3722232327
20
18.5506882956
30
0.0000000000
10
-2.5710741942
20
20.6326181702
30
0.0000000000
10
-3.9303375883
20
22.5959073229
30
0.0000000000
11
-0.3683559633
21
16.3793017281
31
0.0000000000
11
-3.9303375883
21
22.5959073229
31
0.0000000000
0
SPLINE
5
293
100
AcDbEntity
8
0
100
AcDbSpline
62
0
6
CONTINUOUS
70
0
71
3
72
10
73
6
74
4
42
0.0000001000
43
0.0000001000
44
0.0000000001
12
-0.7338223511
22
-1.7289744150
32
0.0000000000
13
0.8170814657
23
-1.6602689857
33
0.0000000000
40
0.0000000000
40
0.0000000000
40
0.0000000000
40
0.0000000000
40
0.0641743120
40
0.5067018877
40
1.0000000000
40
1.0000000000
40
1.0000000000
40
1.0000000000
10
-0.2495311354
20
16.1012555512
30
0.0000000000
10
-0.2652286502
20
16.0642703034
30
0.0000000000
10
-0.3778544201
20
15.7678065193
30
0.0000000000
10
-0.4182107341
20
15.1345003175
30
0.0000000000
10
-0.2400569964
20
14.5720588550
30
0.0000000000
10
-0.1057020816
20
14.2990563362
30
0.0000000000
11
-0.2495311354
21
16.1012555512
31
0.0000000000
11
-0.2922784221
21
15.9887834931
31
0.0000000000
11
-0.3678799557
21
15.1734117149
31
0.0000000000
11
-0.1057020816
21
14.2990563362
31
0.0000000000
0
SPLINE
5
294
100
AcDbEntity
8
0
100
AcDbSpline
62
0
6
CONTINUOUS
70
0
71
3
72
9
73
5
74
3
42
0.0000001000
43
0.0000001000
44
0.0000000001
12
-1.8667570759
22
1.7406612917
32
0.0000000000
13
0.0892421628
23
2.6133244327
33
0.0000000000
40
0.0000000000
40
0.0000000000
40
0.0000000000
40
0.0000000000
40
0.5812002875
40
1.0000000000
40
1.0000000000
40
1.0000000000
40
1.0000000000
10
-30.5086572304
20
-9.2613779855
30
0.0000000000
10
-30.8703104802
20
-8.9241537044
30
0.0000000000
10
-31.4085366916
20
-8.2523788341
30
0.0000000000
10
-31.7225223711
20
-7.4259187272
30
0.0000000000
10
-31.7100641737
20
-7.0610988868
30
0.0000000000
11
-30.5086572304
21
-9.2613779855
31
0.0000000000
11
-31.4201978822
21
-8.0910304990
31
0.0000000000
11
-31.7100641737
21
-7.0610988868
31
0.0000000000
0
SPLINE
5
295
100
AcDbEntity
8
0
100
AcDbSpline
62
0
6
CONTINUOUS
70
0
71
3
72
10
73
6
74
4
42
0.0000001000
43
0.0000001000
44
0.0000000001
12
-2.8291192846
22
-2.4500891708
32
0.0000000000
13
-3.5268122631
23
-1.2523769930
33
0.0000000000
40
0.0000000000
40
0.0000000000
40
0.0000000000
40
0.0000000000
40
0.2714598725
40
0.6316682551
40
1.0000000000
40
1.0000000000
40
1.0000000000
40
1.0000000000
10
18.1322143889
20
-20.5790824994
30
0.0000000000
10
17.8762169355
20
-20.8007827974
30
0.0000000000
10
17.2170467465
20
-21.2402817305
30
0.0000000000
10
16.1217047801
20
-21.8368267607
30
0.0000000000
10
15.2867657248
20
-22.2026145845
30
0.0000000000
10
14.8537534198
20
-22.3563779855
30
0.0000000000
11
18.1322143889
21
-20.5790824994
31
0.0000000000
11
17.3036158524
21
-21.1669565761
31
0.0000000000
11
16.1215728073
21
-21.8151575516
31
0.0000000000
11
14.8537534198
21
-22.3563779855
31
0.0000000000
0
SPLINE
5
296
100
AcDbEntity
8
0
100
AcDbSpline
62
0
6
CONTINUOUS
70
0
71
3
72
11
73
7
74
5
42
0.0000001000
43
0.0000001000
44
0.0000000001
12
4.8775050456
22
4.2240432766
32
0.0000000000
13
6.2758440255
23
-1.4981796036
33
0.0000000000
40
0.0000000000
40
0.0000000000
40
0.0000000000
40
0.0000000000
40
0.2558019610
40
0.5698681196
40
0.9002482628
40
1.0000000000
40
1.0000000000
40
1.0000000000
40
1.0000000000
10
-17.6843738434
20
-35.8740760227
30
0.0000000000
10
-17.2684820583
20
-35.5139031716
30
0.0000000000
10
-16.1296773162
20
-34.9697947260
30
0.0000000000
10
-14.2152261544
20
-34.6251690632
30
0.0000000000
10
-12.5982800130
20
-34.6780476792
30
0.0000000000
10
-11.6898909944
20
-34.8548339879
30
0.0000000000
10
-11.4812155465
20
-34.9046493273
30
0.0000000000
11
-17.6843738434
21
-35.8740760227
31
0.0000000000
11
-16.2313881840
21
-35.0911029644
31
0.0000000000
11
-14.2428547829
21
-34.7008820398
31
0.0000000000
11
-12.1126270681
21
-34.7807012889
31
0.0000000000
11
-11.4812155465
21
-34.9046493273
31
0.0000000000
0
SPLINE
5
297
100
AcDbEntity
8
0
100
AcDbSpline
62
9
6
CONTINUOUS
70
0
71
3
72
10
73
6
74
4
42
0.0000001000
43
0.0000001000
44
0.0000000001
12
-0.9191729916
22
-2.2378717657
32
0.0000000000
13
1.9556999089
23
-1.2763784884
33
0.0000000000
40
0.0000000000
40
0.0000000000
40
0.0000000000
40
0.0000000000
40
0.1363225057
40
0.5177136238
40
1.0000000000
40
1.0000000000
40
1.0000000000
40
1.0000000000
10
-24.1933811358
20
27.5778469726
30
0.0000000000
10
-24.2351491243
20
27.4761562104
30
0.0000000000
10
-24.3341016331
20
27.0658199843
30
0.0000000000
10
-24.0038568178
20
26.2940754680
30
0.0000000000
10
-23.4915011594
20
25.8424709031
30
0.0000000000
10
-23.1770986853
20
25.6372775845
30
0.0000000000
11
-24.1933811358
21
27.5778469726
31
0.0000000000
11
-24.2685453884
21
27.2608080446
31
0.0000000000
11
-23.9928861383
21
26.4138532439
31
0.0000000000
11
-23.1770986853
21
25.6372775845
31
0.0000000000
0
SPLINE
5
298
100
AcDbEntity
8
0
100
AcDbSpline
62
0
6
CONTINUOUS
70
0
71
3
72
10
73
6
74
4
42
0.0000001000
43
0.0000001000
44
0.0000000001
12
1.4589769393
22
2.1222280014
32
0.0000000000
13
-1.4460612662
23
2.1310495568
33
0.0000000000
40
0.0000000000
40
0.0000000000
40
0.0000000000
40
0.0000000000
40
0.2986211305
40
0.6334642699
40
1.0000000000
40
1.0000000000
40
1.0000000000
40
1.0000000000
10
-8.0492017290
20
16.5921471661
30
0.0000000000
10
-7.9039746147
20
16.8033945410
30
0.0000000000
10
-7.7224671916
20
17.3432490560
30
0.0000000000
10
-7.8207962926
20
18.2150406374
30
0.0000000000
10
-8.0869626470
20
18.7683315402
30
0.0000000000
10
-8.2636403543
20
19.0287001420
30
0.0000000000
11
-8.0492017290
21
16.5921471661
31
0.0000000000
11
-7.7870238549
21
17.3151340786
31
0.0000000000
11
-7.8626253885
21
18.1741544226
31
0.0000000000
11
-8.2636403543
21
19.0287001420
31
0.0000000000
0
SPLINE
5
299
100
AcDbEntity
8
0
100
AcDbSpline
62
9
6
CONTINUOUS
70
0
71
3
72
10
73
6
74
4
42
0.0000001000
43
0.0000001000
44
0.0000000001
12
6.7385915398
22
-5.5017426619
32
0.0000000000
13
2.7214260509
23
-8.2626647341
33
0.0000000000
40
0.0000000000
40
0.0000000000
40
0.0000000000
40
0.0000000000
40
0.3371996964
40
0.6731716769
40
1.0000000000
40
1.0000000000
40
1.0000000000
40
1.0000000000
10
5.7604349975
20
25.0166656779
30
0.0000000000
10
6.5178520047
20
24.3982703594
30
0.0000000000
10
7.9164915224
20
23.0174556603
30
0.0000000000
10
9.5852514727
20
20.6283339807
30
0.0000000000
10
10.3788296058
20
18.8616029344
30
0.0000000000
10
10.6753093100
20
17.9614453147
30
0.0000000000
11
5.7604349975
21
25.0166656779
31
0.0000000000
11
7.8499716835
21
22.9578611526
31
0.0000000000
11
9.5202206740
21
20.5594110267
31
0.0000000000
11
10.6753093100
21
17.9614453147
31
0.0000000000
0
SPLINE
5
29A
100
AcDbEntity
8
0
100
AcDbSpline
62
9
6
CONTINUOUS
70
0
71
3
72
9
73
5
74
3
42
0.0000001000
43
0.0000001000
44
0.0000000001
12
2.5707155252
22
2.2259188849
32
0.0000000000
13
3.2930677573
23
0.7873811907
33
0.0000000000
40
0.0000000000
40
0.0000000000
40
0.0000000000
40
0.0000000000
40
0.3346351676
40
1.0000000000
40
1.0000000000
40
1.0000000000
40
1.0000000000
10
-22.0200319138
20
30.6487499957
30
0.0000000000
10
-21.7332813070
20
30.8970402421
30
0.0000000000
10
-20.8144188783
20
31.5674491863
30
0.0000000000
10
-19.7457026335
20
31.9941835979
30
0.0000000000
10
-19.0153388081
20
32.1688155159
30
0.0000000000
11
-22.0200319138
21
30.6487499957
31
0.0000000000
11
-21.1015332068
21
31.3184382173
31
0.0000000000
11
-19.0153388081
21
32.1688155159
31
0.0000000000
0
SPLINE
5
29B
100
AcDbEntity
8
0
100
AcDbSpline
62
0
6
CONTINUOUS
70
0
71
3
72
9
73
5
74
3
42
0.0000001000
43
0.0000001000
44
0.0000000001
12
-0.2640406580
22
-0.4212161925
32
0.0000000000
13
-0.2532302984
23
-0.4278024847
33
0.0000000000
40
0.0000000000
40
0.0000000000
40
0.0000000000
40
0.0000000000
40
0.4996167702
40
1.0000000000
40
1.0000000000
40
1.0000000000
40
1.0000000000
10
-11.5631681651
20
23.8911893347
30
0.0000000000
10
-11.6071412121
20
23.8210404435
30
0.0000000000
10
-11.6942580146
20
23.6800709395
30
0.0000000000
10
-11.7795728535
20
23.5380036986
30
0.0000000000
10
-11.8218102517
20
23.4666486356
30
0.0000000000
11
-11.5631681651
21
23.8911893347
31
0.0000000000
11
-11.6937414425
21
23.6799049732
31
0.0000000000
11
-11.8218102517
21
23.4666486356
31
0.0000000000
0
SPLINE
5
29C
100
AcDbEntity
8
0
100
AcDbSpline
62
0
6
CONTINUOUS
70
0
71
3
72
8
73
4
74
2
42
0.0000001000
43
0.0000001000
44
0.0000000001
12
-0.5488055873
22
-0.5361212589
32
0.0000000000
13
-0.5262529296
23
-0.5586482310
33
0.0000000000
40
0.0000000000
40
0.0000000000
40
0.0000000000
40
0.0000000000
40
1.0000000000
40
1.0000000000
40
1.0000000000
40
1.0000000000
10
-1.2762169426
20
33.8507336766
30
0.0000000000
10
-1.4591521384
20
33.6720265903
30
0.0000000000
10
-1.6384115465
20
33.4894690874
30
0.0000000000
10
-1.8138291897
20
33.3032530103
30
0.0000000000
11
-1.2762169426
21
33.8507336766
31
0.0000000000
11
-1.8138291897
21
33.3032530103
31
0.0000000000
0
SPLINE
5
29D
100
AcDbEntity
8
0
100
AcDbSpline
62
0
6
CONTINUOUS
70
0
71
3
72
9
73
5
74
3
42
0.0000001000
43
0.0000001000
44
0.0000000001
12
-2.5303976100
22
-2.6861649011
32
0.0000000000
13
-1.9575417743
23
-3.1228080517
33
0.0000000000
40
0.0000000000
40
0.0000000000
40
0.0000000000
40
0.0000000000
40
0.2498436825
40
1.0000000000
40
1.0000000000
40
1.0000000000
40
1.0000000000
10
-1.8138291897
20
33.3032530103
30
0.0000000000
10
-2.0245638088
20
33.0795459001
30
0.0000000000
10
-2.8458381284
20
32.1630242319
30
0.0000000000
10
-3.5736807222
20
31.1672445925
30
0.0000000000
10
-4.0631681651
20
30.3863798631
30
0.0000000000
11
-1.8138291897
21
33.3032530103
31
0.0000000000
11
-2.4291120269
21
32.6166241722
31
0.0000000000
11
-4.0631681651
21
30.3863798631
31
0.0000000000
0
SPLINE
5
29E
100
AcDbEntity
8
0
100
AcDbSpline
62
0
6
CONTINUOUS
70
0
71
3
72
11
73
7
74
5
42
0.0000001000
43
0.0000001000
44
0.0000000001
12
4.0881221691
22
-8.7533167825
32
0.0000000000
13
8.3345311677
23
4.8153708971
33
0.0000000000
40
0.0000000000
40
0.0000000000
40
0.0000000000
40
0.0000000000
40
0.2753431327
40
0.5586964487
40
0.8137763855
40
1.0000000000
40
1.0000000000
40
1.0000000000
40
1.0000000000
10
-6.7405727598
20
15.4783940954
30
0.0000000000
10
-6.3653606381
20
14.6750055406
30
0.0000000000
10
-5.3132039953
20
13.1971694227
30
0.0000000000
10
-3.1513235203
20
11.6593175946
30
0.0000000000
10
-0.8256772952
20
11.1086829841
30
0.0000000000
10
0.6105572635
20
11.4969284657
30
0.0000000000
10
1.1279194365
20
11.7958403902
30
0.0000000000
11
-6.7405727598
21
15.4783940954
31
0.0000000000
11
-5.2233448052
21
13.3208606932
31
0.0000000000
11
-2.9937952565
21
11.7743761480
31
0.0000000000
11
-0.5980288903
21
11.2981083962
31
0.0000000000
11
1.1279194365
21
11.7958403902
31
0.0000000000
0
SPLINE
5
29F
100
AcDbEntity
8
0
100
AcDbSpline
62
9
6
CONTINUOUS
70
0
71
3
72
10
73
6
74
4
42
0.0000001000
43
0.0000001000
44
0.0000000001
12
-2.5180014019
22
-2.1806531808
32
0.0000000000
13
1.3870406131
23
-3.0284810867
33
0.0000000000
40
0.0000000000
40
0.0000000000
40
0.0000000000
40
0.0000000000
40
0.2794338852
40
0.6273061473
40
1.0000000000
40
1.0000000000
40
1.0000000000
40
1.0000000000
10
-19.0153388081
20
32.1688155159
30
0.0000000000
10
-19.2498771130
20
31.9656993857
30
0.0000000000
10
-19.5818091879
20
31.3008188394
30
0.0000000000
10
-19.6270635798
20
30.1771068446
30
0.0000000000
10
-19.4175130720
20
29.3876027638
30
0.0000000000
10
-19.2451992353
20
29.0113706692
30
0.0000000000
11
-19.0153388081
21
32.1688155159
31
0.0000000000
11
-19.4853647503
21
31.3654133606
31
0.0000000000
11
-19.5694995062
21
30.2097083346
31
0.0000000000
11
-19.2451992353
21
29.0113706692
31
0.0000000000
0
SPLINE
5
2A0
100
AcDbEntity
8
0
100
AcDbSpline
62
9
6
CONTINUOUS
70
0
71
3
72
10
73
6
74
4
42
0.0000001000
43
0.0000001000
44
0.0000000001
12
-2.5646478209
22
-2.2210501646
32
0.0000000000
13
-1.7932447504
23
-2.8800617258
33
0.0000000000
40
0.0000000000
40
0.0000000000
40
0.0000000000
40
0.0000000000
40
0.3039455463
40
0.6690984426
40
1.0000000000
40
1.0000000000
40
1.0000000000
40
1.0000000000
10
5.7604349975
20
25.0166656779
30
0.0000000000
10
5.5005972365
20
24.7916395760
30
0.0000000000
10
4.9735100836
20
24.2455604590
30
0.0000000000
10
4.2490151269
20
23.3772001483
30
0.0000000000
10
3.7880912517
20
22.7370034781
30
0.0000000000
10
3.5902954248
20
22.4193311746
30
0.0000000000
11
5.7604349975
21
25.0166656779
31
0.0000000000
11
5.0304612880
21
24.2883044622
31
0.0000000000
11
4.2361343978
21
23.3376132418
31
0.0000000000
11
3.5902954248
21
22.4193311746
31
0.0000000000
0
SPLINE
5
2A1
100
AcDbEntity
8
0
100
AcDbSpline
62
9
6
CONTINUOUS
70
0
71
3
72
10
73
6
74
4
42
0.0000001000
43
0.0000001000
44
0.0000000001
12
-2.5752125726
22
-2.2301995080
32
0.0000000000
13
-3.3970700370
23
-0.2557827270
33
0.0000000000
40
0.0000000000
40
0.0000000000
40
0.0000000000
40
0.0000000000
40
0.2983928348
40
0.6603572449
40
1.0000000000
40
1.0000000000
40
1.0000000000
40
1.0000000000
10
10.6753093100
20
17.9614453147
30
0.0000000000
10
10.4191676501
20
17.7396201302
30
0.0000000000
10
9.7588201381
20
17.3621724358
30
0.0000000000
10
8.6939460871
20
16.9657632011
30
0.0000000000
10
7.9067916170
20
16.8041131341
30
0.0000000000
10
7.5221948748
20
16.7751548841
30
0.0000000000
11
10.6753093100
21
17.9614453147
31
0.0000000000
11
9.8136415931
21
17.4221277760
31
0.0000000000
11
8.6595216077
21
16.9879153416
31
0.0000000000
11
7.5221948748
21
16.7751548841
31
0.0000000000
0
SPLINE
5
2A2
100
AcDbEntity
8
0
100
AcDbSpline
62
9
6
CONTINUOUS
70
0
71
3
72
10
73
6
74
4
42
0.0000001000
43
0.0000001000
44
0.0000000001
12
-2.5752125728
22
-2.2301995082
32
0.0000000000
13
-3.3970700372
23
-0.2557827270
33
0.0000000000
40
0.0000000000
40
0.0000000000
40
0.0000000000
40
0.0000000000
40
0.2983928022
40
0.6603572799
40
1.0000000000
40
1.0000000000
40
1.0000000000
40
1.0000000000
10
17.5054817197
20
-2.7760000916
30
0.0000000000
10
17.2493400878
20
-2.9978252518
30
0.0000000000
10
16.5889925486
20
-3.3752729758
30
0.0000000000
10
15.5241184938
20
-3.7716822092
30
0.0000000000
10
14.7369639870
20
-3.9333322751
30
0.0000000000
10
14.3523672845
20
-3.9622905222
30
0.0000000000
11
17.5054817197
21
-2.7760000916
31
0.0000000000
11
16.6438141035
21
-3.3153175817
31
0.0000000000
11
15.4896939020
21
-3.7495300972
31
0.0000000000
11
14.3523672845
21
-3.9622905222
31
0.0000000000
0
SPLINE
5
2A3
100
AcDbEntity
8
0
100
AcDbSpline
62
9
6
CONTINUOUS
70
0
71
3
72
10
73
6
74
4
42
0.0000001000
43
0.0000001000
44
0.0000000001
12
-2.5728740594
22
-2.2281742962
32
0.0000000000
13
-3.2700658595
23
0.9439867021
33
0.0000000000
40
0.0000000000
40
0.0000000000
40
0.0000000000
40
0.0000000000
40
0.2885625213
40
0.6442812607
40
1.0000000000
40
1.0000000000
40
1.0000000000
40
1.0000000000
10
18.1322143889
20
-6.5112998219
30
0.0000000000
10
17.8847360470
20
-6.7256223529
30
0.0000000000
10
17.1873485499
20
-7.0238810191
30
0.0000000000
10
16.0562775824
20
-7.1598155491
30
0.0000000000
10
15.2414946549
20
-7.0624615597
30
0.0000000000
10
14.8537534198
20
-6.9505303065
30
0.0000000000
11
18.1322143889
21
-6.5112998219
31
0.0000000000
11
17.2537534199
21
-6.9505303065
31
0.0000000000
11
16.0537534198
21
-7.1112998219
31
0.0000000000
11
14.8537534198
21
-6.9505303065
31
0.0000000000
0
SPLINE
5
2A4
100
AcDbEntity
8
0
100
AcDbSpline
62
9
6
CONTINUOUS
70
0
71
3
72
10
73
6
74
4
42
0.0000001000
43
0.0000001000
44
0.0000000001
12
1.1892892498
22
-3.6108635924
32
0.0000000000
13
-0.0000000002
23
-3.8016765779
33
0.0000000000
40
0.0000000000
40
0.0000000000
40
0.0000000000
40
0.0000000000
40
0.3431355049
40
0.6768137306
40
1.0000000000
40
1.0000000000
40
1.0000000000
40
1.0000000000
10
17.5054817197
20
-2.7760000916
30
0.0000000000
10
17.6415108421
20
-3.1890052589
30
0.0000000000
10
17.8709150945
20
-4.0171981254
30
0.0000000000
10
18.0829708581
20
-5.2686925106
30
0.0000000000
10
18.1322143889
20
-6.1017499317
30
0.0000000000
10
18.1322143889
20
-6.5112998219
30
0.0000000000
11
17.5054817197
21
-2.7760000916
31
0.0000000000
11
17.8520458977
21
-4.0336121081
31
0.0000000000
11
18.0619587399
21
-5.2846604466
31
0.0000000000
11
18.1322143889
21
-6.5112998219
31
0.0000000000
0
SPLINE
5
2A5
100
AcDbEntity
8
0
100
AcDbSpline
62
0
6
CONTINUOUS
70
0
71
3
72
8
73
4
74
2
42
0.0000001000
43
0.0000001000
44
0.0000000001
12
-0.3636547516
22
0.7389284067
32
0.0000000000
13
-0.1230423348
23
0.8203625772
33
0.0000000000
40
0.0000000000
40
0.0000000000
40
0.0000000000
40
0.0000000000
40
1.0000000000
40
1.0000000000
40
1.0000000000
40
1.0000000000
10
0.5260603225
20
14.0596320345
30
0.0000000000
10
0.4048420720
20
14.3059415034
30
0.0000000000
10
0.3165467479
20
14.5713598497
30
0.0000000000
10
0.2755326363
20
14.8448140421
30
0.0000000000
11
0.5260603225
21
14.0596320345
31
0.0000000000
11
0.2755326363
21
14.8448140421
31
0.0000000000
0
SPLINE
5
2A6
100
AcDbEntity
8
0
100
AcDbSpline
62
0
6
CONTINUOUS
70
0
71
3
72
15
73
11
74
9
42
0.0000001000
43
0.0000001000
44
0.0000000001
12
-5.0623982220
22
-1.9516507739
32
0.0000000000
13
5.2127196357
23
-1.5047825425
33
0.0000000000
40
0.0000000000
40
0.0000000000
40
0.0000000000
40
0.0000000000
40
0.1484207048
40
0.2859266767
40
0.4132315720
40
0.5281354336
40
0.6333306642
40
0.7431421565
40
0.8650109308
40
1.0000000000
40
1.0000000000
40
1.0000000000
40
1.0000000000
10
-16.4317710818
20
32.7865533881
30
0.0000000000
10
-16.6822259859
20
32.6899982603
30
0.0000000000
10
-17.1579448999
20
32.4861994350
30
0.0000000000
10
-17.8151304368
20
32.1245693146
30
0.0000000000
10
-18.3598770755
20
31.7056350267
30
0.0000000000
10
-18.7691886033
20
31.2033681401
30
0.0000000000
10
-18.8039059642
20
30.5490659729
30
0.0000000000
10
-18.3709168751
20
30.0664220621
30
0.0000000000
10
-17.7927565316
20
29.7425457458
30
0.0000000000
10
-17.3514935329
20
29.5879527753
30
0.0000000000
10
-17.1169401423
20
29.5202430437
30
0.0000000000
11
-16.4317710818
21
32.7865533881
31
0.0000000000
11
-17.1704478766
21
32.4659109738
31
0.0000000000
11
-17.8202340185
21
32.0993511204
31
0.0000000000
11
-18.3605104019
21
31.6690369720
31
0.0000000000
11
-18.7162641083
21
31.1570891536
31
0.0000000000
11
-18.7318513326
21
30.5865578874
31
0.0000000000
11
-18.3712431423
21
30.1122927040
31
0.0000000000
11
-17.8052836451
21
29.7704076480
31
0.0000000000
11
-17.1169401423
21
29.5202430437
31
0.0000000000
0
SPLINE
5
2A7
100
AcDbEntity
8
0
100
AcDbSpline
62
0
6
CONTINUOUS
70
0
71
3
72
15
73
11
74
9
42
0.0000001000
43
0.0000001000
44
0.0000000001
12
5.1308675441
22
-1.4811538789
32
0.0000000000
13
-2.8901484294
23
4.4907305224
33
0.0000000000
40
0.0000000000
40
0.0000000000
40
0.0000000000
40
0.0000000000
40
0.1387423545
40
0.2679353702
40
0.3889488999
40
0.5016624773
40
0.6137389917
40
0.7334327833
40
0.8616296964
40
1.0000000000
40
1.0000000000
40
1.0000000000
40
1.0000000000
10
1.4620363317
20
24.1569545094
30
0.0000000000
10
1.6993258797
20
24.0884549172
30
0.0000000000
10
2.1666725289
20
23.9813333530
30
0.0000000000
10
2.8597214608
20
23.9443763197
30
0.0000000000
10
3.5138263130
20
24.1016133884
30
0.0000000000
10
3.9380849663
20
24.6138458272
30
0.0000000000
10
3.9747054961
20
25.2497396949
30
0.0000000000
10
3.8251719907
20
25.8752459467
30
0.0000000000
10
3.5499327413
20
26.5085371541
30
0.0000000000
10
3.3101708431
20
26.9188991570
30
0.0000000000
10
3.1768672712
20
27.1260270723
30
0.0000000000
11
1.4620363317
21
24.1569545094
31
0.0000000000
11
2.1860302560
21
23.9994124169
31
0.0000000000
11
2.8756627686
21
23.9788392804
31
0.0000000000
11
3.4927298784
21
24.1708739150
31
0.0000000000
11
3.8755357551
21
24.6353982873
31
0.0000000000
11
3.9456206429
21
25.2298115903
31
0.0000000000
11
3.8115299235
21
25.8547987529
31
0.0000000000
11
3.5456611260
21
26.4856854192
31
0.0000000000
11
3.1768672712
21
27.1260270723
31
0.0000000000
0
SPLINE
5
2A8
100
AcDbEntity
8
0
100
AcDbSpline
62
9
6
CONTINUOUS
70
0
71
3
72
10
73
6
74
4
42
0.0000001000
43
0.0000001000
44
0.0000000001
12
-0.9191729594
22
-2.2378718612
32
0.0000000000
13
1.9556999127
23
-1.2763784909
33
0.0000000000
40
0.0000000000
40
0.0000000000
40
0.0000000000
40
0.0000000000
40
0.1363226456
40
0.5177134380
40
1.0000000000
40
1.0000000000
40
1.0000000000
40
1.0000000000
10
-31.0235535343
20
10.7838034412
30
0.0000000000
10
-31.0653215641
20
10.6821125703
30
0.0000000000
10
-31.1642739760
20
10.2717764455
30
0.0000000000
10
-30.8340292690
20
9.5000320208
30
0.0000000000
10
-30.3216736908
20
9.0484274556
30
0.0000000000
10
-30.0072710950
20
8.8432340576
30
0.0000000000
11
-31.0235535343
21
10.7838034412
31
0.0000000000
11
-31.0987178124
21
10.4667641667
31
0.0000000000
11
-30.8230587972
21
9.6198100876
31
0.0000000000
11
-30.0072710950
21
8.8432340576
31
0.0000000000
0
SPLINE
5
2A9
100
AcDbEntity
8
0
100
AcDbSpline
62
9
6
CONTINUOUS
70
0
71
3
72
10
73
6
74
4
42
0.0000001000
43
0.0000001000
44
0.0000000001
12
0.0000000000
22
2.7601674418
32
0.0000000000
13
1.0398557262
23
2.5567996354
33
0.0000000000
40
0.0000000000
40
0.0000000000
40
0.0000000000
40
0.0000000000
40
0.3442079076
40
0.6775866646
40
1.0000000000
40
1.0000000000
40
1.0000000000
40
1.0000000000
10
-30.5086572304
20
6.1444696935
30
0.0000000000
10
-30.5086572304
20
6.4611601801
30
0.0000000000
10
-30.4729931077
20
7.0853527259
30
0.0000000000
10
-30.3064895536
20
7.9925533755
30
0.0000000000
10
-30.1190255460
20
8.5684519581
30
0.0000000000
10
-30.0072710950
20
8.8432340576
30
0.0000000000
11
-30.5086572304
21
6.1444696935
31
0.0000000000
11
-30.4525125275
21
7.0928807600
31
0.0000000000
11
-30.2844358367
21
7.9975816221
31
0.0000000000
11
-30.0072710950
21
8.8432340576
31
0.0000000000
0
SPLINE
5
2AA
100
AcDbEntity
8
0
100
AcDbSpline
62
0
6
CONTINUOUS
70
0
71
3
72
13
73
9
74
7
42
0.0000001000
43
0.0000001000
44
0.0000000001
12
7.6748383150
22
6.6466049507
32
0.0000000000
13
0.3091144725
23
-10.1605860449
33
0.0000000000
40
0.0000000000
40
0.0000000000
40
0.0000000000
40
0.0000000000
40
0.1625669889
40
0.3621619785
40
0.5721248141
40
0.7617803538
40
0.9087617862
40
1.0000000000
40
1.0000000000
40
1.0000000000
40
1.0000000000
10
-17.6843738434
20
-30.6779236000
30
0.0000000000
10
-17.2684820583
20
-30.3177507489
30
0.0000000000
10
-16.1296773162
20
-29.7736423033
30
0.0000000000
10
-14.2152261544
20
-29.4290166404
30
0.0000000000
10
-12.1666126465
20
-29.4960119747
30
0.0000000000
10
-10.3743879981
20
-29.9845615802
30
0.0000000000
10
-9.0842003242
20
-30.7510085813
30
0.0000000000
10
-8.7418964891
20
-31.5723933237
30
0.0000000000
10
-8.7324954716
20
-31.8814045645
30
0.0000000000
11
-17.6843738434
21
-30.6779236000
31
0.0000000000
11
-16.2313881840
21
-29.8949505417
31
0.0000000000
11
-14.2428547829
21
-29.5047296171
31
0.0000000000
11
-12.1126270681
21
-29.5845488662
31
0.0000000000
11
-10.2626227640
21
-30.1185991076
31
0.0000000000
11
-9.0592579118
21
-31.0011051416
31
0.0000000000
11
-8.7324954716
21
-31.8814045645
31
0.0000000000
0
SPLINE
5
2AB
100
AcDbEntity
8
0
100
AcDbSpline
62
9
6
CONTINUOUS
70
0
71
3
72
10
73
6
74
4
42
0.0000001000
43
0.0000001000
44
0.0000000001
12
2.0218365711
22
4.9712963808
32
0.0000000000
13
5.2195848093
23
1.2480165242
33
0.0000000000
40
0.0000000000
40
0.0000000000
40
0.0000000000
40
0.0000000000
40
0.3357454478
40
0.6644878666
40
1.0000000000
40
1.0000000000
40
1.0000000000
40
1.0000000000
10
-23.1770986853
20
25.6372775845
30
0.0000000000
10
-22.9508245437
20
26.1936409609
30
0.0000000000
10
-22.3357931769
20
27.2381973563
30
0.0000000000
10
-20.9541852900
20
28.4227629027
30
0.0000000000
10
-19.8289439135
20
28.8717957737
30
0.0000000000
10
-19.2451992353
20
29.0113706692
30
0.0000000000
11
-23.1770986853
21
25.6372775845
31
0.0000000000
11
-22.2519485612
21
27.1834855240
31
0.0000000000
11
-20.9127148538
21
28.3320013519
31
0.0000000000
11
-19.2451992353
21
29.0113706692
31
0.0000000000
0
SPLINE
5
2AC
100
AcDbEntity
8
0
100
AcDbSpline
62
0
6
CONTINUOUS
70
0
71
3
72
10
73
6
74
4
42
0.0000001000
43
0.0000001000
44
0.0000000001
12
-13.8836360254
22
-12.0374873273
32
0.0000000000
13
0.0000000000
23
-18.3754306192
33
0.0000000000
40
0.0000000000
40
0.0000000000
40
0.0000000000
40
0.0000000000
40
0.3174526446
40
0.6478308347
40
1.0000000000
40
1.0000000000
40
1.0000000000
40
1.0000000000
10
-11.7245662223
20
24.8459073229
30
0.0000000000
10
-13.1936985464
20
23.5721299276
30
0.0000000000
10
-15.7861387013
20
20.4647660301
30
0.0000000000
10
-18.1274561828
20
14.7180986841
30
0.0000000000
10
-18.6094681824
20
10.5115228543
30
0.0000000000
10
-18.6094681824
20
8.3544361665
30
0.0000000000
11
-11.7245662223
21
24.8459073229
31
0.0000000000
11
-15.4761223907
21
20.3789672001
31
0.0000000000
11
-17.8149556394
21
14.7767376719
31
0.0000000000
11
-18.6094681824
21
8.3544361665
31
0.0000000000
0
SPLINE
5
2AD
100
AcDbEntity
8
0
100
AcDbSpline
62
0
6
CONTINUOUS
70
0
71
3
72
13
73
9
74
7
42
0.0000001000
43
0.0000001000
44
0.0000000001
12
0.0000000000
22
-12.6661752329
32
0.0000000000
13
10.1643239832
23
7.5576790747
33
0.0000000000
40
0.0000000000
40
0.0000000000
40
0.0000000000
40
0.0000000000
40
0.1675451207
40
0.3480598082
40
0.5306378439
40
0.7034801122
40
0.8592286486
40
1.0000000000
40
1.0000000000
40
1.0000000000
40
1.0000000000
10
-18.6094681824
20
8.3544361665
30
0.0000000000
10
-18.6094681824
20
7.6470508803
30
0.0000000000
10
-18.3045521766
20
6.1717929810
30
0.0000000000
10
-17.1735950239
20
4.2027044423
30
0.0000000000
10
-15.5130460834
20
2.6175979243
30
0.0000000000
10
-13.5449044367
20
1.6437814076
30
0.0000000000
10
-11.5212588892
20
1.4319844272
30
0.0000000000
10
-10.2921596566
20
1.8998324880
30
0.0000000000
10
-9.8152111157
20
2.2544673868
30
0.0000000000
11
-18.6094681824
21
8.3544361665
31
0.0000000000
11
-18.2146752066
21
6.2693260987
31
0.0000000000
11
-17.0912009665
21
4.2779519974
31
0.0000000000
11
-15.4123637614
21
2.6875230182
31
0.0000000000
11
-13.4371577001
21
1.7433945384
31
0.0000000000
11
-11.4702976957
21
1.5912171984
31
0.0000000000
11
-9.8152111157
21
2.2544673868
31
0.0000000000
0
SPLINE
5
2AE
100
AcDbEntity
8
0
100
AcDbSpline
62
0
6
CONTINUOUS
70
0
71
3
72
12
73
8
74
6
42
0.0000001000
43
0.0000001000
44
0.0000000001
12
5.2050693738
22
-6.8753754769
32
0.0000000000
13
6.5610555430
23
5.7125098772
33
0.0000000000
40
0.0000000000
40
0.0000000000
40
0.0000000000
40
0.0000000000
40
0.2684709151
40
0.5234736818
40
0.7536526647
40
0.9612339506
40
1.0000000000
40
1.0000000000
40
1.0000000000
40
1.0000000000
10
-5.8396926949
20
1.1068340716
30
0.0000000000
10
-5.3738894490
20
0.4915546230
30
0.0000000000
10
-4.2831961564
20
-0.5821966136
30
0.0000000000
10
-2.3268671409
20
-1.5925471538
30
0.0000000000
10
-0.2976298179
20
-1.8469557402
30
0.0000000000
10
1.0544919720
20
-1.3777169598
30
0.0000000000
10
1.6165964328
20
-0.9365452474
30
0.0000000000
10
1.7013785007
20
-0.8627281007
30
0.0000000000
11
-5.8396926949
21
1.1068340716
31
0.0000000000
11
-4.1846061149
21
-0.5119807993
31
0.0000000000
11
-2.2177461105
21
-1.4953706123
31
0.0000000000
11
-0.2425400491
21
-1.6916278838
31
0.0000000000
11
1.4362971559
21
-1.0704760168
31
0.0000000000
11
1.7013785007
21
-0.8627281007
31
0.0000000000
0
SPLINE
5
2AF
100
AcDbEntity
8
0
100
AcDbSpline
62
9
6
CONTINUOUS
70
0
71
3
72
9
73
5
74
3
42
0.0000001000
43
0.0000001000
44
0.0000000001
12
-0.0067852947
22
-1.6316377337
32
0.0000000000
13
1.5976384443
23
-0.4611984929
33
0.0000000000
40
0.0000000000
40
0.0000000000
40
0.0000000000
40
0.0000000000
40
0.4093667574
40
1.0000000000
40
1.0000000000
40
1.0000000000
40
1.0000000000
10
-31.7086572306
20
7.1837001781
30
0.0000000000
10
-31.7095831220
20
6.9610540953
30
0.0000000000
10
-31.3499187723
20
6.4322258119
30
0.0000000000
10
-30.8231966887
20
6.2352694140
30
0.0000000000
10
-30.5086572304
20
6.1444696935
30
0.0000000000
11
-31.7086572306
21
7.1837001781
31
0.0000000000
11
-31.3871181390
21
6.5837001257
31
0.0000000000
11
-30.5086572304
21
6.1444696935
31
0.0000000000
0
SPLINE
5
2B0
100
AcDbEntity
8
0
100
AcDbSpline
62
9
6
CONTINUOUS
70
0
71
3
72
10
73
6
74
4
42
0.0000001000
43
0.0000001000
44
0.0000000001
12
5.3908835299
22
-4.4014025582
32
0.0000000000
13
2.1771450226
23
-6.6101444208
33
0.0000000000
40
0.0000000000
40
0.0000000000
40
0.0000000000
40
0.0000000000
40
0.3369331304
40
0.6734934120
40
1.0000000000
40
1.0000000000
40
1.0000000000
40
1.0000000000
10
3.5902954248
20
22.4193311746
30
0.0000000000
10
4.1957511792
20
21.9250050606
30
0.0000000000
10
5.3152877851
20
20.8199517347
30
0.0000000000
10
6.6503309139
20
18.9085881548
30
0.0000000000
10
7.2852441438
20
17.4945734510
30
0.0000000000
10
7.5221948748
20
16.7751548841
30
0.0000000000
11
3.5902954248
21
22.4193311746
31
0.0000000000
11
5.2607480794
21
20.7737301516
31
0.0000000000
11
6.5992635835
21
18.8515884470
31
0.0000000000
11
7.5221948748
21
16.7751548841
31
0.0000000000
0
SPLINE
5
2B1
100
AcDbEntity
8
0
100
AcDbSpline
62
9
6
CONTINUOUS
70
0
71
3
72
10
73
6
74
4
42
0.0000001000
43
0.0000001000
44
0.0000000001
12
0.9514317523
22
-2.8886919448
32
0.0000000000
13
0.0000000000
23
-3.0413423897
33
0.0000000000
40
0.0000000000
40
0.0000000000
40
0.0000000000
40
0.0000000000
40
0.3429935513
40
0.6769721874
40
1.0000000000
40
1.0000000000
40
1.0000000000
40
1.0000000000
10
14.3523672845
20
-3.9622905222
30
0.0000000000
10
14.4611456030
20
-4.2925580918
30
0.0000000000
10
14.6447301970
20
-4.9552606237
30
0.0000000000
10
14.8143777321
20
-5.9564612489
30
0.0000000000
10
14.8537534198
20
-6.6230509133
30
0.0000000000
10
14.8537534198
20
-6.9505303065
30
0.0000000000
11
14.3523672845
21
-3.9622905222
31
0.0000000000
11
14.6295297001
21
-4.9679572195
31
0.0000000000
11
14.7976088087
21
-5.9696977218
31
0.0000000000
11
14.8537534198
21
-6.9505303065
31
0.0000000000
0
ENDSEC
0
SECTION
2
OBJECTS
0
DICTIONARY
5
C
100
AcDbDictionary
280
0
281
1
3
ACAD_GROUP
350
D
3
ACAD_MLINESTYLE
350
17
3
ACAD_LAYOUT
350
1A
3
ACAD_PLOTSETTINGS
350
19
3
ACAD_PLOTSTYLENAME
350
E
0
DICTIONARY
5
D
102
{ACAD_REACTORS
330
C
102
}
100
AcDbDictionary
280
0
281
1
0
ACDBDICTIONARYWDFLT
5
E
102
{ACAD_REACTORS
330
C
102
}
100
AcDbDictionary
281
1
3
Normal
350
F
100
AcDbDictionaryWithDefault
340
F
0
DICTIONARY
5
17
102
{ACAD_REACTORS
330
C
102
}
100
AcDbDictionary
280
0
281
1
3
Standard
350
18
0
DICTIONARY
5
19
102
{ACAD_REACTORS
330
C
102
}
100
AcDbDictionary
281
1
0
DICTIONARY
5
1A
102
{ACAD_REACTORS
330
C
102
}
100
AcDbDictionary
281
1
3
Layout1
350
1E
3
Model
350
22
0
ACDBPLACEHOLDER
5
F
102
{ACAD_REACTORS
330
E
102
}
0
MLINESTYLE
5
18
102
{ACAD_REACTORS
330
17
102
}
100
AcDbMlineStyle
2
STANDARD
70
0
3

62
256
51
90.0
52
90.0
71
2
49
0.5
62
256
6
BYLAYER
49
-0.5
62
256
6
BYLAYER
0
LAYOUT
5
1E
102
{ACAD_REACTORS
330
1A
102
}
100
AcDbPlotSettings
1

2

4

6

40
0.0
41
0.0
42
0.0
43
0.0
44
0.0
45
0.0
46
0.0
47
0.0
48
0.0
49
0.0
140
0.0
141
0.0
142
1.0
143
1.0
70
0
72
0
73
0
74
0
7

75
0
147
1.0
148
0.0
149
0.0
100
AcDbLayout
1
Layout1
70
0
71
0
10
0.0
20
0.0
11
0.0
21
0.0
12
0.0
22
0.0
32
0.0
14
0.0
24
0.0
34
0.0
15
0.0
25
0.0
35
0.0
146
0.0
13
0.0
23
0.0
33
0.0
16
0.0
26
0.0
36
0.0
17
0.0
27
0.0
37
0.0
76
0
330
1B
331
0
345
0
346
0
0
LAYOUT
5
22
102
{ACAD_REACTORS
330
1A
102
}
100
AcDbPlotSettings
1

2

4

6

40
0.0
41
0.0
42
0.0
43
0.0
44
0.0
45
0.0
46
0.0
47
0.0
48
0.0
49
0.0
140
0.0
141
0.0
142
1.0
143
1.0
70
0
72
0
73
0
74
0
7

75
0
147
1.0
148
0.0
149
0.0
100
AcDbLayout
1
Model
70
0
71
0
10
0.0
20
0.0
11
0.0
21
0.0
12
0.0
22
0.0
32
0.0
14
0.0
24
0.0
34
0.0
15
0.0
25
0.0
35
0.0
146
0.0
13
0.0
23
0.0
33
0.0
16
0.0
26
0.0
36
0.0
17
0.0
27
0.0
37
0.0
76
0
330
1F
331
0
345
0
346
0
0
ENDSEC
0
EOF
