  0
SECTION
  2
HEADER
  9
$ACADVER
  1
AC1015
  9
$DWGCODEPAGE
  3
ANSI_1252
  9
$EXTMAX
 10
297.0
 20
210.0
 30
0.0
  9
$EXTMIN
 10
0.0
 20
0.0
 30
0.0
  9
$LIMMIN
 10
0.0
 20
0.0
  9
$LIMMAX
 10
297.0
 20
210.0
  9
$VIEWCTR
 10
148.5
 20
105.0
  9
$VIEWSIZE
 40
210.0
  9
$CLAYER
  8
0
  9
$LTSCALE
 40
16.335
  9
$CELTYPE
  6
BYLAYER
  9
$DIMSCALE
 40
1.0
  9
$DIMASZ
 40
3.0
  9
$DIMEXO
 40
0.5
  9
$DIMDLI
 40
11.286
  9
$DIMEXE
 40
1.5
  9
$DIMCEN
 40
2.673
  9
$DIMLFAC
 40
1.0
  9
$DIMBLK
  1
_FILLED
  9
$DIMTXT
 40
3.0
  9
$DIMTOL
 70
1
  9
$DIMLIM
 70
0
  9
$DIMTFAC
 40
1.0
  9
$DIMTP
 40
0.01
  9
$DIMTM
 40
0.01
  9
$DIMGAP
 40
0.625
  9
$DIMDSEP
 70
44
  9
$PDMODE
 70
3
  9
$PDSIZE
 40
3.0
  9
$HANDSEED
  5
28A
  9
$TILEMODE
 70
1
  9
$MEASUREMENT
 70
1
  9
$INSUNITS
 70
4
  0
ENDSEC
  0
SECTION
  2
CLASSES
  0
CLASS
  1
ACDBDICTIONARYWDFLT
  2
AcDbDictionaryWithDefault
  3
AutoCAD 2000
 90
0
280
0
281
0
  0
CLASS
  1
ACDBPLACEHOLDER
  2
AcDbPlaceHolder
  3
AutoCAD 2000
 90
0
280
0
281
0
  0
CLASS
  1
LAYOUT
  2
AcDbLayout
  3
AutoCAD 2000
 90
0
280
0
281
0
  0
ENDSEC
  0
SECTION
  2
TABLES
  0
TABLE
  2
VPORT
  5
8
100
AcDbSymbolTable
 70
2
  0
VPORT
  5
1F4
100
AcDbSymbolTableRecord
100
AcDbViewportTableRecord
  2
*ACTIVE
 70
0
 10
0.0
 20
0.0
 11
1.0
 21
1.0
 12
148.5
 22
105.0
 13
0.0
 23
0.0
 14
1.0
 24
1.0
 15
0.0
 25
0.0
 16
0.0
 26
0.0
 36
1.0
 17
0.0
 27
0.0
 37
0.0
 40
210.0
 41
1.4142857143
 42
50.0
 43
0.0
 44
0.0
 50
0.0
 51
0.0
 71
0
 72
100
 73
1
 74
1
 75
0
 76
0
 77
0
 78
0
  0
ENDTAB
  0
TABLE
  2
LTYPE
  5
5
100
AcDbSymbolTable
 70
6
  0
LTYPE
  5
14
100
AcDbSymbolTableRecord
100
AcDbLinetypeTableRecord
  2
BYBLOCK
 70
0
  3

 72
65
 73
0
 40
0.0
  0
LTYPE
  5
15
100
AcDbSymbolTableRecord
100
AcDbLinetypeTableRecord
  2
BYLAYER
 70
0
  3

 72
65
 73
0
 40
0.0
  0
LTYPE
  5
16
100
AcDbSymbolTableRecord
100
AcDbLinetypeTableRecord
  2
CONTINUOUS
 70
64
  3
Solid line
 72
65
 73
0
 40
0.0
  0
LTYPE
  5
1F5
100
AcDbSymbolTableRecord
100
AcDbLinetypeTableRecord
  2
CENTER
 70
64
  3
____ _ ____ _ ____ _ ____ _ ____ _ ____ _ ____
 72
65
 73
4
 40
0.6
 49
0.375
 74
0
 49
-0.075
 74
0
 49
0.075
 74
0
 49
-0.075
 74
0
  0
LTYPE
  5
1F6
100
AcDbSymbolTableRecord
100
AcDbLinetypeTableRecord
  2
HIDDEN
 70
64
  3
- - - - - - - - - - - - - - - - - - - -
 72
65
 73
2
 40
0.2
 49
0.1
 74
0
 49
-0.1
 74
0
  0
LTYPE
  5
1F7
100
AcDbSymbolTableRecord
100
AcDbLinetypeTableRecord
  2
PHANTOM
 70
64
  3
_____ _ _ _____ _ _ _____ _ _ _____
 72
65
 73
6
 40
0.8
 49
0.45
 74
0
 49
-0.05
 74
0
 49
0.1
 74
0
 49
-0.05
 74
0
 49
0.1
 74
0
 49
-0.05
 74
0
  0
LTYPE
  5
1F8
100
AcDbSymbolTableRecord
100
AcDbLinetypeTableRecord
  2
DOT
 70
64
  3
. . . . . . . . . . . . . . . . . . . .
 72
65
 73
2
 40
0.2
 49
0.1
 74
0
 49
-0.1
 74
0
  0
LTYPE
  5
1F9
100
AcDbSymbolTableRecord
100
AcDbLinetypeTableRecord
  2
DASHED
 70
64
  3
- - - - - - - - - - - - - - - - - - - -
 72
65
 73
2
 40
0.2
 49
0.1
 74
0
 49
-0.1
 74
0
  0
ENDTAB
  0
TABLE
  2
LAYER
  5
2
100
AcDbSymbolTable
 70
36
  0
LAYER
  5
10
100
AcDbSymbolTableRecord
100
AcDbLayerTableRecord
  2
0
 70
0
 62
7
  6
CONTINUOUS
370
-3
390
F
  0
LAYER
  5
1FA
100
AcDbSymbolTableRecord
100
AcDbLayerTableRecord
  2
DEFAULT_1
 70
0
 62
7
  6
CENTER
370
-3
390
F
  0
LAYER
  5
1FB
100
AcDbSymbolTableRecord
100
AcDbLayerTableRecord
  2
DEFAULT_2
 70
0
 62
7
  6
HIDDEN
370
-3
390
F
  0
LAYER
  5
1FC
100
AcDbSymbolTableRecord
100
AcDbLayerTableRecord
  2
DEFAULT_3
 70
0
 62
7
  6
PHANTOM
370
-3
390
F
  0
LAYER
  5
1FD
100
AcDbSymbolTableRecord
100
AcDbLayerTableRecord
  2
ASSI
 70
0
 62
7
  6
CONTINUOUS
370
-3
390
F
  0
LAYER
  5
1FE
100
AcDbSymbolTableRecord
100
AcDbLayerTableRecord
  2
COORDINATE
 70
0
 62
7
  6
CONTINUOUS
370
-3
390
F
  0
LAYER
  5
1FF
100
AcDbSymbolTableRecord
100
AcDbLayerTableRecord
  2
COPY_PUBLISH
 70
0
 62
7
  6
CONTINUOUS
370
-3
390
F
  0
LAYER
  5
200
100
AcDbSymbolTableRecord
100
AcDbLayerTableRecord
  2
COSMETICI
 70
0
 62
7
  6
CONTINUOUS
370
-3
390
F
  0
LAYER
  5
201
100
AcDbSymbolTableRecord
100
AcDbLayerTableRecord
  2
CURVE
 70
0
 62
7
  6
CONTINUOUS
370
-3
390
F
  0
LAYER
  5
202
100
AcDbSymbolTableRecord
100
AcDbLayerTableRecord
  2
DRAFT
 70
0
 62
7
  6
CONTINUOUS
370
-3
390
F
  0
LAYER
  5
203
100
AcDbSymbolTableRecord
100
AcDbLayerTableRecord
  2
IMPORT_IGES
 70
0
 62
7
  6
CONTINUOUS
370
-3
390
F
  0
LAYER
  5
204
100
AcDbSymbolTableRecord
100
AcDbLayerTableRecord
  2
NOTE
 70
0
 62
7
  6
CONTINUOUS
370
-3
390
F
  0
LAYER
  5
205
100
AcDbSymbolTableRecord
100
AcDbLayerTableRecord
  2
PIANI
 70
0
 62
7
  6
CONTINUOUS
370
-3
390
F
  0
LAYER
  5
206
100
AcDbSymbolTableRecord
100
AcDbLayerTableRecord
  2
PUNTI
 70
0
 62
7
  6
CONTINUOUS
370
-3
390
F
  0
LAYER
  5
207
100
AcDbSymbolTableRecord
100
AcDbLayerTableRecord
  2
RACCORDO
 70
0
 62
7
  6
CONTINUOUS
370
-3
390
F
  0
LAYER
  5
208
100
AcDbSymbolTableRecord
100
AcDbLayerTableRecord
  2
SIMBOLI
 70
0
 62
7
  6
CONTINUOUS
370
-3
390
F
  0
LAYER
  5
209
100
AcDbSymbolTableRecord
100
AcDbLayerTableRecord
  2
SMUSSO
 70
0
 62
7
  6
CONTINUOUS
370
-3
390
F
  0
LAYER
  5
20A
100
AcDbSymbolTableRecord
100
AcDbLayerTableRecord
  2
SNAPLINE
 70
0
 62
7
  6
CONTINUOUS
370
-3
390
F
  0
LAYER
  5
20B
100
AcDbSymbolTableRecord
100
AcDbLayerTableRecord
  2
SUPERFICI
 70
0
 62
7
  6
CONTINUOUS
370
-3
390
F
  0
LAYER
  5
20C
100
AcDbSymbolTableRecord
100
AcDbLayerTableRecord
  2
TRASH
 70
0
 62
7
  6
CONTINUOUS
370
-3
390
F
  0
ENDTAB
  0
TABLE
  2
STYLE
  5
3
100
AcDbSymbolTable
 70
1
  0
STYLE
  5
11
100
AcDbSymbolTableRecord
100
AcDbTextStyleTableRecord
  2
STANDARD
 70
0
 40
0.0
 41
0.8
 50
0.0
 71
0
 42
0.2
  3
txt
  4

  0
STYLE
  5
20D
100
AcDbSymbolTableRecord
100
AcDbTextStyleTableRecord
  2
TEXTSTYLE_1
 70
0
 40
0.0
 41
0.8
 50
0.0
 71
0
 42
0.2
  3
gdt
  4

  0
ENDTAB
  0
TABLE
  2
VIEW
  5
6
100
AcDbSymbolTable
 70
0
  0
ENDTAB
  0
TABLE
  2
UCS
  5
7
100
AcDbSymbolTable
 70
0
  0
ENDTAB
  0
TABLE
  2
APPID
  5
9
100
AcDbSymbolTable
 70
1
  0
APPID
  5
20E
100
AcDbSymbolTableRecord
100
AcDbRegAppTableRecord
  2
ACAD
 70
0
  0
ENDTAB
  0
TABLE
  2
BLOCK_RECORD
  5
1
100
AcDbSymbolTable
 70
0
  0
BLOCK_RECORD
  5
20F
100
AcDbSymbolTableRecord
100
AcDbBlockTableRecord
  2
*Model_Space
  0
BLOCK_RECORD
  5
210
100
AcDbSymbolTableRecord
100
AcDbBlockTableRecord
  2
*Paper_Space
  0
ENDTAB
  0
TABLE
  2
DIMSTYLE
  5
A
100
AcDbSymbolTable
 70
1
100
AcDbDimStyleTable
 71
0
  0
DIMSTYLE
105
211
100
AcDbSymbolTableRecord
100
AcDbDimStyleTableRecord
  2
STANDARD
 70
0
  3

  4

 40
1.0
 41
3.0
 42
0.5
 43
0.38
 44
1.5
 45
0.0
 46
0.0
 47
0.01
 48
0.01
140
3.0
141
0.09
142
0.0
143
25.4
144
1.0
145
0.0
146
1.0
147
0.625
 71
1.0
 72
0.0
 73
0
 74
0
 75
0
 76
0
 77
1
 78
8
170
0
171
2
172
0
173
0
174
0
175
0
176
0
177
0
178
0
270
2
271
2
272
2
273
2
274
2
275
0
280
0
281
0
282
0
283
1
284
8
285
0
286
0
287
3
288
0
340
11
278
44
  0
ENDTAB
  0
ENDSEC
  0
SECTION
  2
BLOCKS
  0
BLOCK
  5
20
100
AcDbEntity
  8
0
100
AcDbBlockBegin
  2
*Model_Space
 70
0
 10
0.0
 20
0.0
 30
0.0
  3
*Model_Space
  1

  0
ENDBLK
  5
21
100
AcDbEntity
  8
0
100
AcDbBlockEnd
  0
BLOCK
  5
1C
100
AcDbEntity
  8
0
100
AcDbBlockBegin
  2
*Paper_Space
 70
0
 10
0.0
 20
0.0
 30
0.0
  3
*Paper_Space
  1

  0
ENDBLK
  5
1D
100
AcDbEntity
  8
0
100
AcDbBlockEnd
  0
ENDSEC
  0
SECTION
  2
ENTITIES
  0
LWPOLYLINE
  5
212
100
AcDbEntity
  8
RACCORDO
100
AcDbPolyline
 62
7
  6
CONTINUOUS
 90
13
 70
0
 10
146.804274068
 20
143.4692367533
 10
146.7254022507
 20
143.417464088
 10
146.6518078423
 20
143.3564120889
 10
146.5844895782
 20
143.2868941431
 10
146.5235278549
 20
143.2088018033
 10
146.468842276
 20
143.1222435167
 10
146.4211303752
 20
143.0283233646
 10
146.3804814839
 20
142.9269470427
 10
146.3468062707
 20
142.8182088551
 10
146.3205342746
 20
142.7034957955
 10
146.3018086754
 20
142.5832701948
 10
146.2904862933
 20
142.457069722
 10
146.2865671283
 20
142.324894377
  0
LINE
  5
213
100
AcDbEntity
  8
RACCORDO
100
AcDbLine
 62
7
  6
CONTINUOUS
 10
146.8042736809
 20
143.4692365298
 11
149.2791474151
 21
144.8981976065
  0
LINE
  5
214
100
AcDbEntity
  8
RACCORDO
100
AcDbLine
 62
253
  6
CONTINUOUS
 10
148.0543340813
 20
143.3453835856
 11
150.5292078154
 21
144.7743446623
  0
LWPOLYLINE
  5
215
100
AcDbEntity
  8
RACCORDO
100
AcDbPolyline
 62
7
  6
CONTINUOUS
 90
13
 70
0
 10
149.2791478022
 20
144.8981978299
 10
149.3635454395
 20
144.9406766814
 10
149.4532204856
 20
144.973876199
 10
149.5470891174
 20
144.9974075589
 10
149.6452050539
 20
145.0111469139
 10
149.7475145761
 20
145.0152181112
 10
149.8527126902
 20
145.0095692212
 10
149.9608363988
 20
144.9940757315
 10
150.0718486993
 20
144.9688621546
 10
150.1843335913
 20
144.9342500984
 10
150.2978190746
 20
144.8903467656
 10
150.4127771493
 20
144.8370449536
 10
150.5292078154
 20
144.7743446623
  0
LWPOLYLINE
  5
216
100
AcDbEntity
  8
ASSI
100
AcDbPolyline
 62
7
  6
CONTINUOUS
 90
4
 70
0
 10
124.2477323635
 20
113.2980938934
 10
124.2497879994
 20
113.163592753
 10
124.2775084877
 20
112.7864609913
 10
124.3375346471
 20
112.410584071
  0
LINE
  5
217
100
AcDbEntity
  8
0
100
AcDbLine
 62
7
  6
CONTINUOUS
 10
124.1977323635
 20
80.4759886247
 11
124.1977323635
 21
112.3183294196
  0
LINE
  5
218
100
AcDbEntity
  8
ASSI
100
AcDbLine
 62
7
  6
CONTINUOUS
 10
124.2477323635
 20
113.2980937517
 11
124.2477323635
 21
112.3183294196
  0
LWPOLYLINE
  5
219
100
AcDbEntity
  8
0
100
AcDbPolyline
 62
7
  6
CONTINUOUS
 90
4
 70
0
 10
124.1978625925
 20
112.3177881293
 10
124.1991628871
 20
112.4233107315
 10
124.2293987889
 20
112.8454021626
 10
124.2477323635
 20
112.9550656442
  0
LWPOLYLINE
  5
21A
100
AcDbEntity
  8
ASSI
100
AcDbPolyline
 62
7
  6
CONTINUOUS
 90
61
 70
0
 10
128.4678542086
 20
125.0428851421
 10
128.3622527985
 20
124.7675924177
 10
128.2816521247
 20
124.4886976129
 10
128.2267231639
 20
124.2085235997
 10
128.1976803079
 20
123.9270597105
 10
128.1943091649
 20
123.6443166129
 10
128.2166375379
 20
123.3626491815
 10
128.2648800449
 20
123.0820664119
 10
128.3388220679
 20
122.8025593086
 10
128.4378475549
 20
122.5264557593
 10
128.562165976
 20
122.253784197
 10
128.7115678613
 20
121.9845161886
 10
128.8848087493
 20
121.7208943236
 10
129.0820877156
 20
121.4629657594
 10
129.3032056847
 20
121.2106833385
 10
129.546320968
 20
120.9661481771
 10
129.8116172616
 20
120.7294249761
 10
130.0989108695
 20
120.5004490346
 10
130.4058090152
 20
120.2811273659
 10
130.7324754147
 20
120.0715405938
 10
131.078746352
 20
119.8716080944
 10
131.4417379029
 20
119.6829950094
 10
131.821589703
 20
119.5057958664
 10
132.2181621167
 20
119.3399161379
 10
132.628152313
 20
119.1867373829
 10
133.05167235
 20
119.0463656652
 10
133.4886101696
 20
118.9186949212
 10
133.9353267662
 20
118.8047885185
 10
134.3919038138
 20
118.704761401
 10
134.8582596384
 20
118.6184986249
 10
135.3305102118
 20
118.5467187266
 10
135.8087047779
 20
118.4895426514
 10
136.2927940928
 20
118.4468494541
 10
136.7787463961
 20
118.4189948352
 10
137.2665772679
 20
118.4061027125
 10
137.7562711281
 20
118.4080491681
 10
138.2437494772
 20
118.4248181493
 10
138.7289938394
 20
118.4565334428
 10
139.2120226904
 20
118.5030712617
 10
139.688812957
 20
118.5640441924
 10
140.1593125698
 20
118.6395727905
 10
140.6235735981
 20
118.7295365004
 10
141.077729177
 20
118.8331862412
 10
141.521694946
 20
118.9506363179
 10
141.9555552655
 20
119.0817724255
 10
142.3756963525
 20
119.2255025684
 10
142.7820036664
 20
119.3819319375
 10
143.1745917478
 20
119.5509553419
 10
143.5501904348
 20
119.7311652131
 10
143.9086578743
 20
119.9226549928
 10
144.2501359196
 20
120.1253312392
 10
144.5717799683
 20
120.3375060583
 10
144.8734244059
 20
120.5592588017
 10
145.1552348469
 20
120.7905101177
 10
145.4148635332
 20
121.0293340578
 10
145.6521252352
 20
121.2757938947
 10
145.8672051823
 20
121.5298263558
 10
146.0583113046
 20
121.7893156743
 10
146.2248462454
 20
122.0535565948
 10
146.3674073614
 20
122.3232543729
 10
146.4859946525
 20
122.5984090084
  0
LWPOLYLINE
  5
21B
100
AcDbEntity
  8
RACCORDO
100
AcDbPolyline
 62
7
  6
CONTINUOUS
 90
9
 70
0
 10
147.7007806907
 20
136.0379785538
 10
147.7157466594
 20
136.0490372688
 10
147.7283421289
 20
136.0619966333
 10
147.7386348335
 20
136.0766438489
 10
147.7467093592
 20
136.0929160007
 10
147.7527496473
 20
136.1105142596
 10
147.7569552647
 20
136.1289197777
 10
147.7594453613
 20
136.1479700725
 10
147.7603085191
 20
136.1646350602
  0
LWPOLYLINE
  5
21C
100
AcDbEntity
  8
RACCORDO
100
AcDbPolyline
 62
7
  6
CONTINUOUS
 90
3
 70
0
 10
148.9366166138
 20
135.6113794144
 10
148.9597919455
 20
135.6254488815
 10
148.9702195077
 20
135.6316243834
  0
LWPOLYLINE
  5
21D
100
AcDbEntity
  8
0
100
AcDbPolyline
 62
7
  6
CONTINUOUS
 90
31
 70
0
 10
152.3828471864
 20
138.2979791844
 10
152.363428725
 20
138.2862800754
 10
152.2894789539
 20
138.2325956465
 10
152.222856869
 20
138.1688400892
 10
152.1637044233
 20
138.0948183046
 10
152.1118796639
 20
138.0107253918
 10
152.068380105
 20
137.9181799568
 10
152.0333670235
 20
137.8170182565
 10
152.0066791424
 20
137.7074040342
 10
151.9888301458
 20
137.5914471258
 10
151.9799912614
 20
137.4690246601
 10
151.9799912614
 20
137.3402595085
 10
151.9888301458
 20
137.2076301207
 10
152.0066791424
 20
137.0710616384
 10
152.0333670235
 20
136.93062892
 10
152.068380105
 20
136.7890349907
 10
152.1118796639
 20
136.6462573556
 10
152.1637044233
 20
136.5023185096
 10
152.222856869
 20
136.3599889633
 10
152.2894789539
 20
136.2192998925
 10
152.363428725
 20
136.0802201214
 10
152.4432828098
 20
135.9454266341
 10
152.5291555872
 20
135.8150024649
 10
152.6209326782
 20
135.6888645796
 10
152.7168475728
 20
135.5694408587
 10
152.8169804291
 20
135.4568613699
 10
152.921251089
 20
135.3509960456
 10
153.0276525685
 20
135.2538825637
 10
153.1355158728
 20
135.1662001502
 10
153.2455099967
 20
135.0872695791
 10
153.3576349402
 20
135.0170908504
  0
LWPOLYLINE
  5
21E
100
AcDbEntity
  8
RACCORDO
100
AcDbPolyline
 62
7
  6
CONTINUOUS
 90
3
 70
0
 10
148.8805453575
 20
135.5778705615
 10
148.9237340508
 20
135.6036390492
 10
148.9366166138
 20
135.6113794144
  0
LINE
  5
21F
100
AcDbEntity
  8
RACCORDO
100
AcDbLine
 62
7
  6
CONTINUOUS
 10
148.8648049663
 20
135.5685913095
 11
148.8805453575
 21
135.5778705615
  0
LWPOLYLINE
  5
220
100
AcDbEntity
  8
RACCORDO
100
AcDbPolyline
 62
7
  6
CONTINUOUS
 90
3
 70
0
 10
148.8145232863
 20
135.5388618969
 10
148.8317907339
 20
135.5489611114
 10
148.8648049663
 20
135.5685913095
  0
LINE
  5
221
100
AcDbEntity
  8
RACCORDO
100
AcDbLine
 62
7
  6
CONTINUOUS
 10
147.7007806907
 20
136.0379785538
 11
135.4551288659
 21
128.9674926643
  0
LINE
  5
222
100
AcDbEntity
  8
RACCORDO
100
AcDbLine
 62
7
  6
CONTINUOUS
 10
148.6907301843
 20
135.4663941232
 11
137.6498622043
 21
129.0915353261
  0
LWPOLYLINE
  5
223
100
AcDbEntity
  8
RACCORDO
100
AcDbPolyline
 62
7
  6
CONTINUOUS
 90
7
 70
0
 10
148.6907301843
 20
135.4663941232
 10
148.7077688387
 20
135.4758557832
 10
148.7252293044
 20
135.486086209
 10
148.7429662839
 20
135.4967554567
 10
148.760973389
 20
135.5074079392
 10
148.7790885001
 20
135.5178971755
 10
148.8145232863
 20
135.5388618969
  0
LWPOLYLINE
  5
224
100
AcDbEntity
  8
RACCORDO
100
AcDbPolyline
 62
253
  6
CONTINUOUS
 90
69
 70
0
 10
126.6108657664
 20
114.7264543382
 10
126.6070849062
 20
114.6572680549
 10
126.6056715838
 20
114.3666870228
 10
126.6276099854
 20
114.0763772191
 10
126.6728547312
 20
113.786959136
 10
126.7413092505
 20
113.4990605736
 10
126.8328259679
 20
113.213304945
 10
126.9472094167
 20
112.9303046458
 10
127.0842169887
 20
112.6506642328
 10
127.2435572414
 20
112.3749841734
 10
127.4248880544
 20
112.1038612113
 10
127.6278194984
 20
111.8378817547
 10
127.8519150711
 20
111.5776204081
 10
128.0966943762
 20
111.3236373488
 10
128.3616331532
 20
111.0764790211
 10
128.6461629103
 20
110.8366783361
 10
128.9496718641
 20
110.6047532971
 10
129.2715078064
 20
110.3812044848
 10
129.610978558
 20
110.1665147542
 10
129.967354283
 20
109.9611476284
 10
130.3398693237
 20
109.7655462866
 10
130.7277223827
 20
109.5801334279
 10
131.1300786902
 20
109.4053099877
 10
131.5460728229
 20
109.2414538284
 10
131.9748091379
 20
109.0889195456
 10
132.4153644799
 20
108.9480373329
 10
132.866790879
 20
108.8191120947
 10
133.3281158895
 20
108.7024233194
 10
133.7983455175
 20
108.5982241554
 10
134.2764673219
 20
108.506740687
 10
134.7614507417
 20
108.4281718506
 10
135.2522501606
 20
108.3626887647
 10
135.7478081418
 20
108.3104342565
 10
136.2470557988
 20
108.2715227976
 10
136.7489161685
 20
108.246040076
 10
137.2523074729
 20
108.2340428081
 10
137.7561433438
 20
108.2355587143
 10
138.2593360937
 20
108.25058635
 10
138.7608001702
 20
108.2790951615
 10
139.2594524963
 20
108.3210254826
 10
139.7542159367
 20
108.376288659
 10
140.24402253
 20
108.4447673864
 10
140.727813698
 20
108.5263157198
 10
141.2045434753
 20
108.6207594287
 10
141.6731818215
 20
108.7278966008
 10
142.1327149453
 20
108.8474976912
 10
142.5821485959
 20
108.9793061955
 10
143.0205110108
 20
109.1230394897
 10
143.4468530953
 20
109.2783888659
 10
143.8602513748
 20
109.4450203887
 10
144.259810907
 20
109.6225760094
 10
144.6446655676
 20
109.8106736624
 10
145.0139808598
 20
110.0089084171
 10
145.3669563687
 20
110.2168537561
 10
145.7028258906
 20
110.4340616121
 10
146.0208600964
 20
110.6600638143
 10
146.3203687272
 20
110.8943736218
 10
146.6007008718
 20
111.1364859582
 10
146.8612461299
 20
111.3858780685
 10
147.1014368153
 20
111.6420112172
 10
147.320748058
 20
111.9043303724
 10
147.5187033275
 20
112.1722706752
 10
147.6948736947
 20
112.4452586366
 10
147.8488767771
 20
112.7227125497
 10
147.9803684183
 20
113.0040247592
 10
148.0890519952
 20
113.2885676553
 10
148.1746897154
 20
113.5757186598
 10
148.2370980474
 20
113.8648623519
 10
148.2761410616
 20
114.1553726136
  0
LWPOLYLINE
  5
225
100
AcDbEntity
  8
ASSI
100
AcDbPolyline
 62
253
  6
CONTINUOUS
 90
63
 70
0
 10
126.8816158023
 20
118.9416202775
 10
126.8788488207
 20
118.8933981879
 10
126.876851113
 20
118.5826296539
 10
126.9022457254
 20
118.2722050699
 10
126.9549668528
 20
117.9629288389
 10
127.0348778791
 20
117.6556023884
 10
127.1417717309
 20
117.3510220933
 10
127.275371414
 20
117.0499772123
 10
127.4353307318
 20
116.7532478429
 10
127.6212351818
 20
116.4616028998
 10
127.8326030297
 20
116.1757981224
 10
128.0688865582
 20
115.8965741165
 10
128.3294734859
 20
115.6246544352
 10
128.6136885539
 20
115.3607437038
 10
128.920795276
 20
115.1055257941
 10
129.2499978465
 20
114.8596620521
 10
129.600443203
 20
114.6237895845
 10
129.9712232366
 20
114.3985196075
 10
130.3613771452
 20
114.1844358631
 10
130.769893923
 20
113.9820931063
 10
131.1957149807
 20
113.792015668
 10
131.6377368885
 20
113.6146960956
 10
132.0948142351
 20
113.4505938774
 10
132.5657625962
 20
113.3001342513
 10
133.0493616034
 20
113.1637071032
 10
133.544358107
 20
113.0416659569
 10
134.0494694226
 20
112.9343270574
 10
134.5633866556
 20
112.8419685521
 10
135.0847780923
 20
112.7648297694
 10
135.6122926515
 20
112.7031105991
 10
136.1445633848
 20
112.6569709741
 10
136.6802110194
 20
112.6265304558
 10
137.2178475316
 20
112.6118679249
 10
137.7560797444
 20
112.6130213763
 10
138.2935129367
 20
112.6299878211
 10
138.8287544581
 20
112.6627232941
 10
139.3604173376
 20
112.711142968
 10
139.8871238774
 20
112.7751213729
 10
140.4075092229
 20
112.8544927214
 10
140.9202248999
 20
112.9490513388
 10
141.4239423085
 20
113.0585521953
 10
141.9173561659
 20
113.1827115413
 10
142.399187889
 20
113.3212076429
 10
142.8681889075
 20
113.473681615
 10
143.3231438993
 20
113.6397383521
 10
143.7628739396
 20
113.8189475512
 10
144.1862395563
 20
114.0108448278
 10
144.5921436821
 20
114.2149329185
 10
144.9795344978
 20
114.4306829698
 10
145.3474081579
 20
114.6575359088
 10
145.6948113914
 20
114.8949038916
 10
146.0208439725
 20
115.1421718266
 10
146.3246610532
 20
115.3986989684
 10
146.6054753522
 20
115.6638205785
 10
146.8625591957
 20
115.9368496473
 10
147.0952464025
 20
116.2170786747
 10
147.3029340101
 20
116.5037815033
 10
147.4850838379
 20
116.7962152003
 10
147.6412238811
 20
117.0936219822
 10
147.770949534
 20
117.3952311791
 10
147.8739246386
 20
117.7002612311
 10
147.9498823556
 20
118.0079217141
 10
147.9986258557
 20
118.3174153874
  0
LINE
  5
226
100
AcDbEntity
  8
ASSI
100
AcDbLine
 62
7
  6
CONTINUOUS
 10
126.8816158023
 20
118.9416202775
 11
126.6108657664
 21
114.7264543382
  0
LWPOLYLINE
  5
227
100
AcDbEntity
  8
ASSI
100
AcDbPolyline
 62
7
  6
CONTINUOUS
 90
10
 70
0
 10
126.8816158023
 20
118.9416202775
 10
126.9444636687
 20
119.6715458696
 10
127.0390138213
 20
120.3979996481
 10
127.1650372654
 20
121.1190295238
 10
127.322285641
 20
121.8331776417
 10
127.5101657038
 20
122.5379740928
 10
127.7275211818
 20
123.2300121996
 10
127.973166327
 20
123.906961111
 10
128.2460985937
 20
124.5675041779
 10
128.5450251824
 20
125.2098814418
  0
LWPOLYLINE
  5
228
100
AcDbEntity
  8
RACCORDO
100
AcDbPolyline
 62
253
  6
CONTINUOUS
 90
40
 70
0
 10
126.6537370998
 20
115.3938957433
 10
126.6079439103
 20
115.2316523364
 10
126.5492850351
 20
114.9377352436
 10
126.5145165955
 20
114.6425343753
 10
126.503719759
 20
114.3467123595
 10
126.5169189155
 20
114.0509237372
 10
126.554085889
 20
113.7558111432
 10
126.6151409534
 20
113.4620195091
 10
126.6999520838
 20
113.1701928668
 10
126.8083349853
 20
112.8809716489
 10
126.9400543157
 20
112.5949891113
 10
127.0948234342
 20
112.3128723687
 10
127.2723047009
 20
112.0352409431
 10
127.4721107996
 20
111.7627041742
 10
127.6938051526
 20
111.4958605929
 10
127.9369034959
 20
111.2352958221
 10
128.2008751612
 20
110.9815813226
 10
128.4851431186
 20
110.7352742926
 10
128.7890854614
 20
110.4969159946
 10
129.1120376416
 20
110.2670298697
 10
129.4532927842
 20
110.0461212876
 10
129.8121038725
 20
109.8346759024
 10
130.1876860083
 20
109.6331582995
 10
130.57921669
 20
109.4420118157
 10
130.9858381135
 20
109.2616571767
 10
131.4066599567
 20
109.0924911887
 10
131.840759859
 20
108.9348865119
 10
132.2871862843
 20
108.7891904354
 10
132.7449613718
 20
108.655723923
 10
133.2130812828
 20
108.5347814844
 10
133.6905191662
 20
108.4266302097
 10
134.1762284452
 20
108.3315089728
 10
134.6691432666
 20
108.2496283164
 10
135.1681818242
 20
108.181169725
 10
135.6722496601
 20
108.126285143
 10
136.1802400106
 20
108.0850969115
 10
136.6910372238
 20
108.0576973076
 10
137.2035202921
 20
108.0441483138
 10
137.7165632095
 20
108.0444815862
 10
138.2290385141
 20
108.058698277
  0
LWPOLYLINE
  5
229
100
AcDbEntity
  8
ASSI
100
AcDbPolyline
 62
7
  6
CONTINUOUS
 90
15
 70
0
 10
126.8087791536
 20
117.8076645251
 10
126.752808916
 20
117.7652451899
 10
126.3828637779
 20
117.4540276347
 10
126.0400592218
 20
117.1326157524
 10
125.7252362118
 20
116.8017979367
 10
125.4391670436
 20
116.4623856276
 10
125.1825534854
 20
116.1152113498
 10
124.9560250764
 20
115.7611267042
 10
124.7601375334
 20
115.4010002139
 10
124.5953714161
 20
115.0357152248
 10
124.4621309583
 20
114.6661677744
 10
124.3607430458
 20
114.2932643249
 10
124.2914564332
 20
113.917919573
 10
124.2544411358
 20
113.5410542421
 10
124.2477323635
 20
113.2980938934
  0
LWPOLYLINE
  5
22A
100
AcDbEntity
  8
0
100
AcDbPolyline
 62
7
  6
CONTINUOUS
 90
31
 70
0
 10
154.332422694
 20
134.9204365958
 10
154.3518411553
 20
134.9321357048
 10
154.4257909265
 20
134.9858201338
 10
154.4924130113
 20
135.049575691
 10
154.551565457
 20
135.1235974756
 10
154.6033902164
 20
135.2076903885
 10
154.6468897753
 20
135.3002358234
 10
154.6819028569
 20
135.4013975237
 10
154.7085907379
 20
135.5110117461
 10
154.7264397346
 20
135.6269686544
 10
154.7352786189
 20
135.7493911201
 10
154.7352786189
 20
135.8781562718
 10
154.7264397346
 20
136.0107856595
 10
154.7085907379
 20
136.1473541418
 10
154.6819028569
 20
136.2877868603
 10
154.6468897753
 20
136.4293807895
 10
154.6033902164
 20
136.5721584247
 10
154.551565457
 20
136.7160972707
 10
154.4924130113
 20
136.8584268169
 10
154.4257909265
 20
136.9991158878
 10
154.3518411553
 20
137.1381956588
 10
154.2719870705
 20
137.2729891462
 10
154.1861142931
 20
137.4034133153
 10
154.0943372021
 20
137.5295512007
 10
153.9984223075
 20
137.6489749216
 10
153.8982894512
 20
137.7615544103
 10
153.7940187913
 20
137.8674197346
 10
153.6876173118
 20
137.9645332165
 10
153.5797540075
 20
138.05221563
 10
153.4697598836
 20
138.1311462011
 10
153.3576349402
 20
138.2013249299
  0
LINE
  5
22B
100
AcDbEntity
  8
RACCORDO
100
AcDbLine
 62
253
  6
CONTINUOUS
 10
158.6609357991
 20
137.2212646857
 11
161.1358095332
 21
138.6502257624
  0
LWPOLYLINE
  5
22C
100
AcDbEntity
  8
0
100
AcDbPolyline
 62
7
  6
CONTINUOUS
 90
24
 70
0
 10
151.1075269163
 20
131.1168516543
 10
151.2594426635
 20
131.193313587
 10
151.4208577465
 20
131.2530727187
 10
151.5898212838
 20
131.2954291665
 10
151.7664299695
 20
131.3201600054
 10
151.9505871093
 20
131.3274881605
 10
152.1399437148
 20
131.3173201586
 10
152.3345663902
 20
131.2894318772
 10
152.5343885312
 20
131.2440474387
 10
152.7368613368
 20
131.1817457376
 10
152.9420187615
 20
131.1023100669
 10
153.1498268508
 20
131.0059571334
 10
153.3576349402
 20
130.8939159526
 10
153.5654430295
 20
130.7659855608
 10
153.7732511188
 20
130.6223669215
 10
153.9784085436
 20
130.4648919407
 10
154.1808813492
 20
130.293383121
 10
154.3807034902
 20
130.1080179598
 10
154.5753261655
 20
129.9111608541
 10
154.764682771
 20
129.7026645944
 10
154.9488399108
 20
129.4826763903
 10
155.1254485965
 20
129.254002268
 10
155.2944121338
 20
129.0165309625
 10
155.3843497266
 20
128.879376567
  0
LWPOLYLINE
  5
22D
100
AcDbEntity
  8
ASSI
100
AcDbPolyline
 62
7
  6
CONTINUOUS
 90
17
 70
0
 10
124.3375346471
 20
112.410584071
 10
124.4297192782
 20
112.0368839949
 10
124.5538362986
 20
111.6662774282
 10
124.7095812813
 20
111.2996734836
 10
124.8965722244
 20
110.9379714224
 10
125.114350481
 20
110.5820584829
 10
125.362381859
 20
110.2328077373
 10
125.6400579729
 20
109.8910758824
 10
125.9466977194
 20
109.5577011727
 10
126.2815489156
 20
109.2335013939
 10
126.6437902017
 20
108.9192717943
 10
127.0325330306
 20
108.6157831667
 10
127.4468238079
 20
108.3237799838
 10
127.8856463038
 20
108.0439785155
 10
128.3479241134
 20
107.777065102
 10
128.8325232504
 20
107.5236944925
 10
129.3382550156
 20
107.28448819
  0
LINE
  5
22E
100
AcDbEntity
  8
RACCORDO
100
AcDbLine
 62
253
  6
CONTINUOUS
 10
160.428702752
 20
134.1594025104
 11
162.9035764862
 21
135.5883635871
  0
LINE
  5
22F
100
AcDbEntity
  8
RACCORDO
100
AcDbLine
 62
7
  6
CONTINUOUS
 10
157.7416969835
 20
130.2404793286
 11
146.7008290035
 21
123.8656205315
  0
LWPOLYLINE
  5
230
100
AcDbEntity
  8
RACCORDO
100
AcDbPolyline
 62
7
  6
CONTINUOUS
 90
7
 70
0
 10
158.7316464772
 20
129.6688948979
 10
158.7486851315
 20
129.678356558
 10
158.7661455972
 20
129.6885869838
 10
158.7838825767
 20
129.6992562314
 10
158.8018896818
 20
129.7099087139
 10
158.820004793
 20
129.7203979502
 10
158.8554395791
 20
129.7413626716
  0
LWPOLYLINE
  5
231
100
AcDbEntity
  8
RACCORDO
100
AcDbPolyline
 62
7
  6
CONTINUOUS
 90
9
 70
0
 10
157.7416969835
 20
130.2404793286
 10
157.7566629523
 20
130.2515380435
 10
157.7692584218
 20
130.264497408
 10
157.7795511264
 20
130.2791446236
 10
157.7876256521
 20
130.2954167754
 10
157.7936659402
 20
130.3130150344
 10
157.7978715576
 20
130.3314205525
 10
157.8003616541
 20
130.3504708473
 10
157.801224812
 20
130.3671358349
  0
LWPOLYLINE
  5
232
100
AcDbEntity
  8
RACCORDO
100
AcDbPolyline
 62
7
  6
CONTINUOUS
 90
3
 70
0
 10
158.9775329067
 20
129.8138801891
 10
159.0007082383
 20
129.8279496562
 10
159.0111358006
 20
129.8341251581
  0
LWPOLYLINE
  5
233
100
AcDbEntity
  8
RACCORDO
100
AcDbPolyline
 62
7
  6
CONTINUOUS
 90
3
 70
0
 10
158.9214616504
 20
129.7803713362
 10
158.9646503437
 20
129.806139824
 10
158.9775329067
 20
129.8138801891
  0
LINE
  5
234
100
AcDbEntity
  8
RACCORDO
100
AcDbLine
 62
7
  6
CONTINUOUS
 10
158.9057212592
 20
129.7710920842
 11
158.9214616504
 21
129.7803713362
  0
LWPOLYLINE
  5
235
100
AcDbEntity
  8
RACCORDO
100
AcDbPolyline
 62
7
  6
CONTINUOUS
 90
3
 70
0
 10
158.8554395791
 20
129.7413626716
 10
158.8727070268
 20
129.7514618861
 10
158.9057212592
 20
129.7710920842
  0
LINE
  5
236
100
AcDbEntity
  8
RACCORDO
100
AcDbLine
 62
7
  6
CONTINUOUS
 10
158.7316464772
 20
129.6688948979
 11
146.4859946525
 21
122.5984090084
  0
LWPOLYLINE
  5
237
100
AcDbEntity
  8
ASSI
100
AcDbPolyline
 62
7
  6
CONTINUOUS
 90
43
 70
0
 10
129.3382550156
 20
107.28448819
 10
129.863878873
 20
107.0600329527
 10
130.4081054409
 20
106.8508793741
 10
130.9695997533
 20
106.6575404901
 10
131.5469844884
 20
106.4804905435
 10
132.138843291
 20
106.3201638355
 10
132.7437243554
 20
106.1769536263
 10
133.3601439345
 20
106.0512111904
 10
133.9865899208
 20
105.9432449634
 10
134.621525671
 20
105.8533197624
 10
135.2633937195
 20
105.7816561503
 10
135.9106195382
 20
105.7284298997
 10
136.5616155188
 20
105.6937715475
 10
137.2147848086
 20
105.677766085
 10
137.868525166
 20
105.6804527477
 10
138.5212330136
 20
105.7018249164
 10
139.1713073108
 20
105.7418301382
 10
139.8171534208
 20
105.8003702482
 10
140.4571871442
 20
105.8773016186
 10
141.0898385437
 20
105.9724355098
 10
141.7135557369
 20
106.085538522
 10
142.3268088222
 20
106.2163331864
 10
142.9280935704
 20
106.3644986387
 10
143.5159350607
 20
106.5296713912
 10
144.0888914109
 20
106.7114462515
 10
144.645557256
 20
106.9093773058
 10
145.184567146
 20
107.122978992
 10
145.7045989994
 20
107.3517273283
 10
146.2043772912
 20
107.595061182
 10
146.6826761379
 20
107.8523836221
 10
147.1383223979
 20
108.1230634287
 10
147.5701984991
 20
108.4064366214
 10
147.9772451429
 20
108.7018080597
 10
148.3584639831
 20
109.0084532016
 10
148.7129200306
 20
109.3256198564
 10
149.0397439171
 20
109.6525299987
 10
149.3381340935
 20
109.9883817366
 10
149.6073587583
 20
110.3323512506
 10
149.8467576317
 20
110.6835947817
 10
150.0557436241
 20
111.0412507648
 10
150.2338042471
 20
111.4044419123
 10
150.3805028571
 20
111.7722773304
 10
150.4954797594
 20
112.1438547733
  0
LWPOLYLINE
  5
238
100
AcDbEntity
  8
RACCORDO
100
AcDbPolyline
 62
7
  6
CONTINUOUS
 90
6
 70
0
 10
158.9437785115
 20
119.34053406
 10
158.9604620537
 20
119.3506010696
 10
158.97799353
 20
119.3607104456
 10
158.9960146111
 20
119.3708953935
 10
159.0141239776
 20
119.381373554
 10
159.0321174058
 20
119.3920702197
  0
LWPOLYLINE
  5
239
100
AcDbEntity
  8
RACCORDO
100
AcDbPolyline
 62
7
  6
CONTINUOUS
 90
5
 70
0
 10
159.1630831798
 20
119.4695665474
 10
159.189664941
 20
119.4855193512
 10
159.2017400499
 20
119.4926718377
 10
159.2129495682
 20
119.4994025055
 10
159.223267835
 20
119.5057643202
  0
LINE
  5
23A
100
AcDbEntity
  8
RACCORDO
100
AcDbLine
 62
7
  6
CONTINUOUS
 10
159.1179009767
 20
119.4426499622
 11
159.1630831798
 21
119.4695665474
  0
LWPOLYLINE
  5
23B
100
AcDbEntity
  8
RACCORDO
100
AcDbPolyline
 62
7
  6
CONTINUOUS
 90
3
 70
0
 10
159.0676431084
 20
119.4128799584
 10
159.1016068696
 20
119.4330424218
 10
159.1179009767
 20
119.4426499622
  0
LWPOLYLINE
  5
23C
100
AcDbEntity
  8
RACCORDO
100
AcDbPolyline
 62
7
  6
CONTINUOUS
 90
4
 70
0
 10
159.404610146
 20
119.3616353646
 10
159.416774724
 20
119.3687598777
 10
159.4281440326
 20
119.3753460689
 10
159.4387532584
 20
119.3813457374
  0
LINE
  5
23D
100
AcDbEntity
  8
RACCORDO
100
AcDbLine
 62
7
  6
CONTINUOUS
 10
159.0321174058
 20
119.3920702197
 11
159.0676431084
 21
119.4128799584
  0
LINE
  5
23E
100
AcDbEntity
  8
RACCORDO
100
AcDbLine
 62
7
  6
CONTINUOUS
 10
158.9437785115
 20
119.34053406
 11
150.0739260535
 21
114.2191924161
  0
LINE
  5
23F
100
AcDbEntity
  8
RACCORDO
100
AcDbLine
 62
7
  6
CONTINUOUS
 10
159.1559105459
 20
119.218051682
 11
150.1042796887
 21
113.9917534686
  0
LINE
  5
240
100
AcDbEntity
  8
RACCORDO
100
AcDbLine
 62
7
  6
CONTINUOUS
 10
159.1559105459
 20
117.9933462668
 11
150.6477323635
 21
113.0808308168
  0
LINE
  5
241
100
AcDbEntity
  8
RACCORDO
100
AcDbLine
 62
7
  6
CONTINUOUS
 10
159.3478270709
 20
119.3288354228
 11
159.404610146
 21
119.3616353646
  0
LINE
  5
242
100
AcDbEntity
  8
RACCORDO
100
AcDbLine
 62
7
  6
CONTINUOUS
 10
159.3319144861
 20
119.3197232053
 11
159.3478270709
 21
119.3288354228
  0
LWPOLYLINE
  5
243
100
AcDbEntity
  8
RACCORDO
100
AcDbPolyline
 62
7
  6
CONTINUOUS
 90
3
 70
0
 10
159.2811126689
 20
119.2904236237
 10
159.2985557187
 20
119.3003919708
 10
159.3319144861
 20
119.3197232053
  0
LWPOLYLINE
  5
244
100
AcDbEntity
  8
RACCORDO
100
AcDbPolyline
 62
7
  6
CONTINUOUS
 90
7
 70
0
 10
159.1559105459
 20
119.218051682
 10
159.1731668358
 20
119.2275829831
 10
159.1908401151
 20
119.2378738507
 10
159.208783096
 20
119.2485787949
 10
159.2269929498
 20
119.2592188426
 10
159.2453077546
 20
119.2696467676
 10
159.2811126689
 20
119.2904236237
  0
LWPOLYLINE
  5
245
100
AcDbEntity
  8
RACCORDO
100
AcDbPolyline
 62
7
  6
CONTINUOUS
 90
9
 70
0
 10
159.1559105459
 20
117.9933462668
 10
159.1727925954
 20
118.0005707574
 10
159.1905410619
 20
118.004971822
 10
159.208783096
 20
118.006594655
 10
159.2271024827
 20
118.0053068295
 10
159.2452907476
 20
118.0014112104
 10
159.2633739358
 20
117.9955928934
 10
159.2811867638
 20
117.9879940559
 10
159.2978111836
 20
117.9790514615
  0
LWPOLYLINE
  5
246
100
AcDbEntity
  8
RACCORDO
100
AcDbPolyline
 62
253
  6
CONTINUOUS
 90
32
 70
0
 10
138.2290385141
 20
108.058698277
 10
138.7398207963
 20
108.0867690974
 10
139.2477870218
 20
108.1286343116
 10
139.7518200764
 20
108.1842038436
 10
140.2508122703
 20
108.2533576243
 10
140.7436656676
 20
108.3359456139
 10
141.2292955372
 20
108.4317881895
 10
141.7066337351
 20
108.5406767675
 10
142.174629024
 20
108.6623738482
 10
142.6322505537
 20
108.7966137205
 10
143.0784910147
 20
108.9431033596
 10
143.5123669014
 20
109.1015224949
 10
143.9329213432
 20
109.2715244123
 10
144.3392272094
 20
109.4527371081
 10
144.7303874534
 20
109.6447633736
 10
145.1055390433
 20
109.8471825201
 10
145.4638551436
 20
110.0595516983
 10
145.8045451159
 20
110.281406004
 10
146.1268541848
 20
110.5122578227
 10
146.4300672416
 20
110.7515987164
 10
146.7135098447
 20
110.9988995998
 10
146.9765586517
 20
111.2536201267
 10
147.2186385101
 20
111.5152090058
 10
147.4392200861
 20
111.783103825
 10
147.6378003331
 20
112.0567041543
 10
147.8139189921
 20
112.3353795758
 10
147.9671689691
 20
112.6184752634
 10
148.0972403365
 20
112.9054064293
 10
148.2038782939
 20
113.1956348266
 10
148.2868337542
 20
113.488554902
 10
148.3458891166
 20
113.7834913937
 10
148.3808920166
 20
114.0797946486
  0
LINE
  5
247
100
AcDbEntity
  8
RACCORDO
100
AcDbLine
 62
7
  6
CONTINUOUS
 10
146.2865671283
 20
142.324894377
 11
146.2865671283
 21
135.2214293672
  0
LWPOLYLINE
  5
248
100
AcDbEntity
  8
0
100
AcDbPolyline
 62
7
  6
CONTINUOUS
 90
27
 70
0
 10
154.332422694
 20
112.0592688456
 10
154.3518411553
 20
112.0709679546
 10
154.4257909265
 20
112.1246523836
 10
154.4924130113
 20
112.1884079408
 10
154.551565457
 20
112.2624297254
 10
154.6033902164
 20
112.3465226383
 10
154.6468897753
 20
112.4390680732
 10
154.6819028569
 20
112.5402297735
 10
154.7085907379
 20
112.6498439959
 10
154.7264397346
 20
112.7658009042
 10
154.7352786189
 20
112.8882233699
 10
154.7352786189
 20
113.0169885216
 10
154.7264397346
 20
113.1496179093
 10
154.7085907379
 20
113.2861863916
 10
154.6819028569
 20
113.4266191101
 10
154.6468897753
 20
113.5682130393
 10
154.6033902164
 20
113.7109906745
 10
154.551565457
 20
113.8549295205
 10
154.4924130113
 20
113.9972590667
 10
154.4257909265
 20
114.1379481376
 10
154.3518411553
 20
114.2770279086
 10
154.2719870705
 20
114.411821396
 10
154.1861142931
 20
114.5422455651
 10
154.0943372021
 20
114.6683834505
 10
153.9984223075
 20
114.7878071714
 10
153.8982894512
 20
114.9003866601
 10
153.8623280246
 20
114.9368980632
  0
LWPOLYLINE
  5
249
100
AcDbEntity
  8
0
100
AcDbPolyline
 62
7
  6
CONTINUOUS
 90
7
 70
0
 10
146.7008290035
 20
123.8656205315
 10
146.6789870134
 20
124.1327538515
 10
146.634530982
 20
124.3976256104
 10
146.5674609095
 20
124.660235808
 10
146.4774982565
 20
124.9212239428
 10
146.3649215624
 20
125.1799505163
 10
146.3503677805
 20
125.2098696746
  0
LWPOLYLINE
  5
24A
100
AcDbEntity
  8
ASSI
100
AcDbPolyline
 62
7
  6
CONTINUOUS
 90
25
 70
0
 10
147.9986258557
 20
118.3174153874
 10
147.9818925338
 20
118.5363800743
 10
147.9611773813
 20
118.7523635991
 10
147.9364803984
 20
118.9653659618
 10
147.9078015763
 20
119.1754645518
 10
147.8751409237
 20
119.3825819797
 10
147.8384984665
 20
119.586486077
 10
147.7978827259
 20
119.7871875181
 10
147.7532851806
 20
119.9846756287
 10
147.7046802932
 20
120.1786862181
 10
147.6520767611
 20
120.3692359192
 10
147.5954658867
 20
120.5563080991
 10
147.5347960402
 20
120.7395886681
 10
147.4700631913
 20
120.9191235219
 10
147.4012713702
 20
121.0948667648
 10
147.3283810372
 20
121.2663666203
 10
147.2513977512
 20
121.4336390314
 10
147.1703159532
 20
121.5966680552
 10
147.0850794261
 20
121.7549540858
 10
146.995680685
 20
121.9085401874
 10
146.9021272148
 20
122.0573832958
 10
146.8043852526
 20
122.200854612
 10
146.7024435444
 20
122.3387445363
 10
146.5963133444
 20
122.4712626684
 10
146.4859946525
 20
122.5984090084
  0
LINE
  5
24B
100
AcDbEntity
  8
RACCORDO
100
AcDbLine
 62
7
  6
CONTINUOUS
 10
148.2761410616
 20
114.1553726136
 11
147.9986258557
 21
118.3174153874
  0
LINE
  5
24C
100
AcDbEntity
  8
RACCORDO
100
AcDbLine
 62
253
  6
CONTINUOUS
 10
148.9028622187
 20
125.1380332853
 11
148.6907301843
 21
135.4663941232
  0
LWPOLYLINE
  5
24D
100
AcDbEntity
  8
RACCORDO
100
AcDbPolyline
 62
7
  6
CONTINUOUS
 90
12
 70
0
 10
147.7603085191
 20
136.1646350602
 10
147.7603482277
 20
136.1676161421
 10
147.7597829403
 20
136.187547872
 10
147.7578475275
 20
136.2076809088
 10
147.7546523213
 20
136.2279659667
 10
147.7502713433
 20
136.2481592512
 10
147.7447854339
 20
136.268227021
 10
147.7382986264
 20
136.2881132024
 10
147.730895961
 20
136.3075474081
 10
147.7226686561
 20
136.3264222538
 10
147.7137164891
 20
136.344794026
 10
147.7041340797
 20
136.3626462417
  0
LINE
  5
24E
100
AcDbEntity
  8
RACCORDO
100
AcDbLine
 62
253
  6
CONTINUOUS
 10
147.7041340797
 20
136.3626462417
 11
147.697305338
 21
136.0380516675
  0
LWPOLYLINE
  5
24F
100
AcDbEntity
  8
0
100
AcDbPolyline
 62
7
  6
CONTINUOUS
 90
44
 70
0
 10
146.8168972142
 20
106.908691058
 10
146.2835999714
 20
106.6176147924
 10
145.7269676226
 20
106.3454091946
 10
145.1470001675
 20
106.0920742646
 10
144.5417983795
 20
105.8569565767
 10
143.9132614853
 20
105.6407095565
 10
143.2670871657
 20
105.4452934812
 10
142.603115053
 20
105.2708977554
 10
141.9215055148
 20
105.1173329745
 10
141.2284373348
 20
104.9859912016
 10
140.5238063257
 20
104.8770744987
 10
139.8077166749
 20
104.7903808038
 10
139.0866597278
 20
104.7266959945
 10
138.3605903195
 20
104.6862292782
 10
137.629553615
 20
104.6687714475
 10
136.9001764547
 20
104.6744807574
 10
136.1724739279
 20
104.7035678543
 10
135.4464309453
 20
104.7558220918
 10
134.7286290794
 20
104.8307697857
 10
134.0191432621
 20
104.9286172756
 10
133.3178985614
 20
105.049158222
 10
132.6312517535
 20
105.1912999223
 10
131.9593355693
 20
105.3552387807
 10
131.3020172779
 20
105.5407783931
 10
130.665255463
 20
105.7462368448
 10
130.0492370338
 20
105.971795247
 10
129.4537750812
 20
106.2172724885
 10
128.8842674618
 20
106.4804433205
 10
128.3409501645
 20
106.7614686213
 10
127.8235872005
 20
107.0601875127
 10
127.3368684598
 20
107.3738921108
 10
126.881072574
 20
107.7027186726
 10
126.4559209116
 20
108.0465309412
 10
126.0652674681
 20
108.4022122617
 10
125.7094259173
 20
108.769870553
 10
125.3880825855
 20
109.1493978964
 10
125.1041504468
 20
109.5373538801
 10
124.857969661
 20
109.9338151412
 10
124.6492000683
 20
110.3387050427
 10
124.4797341629
 20
110.7483532617
 10
124.3499293122
 20
111.1628030629
 10
124.2594281488
 20
111.5820111816
 10
124.2090510648
 20
112.0021775003
 10
124.1978625925
 20
112.3177881293
  0
LINE
  5
250
100
AcDbEntity
  8
ASSI
100
AcDbLine
 62
7
  6
CONTINUOUS
 10
150.2628731547
 20
114.0037186165
 11
150.1042796887
 21
113.9917534686
  0
LINE
  5
251
100
AcDbEntity
  8
ASSI
100
AcDbLine
 62
7
  6
CONTINUOUS
 10
150.4239230337
 20
114.0150597705
 11
150.2628731547
 21
114.0037186165
  0
LINE
  5
252
100
AcDbEntity
  8
ASSI
100
AcDbLine
 62
7
  6
CONTINUOUS
 10
150.5874293254
 20
114.0257769306
 11
150.4239230337
 21
114.0150597705
  0
LWPOLYLINE
  5
253
100
AcDbEntity
  8
RACCORDO
100
AcDbPolyline
 62
7
  6
CONTINUOUS
 90
10
 70
0
 10
150.0739260535
 20
114.2191924161
 10
149.8706643929
 20
114.2077584265
 10
149.6712448727
 20
114.1953059525
 10
149.4756674931
 20
114.1818349942
 10
149.2840061855
 20
114.1673391229
 10
149.0961870185
 20
114.1518247672
 10
148.9119881975
 20
114.1353112133
 10
148.7313357911
 20
114.1178048899
 10
148.5543037308
 20
114.0992993684
 10
148.3808920166
 20
114.0797946486
  0
LWPOLYLINE
  5
254
100
AcDbEntity
  8
RACCORDO
100
AcDbPolyline
 62
7
  6
CONTINUOUS
 90
13
 70
0
 10
158.6609357991
 20
107.0118644444
 10
158.7773664652
 20
106.9491641531
 10
158.8923245399
 20
106.895862341
 10
159.0058100232
 20
106.8519590083
 10
159.1182949152
 20
106.8173469521
 10
159.2293072157
 20
106.7921333752
 10
159.3374309242
 20
106.7766398855
 10
159.4426290384
 20
106.7709909955
 10
159.5449385606
 20
106.7750621928
 10
159.643054497
 20
106.7888015477
 10
159.7369231289
 20
106.8123329077
 10
159.826598175
 20
106.8455324253
 10
159.9109958123
 20
106.8880112768
  0
LWPOLYLINE
  5
255
100
AcDbEntity
  8
RACCORDO
100
AcDbPolyline
 62
7
  6
CONTINUOUS
 90
13
 70
0
 10
148.2761410616
 20
114.1553726136
 10
148.2775937728
 20
114.1428600998
 10
148.2804901869
 20
114.1313083499
 10
148.2848303039
 20
114.1207173638
 10
148.2906918989
 20
114.1109540672
 10
148.2979971968
 20
114.1021515345
 10
148.3065128723
 20
114.0947089883
 10
148.3162228611
 20
114.0887453258
 10
148.3271432275
 20
114.0841416497
 10
148.3390888395
 20
114.0809404909
 10
148.3519979863
 20
114.0791560262
 10
148.3659323786
 20
114.0787740788
 10
148.3808920166
 20
114.0797946486
  0
LWPOLYLINE
  5
256
100
AcDbEntity
  8
ASSI
100
AcDbPolyline
 62
7
  6
CONTINUOUS
 90
3
 70
0
 10
150.6477323635
 20
113.2980943171
 10
150.6337128928
 20
113.64926567
 10
150.5874293254
 20
114.0257769306
  0
LINE
  5
257
100
AcDbEntity
  8
RACCORDO
100
AcDbLine
 62
253
  6
CONTINUOUS
 10
149.1823515421
 20
125.3032635455
 11
148.9702195077
 21
135.6316243834
  0
LINE
  5
258
100
AcDbEntity
  8
ASSI
100
AcDbLine
 62
7
  6
CONTINUOUS
 10
150.6477323635
 20
113.2980937517
 11
150.6477323635
 21
112.3183294196
  0
LINE
  5
259
100
AcDbEntity
  8
0
100
AcDbLine
 62
7
  6
CONTINUOUS
 10
150.6977323635
 20
80.4759886247
 11
150.6977323635
 21
112.3183294196
  0
LWPOLYLINE
  5
25A
100
AcDbEntity
  8
0
100
AcDbPolyline
 62
7
  6
CONTINUOUS
 90
16
 70
0
 10
150.6976021344
 20
112.3188707098
 10
150.6963018398
 20
112.2133481077
 10
150.6660659381
 20
111.7912566766
 10
150.595980045
 20
111.3720333
 10
150.485681826
 20
110.9557040557
 10
150.3355336156
 20
110.542242866
 10
150.146896506
 20
110.1353977525
 10
149.9194205382
 20
109.7352288716
 10
149.6534556711
 20
109.3416760668
 10
149.3514128735
 20
108.9583068904
 10
149.0129641083
 20
108.5852139367
 10
148.6384374126
 20
108.2223046115
 10
148.2312278673
 20
107.872868684
 10
147.7924671659
 20
107.5380027442
 10
147.3210236149
 20
107.2166102022
 10
146.8168972142
 20
106.908691058
  0
LWPOLYLINE
  5
25B
100
AcDbEntity
  8
0
100
AcDbPolyline
 62
7
  6
CONTINUOUS
 90
16
 70
0
 10
150.6976021344
 20
80.4765299149
 10
150.6963018398
 20
80.3710073128
 10
150.6660659381
 20
79.9489158816
 10
150.595980045
 20
79.5296925051
 10
150.485681826
 20
79.1133632608
 10
150.3355336156
 20
78.6999020711
 10
150.146896506
 20
78.2930569576
 10
149.9194205382
 20
77.8928880767
 10
149.6534556711
 20
77.4993352719
 10
149.3514128735
 20
77.1159660955
 10
149.0129641083
 20
76.7428731418
 10
148.6384374126
 20
76.3799638165
 10
148.2312278673
 20
76.0305278891
 10
147.7924671659
 20
75.6956619492
 10
147.3210236149
 20
75.3742694072
 10
146.8168972142
 20
75.0663502631
  0
LWPOLYLINE
  5
25C
100
AcDbEntity
  8
0
100
AcDbPolyline
 62
7
  6
CONTINUOUS
 90
13
 70
0
 10
150.1756544248
 20
129.057035377
 10
150.1827089218
 20
129.2949509979
 10
150.2030892096
 20
129.522111849
 10
150.2367952882
 20
129.7385179302
 10
150.2840848811
 20
129.9450014377
 10
150.3447002649
 20
130.1407301752
 10
150.4178682692
 20
130.3232075547
 10
150.5037496907
 20
130.4922638285
 10
150.6021837327
 20
130.6480687443
 10
150.7119148347
 20
130.7886349559
 10
150.8330877099
 20
130.9137672585
 10
150.9655576452
 20
131.0236608569
 10
151.1075269163
 20
131.1168516543
  0
LWPOLYLINE
  5
25D
100
AcDbEntity
  8
0
100
AcDbPolyline
 62
7
  6
CONTINUOUS
 90
5
 70
0
 10
152.650528159
 20
130.4859964536
 10
152.6575826559
 20
130.7239120746
 10
152.6779629437
 20
130.9510729257
 10
152.7116690223
 20
131.1674790069
 10
152.7163798041
 20
131.188047988
  0
LWPOLYLINE
  5
25E
100
AcDbEntity
  8
ASSI
100
AcDbPolyline
 62
7
  6
CONTINUOUS
 90
65
 70
0
 10
150.6476434718
 20
112.3170356906
 10
150.6292194084
 20
111.914818899
 10
150.5783895429
 20
111.5388133476
 10
150.4952811739
 20
111.1637953611
 10
150.3805029585
 20
110.7925132847
 10
150.2338222204
 20
110.4249945468
 10
150.055471636
 20
110.061211719
 10
149.8467578922
 20
109.7038308614
 10
149.6074579068
 20
109.3528989916
 10
149.337794762
 20
109.0083690919
 10
149.039744392
 20
108.6727661699
 10
148.7130982263
 20
108.3461557966
 10
148.3580648354
 20
108.0284724011
 10
147.9772458638
 20
107.7220442781
 10
147.5704518516
 20
107.4269541071
 10
147.1378722588
 20
107.1431192086
 10
146.6826771093
 20
106.8726198391
 10
146.2047002309
 20
106.6155539645
 10
145.7041077958
 20
106.3718236187
 10
145.184568345
 20
106.1432151607
 10
144.6459426575
 20
105.9298396834
 10
144.0883699544
 20
105.7315860938
 10
143.5159364394
 20
105.5499074711
 10
142.9285329128
 20
105.384925587
 10
142.3262685743
 20
105.2365186699
 10
141.7135572277
 20
105.1057744838
 10
141.090322102
 20
104.9928227949
 10
140.4566399682
 20
104.8975338371
 10
139.8171549426
 20
104.8206060764
 10
139.1718243763
 20
104.7621744126
 10
138.5206909183
 20
104.7221039459
 10
137.8685266314
 20
104.7006884425
 10
137.2153239297
 20
104.6980649623
 10
136.5610903992
 20
104.7140964454
 10
135.9106208612
 20
104.748665478
 10
135.2639429602
 20
104.8019082586
 10
134.6210290516
 20
104.8736885886
 10
133.9865910236
 20
104.9634804583
 10
133.3606911416
 20
105.0714162025
 10
132.7432671402
 20
105.1973634864
 10
132.1388441111
 20
105.3403992953
 10
131.5475175706
 20
105.5006491823
 10
130.9691920024
 20
105.6779875943
 10
130.4081059492
 20
105.8711148569
 10
129.8643860686
 20
106.0801469751
 10
129.3379057031
 20
106.3049679439
 10
128.8325234224
 20
106.5439300748
 10
128.3483942338
 20
106.7971372689
 10
127.8853631302
 20
107.064485625
 10
127.4468236597
 20
107.3440157509
 10
127.0329557728
 20
107.6358171459
 10
126.6435795191
 20
107.9398003106
 10
126.2815485952
 20
108.2537373552
 10
125.9470639143
 20
108.5777014103
 10
125.6399245632
 20
108.9116193452
 10
125.3623814987
 20
109.2530438786
 10
125.1146521713
 20
109.6020301605
 10
124.8965191305
 20
109.9585230407
 10
124.7095809817
 20
110.3199097882
 10
124.5540669208
 20
110.6862263542
 10
124.429747752
 20
111.0574367874
 10
124.337534492
 20
111.4308205027
 10
124.2776630287
 20
111.8063934616
 10
124.2498974744
 20
112.1841397027
 10
124.2478007849
 20
112.3187309903
  0
LWPOLYLINE
  5
25F
100
AcDbEntity
  8
ASSI
100
AcDbPolyline
 62
7
  6
CONTINUOUS
 90
4
 70
0
 10
150.4954797594
 20
112.1438547733
 10
150.5784530684
 20
112.5182628227
 10
150.6292193953
 20
112.8945830886
 10
150.6477323635
 20
113.2980943171
  0
LWPOLYLINE
  5
260
100
AcDbEntity
  8
0
100
AcDbPolyline
 62
7
  6
CONTINUOUS
 90
11
 70
0
 10
153.3576349402
 20
112.1559231002
 10
153.4697598836
 20
112.0966227547
 10
153.5797540075
 20
112.0485348687
 10
153.6876173118
 20
112.011659442
 10
153.7940187913
 20
111.9859031625
 10
153.8982894512
 20
111.9713593423
 10
153.9984223075
 20
111.9683079186
 10
154.0943372021
 20
111.9769715233
 10
154.1861142931
 20
111.9971275245
 10
154.2719870705
 20
112.0283879628
 10
154.332422694
 20
112.0592688456
  0
LINE
  5
261
100
AcDbEntity
  8
RACCORDO
100
AcDbLine
 62
7
  6
CONTINUOUS
 10
150.6977323635
 20
111.6097183057
 11
158.6609357991
 21
107.0118644444
  0
LWPOLYLINE
  5
262
100
AcDbEntity
  8
ASSI
100
AcDbPolyline
 62
7
  6
CONTINUOUS
 90
7
 70
0
 10
150.0739260535
 20
114.2191924161
 10
150.0798369997
 20
114.1813263291
 10
150.085407143
 20
114.1434440804
 10
150.0906364836
 20
114.10554567
 10
150.0955250214
 20
114.0676310979
 10
150.1000727564
 20
114.0297003641
 10
150.1042796887
 20
113.9917534686
  0
LWPOLYLINE
  5
263
100
AcDbEntity
  8
0
100
AcDbPolyline
 62
7
  6
CONTINUOUS
 90
3
 70
0
 10
150.6477323635
 20
112.9570998308
 10
150.6864136621
 20
112.6344813388
 10
150.6976021344
 20
112.3188707098
  0
LWPOLYLINE
  5
264
100
AcDbEntity
  8
RACCORDO
100
AcDbPolyline
 62
7
  6
CONTINUOUS
 90
13
 70
0
 10
159.9109958123
 20
106.8880112768
 10
159.9898676296
 20
106.939783942
 10
160.0634620381
 20
107.0008359411
 10
160.1307803021
 20
107.070353887
 10
160.1917420254
 20
107.1484462268
 10
160.2464276043
 20
107.2350045133
 10
160.2941395052
 20
107.3289246655
 10
160.3347883964
 20
107.4303009874
 10
160.3684636096
 20
107.5390391749
 10
160.3947356057
 20
107.6537522346
 10
160.413461205
 20
107.7739778353
 10
160.4247835871
 20
107.9001783081
 10
160.428702752
 20
108.0323536531
  0
LINE
  5
265
100
AcDbEntity
  8
RACCORDO
100
AcDbLine
 62
253
  6
CONTINUOUS
 10
160.428702752
 20
108.0323536531
 11
162.9035764862
 21
109.4613147297
  0
LINE
  5
266
100
AcDbEntity
  8
RACCORDO
100
AcDbLine
 62
7
  6
CONTINUOUS
 10
159.9109961994
 20
106.8880115002
 11
162.3858699336
 21
108.3169725768
  0
LWPOLYLINE
  5
267
100
AcDbEntity
  8
0
100
AcDbPolyline
 62
7
  6
CONTINUOUS
 90
5
 70
0
 10
146.3503677805
 20
125.2098696746
 10
146.2305664446
 20
125.4344970338
 10
146.0747114422
 20
125.6842239971
 10
145.897078016
 20
125.9297709043
 10
145.6976661662
 20
126.1711377555
  0
LWPOLYLINE
  5
268
100
AcDbEntity
  8
ASSI
100
AcDbPolyline
 62
7
  6
CONTINUOUS
 90
3
 70
0
 10
146.3504395445
 20
125.2098814418
 10
146.6479514287
 20
124.5707253629
 10
146.8935358204
 20
123.9768870324
  0
LWPOLYLINE
  5
269
100
AcDbEntity
  8
0
100
AcDbPolyline
 62
7
  6
CONTINUOUS
 90
16
 70
0
 10
152.0753165156
 20
113.9051000144
 10
152.1118796639
 20
113.7850896054
 10
152.1637044233
 20
113.6411507594
 10
152.222856869
 20
113.4988212131
 10
152.2894789539
 20
113.3581321423
 10
152.363428725
 20
113.2190523712
 10
152.4432828098
 20
113.0842588839
 10
152.5291555872
 20
112.9538347147
 10
152.6209326782
 20
112.8276968294
 10
152.7168475728
 20
112.7082731085
 10
152.8169804291
 20
112.5956936197
 10
152.921251089
 20
112.4898282954
 10
153.0276525685
 20
112.3927148135
 10
153.1355158728
 20
112.3050324
 10
153.2455099967
 20
112.2261018289
 10
153.3576349402
 20
112.1559231002
  0
LWPOLYLINE
  5
26A
100
AcDbEntity
  8
RACCORDO
100
AcDbPolyline
 62
7
  6
CONTINUOUS
 90
12
 70
0
 10
157.801224812
 20
130.3671358349
 10
157.8012645206
 20
130.3701169169
 10
157.8006992332
 20
130.3900486468
 10
157.7987638203
 20
130.4101816835
 10
157.7955686142
 20
130.4304667414
 10
157.7911876361
 20
130.4506600259
 10
157.7857017267
 20
130.4707277957
 10
157.7792149193
 20
130.4906139772
 10
157.7718122538
 20
130.5100481828
 10
157.763584949
 20
130.5289230286
 10
157.754632782
 20
130.5472948007
 10
157.7450503726
 20
130.5651470165
  0
LINE
  5
26B
100
AcDbEntity
  8
RACCORDO
100
AcDbLine
 62
253
  6
CONTINUOUS
 10
157.7450503726
 20
130.5651470165
 11
157.7382216309
 21
130.2405524422
  0
LINE
  5
26C
100
AcDbEntity
  8
RACCORDO
100
AcDbLine
 62
253
  6
CONTINUOUS
 10
158.9437785115
 20
119.34053406
 11
158.7316464772
 21
129.6688948979
  0
LINE
  5
26D
100
AcDbEntity
  8
RACCORDO
100
AcDbLine
 62
253
  6
CONTINUOUS
 10
159.223267835
 20
119.5057643202
 11
159.0111358006
 21
129.8341251581
  0
LINE
  5
26E
100
AcDbEntity
  8
RACCORDO
100
AcDbLine
 62
253
  6
CONTINUOUS
 10
159.1559105459
 20
117.9933462668
 11
159.1559105459
 21
119.218051682
  0
LINE
  5
26F
100
AcDbEntity
  8
RACCORDO
100
AcDbLine
 62
253
  6
CONTINUOUS
 10
159.4387532584
 20
117.8300522115
 11
159.4387532584
 21
119.3813457374
  0
LINE
  5
270
100
AcDbEntity
  8
RACCORDO
100
AcDbLine
 62
253
  6
CONTINUOUS
 10
159.1559173799
 20
117.9933581029
 11
159.4387532584
 21
117.8300522115
  0
LINE
  5
271
100
AcDbEntity
  8
0
100
AcDbLine
 62
7
  6
CONTINUOUS
 10
141.6428779096
 20
128.5123216764
 11
145.6976661662
 21
126.1711377555
  0
LINE
  5
272
100
AcDbEntity
  8
RACCORDO
100
AcDbLine
 62
253
  6
CONTINUOUS
 10
159.1559105459
 20
119.218051682
 11
158.9437785115
 21
119.34053406
  0
LWPOLYLINE
  5
273
100
AcDbEntity
  8
RACCORDO
100
AcDbPolyline
 62
7
  6
CONTINUOUS
 90
11
 70
0
 10
159.2978111836
 20
117.9790514615
 10
159.3154965288
 20
117.9678996239
 10
159.3319627876
 20
117.9559149063
 10
159.3478109161
 20
117.9427023584
 10
159.3630617568
 20
117.9285647348
 10
159.3776677001
 20
117.9135502385
 10
159.3915314105
 20
117.8977177494
 10
159.404610146
 20
117.8813717039
 10
159.4168630468
 20
117.8646500328
 10
159.4282521353
 20
117.8475253426
 10
159.4387532584
 20
117.8300522115
  0
LWPOLYLINE
  5
274
100
AcDbEntity
  8
0
100
AcDbPolyline
 62
7
  6
CONTINUOUS
 90
12
 70
0
 10
150.9070926335
 20
126.2942644346
 10
150.8330877099
 20
126.441116017
 10
150.7119148347
 20
126.7061757185
 10
150.6021837327
 20
126.9734566562
 10
150.5037496907
 20
127.2429307364
 10
150.4178682692
 20
127.5111607231
 10
150.3447002649
 20
127.7781306799
 10
150.2840848811
 20
128.0438565433
 10
150.2367952882
 20
128.3049488873
 10
150.2030892096
 20
128.5602779032
 10
150.1827089218
 20
128.8109733998
 10
150.1756544248
 20
129.057035377
  0
LWPOLYLINE
  5
275
100
AcDbEntity
  8
RACCORDO
100
AcDbPolyline
 62
7
  6
CONTINUOUS
 90
25
 70
0
 10
160.428702752
 20
134.1594025104
 10
160.4247835871
 20
134.2961036089
 10
160.413461205
 20
134.4353788847
 10
160.3947356057
 20
134.577228338
 10
160.3684636096
 20
134.7222796403
 10
160.3347883964
 20
134.8699051199
 10
160.2941395052
 20
135.0182217626
 10
160.2464276043
 20
135.1672384219
 10
160.1917420254
 20
135.3169462442
 10
160.1307803021
 20
135.465435654
 10
160.0634620381
 20
135.6126910438
 10
159.9898676296
 20
135.758728021
 10
159.9109357991
 20
135.9016838333
 10
159.826598175
 20
136.0415190115
 10
159.7369231289
 20
136.1782730246
 10
159.643054497
 20
136.3102015276
 10
159.5449385606
 20
136.4372427067
 10
159.4426290384
 20
136.5594583756
 10
159.3374309242
 20
136.675289631
 10
159.2293072157
 20
136.7846546897
 10
159.1182949152
 20
136.8876353349
 10
159.0058100232
 20
136.9829180125
 10
158.8923245399
 20
137.0700648711
 10
158.7773664652
 20
137.1495137622
 10
158.6609357991
 20
137.2212646857
  0
LINE
  5
276
100
AcDbEntity
  8
RACCORDO
100
AcDbLine
 62
7
  6
CONTINUOUS
 10
160.428702752
 20
108.0323536531
 11
160.428702752
 21
134.1594025104
  0
LINE
  5
277
100
AcDbEntity
  8
RACCORDO
100
AcDbLine
 62
7
  6
CONTINUOUS
 10
162.9035764862
 20
109.4613147297
 11
162.9035764862
 21
135.5883635871
  0
LWPOLYLINE
  5
278
100
AcDbEntity
  8
RACCORDO
100
AcDbPolyline
 62
7
  6
CONTINUOUS
 90
13
 70
0
 10
162.9035764862
 20
109.4613147297
 10
162.8996573212
 20
109.3291393847
 10
162.8883349391
 20
109.2029389119
 10
162.8696093399
 20
109.0827133112
 10
162.8433373438
 20
108.9680002516
 10
162.8096621306
 20
108.859262064
 10
162.7690132393
 20
108.7578857421
 10
162.7213013385
 20
108.6639655899
 10
162.6666157596
 20
108.5774073034
 10
162.6056540362
 20
108.4993149636
 10
162.5383357722
 20
108.4297970178
 10
162.4647413638
 20
108.3687450187
 10
162.3858695465
 20
108.3169723534
  0
LWPOLYLINE
  5
279
100
AcDbEntity
  8
0
100
AcDbPolyline
 62
7
  6
CONTINUOUS
 90
10
 70
0
 10
141.6428779096
 20
128.5123216764
 10
141.2248451933
 20
128.6274595793
 10
140.7995728741
 20
128.7300228933
 10
140.3670609519
 20
128.8200116183
 10
139.9262018545
 20
128.8975865795
 10
139.4781031543
 20
128.9625869518
 10
139.0260875675
 20
129.0145302601
 10
138.5712626663
 20
129.0532556794
 10
138.1125208786
 20
129.0789240347
 10
137.6498622043
 20
129.0915353261
  0
LINE
  5
27A
100
AcDbEntity
  8
RACCORDO
100
AcDbLine
 62
253
  6
CONTINUOUS
 10
159.4387532584
 20
119.3813457374
 11
159.223267835
 21
119.5057643202
  0
LWPOLYLINE
  5
27B
100
AcDbEntity
  8
0
100
AcDbPolyline
 62
7
  6
CONTINUOUS
 90
12
 70
0
 10
153.3819663676
 20
127.7232255112
 10
153.3079614441
 20
127.8700770936
 10
153.1867885689
 20
128.1351367952
 10
153.0770574669
 20
128.4024177329
 10
152.9786234249
 20
128.671891813
 10
152.8927420033
 20
128.9401217998
 10
152.8195739991
 20
129.2070917565
 10
152.7589586153
 20
129.4728176199
 10
152.7116690223
 20
129.7339099639
 10
152.6779629437
 20
129.9892389799
 10
152.6575826559
 20
130.2399344764
 10
152.650528159
 20
130.4859964536
  0
LWPOLYLINE
  5
27C
100
AcDbEntity
  8
ASSI
100
AcDbPolyline
 62
7
  6
CONTINUOUS
 90
22
 70
0
 10
135.4551288659
 20
128.9674926643
 10
134.9785777608
 20
128.8990218487
 10
134.5114776011
 20
128.816708847
 10
134.053828387
 20
128.7205536594
 10
133.6044086588
 20
128.6102113795
 10
133.1644398761
 20
128.4860269136
 10
132.7375864181
 20
128.3490349805
 10
132.3239578692
 20
128.1991286309
 10
131.9234446451
 20
128.0364148142
 10
131.5393823715
 20
127.8622490964
 10
131.1719084805
 20
127.6765358538
 10
130.8208855401
 20
127.4793707102
 10
130.4892368802
 20
127.2723961033
 10
130.1771243363
 20
127.0555301288
 10
129.8843860729
 20
126.8288546909
 10
129.6134599131
 20
126.59425794
 10
129.3645280414
 20
126.351673742
 10
129.1374082734
 20
126.1011682311
 10
128.933991879
 20
125.8448279603
 10
128.7544768277
 20
125.5826042209
 10
128.59866515
 20
125.3145457217
 10
128.5450807792
 20
125.2098723082
  0
LWPOLYLINE
  5
27D
100
AcDbEntity
  8
0
100
AcDbPolyline
 62
7
  6
CONTINUOUS
 90
11
 70
0
 10
153.3576349402
 20
135.0170908504
 10
153.4697598836
 20
134.9577905049
 10
153.5797540075
 20
134.9097026189
 10
153.6876173118
 20
134.8728271922
 10
153.7940187913
 20
134.8470709127
 10
153.8982894512
 20
134.8325270925
 10
153.9984223075
 20
134.8294756688
 10
154.0943372021
 20
134.8381392735
 10
154.1861142931
 20
134.8582952747
 10
154.2719870705
 20
134.889555713
 10
154.332422694
 20
134.9204365958
  0
LINE
  5
27E
100
AcDbEntity
  8
RACCORDO
100
AcDbLine
 62
253
  6
CONTINUOUS
 10
158.7316464772
 20
129.6688948979
 11
157.7416969835
 21
130.2404793286
  0
LINE
  5
27F
100
AcDbEntity
  8
RACCORDO
100
AcDbLine
 62
253
  6
CONTINUOUS
 10
148.6907301843
 20
135.4663941232
 11
147.7007806907
 21
136.0379785538
  0
LINE
  5
280
100
AcDbEntity
  8
RACCORDO
100
AcDbLine
 62
253
  6
CONTINUOUS
 10
159.0111358006
 20
129.8341251581
 11
157.7450503726
 21
130.5651470165
  0
LINE
  5
281
100
AcDbEntity
  8
RACCORDO
100
AcDbLine
 62
253
  6
CONTINUOUS
 10
148.9702195077
 20
135.6316243834
 11
147.7041340797
 21
136.3626462417
  0
LWPOLYLINE
  5
282
100
AcDbEntity
  8
0
100
AcDbPolyline
 62
7
  6
CONTINUOUS
 90
44
 70
0
 10
146.8168972142
 20
75.0663502631
 10
146.2835999714
 20
74.7752739975
 10
145.7269676226
 20
74.5030683997
 10
145.1470001675
 20
74.2497334697
 10
144.5417983795
 20
74.0146157818
 10
143.9132614853
 20
73.7983687616
 10
143.2670871657
 20
73.6029526863
 10
142.603115053
 20
73.4285569605
 10
141.9215055148
 20
73.2749921795
 10
141.2284373348
 20
73.1436504066
 10
140.5238063257
 20
73.0347337037
 10
139.8077166749
 20
72.9480400089
 10
139.0866597278
 20
72.8843551996
 10
138.3605903195
 20
72.8438884833
 10
137.629553615
 20
72.8264306526
 10
136.9001764547
 20
72.8321399625
 10
136.1724739279
 20
72.8612270594
 10
135.4464309453
 20
72.9134812969
 10
134.7286290794
 20
72.9884289908
 10
134.0191432621
 20
73.0862764807
 10
133.3178985614
 20
73.2068174271
 10
132.6312517535
 20
73.3489591274
 10
131.9593355693
 20
73.5128979858
 10
131.3020172779
 20
73.6984375982
 10
130.665255463
 20
73.9038960498
 10
130.0492370338
 20
74.1294544521
 10
129.4537750812
 20
74.3749316936
 10
128.8842674618
 20
74.6381025256
 10
128.3409501645
 20
74.9191278264
 10
127.8235872005
 20
75.2178467178
 10
127.3368684598
 20
75.5315513159
 10
126.881072574
 20
75.8603778777
 10
126.4559209116
 20
76.2041901462
 10
126.0652674681
 20
76.5598714667
 10
125.7094259173
 20
76.9275297581
 10
125.3880825855
 20
77.3070571015
 10
125.1041504468
 20
77.6950130851
 10
124.857969661
 20
78.0914743463
 10
124.6492000683
 20
78.4963642478
 10
124.4797341629
 20
78.9060124668
 10
124.3499293122
 20
79.320462268
 10
124.2594281488
 20
79.7396703867
 10
124.2090510648
 20
80.1598367054
 10
124.1978625925
 20
80.4754473344
  0
LWPOLYLINE
  5
283
100
AcDbEntity
  8
0
100
AcDbPolyline
 62
7
  6
CONTINUOUS
 90
11
 70
0
 10
153.3576349402
 20
138.2013249299
 10
153.2455099967
 20
138.2606252753
 10
153.1355158728
 20
138.3087131614
 10
153.0276525685
 20
138.345588588
 10
152.921251089
 20
138.3713448676
 10
152.8169804291
 20
138.3858886877
 10
152.7168475728
 20
138.3889401115
 10
152.6209326782
 20
138.3802765067
 10
152.5291555872
 20
138.3601205055
 10
152.4432828098
 20
138.3288600673
 10
152.3828471864
 20
138.2979791844
  0
LWPOLYLINE
  5
284
100
AcDbEntity
  8
RACCORDO
100
AcDbPolyline
 62
7
  6
CONTINUOUS
 90
13
 70
0
 10
148.0543340813
 20
143.3453835856
 10
147.9379034151
 20
143.408083877
 10
147.8229453404
 20
143.461385689
 10
147.7094598572
 20
143.5052890218
 10
147.5969749652
 20
143.539901078
 10
147.4859626646
 20
143.5651146549
 10
147.3778389561
 20
143.5806081446
 10
147.2726408419
 20
143.5862570345
 10
147.1703313198
 20
143.5821858372
 10
147.0722153833
 20
143.5684464823
 10
146.9783467515
 20
143.5449151224
 10
146.8886717053
 20
143.5117156048
 10
146.804274068
 20
143.4692367533
  0
LINE
  5
285
100
AcDbEntity
  8
RACCORDO
100
AcDbLine
 62
7
  6
CONTINUOUS
 10
158.6609357991
 20
137.2212646857
 11
148.0543340813
 21
143.3453835856
  0
LINE
  5
286
100
AcDbEntity
  8
RACCORDO
100
AcDbLine
 62
7
  6
CONTINUOUS
 10
161.1358095332
 20
138.6502257624
 11
150.5292078154
 21
144.7743446623
  0
LWPOLYLINE
  5
287
100
AcDbEntity
  8
RACCORDO
100
AcDbPolyline
 62
7
  6
CONTINUOUS
 90
25
 70
0
 10
161.1358095332
 20
138.6502257624
 10
161.2522401994
 20
138.5784748389
 10
161.3671982741
 20
138.4990259478
 10
161.4806837573
 20
138.4118790891
 10
161.5931686493
 20
138.3165964115
 10
161.7041809499
 20
138.2136157664
 10
161.8123046584
 20
138.1042507077
 10
161.9175027726
 20
137.9884194523
 10
162.0198122947
 20
137.8662037833
 10
162.1179282312
 20
137.7391626043
 10
162.211796863
 20
137.6072341012
 10
162.3014719092
 20
137.4704800881
 10
162.3858095332
 20
137.33064491
 10
162.4647413638
 20
137.1876890977
 10
162.5383357722
 20
137.0416521204
 10
162.6056540362
 20
136.8943967307
 10
162.6666157596
 20
136.7459073208
 10
162.7213013385
 20
136.5961994985
 10
162.7690132393
 20
136.4471828392
 10
162.8096621306
 20
136.2988661966
 10
162.8433373438
 20
136.1512407169
 10
162.8696093399
 20
136.0061894147
 10
162.8883349391
 20
135.8643399614
 10
162.8996573212
 20
135.7250646855
 10
162.9035764862
 20
135.5883635871
  0
ENDSEC
  0
SECTION
  2
OBJECTS
  0
DICTIONARY
  5
C
100
AcDbDictionary
280
0
281
1
  3
ACAD_GROUP
350
D
  3
ACAD_MLINESTYLE
350
17
  3
ACAD_LAYOUT
350
1A
  3
ACAD_PLOTSETTINGS
350
19
  3
ACAD_PLOTSTYLENAME
350
E
  0
DICTIONARY
  5
D
102
{ACAD_REACTORS
330
C
102
}
100
AcDbDictionary
280
0
281
1
  0
ACDBDICTIONARYWDFLT
  5
E
102
{ACAD_REACTORS
330
C
102
}
100
AcDbDictionary
281
1
  3
Normal
350
F
100
AcDbDictionaryWithDefault
340
F
  0
DICTIONARY
  5
17
102
{ACAD_REACTORS
330
C
102
}
100
AcDbDictionary
280
0
281
1
  3
Standard
350
18
  0
DICTIONARY
  5
19
102
{ACAD_REACTORS
330
C
102
}
100
AcDbDictionary
281
1
  0
DICTIONARY
  5
1A
102
{ACAD_REACTORS
330
C
102
}
100
AcDbDictionary
281
1
  3
Model
350
288
  3
Layout1
350
289
  0
ACDBPLACEHOLDER
  5
F
102
{ACAD_REACTORS
330
E
102
}
  0
MLINESTYLE
  5
18
102
{ACAD_REACTORS
330
17
102
}
100
AcDbMlineStyle
  2
STANDARD
 70
0
  3

 62
256
 51
90.0
 52
90.0
 71
2
 49
0.5
 62
256
  6
BYLAYER
 49
-0.5
 62
256
  6
BYLAYER
  0
LAYOUT
  5
288
102
{ACAD_REACTORS
330
1A
102
}
100
AcDbPlotSettings
  1

  2
none_device
  4
ISO_A4_(297.00_x_210.00_MM)
  6

 40
0.0
 41
0.0
 42
0.0
 43
0.0
 44
297.0
 45
210.0
 46
0.0
 47
0.0
 48
0.0
 49
0.0
140
0.0
141
0.0
142
1.0
143
1.0
 70
1024
 72
1
 73
0
 74
0
  7

 75
0
147
1.0
148
0.0
149
0.0
100
AcDbLayout
  1
Model
 70
0
 71
0
 10
0.0
 20
0.0
 11
297.0
 21
210.0
 12
0.0
 22
0.0
 32
0.0
 14
0.0
 24
0.0
 34
0.0
 15
0.0
 25
0.0
 35
0.0
146
0.0
 13
0.0
 23
0.0
 33
0.0
 16
1.0
 26
0.0
 36
0.0
 17
0.0
 27
1.0
 37
0.0
 76
0
330
20F
345
0
346
0
  0
LAYOUT
  5
289
102
{ACAD_REACTORS
330
1A
102
}
100
AcDbPlotSettings
  1

  2
none_device
  4
ISO_A4_(297.00_x_210.00_MM)
  6

 40
0.0
 41
0.0
 42
0.0
 43
0.0
 44
297.0
 45
210.0
 46
0.0
 47
0.0
 48
0.0
 49
0.0
140
0.0
141
0.0
142
1.0
143
1.0
 70
0
 72
1
 73
0
 74
0
  7

 75
0
147
1.0
148
0.0
149
0.0
100
AcDbLayout
  1
Layout1
 70
0
 71
1
 10
0.0
 20
0.0
 11
297.0
 21
210.0
 12
0.0
 22
0.0
 32
0.0
 14
0.0
 24
0.0
 34
0.0
 15
0.0
 25
0.0
 35
0.0
146
0.0
 13
0.0
 23
0.0
 33
0.0
 16
1.0
 26
0.0
 36
0.0
 17
0.0
 27
1.0
 37
0.0
 76
0
330
210
345
0
346
0
  0
ENDSEC
  0
EOF
