  0
SECTION
  2
HEADER
  9
$ACADVER
  1
AC1024
  9
$DWGCODEPAGE
  3
ANSI_1252
  9
$EXTMAX
 10
558.8
 20
431.8
 30
0.0
  9
$EXTMIN
 10
0.0
 20
0.0
 30
0.0
  9
$LIMMIN
 10
0.0
 20
0.0
  9
$LIMMAX
 10
558.8
 20
431.8
  9
$VIEWCTR
 10
279.4
 20
215.9
  9
$VIEWSIZE
 40
431.8
  9
$CLAYER
  8
0
  9
$LTSCALE
 40
30.734
  9
$CELTYPE
  6
BYLAYER
  9
$DIMSCALE
 40
1.0
  9
$DIMASZ
 40
3.0
  9
$DIMEXO
 40
0.5
  9
$DIMDLI
 40
21.2344
  9
$DIMEXE
 40
1.5
  9
$DIMCEN
 40
5.0292
  9
$DIMLFAC
 40
1.0
  9
$DIMBLK
  1
_FILLED
  9
$DIMALT
 70
0
  9
$DIMALTF
 40
0.0393700787
  9
$DIMTXT
 40
3.0
  9
$DIMTOL
 70
1
  9
$DIMLIM
 70
0
  9
$DIMTFAC
 40
1.0
  9
$DIMTP
 40
0.01
  9
$DIMTM
 40
0.01
  9
$DIMGAP
 40
0.625
  9
$DIMDSEP
 70
44
  9
$AUNITS
 70
0
  9
$PDMODE
 70
3
  9
$PDSIZE
 40
3.0
  9
$HANDSEED
  5
24D
  9
$TILEMODE
 70
1
  9
$MEASUREMENT
 70
1
  9
$INSUNITS
 70
4
  0
ENDSEC
  0
SECTION
  2
CLASSES
  0
CLASS
  1
ACDBDICTIONARYWDFLT
  2
AcDbDictionaryWithDefault
  3
AutoCAD 2000
 90
0
 91
1
280
0
281
0
  0
CLASS
  1
ACDBPLACEHOLDER
  2
AcDbPlaceHolder
  3
AutoCAD 2000
 90
0
 91
1
280
0
281
0
  0
CLASS
  1
LAYOUT
  2
AcDbLayout
  3
AutoCAD 2000
 90
0
 91
0
280
0
281
0
  0
ENDSEC
  0
SECTION
  2
TABLES
  0
TABLE
  2
VPORT
  5
8
100
AcDbSymbolTable
 70
2
  0
VPORT
  5
1F4
100
AcDbSymbolTableRecord
100
AcDbViewportTableRecord
  2
*ACTIVE
 70
0
 10
0.0
 20
0.0
 11
1.0
 21
1.0
 12
279.4
 22
215.9
 13
0.0
 23
0.0
 14
1.0
 24
1.0
 15
0.0
 25
0.0
 16
0.0
 26
0.0
 36
1.0
 17
0.0
 27
0.0
 37
0.0
 40
431.8
 41
1.2941176471
 42
50.0
 43
0.0
 44
0.0
 50
0.0
 51
0.0
 71
0
 72
100
 73
1
 74
1
 75
0
 76
0
 77
0
 78
0
  0
ENDTAB
  0
TABLE
  2
LTYPE
  5
5
100
AcDbSymbolTable
 70
6
  0
LTYPE
  5
14
100
AcDbSymbolTableRecord
100
AcDbLinetypeTableRecord
  2
BYBLOCK
 70
0
  3

 72
65
 73
0
 40
0.0
  0
LTYPE
  5
15
100
AcDbSymbolTableRecord
100
AcDbLinetypeTableRecord
  2
BYLAYER
 70
0
  3

 72
65
 73
0
 40
0.0
  0
LTYPE
  5
16
100
AcDbSymbolTableRecord
100
AcDbLinetypeTableRecord
  2
CONTINUOUS
 70
64
  3
Solid line
 72
65
 73
0
 40
0.0
  0
LTYPE
  5
1F5
100
AcDbSymbolTableRecord
100
AcDbLinetypeTableRecord
  2
CENTER
 70
64
  3
____ _ ____ _ ____ _ ____ _ ____ _ ____ _ ____
 72
65
 73
4
 40
0.6
 49
0.375
 74
0
 49
-0.075
 74
0
 49
0.075
 74
0
 49
-0.075
 74
0
  0
LTYPE
  5
1F6
100
AcDbSymbolTableRecord
100
AcDbLinetypeTableRecord
  2
HIDDEN
 70
64
  3
- - - - - - - - - - - - - - - - - - - -
 72
65
 73
2
 40
0.2
 49
0.1
 74
0
 49
-0.1
 74
0
  0
LTYPE
  5
1F7
100
AcDbSymbolTableRecord
100
AcDbLinetypeTableRecord
  2
PHANTOM
 70
64
  3
_____ _ _ _____ _ _ _____ _ _ _____
 72
65
 73
6
 40
0.8
 49
0.45
 74
0
 49
-0.05
 74
0
 49
0.1
 74
0
 49
-0.05
 74
0
 49
0.1
 74
0
 49
-0.05
 74
0
  0
LTYPE
  5
1F8
100
AcDbSymbolTableRecord
100
AcDbLinetypeTableRecord
  2
DOT
 70
64
  3
. . . . . . . . . . . . . . . . . . . .
 72
65
 73
2
 40
0.2
 49
0.1
 74
0
 49
-0.1
 74
0
  0
LTYPE
  5
1F9
100
AcDbSymbolTableRecord
100
AcDbLinetypeTableRecord
  2
DASHED
 70
64
  3
- - - - - - - - - - - - - - - - - - - -
 72
65
 73
2
 40
0.2
 49
0.1
 74
0
 49
-0.1
 74
0
  0
ENDTAB
  0
TABLE
  2
LAYER
  5
2
100
AcDbSymbolTable
 70
36
  0
LAYER
  5
10
100
AcDbSymbolTableRecord
100
AcDbLayerTableRecord
  2
0
 70
0
 62
7
  6
CONTINUOUS
370
-3
390
F
  0
LAYER
  5
1FA
100
AcDbSymbolTableRecord
100
AcDbLayerTableRecord
  2
DEFAULT_1
 70
0
 62
7
  6
CENTER
370
-3
390
F
  0
LAYER
  5
1FB
100
AcDbSymbolTableRecord
100
AcDbLayerTableRecord
  2
DEFAULT_2
 70
0
 62
7
  6
HIDDEN
370
-3
390
F
  0
LAYER
  5
1FC
100
AcDbSymbolTableRecord
100
AcDbLayerTableRecord
  2
DEFAULT_3
 70
0
 62
7
  6
PHANTOM
370
-3
390
F
  0
LAYER
  5
1FD
100
AcDbSymbolTableRecord
100
AcDbLayerTableRecord
  2
ASSI
 70
0
 62
7
  6
CONTINUOUS
370
-3
390
F
  0
LAYER
  5
1FE
100
AcDbSymbolTableRecord
100
AcDbLayerTableRecord
  2
COORDINATE
 70
0
 62
7
  6
CONTINUOUS
370
-3
390
F
  0
LAYER
  5
1FF
100
AcDbSymbolTableRecord
100
AcDbLayerTableRecord
  2
COPY_PUBLISH
 70
0
 62
7
  6
CONTINUOUS
370
-3
390
F
  0
LAYER
  5
200
100
AcDbSymbolTableRecord
100
AcDbLayerTableRecord
  2
COSMETICI
 70
0
 62
7
  6
CONTINUOUS
370
-3
390
F
  0
LAYER
  5
201
100
AcDbSymbolTableRecord
100
AcDbLayerTableRecord
  2
CURVE
 70
0
 62
7
  6
CONTINUOUS
370
-3
390
F
  0
LAYER
  5
202
100
AcDbSymbolTableRecord
100
AcDbLayerTableRecord
  2
DRAFT
 70
0
 62
7
  6
CONTINUOUS
370
-3
390
F
  0
LAYER
  5
203
100
AcDbSymbolTableRecord
100
AcDbLayerTableRecord
  2
IMPORT_IGES
 70
0
 62
7
  6
CONTINUOUS
370
-3
390
F
  0
LAYER
  5
204
100
AcDbSymbolTableRecord
100
AcDbLayerTableRecord
  2
NOTE
 70
0
 62
7
  6
CONTINUOUS
370
-3
390
F
  0
LAYER
  5
205
100
AcDbSymbolTableRecord
100
AcDbLayerTableRecord
  2
PIANI
 70
0
 62
7
  6
CONTINUOUS
370
-3
390
F
  0
LAYER
  5
206
100
AcDbSymbolTableRecord
100
AcDbLayerTableRecord
  2
PUNTI
 70
0
 62
7
  6
CONTINUOUS
370
-3
390
F
  0
LAYER
  5
207
100
AcDbSymbolTableRecord
100
AcDbLayerTableRecord
  2
RACCORDO
 70
0
 62
7
  6
CONTINUOUS
370
-3
390
F
  0
LAYER
  5
208
100
AcDbSymbolTableRecord
100
AcDbLayerTableRecord
  2
SIMBOLI
 70
0
 62
7
  6
CONTINUOUS
370
-3
390
F
  0
LAYER
  5
209
100
AcDbSymbolTableRecord
100
AcDbLayerTableRecord
  2
SMUSSO
 70
0
 62
7
  6
CONTINUOUS
370
-3
390
F
  0
LAYER
  5
20A
100
AcDbSymbolTableRecord
100
AcDbLayerTableRecord
  2
SUPERFICI
 70
0
 62
7
  6
CONTINUOUS
370
-3
390
F
  0
LAYER
  5
20B
100
AcDbSymbolTableRecord
100
AcDbLayerTableRecord
  2
TRASH
 70
0
 62
7
  6
CONTINUOUS
370
-3
390
F
  0
ENDTAB
  0
TABLE
  2
STYLE
  5
3
100
AcDbSymbolTable
 70
1
  0
STYLE
  5
11
100
AcDbSymbolTableRecord
100
AcDbTextStyleTableRecord
  2
STANDARD
 70
0
 40
0.0
 41
0.8
 50
0.0
 71
0
 42
0.2
  3
txt
  4

  0
STYLE
  5
20C
100
AcDbSymbolTableRecord
100
AcDbTextStyleTableRecord
  2
TEXTSTYLE_1
 70
0
 40
0.0
 41
0.8
 50
0.0
 71
0
 42
0.2
  3
gdt
  4

  0
ENDTAB
  0
TABLE
  2
VIEW
  5
6
100
AcDbSymbolTable
 70
0
  0
ENDTAB
  0
TABLE
  2
UCS
  5
7
100
AcDbSymbolTable
 70
0
  0
ENDTAB
  0
TABLE
  2
APPID
  5
9
100
AcDbSymbolTable
 70
1
  0
APPID
  5
20D
100
AcDbSymbolTableRecord
100
AcDbRegAppTableRecord
  2
ACAD
 70
0
  0
ENDTAB
  0
TABLE
  2
BLOCK_RECORD
  5
1
100
AcDbSymbolTable
 70
0
  0
BLOCK_RECORD
  5
20E
100
AcDbSymbolTableRecord
100
AcDbBlockTableRecord
  2
*Model_Space
  0
BLOCK_RECORD
  5
20F
100
AcDbSymbolTableRecord
100
AcDbBlockTableRecord
  2
*Paper_Space
  0
BLOCK_RECORD
  5
210
100
AcDbSymbolTableRecord
100
AcDbBlockTableRecord
  2
_FILLED
  0
ENDTAB
  0
TABLE
  2
DIMSTYLE
  5
A
100
AcDbSymbolTable
 70
1
100
AcDbDimStyleTable
 71
0
  0
DIMSTYLE
105
211
100
AcDbSymbolTableRecord
100
AcDbDimStyleTableRecord
  2
STANDARD
 70
0
  3

  4

 40
1.0
 41
3.0
 42
0.5
 43
0.38
 44
1.5
 45
0.0
 46
0.0
 47
0.01
 48
0.01
140
3.0
141
0.09
142
0.0
143
25.4
144
1.0
145
0.0
146
1.0
147
0.625
 71
1
 72
0
 73
0
 74
0
 75
0
 76
0
 77
1
 78
8
 79
2
170
0
171
1
172
0
173
0
174
0
175
0
176
0
177
0
178
0
270
2
179
2
271
2
272
2
273
2
274
2
275
0
280
0
281
0
282
0
283
1
284
8
285
0
286
0
287
3
288
0
340
11
278
44
341
210
342
210
343
210
344
210
  0
ENDTAB
  0
ENDSEC
  0
SECTION
  2
BLOCKS
  0
BLOCK
  5
20
100
AcDbEntity
  8
0
100
AcDbBlockBegin
  2
*Model_Space
 70
0
 10
0.0
 20
0.0
 30
0.0
  3
*Model_Space
  1

  0
ENDBLK
  5
21
100
AcDbEntity
  8
0
100
AcDbBlockEnd
  0
BLOCK
  5
1C
100
AcDbEntity
  8
0
100
AcDbBlockBegin
  2
*Paper_Space
 70
0
 10
0.0
 20
0.0
 30
0.0
  3
*Paper_Space
  1

  0
ENDBLK
  5
1D
100
AcDbEntity
  8
0
100
AcDbBlockEnd
  0
BLOCK
  5
212
100
AcDbEntity
  8
0
100
AcDbBlockBegin
  2
_FILLED
 70
64
 10
0.0
 20
0.0
  3
_FILLED
  1

  0
SOLID
  5
213
100
AcDbEntity
  8
0
  6
BYBLOCK
 62
0
100
AcDbTrace
 10
0.0
 20
0.0
 11
-1.0
 21
0.1333333333
 12
-1.0
 22
-0.1333333333
 13
-1.0
 23
-0.1333333333
  0
ENDBLK
  5
214
100
AcDbEntity
  8
0
  6
BYBLOCK
 62
0
100
AcDbBlockEnd
  0
ENDSEC
  0
SECTION
  2
ENTITIES
  0
LINE
  5
215
100
AcDbEntity
  8
RACCORDO
100
AcDbLine
 62
7
  6
CONTINUOUS
 10
-34.3199259541
 20
47.3691307879
 11
-27.2132034356
 21
51.4724633019
  0
LINE
  5
216
100
AcDbEntity
  8
RACCORDO
100
AcDbLine
 62
250
  6
CONTINUOUS
 10
-31.8198051534
 20
47.1214248995
 11
-27.2132034356
 21
49.781218997
  0
LINE
  5
217
100
AcDbEntity
  8
RACCORDO
100
AcDbLine
 62
7
  6
CONTINUOUS
 10
-31.8198051534
 20
-30.4432513959
 11
20.5060966544
 21
-60.6555713021
  0
LINE
  5
218
100
AcDbEntity
  8
RACCORDO
100
AcDbLine
 62
7
  6
CONTINUOUS
 10
-35.3553390593
 20
45.0804464821
 11
-35.3553390593
 21
-24.3195270453
  0
LINE
  5
219
100
AcDbEntity
  8
ASSI
100
AcDbLine
 62
7
  6
CONTINUOUS
 10
-27.2132034356
 20
47.5296994928
 11
-27.2132034356
 21
62.2261644751
  0
LINE
  5
21A
100
AcDbEntity
  8
ASSI
100
AcDbLine
 62
7
  6
CONTINUOUS
 10
-15.2132034356
 20
47.5296994928
 11
-15.2132034356
 21
62.2261644751
  0
LINE
  5
21B
100
AcDbEntity
  8
RACCORDO
100
AcDbLine
 62
250
  6
CONTINUOUS
 10
20.5060966544
 20
16.9091049932
 11
31.8198051534
 21
23.4414984865
  0
LINE
  5
21C
100
AcDbEntity
  8
RACCORDO
100
AcDbLine
 62
250
  6
CONTINUOUS
 10
24.0416305603
 20
10.7853806426
 11
35.3553390593
 21
17.3177741358
  0
LINE
  5
21D
100
AcDbEntity
  8
ASSI
100
AcDbLine
 62
7
  6
CONTINUOUS
 10
16.6776695297
 20
-58.4450854617
 11
16.6776695297
 21
-64.7371335874
  0
LINE
  5
21E
100
AcDbEntity
  8
ASSI
100
AcDbLine
 62
7
  6
CONTINUOUS
 10
18.6776695297
 20
-59.5998603959
 11
18.6776695297
 21
-64.7371335874
  0
LINE
  5
21F
100
AcDbEntity
  8
ASSI
100
AcDbLine
 62
7
  6
CONTINUOUS
 10
18.7989898732
 20
-59.6699092417
 11
18.7989898732
 21
-65.9619573674
  0
LINE
  5
220
100
AcDbEntity
  8
ASSI
100
AcDbLine
 62
7
  6
CONTINUOUS
 10
20.7989898732
 20
-60.8097300086
 11
20.7989898732
 21
-65.9619573674
  0
LINE
  5
221
100
AcDbEntity
  8
RACCORDO
100
AcDbLine
 62
7
  6
CONTINUOUS
 10
24.0416305603
 20
-58.6145928848
 11
24.0416305603
 21
10.7853806426
  0
LINE
  5
222
100
AcDbEntity
  8
RACCORDO
100
AcDbLine
 62
7
  6
CONTINUOUS
 10
20.5060966544
 20
16.9091049932
 11
-31.8198051534
 21
47.1214248995
  0
LINE
  5
223
100
AcDbEntity
  8
RACCORDO
100
AcDbLine
 62
7
  6
CONTINUOUS
 10
35.3553390593
 20
-52.0821993915
 11
35.3553390593
 21
17.3177741358
  0
LINE
  5
224
100
AcDbEntity
  8
RACCORDO
100
AcDbLine
 62
7
  6
CONTINUOUS
 10
31.8198051534
 20
23.4414984865
 11
-15.2132034356
 21
50.5977681837
  0
LINE
  5
225
100
AcDbEntity
  8
RACCORDO
100
AcDbLine
 62
250
  6
CONTINUOUS
 10
24.0416305603
 20
-58.6145928848
 11
35.3553390593
 21
-52.0821993915
  0
LINE
  5
226
100
AcDbEntity
  8
RACCORDO
100
AcDbLine
 62
7
  6
CONTINUOUS
 10
23.0062174551
 20
-60.9032771905
 11
34.3199259541
 21
-54.3708836973
  0
SPLINE
  5
227
100
AcDbEntity
  8
ASSI
100
AcDbSpline
 62
7
  6
CONTINUOUS
 70
0
 71
3
 72
11
 73
7
 74
0
 42
0.0000001
 43
0.0000001
 44
0.0000000001
 40
0.0
 40
0.0
 40
0.0
 40
0.0
 40
0.2177822496
 40
0.4509432044
 40
0.7102335186
 40
1.0
 40
1.0
 40
1.0
 40
1.0
 10
18.6776638505
 20
-64.7371335875
 30
0.0
 10
18.6776641262
 20
-64.7752241323
 30
0.0
 10
18.66359977
 20
-64.8546257373
 30
0.0
 10
18.603407306
 20
-64.9652304304
 30
0.0
 10
18.5082847193
 20
-65.0652481468
 30
0.0
 10
18.4286664026
 20
-65.1200665919
 30
0.0
 10
18.3847763109
 20
-65.1454081808
 30
0.0
  0
SPLINE
  5
228
100
AcDbEntity
  8
ASSI
100
AcDbSpline
 62
7
  6
CONTINUOUS
 70
0
 71
3
 72
11
 73
7
 74
0
 42
0.0000001
 43
0.0000001
 44
0.0000000001
 40
0.0
 40
0.0
 40
0.0
 40
0.0
 40
0.2177822496
 40
0.4509432044
 40
0.7102335186
 40
1.0
 40
1.0
 40
1.0
 40
1.0
 10
20.798984194
 20
-65.9619573674
 30
0.0
 10
20.7989844698
 20
-66.0000479123
 30
0.0
 10
20.7849201136
 20
-66.0794495173
 30
0.0
 10
20.7247276495
 20
-66.1900542104
 30
0.0
 10
20.6296050628
 20
-66.2900719268
 30
0.0
 10
20.5499867462
 20
-66.3448903718
 30
0.0
 10
20.5060966544
 20
-66.3702319608
 30
0.0
  0
SPLINE
  5
229
100
AcDbEntity
  8
RACCORDO
100
AcDbSpline
 62
7
  6
CONTINUOUS
 70
0
 71
3
 72
12
 73
8
 74
0
 42
0.0000001
 43
0.0000001
 44
0.0000000001
 40
0.0
 40
0.0
 40
0.0
 40
0.0
 40
0.2895877311
 40
0.5486317056
 40
0.7816353168
 40
0.8918373169
 40
1.0
 40
1.0
 40
1.0
 40
1.0
 10
35.3553390593
 20
-52.0821993915
 30
0.0
 10
35.3553390593
 20
-52.3356060718
 30
0.0
 10
35.3169489566
 20
-52.8174122667
 30
0.0
 10
35.1221329458
 20
-53.4790035255
 30
0.0
 10
34.8421969753
 20
-53.9354822524
 30
0.0
 10
34.5594835845
 20
-54.213556852
 30
0.0
 10
34.4018901217
 20
-54.3235525696
 30
0.0
 10
34.3199231213
 20
-54.3708792651
 30
0.0
  0
SPLINE
  5
22A
100
AcDbEntity
  8
RACCORDO
100
AcDbSpline
 62
7
  6
CONTINUOUS
 70
0
 71
3
 72
15
 73
11
 74
0
 42
0.0000001
 43
0.0000001
 44
0.0000000001
 40
0.0
 40
0.0
 40
0.0
 40
0.0
 40
0.1141595938
 40
0.2373294152
 40
0.3669808789
 40
0.5000060513
 40
0.6330303822
 40
0.7626793873
 40
0.8858453358
 40
1.0
 40
1.0
 40
1.0
 40
1.0
 10
31.8198051534
 20
23.4414984865
 30
0.0
 10
32.0618462243
 20
23.3017470056
 30
0.0
 10
32.5399080735
 20
22.966614918
 30
0.0
 10
33.1976923699
 20
22.3511804474
 30
0.0
 10
33.803884217
 20
21.6237158864
 30
0.0
 10
34.3356374454
 20
20.8114799526
 30
0.0
 10
34.7731754029
 20
19.9448556848
 30
0.0
 10
35.1000740378
 20
19.0561614062
 30
0.0
 10
35.30415002
 20
18.1788111645
 30
0.0
 10
35.3553390593
 20
17.5972515237
 30
0.0
 10
35.3553390593
 20
17.3177741358
 30
0.0
  0
SPLINE
  5
22B
100
AcDbEntity
  8
RACCORDO
100
AcDbSpline
 62
7
  6
CONTINUOUS
 70
0
 71
3
 72
11
 73
7
 74
0
 42
0.0000001
 43
0.0000001
 44
0.0000000001
 40
0.0
 40
0.0
 40
0.0
 40
0.0
 40
0.2550797736
 40
0.5043596485
 40
0.7520216701
 40
1.0
 40
1.0
 40
1.0
 40
1.0
 10
-25.0416788806
 20
65.5912857573
 30
0.0
 10
-25.3499812973
 20
65.4132758058
 30
0.0
 10
-25.929344057
 20
65.0035204272
 30
0.0
 10
-26.6350978559
 20
64.2124511001
 30
0.0
 10
-27.1029552941
 20
63.2685989857
 30
0.0
 10
-27.2132034356
 20
62.5722560289
 30
0.0
 10
-27.2132034356
 20
62.2261644751
 30
0.0
  0
SPLINE
  5
22C
100
AcDbEntity
  8
RACCORDO
100
AcDbSpline
 62
7
  6
CONTINUOUS
 70
0
 71
3
 72
12
 73
8
 74
0
 42
0.0000001
 43
0.0000001
 44
0.0000000001
 40
0.0
 40
0.0
 40
0.0
 40
0.0
 40
0.289593209
 40
0.5486391981
 40
0.781640531
 40
0.8918401447
 40
1.0
 40
1.0
 40
1.0
 40
1.0
 10
20.5060966544
 20
-60.6555713021
 30
0.0
 10
20.7255867026
 20
-60.7823021051
 30
0.0
 10
21.1621040837
 20
-60.990003797
 30
0.0
 10
21.8325689541
 20
-61.152122244
 30
0.0
 10
22.36793832
 20
-61.1379287872
 30
0.0
 10
22.7501632601
 20
-61.0321055625
 30
0.0
 10
22.9242375109
 20
-60.9506052919
 30
0.0
 10
23.0062146223
 20
-60.9032727584
 30
0.0
  0
SPLINE
  5
22D
100
AcDbEntity
  8
RACCORDO
100
AcDbSpline
 62
7
  6
CONTINUOUS
 70
0
 71
3
 72
15
 73
11
 74
0
 42
0.0000001
 43
0.0000001
 44
0.0000000001
 40
0.0
 40
0.0
 40
0.0
 40
0.0
 40
0.1141546642
 40
0.2373206127
 40
0.3669696178
 40
0.4999939487
 40
0.6330191211
 40
0.7626705848
 40
0.8858404062
 40
1.0
 40
1.0
 40
1.0
 40
1.0
 10
-35.3553390593
 20
-24.3195270453
 30
0.0
 10
-35.3553390593
 20
-24.5990044331
 30
0.0
 10
-35.30415002
 20
-25.1805640739
 30
0.0
 10
-35.1000740378
 20
-26.0579143156
 30
0.0
 10
-34.7731754029
 20
-26.9466085942
 30
0.0
 10
-34.3356374454
 20
-27.813232862
 30
0.0
 10
-33.803884217
 20
-28.6254687958
 30
0.0
 10
-33.1976923699
 20
-29.3529333568
 30
0.0
 10
-32.5399080735
 20
-29.9683678274
 30
0.0
 10
-32.0618462243
 20
-30.303499915
 30
0.0
 10
-31.8198051534
 20
-30.4432513959
 30
0.0
  0
SPLINE
  5
22E
100
AcDbEntity
  8
ASSI
100
AcDbSpline
 62
7
  6
CONTINUOUS
 70
0
 71
3
 72
17
 73
13
 74
0
 42
0.0000001
 43
0.0000001
 44
0.0000000001
 40
0.0
 40
0.0
 40
0.0
 40
0.0
 40
0.1286786404
 40
0.270270774
 40
0.4174275092
 40
0.5617757419
 40
0.6954482048
 40
0.8127142031
 40
0.8646788605
 40
0.9125123007
 40
0.9571409966
 40
1.0
 40
1.0
 40
1.0
 40
1.0
 10
-27.9307178569
 20
38.7523875602
 30
0.0
 10
-27.9307178569
 20
39.0515329008
 30
0.0
 10
-28.0144197815
 20
39.6805584843
 30
0.0
 10
-28.3267710096
 20
40.6041734401
 30
0.0
 10
-28.8081680432
 20
41.4939194803
 30
0.0
 10
-29.4198165983
 20
42.2768384434
 30
0.0
 10
-30.1117836459
 20
42.8896734535
 30
0.0
 10
-30.7380929671
 20
43.2321320677
 30
0.0
 10
-31.2280183192
 20
43.3624868276
 30
0.0
 10
-31.5652061993
 20
43.3872823691
 30
0.0
 10
-31.8791830716
 20
43.3412713298
 30
0.0
 10
-32.0693903841
 20
43.2622093072
 30
0.0
 10
-32.1556764998
 20
43.2123885262
 30
0.0
  0
SPLINE
  5
22F
100
AcDbEntity
  8
ASSI
100
AcDbSpline
 62
7
  6
CONTINUOUS
 70
0
 71
3
 72
17
 73
13
 74
0
 42
0.0000001
 43
0.0000001
 44
0.0000000001
 40
0.0
 40
0.0
 40
0.0
 40
0.0
 40
0.1286786404
 40
0.270270774
 40
0.4174275092
 40
0.5617757419
 40
0.6954482048
 40
0.8127142031
 40
0.8646788605
 40
0.9125123007
 40
0.9571409966
 40
1.0
 40
1.0
 40
1.0
 40
1.0
 10
21.5667568262
 20
10.1731660273
 30
0.0
 10
21.5667568262
 20
10.4723113679
 30
0.0
 10
21.4830549016
 20
11.1013369513
 30
0.0
 10
21.1707036734
 20
12.0249519072
 30
0.0
 10
20.6893066398
 20
12.9146979473
 30
0.0
 10
20.0776580848
 20
13.6976169104
 30
0.0
 10
19.3856910371
 20
14.3104519205
 30
0.0
 10
18.759381716
 20
14.6529105348
 30
0.0
 10
18.2694563638
 20
14.7832652947
 30
0.0
 10
17.9322684837
 20
14.8080608361
 30
0.0
 10
17.6182916114
 20
14.7620497969
 30
0.0
 10
17.428084299
 20
14.6829877743
 30
0.0
 10
17.3417981832
 20
14.6331669932
 30
0.0
  0
SPLINE
  5
230
100
AcDbEntity
  8
ASSI
100
AcDbSpline
 62
7
  6
CONTINUOUS
 70
0
 71
3
 72
17
 73
13
 74
0
 42
0.0000001
 43
0.0000001
 44
0.0000000001
 40
0.0
 40
0.0
 40
0.0
 40
0.0
 40
0.1286786404
 40
0.270270774
 40
0.4174275092
 40
0.5617757419
 40
0.6954482048
 40
0.8127142031
 40
0.8646788605
 40
0.9125123007
 40
0.9571409966
 40
1.0
 40
1.0
 40
1.0
 40
1.0
 10
-27.9307178569
 20
-26.5652345832
 30
0.0
 10
-27.9307178569
 20
-26.2660892426
 30
0.0
 10
-28.0144197815
 20
-25.6370636591
 30
0.0
 10
-28.3267710096
 20
-24.7134487033
 30
0.0
 10
-28.8081680432
 20
-23.8237026631
 30
0.0
 10
-29.4198165983
 20
-23.0407837
 30
0.0
 10
-30.1117836459
 20
-22.42794869
 30
0.0
 10
-30.7380929671
 20
-22.0854900757
 30
0.0
 10
-31.2280183192
 20
-21.9551353158
 30
0.0
 10
-31.5652061993
 20
-21.9303397744
 30
0.0
 10
-31.8791830716
 20
-21.9763508136
 30
0.0
 10
-32.0693903841
 20
-22.0554128362
 30
0.0
 10
-32.1556764998
 20
-22.1052336172
 30
0.0
  0
SPLINE
  5
231
100
AcDbEntity
  8
ASSI
100
AcDbSpline
 62
7
  6
CONTINUOUS
 70
0
 71
3
 72
17
 73
13
 74
0
 42
0.0000001
 43
0.0000001
 44
0.0000000001
 40
0.0
 40
0.0
 40
0.0
 40
0.0
 40
0.1286786404
 40
0.270270774
 40
0.4174275092
 40
0.5617757419
 40
0.6954482048
 40
0.8127142031
 40
0.8646788605
 40
0.9125123007
 40
0.9571409966
 40
1.0
 40
1.0
 40
1.0
 40
1.0
 10
21.5667568262
 20
-55.1444561162
 30
0.0
 10
21.5667568262
 20
-54.8453107755
 30
0.0
 10
21.4830549016
 20
-54.2162851921
 30
0.0
 10
21.1707036734
 20
-53.2926702362
 30
0.0
 10
20.6893066398
 20
-52.4029241961
 30
0.0
 10
20.0776580848
 20
-51.620005233
 30
0.0
 10
19.3856910371
 20
-51.0071702229
 30
0.0
 10
18.759381716
 20
-50.6647116087
 30
0.0
 10
18.2694563638
 20
-50.5343568487
 30
0.0
 10
17.9322684837
 20
-50.5095613073
 30
0.0
 10
17.6182916114
 20
-50.5555723466
 30
0.0
 10
17.428084299
 20
-50.6346343692
 30
0.0
 10
17.3417981832
 20
-50.6844551502
 30
0.0
  0
SPLINE
  5
232
100
AcDbEntity
  8
RACCORDO
100
AcDbSpline
 62
7
  6
CONTINUOUS
 70
0
 71
3
 72
18
 73
14
 74
0
 42
0.0000001
 43
0.0000001
 44
0.0000000001
 40
0.0
 40
0.0
 40
0.0
 40
0.0
 40
0.0583320517
 40
0.1165933133
 40
0.1748199552
 40
0.2332949066
 40
0.2924739235
 40
0.3528601652
 40
0.4783126097
 40
0.6098507768
 40
0.7437653332
 40
0.8749921935
 40
1.0
 40
1.0
 40
1.0
 40
1.0
 10
-15.2132034356
 20
62.2261644751
 30
0.0
 10
-15.2132034356
 20
62.4624871348
 30
0.0
 10
-15.2640093058
 20
62.9363516986
 30
0.0
 10
-15.4860353375
 20
63.6138888119
 30
0.0
 10
-15.8372315266
 20
64.2346133427
 30
0.0
 10
-16.2964955044
 20
64.7839502645
 30
0.0
 10
-16.8444716149
 20
65.2573201698
 30
0.0
 10
-17.6827608785
 20
65.7940506642
 30
0.0
 10
-18.8888162769
 20
66.2742530981
 30
0.0
 10
-20.4567862079
 20
66.5527085855
 30
0.0
 10
-22.0728459716
 20
66.5433944679
 30
0.0
 10
-23.6341780151
 20
66.2467042107
 30
0.0
 10
-24.6030887159
 20
65.8445222211
 30
0.0
 10
-25.0416788769
 20
65.5912857595
 30
0.0
  0
SPLINE
  5
233
100
AcDbEntity
  8
ASSI
100
AcDbSpline
 62
7
  6
CONTINUOUS
 70
0
 71
3
 72
11
 73
7
 74
0
 42
0.0000001
 43
0.0000001
 44
0.0000000001
 40
0.0
 40
0.0
 40
0.0
 40
0.0
 40
0.2177724998
 40
0.4509548069
 40
0.7101910283
 40
1.0
 40
1.0
 40
1.0
 40
1.0
 10
20.8419680008
 20
-56.7465349288
 30
0.0
 10
20.9574017397
 20
-56.679884588
 30
0.0
 10
21.1734530859
 20
-56.4983288913
 30
0.0
 10
21.40324497
 20
-56.1223425785
 30
0.0
 10
21.5399750876
 20
-55.6590626927
 30
0.0
 10
21.5667568262
 20
-55.3218417649
 30
0.0
 10
21.5667568262
 20
-55.1444561162
 30
0.0
  0
SPLINE
  5
234
100
AcDbEntity
  8
ASSI
100
AcDbSpline
 62
7
  6
CONTINUOUS
 70
0
 71
3
 72
11
 73
7
 74
0
 42
0.0000001
 43
0.0000001
 44
0.0000000001
 40
0.0
 40
0.0
 40
0.0
 40
0.0
 40
0.2177724998
 40
0.4509548069
 40
0.7101910283
 40
1.0
 40
1.0
 40
1.0
 40
1.0
 10
-28.6555066822
 20
-28.1673133959
 30
0.0
 10
-28.5400729434
 20
-28.1006630551
 30
0.0
 10
-28.3240215971
 20
-27.9191073583
 30
0.0
 10
-28.0942297131
 20
-27.5431210456
 30
0.0
 10
-27.9574995955
 20
-27.0798411598
 30
0.0
 10
-27.9307178569
 20
-26.7426202319
 30
0.0
 10
-27.9307178569
 20
-26.5652345832
 30
0.0
  0
SPLINE
  5
235
100
AcDbEntity
  8
ASSI
100
AcDbSpline
 62
7
  6
CONTINUOUS
 70
0
 71
3
 72
16
 73
12
 74
0
 42
0.0000001
 43
0.0000001
 44
0.0000000001
 40
0.0
 40
0.0
 40
0.0
 40
0.0
 40
0.1287445308
 40
0.2703878325
 40
0.4176071073
 40
0.5620142909
 40
0.6957419599
 40
0.8130596884
 40
0.9124688243
 40
0.9571199238
 40
1.0
 40
1.0
 40
1.0
 40
1.0
 10
20.5060966544
 20
-66.3702319608
 30
0.0
 10
20.4320728982
 20
-66.4129723499
 30
0.0
 10
20.2644736186
 20
-66.4821280615
 30
0.0
 10
19.9913215346
 20
-66.5367854325
 30
0.0
 10
19.7023901247
 20
-66.5447717135
 30
0.0
 10
19.4213542812
 20
-66.5053422131
 30
0.0
 10
19.170673892
 20
-66.4214239634
 30
0.0
 10
18.9698135912
 20
-66.2995255456
 30
0.0
 10
18.8528151293
 20
-66.1651448511
 30
0.0
 10
18.8066013277
 20
-66.0487888896
 30
0.0
 10
18.7989957585
 20
-65.9904265005
 30
0.0
 10
18.7989955524
 20
-65.9619573674
 30
0.0
  0
SPLINE
  5
236
100
AcDbEntity
  8
ASSI
100
AcDbSpline
 62
7
  6
CONTINUOUS
 70
0
 71
3
 72
16
 73
12
 74
0
 42
0.0000001
 43
0.0000001
 44
0.0000000001
 40
0.0
 40
0.0
 40
0.0
 40
0.0
 40
0.1287445308
 40
0.2703878325
 40
0.4176071073
 40
0.5620142909
 40
0.6957419599
 40
0.8130596884
 40
0.9124688243
 40
0.9571199238
 40
1.0
 40
1.0
 40
1.0
 40
1.0
 10
18.3847763109
 20
-65.1454081808
 30
0.0
 10
18.3107525546
 20
-65.1881485699
 30
0.0
 10
18.143153275
 20
-65.2573042815
 30
0.0
 10
17.870001191
 20
-65.3119616525
 30
0.0
 10
17.5810697811
 20
-65.3199479335
 30
0.0
 10
17.3000339376
 20
-65.2805184331
 30
0.0
 10
17.0493535485
 20
-65.1966001835
 30
0.0
 10
16.8484932476
 20
-65.0747017656
 30
0.0
 10
16.7314947857
 20
-64.9403210711
 30
0.0
 10
16.6852809842
 20
-64.8239651096
 30
0.0
 10
16.6776754149
 20
-64.7656027205
 30
0.0
 10
16.6776752089
 20
-64.7371335874
 30
0.0
  0
SPLINE
  5
237
100
AcDbEntity
  8
ASSI
100
AcDbSpline
 62
7
  6
CONTINUOUS
 70
0
 71
3
 72
11
 73
7
 74
0
 42
0.0000001
 43
0.0000001
 44
0.0000000001
 40
0.0
 40
0.0
 40
0.0
 40
0.0
 40
0.2177724998
 40
0.4509548069
 40
0.7101910283
 40
1.0
 40
1.0
 40
1.0
 40
1.0
 10
20.8419680008
 20
8.5710872146
 30
0.0
 10
20.9574017397
 20
8.6377375554
 30
0.0
 10
21.1734530859
 20
8.8192932522
 30
0.0
 10
21.40324497
 20
9.1952795649
 30
0.0
 10
21.5399750876
 20
9.6585594507
 30
0.0
 10
21.5667568262
 20
9.9957803786
 30
0.0
 10
21.5667568262
 20
10.1731660273
 30
0.0
  0
SPLINE
  5
238
100
AcDbEntity
  8
RACCORDO
100
AcDbSpline
 62
7
  6
CONTINUOUS
 70
0
 71
3
 72
12
 73
8
 74
0
 42
0.0000001
 43
0.0000001
 44
0.0000000001
 40
0.0
 40
0.0
 40
0.0
 40
0.0
 40
0.1081626831
 40
0.2183646832
 40
0.4513682944
 40
0.7104122689
 40
1.0
 40
1.0
 40
1.0
 40
1.0
 10
-34.3199231213
 20
47.3691263557
 30
0.0
 10
-34.4018901217
 20
47.3217996602
 30
0.0
 10
-34.5594835845
 20
47.2118039426
 30
0.0
 10
-34.8421969753
 20
46.933729343
 30
0.0
 10
-35.1221329458
 20
46.4772506161
 30
0.0
 10
-35.3169489566
 20
45.8156593573
 30
0.0
 10
-35.3553390593
 20
45.3338531624
 30
0.0
 10
-35.3553390593
 20
45.0804464821
 30
0.0
  0
SPLINE
  5
239
100
AcDbEntity
  8
ASSI
100
AcDbSpline
 62
7
  6
CONTINUOUS
 70
0
 71
3
 72
11
 73
7
 74
0
 42
0.0000001
 43
0.0000001
 44
0.0000000001
 40
0.0
 40
0.0
 40
0.0
 40
0.0
 40
0.2177724998
 40
0.4509548069
 40
0.7101910283
 40
1.0
 40
1.0
 40
1.0
 40
1.0
 10
-28.6555066822
 20
37.1503087475
 30
0.0
 10
-28.5400729434
 20
37.2169590883
 30
0.0
 10
-28.3240215971
 20
37.3985147851
 30
0.0
 10
-28.0942297131
 20
37.7745010978
 30
0.0
 10
-27.9574995955
 20
38.2377809836
 30
0.0
 10
-27.9307178569
 20
38.5750019115
 30
0.0
 10
-27.9307178569
 20
38.7523875602
 30
0.0
  0
SPLINE
  5
23A
100
AcDbEntity
  8
RACCORDO
100
AcDbSpline
 62
7
  6
CONTINUOUS
 70
0
 71
3
 72
12
 73
8
 74
0
 42
0.0000001
 43
0.0000001
 44
0.0000000001
 40
0.0
 40
0.0
 40
0.0
 40
0.0
 40
0.289593209
 40
0.5486391981
 40
0.781640531
 40
0.8918401447
 40
1.0
 40
1.0
 40
1.0
 40
1.0
 10
-31.8198051534
 20
47.1214248995
 30
0.0
 10
-32.0392952016
 20
47.2481557024
 30
0.0
 10
-32.4758125827
 20
47.4558573943
 30
0.0
 10
-33.146277453
 20
47.6179758414
 30
0.0
 10
-33.681646819
 20
47.6037823846
 30
0.0
 10
-34.0638717591
 20
47.4979591599
 30
0.0
 10
-34.2379460098
 20
47.4164588892
 30
0.0
 10
-34.3199231213
 20
47.3691263557
 30
0.0
  0
SPLINE
  5
23B
100
AcDbEntity
  8
ASSI
100
AcDbSpline
 62
7
  6
CONTINUOUS
 70
0
 71
3
 72
12
 73
8
 74
0
 42
0.0000001
 43
0.0000001
 44
0.0000000001
 40
0.0
 40
0.0
 40
0.0
 40
0.0
 40
0.2895821335
 40
0.5486248514
 40
0.7816308081
 40
0.8918349059
 40
1.0
 40
1.0
 40
1.0
 40
1.0
 10
-16.9705627485
 20
45.0800519328
 30
0.0
 10
-16.7071884464
 20
45.232120954
 30
0.0
 10
-16.229466772
 20
45.5611575587
 30
0.0
 10
-15.6587610484
 20
46.1606726993
 30
0.0
 10
-15.3523173188
 20
46.7255704108
 30
0.0
 10
-15.2329604455
 20
47.1862931584
 30
0.0
 10
-15.2132098276
 20
47.4161029458
 30
0.0
 10
-15.2132098537
 20
47.5296994928
 30
0.0
  0
SPLINE
  5
23C
100
AcDbEntity
  8
RACCORDO
100
AcDbSpline
 62
250
  6
CONTINUOUS
 70
0
 71
3
 72
23
 73
19
 74
0
 42
0.0000001
 43
0.0000001
 44
0.0000000001
 40
0.0
 40
0.0
 40
0.0
 40
0.0
 40
0.06038093
 40
0.1143937698
 40
0.1629783177
 40
0.208352784
 40
0.2537273088
 40
0.3023112433
 40
0.3563263588
 40
0.416705907
 40
0.4832918299
 40
0.5551370637
 40
0.6307609747
 40
0.7083530249
 40
0.7859450818
 40
0.8615692052
 40
0.9334121838
 40
1.0
 40
1.0
 40
1.0
 40
1.0
 10
-18.3847763109
 20
62.2260066553
 30
0.0
 10
-18.2091936334
 20
62.3273858927
 30
0.0
 10
-17.8907041393
 20
62.5466609901
 30
0.0
 10
-17.5102707968
 20
62.9466609987
 30
0.0
 10
-17.2694329921
 20
63.3894094178
 30
0.0
 10
-17.1860503082
 20
63.8591040486
 30
0.0
 10
-17.2694457759
 20
64.3287966837
 30
0.0
 10
-17.5102403528
 20
64.7715457022
 30
0.0
 10
-17.890808307
 20
65.1716004146
 30
0.0
 10
-18.3941591919
 20
65.5182271262
 30
0.0
 10
-19.001675365
 20
65.8011075785
 30
0.0
 10
-19.6913296752
 20
66.0107787099
 30
0.0
 10
-20.4377622143
 20
66.1397526434
 30
0.0
 10
-21.2132081719
 20
66.1832863061
 30
0.0
 10
-21.9886388653
 20
66.1397637661
 30
0.0
 10
-22.7351113774
 20
66.0107511447
 30
0.0
 10
-23.4246005419
 20
65.8011818694
 30
0.0
 10
-23.8479987789
 20
65.6040039658
 30
0.0
 10
-24.0416305603
 20
65.492203402
 30
0.0
  0
SPLINE
  5
23D
100
AcDbEntity
  8
RACCORDO
100
AcDbSpline
 62
250
  6
CONTINUOUS
 70
0
 71
3
 72
23
 73
19
 74
0
 42
0.0000001
 43
0.0000001
 44
0.0000000001
 40
0.0
 40
0.0
 40
0.0
 40
0.0
 40
0.06038093
 40
0.1143937698
 40
0.1629783177
 40
0.208352784
 40
0.2537273088
 40
0.3023112433
 40
0.3563263588
 40
0.416705907
 40
0.4832918299
 40
0.5551370637
 40
0.6307609747
 40
0.7083530249
 40
0.7859450818
 40
0.8615692052
 40
0.9334121838
 40
1.0
 40
1.0
 40
1.0
 40
1.0
 10
-24.0416305603
 20
65.492203402
 30
0.0
 10
-24.2172132378
 20
65.3908241646
 30
0.0
 10
-24.5357027319
 20
65.1715490672
 30
0.0
 10
-24.9161360744
 20
64.7715490586
 30
0.0
 10
-25.1569738791
 20
64.3288006395
 30
0.0
 10
-25.240356563
 20
63.8591060087
 30
0.0
 10
-25.1569610953
 20
63.3894133735
 30
0.0
 10
-24.9161665184
 20
62.9466643551
 30
0.0
 10
-24.5355985642
 20
62.5466096427
 30
0.0
 10
-24.0322476793
 20
62.1999829311
 30
0.0
 10
-23.4247315062
 20
61.9171024788
 30
0.0
 10
-22.735077196
 20
61.7074313474
 30
0.0
 10
-21.9886446569
 20
61.5784574139
 30
0.0
 10
-21.2131986992
 20
61.5349237512
 30
0.0
 10
-20.4377680059
 20
61.5784462911
 30
0.0
 10
-19.6912954938
 20
61.7074589125
 30
0.0
 10
-19.0018063293
 20
61.9170281879
 30
0.0
 10
-18.5784080923
 20
62.1142060915
 30
0.0
 10
-18.3847763109
 20
62.2260066553
 30
0.0
  0
SPLINE
  5
23E
100
AcDbEntity
  8
ASSI
100
AcDbSpline
 62
7
  6
CONTINUOUS
 70
0
 71
3
 72
11
 73
7
 74
0
 42
0.0000001
 43
0.0000001
 44
0.0000000001
 40
0.0
 40
0.0
 40
0.0
 40
0.0
 40
0.2177724998
 40
0.4509548069
 40
0.7101910283
 40
1.0
 40
1.0
 40
1.0
 40
1.0
 10
-32.1556764998
 20
-22.1052336172
 30
0.0
 10
-32.2711102386
 20
-22.171883958
 30
0.0
 10
-32.4871615849
 20
-22.3534396548
 30
0.0
 10
-32.7169534689
 20
-22.7294259675
 30
0.0
 10
-32.8536835866
 20
-23.1927058533
 30
0.0
 10
-32.8804653252
 20
-23.5299267812
 30
0.0
 10
-32.8804653252
 20
-23.7073124299
 30
0.0
  0
SPLINE
  5
23F
100
AcDbEntity
  8
RACCORDO
100
AcDbSpline
 62
250
  6
CONTINUOUS
 70
0
 71
3
 72
12
 73
8
 74
0
 42
0.0000001
 43
0.0000001
 44
0.0000000001
 40
0.0
 40
0.0
 40
0.0
 40
0.0
 40
0.2895809586
 40
0.548625675
 40
0.7816304691
 40
0.891834814
 40
1.0
 40
1.0
 40
1.0
 40
1.0
 10
-16.9705627485
 20
59.7765169151
 30
0.0
 10
-16.7071894459
 20
59.9285853592
 30
0.0
 10
-16.2294697916
 20
60.2576244088
 30
0.0
 10
-15.6587534328
 20
60.8571328102
 30
0.0
 10
-15.3523258301
 20
61.4220385569
 30
0.0
 10
-15.2329546545
 20
61.8827571552
 30
0.0
 10
-15.2132103393
 20
62.1125678018
 30
0.0
 10
-15.2132064556
 20
62.2261644751
 30
0.0
  0
SPLINE
  5
240
100
AcDbEntity
  8
ASSI
100
AcDbSpline
 62
7
  6
CONTINUOUS
 70
0
 71
3
 72
17
 73
13
 74
0
 42
0.0000001
 43
0.0000001
 44
0.0000000001
 40
0.0
 40
0.0
 40
0.0
 40
0.0
 40
0.1286786404
 40
0.270270774
 40
0.4174275092
 40
0.5617757419
 40
0.6954482048
 40
0.8127142031
 40
0.8646788605
 40
0.9125123007
 40
0.9571409966
 40
1.0
 40
1.0
 40
1.0
 40
1.0
 10
-32.8804653252
 20
-23.7073124299
 30
0.0
 10
-32.8804653252
 20
-24.0064577705
 30
0.0
 10
-32.7967634006
 20
-24.635483354
 30
0.0
 10
-32.4844121724
 20
-25.5590983098
 30
0.0
 10
-32.0030151388
 20
-26.44884435
 30
0.0
 10
-31.3913665837
 20
-27.2317633131
 30
0.0
 10
-30.6993995361
 20
-27.8445983232
 30
0.0
 10
-30.073090215
 20
-28.1870569374
 30
0.0
 10
-29.5831648628
 20
-28.3174116973
 30
0.0
 10
-29.2459769827
 20
-28.3422072388
 30
0.0
 10
-28.9320001104
 20
-28.2961961995
 30
0.0
 10
-28.741792798
 20
-28.2171341769
 30
0.0
 10
-28.6555066822
 20
-28.1673133959
 30
0.0
  0
SPLINE
  5
241
100
AcDbEntity
  8
ASSI
100
AcDbSpline
 62
7
  6
CONTINUOUS
 70
0
 71
3
 72
17
 73
13
 74
0
 42
0.0000001
 43
0.0000001
 44
0.0000000001
 40
0.0
 40
0.0
 40
0.0
 40
0.0
 40
0.1286786404
 40
0.270270774
 40
0.4174275092
 40
0.5617757419
 40
0.6954482048
 40
0.8127142031
 40
0.8646788605
 40
0.9125123007
 40
0.9571409966
 40
1.0
 40
1.0
 40
1.0
 40
1.0
 10
16.6170093579
 20
-52.2865339629
 30
0.0
 10
16.6170093579
 20
-52.5856793035
 30
0.0
 10
16.7007112825
 20
-53.2147048869
 30
0.0
 10
17.0130625107
 20
-54.1383198428
 30
0.0
 10
17.4944595442
 20
-55.0280658829
 30
0.0
 10
18.1061080993
 20
-55.810984846
 30
0.0
 10
18.7980751469
 20
-56.4238198561
 30
0.0
 10
19.4243844681
 20
-56.7662784704
 30
0.0
 10
19.9143098202
 20
-56.8966332303
 30
0.0
 10
20.2514977004
 20
-56.9214287717
 30
0.0
 10
20.5654745726
 20
-56.8754177325
 30
0.0
 10
20.7556818851
 20
-56.7963557099
 30
0.0
 10
20.8419680008
 20
-56.7465349288
 30
0.0
  0
SPLINE
  5
242
100
AcDbEntity
  8
RACCORDO
100
AcDbSpline
 62
7
  6
CONTINUOUS
 70
0
 71
3
 72
15
 73
11
 74
0
 42
0.0000001
 43
0.0000001
 44
0.0000000001
 40
0.0
 40
0.0
 40
0.0
 40
0.0
 40
0.1141546642
 40
0.2373206127
 40
0.3669696178
 40
0.4999939487
 40
0.6330191211
 40
0.7626705848
 40
0.8858404062
 40
1.0
 40
1.0
 40
1.0
 40
1.0
 10
24.0416305603
 20
10.7853806426
 30
0.0
 10
24.0416305603
 20
11.0648580305
 30
0.0
 10
23.990441521
 20
11.6464176713
 30
0.0
 10
23.7863655388
 20
12.523767913
 30
0.0
 10
23.4594669039
 20
13.4124621915
 30
0.0
 10
23.0219289464
 20
14.2790864593
 30
0.0
 10
22.4901757181
 20
15.0913223932
 30
0.0
 10
21.8839838709
 20
15.8187869541
 30
0.0
 10
21.2261995745
 20
16.4342214248
 30
0.0
 10
20.7481377253
 20
16.7693535124
 30
0.0
 10
20.5060966544
 20
16.9091049932
 30
0.0
  0
SPLINE
  5
243
100
AcDbEntity
  8
RACCORDO
100
AcDbSpline
 62
250
  6
CONTINUOUS
 70
0
 71
3
 72
19
 73
15
 74
0
 42
0.0000001
 43
0.0000001
 44
0.0000000001
 40
0.0
 40
0.0
 40
0.0
 40
0.0
 40
0.042843093
 40
0.0874546403
 40
0.1352687772
 40
0.187211483
 40
0.2436940338
 40
0.3046899419
 40
0.3698286333
 40
0.4384793629
 40
0.582760289
 40
0.729848956
 40
0.8713779334
 40
1.0
 40
1.0
 40
1.0
 40
1.0
 10
-27.2132004156
 20
62.226164475
 30
0.0
 10
-27.2132062557
 20
62.0553467527
 30
0.0
 10
-27.167533442
 20
61.7051754044
 30
0.0
 10
-26.9667262015
 20
61.1995578948
 30
0.0
 10
-26.6408762884
 20
60.7202378222
 30
0.0
 10
-26.1992276978
 20
60.2766989192
 30
0.0
 10
-25.6519631275
 20
59.8767744654
 30
0.0
 10
-25.0107455628
 20
59.5279996188
 30
0.0
 10
-24.2889619754
 20
59.2371758835
 30
0.0
 10
-23.2221085716
 20
58.9298184341
 30
0.0
 10
-21.7925128534
 20
58.7292517228
 30
0.0
 10
-20.0592497611
 20
58.7771585853
 30
0.0
 10
-18.4202544366
 20
59.1051679518
 30
0.0
 10
-17.414673441
 20
59.5200929674
 30
0.0
 10
-16.9705627485
 20
59.7765169151
 30
0.0
  0
SPLINE
  5
244
100
AcDbEntity
  8
ASSI
100
AcDbSpline
 62
7
  6
CONTINUOUS
 70
0
 71
3
 72
19
 73
15
 74
0
 42
0.0000001
 43
0.0000001
 44
0.0000000001
 40
0.0
 40
0.0
 40
0.0
 40
0.0
 40
0.0428430872
 40
0.0874546366
 40
0.1352687622
 40
0.1872114255
 40
0.2436939115
 40
0.3046897556
 40
0.3698284028
 40
0.4384791184
 40
0.5827601001
 40
0.7298488563
 40
0.8713777446
 40
1.0
 40
1.0
 40
1.0
 40
1.0
 10
-27.2131970175
 20
47.5296994928
 30
0.0
 10
-27.2131969783
 20
47.3588818511
 30
0.0
 10
-27.1675312406
 20
47.0087107823
 30
0.0
 10
-26.9667198635
 20
46.5030938834
 30
0.0
 10
-26.6408708722
 20
46.0237744141
 30
0.0
 10
-26.1992229199
 20
45.580235611
 30
0.0
 10
-25.6519598154
 20
45.1803108353
 30
0.0
 10
-25.0107436208
 20
44.8315353775
 30
0.0
 10
-24.2889611514
 20
44.5407108706
 30
0.0
 10
-23.2221084533
 20
44.2333523226
 30
0.0
 10
-21.7925127277
 20
44.0327847488
 30
0.0
 10
-20.0592500135
 20
44.0806919579
 30
0.0
 10
-18.4202543959
 20
44.4087013428
 30
0.0
 10
-17.4146739434
 20
44.8236276949
 30
0.0
 10
-16.9705627485
 20
45.0800519328
 30
0.0
  0
SPLINE
  5
245
100
AcDbEntity
  8
ASSI
100
AcDbSpline
 62
7
  6
CONTINUOUS
 70
0
 71
3
 72
17
 73
13
 74
0
 42
0.0000001
 43
0.0000001
 44
0.0000000001
 40
0.0
 40
0.0
 40
0.0
 40
0.0
 40
0.1286786404
 40
0.270270774
 40
0.4174275092
 40
0.5617757419
 40
0.6954482048
 40
0.8127142031
 40
0.8646788605
 40
0.9125123007
 40
0.9571409966
 40
1.0
 40
1.0
 40
1.0
 40
1.0
 10
-32.8804653252
 20
41.6103097135
 30
0.0
 10
-32.8804653252
 20
41.3111643729
 30
0.0
 10
-32.7967634006
 20
40.6821387894
 30
0.0
 10
-32.4844121724
 20
39.7585238336
 30
0.0
 10
-32.0030151388
 20
38.8687777934
 30
0.0
 10
-31.3913665837
 20
38.0858588303
 30
0.0
 10
-30.6993995361
 20
37.4730238203
 30
0.0
 10
-30.073090215
 20
37.130565206
 30
0.0
 10
-29.5831648628
 20
37.0002104461
 30
0.0
 10
-29.2459769827
 20
36.9754149046
 30
0.0
 10
-28.9320001104
 20
37.0214259439
 30
0.0
 10
-28.741792798
 20
37.1004879665
 30
0.0
 10
-28.6555066822
 20
37.1503087475
 30
0.0
  0
SPLINE
  5
246
100
AcDbEntity
  8
RACCORDO
100
AcDbSpline
 62
7
  6
CONTINUOUS
 70
0
 71
3
 72
12
 73
8
 74
0
 42
0.0000001
 43
0.0000001
 44
0.0000000001
 40
0.0
 40
0.0
 40
0.0
 40
0.0
 40
0.1081626831
 40
0.2183646832
 40
0.4513682944
 40
0.7104122689
 40
1.0
 40
1.0
 40
1.0
 40
1.0
 10
23.0062146223
 20
-60.9032727584
 30
0.0
 10
23.0881816228
 20
-60.8559460628
 30
0.0
 10
23.2457750855
 20
-60.7459503452
 30
0.0
 10
23.5284884763
 20
-60.4678757457
 30
0.0
 10
23.8084244468
 20
-60.0113970188
 30
0.0
 10
24.0032404576
 20
-59.3498057599
 30
0.0
 10
24.0416305603
 20
-58.8679995651
 30
0.0
 10
24.0416305603
 20
-58.6145928848
 30
0.0
  0
SPLINE
  5
247
100
AcDbEntity
  8
ASSI
100
AcDbSpline
 62
7
  6
CONTINUOUS
 70
0
 71
3
 72
11
 73
7
 74
0
 42
0.0000001
 43
0.0000001
 44
0.0000000001
 40
0.0
 40
0.0
 40
0.0
 40
0.0
 40
0.2177724998
 40
0.4509548069
 40
0.7101910283
 40
1.0
 40
1.0
 40
1.0
 40
1.0
 10
17.3417981832
 20
14.6331669932
 30
0.0
 10
17.2263644444
 20
14.5665166524
 30
0.0
 10
17.0103130982
 20
14.3849609557
 30
0.0
 10
16.7805212141
 20
14.0089746429
 30
0.0
 10
16.6437910965
 20
13.5456947572
 30
0.0
 10
16.6170093579
 20
13.2084738293
 30
0.0
 10
16.6170093579
 20
13.0310881806
 30
0.0
  0
SPLINE
  5
248
100
AcDbEntity
  8
ASSI
100
AcDbSpline
 62
7
  6
CONTINUOUS
 70
0
 71
3
 72
11
 73
7
 74
0
 42
0.0000001
 43
0.0000001
 44
0.0000000001
 40
0.0
 40
0.0
 40
0.0
 40
0.0
 40
0.2177724998
 40
0.4509548069
 40
0.7101910283
 40
1.0
 40
1.0
 40
1.0
 40
1.0
 10
17.3417981832
 20
-50.6844551502
 30
0.0
 10
17.2263644444
 20
-50.751105491
 30
0.0
 10
17.0103130982
 20
-50.9326611877
 30
0.0
 10
16.7805212141
 20
-51.3086475005
 30
0.0
 10
16.6437910965
 20
-51.7719273863
 30
0.0
 10
16.6170093579
 20
-52.1091483142
 30
0.0
 10
16.6170093579
 20
-52.2865339629
 30
0.0
  0
SPLINE
  5
249
100
AcDbEntity
  8
ASSI
100
AcDbSpline
 62
7
  6
CONTINUOUS
 70
0
 71
3
 72
11
 73
7
 74
0
 42
0.0000001
 43
0.0000001
 44
0.0000000001
 40
0.0
 40
0.0
 40
0.0
 40
0.0
 40
0.2177724998
 40
0.4509548069
 40
0.7101910283
 40
1.0
 40
1.0
 40
1.0
 40
1.0
 10
-32.1556764998
 20
43.2123885262
 30
0.0
 10
-32.2711102386
 20
43.1457381854
 30
0.0
 10
-32.4871615849
 20
42.9641824886
 30
0.0
 10
-32.7169534689
 20
42.5881961759
 30
0.0
 10
-32.8536835866
 20
42.1249162901
 30
0.0
 10
-32.8804653252
 20
41.7876953622
 30
0.0
 10
-32.8804653252
 20
41.6103097135
 30
0.0
  0
SPLINE
  5
24A
100
AcDbEntity
  8
ASSI
100
AcDbSpline
 62
7
  6
CONTINUOUS
 70
0
 71
3
 72
17
 73
13
 74
0
 42
0.0000001
 43
0.0000001
 44
0.0000000001
 40
0.0
 40
0.0
 40
0.0
 40
0.0
 40
0.1286786404
 40
0.270270774
 40
0.4174275092
 40
0.5617757419
 40
0.6954482048
 40
0.8127142031
 40
0.8646788605
 40
0.9125123007
 40
0.9571409966
 40
1.0
 40
1.0
 40
1.0
 40
1.0
 10
16.6170093579
 20
13.0310881806
 30
0.0
 10
16.6170093579
 20
12.7319428399
 30
0.0
 10
16.7007112825
 20
12.1029172565
 30
0.0
 10
17.0130625107
 20
11.1793023007
 30
0.0
 10
17.4944595442
 20
10.2895562605
 30
0.0
 10
18.1061080993
 20
9.5066372974
 30
0.0
 10
18.7980751469
 20
8.8938022873
 30
0.0
 10
19.4243844681
 20
8.5513436731
 30
0.0
 10
19.9143098202
 20
8.4209889132
 30
0.0
 10
20.2514977004
 20
8.3961933717
 30
0.0
 10
20.5654745726
 20
8.442204411
 30
0.0
 10
20.7556818851
 20
8.5212664336
 30
0.0
 10
20.8419680008
 20
8.5710872146
 30
0.0
  0
ENDSEC
  0
SECTION
  2
OBJECTS
  0
DICTIONARY
  5
C
100
AcDbDictionary
280
0
281
1
  3
ACAD_GROUP
350
D
  3
ACAD_MLINESTYLE
350
17
  3
ACAD_LAYOUT
350
1A
  3
ACAD_PLOTSETTINGS
350
19
  3
ACAD_PLOTSTYLENAME
350
E
  0
DICTIONARY
  5
D
102
{ACAD_REACTORS
330
C
102
}
100
AcDbDictionary
280
0
281
1
  0
ACDBDICTIONARYWDFLT
  5
E
102
{ACAD_REACTORS
330
C
102
}
100
AcDbDictionary
281
1
  3
Normal
350
F
100
AcDbDictionaryWithDefault
340
F
  0
DICTIONARY
  5
17
102
{ACAD_REACTORS
330
C
102
}
100
AcDbDictionary
280
0
281
1
  3
Standard
350
18
  0
DICTIONARY
  5
19
102
{ACAD_REACTORS
330
C
102
}
100
AcDbDictionary
281
1
  0
DICTIONARY
  5
1A
102
{ACAD_REACTORS
330
C
102
}
100
AcDbDictionary
281
1
  3
Model
350
24B
  3
Layout1
350
24C
  0
ACDBPLACEHOLDER
  5
F
102
{ACAD_REACTORS
330
E
102
}
  0
MLINESTYLE
  5
18
102
{ACAD_REACTORS
330
17
102
}
100
AcDbMlineStyle
  2
STANDARD
 70
0
  3

 62
256
 51
90.0
 52
90.0
 71
2
 49
0.5
 62
256
  6
BYLAYER
 49
-0.5
 62
256
  6
BYLAYER
  0
LAYOUT
  5
24B
102
{ACAD_REACTORS
330
1A
102
}
100
AcDbPlotSettings
  1

  2
none_device
  4
ANSI_C_(22.00_x_17.00_Inches)
  6

 40
0.0
 41
0.0
 42
0.0
 43
0.0
 44
558.8
 45
431.8
 46
0.0
 47
0.0
 48
0.0
 49
0.0
140
0.0
141
0.0
142
1.0
143
1.0
 70
1024
 72
1
 73
0
 74
0
  7

 75
0
147
1.0
148
0.0
149
0.0
100
AcDbLayout
  1
Model
 70
0
 71
0
 10
0.0
 20
0.0
 11
558.8
 21
431.8
 12
0.0
 22
0.0
 32
0.0
 14
0.0
 24
0.0
 34
0.0
 15
0.0
 25
0.0
 35
0.0
146
0.0
 13
0.0
 23
0.0
 33
0.0
 16
1.0
 26
0.0
 36
0.0
 17
0.0
 27
1.0
 37
0.0
 76
0
330
20E
345
0
346
0
  0
LAYOUT
  5
24C
102
{ACAD_REACTORS
330
1A
102
}
100
AcDbPlotSettings
  1

  2
none_device
  4
ANSI_C_(22.00_x_17.00_Inches)
  6

 40
0.0
 41
0.0
 42
0.0
 43
0.0
 44
558.8
 45
431.8
 46
0.0
 47
0.0
 48
0.0
 49
0.0
140
0.0
141
0.0
142
1.0
143
1.0
 70
0
 72
1
 73
0
 74
0
  7

 75
0
147
1.0
148
0.0
149
0.0
100
AcDbLayout
  1
Layout1
 70
0
 71
1
 10
0.0
 20
0.0
 11
558.8
 21
431.8
 12
0.0
 22
0.0
 32
0.0
 14
0.0
 24
0.0
 34
0.0
 15
0.0
 25
0.0
 35
0.0
146
0.0
 13
0.0
 23
0.0
 33
0.0
 16
1.0
 26
0.0
 36
0.0
 17
0.0
 27
1.0
 37
0.0
 76
0
330
20F
345
0
346
0
  0
ENDSEC
  0
EOF
