  0
SECTION
  2
HEADER
  9
$ACADVER
  1
AC1024
  9
$DWGCODEPAGE
  3
ANSI_1252
  9
$EXTMAX
 10
297.0
 20
210.0
 30
0.0
  9
$EXTMIN
 10
0.0
 20
0.0
 30
0.0
  9
$LIMMIN
 10
0.0
 20
0.0
  9
$LIMMAX
 10
297.0
 20
210.0
  9
$VIEWCTR
 10
148.5
 20
105.0
  9
$VIEWSIZE
 40
210.0
  9
$CLAYER
  8
0
  9
$LTSCALE
 40
16.335
  9
$CELTYPE
  6
BYLAYER
  9
$DIMSCALE
 40
1.0
  9
$DIMASZ
 40
3.0
  9
$DIMEXO
 40
0.5
  9
$DIMDLI
 40
11.286
  9
$DIMEXE
 40
1.5
  9
$DIMCEN
 40
2.673
  9
$DIMLFAC
 40
1.0
  9
$DIMBLK
  1
_FILLED
  9
$DIMALT
 70
0
  9
$DIMALTF
 40
0.0393700787
  9
$DIMTXT
 40
3.0
  9
$DIMTOL
 70
1
  9
$DIMLIM
 70
0
  9
$DIMTFAC
 40
1.0
  9
$DIMTP
 40
0.01
  9
$DIMTM
 40
0.01
  9
$DIMGAP
 40
0.625
  9
$DIMDSEP
 70
44
  9
$AUNITS
 70
0
  9
$PDMODE
 70
3
  9
$PDSIZE
 40
3.0
  9
$HANDSEED
  5
26B
  9
$TILEMODE
 70
1
  9
$MEASUREMENT
 70
1
  9
$INSUNITS
 70
4
  0
ENDSEC
  0
SECTION
  2
CLASSES
  0
CLASS
  1
ACDBDICTIONARYWDFLT
  2
AcDbDictionaryWithDefault
  3
AutoCAD 2000
 90
0
 91
1
280
0
281
0
  0
CLASS
  1
ACDBPLACEHOLDER
  2
AcDbPlaceHolder
  3
AutoCAD 2000
 90
0
 91
1
280
0
281
0
  0
CLASS
  1
LAYOUT
  2
AcDbLayout
  3
AutoCAD 2000
 90
0
 91
0
280
0
281
0
  0
ENDSEC
  0
SECTION
  2
TABLES
  0
TABLE
  2
VPORT
  5
8
100
AcDbSymbolTable
 70
2
  0
VPORT
  5
1F4
100
AcDbSymbolTableRecord
100
AcDbViewportTableRecord
  2
*ACTIVE
 70
0
 10
0.0
 20
0.0
 11
1.0
 21
1.0
 12
148.5
 22
105.0
 13
0.0
 23
0.0
 14
1.0
 24
1.0
 15
0.0
 25
0.0
 16
0.0
 26
0.0
 36
1.0
 17
0.0
 27
0.0
 37
0.0
 40
210.0
 41
1.4142857143
 42
50.0
 43
0.0
 44
0.0
 50
0.0
 51
0.0
 71
0
 72
100
 73
1
 74
1
 75
0
 76
0
 77
0
 78
0
  0
ENDTAB
  0
TABLE
  2
LTYPE
  5
5
100
AcDbSymbolTable
 70
6
  0
LTYPE
  5
14
100
AcDbSymbolTableRecord
100
AcDbLinetypeTableRecord
  2
BYBLOCK
 70
0
  3

 72
65
 73
0
 40
0.0
  0
LTYPE
  5
15
100
AcDbSymbolTableRecord
100
AcDbLinetypeTableRecord
  2
BYLAYER
 70
0
  3

 72
65
 73
0
 40
0.0
  0
LTYPE
  5
16
100
AcDbSymbolTableRecord
100
AcDbLinetypeTableRecord
  2
CONTINUOUS
 70
64
  3
Solid line
 72
65
 73
0
 40
0.0
  0
LTYPE
  5
1F5
100
AcDbSymbolTableRecord
100
AcDbLinetypeTableRecord
  2
CENTER
 70
64
  3
____ _ ____ _ ____ _ ____ _ ____ _ ____ _ ____
 72
65
 73
4
 40
0.6
 49
0.375
 74
0
 49
-0.075
 74
0
 49
0.075
 74
0
 49
-0.075
 74
0
  0
LTYPE
  5
1F6
100
AcDbSymbolTableRecord
100
AcDbLinetypeTableRecord
  2
HIDDEN
 70
64
  3
- - - - - - - - - - - - - - - - - - - -
 72
65
 73
2
 40
0.2
 49
0.1
 74
0
 49
-0.1
 74
0
  0
LTYPE
  5
1F7
100
AcDbSymbolTableRecord
100
AcDbLinetypeTableRecord
  2
PHANTOM
 70
64
  3
_____ _ _ _____ _ _ _____ _ _ _____
 72
65
 73
6
 40
0.8
 49
0.45
 74
0
 49
-0.05
 74
0
 49
0.1
 74
0
 49
-0.05
 74
0
 49
0.1
 74
0
 49
-0.05
 74
0
  0
LTYPE
  5
1F8
100
AcDbSymbolTableRecord
100
AcDbLinetypeTableRecord
  2
DOT
 70
64
  3
. . . . . . . . . . . . . . . . . . . .
 72
65
 73
2
 40
0.2
 49
0.1
 74
0
 49
-0.1
 74
0
  0
LTYPE
  5
1F9
100
AcDbSymbolTableRecord
100
AcDbLinetypeTableRecord
  2
DASHED
 70
64
  3
- - - - - - - - - - - - - - - - - - - -
 72
65
 73
2
 40
0.2
 49
0.1
 74
0
 49
-0.1
 74
0
  0
ENDTAB
  0
TABLE
  2
LAYER
  5
2
100
AcDbSymbolTable
 70
36
  0
LAYER
  5
10
100
AcDbSymbolTableRecord
100
AcDbLayerTableRecord
  2
0
 70
0
 62
7
  6
CONTINUOUS
370
-3
390
F
  0
LAYER
  5
1FA
100
AcDbSymbolTableRecord
100
AcDbLayerTableRecord
  2
DEFAULT_1
 70
0
 62
7
  6
CENTER
370
-3
390
F
  0
LAYER
  5
1FB
100
AcDbSymbolTableRecord
100
AcDbLayerTableRecord
  2
DEFAULT_2
 70
0
 62
7
  6
HIDDEN
370
-3
390
F
  0
LAYER
  5
1FC
100
AcDbSymbolTableRecord
100
AcDbLayerTableRecord
  2
DEFAULT_3
 70
0
 62
7
  6
PHANTOM
370
-3
390
F
  0
LAYER
  5
1FD
100
AcDbSymbolTableRecord
100
AcDbLayerTableRecord
  2
ASSI
 70
0
 62
7
  6
CONTINUOUS
370
-3
390
F
  0
LAYER
  5
1FE
100
AcDbSymbolTableRecord
100
AcDbLayerTableRecord
  2
COORDINATE
 70
0
 62
7
  6
CONTINUOUS
370
-3
390
F
  0
LAYER
  5
1FF
100
AcDbSymbolTableRecord
100
AcDbLayerTableRecord
  2
COPY_PUBLISH
 70
0
 62
7
  6
CONTINUOUS
370
-3
390
F
  0
LAYER
  5
200
100
AcDbSymbolTableRecord
100
AcDbLayerTableRecord
  2
COSMETICI
 70
0
 62
7
  6
CONTINUOUS
370
-3
390
F
  0
LAYER
  5
201
100
AcDbSymbolTableRecord
100
AcDbLayerTableRecord
  2
CURVE
 70
0
 62
7
  6
CONTINUOUS
370
-3
390
F
  0
LAYER
  5
202
100
AcDbSymbolTableRecord
100
AcDbLayerTableRecord
  2
DRAFT
 70
0
 62
7
  6
CONTINUOUS
370
-3
390
F
  0
LAYER
  5
203
100
AcDbSymbolTableRecord
100
AcDbLayerTableRecord
  2
IMPORT_IGES
 70
0
 62
7
  6
CONTINUOUS
370
-3
390
F
  0
LAYER
  5
204
100
AcDbSymbolTableRecord
100
AcDbLayerTableRecord
  2
NOTE
 70
0
 62
7
  6
CONTINUOUS
370
-3
390
F
  0
LAYER
  5
205
100
AcDbSymbolTableRecord
100
AcDbLayerTableRecord
  2
PIANI
 70
0
 62
7
  6
CONTINUOUS
370
-3
390
F
  0
LAYER
  5
206
100
AcDbSymbolTableRecord
100
AcDbLayerTableRecord
  2
PUNTI
 70
0
 62
7
  6
CONTINUOUS
370
-3
390
F
  0
LAYER
  5
207
100
AcDbSymbolTableRecord
100
AcDbLayerTableRecord
  2
RACCORDO
 70
0
 62
7
  6
CONTINUOUS
370
-3
390
F
  0
LAYER
  5
208
100
AcDbSymbolTableRecord
100
AcDbLayerTableRecord
  2
SIMBOLI
 70
0
 62
7
  6
CONTINUOUS
370
-3
390
F
  0
LAYER
  5
209
100
AcDbSymbolTableRecord
100
AcDbLayerTableRecord
  2
SMUSSO
 70
0
 62
7
  6
CONTINUOUS
370
-3
390
F
  0
LAYER
  5
20A
100
AcDbSymbolTableRecord
100
AcDbLayerTableRecord
  2
SUPERFICI
 70
0
 62
7
  6
CONTINUOUS
370
-3
390
F
  0
LAYER
  5
20B
100
AcDbSymbolTableRecord
100
AcDbLayerTableRecord
  2
TRASH
 70
0
 62
7
  6
CONTINUOUS
370
-3
390
F
  0
ENDTAB
  0
TABLE
  2
STYLE
  5
3
100
AcDbSymbolTable
 70
1
  0
STYLE
  5
11
100
AcDbSymbolTableRecord
100
AcDbTextStyleTableRecord
  2
STANDARD
 70
0
 40
0.0
 41
0.8
 50
0.0
 71
0
 42
0.2
  3
txt
  4

  0
STYLE
  5
20C
100
AcDbSymbolTableRecord
100
AcDbTextStyleTableRecord
  2
TEXTSTYLE_1
 70
0
 40
0.0
 41
0.8
 50
0.0
 71
0
 42
0.2
  3
gdt
  4

  0
ENDTAB
  0
TABLE
  2
VIEW
  5
6
100
AcDbSymbolTable
 70
0
  0
ENDTAB
  0
TABLE
  2
UCS
  5
7
100
AcDbSymbolTable
 70
0
  0
ENDTAB
  0
TABLE
  2
APPID
  5
9
100
AcDbSymbolTable
 70
1
  0
APPID
  5
20D
100
AcDbSymbolTableRecord
100
AcDbRegAppTableRecord
  2
ACAD
 70
0
  0
ENDTAB
  0
TABLE
  2
BLOCK_RECORD
  5
1
100
AcDbSymbolTable
 70
0
  0
BLOCK_RECORD
  5
20E
100
AcDbSymbolTableRecord
100
AcDbBlockTableRecord
  2
*Model_Space
  0
BLOCK_RECORD
  5
20F
100
AcDbSymbolTableRecord
100
AcDbBlockTableRecord
  2
*Paper_Space
  0
BLOCK_RECORD
  5
210
100
AcDbSymbolTableRecord
100
AcDbBlockTableRecord
  2
_FILLED
  0
ENDTAB
  0
TABLE
  2
DIMSTYLE
  5
A
100
AcDbSymbolTable
 70
1
100
AcDbDimStyleTable
 71
0
  0
DIMSTYLE
105
211
100
AcDbSymbolTableRecord
100
AcDbDimStyleTableRecord
  2
STANDARD
 70
0
  3

  4

 40
1.0
 41
3.0
 42
0.5
 43
0.38
 44
1.5
 45
0.0
 46
0.0
 47
0.01
 48
0.01
140
3.0
141
0.09
142
0.0
143
25.4
144
1.0
145
0.0
146
1.0
147
0.625
 71
1
 72
0
 73
0
 74
0
 75
0
 76
0
 77
1
 78
8
 79
2
170
0
171
1
172
0
173
0
174
0
175
0
176
0
177
0
178
0
270
2
179
2
271
2
272
2
273
2
274
2
275
0
280
0
281
0
282
0
283
1
284
8
285
0
286
0
287
3
288
0
340
11
278
44
341
210
342
210
343
210
344
210
  0
ENDTAB
  0
ENDSEC
  0
SECTION
  2
BLOCKS
  0
BLOCK
  5
20
100
AcDbEntity
  8
0
100
AcDbBlockBegin
  2
*Model_Space
 70
0
 10
0.0
 20
0.0
 30
0.0
  3
*Model_Space
  1

  0
ENDBLK
  5
21
100
AcDbEntity
  8
0
100
AcDbBlockEnd
  0
BLOCK
  5
1C
100
AcDbEntity
  8
0
100
AcDbBlockBegin
  2
*Paper_Space
 70
0
 10
0.0
 20
0.0
 30
0.0
  3
*Paper_Space
  1

  0
ENDBLK
  5
1D
100
AcDbEntity
  8
0
100
AcDbBlockEnd
  0
BLOCK
  5
212
100
AcDbEntity
  8
0
100
AcDbBlockBegin
  2
_FILLED
 70
64
 10
0.0
 20
0.0
  3
_FILLED
  1

  0
SOLID
  5
213
100
AcDbEntity
  8
0
  6
BYBLOCK
 62
0
100
AcDbTrace
 10
0.0
 20
0.0
 11
-1.0
 21
0.3166666667
 12
-1.0
 22
-0.3166666667
 13
-1.0
 23
-0.3166666667
  0
ENDBLK
  5
214
100
AcDbEntity
  8
0
  6
BYBLOCK
 62
0
100
AcDbBlockEnd
  0
ENDSEC
  0
SECTION
  2
ENTITIES
  0
LINE
  5
215
100
AcDbEntity
  8
RACCORDO
100
AcDbLine
 62
250
  6
CONTINUOUS
 10
-7.9022358671
 20
37.7731178374
 11
-2.2453816176
 21
41.039314584
  0
LINE
  5
216
100
AcDbEntity
  8
RACCORDO
100
AcDbLine
 62
7
  6
CONTINUOUS
 10
-6.4021633867
 20
32.7256726436
 11
-0.7453091372
 21
35.9918693902
  0
LINE
  5
217
100
AcDbEntity
  8
RACCORDO
100
AcDbLine
 62
250
  6
CONTINUOUS
 10
5.5327929754
 20
30.0159005641
 11
11.1896472249
 21
33.2820973108
  0
LINE
  5
218
100
AcDbEntity
  8
0
100
AcDbLine
 62
7
  6
CONTINUOUS
 10
-3.5535291628
 20
20.9746305234
 11
-9.2103834123
 21
17.7084337768
  0
LINE
  5
219
100
AcDbEntity
  8
RACCORDO
100
AcDbLine
 62
250
  6
CONTINUOUS
 10
-7.9022358671
 20
16.9531257792
 11
-2.2453816176
 21
20.2193225258
  0
LINE
  5
21A
100
AcDbEntity
  8
RACCORDO
100
AcDbLine
 62
7
  6
CONTINUOUS
 10
7.0328654559
 20
24.9684553704
 11
12.6897197054
 21
28.234652117
  0
LINE
  5
21B
100
AcDbEntity
  8
RACCORDO
100
AcDbLine
 62
7
  6
CONTINUOUS
 10
-13.3164494295
 20
16.1370500517
 11
-13.3164494295
 21
41.8558637707
  0
LINE
  5
21C
100
AcDbEntity
  8
RACCORDO
100
AcDbLine
 62
250
  6
CONTINUOUS
 10
-12.1448765542
 20
14.5039516784
 11
-12.1448765542
 21
40.2227653973
  0
LINE
  5
21D
100
AcDbEntity
  8
RACCORDO
100
AcDbLine
 62
7
  6
CONTINUOUS
 10
-6.4021633867
 20
11.9056805854
 11
-0.7453091372
 21
15.171877332
  0
LINE
  5
21E
100
AcDbEntity
  8
ASSI
100
AcDbLine
 62
7
  6
CONTINUOUS
 10
-10.5235562107
 20
13.5678216319
 11
-10.5235562107
 21
-43.8735547475
  0
LINE
  5
21F
100
AcDbEntity
  8
ASSI
100
AcDbLine
 62
7
  6
CONTINUOUS
 10
-9.5235562107
 20
12.9904341649
 11
-9.5235562107
 21
-43.8735547475
  0
LINE
  5
220
100
AcDbEntity
  8
0
100
AcDbLine
 62
7
  6
CONTINUOUS
 10
-9.2103834123
 20
17.7084337768
 11
-9.2103834123
 21
33.6296041743
  0
LINE
  5
221
100
AcDbEntity
  8
ASSI
100
AcDbLine
 62
7
  6
CONTINUOUS
 10
-9.1093426483
 20
12.7512724453
 11
-9.1093426483
 21
-43.8735547475
  0
LINE
  5
222
100
AcDbEntity
  8
ASSI
100
AcDbLine
 62
7
  6
CONTINUOUS
 10
-8.1093426483
 20
12.1738849782
 11
-8.1093426483
 21
-43.8735547475
  0
LINE
  5
223
100
AcDbEntity
  8
0
100
AcDbLine
 62
7
  6
CONTINUOUS
 10
10.5886064609
 20
12.8091386569
 11
4.9317522114
 21
9.5429419103
  0
LINE
  5
224
100
AcDbEntity
  8
0
100
AcDbLine
 62
7
  6
CONTINUOUS
 10
-3.5535291628
 20
20.9746305234
 11
-3.5535291628
 21
34.3704383427
  0
LINE
  5
225
100
AcDbEntity
  8
RACCORDO
100
AcDbLine
 62
250
  6
CONTINUOUS
 10
5.5327929754
 20
9.1959085059
 11
11.1896472249
 21
12.4621052526
  0
LINE
  5
226
100
AcDbEntity
  8
RACCORDO
100
AcDbLine
 62
7
  6
CONTINUOUS
 10
7.0328654559
 20
4.1484633121
 11
12.6897197054
 21
7.4146600588
  0
LINE
  5
227
100
AcDbEntity
  8
RACCORDO
100
AcDbLine
 62
7
  6
CONTINUOUS
 10
0.8256861943
 20
7.9715581851
 11
0.8256861943
 21
33.6903719041
  0
LINE
  5
228
100
AcDbEntity
  8
RACCORDO
100
AcDbLine
 62
250
  6
CONTINUOUS
 10
1.9972590695
 20
6.3384598118
 11
1.9972590695
 21
32.0572735308
  0
LINE
  5
229
100
AcDbEntity
  8
0
100
AcDbLine
 62
7
  6
CONTINUOUS
 10
4.9317522114
 20
9.5429419103
 11
4.9317522114
 21
25.4641123077
  0
LINE
  5
22A
100
AcDbEntity
  8
RACCORDO
100
AcDbLine
 62
7
  6
CONTINUOUS
 10
-12.1448765542
 20
14.5039516784
 11
-7.9022358671
 21
12.0543041184
  0
LINE
  5
22B
100
AcDbEntity
  8
RACCORDO
100
AcDbLine
 62
7
  6
CONTINUOUS
 10
1.9972590695
 20
6.3384598118
 11
5.5327929754
 21
4.2970868452
  0
LINE
  5
22C
100
AcDbEntity
  8
0
100
AcDbLine
 62
7
  6
CONTINUOUS
 10
10.5886064609
 20
12.8091386569
 11
10.5886064609
 21
27.0214956628
  0
LINE
  5
22D
100
AcDbEntity
  8
RACCORDO
100
AcDbLine
 62
7
  6
CONTINUOUS
 10
5.5327929754
 20
9.1959085059
 11
4.9317522114
 21
9.5429419103
  0
LINE
  5
22E
100
AcDbEntity
  8
RACCORDO
100
AcDbLine
 62
7
  6
CONTINUOUS
 10
-7.9022358671
 20
16.9531257792
 11
-9.2103834123
 21
17.7084337768
  0
LINE
  5
22F
100
AcDbEntity
  8
RACCORDO
100
AcDbLine
 62
7
  6
CONTINUOUS
 10
11.1896472249
 20
12.4621052526
 11
10.5886064609
 21
12.8091386569
  0
LINE
  5
230
100
AcDbEntity
  8
RACCORDO
100
AcDbLine
 62
7
  6
CONTINUOUS
 10
-2.2453816176
 20
20.2193225258
 11
-3.5535291628
 21
20.9746305234
  0
LINE
  5
231
100
AcDbEntity
  8
RACCORDO
100
AcDbLine
 62
7
  6
CONTINUOUS
 10
-9.2103834123
 20
33.6296041743
 11
-7.9022358671
 21
32.8742961766
  0
LINE
  5
232
100
AcDbEntity
  8
RACCORDO
100
AcDbLine
 62
7
  6
CONTINUOUS
 10
4.9317522114
 20
25.4641123077
 11
5.5327929754
 21
25.1170789034
  0
LINE
  5
233
100
AcDbEntity
  8
RACCORDO
100
AcDbLine
 62
7
  6
CONTINUOUS
 10
5.5327929754
 20
30.0159005641
 11
1.9972590695
 21
32.0572735308
  0
LINE
  5
234
100
AcDbEntity
  8
RACCORDO
100
AcDbLine
 62
7
  6
CONTINUOUS
 10
-7.9022358671
 20
37.7731178374
 11
-12.1448765542
 21
40.2227653973
  0
LINE
  5
235
100
AcDbEntity
  8
RACCORDO
100
AcDbLine
 62
7
  6
CONTINUOUS
 10
11.1896472249
 20
33.2820973108
 11
7.654113319
 21
35.3234702774
  0
LINE
  5
236
100
AcDbEntity
  8
RACCORDO
100
AcDbLine
 62
7
  6
CONTINUOUS
 10
-2.2453816176
 20
41.039314584
 11
-6.4880223047
 21
43.488962144
  0
SPLINE
  5
237
100
AcDbEntity
  8
RACCORDO
100
AcDbSpline
 62
7
  6
CONTINUOUS
 70
0
 71
3
 72
18
 73
14
 74
0
 42
0.0000001
 43
0.0000001
 44
0.0000000001
 40
0.0
 40
0.0
 40
0.0
 40
0.0
 40
0.1286576849
 40
0.2702055908
 40
0.4173251252
 40
0.5616334025
 40
0.695267952
 40
0.7562743877
 40
0.8127665047
 40
0.8647154055
 40
0.9125361294
 40
0.9571531058
 40
1.0
 40
1.0
 40
1.0
 40
1.0
 10
11.1896472249
 20
12.4621052526
 30
0.0
 10
11.4117148301
 20
12.3338862005
 30
0.0
 10
11.8427672554
 20
12.0021694549
 30
0.0
 10
12.3944653319
 20
11.3745057136
 30
0.0
 10
12.8486630244
 20
10.6357741197
 30
0.0
 10
13.167583279
 20
9.8467391754
 30
0.0
 10
13.3037000115
 20
9.1795304071
 30
0.0
 10
13.3165968999
 20
8.6779854539
 30
0.0
 10
13.2802580986
 20
8.3410353774
 30
0.0
 10
13.1986151652
 20
8.038940923
 30
0.0
 10
13.072573205
 20
7.7780228803
 30
0.0
 10
12.9038679309
 20
7.5646727067
 30
0.0
 10
12.763666393
 20
7.4573763563
 30
0.0
 10
12.6897114919
 20
7.4146749907
 30
0.0
  0
SPLINE
  5
238
100
AcDbEntity
  8
RACCORDO
100
AcDbSpline
 62
7
  6
CONTINUOUS
 70
0
 71
3
 72
18
 73
14
 74
0
 42
0.0000001
 43
0.0000001
 44
0.0000000001
 40
0.0
 40
0.0
 40
0.0
 40
0.0
 40
0.1286576849
 40
0.2702055908
 40
0.4173251252
 40
0.5616334025
 40
0.695267952
 40
0.7562743877
 40
0.8127665047
 40
0.8647154055
 40
0.9125361294
 40
0.9571531058
 40
1.0
 40
1.0
 40
1.0
 40
1.0
 10
11.1896472249
 20
33.2820973108
 30
0.0
 10
11.4117148301
 20
33.1538782587
 30
0.0
 10
11.8427672554
 20
32.8221615131
 30
0.0
 10
12.3944653319
 20
32.1944977718
 30
0.0
 10
12.8486630244
 20
31.4557661779
 30
0.0
 10
13.167583279
 20
30.6667312337
 30
0.0
 10
13.3037000115
 20
29.9995224653
 30
0.0
 10
13.3165968999
 20
29.4979775121
 30
0.0
 10
13.2802580986
 20
29.1610274356
 30
0.0
 10
13.1986151652
 20
28.8589329812
 30
0.0
 10
13.072573205
 20
28.5980149386
 30
0.0
 10
12.9038679309
 20
28.384664765
 30
0.0
 10
12.763666393
 20
28.2773684145
 30
0.0
 10
12.6897114919
 20
28.2346670489
 30
0.0
  0
SPLINE
  5
239
100
AcDbEntity
  8
RACCORDO
100
AcDbSpline
 62
7
  6
CONTINUOUS
 70
0
 71
3
 72
12
 73
8
 74
0
 42
0.0000001
 43
0.0000001
 44
0.0000000001
 40
0.0
 40
0.0
 40
0.0
 40
0.0
 40
0.2895575727
 40
0.5486542657
 40
0.7816335709
 40
0.8918395863
 40
1.0
 40
1.0
 40
1.0
 40
1.0
 10
5.5327929754
 20
25.1170789034
 30
0.0
 10
5.6644701775
 20
25.0410501372
 30
0.0
 10
5.9263917933
 20
24.916452592
 30
0.0
 10
6.3286617043
 20
24.8191181404
 30
0.0
 10
6.6498895365
 20
24.8277168165
 30
0.0
 10
6.8792350296
 20
24.8911406155
 30
0.0
 10
6.9836711706
 20
24.9400703937
 30
0.0
 10
7.0328572424
 20
24.9684703023
 30
0.0
  0
SPLINE
  5
23A
100
AcDbEntity
  8
RACCORDO
100
AcDbSpline
 62
7
  6
CONTINUOUS
 70
0
 71
3
 72
12
 73
8
 74
0
 42
0.0000001
 43
0.0000001
 44
0.0000000001
 40
0.0
 40
0.0
 40
0.0
 40
0.0
 40
0.2895575727
 40
0.5486542657
 40
0.7816335709
 40
0.8918395863
 40
1.0
 40
1.0
 40
1.0
 40
1.0
 10
5.5327929754
 20
4.2970868452
 30
0.0
 10
5.6644701775
 20
4.221058079
 30
0.0
 10
5.9263917933
 20
4.0964605338
 30
0.0
 10
6.3286617043
 20
3.9991260822
 30
0.0
 10
6.6498895365
 20
4.0077247582
 30
0.0
 10
6.8792350296
 20
4.0711485573
 30
0.0
 10
6.9836711706
 20
4.1200783355
 30
0.0
 10
7.0328572424
 20
4.1484782441
 30
0.0
  0
SPLINE
  5
23B
100
AcDbEntity
  8
RACCORDO
100
AcDbSpline
 62
7
  6
CONTINUOUS
 70
0
 71
3
 72
20
 73
16
 74
0
 42
0.0000001
 43
0.0000001
 44
0.0000000001
 40
0.0
 40
0.0
 40
0.0
 40
0.0
 40
0.0624036977
 40
0.1288013244
 40
0.27029052
 40
0.4173470054
 40
0.5615979193
 40
0.6302348908
 40
0.6953623157
 40
0.756347198
 40
0.8128198721
 40
0.864755202
 40
0.9125621297
 40
0.9571656725
 40
1.0
 40
1.0
 40
1.0
 40
1.0
 10
7.654113319
 20
35.3234702774
 30
0.0
 10
7.5104443883
 20
35.4064229174
 30
0.0
 10
7.2024438571
 20
35.5582676912
 30
0.0
 10
6.5258613115
 20
35.8034220475
 30
0.0
 10
5.5947163508
 20
35.9897561526
 30
0.0
 10
4.4398001201
 20
36.0216330828
 30
0.0
 10
3.4866641804
 20
35.8879809299
 30
0.0
 10
2.7754648314
 20
35.6831129959
 30
0.0
 10
2.2942674738
 20
35.4892843028
 30
0.0
 10
1.8667861733
 20
35.2567924056
 30
0.0
 10
1.5019284826
 20
34.9902067689
 30
0.0
 10
1.2074455963
 20
34.6945676086
 30
0.0
 10
0.9901535057
 20
34.3750565367
 30
0.0
 10
0.8562508958
 20
34.0380047726
 30
0.0
 10
0.8257115766
 20
33.8045773632
 30
0.0
 10
0.825695837
 20
33.6907043409
 30
0.0
  0
SPLINE
  5
23C
100
AcDbEntity
  8
RACCORDO
100
AcDbSpline
 62
7
  6
CONTINUOUS
 70
0
 71
3
 72
12
 73
8
 74
0
 42
0.0000001
 43
0.0000001
 44
0.0000000001
 40
0.0
 40
0.0
 40
0.0
 40
0.0
 40
0.2895685907
 40
0.5486350464
 40
0.7816281433
 40
0.8918333022
 40
1.0
 40
1.0
 40
1.0
 40
1.0
 10
1.9972590695
 20
6.3384598118
 30
0.0
 10
1.8216571905
 20
6.4398501359
 30
0.0
 10
1.5031326444
 20
6.6592594853
 30
0.0
 10
1.1225977733
 20
7.0589995168
 30
0.0
 10
0.9183427922
 20
7.4357081889
 30
0.0
 10
0.8388101795
 20
7.7429111304
 30
0.0
 10
0.8256853676
 20
7.8961467265
 30
0.0
 10
0.825695837
 20
7.971890622
 30
0.0
  0
SPLINE
  5
23D
100
AcDbEntity
  8
SMUSSO
100
AcDbSpline
 62
7
  6
CONTINUOUS
 70
0
 71
3
 72
15
 73
11
 74
0
 42
0.0000001
 43
0.0000001
 44
0.0000000001
 40
0.0
 40
0.0
 40
0.0
 40
0.0
 40
0.1141512538
 40
0.2373216074
 40
0.3669730972
 40
0.4999987482
 40
0.6330281108
 40
0.7626638878
 40
0.8858658503
 40
1.0
 40
1.0
 40
1.0
 40
1.0
 10
5.5326212078
 20
8.7877539955
 30
0.0
 10
5.6536447146
 20
8.717890083
 30
0.0
 10
5.8926932222
 20
8.5503411826
 30
0.0
 10
6.2216204747
 20
8.242641867
 30
0.0
 10
6.5247439684
 20
7.8789005626
 30
0.0
 10
6.7906545406
 20
7.4727663247
 30
0.0
 10
7.0094078993
 20
7.0394322845
 30
0.0
 10
7.1729347547
 20
6.595051387
 30
0.0
 10
7.2749323135
 20
6.1563405009
 30
0.0
 10
7.3005599283
 20
5.8655317284
 30
0.0
 10
7.3005599284
 20
5.7258112792
 30
0.0
  0
SPLINE
  5
23E
100
AcDbEntity
  8
SMUSSO
100
AcDbSpline
 62
7
  6
CONTINUOUS
 70
0
 71
3
 72
10
 73
6
 74
0
 42
0.0000001
 43
0.0000001
 44
0.0000000001
 40
0.0
 40
0.0
 40
0.0
 40
0.0
 40
0.5237359564
 40
0.7652668979
 40
1.0
 40
1.0
 40
1.0
 40
1.0
 10
7.2548961927
 20
6.2132289604
 30
0.0
 10
7.2314440533
 20
6.1374882267
 30
0.0
 10
7.1811205133
 20
6.029766644
 30
0.0
 10
7.0794195384
 20
5.9165027483
 30
0.0
 10
7.0207096339
 20
5.8735261476
 30
0.0
 10
6.9899359956
 20
5.8557550888
 30
0.0
  0
SPLINE
  5
23F
100
AcDbEntity
  8
SMUSSO
100
AcDbSpline
 62
7
  6
CONTINUOUS
 70
0
 71
3
 72
10
 73
6
 74
0
 42
0.0000001
 43
0.0000001
 44
0.0000000001
 40
0.0
 40
0.0
 40
0.0
 40
0.0
 40
0.5237359564
 40
0.7652668979
 40
1.0
 40
1.0
 40
1.0
 40
1.0
 10
7.2548961927
 20
27.0332210186
 30
0.0
 10
7.2314440533
 20
26.9574802849
 30
0.0
 10
7.1811205133
 20
26.8497587022
 30
0.0
 10
7.0794195384
 20
26.7364948065
 30
0.0
 10
7.0207096339
 20
26.6935182058
 30
0.0
 10
6.9899359956
 20
26.675747147
 30
0.0
  0
SPLINE
  5
240
100
AcDbEntity
  8
SMUSSO
100
AcDbSpline
 62
7
  6
CONTINUOUS
 70
0
 71
3
 72
15
 73
11
 74
0
 42
0.0000001
 43
0.0000001
 44
0.0000000001
 40
0.0
 40
0.0
 40
0.0
 40
0.0
 40
0.1141512538
 40
0.2373216074
 40
0.3669730972
 40
0.4999987482
 40
0.6330281108
 40
0.7626638878
 40
0.8858658503
 40
1.0
 40
1.0
 40
1.0
 40
1.0
 10
5.5326212078
 20
29.6077460537
 30
0.0
 10
5.6536447146
 20
29.5378821412
 30
0.0
 10
5.8926932222
 20
29.3703332408
 30
0.0
 10
6.2216204747
 20
29.0626339252
 30
0.0
 10
6.5247439684
 20
28.6988926208
 30
0.0
 10
6.7906545406
 20
28.2927583829
 30
0.0
 10
7.0094078993
 20
27.8594243427
 30
0.0
 10
7.1729347547
 20
27.4150434453
 30
0.0
 10
7.2749323135
 20
26.9763325591
 30
0.0
 10
7.3005599283
 20
26.6855237866
 30
0.0
 10
7.3005599284
 20
26.5458033374
 30
0.0
  0
SPLINE
  5
241
100
AcDbEntity
  8
SMUSSO
100
AcDbSpline
 62
7
  6
CONTINUOUS
 70
0
 71
3
 72
10
 73
6
 74
0
 42
0.0000001
 43
0.0000001
 44
0.0000000001
 40
0.0
 40
0.0
 40
0.0
 40
0.0
 40
0.2347674587
 40
0.4763242317
 40
1.0
 40
1.0
 40
1.0
 40
1.0
 10
5.4898635176
 20
29.2737815072
 30
0.0
 10
5.5205671825
 20
29.291512158
 30
0.0
 10
5.5869735039
 20
29.3208288465
 30
0.0
 10
5.7355316492
 20
29.3522933557
 30
0.0
 10
5.8536890162
 20
29.342166804
 30
0.0
 10
5.9308391949
 20
29.3247689521
 30
0.0
  0
SPLINE
  5
242
100
AcDbEntity
  8
SMUSSO
100
AcDbSpline
 62
7
  6
CONTINUOUS
 70
0
 71
3
 72
10
 73
6
 74
0
 42
0.0000001
 43
0.0000001
 44
0.0000000001
 40
0.0
 40
0.0
 40
0.0
 40
0.0
 40
0.2347674587
 40
0.4763242317
 40
1.0
 40
1.0
 40
1.0
 40
1.0
 10
5.4898635176
 20
8.453789449
 30
0.0
 10
5.5205671825
 20
8.4715200998
 30
0.0
 10
5.5869735039
 20
8.5008367883
 30
0.0
 10
5.7355316492
 20
8.5323012975
 30
0.0
 10
5.8536890162
 20
8.5221747458
 30
0.0
 10
5.9308391949
 20
8.5047768939
 30
0.0
  0
SPLINE
  5
243
100
AcDbEntity
  8
SMUSSO
100
AcDbSpline
 62
7
  6
CONTINUOUS
 70
0
 71
3
 72
11
 73
7
 74
0
 42
0.0000001
 43
0.0000001
 44
0.0000000001
 40
0.0
 40
0.0
 40
0.0
 40
0.0
 40
0.2897005458
 40
0.5490845113
 40
0.7822144759
 40
1.0
 40
1.0
 40
1.0
 40
1.0
 10
5.1792395848
 20
7.7671841589
 30
0.0
 10
5.1792395853
 20
7.8431772702
 30
0.0
 10
5.1907595243
 20
7.9877000542
 30
0.0
 10
5.2492842258
 20
8.1862696041
 30
0.0
 10
5.3478275592
 20
8.3474002056
 30
0.0
 10
5.4403913684
 20
8.4252204359
 30
0.0
 10
5.4898635176
 20
8.453789449
 30
0.0
  0
SPLINE
  5
244
100
AcDbEntity
  8
SMUSSO
100
AcDbSpline
 62
7
  6
CONTINUOUS
 70
0
 71
3
 72
15
 73
11
 74
0
 42
0.0000001
 43
0.0000001
 44
0.0000000001
 40
0.0
 40
0.0
 40
0.0
 40
0.0
 40
0.1448712505
 40
0.2745352921
 40
0.391106213
 40
0.4999968303
 40
0.6088826045
 40
0.7254734591
 40
0.8551001363
 40
1.0
 40
1.0
 40
1.0
 40
1.0
 10
3.7650260225
 20
7.7671841589
 30
0.0
 10
3.7650260217
 20
7.8938586105
 30
0.0
 10
3.7842136381
 20
8.1347404481
 30
0.0
 10
3.8817313793
 20
8.4656394878
 30
0.0
 10
4.0461602366
 20
8.7343008567
 30
0.0
 10
4.274241592
 20
8.9262171042
 30
0.0
 10
4.5544904414
 20
9.0278571711
 30
0.0
 10
4.8693557544
 20
9.0358679347
 30
0.0
 10
5.2047028881
 20
8.9549445077
 30
0.0
 10
5.4228926978
 20
8.8510975823
 30
0.0
 10
5.5326212078
 20
8.7877539955
 30
0.0
  0
SPLINE
  5
245
100
AcDbEntity
  8
SMUSSO
100
AcDbSpline
 62
7
  6
CONTINUOUS
 70
0
 71
3
 72
23
 73
19
 74
0
 42
0.0000001
 43
0.0000001
 44
0.0000000001
 40
0.0
 40
0.0
 40
0.0
 40
0.0
 40
0.0603657829
 40
0.114394541
 40
0.1629674376
 40
0.2083403806
 40
0.2537121498
 40
0.3022955946
 40
0.3563118119
 40
0.416692704
 40
0.4832801553
 40
0.5551276058
 40
0.6307546663
 40
0.7083491726
 40
0.7859453496
 40
0.8615618007
 40
0.9334254229
 40
1.0
 40
1.0
 40
1.0
 40
1.0
 10
7.3005599284
 20
5.7258111774
 30
0.0
 10
7.3005599284
 20
5.5991293232
 30
0.0
 10
7.2813701513
 20
5.3582341357
 30
0.0
 10
7.1838406435
 20
5.0273190808
 30
0.0
 10
7.0193910144
 20
4.7586507359
 30
0.0
 10
6.7912826714
 20
4.5667391153
 30
0.0
 10
6.5109989121
 20
4.4651211056
 30
0.0
 10
6.1961204909
 20
4.4571315105
 30
0.0
 10
5.8606739407
 20
4.5381394256
 30
0.0
 10
5.5157760928
 20
4.7022867482
 30
0.0
 10
5.1728266616
 20
4.9427258106
 30
0.0
 10
4.8438260105
 20
5.2504930204
 30
0.0
 10
4.5407610727
 20
5.614210941
 30
0.0
 10
4.2748702425
 20
6.0203352184
 30
0.0
 10
4.0561436197
 20
6.4536457255
 30
0.0
 10
3.892635366
 20
6.8980003642
 30
0.0
 10
3.7906503522
 20
7.3366831375
 30
0.0
 10
3.7650260174
 20
7.627472712
 30
0.0
 10
3.7650260225
 20
7.7671841589
 30
0.0
  0
SPLINE
  5
246
100
AcDbEntity
  8
SMUSSO
100
AcDbSpline
 62
7
  6
CONTINUOUS
 70
0
 71
3
 72
23
 73
19
 74
0
 42
0.0000001
 43
0.0000001
 44
0.0000000001
 40
0.0
 40
0.0
 40
0.0
 40
0.0
 40
0.0603657829
 40
0.114394541
 40
0.1629674376
 40
0.2083403806
 40
0.2537121498
 40
0.3022955946
 40
0.3563118119
 40
0.416692704
 40
0.4832801553
 40
0.5551276058
 40
0.6307546663
 40
0.7083491726
 40
0.7859453496
 40
0.8615618007
 40
0.9334254229
 40
1.0
 40
1.0
 40
1.0
 40
1.0
 10
7.3005599284
 20
26.5458032356
 30
0.0
 10
7.3005599284
 20
26.4191213815
 30
0.0
 10
7.2813701513
 20
26.1782261939
 30
0.0
 10
7.1838406435
 20
25.847311139
 30
0.0
 10
7.0193910144
 20
25.5786427941
 30
0.0
 10
6.7912826714
 20
25.3867311735
 30
0.0
 10
6.5109989121
 20
25.2851131638
 30
0.0
 10
6.1961204909
 20
25.2771235687
 30
0.0
 10
5.8606739407
 20
25.3581314838
 30
0.0
 10
5.5157760928
 20
25.5222788064
 30
0.0
 10
5.1728266616
 20
25.7627178688
 30
0.0
 10
4.8438260105
 20
26.0704850787
 30
0.0
 10
4.5407610727
 20
26.4342029992
 30
0.0
 10
4.2748702425
 20
26.8403272766
 30
0.0
 10
4.0561436197
 20
27.2736377837
 30
0.0
 10
3.892635366
 20
27.7179924224
 30
0.0
 10
3.7906503522
 20
28.1566751957
 30
0.0
 10
3.7650260174
 20
28.4474647702
 30
0.0
 10
3.7650260225
 20
28.5871762171
 30
0.0
  0
SPLINE
  5
247
100
AcDbEntity
  8
RACCORDO
100
AcDbSpline
 62
7
  6
CONTINUOUS
 70
0
 71
3
 72
18
 73
14
 74
0
 42
0.0000001
 43
0.0000001
 44
0.0000000001
 40
0.0
 40
0.0
 40
0.0
 40
0.0
 40
0.0428468942
 40
0.0874638706
 40
0.1352845945
 40
0.1872334953
 40
0.2437256123
 40
0.304732048
 40
0.4383665975
 40
0.5826748748
 40
0.7297944092
 40
0.8713423151
 40
1.0
 40
1.0
 40
1.0
 40
1.0
 10
7.0328572424
 20
24.9684703023
 30
0.0
 10
7.1068121435
 20
25.0111716679
 30
0.0
 10
7.2470136814
 20
25.1184680183
 30
0.0
 10
7.4157189555
 20
25.3318181919
 30
0.0
 10
7.5417609157
 20
25.5927362345
 30
0.0
 10
7.6234038491
 20
25.894830689
 30
0.0
 10
7.6597426504
 20
26.2317807654
 30
0.0
 10
7.646845762
 20
26.7333257187
 30
0.0
 10
7.5107290295
 20
27.400534487
 30
0.0
 10
7.1918087749
 20
28.1895694313
 30
0.0
 10
6.7376110824
 20
28.9283010252
 30
0.0
 10
6.1859130059
 20
29.5559647665
 30
0.0
 10
5.7548605806
 20
29.8876815121
 30
0.0
 10
5.5327929754
 20
30.0159005641
 30
0.0
  0
SPLINE
  5
248
100
AcDbEntity
  8
RACCORDO
100
AcDbSpline
 62
7
  6
CONTINUOUS
 70
0
 71
3
 72
18
 73
14
 74
0
 42
0.0000001
 43
0.0000001
 44
0.0000000001
 40
0.0
 40
0.0
 40
0.0
 40
0.0
 40
0.0428468942
 40
0.0874638706
 40
0.1352845945
 40
0.1872334953
 40
0.2437256123
 40
0.304732048
 40
0.4383665975
 40
0.5826748748
 40
0.7297944092
 40
0.8713423151
 40
1.0
 40
1.0
 40
1.0
 40
1.0
 10
7.0328572424
 20
4.1484782441
 30
0.0
 10
7.1068121435
 20
4.1911796097
 30
0.0
 10
7.2470136814
 20
4.2984759601
 30
0.0
 10
7.4157189555
 20
4.5118261337
 30
0.0
 10
7.5417609157
 20
4.7727441763
 30
0.0
 10
7.6234038491
 20
5.0748386308
 30
0.0
 10
7.6597426504
 20
5.4117887072
 30
0.0
 10
7.646845762
 20
5.9133336605
 30
0.0
 10
7.5107290295
 20
6.5805424288
 30
0.0
 10
7.1918087749
 20
7.3695773731
 30
0.0
 10
6.7376110824
 20
8.1083089669
 30
0.0
 10
6.1859130059
 20
8.7359727082
 30
0.0
 10
5.7548605806
 20
9.0676894539
 30
0.0
 10
5.5327929754
 20
9.1959085059
 30
0.0
  0
SPLINE
  5
249
100
AcDbEntity
  8
RACCORDO
100
AcDbSpline
 62
7
  6
CONTINUOUS
 70
0
 71
3
 72
12
 73
8
 74
0
 42
0.0000001
 43
0.0000001
 44
0.0000000001
 40
0.0
 40
0.0
 40
0.0
 40
0.0
 40
0.1081666978
 40
0.2183718567
 40
0.4513649536
 40
0.7104314093
 40
1.0
 40
1.0
 40
1.0
 40
1.0
 10
0.825695837
 20
33.6907043409
 30
0.0
 10
0.8256853676
 20
33.6149604454
 30
0.0
 10
0.8388101795
 20
33.4617248494
 30
0.0
 10
0.9183427922
 20
33.1545219078
 30
0.0
 10
1.1225977733
 20
32.7778132357
 30
0.0
 10
1.5031326444
 20
32.3780732043
 30
0.0
 10
1.8216571905
 20
32.1586638549
 30
0.0
 10
1.9972590695
 20
32.0572735308
 30
0.0
  0
SPLINE
  5
24A
100
AcDbEntity
  8
SMUSSO
100
AcDbSpline
 62
7
  6
CONTINUOUS
 70
0
 71
3
 72
15
 73
11
 74
0
 42
0.0000001
 43
0.0000001
 44
0.0000000001
 40
0.0
 40
0.0
 40
0.0
 40
0.0
 40
0.1448712505
 40
0.2745352921
 40
0.391106213
 40
0.4999968303
 40
0.6088826045
 40
0.7254734591
 40
0.8551001363
 40
1.0
 40
1.0
 40
1.0
 40
1.0
 10
3.7650260225
 20
28.5871762171
 30
0.0
 10
3.7650260217
 20
28.7138506687
 30
0.0
 10
3.7842136381
 20
28.9547325063
 30
0.0
 10
3.8817313793
 20
29.285631546
 30
0.0
 10
4.0461602366
 20
29.5542929149
 30
0.0
 10
4.274241592
 20
29.7462091624
 30
0.0
 10
4.5544904414
 20
29.8478492293
 30
0.0
 10
4.8693557544
 20
29.8558599929
 30
0.0
 10
5.2047028881
 20
29.774936566
 30
0.0
 10
5.4228926978
 20
29.6710896405
 30
0.0
 10
5.5326212078
 20
29.6077460537
 30
0.0
  0
SPLINE
  5
24B
100
AcDbEntity
  8
SMUSSO
100
AcDbSpline
 62
7
  6
CONTINUOUS
 70
0
 71
3
 72
17
 73
13
 74
0
 42
0.0000001
 43
0.0000001
 44
0.0000000001
 40
0.0
 40
0.0
 40
0.0
 40
0.0
 40
0.0428599346
 40
0.0874869082
 40
0.1353220244
 40
0.1872852955
 40
0.3045516268
 40
0.4382240162
 40
0.582570894
 40
0.7297314755
 40
0.8713137658
 40
1.0
 40
1.0
 40
1.0
 40
1.0
 10
6.9899359956
 20
5.8557550888
 30
0.0
 10
6.9529569915
 20
5.8344005758
 30
0.0
 10
6.8714292102
 20
5.8005469609
 30
0.0
 10
6.7368748381
 20
5.7807937861
 30
0.0
 10
6.5923669651
 20
5.7914459164
 30
0.0
 10
6.382397676
 20
5.8472944585
 30
0.0
 10
6.1139845342
 20
5.9940755323
 30
0.0
 10
5.8174318467
 20
6.2567147976
 30
0.0
 10
5.5552891595
 20
6.5922480965
 30
0.0
 10
5.3489932379
 20
6.9735650537
 30
0.0
 10
5.2151043258
 20
7.3693911442
 30
0.0
 10
5.1792395895
 20
7.6389720796
 30
0.0
 10
5.1792395848
 20
7.7671841589
 30
0.0
  0
SPLINE
  5
24C
100
AcDbEntity
  8
SMUSSO
100
AcDbSpline
 62
7
  6
CONTINUOUS
 70
0
 71
3
 72
11
 73
7
 74
0
 42
0.0000001
 43
0.0000001
 44
0.0000000001
 40
0.0
 40
0.0
 40
0.0
 40
0.0
 40
0.2897005458
 40
0.5490845113
 40
0.7822144759
 40
1.0
 40
1.0
 40
1.0
 40
1.0
 10
5.1792395848
 20
28.5871762171
 30
0.0
 10
5.1792395853
 20
28.6631693284
 30
0.0
 10
5.1907595243
 20
28.8076921125
 30
0.0
 10
5.2492842258
 20
29.0062616623
 30
0.0
 10
5.3478275592
 20
29.1673922638
 30
0.0
 10
5.4403913684
 20
29.2452124941
 30
0.0
 10
5.4898635176
 20
29.2737815072
 30
0.0
  0
SPLINE
  5
24D
100
AcDbEntity
  8
SMUSSO
100
AcDbSpline
 62
7
  6
CONTINUOUS
 70
0
 71
3
 72
17
 73
13
 74
0
 42
0.0000001
 43
0.0000001
 44
0.0000000001
 40
0.0
 40
0.0
 40
0.0
 40
0.0
 40
0.0428599346
 40
0.0874869082
 40
0.1353220244
 40
0.1872852955
 40
0.3045516268
 40
0.4382240162
 40
0.582570894
 40
0.7297314755
 40
0.8713137658
 40
1.0
 40
1.0
 40
1.0
 40
1.0
 10
6.9899359956
 20
26.675747147
 30
0.0
 10
6.9529569915
 20
26.6543926341
 30
0.0
 10
6.8714292102
 20
26.6205390191
 30
0.0
 10
6.7368748381
 20
26.6007858443
 30
0.0
 10
6.5923669651
 20
26.6114379746
 30
0.0
 10
6.382397676
 20
26.6672865167
 30
0.0
 10
6.1139845342
 20
26.8140675905
 30
0.0
 10
5.8174318467
 20
27.0767068558
 30
0.0
 10
5.5552891595
 20
27.4122401547
 30
0.0
 10
5.3489932379
 20
27.7935571119
 30
0.0
 10
5.2151043258
 20
28.1893832025
 30
0.0
 10
5.1792395895
 20
28.4589641378
 30
0.0
 10
5.1792395848
 20
28.5871762171
 30
0.0
  0
SPLINE
  5
24E
100
AcDbEntity
  8
ASSI
100
AcDbSpline
 62
7
  6
CONTINUOUS
 70
0
 71
3
 72
15
 73
11
 74
0
 42
0.0000001
 43
0.0000001
 44
0.0000000001
 40
0.0
 40
0.0
 40
0.0
 40
0.0
 40
0.0869426492
 40
0.1864282183
 40
0.3038302725
 40
0.4376484411
 40
0.5821458948
 40
0.7294536389
 40
0.8711852352
 40
1.0
 40
1.0
 40
1.0
 40
1.0
 10
-8.1093496612
 20
-43.8736603608
 30
0.0
 10
-8.1093557466
 20
-43.9025002185
 30
0.0
 10
-8.1268151851
 20
-43.9648957244
 30
0.0
 10
-8.19485284
 20
-44.0422267107
 30
0.0
 10
-8.2952680644
 20
-44.1033861805
 30
0.0
 10
-8.4206106658
 20
-44.1452472878
 30
0.0
 10
-8.5611103983
 20
-44.1649686317
 30
0.0
 10
-8.7055562285
 20
-44.1609636247
 30
0.0
 10
-8.8421078324
 20
-44.1336319272
 30
0.0
 10
-8.9258919654
 20
-44.0990577325
 30
0.0
 10
-8.9628960389
 20
-44.0776920442
 30
0.0
  0
SPLINE
  5
24F
100
AcDbEntity
  8
RACCORDO
100
AcDbSpline
 62
7
  6
CONTINUOUS
 70
0
 71
3
 72
18
 73
14
 74
0
 42
0.0000001
 43
0.0000001
 44
0.0000000001
 40
0.0
 40
0.0
 40
0.0
 40
0.0
 40
0.1286576849
 40
0.2702055908
 40
0.4173251252
 40
0.5616334025
 40
0.695267952
 40
0.7562743877
 40
0.8127665047
 40
0.8647154055
 40
0.9125361294
 40
0.9571531058
 40
1.0
 40
1.0
 40
1.0
 40
1.0
 10
-2.2453816176
 20
20.2193225258
 30
0.0
 10
-2.0233140125
 20
20.0911034737
 30
0.0
 10
-1.5922615871
 20
19.7593867281
 30
0.0
 10
-1.0405635106
 20
19.1317229868
 30
0.0
 10
-0.5863658181
 20
18.3929913929
 30
0.0
 10
-0.2674455635
 20
17.6039564487
 30
0.0
 10
-0.1313288311
 20
16.9367476803
 30
0.0
 10
-0.1184319426
 20
16.4352027271
 30
0.0
 10
-0.154770744
 20
16.0982526506
 30
0.0
 10
-0.2364136774
 20
15.7961581962
 30
0.0
 10
-0.3624556376
 20
15.5352401536
 30
0.0
 10
-0.5311609117
 20
15.32188998
 30
0.0
 10
-0.6713624496
 20
15.2145936295
 30
0.0
 10
-0.7453173507
 20
15.1718922639
 30
0.0
  0
SPLINE
  5
250
100
AcDbEntity
  8
RACCORDO
100
AcDbSpline
 62
7
  6
CONTINUOUS
 70
0
 71
3
 72
18
 73
14
 74
0
 42
0.0000001
 43
0.0000001
 44
0.0000000001
 40
0.0
 40
0.0
 40
0.0
 40
0.0
 40
0.1286576849
 40
0.2702055908
 40
0.4173251252
 40
0.5616334025
 40
0.695267952
 40
0.7562743877
 40
0.8127665047
 40
0.8647154055
 40
0.9125361294
 40
0.9571531058
 40
1.0
 40
1.0
 40
1.0
 40
1.0
 10
-2.2453816176
 20
41.039314584
 30
0.0
 10
-2.0233140125
 20
40.911095532
 30
0.0
 10
-1.5922615871
 20
40.5793787863
 30
0.0
 10
-1.0405635106
 20
39.951715045
 30
0.0
 10
-0.5863658181
 20
39.2129834511
 30
0.0
 10
-0.2674455635
 20
38.4239485069
 30
0.0
 10
-0.1313288311
 20
37.7567397386
 30
0.0
 10
-0.1184319426
 20
37.2551947853
 30
0.0
 10
-0.154770744
 20
36.9182447088
 30
0.0
 10
-0.2364136774
 20
36.6161502544
 30
0.0
 10
-0.3624556376
 20
36.3552322118
 30
0.0
 10
-0.5311609117
 20
36.1418820382
 30
0.0
 10
-0.6713624496
 20
36.0345856877
 30
0.0
 10
-0.7453173507
 20
35.9918843221
 30
0.0
  0
SPLINE
  5
251
100
AcDbEntity
  8
RACCORDO
100
AcDbSpline
 62
7
  6
CONTINUOUS
 70
0
 71
3
 72
12
 73
8
 74
0
 42
0.0000001
 43
0.0000001
 44
0.0000000001
 40
0.0
 40
0.0
 40
0.0
 40
0.0
 40
0.2895575727
 40
0.5486542657
 40
0.7816335709
 40
0.8918395863
 40
1.0
 40
1.0
 40
1.0
 40
1.0
 10
-7.9022358671
 20
32.8742961766
 30
0.0
 10
-7.7705586651
 20
32.7982674105
 30
0.0
 10
-7.5086370492
 20
32.6736698652
 30
0.0
 10
-7.1063671382
 20
32.5763354136
 30
0.0
 10
-6.7851393061
 20
32.5849340897
 30
0.0
 10
-6.5557938129
 20
32.6483578888
 30
0.0
 10
-6.4513576719
 20
32.6972876669
 30
0.0
 10
-6.4021716002
 20
32.7256875755
 30
0.0
  0
SPLINE
  5
252
100
AcDbEntity
  8
RACCORDO
100
AcDbSpline
 62
7
  6
CONTINUOUS
 70
0
 71
3
 72
12
 73
8
 74
0
 42
0.0000001
 43
0.0000001
 44
0.0000000001
 40
0.0
 40
0.0
 40
0.0
 40
0.0
 40
0.2895575727
 40
0.5486542657
 40
0.7816335709
 40
0.8918395863
 40
1.0
 40
1.0
 40
1.0
 40
1.0
 10
-7.9022358671
 20
12.0543041184
 30
0.0
 10
-7.7705586651
 20
11.9782753523
 30
0.0
 10
-7.5086370492
 20
11.853677807
 30
0.0
 10
-7.1063671382
 20
11.7563433554
 30
0.0
 10
-6.7851393061
 20
11.7649420315
 30
0.0
 10
-6.5557938129
 20
11.8283658305
 30
0.0
 10
-6.4513576719
 20
11.8772956087
 30
0.0
 10
-6.4021716002
 20
11.9056955173
 30
0.0
  0
SPLINE
  5
253
100
AcDbEntity
  8
RACCORDO
100
AcDbSpline
 62
7
  6
CONTINUOUS
 70
0
 71
3
 72
20
 73
16
 74
0
 42
0.0000001
 43
0.0000001
 44
0.0000000001
 40
0.0
 40
0.0
 40
0.0
 40
0.0
 40
0.0624036977
 40
0.1288013244
 40
0.27029052
 40
0.4173470054
 40
0.5615979193
 40
0.6302348908
 40
0.6953623157
 40
0.756347198
 40
0.8128198721
 40
0.864755202
 40
0.9125621297
 40
0.9571656725
 40
1.0
 40
1.0
 40
1.0
 40
1.0
 10
-6.4880223047
 20
43.488962144
 30
0.0
 10
-6.6316912355
 20
43.571914784
 30
0.0
 10
-6.9396917667
 20
43.7237595577
 30
0.0
 10
-7.6162743122
 20
43.968913914
 30
0.0
 10
-8.547419273
 20
44.1552480191
 30
0.0
 10
-9.7023355036
 20
44.1871249494
 30
0.0
 10
-10.6554714434
 20
44.0534727964
 30
0.0
 10
-11.3666707924
 20
43.8486048624
 30
0.0
 10
-11.8478681499
 20
43.6547761693
 30
0.0
 10
-12.2753494504
 20
43.4222842721
 30
0.0
 10
-12.6402071411
 20
43.1556986354
 30
0.0
 10
-12.9346900274
 20
42.8600594751
 30
0.0
 10
-13.151982118
 20
42.5405484032
 30
0.0
 10
-13.2858847279
 20
42.2034966392
 30
0.0
 10
-13.3164240472
 20
41.9700692298
 30
0.0
 10
-13.3164397868
 20
41.8561962075
 30
0.0
  0
SPLINE
  5
254
100
AcDbEntity
  8
RACCORDO
100
AcDbSpline
 62
7
  6
CONTINUOUS
 70
0
 71
3
 72
12
 73
8
 74
0
 42
0.0000001
 43
0.0000001
 44
0.0000000001
 40
0.0
 40
0.0
 40
0.0
 40
0.0
 40
0.2895685907
 40
0.5486350464
 40
0.7816281433
 40
0.8918333022
 40
1.0
 40
1.0
 40
1.0
 40
1.0
 10
-12.1448765542
 20
14.5039516784
 30
0.0
 10
-12.3204784332
 20
14.6053420025
 30
0.0
 10
-12.6390029794
 20
14.8247513518
 30
0.0
 10
-13.0195378504
 20
15.2244913833
 30
0.0
 10
-13.2237928315
 20
15.6012000554
 30
0.0
 10
-13.3033254442
 20
15.908402997
 30
0.0
 10
-13.3164502561
 20
16.061638593
 30
0.0
 10
-13.3164397868
 20
16.1373824885
 30
0.0
  0
SPLINE
  5
255
100
AcDbEntity
  8
ASSI
100
AcDbSpline
 62
7
  6
CONTINUOUS
 70
0
 71
3
 72
11
 73
7
 74
0
 42
0.0000001
 43
0.0000001
 44
0.0000000001
 40
0.0
 40
0.0
 40
0.0
 40
0.0
 40
0.2176902331
 40
0.4509767716
 40
0.7108586422
 40
1.0
 40
1.0
 40
1.0
 40
1.0
 10
-9.5235562107
 20
-43.8735547475
 30
0.0
 10
-9.5235457506
 20
-43.8925912012
 30
0.0
 10
-9.5305963742
 20
-43.9322888096
 30
0.0
 10
-9.5606896587
 20
-43.9876594949
 30
0.0
 10
-9.6083593992
 20
-44.0375730746
 30
0.0
 10
-9.6481060015
 20
-44.0650490956
 30
0.0
 10
-9.6700028201
 20
-44.0776920442
 30
0.0
  0
SPLINE
  5
256
100
AcDbEntity
  8
SMUSSO
100
AcDbSpline
 62
7
  6
CONTINUOUS
 70
0
 71
3
 72
15
 73
11
 74
0
 42
0.0000001
 43
0.0000001
 44
0.0000000001
 40
0.0
 40
0.0
 40
0.0
 40
0.0
 40
0.1141512538
 40
0.2373216074
 40
0.3669730972
 40
0.4999987482
 40
0.6330281108
 40
0.7626638878
 40
0.8858658503
 40
1.0
 40
1.0
 40
1.0
 40
1.0
 10
-7.9024076347
 20
16.5449712687
 30
0.0
 10
-7.781384128
 20
16.4751073562
 30
0.0
 10
-7.5423356203
 20
16.3075584559
 30
0.0
 10
-7.2134083679
 20
15.9998591402
 30
0.0
 10
-6.9102848741
 20
15.6361178358
 30
0.0
 10
-6.6443743019
 20
15.2299835979
 30
0.0
 10
-6.4256209432
 20
14.7966495577
 30
0.0
 10
-6.2620940879
 20
14.3522686603
 30
0.0
 10
-6.1600965291
 20
13.9135577741
 30
0.0
 10
-6.1344689143
 20
13.6227490016
 30
0.0
 10
-6.1344689141
 20
13.4830285524
 30
0.0
  0
SPLINE
  5
257
100
AcDbEntity
  8
ASSI
100
AcDbSpline
 62
7
  6
CONTINUOUS
 70
0
 71
3
 72
15
 73
11
 74
0
 42
0.0000001
 43
0.0000001
 44
0.0000000001
 40
0.0
 40
0.0
 40
0.0
 40
0.0
 40
0.1287456743
 40
0.2706091231
 40
0.4178678438
 40
0.5623864078
 40
0.6962010659
 40
0.8135831186
 40
0.9130568929
 40
1.0
 40
1.0
 40
1.0
 40
1.0
 10
-9.6700028201
 20
-44.0776920442
 30
0.0
 10
-9.7069899918
 20
-44.0990479736
 30
0.0
 10
-9.7908179235
 20
-44.1335823336
 30
0.0
 10
-9.9273694828
 20
-44.1609918797
 30
0.0
 10
-10.071865576
 20
-44.1649310351
 30
0.0
 10
-10.2123685031
 20
-44.145243134
 30
0.0
 10
-10.3377118198
 20
-44.1033383709
 30
0.0
 10
-10.4381036613
 20
-44.0421518634
 30
0.0
 10
-10.5061218655
 20
-43.9647971
 30
0.0
 10
-10.5235403626
 20
-43.9023970503
 30
0.0
 10
-10.5235562107
 20
-43.8735547475
 30
0.0
  0
SPLINE
  5
258
100
AcDbEntity
  8
SMUSSO
100
AcDbSpline
 62
7
  6
CONTINUOUS
 70
0
 71
3
 72
10
 73
6
 74
0
 42
0.0000001
 43
0.0000001
 44
0.0000000001
 40
0.0
 40
0.0
 40
0.0
 40
0.0
 40
0.5237359564
 40
0.7652668979
 40
1.0
 40
1.0
 40
1.0
 40
1.0
 10
-6.1801326499
 20
13.9704462336
 30
0.0
 10
-6.2035847892
 20
13.8947054999
 30
0.0
 10
-6.2539083292
 20
13.7869839172
 30
0.0
 10
-6.3556093041
 20
13.6737200215
 30
0.0
 10
-6.4143192086
 20
13.6307434208
 30
0.0
 10
-6.4450928469
 20
13.612972362
 30
0.0
  0
SPLINE
  5
259
100
AcDbEntity
  8
ASSI
100
AcDbSpline
 62
7
  6
CONTINUOUS
 70
0
 71
3
 72
11
 73
7
 74
0
 42
0.0000001
 43
0.0000001
 44
0.0000000001
 40
0.0
 40
0.0
 40
0.0
 40
0.0
 40
0.2896426147
 40
0.5491000841
 40
0.7822202292
 40
1.0
 40
1.0
 40
1.0
 40
1.0
 10
-8.9628960389
 20
-44.0776920442
 30
0.0
 10
-8.9848402513
 20
-44.065021731
 30
0.0
 10
-9.0246562387
 20
-44.0375839201
 30
0.0
 10
-9.0722467062
 20
-43.9875671675
 30
0.0
 10
-9.1023490742
 20
-43.9322201193
 30
0.0
 10
-9.1093396556
 20
-43.8925016106
 30
0.0
 10
-9.1093356354
 20
-43.8734491343
 30
0.0
  0
SPLINE
  5
25A
100
AcDbEntity
  8
SMUSSO
100
AcDbSpline
 62
7
  6
CONTINUOUS
 70
0
 71
3
 72
10
 73
6
 74
0
 42
0.0000001
 43
0.0000001
 44
0.0000000001
 40
0.0
 40
0.0
 40
0.0
 40
0.0
 40
0.5237359564
 40
0.7652668979
 40
1.0
 40
1.0
 40
1.0
 40
1.0
 10
-6.1801326499
 20
34.7904382918
 30
0.0
 10
-6.2035847892
 20
34.7146975581
 30
0.0
 10
-6.2539083292
 20
34.6069759754
 30
0.0
 10
-6.3556093041
 20
34.4937120797
 30
0.0
 10
-6.4143192086
 20
34.450735479
 30
0.0
 10
-6.4450928469
 20
34.4329644202
 30
0.0
  0
SPLINE
  5
25B
100
AcDbEntity
  8
SMUSSO
100
AcDbSpline
 62
7
  6
CONTINUOUS
 70
0
 71
3
 72
15
 73
11
 74
0
 42
0.0000001
 43
0.0000001
 44
0.0000000001
 40
0.0
 40
0.0
 40
0.0
 40
0.0
 40
0.1141512538
 40
0.2373216074
 40
0.3669730972
 40
0.4999987482
 40
0.6330281108
 40
0.7626638878
 40
0.8858658503
 40
1.0
 40
1.0
 40
1.0
 40
1.0
 10
-7.9024076347
 20
37.3649633269
 30
0.0
 10
-7.781384128
 20
37.2950994145
 30
0.0
 10
-7.5423356203
 20
37.1275505141
 30
0.0
 10
-7.2134083679
 20
36.8198511984
 30
0.0
 10
-6.9102848741
 20
36.456109894
 30
0.0
 10
-6.6443743019
 20
36.0499756561
 30
0.0
 10
-6.4256209432
 20
35.6166416159
 30
0.0
 10
-6.2620940879
 20
35.1722607185
 30
0.0
 10
-6.1600965291
 20
34.7335498324
 30
0.0
 10
-6.1344689143
 20
34.4427410599
 30
0.0
 10
-6.1344689141
 20
34.3030206106
 30
0.0
  0
SPLINE
  5
25C
100
AcDbEntity
  8
SMUSSO
100
AcDbSpline
 62
7
  6
CONTINUOUS
 70
0
 71
3
 72
10
 73
6
 74
0
 42
0.0000001
 43
0.0000001
 44
0.0000000001
 40
0.0
 40
0.0
 40
0.0
 40
0.0
 40
0.2347674587
 40
0.4763242317
 40
1.0
 40
1.0
 40
1.0
 40
1.0
 10
-7.9451653249
 20
37.0309987804
 30
0.0
 10
-7.9144616601
 20
37.0487294312
 30
0.0
 10
-7.8480553386
 20
37.0780461197
 30
0.0
 10
-7.6994971934
 20
37.109510629
 30
0.0
 10
-7.5813398263
 20
37.0993840773
 30
0.0
 10
-7.5041896476
 20
37.0819862254
 30
0.0
  0
SPLINE
  5
25D
100
AcDbEntity
  8
SMUSSO
100
AcDbSpline
 62
7
  6
CONTINUOUS
 70
0
 71
3
 72
10
 73
6
 74
0
 42
0.0000001
 43
0.0000001
 44
0.0000000001
 40
0.0
 40
0.0
 40
0.0
 40
0.0
 40
0.2347674587
 40
0.4763242317
 40
1.0
 40
1.0
 40
1.0
 40
1.0
 10
-7.9451653249
 20
16.2110067222
 30
0.0
 10
-7.9144616601
 20
16.228737373
 30
0.0
 10
-7.8480553386
 20
16.2580540615
 30
0.0
 10
-7.6994971934
 20
16.2895185707
 30
0.0
 10
-7.5813398263
 20
16.279392019
 30
0.0
 10
-7.5041896476
 20
16.2619941671
 30
0.0
  0
SPLINE
  5
25E
100
AcDbEntity
  8
SMUSSO
100
AcDbSpline
 62
7
  6
CONTINUOUS
 70
0
 71
3
 72
15
 73
11
 74
0
 42
0.0000001
 43
0.0000001
 44
0.0000000001
 40
0.0
 40
0.0
 40
0.0
 40
0.0
 40
0.1448712505
 40
0.2745352921
 40
0.391106213
 40
0.4999968303
 40
0.6088826045
 40
0.7254734591
 40
0.8551001363
 40
1.0
 40
1.0
 40
1.0
 40
1.0
 10
-9.6700028201
 20
15.5244014321
 30
0.0
 10
-9.6700028209
 20
15.6510758837
 30
0.0
 10
-9.6508152045
 20
15.8919577213
 30
0.0
 10
-9.5532974633
 20
16.222856761
 30
0.0
 10
-9.3888686059
 20
16.4915181299
 30
0.0
 10
-9.1607872506
 20
16.6834343774
 30
0.0
 10
-8.8805384011
 20
16.7850744443
 30
0.0
 10
-8.5656730882
 20
16.793085208
 30
0.0
 10
-8.2303259544
 20
16.712161781
 30
0.0
 10
-8.0121361447
 20
16.6083148556
 30
0.0
 10
-7.9024076347
 20
16.5449712687
 30
0.0
  0
SPLINE
  5
25F
100
AcDbEntity
  8
SMUSSO
100
AcDbSpline
 62
7
  6
CONTINUOUS
 70
0
 71
3
 72
11
 73
7
 74
0
 42
0.0000001
 43
0.0000001
 44
0.0000000001
 40
0.0
 40
0.0
 40
0.0
 40
0.0
 40
0.2897005458
 40
0.5490845113
 40
0.7822144759
 40
1.0
 40
1.0
 40
1.0
 40
1.0
 10
-8.2557892577
 20
36.3443934903
 30
0.0
 10
-8.2557892572
 20
36.4203866016
 30
0.0
 10
-8.2442693183
 20
36.5649093857
 30
0.0
 10
-8.1857446167
 20
36.7634789355
 30
0.0
 10
-8.0872012833
 20
36.924609537
 30
0.0
 10
-7.9946374741
 20
37.0024297674
 30
0.0
 10
-7.9451653249
 20
37.0309987804
 30
0.0
  0
SPLINE
  5
260
100
AcDbEntity
  8
SMUSSO
100
AcDbSpline
 62
7
  6
CONTINUOUS
 70
0
 71
3
 72
23
 73
19
 74
0
 42
0.0000001
 43
0.0000001
 44
0.0000000001
 40
0.0
 40
0.0
 40
0.0
 40
0.0
 40
0.0603657829
 40
0.114394541
 40
0.1629674376
 40
0.2083403806
 40
0.2537121498
 40
0.3022955946
 40
0.3563118119
 40
0.416692704
 40
0.4832801553
 40
0.5551276058
 40
0.6307546663
 40
0.7083491726
 40
0.7859453496
 40
0.8615618007
 40
0.9334254229
 40
1.0
 40
1.0
 40
1.0
 40
1.0
 10
-6.1344689141
 20
13.4830284506
 30
0.0
 10
-6.1344689142
 20
13.3563465965
 30
0.0
 10
-6.1536586913
 20
13.1154514089
 30
0.0
 10
-6.2511881991
 20
12.784536354
 30
0.0
 10
-6.4156378282
 20
12.5158680091
 30
0.0
 10
-6.6437461712
 20
12.3239563885
 30
0.0
 10
-6.9240299304
 20
12.2223383788
 30
0.0
 10
-7.2389083517
 20
12.2143487837
 30
0.0
 10
-7.5743549019
 20
12.2953566988
 30
0.0
 10
-7.9192527498
 20
12.4595040214
 30
0.0
 10
-8.262202181
 20
12.6999430839
 30
0.0
 10
-8.5912028321
 20
13.0077102937
 30
0.0
 10
-8.8942677699
 20
13.3714282142
 30
0.0
 10
-9.1601586
 20
13.7775524916
 30
0.0
 10
-9.3788852229
 20
14.2108629987
 30
0.0
 10
-9.5423934766
 20
14.6552176375
 30
0.0
 10
-9.6443784904
 20
15.0939004107
 30
0.0
 10
-9.6700028251
 20
15.3846899852
 30
0.0
 10
-9.6700028201
 20
15.5244014321
 30
0.0
  0
SPLINE
  5
261
100
AcDbEntity
  8
SMUSSO
100
AcDbSpline
 62
7
  6
CONTINUOUS
 70
0
 71
3
 72
15
 73
11
 74
0
 42
0.0000001
 43
0.0000001
 44
0.0000000001
 40
0.0
 40
0.0
 40
0.0
 40
0.0
 40
0.1448712505
 40
0.2745352921
 40
0.391106213
 40
0.4999968303
 40
0.6088826045
 40
0.7254734591
 40
0.8551001363
 40
1.0
 40
1.0
 40
1.0
 40
1.0
 10
-9.6700028201
 20
36.3443934903
 30
0.0
 10
-9.6700028209
 20
36.4710679419
 30
0.0
 10
-9.6508152045
 20
36.7119497795
 30
0.0
 10
-9.5532974633
 20
37.0428488193
 30
0.0
 10
-9.3888686059
 20
37.3115101882
 30
0.0
 10
-9.1607872506
 20
37.5034264356
 30
0.0
 10
-8.8805384011
 20
37.6050665025
 30
0.0
 10
-8.5656730882
 20
37.6130772662
 30
0.0
 10
-8.2303259544
 20
37.5321538392
 30
0.0
 10
-8.0121361447
 20
37.4283069138
 30
0.0
 10
-7.9024076347
 20
37.3649633269
 30
0.0
  0
SPLINE
  5
262
100
AcDbEntity
  8
SMUSSO
100
AcDbSpline
 62
7
  6
CONTINUOUS
 70
0
 71
3
 72
11
 73
7
 74
0
 42
0.0000001
 43
0.0000001
 44
0.0000000001
 40
0.0
 40
0.0
 40
0.0
 40
0.0
 40
0.2897005458
 40
0.5490845113
 40
0.7822144759
 40
1.0
 40
1.0
 40
1.0
 40
1.0
 10
-8.2557892577
 20
15.5244014321
 30
0.0
 10
-8.2557892572
 20
15.6003945434
 30
0.0
 10
-8.2442693183
 20
15.7449173275
 30
0.0
 10
-8.1857446167
 20
15.9434868773
 30
0.0
 10
-8.0872012833
 20
16.1046174788
 30
0.0
 10
-7.9946374741
 20
16.1824377092
 30
0.0
 10
-7.9451653249
 20
16.2110067222
 30
0.0
  0
SPLINE
  5
263
100
AcDbEntity
  8
SMUSSO
100
AcDbSpline
 62
7
  6
CONTINUOUS
 70
0
 71
3
 72
23
 73
19
 74
0
 42
0.0000001
 43
0.0000001
 44
0.0000000001
 40
0.0
 40
0.0
 40
0.0
 40
0.0
 40
0.0603657829
 40
0.114394541
 40
0.1629674376
 40
0.2083403806
 40
0.2537121498
 40
0.3022955946
 40
0.3563118119
 40
0.416692704
 40
0.4832801553
 40
0.5551276058
 40
0.6307546663
 40
0.7083491726
 40
0.7859453496
 40
0.8615618007
 40
0.9334254229
 40
1.0
 40
1.0
 40
1.0
 40
1.0
 10
-6.1344689141
 20
34.3030205088
 30
0.0
 10
-6.1344689142
 20
34.1763386547
 30
0.0
 10
-6.1536586913
 20
33.9354434672
 30
0.0
 10
-6.2511881991
 20
33.6045284123
 30
0.0
 10
-6.4156378282
 20
33.3358600674
 30
0.0
 10
-6.6437461712
 20
33.1439484467
 30
0.0
 10
-6.9240299304
 20
33.042330437
 30
0.0
 10
-7.2389083517
 20
33.0343408419
 30
0.0
 10
-7.5743549019
 20
33.115348757
 30
0.0
 10
-7.9192527498
 20
33.2794960797
 30
0.0
 10
-8.262202181
 20
33.5199351421
 30
0.0
 10
-8.5912028321
 20
33.8277023519
 30
0.0
 10
-8.8942677699
 20
34.1914202724
 30
0.0
 10
-9.1601586
 20
34.5975445499
 30
0.0
 10
-9.3788852229
 20
35.0308550569
 30
0.0
 10
-9.5423934766
 20
35.4752096957
 30
0.0
 10
-9.6443784904
 20
35.9138924689
 30
0.0
 10
-9.6700028251
 20
36.2046820434
 30
0.0
 10
-9.6700028201
 20
36.3443934903
 30
0.0
  0
SPLINE
  5
264
100
AcDbEntity
  8
RACCORDO
100
AcDbSpline
 62
7
  6
CONTINUOUS
 70
0
 71
3
 72
18
 73
14
 74
0
 42
0.0000001
 43
0.0000001
 44
0.0000000001
 40
0.0
 40
0.0
 40
0.0
 40
0.0
 40
0.0428468942
 40
0.0874638706
 40
0.1352845945
 40
0.1872334953
 40
0.2437256123
 40
0.304732048
 40
0.4383665975
 40
0.5826748748
 40
0.7297944092
 40
0.8713423151
 40
1.0
 40
1.0
 40
1.0
 40
1.0
 10
-6.4021716002
 20
32.7256875755
 30
0.0
 10
-6.3282166991
 20
32.7683889411
 30
0.0
 10
-6.1880151612
 20
32.8756852916
 30
0.0
 10
-6.0193098871
 20
33.0890354652
 30
0.0
 10
-5.8932679269
 20
33.3499535078
 30
0.0
 10
-5.8116249935
 20
33.6520479622
 30
0.0
 10
-5.7752861921
 20
33.9889980387
 30
0.0
 10
-5.7881830806
 20
34.4905429919
 30
0.0
 10
-5.924299813
 20
35.1577517603
 30
0.0
 10
-6.2432200676
 20
35.9467867045
 30
0.0
 10
-6.6974177601
 20
36.6855182984
 30
0.0
 10
-7.2491158366
 20
37.3131820397
 30
0.0
 10
-7.680168262
 20
37.6448987853
 30
0.0
 10
-7.9022358671
 20
37.7731178374
 30
0.0
  0
SPLINE
  5
265
100
AcDbEntity
  8
RACCORDO
100
AcDbSpline
 62
7
  6
CONTINUOUS
 70
0
 71
3
 72
18
 73
14
 74
0
 42
0.0000001
 43
0.0000001
 44
0.0000000001
 40
0.0
 40
0.0
 40
0.0
 40
0.0
 40
0.0428468942
 40
0.0874638706
 40
0.1352845945
 40
0.1872334953
 40
0.2437256123
 40
0.304732048
 40
0.4383665975
 40
0.5826748748
 40
0.7297944092
 40
0.8713423151
 40
1.0
 40
1.0
 40
1.0
 40
1.0
 10
-6.4021716002
 20
11.9056955173
 30
0.0
 10
-6.3282166991
 20
11.9483968829
 30
0.0
 10
-6.1880151612
 20
12.0556932333
 30
0.0
 10
-6.0193098871
 20
12.2690434069
 30
0.0
 10
-5.8932679269
 20
12.5299614496
 30
0.0
 10
-5.8116249935
 20
12.832055904
 30
0.0
 10
-5.7752861921
 20
13.1690059805
 30
0.0
 10
-5.7881830806
 20
13.6705509337
 30
0.0
 10
-5.924299813
 20
14.337759702
 30
0.0
 10
-6.2432200676
 20
15.1267946463
 30
0.0
 10
-6.6974177601
 20
15.8655262402
 30
0.0
 10
-7.2491158366
 20
16.4931899815
 30
0.0
 10
-7.680168262
 20
16.8249067271
 30
0.0
 10
-7.9022358671
 20
16.9531257792
 30
0.0
  0
SPLINE
  5
266
100
AcDbEntity
  8
RACCORDO
100
AcDbSpline
 62
7
  6
CONTINUOUS
 70
0
 71
3
 72
12
 73
8
 74
0
 42
0.0000001
 43
0.0000001
 44
0.0000000001
 40
0.0
 40
0.0
 40
0.0
 40
0.0
 40
0.1081666978
 40
0.2183718567
 40
0.4513649536
 40
0.7104314093
 40
1.0
 40
1.0
 40
1.0
 40
1.0
 10
-13.3164397868
 20
41.8561962075
 30
0.0
 10
-13.3164502561
 20
41.780452312
 30
0.0
 10
-13.3033254442
 20
41.6272167159
 30
0.0
 10
-13.2237928315
 20
41.3200137744
 30
0.0
 10
-13.0195378504
 20
40.9433051023
 30
0.0
 10
-12.6390029794
 20
40.5435650708
 30
0.0
 10
-12.3204784332
 20
40.3241557215
 30
0.0
 10
-12.1448765542
 20
40.2227653973
 30
0.0
  0
SPLINE
  5
267
100
AcDbEntity
  8
SMUSSO
100
AcDbSpline
 62
7
  6
CONTINUOUS
 70
0
 71
3
 72
17
 73
13
 74
0
 42
0.0000001
 43
0.0000001
 44
0.0000000001
 40
0.0
 40
0.0
 40
0.0
 40
0.0
 40
0.0428599346
 40
0.0874869082
 40
0.1353220244
 40
0.1872852955
 40
0.3045516268
 40
0.4382240162
 40
0.582570894
 40
0.7297314755
 40
0.8713137658
 40
1.0
 40
1.0
 40
1.0
 40
1.0
 10
-6.4450928469
 20
13.612972362
 30
0.0
 10
-6.482071851
 20
13.5916178491
 30
0.0
 10
-6.5635996324
 20
13.5577642341
 30
0.0
 10
-6.6981540045
 20
13.5380110593
 30
0.0
 10
-6.8426618774
 20
13.5486631896
 30
0.0
 10
-7.0526311666
 20
13.6045117317
 30
0.0
 10
-7.3210443083
 20
13.7512928055
 30
0.0
 10
-7.6175969958
 20
14.0139320708
 30
0.0
 10
-7.879739683
 20
14.3494653698
 30
0.0
 10
-8.0860356047
 20
14.7307823269
 30
0.0
 10
-8.2199245167
 20
15.1266084175
 30
0.0
 10
-8.2557892531
 20
15.3961893528
 30
0.0
 10
-8.2557892577
 20
15.5244014321
 30
0.0
  0
SPLINE
  5
268
100
AcDbEntity
  8
SMUSSO
100
AcDbSpline
 62
7
  6
CONTINUOUS
 70
0
 71
3
 72
17
 73
13
 74
0
 42
0.0000001
 43
0.0000001
 44
0.0000000001
 40
0.0
 40
0.0
 40
0.0
 40
0.0
 40
0.0428599346
 40
0.0874869082
 40
0.1353220244
 40
0.1872852955
 40
0.3045516268
 40
0.4382240162
 40
0.582570894
 40
0.7297314755
 40
0.8713137658
 40
1.0
 40
1.0
 40
1.0
 40
1.0
 10
-6.4450928469
 20
34.4329644202
 30
0.0
 10
-6.482071851
 20
34.4116099073
 30
0.0
 10
-6.5635996324
 20
34.3777562923
 30
0.0
 10
-6.6981540045
 20
34.3580031175
 30
0.0
 10
-6.8426618774
 20
34.3686552478
 30
0.0
 10
-7.0526311666
 20
34.4245037899
 30
0.0
 10
-7.3210443083
 20
34.5712848637
 30
0.0
 10
-7.6175969958
 20
34.833924129
 30
0.0
 10
-7.879739683
 20
35.169457428
 30
0.0
 10
-8.0860356047
 20
35.5507743852
 30
0.0
 10
-8.2199245167
 20
35.9466004757
 30
0.0
 10
-8.2557892531
 20
36.216181411
 30
0.0
 10
-8.2557892577
 20
36.3443934903
 30
0.0
  0
ENDSEC
  0
SECTION
  2
OBJECTS
  0
DICTIONARY
  5
C
100
AcDbDictionary
280
0
281
1
  3
ACAD_GROUP
350
D
  3
ACAD_MLINESTYLE
350
17
  3
ACAD_LAYOUT
350
1A
  3
ACAD_PLOTSETTINGS
350
19
  3
ACAD_PLOTSTYLENAME
350
E
  0
DICTIONARY
  5
D
102
{ACAD_REACTORS
330
C
102
}
100
AcDbDictionary
280
0
281
1
  0
ACDBDICTIONARYWDFLT
  5
E
102
{ACAD_REACTORS
330
C
102
}
100
AcDbDictionary
281
1
  3
Normal
350
F
100
AcDbDictionaryWithDefault
340
F
  0
DICTIONARY
  5
17
102
{ACAD_REACTORS
330
C
102
}
100
AcDbDictionary
280
0
281
1
  3
Standard
350
18
  0
DICTIONARY
  5
19
102
{ACAD_REACTORS
330
C
102
}
100
AcDbDictionary
281
1
  0
DICTIONARY
  5
1A
102
{ACAD_REACTORS
330
C
102
}
100
AcDbDictionary
281
1
  3
Model
350
269
  3
Layout1
350
26A
  0
ACDBPLACEHOLDER
  5
F
102
{ACAD_REACTORS
330
E
102
}
  0
MLINESTYLE
  5
18
102
{ACAD_REACTORS
330
17
102
}
100
AcDbMlineStyle
  2
STANDARD
 70
0
  3

 62
256
 51
90.0
 52
90.0
 71
2
 49
0.5
 62
256
  6
BYLAYER
 49
-0.5
 62
256
  6
BYLAYER
  0
LAYOUT
  5
269
102
{ACAD_REACTORS
330
1A
102
}
100
AcDbPlotSettings
  1

  2
none_device
  4
ISO_A4_(297.00_x_210.00_MM)
  6

 40
0.0
 41
0.0
 42
0.0
 43
0.0
 44
297.0
 45
210.0
 46
0.0
 47
0.0
 48
0.0
 49
0.0
140
0.0
141
0.0
142
1.0
143
1.0
 70
1024
 72
1
 73
0
 74
0
  7

 75
0
147
1.0
148
0.0
149
0.0
100
AcDbLayout
  1
Model
 70
0
 71
0
 10
0.0
 20
0.0
 11
297.0
 21
210.0
 12
0.0
 22
0.0
 32
0.0
 14
0.0
 24
0.0
 34
0.0
 15
0.0
 25
0.0
 35
0.0
146
0.0
 13
0.0
 23
0.0
 33
0.0
 16
1.0
 26
0.0
 36
0.0
 17
0.0
 27
1.0
 37
0.0
 76
0
330
20E
345
0
346
0
  0
LAYOUT
  5
26A
102
{ACAD_REACTORS
330
1A
102
}
100
AcDbPlotSettings
  1

  2
none_device
  4
ISO_A4_(297.00_x_210.00_MM)
  6

 40
0.0
 41
0.0
 42
0.0
 43
0.0
 44
297.0
 45
210.0
 46
0.0
 47
0.0
 48
0.0
 49
0.0
140
0.0
141
0.0
142
1.0
143
1.0
 70
0
 72
1
 73
0
 74
0
  7

 75
0
147
1.0
148
0.0
149
0.0
100
AcDbLayout
  1
Layout1
 70
0
 71
1
 10
0.0
 20
0.0
 11
297.0
 21
210.0
 12
0.0
 22
0.0
 32
0.0
 14
0.0
 24
0.0
 34
0.0
 15
0.0
 25
0.0
 35
0.0
146
0.0
 13
0.0
 23
0.0
 33
0.0
 16
1.0
 26
0.0
 36
0.0
 17
0.0
 27
1.0
 37
0.0
 76
0
330
20F
345
0
346
0
  0
ENDSEC
  0
EOF
