  0
SECTION
  2
HEADER
  9
$ACADVER
  1
AC1024
  9
$DWGCODEPAGE
  3
ANSI_1252
  9
$EXTMAX
 10
297.0
 20
210.0
 30
0.0
  9
$EXTMIN
 10
0.0
 20
0.0
 30
0.0
  9
$LIMMIN
 10
0.0
 20
0.0
  9
$LIMMAX
 10
297.0
 20
210.0
  9
$VIEWCTR
 10
148.5
 20
105.0
  9
$VIEWSIZE
 40
210.0
  9
$CLAYER
  8
0
  9
$LTSCALE
 40
16.335
  9
$CELTYPE
  6
BYLAYER
  9
$DIMSCALE
 40
1.0
  9
$DIMASZ
 40
3.0
  9
$DIMEXO
 40
0.5
  9
$DIMDLI
 40
11.286
  9
$DIMEXE
 40
1.5
  9
$DIMCEN
 40
2.673
  9
$DIMLFAC
 40
1.0
  9
$DIMBLK
  1
_FILLED
  9
$DIMALT
 70
0
  9
$DIMALTF
 40
0.0393700787
  9
$DIMTXT
 40
3.0
  9
$DIMTOL
 70
1
  9
$DIMLIM
 70
0
  9
$DIMTFAC
 40
1.0
  9
$DIMTP
 40
0.01
  9
$DIMTM
 40
0.01
  9
$DIMGAP
 40
0.625
  9
$DIMDSEP
 70
44
  9
$AUNITS
 70
0
  9
$PDMODE
 70
3
  9
$PDSIZE
 40
3.0
  9
$HANDSEED
  5
3C5
  9
$TILEMODE
 70
1
  9
$MEASUREMENT
 70
1
  9
$INSUNITS
 70
4
  0
ENDSEC
  0
SECTION
  2
CLASSES
  0
CLASS
  1
ACDBDICTIONARYWDFLT
  2
AcDbDictionaryWithDefault
  3
AutoCAD 2000
 90
0
 91
1
280
0
281
0
  0
CLASS
  1
ACDBPLACEHOLDER
  2
AcDbPlaceHolder
  3
AutoCAD 2000
 90
0
 91
1
280
0
281
0
  0
CLASS
  1
LAYOUT
  2
AcDbLayout
  3
AutoCAD 2000
 90
0
 91
0
280
0
281
0
  0
ENDSEC
  0
SECTION
  2
TABLES
  0
TABLE
  2
VPORT
  5
8
100
AcDbSymbolTable
 70
2
  0
VPORT
  5
1F4
100
AcDbSymbolTableRecord
100
AcDbViewportTableRecord
  2
*ACTIVE
 70
0
 10
0.0
 20
0.0
 11
1.0
 21
1.0
 12
148.5
 22
105.0
 13
0.0
 23
0.0
 14
1.0
 24
1.0
 15
0.0
 25
0.0
 16
0.0
 26
0.0
 36
1.0
 17
0.0
 27
0.0
 37
0.0
 40
210.0
 41
1.4142857143
 42
50.0
 43
0.0
 44
0.0
 50
0.0
 51
0.0
 71
0
 72
100
 73
1
 74
1
 75
0
 76
0
 77
0
 78
0
  0
ENDTAB
  0
TABLE
  2
LTYPE
  5
5
100
AcDbSymbolTable
 70
6
  0
LTYPE
  5
14
100
AcDbSymbolTableRecord
100
AcDbLinetypeTableRecord
  2
BYBLOCK
 70
0
  3

 72
65
 73
0
 40
0.0
  0
LTYPE
  5
15
100
AcDbSymbolTableRecord
100
AcDbLinetypeTableRecord
  2
BYLAYER
 70
0
  3

 72
65
 73
0
 40
0.0
  0
LTYPE
  5
16
100
AcDbSymbolTableRecord
100
AcDbLinetypeTableRecord
  2
CONTINUOUS
 70
64
  3
Solid line
 72
65
 73
0
 40
0.0
  0
LTYPE
  5
1F5
100
AcDbSymbolTableRecord
100
AcDbLinetypeTableRecord
  2
CENTER
 70
64
  3
____ _ ____ _ ____ _ ____ _ ____ _ ____ _ ____
 72
65
 73
4
 40
0.6
 49
0.375
 74
0
 49
-0.075
 74
0
 49
0.075
 74
0
 49
-0.075
 74
0
  0
LTYPE
  5
1F6
100
AcDbSymbolTableRecord
100
AcDbLinetypeTableRecord
  2
HIDDEN
 70
64
  3
- - - - - - - - - - - - - - - - - - - -
 72
65
 73
2
 40
0.2
 49
0.1
 74
0
 49
-0.1
 74
0
  0
LTYPE
  5
1F7
100
AcDbSymbolTableRecord
100
AcDbLinetypeTableRecord
  2
PHANTOM
 70
64
  3
_____ _ _ _____ _ _ _____ _ _ _____
 72
65
 73
6
 40
0.8
 49
0.45
 74
0
 49
-0.05
 74
0
 49
0.1
 74
0
 49
-0.05
 74
0
 49
0.1
 74
0
 49
-0.05
 74
0
  0
LTYPE
  5
1F8
100
AcDbSymbolTableRecord
100
AcDbLinetypeTableRecord
  2
DOT
 70
64
  3
. . . . . . . . . . . . . . . . . . . .
 72
65
 73
2
 40
0.2
 49
0.1
 74
0
 49
-0.1
 74
0
  0
LTYPE
  5
1F9
100
AcDbSymbolTableRecord
100
AcDbLinetypeTableRecord
  2
DASHED
 70
64
  3
- - - - - - - - - - - - - - - - - - - -
 72
65
 73
2
 40
0.2
 49
0.1
 74
0
 49
-0.1
 74
0
  0
ENDTAB
  0
TABLE
  2
LAYER
  5
2
100
AcDbSymbolTable
 70
36
  0
LAYER
  5
10
100
AcDbSymbolTableRecord
100
AcDbLayerTableRecord
  2
0
 70
0
 62
7
  6
CONTINUOUS
370
-3
390
F
  0
LAYER
  5
1FA
100
AcDbSymbolTableRecord
100
AcDbLayerTableRecord
  2
DEFAULT_1
 70
0
 62
7
  6
CENTER
370
-3
390
F
  0
LAYER
  5
1FB
100
AcDbSymbolTableRecord
100
AcDbLayerTableRecord
  2
DEFAULT_2
 70
0
 62
7
  6
HIDDEN
370
-3
390
F
  0
LAYER
  5
1FC
100
AcDbSymbolTableRecord
100
AcDbLayerTableRecord
  2
DEFAULT_3
 70
0
 62
7
  6
PHANTOM
370
-3
390
F
  0
LAYER
  5
1FD
100
AcDbSymbolTableRecord
100
AcDbLayerTableRecord
  2
Livello_1
 70
0
 62
7
  6
CONTINUOUS
370
-3
390
F
  0
LAYER
  5
1FE
100
AcDbSymbolTableRecord
100
AcDbLayerTableRecord
  2
SNAPLINE
 70
0
 62
7
  6
CONTINUOUS
370
-3
390
F
  0
ENDTAB
  0
TABLE
  2
STYLE
  5
3
100
AcDbSymbolTable
 70
1
  0
STYLE
  5
11
100
AcDbSymbolTableRecord
100
AcDbTextStyleTableRecord
  2
STANDARD
 70
0
 40
0.0
 41
0.8
 50
0.0
 71
0
 42
0.2
  3
txt
  4

  0
STYLE
  5
1FF
100
AcDbSymbolTableRecord
100
AcDbTextStyleTableRecord
  2
TEXTSTYLE_1
 70
0
 40
0.0
 41
0.8
 50
0.0
 71
0
 42
0.2
  3
gdt
  4

  0
ENDTAB
  0
TABLE
  2
VIEW
  5
6
100
AcDbSymbolTable
 70
0
  0
ENDTAB
  0
TABLE
  2
UCS
  5
7
100
AcDbSymbolTable
 70
0
  0
ENDTAB
  0
TABLE
  2
APPID
  5
9
100
AcDbSymbolTable
 70
1
  0
APPID
  5
200
100
AcDbSymbolTableRecord
100
AcDbRegAppTableRecord
  2
ACAD
 70
0
  0
ENDTAB
  0
TABLE
  2
BLOCK_RECORD
  5
1
100
AcDbSymbolTable
 70
0
  0
BLOCK_RECORD
  5
201
100
AcDbSymbolTableRecord
100
AcDbBlockTableRecord
  2
*Model_Space
  0
BLOCK_RECORD
  5
202
100
AcDbSymbolTableRecord
100
AcDbBlockTableRecord
  2
*Paper_Space
  0
BLOCK_RECORD
  5
203
100
AcDbSymbolTableRecord
100
AcDbBlockTableRecord
  2
_FILLED
  0
ENDTAB
  0
TABLE
  2
DIMSTYLE
  5
A
100
AcDbSymbolTable
 70
1
100
AcDbDimStyleTable
 71
0
  0
DIMSTYLE
105
204
100
AcDbSymbolTableRecord
100
AcDbDimStyleTableRecord
  2
STANDARD
 70
0
  3

  4

 40
1.0
 41
3.0
 42
0.5
 43
0.38
 44
1.5
 45
0.0
 46
0.0
 47
0.01
 48
0.01
140
3.0
141
0.09
142
0.0
143
25.4
144
1.0
145
0.0
146
1.0
147
0.625
 71
1
 72
0
 73
0
 74
0
 75
0
 76
0
 77
1
 78
8
 79
2
170
0
171
1
172
0
173
0
174
0
175
0
176
0
177
0
178
0
270
2
179
2
271
2
272
2
273
2
274
2
275
0
280
0
281
0
282
0
283
1
284
8
285
0
286
0
287
3
288
0
340
11
278
44
341
203
342
203
343
203
344
203
  0
ENDTAB
  0
ENDSEC
  0
SECTION
  2
BLOCKS
  0
BLOCK
  5
20
100
AcDbEntity
  8
0
100
AcDbBlockBegin
  2
*Model_Space
 70
0
 10
0.0
 20
0.0
 30
0.0
  3
*Model_Space
  1

  0
ENDBLK
  5
21
100
AcDbEntity
  8
0
100
AcDbBlockEnd
  0
BLOCK
  5
1C
100
AcDbEntity
  8
0
100
AcDbBlockBegin
  2
*Paper_Space
 70
0
 10
0.0
 20
0.0
 30
0.0
  3
*Paper_Space
  1

  0
ENDBLK
  5
1D
100
AcDbEntity
  8
0
100
AcDbBlockEnd
  0
BLOCK
  5
205
100
AcDbEntity
  8
0
100
AcDbBlockBegin
  2
_FILLED
 70
64
 10
0.0
 20
0.0
  3
_FILLED
  1

  0
SOLID
  5
206
100
AcDbEntity
  8
0
  6
BYBLOCK
 62
0
100
AcDbTrace
 10
0.0
 20
0.0
 11
-1.0
 21
0.3166666667
 12
-1.0
 22
-0.3166666667
 13
-1.0
 23
-0.3166666667
  0
ENDBLK
  5
207
100
AcDbEntity
  8
0
  6
BYBLOCK
 62
0
100
AcDbBlockEnd
  0
ENDSEC
  0
SECTION
  2
ENTITIES
  0
LINE
  5
208
100
AcDbEntity
  8
0
100
AcDbLine
 62
7
  6
CONTINUOUS
 10
-40.8972584114
 20
-79.7722584311
 11
-40.8972584114
 21
97.6899494883
  0
LINE
  5
209
100
AcDbEntity
  8
0
100
AcDbLine
 62
7
  6
CONTINUOUS
 10
-30.891400461
 20
97.3085281811
 11
-30.891400461
 21
-91.0920424908
  0
LINE
  5
20A
100
AcDbEntity
  8
0
100
AcDbLine
 62
7
  6
CONTINUOUS
 10
-28.6637454108
 20
64.3270876507
 11
-28.6637454108
 21
96.2664341322
  0
LINE
  5
20B
100
AcDbEntity
  8
0
100
AcDbLine
 62
7
  6
CONTINUOUS
 10
-28.6259512578
 20
59.7130110887
 11
-28.6259512578
 21
-9.7464574977
  0
LINE
  5
20C
100
AcDbEntity
  8
0
100
AcDbLine
 62
7
  6
CONTINUOUS
 10
-28.1614988158
 20
64.3459363976
 11
-28.1614988158
 21
59.4675907392
  0
LINE
  5
20D
100
AcDbEntity
  8
0
100
AcDbLine
 62
7
  6
CONTINUOUS
 10
-26.0018191253
 20
-87.6069575333
 11
-26.0018191253
 21
-35.9843963762
  0
LINE
  5
20E
100
AcDbEntity
  8
0
100
AcDbLine
 62
7
  6
CONTINUOUS
 10
-40.9311639274
 20
97.9452388955
 11
-40.9001029601
 21
98.4513172992
  0
LINE
  5
20F
100
AcDbEntity
  8
0
100
AcDbLine
 62
7
  6
CONTINUOUS
 10
-30.8192149585
 20
98.0019763764
 11
-30.891400461
 21
97.3085281811
  0
LINE
  5
210
100
AcDbEntity
  8
0
100
AcDbLine
 62
7
  6
CONTINUOUS
 10
-40.9001029601
 20
98.4513172992
 11
-40.7360001541
 21
99.0016938901
  0
LINE
  5
211
100
AcDbEntity
  8
0
100
AcDbLine
 62
7
  6
CONTINUOUS
 10
-30.6102865923
 20
98.6398290369
 11
-30.8192149585
 21
98.0019763764
  0
LINE
  5
212
100
AcDbEntity
  8
0
100
AcDbLine
 62
7
  6
CONTINUOUS
 10
-40.7360001541
 20
99.0016938901
 11
-40.4217326543
 21
99.5500778661
  0
LINE
  5
213
100
AcDbEntity
  8
0
100
AcDbLine
 62
7
  6
CONTINUOUS
 10
26.0143885047
 20
-98.2293025275
 11
25.5510274954
 21
-98.3550445566
  0
LINE
  5
214
100
AcDbEntity
  8
0
100
AcDbLine
 62
7
  6
CONTINUOUS
 10
20.2413397153
 20
-103.1751315417
 11
19.2223532827
 21
-103.4362458404
  0
LINE
  5
215
100
AcDbEntity
  8
0
100
AcDbLine
 62
7
  6
CONTINUOUS
 10
19.2223532827
 20
-103.4362458404
 11
17.8142605261
 21
-103.7371811009
  0
LINE
  5
216
100
AcDbEntity
  8
0
100
AcDbLine
 62
7
  6
CONTINUOUS
 10
17.8142605261
 20
-103.7371811009
 11
16.2314885054
 21
-104.0116088948
  0
LINE
  5
217
100
AcDbEntity
  8
0
100
AcDbLine
 62
7
  6
CONTINUOUS
 10
26.5363884115
 20
-98.1579625005
 11
26.0143885047
 21
-98.2293025275
  0
LINE
  5
218
100
AcDbEntity
  8
0
100
AcDbLine
 62
7
  6
CONTINUOUS
 10
16.2314885054
 20
-104.0116088948
 11
14.5613121137
 21
-104.2360314709
  0
LINE
  5
219
100
AcDbEntity
  8
0
100
AcDbLine
 62
7
  6
CONTINUOUS
 10
14.5613121137
 20
-104.2360314709
 11
12.8496629334
 21
-104.4001966305
  0
LINE
  5
21A
100
AcDbEntity
  8
0
100
AcDbLine
 62
7
  6
CONTINUOUS
 10
29.5948297394
 20
-98.5416471967
 11
29.5383459797
 21
-98.5468833624
  0
LINE
  5
21B
100
AcDbEntity
  8
0
100
AcDbLine
 62
7
  6
CONTINUOUS
 10
12.8496629334
 20
-104.4001966305
 11
11.1239273441
 21
-104.4994504349
  0
LINE
  5
21C
100
AcDbEntity
  8
0
100
AcDbLine
 62
7
  6
CONTINUOUS
 10
27.1213913829
 20
-98.1453233525
 11
26.5363884115
 21
-98.1579625005
  0
LINE
  5
21D
100
AcDbEntity
  8
0
100
AcDbLine
 62
7
  6
CONTINUOUS
 10
11.1239273441
 20
-104.4994504349
 11
9.4016188212
 21
-104.5318976497
  0
LINE
  5
21E
100
AcDbEntity
  8
0
100
AcDbLine
 62
7
  6
CONTINUOUS
 10
6.9662952926
 20
-51.3171380802
 11
4.1026410774
 21
-51.324531896
  0
LINE
  5
21F
100
AcDbEntity
  8
0
100
AcDbLine
 62
7
  6
CONTINUOUS
 10
-20.4551647071
 20
-91.2544316943
 11
-30.6969935103
 21
-91.2544316943
  0
LINE
  5
220
100
AcDbEntity
  8
0
100
AcDbLine
 62
7
  6
CONTINUOUS
 10
4.1026410774
 20
-51.324531896
 11
1.2498263583
 21
-51.270791342
  0
LINE
  5
221
100
AcDbEntity
  8
0
100
AcDbLine
 62
7
  6
CONTINUOUS
 10
9.4016188212
 20
-104.5318976497
 11
7.6944033761
 21
-104.497114581
  0
LINE
  5
222
100
AcDbEntity
  8
0
100
AcDbLine
 62
7
  6
CONTINUOUS
 10
1.2498263583
 20
-51.270791342
 11
-1.4914223818
 21
-51.1612137789
  0
LINE
  5
223
100
AcDbEntity
  8
0
100
AcDbLine
 62
7
  6
CONTINUOUS
 10
7.6944033761
 20
-104.497114581
 11
6.0102251058
 21
-104.3954855378
  0
LINE
  5
224
100
AcDbEntity
  8
0
100
AcDbLine
 62
7
  6
CONTINUOUS
 10
-1.4914223818
 20
-51.1612137789
 11
-3.9112571555
 21
-51.013007206
  0
LINE
  5
225
100
AcDbEntity
  8
0
100
AcDbLine
 62
7
  6
CONTINUOUS
 10
-5.7486016326
 20
-50.9030477415
 11
-6.2481136666
 21
-50.8689248296
  0
LINE
  5
226
100
AcDbEntity
  8
0
100
AcDbLine
 62
7
  6
CONTINUOUS
 10
27.7707512689
 20
-98.1958634592
 11
27.1213913829
 21
-98.1453233525
  0
LINE
  5
227
100
AcDbEntity
  8
0
100
AcDbLine
 62
7
  6
CONTINUOUS
 10
-3.9112571555
 20
-51.013007206
 11
-5.3994467653
 21
-50.890239374
  0
LINE
  5
228
100
AcDbEntity
  8
0
100
AcDbLine
 62
7
  6
CONTINUOUS
 10
-5.3994467653
 20
-50.890239374
 11
-5.427494216
 21
-50.8874721974
  0
LINE
  5
229
100
AcDbEntity
  8
0
100
AcDbLine
 62
7
  6
CONTINUOUS
 10
6.0102251058
 20
-104.3954855378
 11
4.3545355872
 21
-104.2278283755
  0
LINE
  5
22A
100
AcDbEntity
  8
0
100
AcDbLine
 62
7
  6
CONTINUOUS
 10
2.5370524458
 20
-38.2185327736
 11
1.5951710307
 21
-38.1143319084
  0
LINE
  5
22B
100
AcDbEntity
  8
0
100
AcDbLine
 62
7
  6
CONTINUOUS
 10
4.3545355872
 20
-104.2278283755
 11
2.7310552318
 21
-103.9951684642
  0
LINE
  5
22C
100
AcDbEntity
  8
0
100
AcDbLine
 62
7
  6
CONTINUOUS
 10
1.5951710307
 20
-38.1143319084
 11
0.6179535087
 21
-37.9607289114
  0
LINE
  5
22D
100
AcDbEntity
  8
0
100
AcDbLine
 62
7
  6
CONTINUOUS
 10
28.4787858905
 20
-98.3113362846
 11
27.7707512689
 21
-98.1958634592
  0
LINE
  5
22E
100
AcDbEntity
  8
0
100
AcDbLine
 62
7
  6
CONTINUOUS
 10
-6.2481136666
 20
-50.8689248296
 11
-6.8532564443
 21
-50.7646338401
  0
LINE
  5
22F
100
AcDbEntity
  8
0
100
AcDbLine
 62
7
  6
CONTINUOUS
 10
2.7310552318
 20
-103.9951684642
 11
1.1422707621
 21
-103.6985949961
  0
LINE
  5
230
100
AcDbEntity
  8
0
100
AcDbLine
 62
7
  6
CONTINUOUS
 10
0.6179535087
 20
-37.9607289114
 11
-0.3864894287
 21
-37.7567233153
  0
LINE
  5
231
100
AcDbEntity
  8
0
100
AcDbLine
 62
7
  6
CONTINUOUS
 10
29.5383459797
 20
-98.5468833624
 11
29.2594525105
 21
-98.4892964029
  0
LINE
  5
232
100
AcDbEntity
  8
0
100
AcDbLine
 62
7
  6
CONTINUOUS
 10
29.2196328924
 20
-98.4797051892
 11
28.4787858905
 21
-98.3113362846
  0
LINE
  5
233
100
AcDbEntity
  8
0
100
AcDbLine
 62
7
  6
CONTINUOUS
 10
1.1422707621
 20
-103.6985949961
 11
-0.4102252222
 21
-103.3391658894
  0
LINE
  5
234
100
AcDbEntity
  8
0
100
AcDbLine
 62
7
  6
CONTINUOUS
 10
29.2594525105
 20
-98.4892964029
 11
29.2196328924
 21
-98.4797051892
  0
LINE
  5
235
100
AcDbEntity
  8
0
100
AcDbLine
 62
7
  6
CONTINUOUS
 10
-9.3108712015
 20
-17.2516073451
 11
-10.7283013311
 21
-16.9007977511
  0
LINE
  5
236
100
AcDbEntity
  8
0
100
AcDbLine
 62
7
  6
CONTINUOUS
 10
-0.3864894287
 20
-37.7567233153
 11
-1.4123467143
 21
-37.5015872706
  0
LINE
  5
237
100
AcDbEntity
  8
0
100
AcDbLine
 62
7
  6
CONTINUOUS
 10
-28.6259512578
 20
-9.7464574977
 11
-3.5301504105
 21
-16.0217369462
  0
LINE
  5
238
100
AcDbEntity
  8
0
100
AcDbLine
 62
7
  6
CONTINUOUS
 10
-6.8532564443
 20
-50.7646338401
 11
-7.5319858923
 21
-50.5814658563
  0
LINE
  5
239
100
AcDbEntity
  8
0
100
AcDbLine
 62
7
  6
CONTINUOUS
 10
-12.2055234136
 20
-16.4953853213
 11
-13.7436577641
 21
-16.078379847
  0
LINE
  5
23A
100
AcDbEntity
  8
0
100
AcDbLine
 62
7
  6
CONTINUOUS
 10
-10.7283013311
 20
-16.9007977511
 11
-12.2055234136
 21
-16.4953853213
  0
LINE
  5
23B
100
AcDbEntity
  8
0
100
AcDbLine
 62
7
  6
CONTINUOUS
 10
-13.7436577641
 20
-16.078379847
 11
-15.7225505542
 21
-15.5350405689
  0
LINE
  5
23C
100
AcDbEntity
  8
0
100
AcDbLine
 62
7
  6
CONTINUOUS
 10
-0.4102252222
 20
-103.3391658894
 11
-1.925493805
 21
-102.9178429078
  0
LINE
  5
23D
100
AcDbEntity
  8
0
100
AcDbLine
 62
7
  6
CONTINUOUS
 10
-1.4123467143
 20
-37.5015872706
 11
-2.455307921
 21
-37.194711959
  0
LINE
  5
23E
100
AcDbEntity
  8
0
100
AcDbLine
 62
7
  6
CONTINUOUS
 10
-15.7225505542
 20
-15.5350405689
 11
-18.392454151
 21
-14.7373225304
  0
LINE
  5
23F
100
AcDbEntity
  8
0
100
AcDbLine
 62
7
  6
CONTINUOUS
 10
-18.392454151
 20
-14.7373225304
 11
-21.8112766199
 21
-13.6537176958
  0
LINE
  5
240
100
AcDbEntity
  8
0
100
AcDbLine
 62
7
  6
CONTINUOUS
 10
-21.8112766199
 20
-13.6537176958
 11
-25.8696783607
 21
-12.3101589198
  0
LINE
  5
241
100
AcDbEntity
  8
0
100
AcDbLine
 62
7
  6
CONTINUOUS
 10
-2.455307921
 20
-37.194711959
 11
-3.5120884442
 21
-36.8355228555
  0
LINE
  5
242
100
AcDbEntity
  8
0
100
AcDbLine
 62
7
  6
CONTINUOUS
 10
-25.8696783607
 20
-12.3101589198
 11
-29.8384758142
 21
-10.9515241013
  0
LINE
  5
243
100
AcDbEntity
  8
0
100
AcDbLine
 62
7
  6
CONTINUOUS
 10
-29.8384758142
 20
-10.9515241013
 11
-30.812139064
 21
-10.6110833454
  0
LINE
  5
244
100
AcDbEntity
  8
0
100
AcDbLine
 62
7
  6
CONTINUOUS
 10
-7.5319858923
 20
-50.5814658563
 11
-8.2683165181
 21
-50.3136872592
  0
LINE
  5
245
100
AcDbEntity
  8
0
100
AcDbLine
 62
7
  6
CONTINUOUS
 10
-3.5120884442
 20
-36.8355228555
 11
-4.5801291494
 21
-36.4234308863
  0
LINE
  5
246
100
AcDbEntity
  8
0
100
AcDbLine
 62
7
  6
CONTINUOUS
 10
-4.5801291494
 20
-36.4234308863
 11
-5.6573969211
 21
-35.957803653
  0
LINE
  5
247
100
AcDbEntity
  8
0
100
AcDbLine
 62
7
  6
CONTINUOUS
 10
-8.2683165181
 20
-50.3136872592
 11
-9.0529558938
 21
-49.9563228598
  0
LINE
  5
248
100
AcDbEntity
  8
0
100
AcDbLine
 62
7
  6
CONTINUOUS
 10
-5.6573969211
 20
-35.957803653
 11
-6.7422469821
 21
-35.4379485101
  0
LINE
  5
249
100
AcDbEntity
  8
0
100
AcDbLine
 62
7
  6
CONTINUOUS
 10
-6.7422469821
 20
-35.4379485101
 11
-7.8333248372
 21
-34.863102933
  0
LINE
  5
24A
100
AcDbEntity
  8
0
100
AcDbLine
 62
7
  6
CONTINUOUS
 10
-9.0529558938
 20
-49.9563228598
 11
-9.879946487
 21
-49.504486736
  0
LINE
  5
24B
100
AcDbEntity
  8
0
100
AcDbLine
 62
7
  6
CONTINUOUS
 10
-7.8333248372
 20
-34.863102933
 11
-8.9294946267
 21
-34.232429524
  0
LINE
  5
24C
100
AcDbEntity
  8
0
100
AcDbLine
 62
7
  6
CONTINUOUS
 10
-1.925493805
 20
-102.9178429078
 11
-26.0018191253
 21
-87.6069575333
  0
LINE
  5
24D
100
AcDbEntity
  8
0
100
AcDbLine
 62
7
  6
CONTINUOUS
 10
-9.879946487
 20
-49.504486736
 11
-10.7451696617
 21
-48.9531506528
  0
LINE
  5
24E
100
AcDbEntity
  8
0
100
AcDbLine
 62
7
  6
CONTINUOUS
 10
-12.2767419972
 20
-32.3445583743
 11
-29.2867206427
 21
-20.235543454
  0
LINE
  5
24F
100
AcDbEntity
  8
0
100
AcDbLine
 62
7
  6
CONTINUOUS
 10
-10.7451696617
 20
-48.9531506528
 11
-11.6455845368
 21
-48.2970668808
  0
LINE
  5
250
100
AcDbEntity
  8
0
100
AcDbLine
 62
7
  6
CONTINUOUS
 10
-11.6455845368
 20
-48.2970668808
 11
-12.5788052401
 21
-47.5307520388
  0
LINE
  5
251
100
AcDbEntity
  8
0
100
AcDbLine
 62
7
  6
CONTINUOUS
 10
-12.5788052401
 20
-47.5307520388
 11
-17.0322592233
 21
-43.6384783222
  0
LINE
  5
252
100
AcDbEntity
  8
0
100
AcDbLine
 62
7
  6
CONTINUOUS
 10
-17.0322592233
 20
-43.6384783222
 11
-26.8238888668
 21
-35.0111046239
  0
LINE
  5
253
100
AcDbEntity
  8
0
100
AcDbLine
 62
7
  6
CONTINUOUS
 10
-26.8238888668
 20
-35.0111046239
 11
-30.8158856027
 21
-31.4836056155
  0
LINE
  5
254
100
AcDbEntity
  8
0
100
AcDbLine
 62
7
  6
CONTINUOUS
 10
-30.6969935103
 20
-91.2544316943
 11
-40.8972584114
 21
-79.7722584311
  0
LINE
  5
255
100
AcDbEntity
  8
0
100
AcDbLine
 62
7
  6
CONTINUOUS
 10
-40.8972584114
 20
97.6899494883
 11
-40.9311639274
 21
97.9452388955
  0
LINE
  5
256
100
AcDbEntity
  8
0
100
AcDbLine
 62
7
  6
CONTINUOUS
 10
-3.3036013291
 20
46.7167518242
 11
-3.3036013291
 21
67.1437670477
  0
LINE
  5
257
100
AcDbEntity
  8
0
100
AcDbLine
 62
7
  6
CONTINUOUS
 10
-2.2784969928
 20
-16.4106977526
 11
-2.2784969928
 21
46.2221413757
  0
LINE
  5
258
100
AcDbEntity
  8
0
100
AcDbLine
 62
7
  6
CONTINUOUS
 10
-2.2784969928
 20
67.6383774963
 11
-2.2784969928
 21
88.0692591293
  0
LINE
  5
259
100
AcDbEntity
  8
0
100
AcDbLine
 62
7
  6
CONTINUOUS
 10
-1.4024652589
 20
-103.6390249592
 11
-1.4024652589
 21
-51.880462844
  0
LINE
  5
25A
100
AcDbEntity
  8
0
100
AcDbLine
 62
7
  6
CONTINUOUS
 10
0.9536280344
 20
-38.1404030319
 11
0.9536280344
 21
-18.2079982572
  0
LINE
  5
25B
100
AcDbEntity
  8
0
100
AcDbLine
 62
7
  6
CONTINUOUS
 10
-30.2725034279
 20
99.2249839517
 11
-30.6102865923
 21
98.6398290369
  0
LINE
  5
25C
100
AcDbEntity
  8
0
100
AcDbLine
 62
7
  6
CONTINUOUS
 10
15.1683499706
 20
-50.9298450009
 11
12.5257747257
 21
-51.1179747979
  0
LINE
  5
25D
100
AcDbEntity
  8
0
100
AcDbLine
 62
7
  6
CONTINUOUS
 10
12.5257747257
 20
-51.1179747979
 11
9.785032079
 21
-51.2478497654
  0
LINE
  5
25E
100
AcDbEntity
  8
0
100
AcDbLine
 62
7
  6
CONTINUOUS
 10
-5.4424943139
 20
-50.8895141801
 11
-5.7486016326
 21
-50.9030477415
  0
LINE
  5
25F
100
AcDbEntity
  8
0
100
AcDbLine
 62
7
  6
CONTINUOUS
 10
9.785032079
 20
-51.2478497654
 11
6.9662952926
 21
-51.3171380802
  0
LINE
  5
260
100
AcDbEntity
  8
0
100
AcDbLine
 62
7
  6
CONTINUOUS
 10
4.2605655572
 20
-38.2862316427
 11
3.4317267755
 21
-38.27490314
  0
LINE
  5
261
100
AcDbEntity
  8
0
100
AcDbLine
 62
7
  6
CONTINUOUS
 10
3.4317267755
 20
-38.27490314
 11
2.5370524458
 21
-38.2185327736
  0
LINE
  5
262
100
AcDbEntity
  8
0
100
AcDbLine
 62
7
  6
CONTINUOUS
 10
-6.6206384637
 20
-17.7469327697
 11
-7.9705009356
 21
-17.5284678827
  0
LINE
  5
263
100
AcDbEntity
  8
0
100
AcDbLine
 62
7
  6
CONTINUOUS
 10
-7.9705009356
 20
-17.5284678827
 11
-9.3108712015
 21
-17.2516073451
  0
LINE
  5
264
100
AcDbEntity
  8
0
100
AcDbLine
 62
7
  6
CONTINUOUS
 10
48.9767711366
 20
-5.1867857795
 11
49.0641329585
 21
-5.2383907504
  0
LINE
  5
265
100
AcDbEntity
  8
0
100
AcDbLine
 62
7
  6
CONTINUOUS
 10
49.0641329585
 20
-5.2383907504
 11
49.1453721639
 21
-5.3041574446
  0
LINE
  5
266
100
AcDbEntity
  8
0
100
AcDbLine
 62
7
  6
CONTINUOUS
 10
49.1453721639
 20
-5.3041574446
 11
49.2203928759
 21
-5.3851533314
  0
LINE
  5
267
100
AcDbEntity
  8
0
100
AcDbLine
 62
7
  6
CONTINUOUS
 10
49.2203928759
 20
-5.3851533314
 11
49.2888892022
 21
-5.4828599016
  0
LINE
  5
268
100
AcDbEntity
  8
0
100
AcDbLine
 62
7
  6
CONTINUOUS
 10
-40.4217326543
 20
99.5500778661
 11
-39.9382586258
 21
100.0799809856
  0
LINE
  5
269
100
AcDbEntity
  8
0
100
AcDbLine
 62
7
  6
CONTINUOUS
 10
22.408975683
 20
-50.0454253077
 11
20.1152596801
 21
-50.3904447366
  0
LINE
  5
26A
100
AcDbEntity
  8
0
100
AcDbLine
 62
7
  6
CONTINUOUS
 10
-5.427494216
 20
-50.8874721974
 11
-5.4424943139
 21
-50.8895141801
  0
LINE
  5
26B
100
AcDbEntity
  8
0
100
AcDbLine
 62
7
  6
CONTINUOUS
 10
20.1152596801
 20
-50.3904447366
 11
17.7005307913
 21
-50.6863064604
  0
LINE
  5
26C
100
AcDbEntity
  8
0
100
AcDbLine
 62
7
  6
CONTINUOUS
 10
17.7005307913
 20
-50.6863064604
 11
15.1683499706
 21
-50.9298450009
  0
LINE
  5
26D
100
AcDbEntity
  8
0
100
AcDbLine
 62
7
  6
CONTINUOUS
 10
8.346106043
 20
-38.0411339985
 11
6.391379419
 21
-38.1505728561
  0
LINE
  5
26E
100
AcDbEntity
  8
0
100
AcDbLine
 62
7
  6
CONTINUOUS
 10
6.391379419
 20
-38.1505728561
 11
5.7337667681
 21
-38.1781005257
  0
LINE
  5
26F
100
AcDbEntity
  8
0
100
AcDbLine
 62
7
  6
CONTINUOUS
 10
4.9908703726
 20
-38.2581778046
 11
4.2605655572
 21
-38.2862316427
  0
LINE
  5
270
100
AcDbEntity
  8
0
100
AcDbLine
 62
7
  6
CONTINUOUS
 10
-3.7268263592
 20
-18.0206612155
 11
-5.2163181738
 21
-17.9111468041
  0
LINE
  5
271
100
AcDbEntity
  8
0
100
AcDbLine
 62
7
  6
CONTINUOUS
 10
-3.5301504105
 20
-16.0217369462
 11
-0.7356582003
 21
-16.3099026642
  0
LINE
  5
272
100
AcDbEntity
  8
0
100
AcDbLine
 62
7
  6
CONTINUOUS
 10
-5.2163181738
 20
-17.9111468041
 11
-6.6206384637
 21
-17.7469327697
  0
LINE
  5
273
100
AcDbEntity
  8
0
100
AcDbLine
 62
7
  6
CONTINUOUS
 10
48.8833226799
 20
-5.1487227949
 11
48.9767711366
 21
-5.1867857795
  0
LINE
  5
274
100
AcDbEntity
  8
0
100
AcDbLine
 62
7
  6
CONTINUOUS
 10
49.2888892022
 20
-5.4828599016
 11
49.3502757593
 21
-5.5991129556
  0
LINE
  5
275
100
AcDbEntity
  8
0
100
AcDbLine
 62
7
  6
CONTINUOUS
 10
-29.8189218609
 20
99.7471459003
 11
-30.2725034279
 21
99.2249839517
  0
LINE
  5
276
100
AcDbEntity
  8
0
100
AcDbLine
 62
7
  6
CONTINUOUS
 10
26.630569079
 20
-49.2204186119
 11
24.5805485799
 21
-49.6543951426
  0
LINE
  5
277
100
AcDbEntity
  8
0
100
AcDbLine
 62
7
  6
CONTINUOUS
 10
24.5805485799
 20
-49.6543951426
 11
22.408975683
 21
-50.0454253077
  0
LINE
  5
278
100
AcDbEntity
  8
0
100
AcDbLine
 62
7
  6
CONTINUOUS
 10
18.2110083566
 20
-37.0786238605
 11
15.7387680049
 21
-37.381788768
  0
LINE
  5
279
100
AcDbEntity
  8
0
100
AcDbLine
 62
7
  6
CONTINUOUS
 10
15.7387680049
 20
-37.381788768
 11
13.2195327259
 21
-37.6473398441
  0
LINE
  5
27A
100
AcDbEntity
  8
0
100
AcDbLine
 62
7
  6
CONTINUOUS
 10
5.5519291428
 20
-38.2049667673
 11
4.9908703726
 21
-38.2581778046
  0
LINE
  5
27B
100
AcDbEntity
  8
0
100
AcDbLine
 62
7
  6
CONTINUOUS
 10
13.2195327259
 20
-37.6473398441
 11
10.7153892065
 21
-37.8696013779
  0
LINE
  5
27C
100
AcDbEntity
  8
0
100
AcDbLine
 62
7
  6
CONTINUOUS
 10
10.7153892065
 20
-37.8696013779
 11
8.346106043
 21
-38.0411339985
  0
LINE
  5
27D
100
AcDbEntity
  8
0
100
AcDbLine
 62
7
  6
CONTINUOUS
 10
1.181563819
 20
-16.4411543879
 11
2.2878635172
 21
-16.4611250819
  0
LINE
  5
27E
100
AcDbEntity
  8
0
100
AcDbLine
 62
7
  6
CONTINUOUS
 10
-2.1273870514
 20
-18.0725327125
 11
-3.7268263592
 21
-18.0206612155
  0
LINE
  5
27F
100
AcDbEntity
  8
0
100
AcDbLine
 62
7
  6
CONTINUOUS
 10
-0.7356582003
 20
-16.3099026642
 11
1.181563819
 21
-16.4411543879
  0
LINE
  5
280
100
AcDbEntity
  8
0
100
AcDbLine
 62
7
  6
CONTINUOUS
 10
48.7840474045
 20
-5.1240053795
 11
48.8833226799
 21
-5.1487227949
  0
LINE
  5
281
100
AcDbEntity
  8
0
100
AcDbLine
 62
7
  6
CONTINUOUS
 10
-11.9630794905
 20
50.4484136926
 11
-16.0472819353
 21
52.656935932
  0
LINE
  5
282
100
AcDbEntity
  8
0
100
AcDbLine
 62
7
  6
CONTINUOUS
 10
-16.0472819353
 20
52.656935932
 11
-21.8297802354
 21
55.8681944865
  0
LINE
  5
283
100
AcDbEntity
  8
0
100
AcDbLine
 62
7
  6
CONTINUOUS
 10
-21.8297802354
 20
55.8681944865
 11
-27.8924709771
 21
59.2946031594
  0
LINE
  5
284
100
AcDbEntity
  8
0
100
AcDbLine
 62
7
  6
CONTINUOUS
 10
-27.8924709771
 20
59.2946031594
 11
-28.6259512578
 21
59.7130110887
  0
LINE
  5
285
100
AcDbEntity
  8
0
100
AcDbLine
 62
7
  6
CONTINUOUS
 10
49.3502757593
 20
-5.5991129556
 11
49.4036693143
 21
-5.7360376692
  0
LINE
  5
286
100
AcDbEntity
  8
0
100
AcDbLine
 62
7
  6
CONTINUOUS
 10
49.4036693143
 20
-5.7360376692
 11
49.4478044601
 21
-5.8955685269
  0
LINE
  5
287
100
AcDbEntity
  8
0
100
AcDbLine
 62
7
  6
CONTINUOUS
 10
49.5517857111
 20
-20.1109484046
 11
52.6460732395
 21
-31.3401618192
  0
LINE
  5
288
100
AcDbEntity
  8
0
100
AcDbLine
 62
7
  6
CONTINUOUS
 10
49.5102218087
 20
-23.0787077568
 11
49.5103743026
 21
-23.0794216464
  0
LINE
  5
289
100
AcDbEntity
  8
0
100
AcDbLine
 62
7
  6
CONTINUOUS
 10
30.3741198718
 20
-48.2352190475
 11
28.5608585693
 21
-48.7464334919
  0
LINE
  5
28A
100
AcDbEntity
  8
0
100
AcDbLine
 62
7
  6
CONTINUOUS
 10
28.5608585693
 20
-48.7464334919
 11
26.630569079
 21
-49.2204186119
  0
LINE
  5
28B
100
AcDbEntity
  8
0
100
AcDbLine
 62
7
  6
CONTINUOUS
 10
27.115352625
 20
-35.5740372846
 11
25.0623316154
 21
-35.9869008493
  0
LINE
  5
28C
100
AcDbEntity
  8
0
100
AcDbLine
 62
7
  6
CONTINUOUS
 10
25.0623316154
 20
-35.9869008493
 11
22.8888675769
 21
-36.3774323618
  0
LINE
  5
28D
100
AcDbEntity
  8
0
100
AcDbLine
 62
7
  6
CONTINUOUS
 10
22.8888675769
 20
-36.3774323618
 11
20.601184245
 21
-36.7425078477
  0
LINE
  5
28E
100
AcDbEntity
  8
0
100
AcDbLine
 62
7
  6
CONTINUOUS
 10
5.7337667681
 20
-38.1781005257
 11
5.5519291428
 21
-38.2049667673
  0
LINE
  5
28F
100
AcDbEntity
  8
0
100
AcDbLine
 62
7
  6
CONTINUOUS
 10
20.601184245
 20
-36.7425078477
 11
18.2110083566
 21
-37.0786238605
  0
LINE
  5
290
100
AcDbEntity
  8
0
100
AcDbLine
 62
7
  6
CONTINUOUS
 10
2.2878635172
 20
-16.4611250819
 11
2.5998485423
 21
-16.4446254969
  0
LINE
  5
291
100
AcDbEntity
  8
0
100
AcDbLine
 62
7
  6
CONTINUOUS
 10
1.4888664325
 20
-17.9837300146
 11
-0.395850308
 21
-18.0621686984
  0
LINE
  5
292
100
AcDbEntity
  8
0
100
AcDbLine
 62
7
  6
CONTINUOUS
 10
-0.395850308
 20
-18.0621686984
 11
-2.1273870514
 21
-18.0725327125
  0
LINE
  5
293
100
AcDbEntity
  8
0
100
AcDbLine
 62
7
  6
CONTINUOUS
 10
48.679978522
 20
-5.1127184767
 11
48.7840474045
 21
-5.1240053795
  0
LINE
  5
294
100
AcDbEntity
  8
0
100
AcDbLine
 62
7
  6
CONTINUOUS
 10
-5.922020732
 20
47.5622020019
 11
-8.0516263482
 21
48.4762581753
  0
LINE
  5
295
100
AcDbEntity
  8
0
100
AcDbLine
 62
7
  6
CONTINUOUS
 10
-8.0516263482
 20
48.4762581753
 11
-9.4358710477
 21
49.1395965292
  0
LINE
  5
296
100
AcDbEntity
  8
0
100
AcDbLine
 62
7
  6
CONTINUOUS
 10
-9.4358710477
 20
49.1395965292
 11
-11.9630794905
 21
50.4484136926
  0
LINE
  5
297
100
AcDbEntity
  8
0
100
AcDbLine
 62
7
  6
CONTINUOUS
 10
49.4478044601
 20
-5.8955685269
 11
49.4813037065
 21
-6.0798227578
  0
LINE
  5
298
100
AcDbEntity
  8
0
100
AcDbLine
 62
7
  6
CONTINUOUS
 10
49.5103743026
 20
-23.0794216464
 11
49.519575717
 21
-23.1494796425
  0
LINE
  5
299
100
AcDbEntity
  8
0
100
AcDbLine
 62
7
  6
CONTINUOUS
 10
49.4813037065
 20
-6.0798227578
 11
49.5026812093
 21
-6.2914362003
  0
LINE
  5
29A
100
AcDbEntity
  8
0
100
AcDbLine
 62
7
  6
CONTINUOUS
 10
49.519575717
 20
-23.1494796425
 11
49.5238095622
 21
-23.2774163844
  0
LINE
  5
29B
100
AcDbEntity
  8
0
100
AcDbLine
 62
7
  6
CONTINUOUS
 10
49.5026812093
 20
-6.2914362003
 11
49.5102218087
 21
-6.5331811354
  0
LINE
  5
29C
100
AcDbEntity
  8
0
100
AcDbLine
 62
7
  6
CONTINUOUS
 10
40.9713530728
 20
-43.6454936873
 11
40.9713530728
 21
-82.139661032
  0
LINE
  5
29D
100
AcDbEntity
  8
0
100
AcDbLine
 62
7
  6
CONTINUOUS
 10
-29.3047059941
 20
100.1661666311
 11
-29.8189218609
 21
99.7471459003
  0
LINE
  5
29E
100
AcDbEntity
  8
0
100
AcDbLine
 62
7
  6
CONTINUOUS
 10
-39.9382586258
 20
100.0799809856
 11
-39.2588501955
 21
100.5798785154
  0
LINE
  5
29F
100
AcDbEntity
  8
0
100
AcDbLine
 62
7
  6
CONTINUOUS
 10
32.5374562371
 20
-34.2283081857
 11
30.8521766584
 21
-34.6923061955
  0
LINE
  5
2A0
100
AcDbEntity
  8
0
100
AcDbLine
 62
7
  6
CONTINUOUS
 10
30.8521766584
 20
-34.6923061955
 11
29.0453404895
 21
-35.141655593
  0
LINE
  5
2A1
100
AcDbEntity
  8
0
100
AcDbLine
 62
7
  6
CONTINUOUS
 10
29.0453404895
 20
-35.141655593
 11
27.115352625
 21
-35.5740372846
  0
LINE
  5
2A2
100
AcDbEntity
  8
0
100
AcDbLine
 62
7
  6
CONTINUOUS
 10
14.0632253532
 20
-16.6368995769
 11
10.840667224
 21
-17.0650898705
  0
LINE
  5
2A3
100
AcDbEntity
  8
0
100
AcDbLine
 62
7
  6
CONTINUOUS
 10
6.1694810895
 20
-16.0844159811
 11
10.2822145912
 21
-15.5717609634
  0
LINE
  5
2A4
100
AcDbEntity
  8
0
100
AcDbLine
 62
7
  6
CONTINUOUS
 10
10.840667224
 20
-17.0650898705
 11
7.4531479115
 21
-17.4499209365
  0
LINE
  5
2A5
100
AcDbEntity
  8
0
100
AcDbLine
 62
7
  6
CONTINUOUS
 10
5.8937402447
 20
-16.1154870167
 11
6.1694810895
 21
-16.0844159811
  0
LINE
  5
2A6
100
AcDbEntity
  8
0
100
AcDbLine
 62
7
  6
CONTINUOUS
 10
2.5998485423
 20
-16.4446254969
 11
5.8937402447
 21
-16.1154870167
  0
LINE
  5
2A7
100
AcDbEntity
  8
0
100
AcDbLine
 62
7
  6
CONTINUOUS
 10
7.4531479115
 20
-17.4499209365
 11
3.5476021727
 21
-17.8303466992
  0
LINE
  5
2A8
100
AcDbEntity
  8
0
100
AcDbLine
 62
7
  6
CONTINUOUS
 10
3.5476021727
 20
-17.8303466992
 11
1.4888664325
 21
-17.9837300146
  0
LINE
  5
2A9
100
AcDbEntity
  8
0
100
AcDbLine
 62
7
  6
CONTINUOUS
 10
48.5741561041
 20
-5.1148030612
 11
48.679978522
 21
-5.1127184767
  0
LINE
  5
2AA
100
AcDbEntity
  8
0
100
AcDbLine
 62
7
  6
CONTINUOUS
 10
-0.0550236713
 20
45.4186255162
 11
-1.5077386082
 21
45.8988359511
  0
LINE
  5
2AB
100
AcDbEntity
  8
0
100
AcDbLine
 62
7
  6
CONTINUOUS
 10
-1.5077386082
 20
45.8988359511
 11
-3.6778012386
 21
46.6803049052
  0
LINE
  5
2AC
100
AcDbEntity
  8
0
100
AcDbLine
 62
7
  6
CONTINUOUS
 10
-3.6778012386
 20
46.6803049052
 11
-5.922020732
 21
47.5622020019
  0
LINE
  5
2AD
100
AcDbEntity
  8
0
100
AcDbLine
 62
7
  6
CONTINUOUS
 10
52.653612738
 20
-31.3817257226
 11
52.9178607322
 21
-33.4734533187
  0
LINE
  5
2AE
100
AcDbEntity
  8
0
100
AcDbLine
 62
7
  6
CONTINUOUS
 10
49.6931358298
 20
83.2534273426
 11
49.7273207026
 21
82.7755644191
  0
LINE
  5
2AF
100
AcDbEntity
  8
0
100
AcDbLine
 62
7
  6
CONTINUOUS
 10
48.4718975357
 20
67.4836244519
 11
48.4718975357
 21
48.3290446294
  0
LINE
  5
2B0
100
AcDbEntity
  8
0
100
AcDbLine
 62
7
  6
CONTINUOUS
 10
49.2742741687
 20
-4.7019528865
 11
49.2742741687
 21
48.7141390262
  0
LINE
  5
2B1
100
AcDbEntity
  8
0
100
AcDbLine
 62
7
  6
CONTINUOUS
 10
49.5102218087
 20
-6.5331811354
 11
49.5102218087
 21
-23.0787077568
  0
LINE
  5
2B2
100
AcDbEntity
  8
0
100
AcDbLine
 62
7
  6
CONTINUOUS
 10
49.7273207026
 20
82.7755644191
 11
49.7273207026
 21
67.4836244519
  0
LINE
  5
2B3
100
AcDbEntity
  8
0
100
AcDbLine
 62
7
  6
CONTINUOUS
 10
31.5658286458
 20
-13.4542476482
 11
31.0992080421
 21
-13.5489249017
  0
LINE
  5
2B4
100
AcDbEntity
  8
0
100
AcDbLine
 62
7
  6
CONTINUOUS
 10
31.0992080421
 20
-13.5489249017
 11
25.281250499
 21
-14.7047489953
  0
LINE
  5
2B5
100
AcDbEntity
  8
0
100
AcDbLine
 62
7
  6
CONTINUOUS
 10
25.281250499
 20
-14.7047489953
 11
20.9454372211
 21
-15.5164296719
  0
LINE
  5
2B6
100
AcDbEntity
  8
0
100
AcDbLine
 62
7
  6
CONTINUOUS
 10
19.9587814399
 20
-14.0878690651
 11
25.2734404936
 21
-13.1408751499
  0
LINE
  5
2B7
100
AcDbEntity
  8
0
100
AcDbLine
 62
7
  6
CONTINUOUS
 10
20.9454372211
 20
-15.5164296719
 11
17.3464133492
 21
-16.1344168324
  0
LINE
  5
2B8
100
AcDbEntity
  8
0
100
AcDbLine
 62
7
  6
CONTINUOUS
 10
14.9246339277
 20
-14.9022821933
 11
19.9587814399
 21
-14.0878690651
  0
LINE
  5
2B9
100
AcDbEntity
  8
0
100
AcDbLine
 62
7
  6
CONTINUOUS
 10
17.3464133492
 20
-16.1344168324
 11
14.0632253532
 21
-16.6368995769
  0
LINE
  5
2BA
100
AcDbEntity
  8
0
100
AcDbLine
 62
7
  6
CONTINUOUS
 10
10.2822145912
 20
-15.5717609634
 11
14.9246339277
 21
-14.9022821933
  0
LINE
  5
2BB
100
AcDbEntity
  8
0
100
AcDbLine
 62
7
  6
CONTINUOUS
 10
48.4752536043
 20
-5.1286531821
 11
48.5741561041
 21
-5.1148030612
  0
LINE
  5
2BC
100
AcDbEntity
  8
0
100
AcDbLine
 62
7
  6
CONTINUOUS
 10
-0.0281499995
 20
45.4102920189
 11
-0.0550236713
 21
45.4186255162
  0
LINE
  5
2BD
100
AcDbEntity
  8
0
100
AcDbLine
 62
7
  6
CONTINUOUS
 10
48.813102226
 20
85.2839433899
 11
49.1564840508
 21
84.7502450711
  0
LINE
  5
2BE
100
AcDbEntity
  8
0
100
AcDbLine
 62
7
  6
CONTINUOUS
 10
49.1564840508
 20
84.7502450711
 11
49.4125629043
 21
84.2364330652
  0
LINE
  5
2BF
100
AcDbEntity
  8
0
100
AcDbLine
 62
7
  6
CONTINUOUS
 10
49.4125629043
 20
84.2364330652
 11
49.5894357225
 21
83.738875146
  0
LINE
  5
2C0
100
AcDbEntity
  8
0
100
AcDbLine
 62
7
  6
CONTINUOUS
 10
49.5894357225
 20
83.738875146
 11
49.6931358298
 21
83.2534273426
  0
LINE
  5
2C1
100
AcDbEntity
  8
0
100
AcDbLine
 62
7
  6
CONTINUOUS
 10
49.5238095622
 20
-23.2774163844
 11
49.5146912926
 21
-23.4362057431
  0
LINE
  5
2C2
100
AcDbEntity
  8
0
100
AcDbLine
 62
7
  6
CONTINUOUS
 10
-29.0262213021
 20
100.3367968436
 11
-29.3047059941
 21
100.1661666311
  0
LINE
  5
2C3
100
AcDbEntity
  8
0
100
AcDbLine
 62
7
  6
CONTINUOUS
 10
37.529809263
 20
-11.9629477198
 11
35.6377478057
 21
-12.5005938158
  0
LINE
  5
2C4
100
AcDbEntity
  8
0
100
AcDbLine
 62
7
  6
CONTINUOUS
 10
31.3416848562
 20
-11.8501810887
 11
34.1002896781
 21
-11.1382778799
  0
LINE
  5
2C5
100
AcDbEntity
  8
0
100
AcDbLine
 62
7
  6
CONTINUOUS
 10
35.6377478057
 20
-12.5005938158
 11
33.649174499
 21
-12.9987847874
  0
LINE
  5
2C6
100
AcDbEntity
  8
0
100
AcDbLine
 62
7
  6
CONTINUOUS
 10
48.4153598406
 20
-5.1436553149
 11
48.4752536043
 21
-5.1286531821
  0
LINE
  5
2C7
100
AcDbEntity
  8
0
100
AcDbLine
 62
7
  6
CONTINUOUS
 10
28.3989462009
 20
-12.5195404598
 11
31.3416848562
 21
-11.8501810887
  0
LINE
  5
2C8
100
AcDbEntity
  8
0
100
AcDbLine
 62
7
  6
CONTINUOUS
 10
33.649174499
 20
-12.9987847874
 11
31.5658286458
 21
-13.4542476482
  0
LINE
  5
2C9
100
AcDbEntity
  8
0
100
AcDbLine
 62
7
  6
CONTINUOUS
 10
25.2734404936
 20
-13.1408751499
 11
28.3989462009
 21
-12.5195404598
  0
LINE
  5
2CA
100
AcDbEntity
  8
0
100
AcDbLine
 62
7
  6
CONTINUOUS
 10
47.82372332
 20
86.4226377823
 11
48.3725907577
 21
85.8405857956
  0
LINE
  5
2CB
100
AcDbEntity
  8
0
100
AcDbLine
 62
7
  6
CONTINUOUS
 10
48.3725907577
 20
85.8405857956
 11
48.813102226
 21
85.2839433899
  0
LINE
  5
2CC
100
AcDbEntity
  8
0
100
AcDbLine
 62
7
  6
CONTINUOUS
 10
49.5146912926
 20
-23.4362057431
 11
49.4893788812
 21
-23.6164446942
  0
LINE
  5
2CD
100
AcDbEntity
  8
0
100
AcDbLine
 62
7
  6
CONTINUOUS
 10
-39.2588501955
 20
100.5798785154
 11
-38.3498573888
 21
101.0362323524
  0
LINE
  5
2CE
100
AcDbEntity
  8
0
100
AcDbLine
 62
7
  6
CONTINUOUS
 10
-28.6637454108
 20
96.2664341322
 11
-28.0751742967
 21
96.5599988484
  0
LINE
  5
2CF
100
AcDbEntity
  8
0
100
AcDbLine
 62
7
  6
CONTINUOUS
 10
21.2442414089
 20
43.3165251455
 11
15.8892674985
 21
43.8015254019
  0
LINE
  5
2D0
100
AcDbEntity
  8
0
100
AcDbLine
 62
7
  6
CONTINUOUS
 10
15.8892674985
 20
43.8015254019
 11
7.2678774682
 21
44.6545839323
  0
LINE
  5
2D1
100
AcDbEntity
  8
0
100
AcDbLine
 62
7
  6
CONTINUOUS
 10
7.2678774682
 20
44.6545839323
 11
-0.0281499995
 21
45.4102920189
  0
LINE
  5
2D2
100
AcDbEntity
  8
0
100
AcDbLine
 62
7
  6
CONTINUOUS
 10
27.0623598294
 20
96.211301851
 11
26.3847117089
 21
96.6401628445
  0
LINE
  5
2D3
100
AcDbEntity
  8
0
100
AcDbLine
 62
7
  6
CONTINUOUS
 10
27.1727175038
 20
96.1380693335
 11
27.0623598294
 21
96.211301851
  0
LINE
  5
2D4
100
AcDbEntity
  8
0
100
AcDbLine
 62
7
  6
CONTINUOUS
 10
45.4006629822
 20
88.3369641384
 11
46.3509760137
 21
87.6698661467
  0
LINE
  5
2D5
100
AcDbEntity
  8
0
100
AcDbLine
 62
7
  6
CONTINUOUS
 10
46.3509760137
 20
87.6698661467
 11
47.1541983568
 21
87.0319727244
  0
LINE
  5
2D6
100
AcDbEntity
  8
0
100
AcDbLine
 62
7
  6
CONTINUOUS
 10
47.1541983568
 20
87.0319727244
 11
47.82372332
 21
86.4226377823
  0
LINE
  5
2D7
100
AcDbEntity
  8
0
100
AcDbLine
 62
7
  6
CONTINUOUS
 10
49.4893788812
 20
-23.6164446942
 11
49.4462939104
 21
-23.813492785
  0
LINE
  5
2D8
100
AcDbEntity
  8
0
100
AcDbLine
 62
7
  6
CONTINUOUS
 10
40.9713530728
 20
-82.139661032
 11
40.963327347
 21
-82.173098016
  0
LINE
  5
2D9
100
AcDbEntity
  8
0
100
AcDbLine
 62
7
  6
CONTINUOUS
 10
-5.0008359267
 20
-48.4898149414
 11
0.3513380936
 21
-37.8949826824
  0
LINE
  5
2DA
100
AcDbEntity
  8
0
100
AcDbLine
 62
7
  6
CONTINUOUS
 10
-28.0751742967
 20
96.5599988484
 11
-26.8516465796
 21
97.1151438957
  0
LINE
  5
2DB
100
AcDbEntity
  8
0
100
AcDbLine
 62
7
  6
CONTINUOUS
 10
24.9242070551
 20
43.0769138226
 11
23.8952517673
 21
43.1182554986
  0
LINE
  5
2DC
100
AcDbEntity
  8
0
100
AcDbLine
 62
7
  6
CONTINUOUS
 10
23.8952517673
 20
43.1182554986
 11
21.2442414089
 21
43.3165251455
  0
LINE
  5
2DD
100
AcDbEntity
  8
0
100
AcDbLine
 62
7
  6
CONTINUOUS
 10
-15.3407524702
 20
91.8430182053
 11
-12.4732786729
 21
90.9599879231
  0
LINE
  5
2DE
100
AcDbEntity
  8
0
100
AcDbLine
 62
7
  6
CONTINUOUS
 10
-18.4894065281
 20
92.8657901138
 11
-15.3407524702
 21
91.8430182053
  0
LINE
  5
2DF
100
AcDbEntity
  8
0
100
AcDbLine
 62
7
  6
CONTINUOUS
 10
-21.8281692697
 20
94.0011546888
 11
-18.4894065281
 21
92.8657901138
  0
LINE
  5
2E0
100
AcDbEntity
  8
0
100
AcDbLine
 62
7
  6
CONTINUOUS
 10
-25.114601614
 20
95.1647232653
 11
-21.8281692697
 21
94.0011546888
  0
LINE
  5
2E1
100
AcDbEntity
  8
0
100
AcDbLine
 62
7
  6
CONTINUOUS
 10
-27.5682837183
 20
96.0652537591
 11
-25.114601614
 21
95.1647232653
  0
LINE
  5
2E2
100
AcDbEntity
  8
0
100
AcDbLine
 62
7
  6
CONTINUOUS
 10
-27.7518758619
 20
96.1342995839
 11
-27.5682837183
 21
96.0652537591
  0
LINE
  5
2E3
100
AcDbEntity
  8
0
100
AcDbLine
 62
7
  6
CONTINUOUS
 10
23.1112509768
 20
98.4830866084
 11
21.8435382369
 21
99.1238103477
  0
LINE
  5
2E4
100
AcDbEntity
  8
0
100
AcDbLine
 62
7
  6
CONTINUOUS
 10
41.5396675511
 20
90.5083779988
 11
43.0065422507
 21
89.7576829092
  0
LINE
  5
2E5
100
AcDbEntity
  8
0
100
AcDbLine
 62
7
  6
CONTINUOUS
 10
24.315515235
 20
97.8396743695
 11
23.1112509768
 21
98.4830866084
  0
LINE
  5
2E6
100
AcDbEntity
  8
0
100
AcDbLine
 62
7
  6
CONTINUOUS
 10
25.4253413202
 20
97.2130525001
 11
24.315515235
 21
97.8396743695
  0
LINE
  5
2E7
100
AcDbEntity
  8
0
100
AcDbLine
 62
7
  6
CONTINUOUS
 10
43.0065422507
 20
89.7576829092
 11
44.2900005056
 21
89.0332068074
  0
LINE
  5
2E8
100
AcDbEntity
  8
0
100
AcDbLine
 62
7
  6
CONTINUOUS
 10
26.3847117089
 20
96.6401628445
 11
25.4253413202
 21
97.2130525001
  0
LINE
  5
2E9
100
AcDbEntity
  8
0
100
AcDbLine
 62
7
  6
CONTINUOUS
 10
44.2900005056
 20
89.0332068074
 11
45.4006629822
 21
88.3369641384
  0
LINE
  5
2EA
100
AcDbEntity
  8
0
100
AcDbLine
 62
7
  6
CONTINUOUS
 10
40.963327347
 20
-82.173098016
 11
40.7752765049
 21
-82.8347535761
  0
LINE
  5
2EB
100
AcDbEntity
  8
0
100
AcDbLine
 62
7
  6
CONTINUOUS
 10
49.4462939104
 20
-23.813492785
 11
49.3842726849
 21
-24.0246652775
  0
LINE
  5
2EC
100
AcDbEntity
  8
0
100
AcDbLine
 62
7
  6
CONTINUOUS
 10
-26.8516465796
 20
97.1151438957
 11
-25.3481520959
 21
97.731386512
  0
LINE
  5
2ED
100
AcDbEntity
  8
0
100
AcDbLine
 62
7
  6
CONTINUOUS
 10
-28.0900891907
 20
100.6909047936
 11
-29.0262213021
 21
100.3367968436
  0
LINE
  5
2EE
100
AcDbEntity
  8
0
100
AcDbLine
 62
7
  6
CONTINUOUS
 10
-25.3481520959
 20
97.731386512
 11
-23.6822060639
 21
98.3467346795
  0
LINE
  5
2EF
100
AcDbEntity
  8
0
100
AcDbLine
 62
7
  6
CONTINUOUS
 10
-25.3540711339
 20
101.6313572691
 11
-28.0900891907
 21
100.6909047936
  0
LINE
  5
2F0
100
AcDbEntity
  8
0
100
AcDbLine
 62
7
  6
CONTINUOUS
 10
-38.3498573888
 20
101.0362323524
 11
-37.1724561526
 21
101.4317640435
  0
LINE
  5
2F1
100
AcDbEntity
  8
0
100
AcDbLine
 62
7
  6
CONTINUOUS
 10
-28.5621991017
 20
104.0297130209
 11
-27.7518758619
 21
104.2937770932
  0
LINE
  5
2F2
100
AcDbEntity
  8
0
100
AcDbLine
 62
7
  6
CONTINUOUS
 10
-33.0516178037
 20
102.6247609404
 11
-28.5621991017
 21
104.0297130209
  0
LINE
  5
2F3
100
AcDbEntity
  8
0
100
AcDbLine
 62
7
  6
CONTINUOUS
 10
32.8888170421
 20
43.4393531727
 11
30.4162903167
 21
43.2418383425
  0
LINE
  5
2F4
100
AcDbEntity
  8
0
100
AcDbLine
 62
7
  6
CONTINUOUS
 10
30.4162903167
 20
43.2418383425
 11
27.7628506816
 21
43.1191002333
  0
LINE
  5
2F5
100
AcDbEntity
  8
0
100
AcDbLine
 62
7
  6
CONTINUOUS
 10
27.7628506816
 20
43.1191002333
 11
24.9242070551
 21
43.0769138226
  0
LINE
  5
2F6
100
AcDbEntity
  8
0
100
AcDbLine
 62
7
  6
CONTINUOUS
 10
-7.6752767903
 20
89.6219351358
 11
-5.7339892859
 21
89.1510310939
  0
LINE
  5
2F7
100
AcDbEntity
  8
0
100
AcDbLine
 62
7
  6
CONTINUOUS
 10
-9.9174790067
 20
90.2214492386
 11
-7.6752767903
 21
89.6219351358
  0
LINE
  5
2F8
100
AcDbEntity
  8
0
100
AcDbLine
 62
7
  6
CONTINUOUS
 10
-12.4732786729
 20
90.9599879231
 11
-9.9174790067
 21
90.2214492386
  0
LINE
  5
2F9
100
AcDbEntity
  8
0
100
AcDbLine
 62
7
  6
CONTINUOUS
 10
36.0026200909
 20
92.8696620307
 11
38.0331185273
 21
92.0719821861
  0
LINE
  5
2FA
100
AcDbEntity
  8
0
100
AcDbLine
 62
7
  6
CONTINUOUS
 10
17.8266745331
 20
100.9327988094
 11
16.4497828354
 21
101.480618134
  0
LINE
  5
2FB
100
AcDbEntity
  8
0
100
AcDbLine
 62
7
  6
CONTINUOUS
 10
19.1897755873
 20
100.3548700065
 11
17.8266745331
 21
100.9327988094
  0
LINE
  5
2FC
100
AcDbEntity
  8
0
100
AcDbLine
 62
7
  6
CONTINUOUS
 10
38.0331185273
 20
92.0719821861
 11
39.882194668
 21
91.2817479172
  0
LINE
  5
2FD
100
AcDbEntity
  8
0
100
AcDbLine
 62
7
  6
CONTINUOUS
 10
20.5319299486
 20
99.7502190388
 11
19.1897755873
 21
100.3548700065
  0
LINE
  5
2FE
100
AcDbEntity
  8
0
100
AcDbLine
 62
7
  6
CONTINUOUS
 10
39.882194668
 20
91.2817479172
 11
41.5396675511
 21
90.5083779988
  0
LINE
  5
2FF
100
AcDbEntity
  8
0
100
AcDbLine
 62
7
  6
CONTINUOUS
 10
21.8435382369
 20
99.1238103477
 11
20.5319299486
 21
99.7502190388
  0
LINE
  5
300
100
AcDbEntity
  8
0
100
AcDbLine
 62
7
  6
CONTINUOUS
 10
52.9178607322
 20
-33.4734533187
 11
52.9177376761
 21
-33.4738443661
  0
LINE
  5
301
100
AcDbEntity
  8
0
100
AcDbLine
 62
7
  6
CONTINUOUS
 10
40.7752765049
 20
-82.8347535761
 11
40.4247863241
 21
-83.8603973371
  0
LINE
  5
302
100
AcDbEntity
  8
0
100
AcDbLine
 62
7
  6
CONTINUOUS
 10
49.3842726849
 20
-24.0246652775
 11
49.3022983003
 21
-24.2482581507
  0
LINE
  5
303
100
AcDbEntity
  8
0
100
AcDbLine
 62
7
  6
CONTINUOUS
 10
-23.6822060639
 20
98.3467346795
 11
-21.9119305785
 21
98.9327495803
  0
LINE
  5
304
100
AcDbEntity
  8
0
100
AcDbLine
 62
7
  6
CONTINUOUS
 10
-22.1121592535
 20
102.6139351607
 11
-25.3540711339
 21
101.6313572691
  0
LINE
  5
305
100
AcDbEntity
  8
0
100
AcDbLine
 62
7
  6
CONTINUOUS
 10
-21.9119305785
 20
98.9327495803
 11
-20.0716096977
 21
99.4740634538
  0
LINE
  5
306
100
AcDbEntity
  8
0
100
AcDbLine
 62
7
  6
CONTINUOUS
 10
-37.1724561526
 20
101.4317640435
 11
-33.0516178037
 21
102.6247609404
  0
LINE
  5
307
100
AcDbEntity
  8
0
100
AcDbLine
 62
7
  6
CONTINUOUS
 10
37.3072540228
 20
44.0351547707
 11
35.1845242889
 21
43.7057868387
  0
LINE
  5
308
100
AcDbEntity
  8
0
100
AcDbLine
 62
7
  6
CONTINUOUS
 10
35.1845242889
 20
43.7057868387
 11
32.8888170421
 21
43.4393531727
  0
LINE
  5
309
100
AcDbEntity
  8
0
100
AcDbLine
 62
7
  6
CONTINUOUS
 10
-4.073285536
 20
88.7959790334
 11
-2.6689803175
 21
88.5430892881
  0
LINE
  5
30A
100
AcDbEntity
  8
0
100
AcDbLine
 62
7
  6
CONTINUOUS
 10
-5.7339892859
 20
89.1510310939
 11
-4.073285536
 21
88.7959790334
  0
LINE
  5
30B
100
AcDbEntity
  8
0
100
AcDbLine
 62
7
  6
CONTINUOUS
 10
38.7727606752
 20
91.3979812653
 11
40.2050135302
 21
91.0254250544
  0
LINE
  5
30C
100
AcDbEntity
  8
0
100
AcDbLine
 62
7
  6
CONTINUOUS
 10
28.0278489022
 20
95.4697604333
 11
28.0471801021
 21
95.4645846802
  0
LINE
  5
30D
100
AcDbEntity
  8
0
100
AcDbLine
 62
7
  6
CONTINUOUS
 10
20.2505910981
 20
97.8241031076
 11
23.0025008276
 21
97.0549759128
  0
LINE
  5
30E
100
AcDbEntity
  8
0
100
AcDbLine
 62
7
  6
CONTINUOUS
 10
28.0471801021
 20
95.4645846802
 11
29.4321322958
 21
95.070552724
  0
LINE
  5
30F
100
AcDbEntity
  8
0
100
AcDbLine
 62
7
  6
CONTINUOUS
 10
40.2050135302
 20
91.0254250544
 11
41.2464951793
 21
90.7203066961
  0
LINE
  5
310
100
AcDbEntity
  8
0
100
AcDbLine
 62
7
  6
CONTINUOUS
 10
12.2853847371
 20
102.9235697746
 11
10.897465397
 21
103.3340015262
  0
LINE
  5
311
100
AcDbEntity
  8
0
100
AcDbLine
 62
7
  6
CONTINUOUS
 10
23.0025008276
 20
97.0549759128
 11
25.5485067115
 21
96.2857401862
  0
LINE
  5
312
100
AcDbEntity
  8
0
100
AcDbLine
 62
7
  6
CONTINUOUS
 10
29.4321322958
 20
95.070552724
 11
31.5682913252
 21
94.4121393131
  0
LINE
  5
313
100
AcDbEntity
  8
0
100
AcDbLine
 62
7
  6
CONTINUOUS
 10
41.2464951793
 20
90.7203066961
 11
41.4130903589
 21
90.6670030824
  0
LINE
  5
314
100
AcDbEntity
  8
0
100
AcDbLine
 62
7
  6
CONTINUOUS
 10
13.675318069
 20
102.4773382079
 11
12.2853847371
 21
102.9235697746
  0
LINE
  5
315
100
AcDbEntity
  8
0
100
AcDbLine
 62
7
  6
CONTINUOUS
 10
25.5485067115
 20
96.2857401862
 11
27.5436118344
 21
95.6366688228
  0
LINE
  5
316
100
AcDbEntity
  8
0
100
AcDbLine
 62
7
  6
CONTINUOUS
 10
31.5682913252
 20
94.4121393131
 11
33.8221924189
 21
93.6590862793
  0
LINE
  5
317
100
AcDbEntity
  8
0
100
AcDbLine
 62
7
  6
CONTINUOUS
 10
27.5436118344
 20
95.6366688228
 11
28.0278489022
 21
95.4697604333
  0
LINE
  5
318
100
AcDbEntity
  8
0
100
AcDbLine
 62
7
  6
CONTINUOUS
 10
15.0645748637
 20
101.9959968901
 11
13.675318069
 21
102.4773382079
  0
LINE
  5
319
100
AcDbEntity
  8
0
100
AcDbLine
 62
7
  6
CONTINUOUS
 10
33.8221924189
 20
93.6590862793
 11
36.0026200909
 21
92.8696620307
  0
LINE
  5
31A
100
AcDbEntity
  8
0
100
AcDbLine
 62
7
  6
CONTINUOUS
 10
16.4497828354
 20
101.480618134
 11
15.0645748637
 21
101.9959968901
  0
LINE
  5
31B
100
AcDbEntity
  8
0
100
AcDbLine
 62
7
  6
CONTINUOUS
 10
52.9177376761
 20
-33.4738443661
 11
52.799050895
 21
-33.7740044777
  0
LINE
  5
31C
100
AcDbEntity
  8
0
100
AcDbLine
 62
7
  6
CONTINUOUS
 10
40.4247863241
 20
-83.8603973371
 11
39.955527684
 21
-85.0387146857
  0
LINE
  5
31D
100
AcDbEntity
  8
0
100
AcDbLine
 62
7
  6
CONTINUOUS
 10
49.3022983003
 20
-24.2482581507
 11
49.1993962144
 21
-24.4831195431
  0
LINE
  5
31E
100
AcDbEntity
  8
0
100
AcDbLine
 62
7
  6
CONTINUOUS
 10
49.1993962144
 20
-24.4831195431
 11
49.0745891838
 21
-24.7284320913
  0
LINE
  5
31F
100
AcDbEntity
  8
0
100
AcDbLine
 62
7
  6
CONTINUOUS
 10
49.2912863705
 20
48.914225723
 11
49.2644604616
 21
48.8826670351
  0
LINE
  5
320
100
AcDbEntity
  8
0
100
AcDbLine
 62
7
  6
CONTINUOUS
 10
49.2644604616
 20
48.8826670351
 11
48.9244812168
 21
48.5445586229
  0
LINE
  5
321
100
AcDbEntity
  8
0
100
AcDbLine
 62
7
  6
CONTINUOUS
 10
41.0474194509
 20
44.8576951237
 11
39.2605230438
 21
44.4212803293
  0
LINE
  5
322
100
AcDbEntity
  8
0
100
AcDbLine
 62
7
  6
CONTINUOUS
 10
39.2605230438
 20
44.4212803293
 11
37.3072540228
 21
44.0351547707
  0
LINE
  5
323
100
AcDbEntity
  8
0
100
AcDbLine
 62
7
  6
CONTINUOUS
 10
49.7273207026
 20
67.4836244519
 11
-1.4874296079
 21
67.9140525011
  0
LINE
  5
324
100
AcDbEntity
  8
0
100
AcDbLine
 62
7
  6
CONTINUOUS
 10
-1.4952404593
 20
88.3785642344
 11
-0.5259302811
 21
88.2890135618
  0
LINE
  5
325
100
AcDbEntity
  8
0
100
AcDbLine
 62
7
  6
CONTINUOUS
 10
-2.6689803175
 20
88.5430892881
 11
-1.4952404593
 21
88.3785642344
  0
LINE
  5
326
100
AcDbEntity
  8
0
100
AcDbLine
 62
7
  6
CONTINUOUS
 10
33.7430109371
 20
92.3944260564
 11
35.4739428183
 21
92.1020488854
  0
LINE
  5
327
100
AcDbEntity
  8
0
100
AcDbLine
 62
7
  6
CONTINUOUS
 10
9.2224060523
 20
100.2787265946
 11
11.8878964149
 21
99.7815956304
  0
LINE
  5
328
100
AcDbEntity
  8
0
100
AcDbLine
 62
7
  6
CONTINUOUS
 10
35.4739428183
 20
92.1020488854
 11
37.1661730444
 21
91.7657722465
  0
LINE
  5
329
100
AcDbEntity
  8
0
100
AcDbLine
 62
7
  6
CONTINUOUS
 10
11.8878964149
 20
99.7815956304
 11
14.6345513304
 21
99.2029731984
  0
LINE
  5
32A
100
AcDbEntity
  8
0
100
AcDbLine
 62
7
  6
CONTINUOUS
 10
8.1358879
 20
104.0460447473
 11
6.7653703985
 21
104.3474176953
  0
LINE
  5
32B
100
AcDbEntity
  8
0
100
AcDbLine
 62
7
  6
CONTINUOUS
 10
37.1661730444
 20
91.7657722465
 11
38.7727606752
 21
91.3979812653
  0
LINE
  5
32C
100
AcDbEntity
  8
0
100
AcDbLine
 62
7
  6
CONTINUOUS
 10
14.6345513304
 20
99.2029731984
 11
17.4364217727
 21
98.5471361987
  0
LINE
  5
32D
100
AcDbEntity
  8
0
100
AcDbLine
 62
7
  6
CONTINUOUS
 10
9.5137199676
 20
103.7082257212
 11
8.1358879
 21
104.0460447473
  0
LINE
  5
32E
100
AcDbEntity
  8
0
100
AcDbLine
 62
7
  6
CONTINUOUS
 10
17.4364217727
 20
98.5471361987
 11
20.2505910981
 21
97.8241031076
  0
LINE
  5
32F
100
AcDbEntity
  8
0
100
AcDbLine
 62
7
  6
CONTINUOUS
 10
10.897465397
 20
103.3340015262
 11
9.5137199676
 21
103.7082257212
  0
LINE
  5
330
100
AcDbEntity
  8
0
100
AcDbLine
 62
7
  6
CONTINUOUS
 10
39.955527684
 20
-85.0387146857
 11
39.386577618
 21
-86.2913711982
  0
LINE
  5
331
100
AcDbEntity
  8
0
100
AcDbLine
 62
7
  6
CONTINUOUS
 10
52.799050895
 20
-33.7740044777
 11
52.5180932671
 21
-34.3398973916
  0
LINE
  5
332
100
AcDbEntity
  8
0
100
AcDbLine
 62
7
  6
CONTINUOUS
 10
49.0745891838
 20
-24.7284320913
 11
48.9268772745
 21
-24.9835911088
  0
LINE
  5
333
100
AcDbEntity
  8
0
100
AcDbLine
 62
7
  6
CONTINUOUS
 10
9.6312494095
 20
89.9673998824
 11
12.6601186864
 21
90.8292331251
  0
LINE
  5
334
100
AcDbEntity
  8
0
100
AcDbLine
 62
7
  6
CONTINUOUS
 10
-0.5259302811
 20
88.2890135618
 11
0.2645372
 21
88.2618063276
  0
LINE
  5
335
100
AcDbEntity
  8
0
100
AcDbLine
 62
7
  6
CONTINUOUS
 10
28.5534092173
 20
92.9610326341
 11
30.2676093669
 21
92.8260149526
  0
LINE
  5
336
100
AcDbEntity
  8
0
100
AcDbLine
 62
7
  6
CONTINUOUS
 10
1.8422767154
 20
101.2798977118
 11
4.1921671636
 21
101.0263614206
  0
LINE
  5
337
100
AcDbEntity
  8
0
100
AcDbLine
 62
7
  6
CONTINUOUS
 10
30.2676093669
 20
92.8260149526
 11
32.0015276812
 21
92.6367435584
  0
LINE
  5
338
100
AcDbEntity
  8
0
100
AcDbLine
 62
7
  6
CONTINUOUS
 10
4.1921671636
 20
101.0263614206
 11
6.6539826855
 21
100.6933419761
  0
LINE
  5
339
100
AcDbEntity
  8
0
100
AcDbLine
 62
7
  6
CONTINUOUS
 10
32.0015276812
 20
92.6367435584
 11
33.7430109371
 21
92.3944260564
  0
LINE
  5
33A
100
AcDbEntity
  8
0
100
AcDbLine
 62
7
  6
CONTINUOUS
 10
4.0505547137
 20
104.8412123162
 11
2.7078654437
 21
105.034016353
  0
LINE
  5
33B
100
AcDbEntity
  8
0
100
AcDbLine
 62
7
  6
CONTINUOUS
 10
6.6539826855
 20
100.6933419761
 11
9.2224060523
 21
100.2787265946
  0
LINE
  5
33C
100
AcDbEntity
  8
0
100
AcDbLine
 62
7
  6
CONTINUOUS
 10
5.4032930966
 20
104.6124199881
 11
4.0505547137
 21
104.8412123162
  0
LINE
  5
33D
100
AcDbEntity
  8
0
100
AcDbLine
 62
7
  6
CONTINUOUS
 10
6.7653703985
 20
104.3474176953
 11
5.4032930966
 21
104.6124199881
  0
LINE
  5
33E
100
AcDbEntity
  8
0
100
AcDbLine
 62
7
  6
CONTINUOUS
 10
39.386577618
 20
-86.2913711982
 11
38.7291202549
 21
-87.578577791
  0
LINE
  5
33F
100
AcDbEntity
  8
0
100
AcDbLine
 62
7
  6
CONTINUOUS
 10
52.5180932671
 20
-34.3398973916
 11
52.1073546651
 21
-35.0266244729
  0
LINE
  5
340
100
AcDbEntity
  8
0
100
AcDbLine
 62
7
  6
CONTINUOUS
 10
48.9268772745
 20
-24.9835911088
 11
48.8146139293
 21
-25.1597528338
  0
LINE
  5
341
100
AcDbEntity
  8
0
100
AcDbLine
 62
7
  6
CONTINUOUS
 10
48.9244812168
 20
48.5445586229
 11
48.3292738543
 21
48.0581165902
  0
LINE
  5
342
100
AcDbEntity
  8
0
100
AcDbLine
 62
7
  6
CONTINUOUS
 10
48.3292738543
 20
48.0581165902
 11
47.5363726181
 21
47.5156527517
  0
LINE
  5
343
100
AcDbEntity
  8
0
100
AcDbLine
 62
7
  6
CONTINUOUS
 10
-1.4874296079
 20
67.9140525011
 11
-28.6637454108
 21
64.3270876507
  0
LINE
  5
344
100
AcDbEntity
  8
0
100
AcDbLine
 62
7
  6
CONTINUOUS
 10
0.2645372
 20
88.2618063276
 11
1.2252902635
 21
88.2888352237
  0
LINE
  5
345
100
AcDbEntity
  8
0
100
AcDbLine
 62
7
  6
CONTINUOUS
 10
24.0333947813
 20
93.0413045315
 11
25.2149610499
 21
93.0683334278
  0
LINE
  5
346
100
AcDbEntity
  8
0
100
AcDbLine
 62
7
  6
CONTINUOUS
 10
25.2149610499
 20
93.0683334278
 11
26.8672685624
 21
93.0416428806
  0
LINE
  5
347
100
AcDbEntity
  8
0
100
AcDbLine
 62
7
  6
CONTINUOUS
 10
26.8672685624
 20
93.0416428806
 11
28.5534092173
 21
92.9610326341
  0
LINE
  5
348
100
AcDbEntity
  8
0
100
AcDbLine
 62
7
  6
CONTINUOUS
 10
-2.5141049907
 20
101.5603433584
 11
-0.3932724308
 21
101.4567972152
  0
LINE
  5
349
100
AcDbEntity
  8
0
100
AcDbLine
 62
7
  6
CONTINUOUS
 10
0.0547110228
 20
105.3127394225
 11
-1.2550273847
 21
105.3992515071
  0
LINE
  5
34A
100
AcDbEntity
  8
0
100
AcDbLine
 62
7
  6
CONTINUOUS
 10
-0.3932724308
 20
101.4567972152
 11
1.8422767154
 21
101.2798977118
  0
LINE
  5
34B
100
AcDbEntity
  8
0
100
AcDbLine
 62
7
  6
CONTINUOUS
 10
1.3757776946
 20
105.1910954994
 11
0.0547110228
 21
105.3127394225
  0
LINE
  5
34C
100
AcDbEntity
  8
0
100
AcDbLine
 62
7
  6
CONTINUOUS
 10
2.7078654437
 20
105.034016353
 11
1.3757776946
 21
105.1910954994
  0
LINE
  5
34D
100
AcDbEntity
  8
0
100
AcDbLine
 62
7
  6
CONTINUOUS
 10
38.7291202549
 20
-87.578577791
 11
37.9906381704
 21
-88.8769021033
  0
LINE
  5
34E
100
AcDbEntity
  8
0
100
AcDbLine
 62
7
  6
CONTINUOUS
 10
52.1073546651
 20
-35.0266244729
 11
51.5782571811
 21
-35.7847651255
  0
LINE
  5
34F
100
AcDbEntity
  8
0
100
AcDbLine
 62
7
  6
CONTINUOUS
 10
48.8146139293
 20
-25.1597528338
 11
48.4759613142
 21
-25.6291343536
  0
LINE
  5
350
100
AcDbEntity
  8
0
100
AcDbLine
 62
7
  6
CONTINUOUS
 10
47.5363726181
 20
47.5156527517
 11
46.5669788931
 21
46.9544849565
  0
LINE
  5
351
100
AcDbEntity
  8
0
100
AcDbLine
 62
7
  6
CONTINUOUS
 10
1.2252902635
 20
88.2888352237
 11
2.260075968
 21
88.3725958651
  0
LINE
  5
352
100
AcDbEntity
  8
0
100
AcDbLine
 62
7
  6
CONTINUOUS
 10
22.8007522376
 20
92.9587463773
 11
24.0333947813
 21
93.0413045315
  0
LINE
  5
353
100
AcDbEntity
  8
0
100
AcDbLine
 62
7
  6
CONTINUOUS
 10
-6.4792955182
 20
101.5604159691
 11
-4.5213044876
 21
101.5940565867
  0
LINE
  5
354
100
AcDbEntity
  8
0
100
AcDbLine
 62
7
  6
CONTINUOUS
 10
-16.2791524586
 20
105.2868644001
 11
-6.1128153009
 21
105.2868644001
  0
LINE
  5
355
100
AcDbEntity
  8
0
100
AcDbLine
 62
7
  6
CONTINUOUS
 10
-2.5532256959
 20
105.4509385682
 11
-3.8397531519
 21
105.4681023503
  0
LINE
  5
356
100
AcDbEntity
  8
0
100
AcDbLine
 62
7
  6
CONTINUOUS
 10
-4.5213044876
 20
101.5940565867
 11
-2.5141049907
 21
101.5603433584
  0
LINE
  5
357
100
AcDbEntity
  8
0
100
AcDbLine
 62
7
  6
CONTINUOUS
 10
-1.2550273847
 20
105.3992515071
 11
-2.5532256959
 21
105.4509385682
  0
LINE
  5
358
100
AcDbEntity
  8
0
100
AcDbLine
 62
7
  6
CONTINUOUS
 10
37.9906381704
 20
-88.8769021033
 11
37.1764935412
 21
-90.1713127212
  0
LINE
  5
359
100
AcDbEntity
  8
0
100
AcDbLine
 62
7
  6
CONTINUOUS
 10
48.4759613142
 20
-25.6291343536
 11
48.0584190442
 21
-26.1245788909
  0
LINE
  5
35A
100
AcDbEntity
  8
0
100
AcDbLine
 62
7
  6
CONTINUOUS
 10
46.5669788931
 20
46.9544849565
 11
45.4305804517
 21
46.3955788224
  0
LINE
  5
35B
100
AcDbEntity
  8
0
100
AcDbLine
 62
7
  6
CONTINUOUS
 10
18.6699754801
 20
92.3425120793
 11
20.1367465312
 21
92.6143811247
  0
LINE
  5
35C
100
AcDbEntity
  8
0
100
AcDbLine
 62
7
  6
CONTINUOUS
 10
3.3854599996
 20
88.5182623231
 11
4.6254569124
 21
88.733250329
  0
LINE
  5
35D
100
AcDbEntity
  8
0
100
AcDbLine
 62
7
  6
CONTINUOUS
 10
20.1367465312
 20
92.6143811247
 11
21.5066406357
 21
92.8177932561
  0
LINE
  5
35E
100
AcDbEntity
  8
0
100
AcDbLine
 62
7
  6
CONTINUOUS
 10
2.260075968
 20
88.3725958651
 11
3.3854599996
 21
88.5182623231
  0
LINE
  5
35F
100
AcDbEntity
  8
0
100
AcDbLine
 62
7
  6
CONTINUOUS
 10
21.5066406357
 20
92.8177932561
 11
22.8007522376
 21
92.9587463773
  0
LINE
  5
360
100
AcDbEntity
  8
0
100
AcDbLine
 62
7
  6
CONTINUOUS
 10
-10.4052439097
 20
101.2914491918
 11
-8.4415366525
 21
101.459503956
  0
LINE
  5
361
100
AcDbEntity
  8
0
100
AcDbLine
 62
7
  6
CONTINUOUS
 10
-6.3856831
 20
105.3990697999
 11
-7.7256383341
 21
105.3110538047
  0
LINE
  5
362
100
AcDbEntity
  8
0
100
AcDbLine
 62
7
  6
CONTINUOUS
 10
-8.4415366525
 20
101.459503956
 11
-6.4792955182
 21
101.5604159691
  0
LINE
  5
363
100
AcDbEntity
  8
0
100
AcDbLine
 62
7
  6
CONTINUOUS
 10
-5.0904004038
 20
105.4510381658
 11
-6.3856831
 21
105.3990697999
  0
LINE
  5
364
100
AcDbEntity
  8
0
100
AcDbLine
 62
7
  6
CONTINUOUS
 10
-19.0896488504
 20
105.2157370024
 11
-16.2791524586
 21
105.2868644001
  0
LINE
  5
365
100
AcDbEntity
  8
0
100
AcDbLine
 62
7
  6
CONTINUOUS
 10
-3.8397531519
 20
105.4681023503
 11
-5.0904004038
 21
105.4510381658
  0
LINE
  5
366
100
AcDbEntity
  8
0
100
AcDbLine
 62
7
  6
CONTINUOUS
 10
37.1764935412
 20
-90.1713127212
 11
36.2906707458
 21
-91.4516162647
  0
LINE
  5
367
100
AcDbEntity
  8
0
100
AcDbLine
 62
7
  6
CONTINUOUS
 10
51.5782571811
 20
-35.7847651255
 11
50.9359362302
 21
-36.5894520534
  0
LINE
  5
368
100
AcDbEntity
  8
0
100
AcDbLine
 62
7
  6
CONTINUOUS
 10
48.0584190442
 20
-26.1245788909
 11
47.5559607698
 21
-26.6447614143
  0
LINE
  5
369
100
AcDbEntity
  8
0
100
AcDbLine
 62
7
  6
CONTINUOUS
 10
49.5102218087
 20
-6.2425237935
 11
49.274381099
 21
-6.4401229446
  0
LINE
  5
36A
100
AcDbEntity
  8
0
100
AcDbLine
 62
7
  6
CONTINUOUS
 10
49.270457733
 20
-4.7050930015
 11
49.2742741687
 21
-4.7019528865
  0
LINE
  5
36B
100
AcDbEntity
  8
0
100
AcDbLine
 62
7
  6
CONTINUOUS
 10
45.4305804517
 20
46.3955788224
 11
44.1313264006
 21
45.8530266891
  0
LINE
  5
36C
100
AcDbEntity
  8
0
100
AcDbLine
 62
7
  6
CONTINUOUS
 10
44.1313264006
 20
45.8530266891
 11
42.6704525428
 21
45.337482938
  0
LINE
  5
36D
100
AcDbEntity
  8
0
100
AcDbLine
 62
7
  6
CONTINUOUS
 10
13.143691359
 20
90.9656628893
 11
15.2800428911
 21
91.5472073743
  0
LINE
  5
36E
100
AcDbEntity
  8
0
100
AcDbLine
 62
7
  6
CONTINUOUS
 10
7.6332999988
 20
89.4254670479
 11
9.6312494095
 21
89.9673998824
  0
LINE
  5
36F
100
AcDbEntity
  8
0
100
AcDbLine
 62
7
  6
CONTINUOUS
 10
15.2800428911
 20
91.5472073743
 11
17.0722094867
 21
91.9926132582
  0
LINE
  5
370
100
AcDbEntity
  8
0
100
AcDbLine
 62
7
  6
CONTINUOUS
 10
6.0182226345
 20
89.0289754725
 11
7.6332999988
 21
89.4254670479
  0
LINE
  5
371
100
AcDbEntity
  8
0
100
AcDbLine
 62
7
  6
CONTINUOUS
 10
17.0722094867
 20
91.9926132582
 11
18.6699754801
 21
92.3425120793
  0
LINE
  5
372
100
AcDbEntity
  8
0
100
AcDbLine
 62
7
  6
CONTINUOUS
 10
4.6254569124
 20
88.733250329
 11
6.0182226345
 21
89.0289754725
  0
LINE
  5
373
100
AcDbEntity
  8
0
100
AcDbLine
 62
7
  6
CONTINUOUS
 10
-14.3214907125
 20
100.7557078839
 11
-12.3667993301
 21
101.0566103311
  0
LINE
  5
374
100
AcDbEntity
  8
0
100
AcDbLine
 62
7
  6
CONTINUOUS
 10
-10.5378565242
 20
105.0225925262
 11
-12.0080104849
 21
104.8202684872
  0
LINE
  5
375
100
AcDbEntity
  8
0
100
AcDbLine
 62
7
  6
CONTINUOUS
 10
-12.3667993301
 20
101.0566103311
 11
-10.4052439097
 21
101.2914491918
  0
LINE
  5
376
100
AcDbEntity
  8
0
100
AcDbLine
 62
7
  6
CONTINUOUS
 10
-9.1099510907
 20
105.1858969547
 11
-10.5378565242
 21
105.0225925262
  0
LINE
  5
377
100
AcDbEntity
  8
0
100
AcDbLine
 62
7
  6
CONTINUOUS
 10
-25.3082753709
 20
104.6528026687
 11
-22.1768902561
 21
104.9983241183
  0
LINE
  5
378
100
AcDbEntity
  8
0
100
AcDbLine
 62
7
  6
CONTINUOUS
 10
-7.7256383341
 20
105.3110538047
 11
-9.1099510907
 21
105.1858969547
  0
LINE
  5
379
100
AcDbEntity
  8
0
100
AcDbLine
 62
7
  6
CONTINUOUS
 10
-22.1768902561
 20
104.9983241183
 11
-19.0896488504
 21
105.2157370024
  0
LINE
  5
37A
100
AcDbEntity
  8
0
100
AcDbLine
 62
7
  6
CONTINUOUS
 10
36.2906707458
 20
-91.4516162647
 11
35.336177848
 21
-92.7106214663
  0
LINE
  5
37B
100
AcDbEntity
  8
0
100
AcDbLine
 62
7
  6
CONTINUOUS
 10
50.9359362302
 20
-36.5894520534
 11
50.1826517529
 21
-37.4256681175
  0
LINE
  5
37C
100
AcDbEntity
  8
0
100
AcDbLine
 62
7
  6
CONTINUOUS
 10
50.1826517529
 20
-37.4256681175
 11
49.3190394166
 21
-38.2832667127
  0
LINE
  5
37D
100
AcDbEntity
  8
0
100
AcDbLine
 62
7
  6
CONTINUOUS
 10
47.5559607698
 20
-26.6447614143
 11
46.9623402906
 21
-27.1885430463
  0
LINE
  5
37E
100
AcDbEntity
  8
0
100
AcDbLine
 62
7
  6
CONTINUOUS
 10
49.274381099
 20
-6.4401229446
 11
48.6182685386
 21
-6.9322445574
  0
LINE
  5
37F
100
AcDbEntity
  8
0
100
AcDbLine
 62
7
  6
CONTINUOUS
 10
48.7874510287
 20
-5.0610294099
 11
49.270457733
 21
-4.7050930015
  0
LINE
  5
380
100
AcDbEntity
  8
0
100
AcDbLine
 62
7
  6
CONTINUOUS
 10
42.6704525428
 20
45.337482938
 11
41.0474194509
 21
44.8576951237
  0
LINE
  5
381
100
AcDbEntity
  8
0
100
AcDbLine
 62
7
  6
CONTINUOUS
 10
12.6601186864
 20
90.8292331251
 11
13.143691359
 21
90.9656628893
  0
LINE
  5
382
100
AcDbEntity
  8
0
100
AcDbLine
 62
7
  6
CONTINUOUS
 10
-18.1835417136
 20
99.9616585112
 11
-16.2631387138
 21
100.3900168363
  0
LINE
  5
383
100
AcDbEntity
  8
0
100
AcDbLine
 62
7
  6
CONTINUOUS
 10
-15.0656736656
 20
104.2961657606
 11
-15.4540606699
 21
104.2201219901
  0
LINE
  5
384
100
AcDbEntity
  8
0
100
AcDbLine
 62
7
  6
CONTINUOUS
 10
-16.2631387138
 20
100.3900168363
 11
-14.3214907125
 21
100.7557078839
  0
LINE
  5
385
100
AcDbEntity
  8
0
100
AcDbLine
 62
7
  6
CONTINUOUS
 10
-13.518314495
 20
104.5782530036
 11
-15.0656736656
 21
104.2961657606
  0
LINE
  5
386
100
AcDbEntity
  8
0
100
AcDbLine
 62
7
  6
CONTINUOUS
 10
-27.7518758619
 20
104.2937770932
 11
-27.636439623
 21
104.3133630031
  0
LINE
  5
387
100
AcDbEntity
  8
0
100
AcDbLine
 62
7
  6
CONTINUOUS
 10
-12.0080104849
 20
104.8202684872
 11
-13.518314495
 21
104.5782530036
  0
LINE
  5
388
100
AcDbEntity
  8
0
100
AcDbLine
 62
7
  6
CONTINUOUS
 10
-27.636439623
 20
104.3133630031
 11
-25.3082753709
 21
104.6528026687
  0
LINE
  5
389
100
AcDbEntity
  8
0
100
AcDbLine
 62
7
  6
CONTINUOUS
 10
35.336177848
 20
-92.7106214663
 11
34.31528645
 21
-93.9430964547
  0
LINE
  5
38A
100
AcDbEntity
  8
0
100
AcDbLine
 62
7
  6
CONTINUOUS
 10
21.1051422868
 20
-102.3344487646
 11
20.3989613681
 21
-103.1292388527
  0
LINE
  5
38B
100
AcDbEntity
  8
0
100
AcDbLine
 62
7
  6
CONTINUOUS
 10
49.3190394166
 20
-38.2832667127
 11
48.3446950082
 21
-39.1548204891
  0
LINE
  5
38C
100
AcDbEntity
  8
0
100
AcDbLine
 62
7
  6
CONTINUOUS
 10
46.9623402906
 20
-27.1885430463
 11
46.2711203585
 21
-27.754876289
  0
LINE
  5
38D
100
AcDbEntity
  8
0
100
AcDbLine
 62
7
  6
CONTINUOUS
 10
48.6182685386
 20
-6.9322445574
 11
47.7227146833
 21
-7.531370763
  0
LINE
  5
38E
100
AcDbEntity
  8
0
100
AcDbLine
 62
7
  6
CONTINUOUS
 10
47.8241488886
 20
-5.6831460692
 11
48.7874510287
 21
-5.0610294099
  0
LINE
  5
38F
100
AcDbEntity
  8
0
100
AcDbLine
 62
7
  6
CONTINUOUS
 10
-28.6259512578
 20
-9.7464574977
 11
-30.8158856027
 21
-10.6110833454
  0
LINE
  5
390
100
AcDbEntity
  8
0
100
AcDbLine
 62
7
  6
CONTINUOUS
 10
-18.7588917361
 20
103.4929499581
 11
-22.1121592535
 21
102.6139351607
  0
LINE
  5
391
100
AcDbEntity
  8
0
100
AcDbLine
 62
7
  6
CONTINUOUS
 10
-20.0716096977
 20
99.4740634538
 11
-18.1835417136
 21
99.9616585112
  0
LINE
  5
392
100
AcDbEntity
  8
0
100
AcDbLine
 62
7
  6
CONTINUOUS
 10
-15.4540606699
 20
104.2201219901
 11
-18.7588917361
 21
103.4929499581
  0
LINE
  5
393
100
AcDbEntity
  8
0
100
AcDbLine
 62
7
  6
CONTINUOUS
 10
34.31528645
 20
-93.9430964547
 11
33.229686292
 21
-95.1451325686
  0
LINE
  5
394
100
AcDbEntity
  8
0
100
AcDbLine
 62
7
  6
CONTINUOUS
 10
22.2414877786
 20
-101.1157714628
 11
21.1051422868
 21
-102.3344487646
  0
LINE
  5
395
100
AcDbEntity
  8
0
100
AcDbLine
 62
7
  6
CONTINUOUS
 10
48.3446950082
 20
-39.1548204891
 11
47.2584923992
 21
-40.0345432284
  0
LINE
  5
396
100
AcDbEntity
  8
0
100
AcDbLine
 62
7
  6
CONTINUOUS
 10
46.2711203585
 20
-27.754876289
 11
45.475700125
 21
-28.3427515017
  0
LINE
  5
397
100
AcDbEntity
  8
0
100
AcDbLine
 62
7
  6
CONTINUOUS
 10
47.7227146833
 20
-7.531370763
 11
46.64881741
 21
-8.1769019188
  0
LINE
  5
398
100
AcDbEntity
  8
0
100
AcDbLine
 62
7
  6
CONTINUOUS
 10
46.5425359441
 20
-6.4145962153
 11
47.8241488886
 21
-5.6831460692
  0
LINE
  5
399
100
AcDbEntity
  8
0
100
AcDbLine
 62
7
  6
CONTINUOUS
 10
46.64881741
 20
-8.1769019188
 11
45.4263148524
 21
-8.8396613119
  0
LINE
  5
39A
100
AcDbEntity
  8
0
100
AcDbLine
 62
7
  6
CONTINUOUS
 10
45.0007911376
 20
-7.1984673581
 11
46.5425359441
 21
-6.4145962153
  0
LINE
  5
39B
100
AcDbEntity
  8
0
100
AcDbLine
 62
7
  6
CONTINUOUS
 10
33.229686292
 20
-95.1451325686
 11
32.0805911368
 21
-96.3137343327
  0
LINE
  5
39C
100
AcDbEntity
  8
0
100
AcDbLine
 62
7
  6
CONTINUOUS
 10
23.2784264719
 20
-100.0746803892
 11
22.2414877786
 21
-101.1157714628
  0
LINE
  5
39D
100
AcDbEntity
  8
0
100
AcDbLine
 62
7
  6
CONTINUOUS
 10
47.2584923992
 20
-40.0345432284
 11
46.0587758032
 21
-40.9176927538
  0
LINE
  5
39E
100
AcDbEntity
  8
0
100
AcDbLine
 62
7
  6
CONTINUOUS
 10
45.475700125
 20
-28.3427515017
 11
44.5693391777
 21
-28.9511665489
  0
LINE
  5
39F
100
AcDbEntity
  8
0
100
AcDbLine
 62
7
  6
CONTINUOUS
 10
44.5693391777
 20
-28.9511665489
 11
43.5451778332
 21
-29.5791097963
  0
LINE
  5
3A0
100
AcDbEntity
  8
0
100
AcDbLine
 62
7
  6
CONTINUOUS
 10
45.4263148524
 20
-8.8396613119
 11
44.0727092621
 21
-9.5023668434
  0
LINE
  5
3A1
100
AcDbEntity
  8
0
100
AcDbLine
 62
7
  6
CONTINUOUS
 10
43.2284136136
 20
-8.004572443
 11
45.0007911376
 21
-7.1984673581
  0
LINE
  5
3A2
100
AcDbEntity
  8
0
100
AcDbLine
 62
7
  6
CONTINUOUS
 10
44.0727092621
 20
-9.5023668434
 11
42.5994013007
 21
-10.1534850344
  0
LINE
  5
3A3
100
AcDbEntity
  8
0
100
AcDbLine
 62
7
  6
CONTINUOUS
 10
32.0805911368
 20
-96.3137343327
 11
30.8688150461
 21
-97.4465435562
  0
LINE
  5
3A4
100
AcDbEntity
  8
0
100
AcDbLine
 62
7
  6
CONTINUOUS
 10
24.1247377778
 20
-99.2954063934
 11
23.2784264719
 21
-100.0746803892
  0
LINE
  5
3A5
100
AcDbEntity
  8
0
100
AcDbLine
 62
7
  6
CONTINUOUS
 10
46.0587758032
 20
-40.9176927538
 11
44.7434852914
 21
-41.8002158199
  0
LINE
  5
3A6
100
AcDbEntity
  8
0
100
AcDbLine
 62
7
  6
CONTINUOUS
 10
44.7434852914
 20
-41.8002158199
 11
43.3102435662
 21
-42.6785254748
  0
LINE
  5
3A7
100
AcDbEntity
  8
0
100
AcDbLine
 62
7
  6
CONTINUOUS
 10
43.5451778332
 20
-29.5791097963
 11
42.3962539852
 21
-30.225550927
  0
LINE
  5
3A8
100
AcDbEntity
  8
0
100
AcDbLine
 62
7
  6
CONTINUOUS
 10
42.3962539852
 20
-30.225550927
 11
41.1155170086
 21
-30.8894363779
  0
LINE
  5
3A9
100
AcDbEntity
  8
0
100
AcDbLine
 62
7
  6
CONTINUOUS
 10
41.2427969444
 20
-8.8137260685
 11
43.2284136136
 21
-8.004572443
  0
LINE
  5
3AA
100
AcDbEntity
  8
0
100
AcDbLine
 62
7
  6
CONTINUOUS
 10
42.5994013007
 20
-10.1534850344
 11
41.0142821555
 21
-10.784676748
  0
LINE
  5
3AB
100
AcDbEntity
  8
0
100
AcDbLine
 62
7
  6
CONTINUOUS
 10
39.0550414276
 20
-9.6123242608
 11
41.2427969444
 21
-8.8137260685
  0
LINE
  5
3AC
100
AcDbEntity
  8
0
100
AcDbLine
 62
7
  6
CONTINUOUS
 10
41.0142821555
 20
-10.784676748
 11
39.3230258015
 21
-11.3895447347
  0
LINE
  5
3AD
100
AcDbEntity
  8
0
100
AcDbLine
 62
7
  6
CONTINUOUS
 10
48.4152546363
 20
-5.1436901838
 11
48.4153598406
 21
-5.1436553149
  0
LINE
  5
3AE
100
AcDbEntity
  8
0
100
AcDbLine
 62
7
  6
CONTINUOUS
 10
30.8688150461
 20
-97.4465435562
 11
29.5948297394
 21
-98.5416471967
  0
LINE
  5
3AF
100
AcDbEntity
  8
0
100
AcDbLine
 62
7
  6
CONTINUOUS
 10
24.7788300574
 20
-98.7606793008
 11
24.1247377778
 21
-99.2954063934
  0
LINE
  5
3B0
100
AcDbEntity
  8
0
100
AcDbLine
 62
7
  6
CONTINUOUS
 10
43.3102435662
 20
-42.6785254748
 11
41.7564186284
 21
-43.5493557738
  0
LINE
  5
3B1
100
AcDbEntity
  8
0
100
AcDbLine
 62
7
  6
CONTINUOUS
 10
41.7564186284
 20
-43.5493557738
 11
40.0791705886
 21
-44.4096639959
  0
LINE
  5
3B2
100
AcDbEntity
  8
0
100
AcDbLine
 62
7
  6
CONTINUOUS
 10
41.1155170086
 20
-30.8894363779
 11
39.6958392248
 21
-31.569687501
  0
LINE
  5
3B3
100
AcDbEntity
  8
0
100
AcDbLine
 62
7
  6
CONTINUOUS
 10
39.6958392248
 20
-31.569687501
 11
38.1300253864
 21
-32.2652003173
  0
LINE
  5
3B4
100
AcDbEntity
  8
0
100
AcDbLine
 62
7
  6
CONTINUOUS
 10
36.6725364102
 20
-10.3899717245
 11
39.0550414276
 21
-9.6123242608
  0
LINE
  5
3B5
100
AcDbEntity
  8
0
100
AcDbLine
 62
7
  6
CONTINUOUS
 10
39.3230258015
 20
-11.3895447347
 11
37.529809263
 21
-11.9629477198
  0
LINE
  5
3B6
100
AcDbEntity
  8
0
100
AcDbLine
 62
7
  6
CONTINUOUS
 10
34.1002896781
 20
-11.1382778799
 11
36.6725364102
 21
-10.3899717245
  0
LINE
  5
3B7
100
AcDbEntity
  8
0
100
AcDbLine
 62
7
  6
CONTINUOUS
 10
40.0791705886
 20
-44.4096639959
 11
38.2754875641
 21
-45.2565632286
  0
LINE
  5
3B8
100
AcDbEntity
  8
0
100
AcDbLine
 62
7
  6
CONTINUOUS
 10
38.2754875641
 20
-45.2565632286
 11
36.3422137916
 21
-46.08727501
  0
LINE
  5
3B9
100
AcDbEntity
  8
0
100
AcDbLine
 62
7
  6
CONTINUOUS
 10
38.1300253864
 20
-32.2652003173
 11
36.8958470205
 21
-32.7685710218
  0
LINE
  5
3BA
100
AcDbEntity
  8
0
100
AcDbLine
 62
7
  6
CONTINUOUS
 10
36.8958470205
 20
-32.7685710218
 11
35.5553656114
 21
-33.2646145486
  0
LINE
  5
3BB
100
AcDbEntity
  8
0
100
AcDbLine
 62
7
  6
CONTINUOUS
 10
36.3422137916
 20
-46.08727501
 11
34.2760720113
 21
-46.8990955691
  0
LINE
  5
3BC
100
AcDbEntity
  8
0
100
AcDbLine
 62
7
  6
CONTINUOUS
 10
34.2760720113
 20
-46.8990955691
 11
32.0736815345
 21
-47.6893714928
  0
LINE
  5
3BD
100
AcDbEntity
  8
0
100
AcDbLine
 62
7
  6
CONTINUOUS
 10
35.5553656114
 20
-33.2646145486
 11
34.1039741796
 21
-33.7517718813
  0
LINE
  5
3BE
100
AcDbEntity
  8
0
100
AcDbLine
 62
7
  6
CONTINUOUS
 10
34.1039741796
 20
-33.7517718813
 11
32.5374562371
 21
-34.2283081857
  0
LINE
  5
3BF
100
AcDbEntity
  8
0
100
AcDbLine
 62
7
  6
CONTINUOUS
 10
25.140907062
 20
-98.5323753967
 11
24.7788300574
 21
-98.7606793008
  0
LINE
  5
3C0
100
AcDbEntity
  8
0
100
AcDbLine
 62
7
  6
CONTINUOUS
 10
32.0736815345
 20
-47.6893714928
 11
30.3741198718
 21
-48.2352190475
  0
LINE
  5
3C1
100
AcDbEntity
  8
0
100
AcDbLine
 62
7
  6
CONTINUOUS
 10
25.5510274954
 20
-98.3550445566
 11
25.140907062
 21
-98.5323753967
  0
LINE
  5
3C2
100
AcDbEntity
  8
0
100
AcDbLine
 62
7
  6
CONTINUOUS
 10
20.3989613681
 20
-103.1292388527
 11
20.2413397153
 21
-103.1751315417
  0
ENDSEC
  0
SECTION
  2
OBJECTS
  0
DICTIONARY
  5
C
100
AcDbDictionary
280
0
281
1
  3
ACAD_GROUP
350
D
  3
ACAD_MLINESTYLE
350
17
  3
ACAD_LAYOUT
350
1A
  3
ACAD_PLOTSETTINGS
350
19
  3
ACAD_PLOTSTYLENAME
350
E
  0
DICTIONARY
  5
D
102
{ACAD_REACTORS
330
C
102
}
100
AcDbDictionary
280
0
281
1
  0
ACDBDICTIONARYWDFLT
  5
E
102
{ACAD_REACTORS
330
C
102
}
100
AcDbDictionary
281
1
  3
Normal
350
F
100
AcDbDictionaryWithDefault
340
F
  0
DICTIONARY
  5
17
102
{ACAD_REACTORS
330
C
102
}
100
AcDbDictionary
280
0
281
1
  3
Standard
350
18
  0
DICTIONARY
  5
19
102
{ACAD_REACTORS
330
C
102
}
100
AcDbDictionary
281
1
  0
DICTIONARY
  5
1A
102
{ACAD_REACTORS
330
C
102
}
100
AcDbDictionary
281
1
  3
Model
350
3C3
  3
Layout1
350
3C4
  0
ACDBPLACEHOLDER
  5
F
102
{ACAD_REACTORS
330
E
102
}
  0
MLINESTYLE
  5
18
102
{ACAD_REACTORS
330
17
102
}
100
AcDbMlineStyle
  2
STANDARD
 70
0
  3

 62
256
 51
90.0
 52
90.0
 71
2
 49
0.5
 62
256
  6
BYLAYER
 49
-0.5
 62
256
  6
BYLAYER
  0
LAYOUT
  5
3C3
102
{ACAD_REACTORS
330
1A
102
}
100
AcDbPlotSettings
  1

  2
none_device
  4
ISO_A4_(297.00_x_210.00_MM)
  6

 40
0.0
 41
0.0
 42
0.0
 43
0.0
 44
297.0
 45
210.0
 46
0.0
 47
0.0
 48
0.0
 49
0.0
140
0.0
141
0.0
142
1.0
143
1.0
 70
1024
 72
1
 73
0
 74
0
  7

 75
0
147
1.0
148
0.0
149
0.0
100
AcDbLayout
  1
Model
 70
0
 71
0
 10
0.0
 20
0.0
 11
297.0
 21
210.0
 12
0.0
 22
0.0
 32
0.0
 14
0.0
 24
0.0
 34
0.0
 15
0.0
 25
0.0
 35
0.0
146
0.0
 13
0.0
 23
0.0
 33
0.0
 16
1.0
 26
0.0
 36
0.0
 17
0.0
 27
1.0
 37
0.0
 76
0
330
201
345
0
346
0
  0
LAYOUT
  5
3C4
102
{ACAD_REACTORS
330
1A
102
}
100
AcDbPlotSettings
  1

  2
none_device
  4
ISO_A4_(297.00_x_210.00_MM)
  6

 40
0.0
 41
0.0
 42
0.0
 43
0.0
 44
297.0
 45
210.0
 46
0.0
 47
0.0
 48
0.0
 49
0.0
140
0.0
141
0.0
142
1.0
143
1.0
 70
0
 72
1
 73
0
 74
0
  7

 75
0
147
1.0
148
0.0
149
0.0
100
AcDbLayout
  1
Layout1
 70
0
 71
1
 10
0.0
 20
0.0
 11
297.0
 21
210.0
 12
0.0
 22
0.0
 32
0.0
 14
0.0
 24
0.0
 34
0.0
 15
0.0
 25
0.0
 35
0.0
146
0.0
 13
0.0
 23
0.0
 33
0.0
 16
1.0
 26
0.0
 36
0.0
 17
0.0
 27
1.0
 37
0.0
 76
0
330
202
345
0
346
0
  0
ENDSEC
  0
EOF
