  0
SECTION
  2
HEADER
  9
$ACADVER
  1
AC1024
  9
$DWGCODEPAGE
  3
ANSI_1252
  9
$EXTMAX
 10
297.0
 20
210.0
 30
0.0
  9
$EXTMIN
 10
0.0
 20
0.0
 30
0.0
  9
$LIMMIN
 10
0.0
 20
0.0
  9
$LIMMAX
 10
297.0
 20
210.0
  9
$VIEWCTR
 10
148.5
 20
105.0
  9
$VIEWSIZE
 40
210.0
  9
$CLAYER
  8
0
  9
$LTSCALE
 40
16.335
  9
$CELTYPE
  6
BYLAYER
  9
$DIMSCALE
 40
1.0
  9
$DIMASZ
 40
3.0
  9
$DIMEXO
 40
0.5
  9
$DIMDLI
 40
11.286
  9
$DIMEXE
 40
1.5
  9
$DIMCEN
 40
2.673
  9
$DIMLFAC
 40
1.0
  9
$DIMBLK
  1
_FILLED
  9
$DIMALT
 70
0
  9
$DIMALTF
 40
0.0393700787
  9
$DIMTXT
 40
3.0
  9
$DIMTOL
 70
1
  9
$DIMLIM
 70
0
  9
$DIMTFAC
 40
1.0
  9
$DIMTP
 40
0.01
  9
$DIMTM
 40
0.01
  9
$DIMGAP
 40
0.625
  9
$DIMDSEP
 70
44
  9
$AUNITS
 70
0
  9
$PDMODE
 70
3
  9
$PDSIZE
 40
3.0
  9
$HANDSEED
  5
39B
  9
$TILEMODE
 70
1
  9
$MEASUREMENT
 70
1
  9
$INSUNITS
 70
4
  0
ENDSEC
  0
SECTION
  2
CLASSES
  0
CLASS
  1
ACDBDICTIONARYWDFLT
  2
AcDbDictionaryWithDefault
  3
AutoCAD 2000
 90
0
 91
1
280
0
281
0
  0
CLASS
  1
ACDBPLACEHOLDER
  2
AcDbPlaceHolder
  3
AutoCAD 2000
 90
0
 91
1
280
0
281
0
  0
CLASS
  1
LAYOUT
  2
AcDbLayout
  3
AutoCAD 2000
 90
0
 91
0
280
0
281
0
  0
ENDSEC
  0
SECTION
  2
TABLES
  0
TABLE
  2
VPORT
  5
8
100
AcDbSymbolTable
 70
2
  0
VPORT
  5
1F4
100
AcDbSymbolTableRecord
100
AcDbViewportTableRecord
  2
*ACTIVE
 70
0
 10
0.0
 20
0.0
 11
1.0
 21
1.0
 12
148.5
 22
105.0
 13
0.0
 23
0.0
 14
1.0
 24
1.0
 15
0.0
 25
0.0
 16
0.0
 26
0.0
 36
1.0
 17
0.0
 27
0.0
 37
0.0
 40
210.0
 41
1.4142857143
 42
50.0
 43
0.0
 44
0.0
 50
0.0
 51
0.0
 71
0
 72
100
 73
1
 74
1
 75
0
 76
0
 77
0
 78
0
  0
ENDTAB
  0
TABLE
  2
LTYPE
  5
5
100
AcDbSymbolTable
 70
6
  0
LTYPE
  5
14
100
AcDbSymbolTableRecord
100
AcDbLinetypeTableRecord
  2
BYBLOCK
 70
0
  3

 72
65
 73
0
 40
0.0
  0
LTYPE
  5
15
100
AcDbSymbolTableRecord
100
AcDbLinetypeTableRecord
  2
BYLAYER
 70
0
  3

 72
65
 73
0
 40
0.0
  0
LTYPE
  5
16
100
AcDbSymbolTableRecord
100
AcDbLinetypeTableRecord
  2
CONTINUOUS
 70
64
  3
Solid line
 72
65
 73
0
 40
0.0
  0
LTYPE
  5
1F5
100
AcDbSymbolTableRecord
100
AcDbLinetypeTableRecord
  2
CENTER
 70
64
  3
____ _ ____ _ ____ _ ____ _ ____ _ ____ _ ____
 72
65
 73
4
 40
0.6
 49
0.375
 74
0
 49
-0.075
 74
0
 49
0.075
 74
0
 49
-0.075
 74
0
  0
LTYPE
  5
1F6
100
AcDbSymbolTableRecord
100
AcDbLinetypeTableRecord
  2
HIDDEN
 70
64
  3
- - - - - - - - - - - - - - - - - - - -
 72
65
 73
2
 40
0.2
 49
0.1
 74
0
 49
-0.1
 74
0
  0
LTYPE
  5
1F7
100
AcDbSymbolTableRecord
100
AcDbLinetypeTableRecord
  2
PHANTOM
 70
64
  3
_____ _ _ _____ _ _ _____ _ _ _____
 72
65
 73
6
 40
0.8
 49
0.45
 74
0
 49
-0.05
 74
0
 49
0.1
 74
0
 49
-0.05
 74
0
 49
0.1
 74
0
 49
-0.05
 74
0
  0
LTYPE
  5
1F8
100
AcDbSymbolTableRecord
100
AcDbLinetypeTableRecord
  2
DOT
 70
64
  3
. . . . . . . . . . . . . . . . . . . .
 72
65
 73
2
 40
0.2
 49
0.1
 74
0
 49
-0.1
 74
0
  0
LTYPE
  5
1F9
100
AcDbSymbolTableRecord
100
AcDbLinetypeTableRecord
  2
DASHED
 70
64
  3
- - - - - - - - - - - - - - - - - - - -
 72
65
 73
2
 40
0.2
 49
0.1
 74
0
 49
-0.1
 74
0
  0
ENDTAB
  0
TABLE
  2
LAYER
  5
2
100
AcDbSymbolTable
 70
36
  0
LAYER
  5
10
100
AcDbSymbolTableRecord
100
AcDbLayerTableRecord
  2
0
 70
0
 62
7
  6
CONTINUOUS
370
-3
390
F
  0
LAYER
  5
1FA
100
AcDbSymbolTableRecord
100
AcDbLayerTableRecord
  2
DEFAULT_1
 70
0
 62
7
  6
CENTER
370
-3
390
F
  0
LAYER
  5
1FB
100
AcDbSymbolTableRecord
100
AcDbLayerTableRecord
  2
DEFAULT_2
 70
0
 62
7
  6
HIDDEN
370
-3
390
F
  0
LAYER
  5
1FC
100
AcDbSymbolTableRecord
100
AcDbLayerTableRecord
  2
DEFAULT_3
 70
0
 62
7
  6
PHANTOM
370
-3
390
F
  0
LAYER
  5
1FD
100
AcDbSymbolTableRecord
100
AcDbLayerTableRecord
  2
Livello_1
 70
0
 62
7
  6
CONTINUOUS
370
-3
390
F
  0
LAYER
  5
1FE
100
AcDbSymbolTableRecord
100
AcDbLayerTableRecord
  2
SNAPLINE
 70
0
 62
7
  6
CONTINUOUS
370
-3
390
F
  0
ENDTAB
  0
TABLE
  2
STYLE
  5
3
100
AcDbSymbolTable
 70
1
  0
STYLE
  5
11
100
AcDbSymbolTableRecord
100
AcDbTextStyleTableRecord
  2
STANDARD
 70
0
 40
0.0
 41
0.8
 50
0.0
 71
0
 42
0.2
  3
txt
  4

  0
STYLE
  5
1FF
100
AcDbSymbolTableRecord
100
AcDbTextStyleTableRecord
  2
TEXTSTYLE_1
 70
0
 40
0.0
 41
0.8
 50
0.0
 71
0
 42
0.2
  3
gdt
  4

  0
ENDTAB
  0
TABLE
  2
VIEW
  5
6
100
AcDbSymbolTable
 70
0
  0
ENDTAB
  0
TABLE
  2
UCS
  5
7
100
AcDbSymbolTable
 70
0
  0
ENDTAB
  0
TABLE
  2
APPID
  5
9
100
AcDbSymbolTable
 70
1
  0
APPID
  5
200
100
AcDbSymbolTableRecord
100
AcDbRegAppTableRecord
  2
ACAD
 70
0
  0
ENDTAB
  0
TABLE
  2
BLOCK_RECORD
  5
1
100
AcDbSymbolTable
 70
0
  0
BLOCK_RECORD
  5
201
100
AcDbSymbolTableRecord
100
AcDbBlockTableRecord
  2
*Model_Space
  0
BLOCK_RECORD
  5
202
100
AcDbSymbolTableRecord
100
AcDbBlockTableRecord
  2
*Paper_Space
  0
BLOCK_RECORD
  5
203
100
AcDbSymbolTableRecord
100
AcDbBlockTableRecord
  2
_FILLED
  0
ENDTAB
  0
TABLE
  2
DIMSTYLE
  5
A
100
AcDbSymbolTable
 70
1
100
AcDbDimStyleTable
 71
0
  0
DIMSTYLE
105
204
100
AcDbSymbolTableRecord
100
AcDbDimStyleTableRecord
  2
STANDARD
 70
0
  3

  4

 40
1.0
 41
3.0
 42
0.5
 43
0.38
 44
1.5
 45
0.0
 46
0.0
 47
0.01
 48
0.01
140
3.0
141
0.09
142
0.0
143
25.4
144
1.0
145
0.0
146
1.0
147
0.625
 71
1
 72
0
 73
0
 74
0
 75
0
 76
0
 77
1
 78
8
 79
2
170
0
171
1
172
0
173
0
174
0
175
0
176
0
177
0
178
0
270
2
179
2
271
2
272
2
273
2
274
2
275
0
280
0
281
0
282
0
283
1
284
8
285
0
286
0
287
3
288
0
340
11
278
44
341
203
342
203
343
203
344
203
  0
ENDTAB
  0
ENDSEC
  0
SECTION
  2
BLOCKS
  0
BLOCK
  5
20
100
AcDbEntity
  8
0
100
AcDbBlockBegin
  2
*Model_Space
 70
0
 10
0.0
 20
0.0
 30
0.0
  3
*Model_Space
  1

  0
ENDBLK
  5
21
100
AcDbEntity
  8
0
100
AcDbBlockEnd
  0
BLOCK
  5
1C
100
AcDbEntity
  8
0
100
AcDbBlockBegin
  2
*Paper_Space
 70
0
 10
0.0
 20
0.0
 30
0.0
  3
*Paper_Space
  1

  0
ENDBLK
  5
1D
100
AcDbEntity
  8
0
100
AcDbBlockEnd
  0
BLOCK
  5
205
100
AcDbEntity
  8
0
100
AcDbBlockBegin
  2
_FILLED
 70
64
 10
0.0
 20
0.0
  3
_FILLED
  1

  0
SOLID
  5
206
100
AcDbEntity
  8
0
  6
BYBLOCK
 62
0
100
AcDbTrace
 10
0.0
 20
0.0
 11
-1.0
 21
0.3166666667
 12
-1.0
 22
-0.3166666667
 13
-1.0
 23
-0.3166666667
  0
ENDBLK
  5
207
100
AcDbEntity
  8
0
  6
BYBLOCK
 62
0
100
AcDbBlockEnd
  0
ENDSEC
  0
SECTION
  2
ENTITIES
  0
LINE
  5
208
100
AcDbEntity
  8
Livello_1
100
AcDbLine
 62
7
  6
CONTINUOUS
 10
-47.3608259611
 20
9.4810475359
 11
-47.3825352922
 21
9.7092738422
  0
LINE
  5
209
100
AcDbEntity
  8
Livello_1
100
AcDbLine
 62
7
  6
CONTINUOUS
 10
-49.3287727725
 20
-73.8157424068
 11
-49.3600402205
 21
-73.4682447989
  0
LINE
  5
20A
100
AcDbEntity
  8
Livello_1
100
AcDbLine
 62
7
  6
CONTINUOUS
 10
-49.3600402205
 20
-73.4682447989
 11
-49.3614243118
 21
-73.3968306395
  0
LINE
  5
20B
100
AcDbEntity
  8
Livello_1
100
AcDbLine
 62
7
  6
CONTINUOUS
 10
-51.5248426452
 20
71.1363841573
 11
-51.5248426452
 21
-18.7973051018
  0
LINE
  5
20C
100
AcDbEntity
  8
Livello_1
100
AcDbLine
 62
7
  6
CONTINUOUS
 10
-38.7177289686
 20
3.6426289686
 11
-38.7177289686
 21
3.9254069286
  0
LINE
  5
20D
100
AcDbEntity
  8
Livello_1
100
AcDbLine
 62
7
  6
CONTINUOUS
 10
-34.9124728959
 20
63.0477098755
 11
-34.9325900123
 21
58.3166319937
  0
LINE
  5
20E
100
AcDbEntity
  8
Livello_1
100
AcDbLine
 62
7
  6
CONTINUOUS
 10
-43.8172727196
 20
60.4013327727
 11
-43.7512321924
 21
68.4074098496
  0
LINE
  5
20F
100
AcDbEntity
  8
Livello_1
100
AcDbLine
 62
7
  6
CONTINUOUS
 10
-34.9325900123
 20
58.3166319937
 11
-35.0384027409
 21
51.1788021443
  0
LINE
  5
210
100
AcDbEntity
  8
Livello_1
100
AcDbLine
 62
7
  6
CONTINUOUS
 10
-44.0131380203
 20
52.5630608029
 11
-43.8172727196
 21
60.4013327727
  0
LINE
  5
211
100
AcDbEntity
  8
Livello_1
100
AcDbLine
 62
7
  6
CONTINUOUS
 10
-35.0384027409
 20
51.1788021443
 11
-35.2319611306
 21
44.1782767841
  0
LINE
  5
212
100
AcDbEntity
  8
Livello_1
100
AcDbLine
 62
7
  6
CONTINUOUS
 10
-35.2319611306
 20
44.1782767841
 11
-35.5079886828
 21
37.4242031508
  0
LINE
  5
213
100
AcDbEntity
  8
Livello_1
100
AcDbLine
 62
7
  6
CONTINUOUS
 10
-51.5112715549
 20
71.4672545923
 11
-51.5248426452
 21
71.1363841573
  0
LINE
  5
214
100
AcDbEntity
  8
Livello_1
100
AcDbLine
 62
7
  6
CONTINUOUS
 10
-44.3363209653
 20
44.8517847792
 11
-44.0131380203
 21
52.5630608029
  0
LINE
  5
215
100
AcDbEntity
  8
Livello_1
100
AcDbLine
 62
7
  6
CONTINUOUS
 10
-35.5079886828
 20
37.4242031508
 11
-35.8602086571
 21
30.984522841
  0
LINE
  5
216
100
AcDbEntity
  8
Livello_1
100
AcDbLine
 62
7
  6
CONTINUOUS
 10
-44.7861231678
 20
37.2096226378
 11
-44.3363209653
 21
44.8517847792
  0
LINE
  5
217
100
AcDbEntity
  8
Livello_1
100
AcDbLine
 62
7
  6
CONTINUOUS
 10
-35.8602086571
 20
30.984522841
 11
-36.2819638406
 21
24.8995979642
  0
LINE
  5
218
100
AcDbEntity
  8
Livello_1
100
AcDbLine
 62
7
  6
CONTINUOUS
 10
-45.365221961
 20
29.546377463
 11
-44.7861231678
 21
37.2096226378
  0
LINE
  5
219
100
AcDbEntity
  8
Livello_1
100
AcDbLine
 62
7
  6
CONTINUOUS
 10
-36.2819638406
 20
24.8995979642
 11
-36.766546814
 21
19.1911065905
  0
LINE
  5
21A
100
AcDbEntity
  8
Livello_1
100
AcDbLine
 62
7
  6
CONTINUOUS
 10
-46.0836176054
 20
21.7013619163
 11
-45.365221961
 21
29.546377463
  0
LINE
  5
21B
100
AcDbEntity
  8
Livello_1
100
AcDbLine
 62
7
  6
CONTINUOUS
 10
-36.766546814
 20
19.1911065905
 11
-37.307378045
 21
13.8679041963
  0
LINE
  5
21C
100
AcDbEntity
  8
Livello_1
100
AcDbLine
 62
7
  6
CONTINUOUS
 10
-46.9714430503
 20
13.3195501648
 11
-46.0836176054
 21
21.7013619163
  0
LINE
  5
21D
100
AcDbEntity
  8
Livello_1
100
AcDbLine
 62
7
  6
CONTINUOUS
 10
-47.3825352922
 20
9.7092738422
 11
-46.9714430503
 21
13.3195501648
  0
LINE
  5
21E
100
AcDbEntity
  8
Livello_1
100
AcDbLine
 62
7
  6
CONTINUOUS
 10
-37.307378045
 20
13.8679041963
 11
-37.8981026373
 21
8.9299525456
  0
LINE
  5
21F
100
AcDbEntity
  8
Livello_1
100
AcDbLine
 62
7
  6
CONTINUOUS
 10
-47.6685875164
 20
7.8682027032
 11
-47.621894583
 21
8.2416673633
  0
LINE
  5
220
100
AcDbEntity
  8
Livello_1
100
AcDbLine
 62
7
  6
CONTINUOUS
 10
-51.471385472
 20
71.7814620649
 11
-51.5112715549
 21
71.4672545923
  0
LINE
  5
221
100
AcDbEntity
  8
Livello_1
100
AcDbLine
 62
7
  6
CONTINUOUS
 10
-43.7512321924
 20
68.4074098496
 11
-43.7103128522
 21
68.726288007
  0
LINE
  5
222
100
AcDbEntity
  8
Livello_1
100
AcDbLine
 62
7
  6
CONTINUOUS
 10
-34.8657744062
 20
63.3963141354
 11
-34.9124728959
 21
63.0477098755
  0
LINE
  5
223
100
AcDbEntity
  8
Livello_1
100
AcDbLine
 62
7
  6
CONTINUOUS
 10
-48.8211023346
 20
-0.5458624574
 11
-47.6685875164
 21
7.8682027032
  0
LINE
  5
224
100
AcDbEntity
  8
Livello_1
100
AcDbLine
 62
7
  6
CONTINUOUS
 10
-55.0142181799
 20
-45.1928371938
 11
-48.8211023346
 21
-0.5458624574
  0
LINE
  5
225
100
AcDbEntity
  8
Livello_1
100
AcDbLine
 62
7
  6
CONTINUOUS
 10
-38.9351006036
 20
1.7291462185
 11
-49.2743086631
 21
-72.7444373935
  0
LINE
  5
226
100
AcDbEntity
  8
Livello_1
100
AcDbLine
 62
7
  6
CONTINUOUS
 10
-58.0916369532
 20
-67.3193310999
 11
-55.0142181799
 21
-45.1928371938
  0
LINE
  5
227
100
AcDbEntity
  8
Livello_1
100
AcDbLine
 62
7
  6
CONTINUOUS
 10
-37.8981026373
 20
8.9299525456
 11
-38.5326430056
 21
4.371004875
  0
LINE
  5
228
100
AcDbEntity
  8
Livello_1
100
AcDbLine
 62
7
  6
CONTINUOUS
 10
-47.2848433026
 20
8.8612182873
 11
-47.2302916503
 21
9.252542905
  0
LINE
  5
229
100
AcDbEntity
  8
Livello_1
100
AcDbLine
 62
7
  6
CONTINUOUS
 10
-47.621894583
 20
8.2416673633
 11
-47.5809123309
 21
8.4516169032
  0
LINE
  5
22A
100
AcDbEntity
  8
Livello_1
100
AcDbLine
 62
7
  6
CONTINUOUS
 10
-51.3174397234
 20
72.3611898788
 11
-51.471385472
 21
71.7814620649
  0
LINE
  5
22B
100
AcDbEntity
  8
Livello_1
100
AcDbLine
 62
7
  6
CONTINUOUS
 10
-34.8523155274
 20
63.445710959
 11
-34.8657744062
 21
63.3963141354
  0
LINE
  5
22C
100
AcDbEntity
  8
Livello_1
100
AcDbLine
 62
7
  6
CONTINUOUS
 10
-51.0689312909
 20
72.8832646103
 11
-51.3174397234
 21
72.3611898788
  0
LINE
  5
22D
100
AcDbEntity
  8
Livello_1
100
AcDbLine
 62
7
  6
CONTINUOUS
 10
-43.7103128522
 20
68.726288007
 11
-43.567153291
 21
69.0071623406
  0
LINE
  5
22E
100
AcDbEntity
  8
Livello_1
100
AcDbLine
 62
7
  6
CONTINUOUS
 10
-11.6094645827
 20
-76.3298515895
 11
-14.3725685718
 21
-76.7218876423
  0
LINE
  5
22F
100
AcDbEntity
  8
Livello_1
100
AcDbLine
 62
7
  6
CONTINUOUS
 10
-14.3725685718
 20
-76.7218876423
 11
-17.1740207191
 21
-77.0230257017
  0
LINE
  5
230
100
AcDbEntity
  8
Livello_1
100
AcDbLine
 62
7
  6
CONTINUOUS
 10
-12.0511125909
 20
-66.7269138636
 11
-13.6262820399
 21
-66.8886168813
  0
LINE
  5
231
100
AcDbEntity
  8
Livello_1
100
AcDbLine
 62
7
  6
CONTINUOUS
 10
-13.6262820399
 20
-66.8886168813
 11
-15.2277001017
 21
-67.0227316615
  0
LINE
  5
232
100
AcDbEntity
  8
Livello_1
100
AcDbLine
 62
7
  6
CONTINUOUS
 10
-17.1740207191
 20
-77.0230257017
 11
-20.0081339595
 21
-77.2318226806
  0
LINE
  5
233
100
AcDbEntity
  8
Livello_1
100
AcDbLine
 62
7
  6
CONTINUOUS
 10
-15.2277001017
 20
-67.0227316615
 11
-16.8551199444
 21
-67.128527958
  0
LINE
  5
234
100
AcDbEntity
  8
Livello_1
100
AcDbLine
 62
7
  6
CONTINUOUS
 10
-16.8551199444
 20
-67.128527958
 11
-18.5082947364
 21
-67.2052755247
  0
LINE
  5
235
100
AcDbEntity
  8
Livello_1
100
AcDbLine
 62
7
  6
CONTINUOUS
 10
-20.0081339595
 20
-77.2318226806
 11
-22.8696981029
 21
-77.3471420047
  0
LINE
  5
236
100
AcDbEntity
  8
Livello_1
100
AcDbLine
 62
7
  6
CONTINUOUS
 10
-18.5082947364
 20
-67.2052755247
 11
-20.1869776454
 21
-67.2522441153
  0
LINE
  5
237
100
AcDbEntity
  8
Livello_1
100
AcDbLine
 62
7
  6
CONTINUOUS
 10
-20.1869776454
 20
-67.2522441153
 11
-21.8909218395
 21
-67.2687034833
  0
LINE
  5
238
100
AcDbEntity
  8
Livello_1
100
AcDbLine
 62
7
  6
CONTINUOUS
 10
-22.8696981029
 20
-77.3471420047
 11
-25.7539661916
 21
-77.368100332
  0
LINE
  5
239
100
AcDbEntity
  8
Livello_1
100
AcDbLine
 62
7
  6
CONTINUOUS
 10
-21.8909218395
 20
-67.2687034833
 11
-23.6198804872
 21
-67.2539233832
  0
LINE
  5
23A
100
AcDbEntity
  8
Livello_1
100
AcDbLine
 62
7
  6
CONTINUOUS
 10
-25.7539661916
 20
-77.368100332
 11
-28.6566338595
 21
-77.2940185133
  0
LINE
  5
23B
100
AcDbEntity
  8
Livello_1
100
AcDbLine
 62
7
  6
CONTINUOUS
 10
-23.6198804872
 20
-67.2539233832
 11
-25.3736067561
 21
-67.2071735678
  0
LINE
  5
23C
100
AcDbEntity
  8
Livello_1
100
AcDbLine
 62
7
  6
CONTINUOUS
 10
-25.3736067561
 20
-67.2071735678
 11
-27.1518538148
 21
-67.1277237918
  0
LINE
  5
23D
100
AcDbEntity
  8
Livello_1
100
AcDbLine
 62
7
  6
CONTINUOUS
 10
-28.6566338595
 20
-77.2940185133
 11
-31.5738139314
 21
-77.1243771984
  0
LINE
  5
23E
100
AcDbEntity
  8
Livello_1
100
AcDbLine
 62
7
  6
CONTINUOUS
 10
-27.1518538148
 20
-67.1277237918
 11
-28.9543748308
 21
-67.0148438086
  0
LINE
  5
23F
100
AcDbEntity
  8
Livello_1
100
AcDbLine
 62
7
  6
CONTINUOUS
 10
-31.5738139314
 20
-77.1243771984
 11
-34.5020080633
 21
-76.8587771892
  0
LINE
  5
240
100
AcDbEntity
  8
Livello_1
100
AcDbLine
 62
7
  6
CONTINUOUS
 10
-34.5020080633
 20
-76.8587771892
 11
-37.4380768218
 21
-76.4969044524
  0
LINE
  5
241
100
AcDbEntity
  8
Livello_1
100
AcDbLine
 62
7
  6
CONTINUOUS
 10
-37.4380768218
 20
-76.4969044524
 11
-40.3792092716
 21
-76.0384995626
  0
LINE
  5
242
100
AcDbEntity
  8
Livello_1
100
AcDbLine
 62
7
  6
CONTINUOUS
 10
-40.3792092716
 20
-76.0384995626
 11
-43.322892852
 21
-75.4833312718
  0
LINE
  5
243
100
AcDbEntity
  8
Livello_1
100
AcDbLine
 62
7
  6
CONTINUOUS
 10
-43.322892852
 20
-75.4833312718
 11
-46.2668841105
 21
-74.8311738559
  0
LINE
  5
244
100
AcDbEntity
  8
Livello_1
100
AcDbLine
 62
7
  6
CONTINUOUS
 10
-46.2668841105
 20
-74.8311738559
 11
-49.2091806699
 21
-74.0817878826
  0
LINE
  5
245
100
AcDbEntity
  8
Livello_1
100
AcDbLine
 62
7
  6
CONTINUOUS
 10
-35.8158082861
 20
1.5563197216
 11
-37.1300484533
 21
1.9949968894
  0
LINE
  5
246
100
AcDbEntity
  8
Livello_1
100
AcDbLine
 62
7
  6
CONTINUOUS
 10
-35.8074616982
 20
2.5433220077
 11
-37.3366664252
 21
3.0852650919
  0
LINE
  5
247
100
AcDbEntity
  8
Livello_1
100
AcDbLine
 62
7
  6
CONTINUOUS
 10
-37.1300484533
 20
1.9949968894
 11
-38.3915323539
 21
2.4575221249
  0
LINE
  5
248
100
AcDbEntity
  8
Livello_1
100
AcDbLine
 62
7
  6
CONTINUOUS
 10
-37.3366664252
 20
3.0852650919
 11
-38.7177289686
 21
3.6426289686
  0
LINE
  5
249
100
AcDbEntity
  8
Livello_1
100
AcDbLine
 62
7
  6
CONTINUOUS
 10
-47.2085823193
 20
8.1762610438
 11
-38.5763399925
 21
2.7511547506
  0
LINE
  5
24A
100
AcDbEntity
  8
Livello_1
100
AcDbLine
 62
7
  6
CONTINUOUS
 10
-46.9477920225
 20
9.2199789076
 11
-47.3608259611
 21
9.4810475359
  0
LINE
  5
24B
100
AcDbEntity
  8
Livello_1
100
AcDbLine
 62
7
  6
CONTINUOUS
 10
-38.7177289686
 20
3.9254069286
 11
-46.9477920225
 21
9.2199789076
  0
LINE
  5
24C
100
AcDbEntity
  8
Livello_1
100
AcDbLine
 62
7
  6
CONTINUOUS
 10
-49.3614243118
 20
-73.3968306395
 11
-58.0916369532
 21
-67.3193310999
  0
LINE
  5
24D
100
AcDbEntity
  8
Livello_1
100
AcDbLine
 62
7
  6
CONTINUOUS
 10
-49.2091806699
 20
-74.0817878826
 11
-49.272502803
 21
-74.0137433052
  0
LINE
  5
24E
100
AcDbEntity
  8
Livello_1
100
AcDbLine
 62
7
  6
CONTINUOUS
 10
-49.272502803
 20
-74.0137433052
 11
-49.3287727725
 21
-73.8157424068
  0
LINE
  5
24F
100
AcDbEntity
  8
Livello_1
100
AcDbLine
 62
7
  6
CONTINUOUS
 10
-20.1264059214
 20
-3.0218574973
 11
-29.1937341216
 21
-66.4061475503
  0
LINE
  5
250
100
AcDbEntity
  8
Livello_1
100
AcDbLine
 62
7
  6
CONTINUOUS
 10
-34.7049718732
 20
63.7974101959
 11
-34.8523155274
 21
63.445710959
  0
LINE
  5
251
100
AcDbEntity
  8
Livello_1
100
AcDbLine
 62
7
  6
CONTINUOUS
 10
-6.2234444036
 20
-75.2807328904
 11
-8.8908766203
 21
-75.8487238669
  0
LINE
  5
252
100
AcDbEntity
  8
Livello_1
100
AcDbLine
 62
7
  6
CONTINUOUS
 10
-8.8908766203
 20
-75.8487238669
 11
-11.6094645827
 21
-76.3298515895
  0
LINE
  5
253
100
AcDbEntity
  8
Livello_1
100
AcDbLine
 62
7
  6
CONTINUOUS
 10
-7.4855642403
 20
-66.0835778469
 11
-8.9805068593
 21
-66.3236641001
  0
LINE
  5
254
100
AcDbEntity
  8
Livello_1
100
AcDbLine
 62
7
  6
CONTINUOUS
 10
-8.9805068593
 20
-66.3236641001
 11
-10.5024385867
 21
-66.5383528545
  0
LINE
  5
255
100
AcDbEntity
  8
Livello_1
100
AcDbLine
 62
7
  6
CONTINUOUS
 10
-10.5024385867
 20
-66.5383528545
 11
-12.0511125909
 21
-66.7269138636
  0
LINE
  5
256
100
AcDbEntity
  8
Livello_1
100
AcDbLine
 62
7
  6
CONTINUOUS
 10
-31.5834572013
 20
0.3898947708
 11
-33.0398219589
 21
0.7531168481
  0
LINE
  5
257
100
AcDbEntity
  8
Livello_1
100
AcDbLine
 62
7
  6
CONTINUOUS
 10
-32.3070234428
 20
1.5301899342
 11
-34.1300131017
 21
2.0228284079
  0
LINE
  5
258
100
AcDbEntity
  8
Livello_1
100
AcDbLine
 62
7
  6
CONTINUOUS
 10
-33.0398219589
 20
0.7531168481
 11
-34.4515025543
 21
1.1421424367
  0
LINE
  5
259
100
AcDbEntity
  8
Livello_1
100
AcDbLine
 62
7
  6
CONTINUOUS
 10
-34.4515025543
 20
1.1421424367
 11
-35.8158082861
 21
1.5563197216
  0
LINE
  5
25A
100
AcDbEntity
  8
Livello_1
100
AcDbLine
 62
7
  6
CONTINUOUS
 10
-34.1300131017
 20
2.0228284079
 11
-35.8074616982
 21
2.5433220077
  0
LINE
  5
25B
100
AcDbEntity
  8
Livello_1
100
AcDbLine
 62
7
  6
CONTINUOUS
 10
-45.0559550028
 20
68.4293975057
 11
-50.0246722069
 21
72.1692473551
  0
LINE
  5
25C
100
AcDbEntity
  8
Livello_1
100
AcDbLine
 62
7
  6
CONTINUOUS
 10
-50.7270440868
 20
73.3529502471
 11
-51.0689312909
 21
72.8832646103
  0
LINE
  5
25D
100
AcDbEntity
  8
Livello_1
100
AcDbLine
 62
7
  6
CONTINUOUS
 10
-3.6142541145
 20
-74.6285881932
 11
-6.2234444036
 21
-75.2807328904
  0
LINE
  5
25E
100
AcDbEntity
  8
Livello_1
100
AcDbLine
 62
7
  6
CONTINUOUS
 10
-4.3402856058
 20
-65.4797428094
 11
-5.8967858094
 21
-65.7956709871
  0
LINE
  5
25F
100
AcDbEntity
  8
Livello_1
100
AcDbLine
 62
7
  6
CONTINUOUS
 10
-5.8967858094
 20
-65.7956709871
 11
-7.4855642403
 21
-66.0835778469
  0
LINE
  5
260
100
AcDbEntity
  8
Livello_1
100
AcDbLine
 62
7
  6
CONTINUOUS
 10
-26.9731649656
 20
-0.5384322509
 11
-28.5474380033
 21
-0.256531593
  0
LINE
  5
261
100
AcDbEntity
  8
Livello_1
100
AcDbLine
 62
7
  6
CONTINUOUS
 10
-28.2502996866
 20
0.6548363264
 11
-30.3442002065
 21
1.0720024522
  0
LINE
  5
262
100
AcDbEntity
  8
Livello_1
100
AcDbLine
 62
7
  6
CONTINUOUS
 10
-28.5474380033
 20
-0.256531593
 11
-30.0850989822
 21
0.0531280189
  0
LINE
  5
263
100
AcDbEntity
  8
Livello_1
100
AcDbLine
 62
7
  6
CONTINUOUS
 10
-30.0850989822
 20
0.0531280189
 11
-31.5834572013
 21
0.3898947708
  0
LINE
  5
264
100
AcDbEntity
  8
Livello_1
100
AcDbLine
 62
7
  6
CONTINUOUS
 10
-30.3442002065
 20
1.0720024522
 11
-32.3070234428
 21
1.5301899342
  0
LINE
  5
265
100
AcDbEntity
  8
Livello_1
100
AcDbLine
 62
7
  6
CONTINUOUS
 10
27.8628409884
 20
-36.8449960768
 11
27.9923816898
 21
-37.5889033806
  0
LINE
  5
266
100
AcDbEntity
  8
Livello_1
100
AcDbLine
 62
7
  6
CONTINUOUS
 10
27.9923816898
 20
-37.5889033806
 11
28.0465877354
 21
-38.4361110645
  0
LINE
  5
267
100
AcDbEntity
  8
Livello_1
100
AcDbLine
 62
7
  6
CONTINUOUS
 10
-47.5809123309
 20
8.4516169032
 11
-47.4581464705
 21
8.6712919759
  0
LINE
  5
268
100
AcDbEntity
  8
Livello_1
100
AcDbLine
 62
7
  6
CONTINUOUS
 10
0.1324073897
 20
-64.3731148061
 11
-1.3253751811
 21
-64.767536275
  0
LINE
  5
269
100
AcDbEntity
  8
Livello_1
100
AcDbLine
 62
7
  6
CONTINUOUS
 10
-1.3253751811
 20
-64.767536275
 11
-2.8163774547
 21
-65.1367217575
  0
LINE
  5
26A
100
AcDbEntity
  8
Livello_1
100
AcDbLine
 62
7
  6
CONTINUOUS
 10
-2.8163774547
 20
-65.1367217575
 11
-4.3402856058
 21
-65.4797428094
  0
LINE
  5
26B
100
AcDbEntity
  8
Livello_1
100
AcDbLine
 62
7
  6
CONTINUOUS
 10
-22.0575805134
 20
-1.2110623568
 11
-23.7255455196
 21
-1.0163494473
  0
LINE
  5
26C
100
AcDbEntity
  8
Livello_1
100
AcDbLine
 62
7
  6
CONTINUOUS
 10
-23.7185265935
 20
-0.0316649363
 11
-26.0369898122
 21
0.2850048675
  0
LINE
  5
26D
100
AcDbEntity
  8
Livello_1
100
AcDbLine
 62
7
  6
CONTINUOUS
 10
-23.7255455196
 20
-1.0163494473
 11
-25.3649705706
 21
-0.7919221404
  0
LINE
  5
26E
100
AcDbEntity
  8
Livello_1
100
AcDbLine
 62
7
  6
CONTINUOUS
 10
-25.3649705706
 20
-0.7919221404
 11
-26.9731649656
 21
-0.5384322509
  0
LINE
  5
26F
100
AcDbEntity
  8
Livello_1
100
AcDbLine
 62
7
  6
CONTINUOUS
 10
-26.0369898122
 20
0.2850048675
 11
-28.2502996866
 21
0.6548363264
  0
LINE
  5
270
100
AcDbEntity
  8
Livello_1
100
AcDbLine
 62
7
  6
CONTINUOUS
 10
-35.2275365205
 20
64.0043120882
 11
-43.0881989237
 21
68.6142051489
  0
LINE
  5
271
100
AcDbEntity
  8
Livello_1
100
AcDbLine
 62
7
  6
CONTINUOUS
 10
28.0465877354
 20
-38.4361110645
 11
28.0196126565
 21
-39.4289871115
  0
LINE
  5
272
100
AcDbEntity
  8
Livello_1
100
AcDbLine
 62
7
  6
CONTINUOUS
 10
-34.5126600201
 20
64.0556801979
 11
-34.7049718732
 21
63.7974101959
  0
LINE
  5
273
100
AcDbEntity
  8
Livello_1
100
AcDbLine
 62
7
  6
CONTINUOUS
 10
-50.2892424132
 20
73.7719922904
 11
-50.7270440868
 21
73.3529502471
  0
LINE
  5
274
100
AcDbEntity
  8
Livello_1
100
AcDbLine
 62
7
  6
CONTINUOUS
 10
-14.3112726329
 20
-3.2663915778
 11
-17.1961901008
 21
-3.1878753091
  0
LINE
  5
275
100
AcDbEntity
  8
Livello_1
100
AcDbLine
 62
7
  6
CONTINUOUS
 10
-15.1541349646
 20
-1.6797337383
 11
-16.909352778
 21
-1.61039656
  0
LINE
  5
276
100
AcDbEntity
  8
Livello_1
100
AcDbLine
 62
7
  6
CONTINUOUS
 10
-17.1961901008
 20
-3.1878753091
 11
-20.1264059214
 21
-3.0218574973
  0
LINE
  5
277
100
AcDbEntity
  8
Livello_1
100
AcDbLine
 62
7
  6
CONTINUOUS
 10
-16.909352778
 20
-1.61039656
 11
-18.6467934415
 21
-1.5087377277
  0
LINE
  5
278
100
AcDbEntity
  8
Livello_1
100
AcDbLine
 62
7
  6
CONTINUOUS
 10
-17.9332143952
 20
-0.5400068384
 11
-20.4270189409
 21
-0.3678720903
  0
LINE
  5
279
100
AcDbEntity
  8
Livello_1
100
AcDbLine
 62
7
  6
CONTINUOUS
 10
-18.6467934415
 20
-1.5087377277
 11
-20.3637662535
 21
-1.3754090552
  0
LINE
  5
27A
100
AcDbEntity
  8
Livello_1
100
AcDbLine
 62
7
  6
CONTINUOUS
 10
-20.4270189409
 20
-0.3678720903
 11
-21.3112636756
 21
-0.2900391055
  0
LINE
  5
27B
100
AcDbEntity
  8
Livello_1
100
AcDbLine
 62
7
  6
CONTINUOUS
 10
-20.3637662535
 20
-1.3754090552
 11
-22.0575805134
 21
-1.2110623568
  0
LINE
  5
27C
100
AcDbEntity
  8
Livello_1
100
AcDbLine
 62
7
  6
CONTINUOUS
 10
-21.3112636756
 20
-0.2900391055
 11
-23.7185265935
 21
-0.0316649363
  0
LINE
  5
27D
100
AcDbEntity
  8
Livello_1
100
AcDbLine
 62
7
  6
CONTINUOUS
 10
-41.5335405315
 20
78.6706355098
 11
-36.9019382565
 21
75.9962128556
  0
LINE
  5
27E
100
AcDbEntity
  8
Livello_1
100
AcDbLine
 62
7
  6
CONTINUOUS
 10
40.8757348372
 20
88.7087864173
 11
41.023626451
 21
86.7982232947
  0
LINE
  5
27F
100
AcDbEntity
  8
Livello_1
100
AcDbLine
 62
7
  6
CONTINUOUS
 10
41.023626451
 20
86.7982232947
 11
41.0615575973
 21
85.0634770061
  0
LINE
  5
280
100
AcDbEntity
  8
Livello_1
100
AcDbLine
 62
7
  6
CONTINUOUS
 10
41.0615575973
 20
85.0634770061
 11
41.0384897148
 21
81.9422636199
  0
LINE
  5
281
100
AcDbEntity
  8
Livello_1
100
AcDbLine
 62
7
  6
CONTINUOUS
 10
40.7027969862
 20
87.6293530025
 11
40.6850583557
 21
86.6735933358
  0
LINE
  5
282
100
AcDbEntity
  8
Livello_1
100
AcDbLine
 62
7
  6
CONTINUOUS
 10
41.0384897148
 20
81.9422636199
 11
40.8698309534
 21
73.9194930364
  0
LINE
  5
283
100
AcDbEntity
  8
Livello_1
100
AcDbLine
 62
7
  6
CONTINUOUS
 10
40.8698309534
 20
73.9194930364
 11
40.5672567793
 21
65.2090304692
  0
LINE
  5
284
100
AcDbEntity
  8
Livello_1
100
AcDbLine
 62
7
  6
CONTINUOUS
 10
40.5672567793
 20
65.2090304692
 11
40.1667438536
 21
56.9484271852
  0
LINE
  5
285
100
AcDbEntity
  8
Livello_1
100
AcDbLine
 62
7
  6
CONTINUOUS
 10
40.6850583557
 20
86.6735933358
 11
40.6086661663
 21
85.4615514951
  0
LINE
  5
286
100
AcDbEntity
  8
Livello_1
100
AcDbLine
 62
7
  6
CONTINUOUS
 10
40.1667438536
 20
56.9484271852
 11
39.6969976457
 21
49.5760529591
  0
LINE
  5
287
100
AcDbEntity
  8
Livello_1
100
AcDbLine
 62
7
  6
CONTINUOUS
 10
39.6969976457
 20
49.5760529591
 11
39.180638892
 21
43.2279251303
  0
LINE
  5
288
100
AcDbEntity
  8
Livello_1
100
AcDbLine
 62
7
  6
CONTINUOUS
 10
28.0196126565
 20
-39.4289871115
 11
27.8998020795
 21
-40.6574619915
  0
LINE
  5
289
100
AcDbEntity
  8
Livello_1
100
AcDbLine
 62
7
  6
CONTINUOUS
 10
39.180638892
 20
43.2279251303
 11
38.3382427172
 21
34.7443329917
  0
LINE
  5
28A
100
AcDbEntity
  8
Livello_1
100
AcDbLine
 62
7
  6
CONTINUOUS
 10
40.6086661663
 20
85.4615514951
 11
40.473337407
 21
84.294442657
  0
LINE
  5
28B
100
AcDbEntity
  8
Livello_1
100
AcDbLine
 62
7
  6
CONTINUOUS
 10
40.473337407
 20
84.294442657
 11
40.2798722304
 21
83.1655341368
  0
LINE
  5
28C
100
AcDbEntity
  8
Livello_1
100
AcDbLine
 62
7
  6
CONTINUOUS
 10
-8.6853120148
 20
-3.1665861317
 11
-11.473604797
 21
-3.2588069204
  0
LINE
  5
28D
100
AcDbEntity
  8
Livello_1
100
AcDbLine
 62
7
  6
CONTINUOUS
 10
-9.8087256372
 20
-1.6872972026
 11
-11.6011306929
 21
-1.7188358738
  0
LINE
  5
28E
100
AcDbEntity
  8
Livello_1
100
AcDbLine
 62
7
  6
CONTINUOUS
 10
-10.3023851579
 20
-0.6518366746
 11
-12.8535677498
 21
-0.682746033
  0
LINE
  5
28F
100
AcDbEntity
  8
Livello_1
100
AcDbLine
 62
7
  6
CONTINUOUS
 10
-11.473604797
 20
-3.2588069204
 11
-14.3112726329
 21
-3.2663915778
  0
LINE
  5
290
100
AcDbEntity
  8
Livello_1
100
AcDbLine
 62
7
  6
CONTINUOUS
 10
-11.6011306929
 20
-1.7188358738
 11
-13.3838307026
 21
-1.7160974476
  0
LINE
  5
291
100
AcDbEntity
  8
Livello_1
100
AcDbLine
 62
7
  6
CONTINUOUS
 10
-12.8535677498
 20
-0.682746033
 11
-15.4027743127
 21
-0.6453665966
  0
LINE
  5
292
100
AcDbEntity
  8
Livello_1
100
AcDbLine
 62
7
  6
CONTINUOUS
 10
-13.3838307026
 20
-1.7160974476
 11
-15.1541349646
 21
-1.6797337383
  0
LINE
  5
293
100
AcDbEntity
  8
Livello_1
100
AcDbLine
 62
7
  6
CONTINUOUS
 10
-15.4027743127
 20
-0.6453665966
 11
-17.9332143952
 21
-0.5400068384
  0
LINE
  5
294
100
AcDbEntity
  8
Livello_1
100
AcDbLine
 62
7
  6
CONTINUOUS
 10
-31.120825243
 20
62.3598639842
 11
-32.6699112975
 21
62.9453809297
  0
LINE
  5
295
100
AcDbEntity
  8
Livello_1
100
AcDbLine
 62
7
  6
CONTINUOUS
 10
-32.6699112975
 20
62.9453809297
 11
-34.0644173626
 21
63.5367264853
  0
LINE
  5
296
100
AcDbEntity
  8
Livello_1
100
AcDbLine
 62
7
  6
CONTINUOUS
 10
39.1341876035
 20
95.2122046615
 11
39.7551645836
 21
93.672992809
  0
LINE
  5
297
100
AcDbEntity
  8
Livello_1
100
AcDbLine
 62
7
  6
CONTINUOUS
 10
39.7551645836
 20
93.672992809
 11
40.2461867725
 21
92.0976419577
  0
LINE
  5
298
100
AcDbEntity
  8
Livello_1
100
AcDbLine
 62
7
  6
CONTINUOUS
 10
40.2461867725
 20
92.0976419577
 11
40.6175168641
 21
90.4561230806
  0
LINE
  5
299
100
AcDbEntity
  8
Livello_1
100
AcDbLine
 62
7
  6
CONTINUOUS
 10
40.6175168641
 20
90.4561230806
 11
40.8757348372
 21
88.7087864173
  0
LINE
  5
29A
100
AcDbEntity
  8
Livello_1
100
AcDbLine
 62
7
  6
CONTINUOUS
 10
38.3382427172
 20
34.7443329917
 11
37.6459802882
 21
28.9184749193
  0
LINE
  5
29B
100
AcDbEntity
  8
Livello_1
100
AcDbLine
 62
7
  6
CONTINUOUS
 10
27.5040803769
 20
-43.6617261885
 11
27.1987256975
 21
-46.1223011155
  0
LINE
  5
29C
100
AcDbEntity
  8
Livello_1
100
AcDbLine
 62
7
  6
CONTINUOUS
 10
27.6922632388
 20
-42.1765966237
 11
27.5040803769
 21
-43.6617261885
  0
LINE
  5
29D
100
AcDbEntity
  8
Livello_1
100
AcDbLine
 62
7
  6
CONTINUOUS
 10
26.6496746126
 20
-50.0962262479
 11
26.5366235229
 21
-50.9568965688
  0
LINE
  5
29E
100
AcDbEntity
  8
Livello_1
100
AcDbLine
 62
7
  6
CONTINUOUS
 10
27.8998020795
 20
-40.6574619915
 11
27.6922632388
 21
-42.1765966237
  0
LINE
  5
29F
100
AcDbEntity
  8
Livello_1
100
AcDbLine
 62
7
  6
CONTINUOUS
 10
27.1987256975
 20
-46.1223011155
 11
26.6496746126
 21
-50.0962262479
  0
LINE
  5
2A0
100
AcDbEntity
  8
Livello_1
100
AcDbLine
 62
7
  6
CONTINUOUS
 10
26.5366235229
 20
-50.9568965688
 11
26.3897524078
 21
-51.9940844713
  0
LINE
  5
2A1
100
AcDbEntity
  8
Livello_1
100
AcDbLine
 62
7
  6
CONTINUOUS
 10
33.5372305702
 20
2.4725968525
 11
27.5040803769
 21
-39.508564065
  0
LINE
  5
2A2
100
AcDbEntity
  8
Livello_1
100
AcDbLine
 62
7
  6
CONTINUOUS
 10
35.6442542208
 20
16.9779415868
 11
33.5372305702
 21
2.4725968525
  0
LINE
  5
2A3
100
AcDbEntity
  8
Livello_1
100
AcDbLine
 62
7
  6
CONTINUOUS
 10
37.6459802882
 20
28.9184749193
 11
37.0750361543
 21
25.0256524022
  0
LINE
  5
2A4
100
AcDbEntity
  8
Livello_1
100
AcDbLine
 62
7
  6
CONTINUOUS
 10
36.0530167103
 20
19.5259425418
 11
35.6442542208
 21
16.9779415868
  0
LINE
  5
2A5
100
AcDbEntity
  8
Livello_1
100
AcDbLine
 62
7
  6
CONTINUOUS
 10
37.0750361543
 20
25.0256524022
 11
36.5815808581
 21
22.3144286104
  0
LINE
  5
2A6
100
AcDbEntity
  8
Livello_1
100
AcDbLine
 62
7
  6
CONTINUOUS
 10
36.3865366602
 20
21.3207046575
 11
36.0530167103
 21
19.5259425418
  0
LINE
  5
2A7
100
AcDbEntity
  8
Livello_1
100
AcDbLine
 62
7
  6
CONTINUOUS
 10
36.5815808581
 20
22.3144286104
 11
36.3865366602
 21
21.3207046575
  0
LINE
  5
2A8
100
AcDbEntity
  8
Livello_1
100
AcDbLine
 62
7
  6
CONTINUOUS
 10
40.2798722304
 20
83.1655341368
 11
40.0284209231
 21
82.0690587678
  0
LINE
  5
2A9
100
AcDbEntity
  8
Livello_1
100
AcDbLine
 62
7
  6
CONTINUOUS
 10
40.0284209231
 20
82.0690587678
 11
39.7185229571
 21
81.0000004588
  0
LINE
  5
2AA
100
AcDbEntity
  8
Livello_1
100
AcDbLine
 62
7
  6
CONTINUOUS
 10
39.7185229571
 20
81.0000004588
 11
39.3491317053
 21
79.9539470358
  0
LINE
  5
2AB
100
AcDbEntity
  8
Livello_1
100
AcDbLine
 62
7
  6
CONTINUOUS
 10
-43.567153291
 20
69.0071623406
 11
-43.283924926
 21
69.2554654045
  0
LINE
  5
2AC
100
AcDbEntity
  8
Livello_1
100
AcDbLine
 62
7
  6
CONTINUOUS
 10
-3.2662947237
 20
-2.7345296639
 11
-5.9487057677
 21
-2.9912766916
  0
LINE
  5
2AD
100
AcDbEntity
  8
Livello_1
100
AcDbLine
 62
7
  6
CONTINUOUS
 10
-4.4001872052
 20
-1.3805004614
 11
-6.205563192
 21
-1.5187813105
  0
LINE
  5
2AE
100
AcDbEntity
  8
Livello_1
100
AcDbLine
 62
7
  6
CONTINUOUS
 10
-5.2540067221
 20
-0.3877507561
 11
-7.7646087532
 21
-0.5531210329
  0
LINE
  5
2AF
100
AcDbEntity
  8
Livello_1
100
AcDbLine
 62
7
  6
CONTINUOUS
 10
-5.9487057677
 20
-2.9912766916
 11
-8.6853120148
 21
-3.1665861317
  0
LINE
  5
2B0
100
AcDbEntity
  8
Livello_1
100
AcDbLine
 62
7
  6
CONTINUOUS
 10
-6.205563192
 20
-1.5187813105
 11
-8.0093062365
 21
-1.6208296196
  0
LINE
  5
2B1
100
AcDbEntity
  8
Livello_1
100
AcDbLine
 62
7
  6
CONTINUOUS
 10
-7.7646087532
 20
-0.5531210329
 11
-10.3023851579
 21
-0.6518366746
  0
LINE
  5
2B2
100
AcDbEntity
  8
Livello_1
100
AcDbLine
 62
7
  6
CONTINUOUS
 10
-8.0093062365
 20
-1.6208296196
 11
-9.8087256372
 21
-1.6872972026
  0
LINE
  5
2B3
100
AcDbEntity
  8
Livello_1
100
AcDbLine
 62
7
  6
CONTINUOUS
 10
-27.5856595428
 20
61.2392950216
 11
-29.4229274504
 21
61.7883586816
  0
LINE
  5
2B4
100
AcDbEntity
  8
Livello_1
100
AcDbLine
 62
7
  6
CONTINUOUS
 10
-29.4229274504
 20
61.7883586816
 11
-31.120825243
 21
62.3598639842
  0
LINE
  5
2B5
100
AcDbEntity
  8
Livello_1
100
AcDbLine
 62
7
  6
CONTINUOUS
 10
36.3384924876
 20
99.8320778734
 11
37.4421088882
 21
98.2767421602
  0
LINE
  5
2B6
100
AcDbEntity
  8
Livello_1
100
AcDbLine
 62
7
  6
CONTINUOUS
 10
37.4421088882
 20
98.2767421602
 11
37.9268752531
 21
97.5063719275
  0
LINE
  5
2B7
100
AcDbEntity
  8
Livello_1
100
AcDbLine
 62
7
  6
CONTINUOUS
 10
37.9268752531
 20
97.5063719275
 11
38.3691963749
 21
96.7397343452
  0
LINE
  5
2B8
100
AcDbEntity
  8
Livello_1
100
AcDbLine
 62
7
  6
CONTINUOUS
 10
38.3691963749
 20
96.7397343452
 11
39.1341876035
 21
95.2122046615
  0
LINE
  5
2B9
100
AcDbEntity
  8
Livello_1
100
AcDbLine
 62
7
  6
CONTINUOUS
 10
26.3897524078
 20
-51.9940844713
 11
26.1420418265
 21
-53.0581813518
  0
LINE
  5
2BA
100
AcDbEntity
  8
Livello_1
100
AcDbLine
 62
7
  6
CONTINUOUS
 10
39.3491317053
 20
79.9539470358
 11
38.9186312144
 21
78.9269872506
  0
LINE
  5
2BB
100
AcDbEntity
  8
Livello_1
100
AcDbLine
 62
7
  6
CONTINUOUS
 10
38.9186312144
 20
78.9269872506
 11
38.4248488375
 21
77.9156371634
  0
LINE
  5
2BC
100
AcDbEntity
  8
Livello_1
100
AcDbLine
 62
7
  6
CONTINUOUS
 10
38.4248488375
 20
77.9156371634
 11
37.8650658664
 21
76.9167861034
  0
LINE
  5
2BD
100
AcDbEntity
  8
Livello_1
100
AcDbLine
 62
7
  6
CONTINUOUS
 10
-49.7527489197
 20
74.1370034342
 11
-50.2892424132
 21
73.7719922904
  0
LINE
  5
2BE
100
AcDbEntity
  8
Livello_1
100
AcDbLine
 62
7
  6
CONTINUOUS
 10
1.9248644099
 20
-1.9839878866
 11
-0.6407945338
 21
-2.3981230893
  0
LINE
  5
2BF
100
AcDbEntity
  8
Livello_1
100
AcDbLine
 62
7
  6
CONTINUOUS
 10
2.0027261721
 20
0.4893565242
 11
-0.3608340123
 21
0.1357561941
  0
LINE
  5
2C0
100
AcDbEntity
  8
Livello_1
100
AcDbLine
 62
7
  6
CONTINUOUS
 10
0.998831398
 20
-0.7417445273
 11
-0.795299209
 21
-0.9926338841
  0
LINE
  5
2C1
100
AcDbEntity
  8
Livello_1
100
AcDbLine
 62
7
  6
CONTINUOUS
 10
-0.6407945338
 20
-2.3981230893
 11
-3.2662947237
 21
-2.7345296639
  0
LINE
  5
2C2
100
AcDbEntity
  8
Livello_1
100
AcDbLine
 62
7
  6
CONTINUOUS
 10
-0.3608340123
 20
0.1357561941
 11
-2.782636163
 21
-0.1574201741
  0
LINE
  5
2C3
100
AcDbEntity
  8
Livello_1
100
AcDbLine
 62
7
  6
CONTINUOUS
 10
-0.795299209
 20
-0.9926338841
 11
-2.595868977
 21
-1.2053352571
  0
LINE
  5
2C4
100
AcDbEntity
  8
Livello_1
100
AcDbLine
 62
7
  6
CONTINUOUS
 10
-2.595868977
 20
-1.2053352571
 11
-4.4001872052
 21
-1.3805004614
  0
LINE
  5
2C5
100
AcDbEntity
  8
Livello_1
100
AcDbLine
 62
7
  6
CONTINUOUS
 10
-2.782636163
 20
-0.1574201741
 11
-5.2540067221
 21
-0.3877507561
  0
LINE
  5
2C6
100
AcDbEntity
  8
Livello_1
100
AcDbLine
 62
7
  6
CONTINUOUS
 10
-23.5463213726
 20
60.2412564956
 11
-25.621705066
 21
60.720982033
  0
LINE
  5
2C7
100
AcDbEntity
  8
Livello_1
100
AcDbLine
 62
7
  6
CONTINUOUS
 10
-25.621705066
 20
60.720982033
 11
-27.5856595428
 21
61.2392950216
  0
LINE
  5
2C8
100
AcDbEntity
  8
Livello_1
100
AcDbLine
 62
7
  6
CONTINUOUS
 10
-40.8485833056
 20
73.7022601534
 11
-47.219436985
 21
75.5286272527
  0
LINE
  5
2C9
100
AcDbEntity
  8
Livello_1
100
AcDbLine
 62
7
  6
CONTINUOUS
 10
-35.6734127806
 20
76.8876870735
 11
-41.0225362785
 21
78.5837981834
  0
LINE
  5
2CA
100
AcDbEntity
  8
Livello_1
100
AcDbLine
 62
7
  6
CONTINUOUS
 10
33.5055971042
 20
103.067749318
 11
35.0357755876
 21
101.4229429592
  0
LINE
  5
2CB
100
AcDbEntity
  8
Livello_1
100
AcDbLine
 62
7
  6
CONTINUOUS
 10
35.0357755876
 20
101.4229429592
 11
36.3384924876
 21
99.8320778734
  0
LINE
  5
2CC
100
AcDbEntity
  8
Livello_1
100
AcDbLine
 62
7
  6
CONTINUOUS
 10
36.8432675857
 20
23.7234823421
 11
36.3715557449
 21
22.4472223151
  0
LINE
  5
2CD
100
AcDbEntity
  8
Livello_1
100
AcDbLine
 62
7
  6
CONTINUOUS
 10
35.9626480559
 20
19.3092515906
 11
35.5432223905
 21
18.2465313474
  0
LINE
  5
2CE
100
AcDbEntity
  8
Livello_1
100
AcDbLine
 62
7
  6
CONTINUOUS
 10
37.8650658664
 20
76.9167861034
 11
37.2360272108
 21
75.9276555897
  0
LINE
  5
2CF
100
AcDbEntity
  8
Livello_1
100
AcDbLine
 62
7
  6
CONTINUOUS
 10
37.2360272108
 20
75.9276555897
 11
36.5339504613
 21
74.9457667147
  0
LINE
  5
2D0
100
AcDbEntity
  8
Livello_1
100
AcDbLine
 62
7
  6
CONTINUOUS
 10
-47.4581464705
 20
8.6712919759
 11
-47.2975833834
 21
8.849991737
  0
LINE
  5
2D1
100
AcDbEntity
  8
Livello_1
100
AcDbLine
 62
7
  6
CONTINUOUS
 10
-34.3034983286
 20
64.2108290631
 11
-34.5126600201
 21
64.0556801979
  0
LINE
  5
2D2
100
AcDbEntity
  8
Livello_1
100
AcDbLine
 62
7
  6
CONTINUOUS
 10
-43.1779944638
 20
77.9466899903
 11
-49.7527489197
 21
74.1370034342
  0
LINE
  5
2D3
100
AcDbEntity
  8
Livello_1
100
AcDbLine
 62
7
  6
CONTINUOUS
 10
-9.797184095
 20
97.2635167509
 11
-43.1779944638
 21
77.9466899903
  0
LINE
  5
2D4
100
AcDbEntity
  8
Livello_1
100
AcDbLine
 62
7
  6
CONTINUOUS
 10
-1.9594099084
 20
101.7947698367
 11
-9.797184095
 21
97.2635167509
  0
LINE
  5
2D5
100
AcDbEntity
  8
Livello_1
100
AcDbLine
 62
7
  6
CONTINUOUS
 10
-0.5239928164
 20
102.6218730468
 11
-1.9594099084
 21
101.7947698367
  0
LINE
  5
2D6
100
AcDbEntity
  8
Livello_1
100
AcDbLine
 62
7
  6
CONTINUOUS
 10
6.8638380997
 20
-0.9311918082
 11
4.427532117
 21
-1.4942361797
  0
LINE
  5
2D7
100
AcDbEntity
  8
Livello_1
100
AcDbLine
 62
7
  6
CONTINUOUS
 10
6.9163867027
 20
0.3829275439
 11
5.5482215926
 21
0.0799914556
  0
LINE
  5
2D8
100
AcDbEntity
  8
Livello_1
100
AcDbLine
 62
7
  6
CONTINUOUS
 10
6.5281028385
 20
1.3671921201
 11
4.3009321174
 21
0.900751818
  0
LINE
  5
2D9
100
AcDbEntity
  8
Livello_1
100
AcDbLine
 62
7
  6
CONTINUOUS
 10
5.5482215926
 20
0.0799914556
 11
4.1702757304
 21
-0.1982192472
  0
LINE
  5
2DA
100
AcDbEntity
  8
Livello_1
100
AcDbLine
 62
7
  6
CONTINUOUS
 10
4.427532117
 20
-1.4942361797
 11
1.9248644099
 21
-1.9839878866
  0
LINE
  5
2DB
100
AcDbEntity
  8
Livello_1
100
AcDbLine
 62
7
  6
CONTINUOUS
 10
4.1702757304
 20
-0.1982192472
 11
2.7838321424
 21
-0.4520153731
  0
LINE
  5
2DC
100
AcDbEntity
  8
Livello_1
100
AcDbLine
 62
7
  6
CONTINUOUS
 10
4.3009321174
 20
0.900751818
 11
2.0027261721
 21
0.4893565242
  0
LINE
  5
2DD
100
AcDbEntity
  8
Livello_1
100
AcDbLine
 62
7
  6
CONTINUOUS
 10
2.7838321424
 20
-0.4520153731
 11
0.998831398
 21
-0.7417445273
  0
LINE
  5
2DE
100
AcDbEntity
  8
Livello_1
100
AcDbLine
 62
7
  6
CONTINUOUS
 10
-18.2113721612
 20
59.2871410143
 11
-20.4657793223
 21
59.6442132199
  0
LINE
  5
2DF
100
AcDbEntity
  8
Livello_1
100
AcDbLine
 62
7
  6
CONTINUOUS
 10
-20.4657793223
 20
59.6442132199
 11
-22.659994128
 21
60.0559515515
  0
LINE
  5
2E0
100
AcDbEntity
  8
Livello_1
100
AcDbLine
 62
7
  6
CONTINUOUS
 10
-22.659994128
 20
60.0559515515
 11
-23.5463213726
 21
60.2412564956
  0
LINE
  5
2E1
100
AcDbEntity
  8
Livello_1
100
AcDbLine
 62
7
  6
CONTINUOUS
 10
-2.8942712178
 20
100.9911682564
 11
1.7481857229
 21
98.3164672778
  0
LINE
  5
2E2
100
AcDbEntity
  8
Livello_1
100
AcDbLine
 62
7
  6
CONTINUOUS
 10
33.4032780043
 20
103.146222037
 11
33.5055971042
 21
103.067749318
  0
LINE
  5
2E3
100
AcDbEntity
  8
Livello_1
100
AcDbLine
 62
7
  6
CONTINUOUS
 10
26.1420418265
 20
-53.0581813518
 11
25.7891924904
 21
-54.1495327978
  0
LINE
  5
2E4
100
AcDbEntity
  8
Livello_1
100
AcDbLine
 62
7
  6
CONTINUOUS
 10
36.3715557449
 20
22.4472223151
 11
35.8386456333
 21
21.2028288515
  0
LINE
  5
2E5
100
AcDbEntity
  8
Livello_1
100
AcDbLine
 62
7
  6
CONTINUOUS
 10
36.5713442985
 20
21.3207046575
 11
36.0449374588
 21
20.1655303413
  0
LINE
  5
2E6
100
AcDbEntity
  8
Livello_1
100
AcDbLine
 62
7
  6
CONTINUOUS
 10
35.5432223905
 20
18.2465313474
 11
35.0202075181
 21
17.1582222023
  0
LINE
  5
2E7
100
AcDbEntity
  8
Livello_1
100
AcDbLine
 62
7
  6
CONTINUOUS
 10
35.8386456333
 20
21.2028288515
 11
35.2443580917
 21
19.9890708834
  0
LINE
  5
2E8
100
AcDbEntity
  8
Livello_1
100
AcDbLine
 62
7
  6
CONTINUOUS
 10
36.0449374588
 20
20.1655303413
 11
35.4715421031
 21
19.0440948804
  0
LINE
  5
2E9
100
AcDbEntity
  8
Livello_1
100
AcDbLine
 62
7
  6
CONTINUOUS
 10
36.5339504613
 20
74.9457667147
 11
35.7557779711
 21
73.9703925533
  0
LINE
  5
2EA
100
AcDbEntity
  8
Livello_1
100
AcDbLine
 62
7
  6
CONTINUOUS
 10
35.7557779711
 20
73.9703925533
 11
34.8974893427
 21
73.0000039598
  0
LINE
  5
2EB
100
AcDbEntity
  8
Livello_1
100
AcDbLine
 62
7
  6
CONTINUOUS
 10
-43.283924926
 20
69.2554654045
 11
-40.4826948338
 21
70.8773434637
  0
LINE
  5
2EC
100
AcDbEntity
  8
Livello_1
100
AcDbLine
 62
7
  6
CONTINUOUS
 10
-40.4826948338
 20
70.8773434637
 11
-6.719824344
 21
90.3842124377
  0
LINE
  5
2ED
100
AcDbEntity
  8
Livello_1
100
AcDbLine
 62
7
  6
CONTINUOUS
 10
-6.719824344
 20
90.3842124377
 11
21.7516880531
 21
106.8154650684
  0
LINE
  5
2EE
100
AcDbEntity
  8
Livello_1
100
AcDbLine
 62
7
  6
CONTINUOUS
 10
21.7516880531
 20
106.8154650684
 11
22.7639314467
 21
107.3948644187
  0
LINE
  5
2EF
100
AcDbEntity
  8
Livello_1
100
AcDbLine
 62
7
  6
CONTINUOUS
 10
3.3029726841
 20
99.1211041694
 11
-2.2093139916
 21
96.0225145757
  0
LINE
  5
2F0
100
AcDbEntity
  8
Livello_1
100
AcDbLine
 62
7
  6
CONTINUOUS
 10
-35.3255068349
 20
76.8008497475
 11
-40.8485833056
 21
73.7022601534
  0
LINE
  5
2F1
100
AcDbEntity
  8
Livello_1
100
AcDbLine
 62
7
  6
CONTINUOUS
 10
10.7529017843
 20
2.4540253444
 11
8.6798444364
 21
1.8858790017
  0
LINE
  5
2F2
100
AcDbEntity
  8
Livello_1
100
AcDbLine
 62
7
  6
CONTINUOUS
 10
9.2301956859
 20
-0.297422583
 11
6.8638380997
 21
-0.9311918082
  0
LINE
  5
2F3
100
AcDbEntity
  8
Livello_1
100
AcDbLine
 62
7
  6
CONTINUOUS
 10
9.6182425603
 20
1.0642191147
 11
8.2734880338
 21
0.7108998272
  0
LINE
  5
2F4
100
AcDbEntity
  8
Livello_1
100
AcDbLine
 62
7
  6
CONTINUOUS
 10
8.2734880338
 20
0.7108998272
 11
6.9163867027
 21
0.3829275439
  0
LINE
  5
2F5
100
AcDbEntity
  8
Livello_1
100
AcDbLine
 62
7
  6
CONTINUOUS
 10
8.6798444364
 20
1.8858790017
 11
6.5281028385
 21
1.3671921201
  0
LINE
  5
2F6
100
AcDbEntity
  8
Livello_1
100
AcDbLine
 62
7
  6
CONTINUOUS
 10
-13.5882898433
 20
58.7506465857
 11
-15.9136330499
 21
58.9884053466
  0
LINE
  5
2F7
100
AcDbEntity
  8
Livello_1
100
AcDbLine
 62
7
  6
CONTINUOUS
 10
-15.9136330499
 20
58.9884053466
 11
-18.2113721612
 21
59.2871410143
  0
LINE
  5
2F8
100
AcDbEntity
  8
Livello_1
100
AcDbLine
 62
7
  6
CONTINUOUS
 10
27.1344651001
 20
-44.6945893863
 11
26.862150537
 21
-45.4108183066
  0
LINE
  5
2F9
100
AcDbEntity
  8
Livello_1
100
AcDbLine
 62
7
  6
CONTINUOUS
 10
25.7891924904
 20
-54.1495327978
 11
25.3263873356
 21
-55.2677650797
  0
LINE
  5
2FA
100
AcDbEntity
  8
Livello_1
100
AcDbLine
 62
7
  6
CONTINUOUS
 10
26.862150537
 20
-45.4108183066
 11
26.5468876946
 21
-46.1305929983
  0
LINE
  5
2FB
100
AcDbEntity
  8
Livello_1
100
AcDbLine
 62
7
  6
CONTINUOUS
 10
35.2443580917
 20
19.9890708834
 11
34.5882576288
 21
18.8048665057
  0
LINE
  5
2FC
100
AcDbEntity
  8
Livello_1
100
AcDbLine
 62
7
  6
CONTINUOUS
 10
35.0202075181
 20
17.1582222023
 11
34.3898754736
 21
16.0475830618
  0
LINE
  5
2FD
100
AcDbEntity
  8
Livello_1
100
AcDbLine
 62
7
  6
CONTINUOUS
 10
35.4715421031
 20
19.0440948804
 11
34.8524412578
 21
17.9560874654
  0
LINE
  5
2FE
100
AcDbEntity
  8
Livello_1
100
AcDbLine
 62
7
  6
CONTINUOUS
 10
34.5882576288
 20
18.8048665057
 11
33.8696647781
 21
17.6492961119
  0
LINE
  5
2FF
100
AcDbEntity
  8
Livello_1
100
AcDbLine
 62
7
  6
CONTINUOUS
 10
34.8974893427
 20
73.0000039598
 11
33.9541182876
 21
72.0326748726
  0
LINE
  5
300
100
AcDbEntity
  8
Livello_1
100
AcDbLine
 62
7
  6
CONTINUOUS
 10
33.9541182876
 20
72.0326748726
 11
32.920200733
 21
71.0667097667
  0
LINE
  5
301
100
AcDbEntity
  8
Livello_1
100
AcDbLine
 62
7
  6
CONTINUOUS
 10
-47.2975833834
 20
8.849991737
 11
-47.2848433026
 21
8.8612182873
  0
LINE
  5
302
100
AcDbEntity
  8
Livello_1
100
AcDbLine
 62
7
  6
CONTINUOUS
 10
32.7335242294
 20
102.8392446871
 11
31.3729939196
 21
102.054624395
  0
LINE
  5
303
100
AcDbEntity
  8
Livello_1
100
AcDbLine
 62
7
  6
CONTINUOUS
 10
31.3729939196
 20
102.054624395
 11
10.6823855899
 21
90.1238652081
  0
LINE
  5
304
100
AcDbEntity
  8
Livello_1
100
AcDbLine
 62
7
  6
CONTINUOUS
 10
10.6823855899
 20
90.1238652081
 11
-18.371276566
 21
73.3768423993
  0
LINE
  5
305
100
AcDbEntity
  8
Livello_1
100
AcDbLine
 62
7
  6
CONTINUOUS
 10
-18.371276566
 20
73.3768423993
 11
-33.6811808446
 21
64.5646544969
  0
LINE
  5
306
100
AcDbEntity
  8
Livello_1
100
AcDbLine
 62
7
  6
CONTINUOUS
 10
-33.6811808446
 20
64.5646544969
 11
-34.3034983286
 21
64.2108290631
  0
LINE
  5
307
100
AcDbEntity
  8
Livello_1
100
AcDbLine
 62
7
  6
CONTINUOUS
 10
22.7639314467
 20
107.3948644187
 11
22.9385572669
 21
107.4748641735
  0
LINE
  5
308
100
AcDbEntity
  8
Livello_1
100
AcDbLine
 62
7
  6
CONTINUOUS
 10
-0.3185124645
 20
102.7083131297
 11
-0.5239928164
 21
102.6218730468
  0
LINE
  5
309
100
AcDbEntity
  8
Livello_1
100
AcDbLine
 62
7
  6
CONTINUOUS
 10
-8.9105581691
 20
58.4640991948
 11
-11.24966877
 21
58.5755763161
  0
LINE
  5
30A
100
AcDbEntity
  8
Livello_1
100
AcDbLine
 62
7
  6
CONTINUOUS
 10
-11.24966877
 20
58.5755763161
 11
-13.5882898433
 21
58.7506465857
  0
LINE
  5
30B
100
AcDbEntity
  8
Livello_1
100
AcDbLine
 62
7
  6
CONTINUOUS
 10
26.5468876946
 20
-46.1305929983
 11
26.188990398
 21
-46.8529850181
  0
LINE
  5
30C
100
AcDbEntity
  8
Livello_1
100
AcDbLine
 62
7
  6
CONTINUOUS
 10
34.8524412578
 20
17.9560874654
 11
34.1889179494
 21
16.9011972869
  0
LINE
  5
30D
100
AcDbEntity
  8
Livello_1
100
AcDbLine
 62
7
  6
CONTINUOUS
 10
34.3898754736
 20
16.0475830618
 11
33.6489606209
 21
14.9186378119
  0
LINE
  5
30E
100
AcDbEntity
  8
Livello_1
100
AcDbLine
 62
7
  6
CONTINUOUS
 10
34.1889179494
 20
16.9011972869
 11
33.4822552038
 21
15.8791135359
  0
LINE
  5
30F
100
AcDbEntity
  8
Livello_1
100
AcDbLine
 62
7
  6
CONTINUOUS
 10
33.8696647781
 20
17.6492961119
 11
33.0876716657
 21
16.5216145866
  0
LINE
  5
310
100
AcDbEntity
  8
Livello_1
100
AcDbLine
 62
7
  6
CONTINUOUS
 10
32.920200733
 20
71.0667097667
 11
31.7897799553
 21
70.1006210169
  0
LINE
  5
311
100
AcDbEntity
  8
Livello_1
100
AcDbLine
 62
7
  6
CONTINUOUS
 10
31.7897799553
 20
70.1006210169
 11
30.5564088341
 21
69.1331080385
  0
LINE
  5
312
100
AcDbEntity
  8
Livello_1
100
AcDbLine
 62
7
  6
CONTINUOUS
 10
33.016302182
 20
103.0894586497
 11
33.2620710413
 21
103.1902665757
  0
LINE
  5
313
100
AcDbEntity
  8
Livello_1
100
AcDbLine
 62
7
  6
CONTINUOUS
 10
0.2383985201
 20
102.8782347753
 11
-0.3185124645
 21
102.7083131297
  0
LINE
  5
314
100
AcDbEntity
  8
Livello_1
100
AcDbLine
 62
7
  6
CONTINUOUS
 10
-1.9948954514
 20
58.5108281618
 11
-4.2742062741
 21
58.4322734251
  0
LINE
  5
315
100
AcDbEntity
  8
Livello_1
100
AcDbLine
 62
7
  6
CONTINUOUS
 10
-4.2742062741
 20
58.4322734251
 11
-6.5821752161
 21
58.4164410678
  0
LINE
  5
316
100
AcDbEntity
  8
Livello_1
100
AcDbLine
 62
7
  6
CONTINUOUS
 10
-6.5821752161
 20
58.4164410678
 11
-8.9105581691
 21
58.4640991948
  0
LINE
  5
317
100
AcDbEntity
  8
Livello_1
100
AcDbLine
 62
7
  6
CONTINUOUS
 10
-2.2093139916
 20
96.0225145757
 11
-8.580167671
 21
97.8600146653
  0
LINE
  5
318
100
AcDbEntity
  8
Livello_1
100
AcDbLine
 62
7
  6
CONTINUOUS
 10
2.9658565333
 20
99.2190744862
 11
-2.3724122991
 21
100.9149072713
  0
LINE
  5
319
100
AcDbEntity
  8
Livello_1
100
AcDbLine
 62
7
  6
CONTINUOUS
 10
23.309922106
 20
107.4783888133
 11
23.4271793418
 21
107.4274284161
  0
LINE
  5
31A
100
AcDbEntity
  8
Livello_1
100
AcDbLine
 62
7
  6
CONTINUOUS
 10
32.4680662082
 20
103.3365222968
 11
33.016302182
 21
103.0894586497
  0
LINE
  5
31B
100
AcDbEntity
  8
Livello_1
100
AcDbLine
 62
7
  6
CONTINUOUS
 10
24.0097896421
 20
107.1583699091
 11
32.4680662082
 21
103.3365222968
  0
LINE
  5
31C
100
AcDbEntity
  8
Livello_1
100
AcDbLine
 62
7
  6
CONTINUOUS
 10
23.4271793418
 20
107.4274284161
 11
24.0097896421
 21
107.1583699091
  0
LINE
  5
31D
100
AcDbEntity
  8
Livello_1
100
AcDbLine
 62
7
  6
CONTINUOUS
 10
25.3263873356
 20
-55.2677650797
 11
24.7485499615
 21
-56.4116738069
  0
LINE
  5
31E
100
AcDbEntity
  8
Livello_1
100
AcDbLine
 62
7
  6
CONTINUOUS
 10
26.188990398
 20
-46.8529850181
 11
25.788772472
 21
-47.5770659218
  0
LINE
  5
31F
100
AcDbEntity
  8
Livello_1
100
AcDbLine
 62
7
  6
CONTINUOUS
 10
33.6489606209
 20
14.9186378119
 11
32.7948217382
 21
13.7761199714
  0
LINE
  5
320
100
AcDbEntity
  8
Livello_1
100
AcDbLine
 62
7
  6
CONTINUOUS
 10
33.4822552038
 20
15.8791135359
 11
32.7337360476
 21
14.8895254026
  0
LINE
  5
321
100
AcDbEntity
  8
Livello_1
100
AcDbLine
 62
7
  6
CONTINUOUS
 10
33.0876716657
 20
16.5216145866
 11
32.241160809
 21
15.4212623329
  0
LINE
  5
322
100
AcDbEntity
  8
Livello_1
100
AcDbLine
 62
7
  6
CONTINUOUS
 10
32.7337360476
 20
14.8895254026
 11
31.9446435073
 21
13.9321220784
  0
LINE
  5
323
100
AcDbEntity
  8
Livello_1
100
AcDbLine
 62
7
  6
CONTINUOUS
 10
32.7948217382
 20
13.7761199714
 11
31.8255681006
 21
12.6253855362
  0
LINE
  5
324
100
AcDbEntity
  8
Livello_1
100
AcDbLine
 62
7
  6
CONTINUOUS
 10
32.241160809
 20
15.4212623329
 11
31.3288271395
 21
14.3478749613
  0
LINE
  5
325
100
AcDbEntity
  8
Livello_1
100
AcDbLine
 62
7
  6
CONTINUOUS
 10
30.5564088341
 20
69.1331080385
 11
29.2131491231
 21
68.1630379616
  0
LINE
  5
326
100
AcDbEntity
  8
Livello_1
100
AcDbLine
 62
7
  6
CONTINUOUS
 10
29.2131491231
 20
68.1630379616
 11
27.752567713
 21
67.1894277162
  0
LINE
  5
327
100
AcDbEntity
  8
Livello_1
100
AcDbLine
 62
7
  6
CONTINUOUS
 10
27.752567713
 20
67.1894277162
 11
26.1667299214
 21
66.2114274643
  0
LINE
  5
328
100
AcDbEntity
  8
Livello_1
100
AcDbLine
 62
7
  6
CONTINUOUS
 10
2.4512737789
 20
58.8514328358
 11
0.2488387785
 21
58.6509996021
  0
LINE
  5
329
100
AcDbEntity
  8
Livello_1
100
AcDbLine
 62
7
  6
CONTINUOUS
 10
0.2488387785
 20
58.6509996021
 11
-1.9948954514
 21
58.5108281618
  0
LINE
  5
32A
100
AcDbEntity
  8
Livello_1
100
AcDbLine
 62
7
  6
CONTINUOUS
 10
33.2620710413
 20
103.1902665757
 11
33.4032780043
 21
103.146222037
  0
LINE
  5
32B
100
AcDbEntity
  8
Livello_1
100
AcDbLine
 62
7
  6
CONTINUOUS
 10
24.7485499615
 20
-56.4116738069
 11
24.0506188436
 21
-57.5791431212
  0
LINE
  5
32C
100
AcDbEntity
  8
Livello_1
100
AcDbLine
 62
7
  6
CONTINUOUS
 10
25.788772472
 20
-47.5770659218
 11
25.3465477419
 21
-48.3019072659
  0
LINE
  5
32D
100
AcDbEntity
  8
Livello_1
100
AcDbLine
 62
7
  6
CONTINUOUS
 10
31.9446435073
 20
13.9321220784
 11
31.1162606092
 21
13.0065927535
  0
LINE
  5
32E
100
AcDbEntity
  8
Livello_1
100
AcDbLine
 62
7
  6
CONTINUOUS
 10
31.3288271395
 20
14.3478749613
 11
30.3492032689
 21
13.3012915123
  0
LINE
  5
32F
100
AcDbEntity
  8
Livello_1
100
AcDbLine
 62
7
  6
CONTINUOUS
 10
31.8255681006
 20
12.6253855362
 11
30.7401436319
 21
11.4722999525
  0
LINE
  5
330
100
AcDbEntity
  8
Livello_1
100
AcDbLine
 62
7
  6
CONTINUOUS
 10
31.1162606092
 20
13.0065927535
 11
30.2498703792
 21
12.1126266186
  0
LINE
  5
331
100
AcDbEntity
  8
Livello_1
100
AcDbLine
 62
7
  6
CONTINUOUS
 10
26.1667299214
 20
66.2114274643
 11
24.6862791238
 21
65.3698818304
  0
LINE
  5
332
100
AcDbEntity
  8
Livello_1
100
AcDbLine
 62
7
  6
CONTINUOUS
 10
24.6862791238
 20
65.3698818304
 11
23.1492816644
 21
64.569902923
  0
LINE
  5
333
100
AcDbEntity
  8
Livello_1
100
AcDbLine
 62
7
  6
CONTINUOUS
 10
8.7687390839
 20
59.7985070942
 11
6.7145424907
 21
59.4268567894
  0
LINE
  5
334
100
AcDbEntity
  8
Livello_1
100
AcDbLine
 62
7
  6
CONTINUOUS
 10
6.7145424907
 20
59.4268567894
 11
4.607750074
 21
59.1105987404
  0
LINE
  5
335
100
AcDbEntity
  8
Livello_1
100
AcDbLine
 62
7
  6
CONTINUOUS
 10
4.607750074
 20
59.1105987404
 11
2.4512737789
 21
58.8514328358
  0
LINE
  5
336
100
AcDbEntity
  8
Livello_1
100
AcDbLine
 62
7
  6
CONTINUOUS
 10
25.3465477419
 20
-48.3019072659
 11
24.862630033
 21
-49.0265806066
  0
LINE
  5
337
100
AcDbEntity
  8
Livello_1
100
AcDbLine
 62
7
  6
CONTINUOUS
 10
24.0506188436
 20
-57.5791431212
 11
23.2278264282
 21
-58.7670985291
  0
LINE
  5
338
100
AcDbEntity
  8
Livello_1
100
AcDbLine
 62
7
  6
CONTINUOUS
 10
24.862630033
 20
-49.0265806066
 11
24.3373331697
 21
-49.7501574997
  0
LINE
  5
339
100
AcDbEntity
  8
Livello_1
100
AcDbLine
 62
7
  6
CONTINUOUS
 10
30.3492032689
 20
13.3012915123
 11
29.3006880433
 21
12.2815611554
  0
LINE
  5
33A
100
AcDbEntity
  8
Livello_1
100
AcDbLine
 62
7
  6
CONTINUOUS
 10
30.7401436319
 20
11.4722999525
 11
29.5383664122
 21
10.3231069607
  0
LINE
  5
33B
100
AcDbEntity
  8
Livello_1
100
AcDbLine
 62
7
  6
CONTINUOUS
 10
30.2498703792
 20
12.1126266186
 11
29.3467558441
 21
11.2499128646
  0
LINE
  5
33C
100
AcDbEntity
  8
Livello_1
100
AcDbLine
 62
7
  6
CONTINUOUS
 10
29.3006880433
 20
12.2815611554
 11
28.181578496
 21
11.2889483269
  0
LINE
  5
33D
100
AcDbEntity
  8
Livello_1
100
AcDbLine
 62
7
  6
CONTINUOUS
 10
23.1492816644
 20
64.569902923
 11
21.5550426462
 21
63.812362206
  0
LINE
  5
33E
100
AcDbEntity
  8
Livello_1
100
AcDbLine
 62
7
  6
CONTINUOUS
 10
21.5550426462
 20
63.812362206
 11
19.9029803949
 21
63.0982710013
  0
LINE
  5
33F
100
AcDbEntity
  8
Livello_1
100
AcDbLine
 62
7
  6
CONTINUOUS
 10
12.7111064311
 20
60.7011370854
 11
10.7681299107
 21
60.2238331985
  0
LINE
  5
340
100
AcDbEntity
  8
Livello_1
100
AcDbLine
 62
7
  6
CONTINUOUS
 10
10.7681299107
 20
60.2238331985
 11
8.7687390839
 21
59.7985070942
  0
LINE
  5
341
100
AcDbEntity
  8
Livello_1
100
AcDbLine
 62
7
  6
CONTINUOUS
 10
1.2799935348
 20
102.8760732642
 11
0.606775896
 21
102.9263603382
  0
LINE
  5
342
100
AcDbEntity
  8
Livello_1
100
AcDbLine
 62
7
  6
CONTINUOUS
 10
8.9892011668
 20
102.2139432535
 11
1.2799935348
 21
102.8760732642
  0
LINE
  5
343
100
AcDbEntity
  8
Livello_1
100
AcDbLine
 62
7
  6
CONTINUOUS
 10
13.0225649647
 20
101.860933143
 11
8.9892011668
 21
102.2139432535
  0
LINE
  5
344
100
AcDbEntity
  8
Livello_1
100
AcDbLine
 62
7
  6
CONTINUOUS
 10
23.0833483554
 20
107.5077461691
 11
23.309922106
 21
107.4783888133
  0
LINE
  5
345
100
AcDbEntity
  8
Livello_1
100
AcDbLine
 62
7
  6
CONTINUOUS
 10
24.3373331697
 20
-49.7501574997
 11
23.7709709776
 21
-50.4717095016
  0
LINE
  5
346
100
AcDbEntity
  8
Livello_1
100
AcDbLine
 62
7
  6
CONTINUOUS
 10
29.3467558441
 20
11.2499128646
 11
28.4082000299
 21
10.4181406823
  0
LINE
  5
347
100
AcDbEntity
  8
Livello_1
100
AcDbLine
 62
7
  6
CONTINUOUS
 10
29.5383664122
 20
10.3231069607
 11
28.2209243366
 21
9.1842881831
  0
LINE
  5
348
100
AcDbEntity
  8
Livello_1
100
AcDbLine
 62
7
  6
CONTINUOUS
 10
28.4082000299
 20
10.4181406823
 11
27.4354859631
 21
9.6169992623
  0
LINE
  5
349
100
AcDbEntity
  8
Livello_1
100
AcDbLine
 62
7
  6
CONTINUOUS
 10
28.181578496
 20
11.2889483269
 11
26.9901053995
 21
10.3239363219
  0
LINE
  5
34A
100
AcDbEntity
  8
Livello_1
100
AcDbLine
 62
7
  6
CONTINUOUS
 10
28.2209243366
 20
9.1842881831
 11
26.7893311045
 21
8.0624225544
  0
LINE
  5
34B
100
AcDbEntity
  8
Livello_1
100
AcDbLine
 62
7
  6
CONTINUOUS
 10
19.9029803949
 20
63.0982710013
 11
18.1926645849
 21
62.4287745243
  0
LINE
  5
34C
100
AcDbEntity
  8
Livello_1
100
AcDbLine
 62
7
  6
CONTINUOUS
 10
18.1926645849
 20
62.4287745243
 11
16.4238592588
 21
61.8051441649
  0
LINE
  5
34D
100
AcDbEntity
  8
Livello_1
100
AcDbLine
 62
7
  6
CONTINUOUS
 10
14.5965714777
 20
61.2287677054
 11
12.7111064311
 21
60.7011370854
  0
LINE
  5
34E
100
AcDbEntity
  8
Livello_1
100
AcDbLine
 62
7
  6
CONTINUOUS
 10
23.2278264282
 20
-58.7670985291
 11
22.2759713898
 21
-59.9714961779
  0
LINE
  5
34F
100
AcDbEntity
  8
Livello_1
100
AcDbLine
 62
7
  6
CONTINUOUS
 10
23.7709709776
 20
-50.4717095016
 11
23.1638572817
 21
-51.1903081686
  0
LINE
  5
350
100
AcDbEntity
  8
Livello_1
100
AcDbLine
 62
7
  6
CONTINUOUS
 10
27.4354859631
 20
9.6169992623
 11
26.4298966704
 21
8.8461777953
  0
LINE
  5
351
100
AcDbEntity
  8
Livello_1
100
AcDbLine
 62
7
  6
CONTINUOUS
 10
26.9901053995
 20
10.3239363219
 11
25.724472709
 21
9.3872293566
  0
LINE
  5
352
100
AcDbEntity
  8
Livello_1
100
AcDbLine
 62
7
  6
CONTINUOUS
 10
26.4298966704
 20
8.8461777953
 11
25.3927151775
 21
8.1053654719
  0
LINE
  5
353
100
AcDbEntity
  8
Livello_1
100
AcDbLine
 62
7
  6
CONTINUOUS
 10
26.7893311045
 20
8.0624225544
 11
25.2458494452
 21
6.9640539685
  0
LINE
  5
354
100
AcDbEntity
  8
Livello_1
100
AcDbLine
 62
7
  6
CONTINUOUS
 10
25.724472709
 20
9.3872293566
 11
24.382901316
 21
8.4797531174
  0
LINE
  5
355
100
AcDbEntity
  8
Livello_1
100
AcDbLine
 62
7
  6
CONTINUOUS
 10
16.4238592588
 20
61.8051441649
 11
14.5965714777
 21
61.2287677054
  0
LINE
  5
356
100
AcDbEntity
  8
Livello_1
100
AcDbLine
 62
7
  6
CONTINUOUS
 10
22.2759713898
 20
-59.9714961779
 11
21.191671428
 21
-61.18735076
  0
LINE
  5
357
100
AcDbEntity
  8
Livello_1
100
AcDbLine
 62
7
  6
CONTINUOUS
 10
23.1638572817
 20
-51.1903081686
 11
22.5163059067
 21
-51.905025057
  0
LINE
  5
358
100
AcDbEntity
  8
Livello_1
100
AcDbLine
 62
7
  6
CONTINUOUS
 10
22.5163059067
 20
-51.905025057
 11
21.8286306781
 21
-52.6149317224
  0
LINE
  5
359
100
AcDbEntity
  8
Livello_1
100
AcDbLine
 62
7
  6
CONTINUOUS
 10
25.3927151775
 20
8.1053654719
 11
24.3252245112
 21
7.3942514827
  0
LINE
  5
35A
100
AcDbEntity
  8
Livello_1
100
AcDbLine
 62
7
  6
CONTINUOUS
 10
25.2458494452
 20
6.9640539685
 11
23.5933902641
 21
5.8955739562
  0
LINE
  5
35B
100
AcDbEntity
  8
Livello_1
100
AcDbLine
 62
7
  6
CONTINUOUS
 10
24.3252245112
 20
7.3942514827
 11
23.2287076975
 21
6.712525019
  0
LINE
  5
35C
100
AcDbEntity
  8
Livello_1
100
AcDbLine
 62
7
  6
CONTINUOUS
 10
24.382901316
 20
8.4797531174
 11
22.9636776545
 21
7.6026537862
  0
LINE
  5
35D
100
AcDbEntity
  8
Livello_1
100
AcDbLine
 62
7
  6
CONTINUOUS
 10
23.5933902641
 20
5.8955739562
 11
23.4989155277
 21
5.8374952465
  0
LINE
  5
35E
100
AcDbEntity
  8
Livello_1
100
AcDbLine
 62
7
  6
CONTINUOUS
 10
23.2287076975
 20
6.712525019
 11
22.1044477628
 21
6.0598752708
  0
LINE
  5
35F
100
AcDbEntity
  8
Livello_1
100
AcDbLine
 62
7
  6
CONTINUOUS
 10
0.606775896
 20
102.9263603382
 11
0.2383985201
 21
102.8782347753
  0
LINE
  5
360
100
AcDbEntity
  8
Livello_1
100
AcDbLine
 62
7
  6
CONTINUOUS
 10
21.191671428
 20
-61.18735076
 11
19.9725834537
 21
-62.4088029467
  0
LINE
  5
361
100
AcDbEntity
  8
Livello_1
100
AcDbLine
 62
7
  6
CONTINUOUS
 10
21.8286306781
 20
-52.6149317224
 11
21.1011454206
 21
-53.3190997217
  0
LINE
  5
362
100
AcDbEntity
  8
Livello_1
100
AcDbLine
 62
7
  6
CONTINUOUS
 10
21.1011454206
 20
-53.3190997217
 11
20.2624907287
 21
-54.0796470944
  0
LINE
  5
363
100
AcDbEntity
  8
Livello_1
100
AcDbLine
 62
7
  6
CONTINUOUS
 10
23.4989155277
 20
5.8374952465
 11
21.7360400286
 21
4.8076797833
  0
LINE
  5
364
100
AcDbEntity
  8
Livello_1
100
AcDbLine
 62
7
  6
CONTINUOUS
 10
22.9636776545
 20
7.6026537862
 11
21.4652078261
 21
6.7572954806
  0
LINE
  5
365
100
AcDbEntity
  8
Livello_1
100
AcDbLine
 62
7
  6
CONTINUOUS
 10
22.1044477628
 20
6.0598752708
 11
20.9537277336
 21
5.4359914294
  0
LINE
  5
366
100
AcDbEntity
  8
Livello_1
100
AcDbLine
 62
7
  6
CONTINUOUS
 10
21.7360400286
 20
4.8076797833
 11
19.8742308881
 21
3.8212058318
  0
LINE
  5
367
100
AcDbEntity
  8
Livello_1
100
AcDbLine
 62
7
  6
CONTINUOUS
 10
21.4652078261
 20
6.7572954806
 11
19.8860780438
 21
5.9452559829
  0
LINE
  5
368
100
AcDbEntity
  8
Livello_1
100
AcDbLine
 62
7
  6
CONTINUOUS
 10
20.9537277336
 20
5.4359914294
 11
19.7778306362
 21
4.8405626849
  0
LINE
  5
369
100
AcDbEntity
  8
Livello_1
100
AcDbLine
 62
7
  6
CONTINUOUS
 10
22.9385572669
 20
107.4748641735
 11
23.0833483554
 21
107.5077461691
  0
LINE
  5
36A
100
AcDbEntity
  8
Livello_1
100
AcDbLine
 62
7
  6
CONTINUOUS
 10
19.9725834537
 20
-62.4088029467
 11
18.6175784392
 21
-63.629225181
  0
LINE
  5
36B
100
AcDbEntity
  8
Livello_1
100
AcDbLine
 62
7
  6
CONTINUOUS
 10
20.2624907287
 20
-54.0796470944
 11
19.3772397204
 21
-54.8310546822
  0
LINE
  5
36C
100
AcDbEntity
  8
Livello_1
100
AcDbLine
 62
7
  6
CONTINUOUS
 10
19.8742308881
 20
3.8212058318
 11
17.9177022015
 21
2.883155188
  0
LINE
  5
36D
100
AcDbEntity
  8
Livello_1
100
AcDbLine
 62
7
  6
CONTINUOUS
 10
19.7778306362
 20
4.8405626849
 11
18.578039497
 21
4.2732782285
  0
LINE
  5
36E
100
AcDbEntity
  8
Livello_1
100
AcDbLine
 62
7
  6
CONTINUOUS
 10
19.8860780438
 20
5.9452559829
 11
18.2251222833
 21
5.1683205258
  0
LINE
  5
36F
100
AcDbEntity
  8
Livello_1
100
AcDbLine
 62
7
  6
CONTINUOUS
 10
18.578039497
 20
4.2732782285
 11
17.3556373421
 21
3.7338272507
  0
LINE
  5
370
100
AcDbEntity
  8
Livello_1
100
AcDbLine
 62
7
  6
CONTINUOUS
 10
17.9177022015
 20
2.883155188
 11
15.8707586868
 21
1.9981988308
  0
LINE
  5
371
100
AcDbEntity
  8
Livello_1
100
AcDbLine
 62
7
  6
CONTINUOUS
 10
18.2251222833
 20
5.1683205258
 11
16.4814981205
 21
4.4284732908
  0
LINE
  5
372
100
AcDbEntity
  8
Livello_1
100
AcDbLine
 62
7
  6
CONTINUOUS
 10
18.6175784392
 20
-63.629225181
 11
17.1268600077
 21
-64.8413619241
  0
LINE
  5
373
100
AcDbEntity
  8
Livello_1
100
AcDbLine
 62
7
  6
CONTINUOUS
 10
19.3772397204
 20
-54.8310546822
 11
18.445799826
 21
-55.5721171126
  0
LINE
  5
374
100
AcDbEntity
  8
Livello_1
100
AcDbLine
 62
7
  6
CONTINUOUS
 10
18.445799826
 20
-55.5721171126
 11
17.4685784759
 21
-56.301629013
  0
LINE
  5
375
100
AcDbEntity
  8
Livello_1
100
AcDbLine
 62
7
  6
CONTINUOUS
 10
17.3556373421
 20
3.7338272507
 11
16.111907198
 21
3.2218989423
  0
LINE
  5
376
100
AcDbEntity
  8
Livello_1
100
AcDbLine
 62
7
  6
CONTINUOUS
 10
15.8707586868
 20
1.9981988308
 11
13.7377121805
 21
1.1705995751
  0
LINE
  5
377
100
AcDbEntity
  8
Livello_1
100
AcDbLine
 62
7
  6
CONTINUOUS
 10
16.4814981205
 20
4.4284732908
 11
14.6547717454
 21
3.7278861352
  0
LINE
  5
378
100
AcDbEntity
  8
Livello_1
100
AcDbLine
 62
7
  6
CONTINUOUS
 10
16.111907198
 20
3.2218989423
 11
14.8481320909
 21
2.7371824936
  0
LINE
  5
379
100
AcDbEntity
  8
Livello_1
100
AcDbLine
 62
7
  6
CONTINUOUS
 10
14.8481320909
 20
2.7371824936
 11
13.5655950474
 21
2.2793670962
  0
LINE
  5
37A
100
AcDbEntity
  8
Livello_1
100
AcDbLine
 62
7
  6
CONTINUOUS
 10
14.6547717454
 20
3.7278861352
 11
12.745013085
 21
3.0689038834
  0
LINE
  5
37B
100
AcDbEntity
  8
Livello_1
100
AcDbLine
 62
7
  6
CONTINUOUS
 10
17.1268600077
 20
-64.8413619241
 11
15.5020192085
 21
-66.0374974546
  0
LINE
  5
37C
100
AcDbEntity
  8
Livello_1
100
AcDbLine
 62
7
  6
CONTINUOUS
 10
17.4685784759
 20
-56.301629013
 11
16.4459831006
 21
-57.0183850109
  0
LINE
  5
37D
100
AcDbEntity
  8
Livello_1
100
AcDbLine
 62
7
  6
CONTINUOUS
 10
16.4459831006
 20
-57.0183850109
 11
15.3784211299
 21
-57.7211797337
  0
LINE
  5
37E
100
AcDbEntity
  8
Livello_1
100
AcDbLine
 62
7
  6
CONTINUOUS
 10
13.7377121805
 20
1.1705995751
 11
11.5228129942
 21
0.4042264217
  0
LINE
  5
37F
100
AcDbEntity
  8
Livello_1
100
AcDbLine
 62
7
  6
CONTINUOUS
 10
13.5655950474
 20
2.2793670962
 11
12.2655790933
 21
1.8481419398
  0
LINE
  5
380
100
AcDbEntity
  8
Livello_1
100
AcDbLine
 62
7
  6
CONTINUOUS
 10
12.745013085
 20
3.0689038834
 11
10.7529017843
 21
2.4540253444
  0
LINE
  5
381
100
AcDbEntity
  8
Livello_1
100
AcDbLine
 62
7
  6
CONTINUOUS
 10
12.2655790933
 20
1.8481419398
 11
10.9493672557
 21
1.4431962159
  0
LINE
  5
382
100
AcDbEntity
  8
Livello_1
100
AcDbLine
 62
7
  6
CONTINUOUS
 10
11.5228129942
 20
0.4042264217
 11
9.2301956859
 21
-0.297422583
  0
LINE
  5
383
100
AcDbEntity
  8
Livello_1
100
AcDbLine
 62
7
  6
CONTINUOUS
 10
10.9493672557
 20
1.4431962159
 11
9.6182425603
 21
1.0642191147
  0
LINE
  5
384
100
AcDbEntity
  8
Livello_1
100
AcDbLine
 62
7
  6
CONTINUOUS
 10
15.5020192085
 20
-66.0374974546
 11
13.7460226409
 21
-67.2096416167
  0
LINE
  5
385
100
AcDbEntity
  8
Livello_1
100
AcDbLine
 62
7
  6
CONTINUOUS
 10
15.3784211299
 20
-57.7211797337
 11
14.2662999945
 21
-58.4088078089
  0
LINE
  5
386
100
AcDbEntity
  8
Livello_1
100
AcDbLine
 62
7
  6
CONTINUOUS
 10
14.2662999945
 20
-58.4088078089
 11
13.1100271242
 21
-59.0800638635
  0
LINE
  5
387
100
AcDbEntity
  8
Livello_1
100
AcDbLine
 62
7
  6
CONTINUOUS
 10
13.7460226409
 20
-67.2096416167
 11
11.8631365588
 21
-68.3497220803
  0
LINE
  5
388
100
AcDbEntity
  8
Livello_1
100
AcDbLine
 62
7
  6
CONTINUOUS
 10
13.1100271242
 20
-59.0800638635
 11
11.9100099496
 21
-59.7337425255
  0
LINE
  5
389
100
AcDbEntity
  8
Livello_1
100
AcDbLine
 62
7
  6
CONTINUOUS
 10
11.8631365588
 20
-68.3497220803
 11
9.8587949568
 21
-69.4497711163
  0
LINE
  5
38A
100
AcDbEntity
  8
Livello_1
100
AcDbLine
 62
7
  6
CONTINUOUS
 10
11.9100099496
 20
-59.7337425255
 11
10.6666559011
 21
-60.3686384217
  0
LINE
  5
38B
100
AcDbEntity
  8
Livello_1
100
AcDbLine
 62
7
  6
CONTINUOUS
 10
9.8587949568
 20
-69.4497711163
 11
7.7394240144
 21
-70.5020957881
  0
LINE
  5
38C
100
AcDbEntity
  8
Livello_1
100
AcDbLine
 62
7
  6
CONTINUOUS
 10
10.6666559011
 20
-60.3686384217
 11
9.3803724086
 21
-60.9835461799
  0
LINE
  5
38D
100
AcDbEntity
  8
Livello_1
100
AcDbLine
 62
7
  6
CONTINUOUS
 10
9.3803724086
 20
-60.9835461799
 11
8.1639148576
 21
-61.5286231282
  0
LINE
  5
38E
100
AcDbEntity
  8
Livello_1
100
AcDbLine
 62
7
  6
CONTINUOUS
 10
7.7394240144
 20
-70.5020957881
 11
6.0859833932
 21
-71.2524588406
  0
LINE
  5
38F
100
AcDbEntity
  8
Livello_1
100
AcDbLine
 62
7
  6
CONTINUOUS
 10
8.1639148576
 20
-61.5286231282
 11
6.9120408283
 21
-62.0549631964
  0
LINE
  5
390
100
AcDbEntity
  8
Livello_1
100
AcDbLine
 62
7
  6
CONTINUOUS
 10
6.9120408283
 20
-62.0549631964
 11
5.6250641461
 21
-62.561637941
  0
LINE
  5
391
100
AcDbEntity
  8
Livello_1
100
AcDbLine
 62
7
  6
CONTINUOUS
 10
6.0859833932
 20
-71.2524588406
 11
3.7874339844
 21
-72.2026829788
  0
LINE
  5
392
100
AcDbEntity
  8
Livello_1
100
AcDbLine
 62
7
  6
CONTINUOUS
 10
5.6250641461
 20
-62.561637941
 11
4.3032986362
 21
-63.0477189181
  0
LINE
  5
393
100
AcDbEntity
  8
Livello_1
100
AcDbLine
 62
7
  6
CONTINUOUS
 10
4.3032986362
 20
-63.0477189181
 11
2.9470581236
 21
-63.5122776838
  0
LINE
  5
394
100
AcDbEntity
  8
Livello_1
100
AcDbLine
 62
7
  6
CONTINUOUS
 10
3.7874339844
 20
-72.2026829788
 11
1.3991210176
 21
-73.0854141478
  0
LINE
  5
395
100
AcDbEntity
  8
Livello_1
100
AcDbLine
 62
7
  6
CONTINUOUS
 10
1.3991210176
 20
-73.0854141478
 11
-1.0707928139
 21
-73.8955369052
  0
LINE
  5
396
100
AcDbEntity
  8
Livello_1
100
AcDbLine
 62
7
  6
CONTINUOUS
 10
2.9470581236
 20
-63.5122776838
 11
1.5566564329
 21
-63.9543857944
  0
LINE
  5
397
100
AcDbEntity
  8
Livello_1
100
AcDbLine
 62
7
  6
CONTINUOUS
 10
1.5566564329
 20
-63.9543857944
 11
0.1324073897
 21
-64.3731148061
  0
LINE
  5
398
100
AcDbEntity
  8
Livello_1
100
AcDbLine
 62
7
  6
CONTINUOUS
 10
-1.0707928139
 20
-73.8955369052
 11
-3.6142541145
 21
-74.6285881932
  0
ENDSEC
  0
SECTION
  2
OBJECTS
  0
DICTIONARY
  5
C
100
AcDbDictionary
280
0
281
1
  3
ACAD_GROUP
350
D
  3
ACAD_MLINESTYLE
350
17
  3
ACAD_LAYOUT
350
1A
  3
ACAD_PLOTSETTINGS
350
19
  3
ACAD_PLOTSTYLENAME
350
E
  0
DICTIONARY
  5
D
102
{ACAD_REACTORS
330
C
102
}
100
AcDbDictionary
280
0
281
1
  0
ACDBDICTIONARYWDFLT
  5
E
102
{ACAD_REACTORS
330
C
102
}
100
AcDbDictionary
281
1
  3
Normal
350
F
100
AcDbDictionaryWithDefault
340
F
  0
DICTIONARY
  5
17
102
{ACAD_REACTORS
330
C
102
}
100
AcDbDictionary
280
0
281
1
  3
Standard
350
18
  0
DICTIONARY
  5
19
102
{ACAD_REACTORS
330
C
102
}
100
AcDbDictionary
281
1
  0
DICTIONARY
  5
1A
102
{ACAD_REACTORS
330
C
102
}
100
AcDbDictionary
281
1
  3
Model
350
399
  3
Layout1
350
39A
  0
ACDBPLACEHOLDER
  5
F
102
{ACAD_REACTORS
330
E
102
}
  0
MLINESTYLE
  5
18
102
{ACAD_REACTORS
330
17
102
}
100
AcDbMlineStyle
  2
STANDARD
 70
0
  3

 62
256
 51
90.0
 52
90.0
 71
2
 49
0.5
 62
256
  6
BYLAYER
 49
-0.5
 62
256
  6
BYLAYER
  0
LAYOUT
  5
399
102
{ACAD_REACTORS
330
1A
102
}
100
AcDbPlotSettings
  1

  2
none_device
  4
ISO_A4_(297.00_x_210.00_MM)
  6

 40
0.0
 41
0.0
 42
0.0
 43
0.0
 44
297.0
 45
210.0
 46
0.0
 47
0.0
 48
0.0
 49
0.0
140
0.0
141
0.0
142
1.0
143
1.0
 70
1024
 72
1
 73
0
 74
0
  7

 75
0
147
1.0
148
0.0
149
0.0
100
AcDbLayout
  1
Model
 70
0
 71
0
 10
0.0
 20
0.0
 11
297.0
 21
210.0
 12
0.0
 22
0.0
 32
0.0
 14
0.0
 24
0.0
 34
0.0
 15
0.0
 25
0.0
 35
0.0
146
0.0
 13
0.0
 23
0.0
 33
0.0
 16
1.0
 26
0.0
 36
0.0
 17
0.0
 27
1.0
 37
0.0
 76
0
330
201
345
0
346
0
  0
LAYOUT
  5
39A
102
{ACAD_REACTORS
330
1A
102
}
100
AcDbPlotSettings
  1

  2
none_device
  4
ISO_A4_(297.00_x_210.00_MM)
  6

 40
0.0
 41
0.0
 42
0.0
 43
0.0
 44
297.0
 45
210.0
 46
0.0
 47
0.0
 48
0.0
 49
0.0
140
0.0
141
0.0
142
1.0
143
1.0
 70
0
 72
1
 73
0
 74
0
  7

 75
0
147
1.0
148
0.0
149
0.0
100
AcDbLayout
  1
Layout1
 70
0
 71
1
 10
0.0
 20
0.0
 11
297.0
 21
210.0
 12
0.0
 22
0.0
 32
0.0
 14
0.0
 24
0.0
 34
0.0
 15
0.0
 25
0.0
 35
0.0
146
0.0
 13
0.0
 23
0.0
 33
0.0
 16
1.0
 26
0.0
 36
0.0
 17
0.0
 27
1.0
 37
0.0
 76
0
330
202
345
0
346
0
  0
ENDSEC
  0
EOF
