  0
SECTION
  2
HEADER
  9
$ACADVER
  1
AC1024
  9
$DWGCODEPAGE
  3
ANSI_1252
  9
$EXTMAX
 10
297.0
 20
210.0
 30
0.0
  9
$EXTMIN
 10
0.0
 20
0.0
 30
0.0
  9
$LIMMIN
 10
0.0
 20
0.0
  9
$LIMMAX
 10
297.0
 20
210.0
  9
$VIEWCTR
 10
148.5
 20
105.0
  9
$VIEWSIZE
 40
210.0
  9
$CLAYER
  8
0
  9
$LTSCALE
 40
16.335
  9
$CELTYPE
  6
BYLAYER
  9
$DIMSCALE
 40
1.0
  9
$DIMASZ
 40
3.0
  9
$DIMEXO
 40
0.5
  9
$DIMDLI
 40
11.286
  9
$DIMEXE
 40
1.5
  9
$DIMCEN
 40
2.673
  9
$DIMLFAC
 40
1.0
  9
$DIMBLK
  1
_FILLED
  9
$DIMALT
 70
0
  9
$DIMALTF
 40
0.0393700787
  9
$DIMTXT
 40
3.0
  9
$DIMTOL
 70
1
  9
$DIMLIM
 70
0
  9
$DIMTFAC
 40
1.0
  9
$DIMTP
 40
0.01
  9
$DIMTM
 40
0.01
  9
$DIMGAP
 40
0.625
  9
$DIMDSEP
 70
44
  9
$AUNITS
 70
0
  9
$PDMODE
 70
3
  9
$PDSIZE
 40
3.0
  9
$HANDSEED
  5
43D
  9
$TILEMODE
 70
1
  9
$MEASUREMENT
 70
1
  9
$INSUNITS
 70
4
  0
ENDSEC
  0
SECTION
  2
CLASSES
  0
CLASS
  1
ACDBDICTIONARYWDFLT
  2
AcDbDictionaryWithDefault
  3
AutoCAD 2000
 90
0
 91
1
280
0
281
0
  0
CLASS
  1
ACDBPLACEHOLDER
  2
AcDbPlaceHolder
  3
AutoCAD 2000
 90
0
 91
1
280
0
281
0
  0
CLASS
  1
LAYOUT
  2
AcDbLayout
  3
AutoCAD 2000
 90
0
 91
0
280
0
281
0
  0
ENDSEC
  0
SECTION
  2
TABLES
  0
TABLE
  2
VPORT
  5
8
100
AcDbSymbolTable
 70
2
  0
VPORT
  5
1F4
100
AcDbSymbolTableRecord
100
AcDbViewportTableRecord
  2
*ACTIVE
 70
0
 10
0.0
 20
0.0
 11
1.0
 21
1.0
 12
148.5
 22
105.0
 13
0.0
 23
0.0
 14
1.0
 24
1.0
 15
0.0
 25
0.0
 16
0.0
 26
0.0
 36
1.0
 17
0.0
 27
0.0
 37
0.0
 40
210.0
 41
1.4142857143
 42
50.0
 43
0.0
 44
0.0
 50
0.0
 51
0.0
 71
0
 72
100
 73
1
 74
1
 75
0
 76
0
 77
0
 78
0
  0
ENDTAB
  0
TABLE
  2
LTYPE
  5
5
100
AcDbSymbolTable
 70
6
  0
LTYPE
  5
14
100
AcDbSymbolTableRecord
100
AcDbLinetypeTableRecord
  2
BYBLOCK
 70
0
  3

 72
65
 73
0
 40
0.0
  0
LTYPE
  5
15
100
AcDbSymbolTableRecord
100
AcDbLinetypeTableRecord
  2
BYLAYER
 70
0
  3

 72
65
 73
0
 40
0.0
  0
LTYPE
  5
16
100
AcDbSymbolTableRecord
100
AcDbLinetypeTableRecord
  2
CONTINUOUS
 70
64
  3
Solid line
 72
65
 73
0
 40
0.0
  0
LTYPE
  5
1F5
100
AcDbSymbolTableRecord
100
AcDbLinetypeTableRecord
  2
CENTER
 70
64
  3
____ _ ____ _ ____ _ ____ _ ____ _ ____ _ ____
 72
65
 73
4
 40
0.6
 49
0.375
 74
0
 49
-0.075
 74
0
 49
0.075
 74
0
 49
-0.075
 74
0
  0
LTYPE
  5
1F6
100
AcDbSymbolTableRecord
100
AcDbLinetypeTableRecord
  2
HIDDEN
 70
64
  3
- - - - - - - - - - - - - - - - - - - -
 72
65
 73
2
 40
0.2
 49
0.1
 74
0
 49
-0.1
 74
0
  0
LTYPE
  5
1F7
100
AcDbSymbolTableRecord
100
AcDbLinetypeTableRecord
  2
PHANTOM
 70
64
  3
_____ _ _ _____ _ _ _____ _ _ _____
 72
65
 73
6
 40
0.8
 49
0.45
 74
0
 49
-0.05
 74
0
 49
0.1
 74
0
 49
-0.05
 74
0
 49
0.1
 74
0
 49
-0.05
 74
0
  0
LTYPE
  5
1F8
100
AcDbSymbolTableRecord
100
AcDbLinetypeTableRecord
  2
DOT
 70
64
  3
. . . . . . . . . . . . . . . . . . . .
 72
65
 73
2
 40
0.2
 49
0.1
 74
0
 49
-0.1
 74
0
  0
LTYPE
  5
1F9
100
AcDbSymbolTableRecord
100
AcDbLinetypeTableRecord
  2
DASHED
 70
64
  3
- - - - - - - - - - - - - - - - - - - -
 72
65
 73
2
 40
0.2
 49
0.1
 74
0
 49
-0.1
 74
0
  0
ENDTAB
  0
TABLE
  2
LAYER
  5
2
100
AcDbSymbolTable
 70
36
  0
LAYER
  5
10
100
AcDbSymbolTableRecord
100
AcDbLayerTableRecord
  2
0
 70
0
 62
7
  6
CONTINUOUS
370
-3
390
F
  0
LAYER
  5
1FA
100
AcDbSymbolTableRecord
100
AcDbLayerTableRecord
  2
DEFAULT_1
 70
0
 62
7
  6
CENTER
370
-3
390
F
  0
LAYER
  5
1FB
100
AcDbSymbolTableRecord
100
AcDbLayerTableRecord
  2
DEFAULT_2
 70
0
 62
7
  6
HIDDEN
370
-3
390
F
  0
LAYER
  5
1FC
100
AcDbSymbolTableRecord
100
AcDbLayerTableRecord
  2
DEFAULT_3
 70
0
 62
7
  6
PHANTOM
370
-3
390
F
  0
LAYER
  5
1FD
100
AcDbSymbolTableRecord
100
AcDbLayerTableRecord
  2
Livello_1
 70
0
 62
7
  6
CONTINUOUS
370
-3
390
F
  0
LAYER
  5
1FE
100
AcDbSymbolTableRecord
100
AcDbLayerTableRecord
  2
SNAPLINE
 70
0
 62
7
  6
CONTINUOUS
370
-3
390
F
  0
ENDTAB
  0
TABLE
  2
STYLE
  5
3
100
AcDbSymbolTable
 70
1
  0
STYLE
  5
11
100
AcDbSymbolTableRecord
100
AcDbTextStyleTableRecord
  2
STANDARD
 70
0
 40
0.0
 41
0.8
 50
0.0
 71
0
 42
0.2
  3
txt
  4

  0
STYLE
  5
1FF
100
AcDbSymbolTableRecord
100
AcDbTextStyleTableRecord
  2
TEXTSTYLE_1
 70
0
 40
0.0
 41
0.8
 50
0.0
 71
0
 42
0.2
  3
gdt
  4

  0
ENDTAB
  0
TABLE
  2
VIEW
  5
6
100
AcDbSymbolTable
 70
0
  0
ENDTAB
  0
TABLE
  2
UCS
  5
7
100
AcDbSymbolTable
 70
0
  0
ENDTAB
  0
TABLE
  2
APPID
  5
9
100
AcDbSymbolTable
 70
1
  0
APPID
  5
200
100
AcDbSymbolTableRecord
100
AcDbRegAppTableRecord
  2
ACAD
 70
0
  0
ENDTAB
  0
TABLE
  2
BLOCK_RECORD
  5
1
100
AcDbSymbolTable
 70
0
  0
BLOCK_RECORD
  5
201
100
AcDbSymbolTableRecord
100
AcDbBlockTableRecord
  2
*Model_Space
  0
BLOCK_RECORD
  5
202
100
AcDbSymbolTableRecord
100
AcDbBlockTableRecord
  2
*Paper_Space
  0
BLOCK_RECORD
  5
203
100
AcDbSymbolTableRecord
100
AcDbBlockTableRecord
  2
_FILLED
  0
ENDTAB
  0
TABLE
  2
DIMSTYLE
  5
A
100
AcDbSymbolTable
 70
1
100
AcDbDimStyleTable
 71
0
  0
DIMSTYLE
105
204
100
AcDbSymbolTableRecord
100
AcDbDimStyleTableRecord
  2
STANDARD
 70
0
  3

  4

 40
1.0
 41
3.0
 42
0.5
 43
0.38
 44
1.5
 45
0.0
 46
0.0
 47
0.01
 48
0.01
140
3.0
141
0.09
142
0.0
143
25.4
144
1.0
145
0.0
146
1.0
147
0.625
 71
1
 72
0
 73
0
 74
0
 75
0
 76
0
 77
1
 78
8
 79
2
170
0
171
1
172
0
173
0
174
0
175
0
176
0
177
0
178
0
270
2
179
2
271
2
272
2
273
2
274
2
275
0
280
0
281
0
282
0
283
1
284
8
285
0
286
0
287
3
288
0
340
11
278
44
341
203
342
203
343
203
344
203
  0
ENDTAB
  0
ENDSEC
  0
SECTION
  2
BLOCKS
  0
BLOCK
  5
20
100
AcDbEntity
  8
0
100
AcDbBlockBegin
  2
*Model_Space
 70
0
 10
0.0
 20
0.0
 30
0.0
  3
*Model_Space
  1

  0
ENDBLK
  5
21
100
AcDbEntity
  8
0
100
AcDbBlockEnd
  0
BLOCK
  5
1C
100
AcDbEntity
  8
0
100
AcDbBlockBegin
  2
*Paper_Space
 70
0
 10
0.0
 20
0.0
 30
0.0
  3
*Paper_Space
  1

  0
ENDBLK
  5
1D
100
AcDbEntity
  8
0
100
AcDbBlockEnd
  0
BLOCK
  5
205
100
AcDbEntity
  8
0
100
AcDbBlockBegin
  2
_FILLED
 70
64
 10
0.0
 20
0.0
  3
_FILLED
  1

  0
SOLID
  5
206
100
AcDbEntity
  8
0
  6
BYBLOCK
 62
0
100
AcDbTrace
 10
0.0
 20
0.0
 11
-1.0
 21
0.3166666667
 12
-1.0
 22
-0.3166666667
 13
-1.0
 23
-0.3166666667
  0
ENDBLK
  5
207
100
AcDbEntity
  8
0
  6
BYBLOCK
 62
0
100
AcDbBlockEnd
  0
ENDSEC
  0
SECTION
  2
ENTITIES
  0
LINE
  5
208
100
AcDbEntity
  8
Livello_1
100
AcDbLine
 62
7
  6
CONTINUOUS
 10
-22.0273277417
 20
19.4444592751
 11
-22.0712783753
 21
19.871140393
  0
LINE
  5
209
100
AcDbEntity
  8
Livello_1
100
AcDbLine
 62
7
  6
CONTINUOUS
 10
-18.9887861301
 20
66.3183622429
 11
-18.7701267575
 21
64.1738402743
  0
LINE
  5
20A
100
AcDbEntity
  8
Livello_1
100
AcDbLine
 62
7
  6
CONTINUOUS
 10
-18.2232079767
 20
66.9305952345
 11
-17.9612534681
 21
64.3508776779
  0
LINE
  5
20B
100
AcDbEntity
  8
Livello_1
100
AcDbLine
 62
7
  6
CONTINUOUS
 10
-17.7808251067
 20
-75.2166666754
 11
-17.5169385041
 21
-77.8638973294
  0
LINE
  5
20C
100
AcDbEntity
  8
Livello_1
100
AcDbLine
 62
7
  6
CONTINUOUS
 10
-18.5585561498
 20
-74.2547344752
 11
-18.322973104
 21
-76.6754745008
  0
LINE
  5
20D
100
AcDbEntity
  8
Livello_1
100
AcDbLine
 62
7
  6
CONTINUOUS
 10
-13.0817630226
 20
65.7703830634
 11
-12.7695327435
 21
62.5148964573
  0
LINE
  5
20E
100
AcDbEntity
  8
Livello_1
100
AcDbLine
 62
7
  6
CONTINUOUS
 10
-21.712076857
 20
-73.5658975893
 11
-21.4903184473
 21
-75.9614185564
  0
LINE
  5
20F
100
AcDbEntity
  8
Livello_1
100
AcDbLine
 62
7
  6
CONTINUOUS
 10
-35.6070930527
 20
-69.4234051378
 11
-35.4763924547
 21
-70.9833770584
  0
LINE
  5
210
100
AcDbEntity
  8
Livello_1
100
AcDbLine
 62
7
  6
CONTINUOUS
 10
-21.9963174138
 20
19.0206483988
 11
-22.0273277417
 21
19.4444592751
  0
LINE
  5
211
100
AcDbEntity
  8
Livello_1
100
AcDbLine
 62
7
  6
CONTINUOUS
 10
-38.8512984425
 20
-69.1280079855
 11
-39.0151498321
 21
-66.8506920677
  0
LINE
  5
212
100
AcDbEntity
  8
Livello_1
100
AcDbLine
 62
7
  6
CONTINUOUS
 10
-45.5003444212
 20
-66.4813893843
 11
-45.3753098403
 21
-68.4758070317
  0
LINE
  5
213
100
AcDbEntity
  8
Livello_1
100
AcDbLine
 62
7
  6
CONTINUOUS
 10
-21.9327661825
 20
65.5862201224
 11
-21.8684939257
 21
64.4273846441
  0
LINE
  5
214
100
AcDbEntity
  8
Livello_1
100
AcDbLine
 62
7
  6
CONTINUOUS
 10
-12.7695327435
 20
62.5148964573
 11
-12.5829849288
 21
58.9499762335
  0
LINE
  5
215
100
AcDbEntity
  8
Livello_1
100
AcDbLine
 62
7
  6
CONTINUOUS
 10
-18.7701267575
 20
64.1738402743
 11
-18.6756975183
 21
62.1351183317
  0
LINE
  5
216
100
AcDbEntity
  8
Livello_1
100
AcDbLine
 62
7
  6
CONTINUOUS
 10
-21.8400938751
 20
-70.7112535165
 11
-21.712076857
 21
-73.5658975893
  0
LINE
  5
217
100
AcDbEntity
  8
Livello_1
100
AcDbLine
 62
7
  6
CONTINUOUS
 10
-47.3196356878
 20
-66.1165261198
 11
-47.250672286
 21
-67.7109589808
  0
LINE
  5
218
100
AcDbEntity
  8
Livello_1
100
AcDbLine
 62
7
  6
CONTINUOUS
 10
-21.9781792917
 20
18.6003698506
 11
-21.9963174138
 21
19.0206483988
  0
LINE
  5
219
100
AcDbEntity
  8
Livello_1
100
AcDbLine
 62
7
  6
CONTINUOUS
 10
-18.6639930759
 20
-71.7056826218
 11
-18.5585561498
 21
-74.2547344752
  0
LINE
  5
21A
100
AcDbEntity
  8
Livello_1
100
AcDbLine
 62
7
  6
CONTINUOUS
 10
-12.530370382
 20
-75.9909601613
 11
-12.4531999487
 21
-77.8958827387
  0
LINE
  5
21B
100
AcDbEntity
  8
Livello_1
100
AcDbLine
 62
7
  6
CONTINUOUS
 10
-47.2283650228
 20
-66.9737129903
 11
-47.3196356878
 21
-64.5507615491
  0
LINE
  5
21C
100
AcDbEntity
  8
Livello_1
100
AcDbLine
 62
7
  6
CONTINUOUS
 10
-17.9612534681
 20
64.3508776779
 11
-17.8713137755
 21
61.5912791447
  0
LINE
  5
21D
100
AcDbEntity
  8
Livello_1
100
AcDbLine
 62
7
  6
CONTINUOUS
 10
-17.8713137755
 20
-72.3907615516
 11
-17.7808251067
 21
-75.2166666754
  0
LINE
  5
21E
100
AcDbEntity
  8
Livello_1
100
AcDbLine
 62
7
  6
CONTINUOUS
 10
-35.6516544636
 20
-67.7799943992
 11
-35.6070930527
 21
-69.4234051378
  0
LINE
  5
21F
100
AcDbEntity
  8
Livello_1
100
AcDbLine
 62
7
  6
CONTINUOUS
 10
-39.0151498321
 20
-66.8506920677
 11
-39.0618415207
 21
-64.829226756
  0
LINE
  5
220
100
AcDbEntity
  8
Livello_1
100
AcDbLine
 62
7
  6
CONTINUOUS
 10
-21.9739060142
 20
18.3915937592
 11
-21.9781792917
 21
18.6003698506
  0
LINE
  5
221
100
AcDbEntity
  8
Livello_1
100
AcDbLine
 62
7
  6
CONTINUOUS
 10
-12.5829849288
 20
58.9499762335
 11
-12.530370382
 21
55.5916547299
  0
LINE
  5
222
100
AcDbEntity
  8
Livello_1
100
AcDbLine
 62
7
  6
CONTINUOUS
 10
-45.5280156002
 20
-64.7143719024
 11
-45.5003444212
 21
-66.4813893843
  0
LINE
  5
223
100
AcDbEntity
  8
Livello_1
100
AcDbLine
 62
7
  6
CONTINUOUS
 10
-21.8684939257
 20
-68.2806536429
 11
-21.8400938751
 21
-70.7112535165
  0
LINE
  5
224
100
AcDbEntity
  8
Livello_1
100
AcDbLine
 62
7
  6
CONTINUOUS
 10
-18.6756975183
 20
62.1351183317
 11
-18.6691310456
 21
61.4463616113
  0
LINE
  5
225
100
AcDbEntity
  8
Livello_1
100
AcDbLine
 62
7
  6
CONTINUOUS
 10
-18.6691310456
 20
-70.9943886188
 11
-18.6639930759
 21
-71.7056826218
  0
LINE
  5
226
100
AcDbEntity
  8
Livello_1
100
AcDbLine
 62
7
  6
CONTINUOUS
 10
-47.3196356878
 20
-66.1165261198
 11
-47.3196356878
 21
90.7141147357
  0
LINE
  5
227
100
AcDbEntity
  8
Livello_1
100
AcDbLine
 62
7
  6
CONTINUOUS
 10
-46.5969751166
 20
89.5208576011
 11
-46.5969751166
 21
88.4368667444
  0
LINE
  5
228
100
AcDbEntity
  8
Livello_1
100
AcDbLine
 62
7
  6
CONTINUOUS
 10
-46.3599424497
 20
96.5404933232
 11
-46.3599424497
 21
90.1005277336
  0
LINE
  5
229
100
AcDbEntity
  8
Livello_1
100
AcDbLine
 62
7
  6
CONTINUOUS
 10
-45.5280156002
 20
87.7161332684
 11
-45.5280156002
 21
-64.7143719024
  0
LINE
  5
22A
100
AcDbEntity
  8
Livello_1
100
AcDbLine
 62
7
  6
CONTINUOUS
 10
-39.0618415207
 20
-64.829226756
 11
-39.0618415207
 21
69.1283398358
  0
LINE
  5
22B
100
AcDbEntity
  8
Livello_1
100
AcDbLine
 62
7
  6
CONTINUOUS
 10
-37.7180782775
 20
68.6879986609
 11
-37.7180782775
 21
22.6786089757
  0
LINE
  5
22C
100
AcDbEntity
  8
Livello_1
100
AcDbLine
 62
7
  6
CONTINUOUS
 10
-35.6516544636
 20
22.6822704563
 11
-35.6516544636
 21
-67.7799943992
  0
LINE
  5
22D
100
AcDbEntity
  8
Livello_1
100
AcDbLine
 62
7
  6
CONTINUOUS
 10
-21.8684939257
 20
64.4273846441
 11
-21.8684939257
 21
-68.2806536429
  0
LINE
  5
22E
100
AcDbEntity
  8
Livello_1
100
AcDbLine
 62
7
  6
CONTINUOUS
 10
-18.6691310456
 20
61.4463616113
 11
-18.6691310456
 21
-70.9943886188
  0
LINE
  5
22F
100
AcDbEntity
  8
Livello_1
100
AcDbLine
 62
7
  6
CONTINUOUS
 10
-17.8713137755
 20
61.5912791447
 11
-17.8713137755
 21
-72.3907615516
  0
LINE
  5
230
100
AcDbEntity
  8
Livello_1
100
AcDbLine
 62
7
  6
CONTINUOUS
 10
-12.530370382
 20
55.5916547299
 11
-12.530370382
 21
-75.9909601613
  0
LINE
  5
231
100
AcDbEntity
  8
Livello_1
100
AcDbLine
 62
7
  6
CONTINUOUS
 10
-35.6460670013
 20
22.9733967524
 11
-35.6516544636
 21
22.6822704563
  0
LINE
  5
232
100
AcDbEntity
  8
Livello_1
100
AcDbLine
 62
7
  6
CONTINUOUS
 10
-37.6989077718
 20
69.4248640431
 11
-37.7180782775
 21
68.6879986609
  0
LINE
  5
233
100
AcDbEntity
  8
Livello_1
100
AcDbLine
 62
7
  6
CONTINUOUS
 10
-37.7144167974
 20
22.1818039219
 11
-37.7005964068
 21
22.6497360652
  0
LINE
  5
234
100
AcDbEntity
  8
Livello_1
100
AcDbLine
 62
7
  6
CONTINUOUS
 10
-39.0618415207
 20
69.1283398358
 11
-39.0266941411
 21
70.120560739
  0
LINE
  5
235
100
AcDbEntity
  8
Livello_1
100
AcDbLine
 62
7
  6
CONTINUOUS
 10
-37.7005964068
 20
22.6497360652
 11
-37.6725022266
 21
23.115215011
  0
LINE
  5
236
100
AcDbEntity
  8
Livello_1
100
AcDbLine
 62
7
  6
CONTINUOUS
 10
-35.5692907952
 20
24.0559705539
 11
-35.6460670013
 21
22.9733967524
  0
LINE
  5
237
100
AcDbEntity
  8
Livello_1
100
AcDbLine
 62
7
  6
CONTINUOUS
 10
-37.6359679664
 20
70.2386508463
 11
-37.6989077718
 21
69.4248640431
  0
LINE
  5
238
100
AcDbEntity
  8
Livello_1
100
AcDbLine
 62
7
  6
CONTINUOUS
 10
-37.6725022266
 20
23.115215011
 11
-37.6304885396
 21
23.5723698156
  0
LINE
  5
239
100
AcDbEntity
  8
Livello_1
100
AcDbLine
 62
7
  6
CONTINUOUS
 10
-39.0266941411
 20
70.120560739
 11
-38.8695037199
 21
71.5081287035
  0
LINE
  5
23A
100
AcDbEntity
  8
Livello_1
100
AcDbLine
 62
7
  6
CONTINUOUS
 10
-37.6304885396
 20
23.5723698156
 11
-37.5748801523
 21
24.0203646724
  0
LINE
  5
23B
100
AcDbEntity
  8
Livello_1
100
AcDbLine
 62
7
  6
CONTINUOUS
 10
-46.3599424497
 20
96.5404933232
 11
-46.3001291703
 21
96.9888872648
  0
LINE
  5
23C
100
AcDbEntity
  8
Livello_1
100
AcDbLine
 62
7
  6
CONTINUOUS
 10
-37.530933079
 20
71.0236308382
 11
-37.6359679664
 21
70.2386508463
  0
LINE
  5
23D
100
AcDbEntity
  8
Livello_1
100
AcDbLine
 62
7
  6
CONTINUOUS
 10
-35.4090351206
 20
25.0780362667
 11
-35.5692907952
 21
24.0559705539
  0
LINE
  5
23E
100
AcDbEntity
  8
Livello_1
100
AcDbLine
 62
7
  6
CONTINUOUS
 10
-37.5748801523
 20
24.0203646724
 11
-37.5060414952
 21
24.4584005619
  0
LINE
  5
23F
100
AcDbEntity
  8
Livello_1
100
AcDbLine
 62
7
  6
CONTINUOUS
 10
-37.5060414952
 20
24.4584005619
 11
-37.4243735799
 21
24.8857230659
  0
LINE
  5
240
100
AcDbEntity
  8
Livello_1
100
AcDbLine
 62
7
  6
CONTINUOUS
 10
-37.3859238308
 20
71.775563071
 11
-37.530933079
 21
71.0236308382
  0
LINE
  5
241
100
AcDbEntity
  8
Livello_1
100
AcDbLine
 62
7
  6
CONTINUOUS
 10
-38.8695037199
 20
71.5081287035
 11
-38.5960068529
 21
72.7976987455
  0
LINE
  5
242
100
AcDbEntity
  8
Livello_1
100
AcDbLine
 62
7
  6
CONTINUOUS
 10
-37.4243735799
 20
24.8857230659
 11
-37.3303101589
 21
25.3016294554
  0
LINE
  5
243
100
AcDbEntity
  8
Livello_1
100
AcDbLine
 62
7
  6
CONTINUOUS
 10
-35.1723261683
 20
26.0277511436
 11
-35.4090351206
 21
25.0780362667
  0
LINE
  5
244
100
AcDbEntity
  8
Livello_1
100
AcDbLine
 62
7
  6
CONTINUOUS
 10
-37.2033730743
 20
72.4907134485
 11
-37.3859238308
 21
71.775563071
  0
LINE
  5
245
100
AcDbEntity
  8
Livello_1
100
AcDbLine
 62
7
  6
CONTINUOUS
 10
-37.3303101589
 20
25.3016294554
 11
-37.2243131692
 21
25.7054748447
  0
LINE
  5
246
100
AcDbEntity
  8
Livello_1
100
AcDbLine
 62
7
  6
CONTINUOUS
 10
-37.2243131692
 20
25.7054748447
 11
-37.1068675736
 21
26.0966772284
  0
LINE
  5
247
100
AcDbEntity
  8
Livello_1
100
AcDbLine
 62
7
  6
CONTINUOUS
 10
-38.5960068529
 20
72.7976987455
 11
-38.2187176313
 21
73.9728421305
  0
LINE
  5
248
100
AcDbEntity
  8
Livello_1
100
AcDbLine
 62
7
  6
CONTINUOUS
 10
-36.9859436704
 20
73.165949028
 11
-37.2033730743
 21
72.4907134485
  0
LINE
  5
249
100
AcDbEntity
  8
Livello_1
100
AcDbLine
 62
7
  6
CONTINUOUS
 10
-36.7364322788
 20
73.7987954268
 11
-36.9859436704
 21
73.165949028
  0
LINE
  5
24A
100
AcDbEntity
  8
Livello_1
100
AcDbLine
 62
7
  6
CONTINUOUS
 10
-38.2187176313
 20
73.9728421305
 11
-37.751257757
 21
75.0223676212
  0
LINE
  5
24B
100
AcDbEntity
  8
Livello_1
100
AcDbLine
 62
7
  6
CONTINUOUS
 10
-36.4576665989
 20
74.3874534343
 11
-36.7364322788
 21
73.7987954268
  0
LINE
  5
24C
100
AcDbEntity
  8
Livello_1
100
AcDbLine
 62
7
  6
CONTINUOUS
 10
-46.3002946489
 20
96.9884056916
 11
-46.2199226308
 21
97.1510519223
  0
LINE
  5
24D
100
AcDbEntity
  8
Livello_1
100
AcDbLine
 62
7
  6
CONTINUOUS
 10
19.7634997944
 20
-93.0731143832
 11
22.5042158783
 21
-92.3505204712
  0
LINE
  5
24E
100
AcDbEntity
  8
Livello_1
100
AcDbLine
 62
7
  6
CONTINUOUS
 10
22.5091917248
 20
-92.349130786
 11
19.7634997944
 21
-93.0731143832
  0
LINE
  5
24F
100
AcDbEntity
  8
Livello_1
100
AcDbLine
 62
7
  6
CONTINUOUS
 10
16.5374242194
 20
-93.8312708248
 11
19.7634997944
 21
-93.0731143832
  0
LINE
  5
250
100
AcDbEntity
  8
Livello_1
100
AcDbLine
 62
7
  6
CONTINUOUS
 10
19.7634997944
 20
-93.0731143832
 11
16.5588335534
 21
-93.8262418479
  0
LINE
  5
251
100
AcDbEntity
  8
Livello_1
100
AcDbLine
 62
7
  6
CONTINUOUS
 10
8.7895579953
 20
-95.6219937098
 11
16.5374242194
 21
-93.8312708248
  0
LINE
  5
252
100
AcDbEntity
  8
Livello_1
100
AcDbLine
 62
7
  6
CONTINUOUS
 10
16.5588335534
 20
-93.8262418479
 11
8.7945210127
 21
-95.6208848275
  0
LINE
  5
253
100
AcDbEntity
  8
Livello_1
100
AcDbLine
 62
7
  6
CONTINUOUS
 10
6.2776899927
 20
-96.1539609292
 11
8.7895579953
 21
-95.6219937098
  0
LINE
  5
254
100
AcDbEntity
  8
Livello_1
100
AcDbLine
 62
7
  6
CONTINUOUS
 10
8.7945210127
 20
-95.6208848275
 11
6.2776899927
 21
-96.1539609292
  0
LINE
  5
255
100
AcDbEntity
  8
Livello_1
100
AcDbLine
 62
7
  6
CONTINUOUS
 10
6.2776899927
 20
-96.1539609292
 11
4.6716394956
 21
-96.3467630386
  0
LINE
  5
256
100
AcDbEntity
  8
Livello_1
100
AcDbLine
 62
7
  6
CONTINUOUS
 10
-17.1486532043
 20
-86.9532392494
 11
-19.0866926432
 21
-87.1266249132
  0
LINE
  5
257
100
AcDbEntity
  8
Livello_1
100
AcDbLine
 62
7
  6
CONTINUOUS
 10
-19.0866926432
 20
-87.1266249132
 11
-21.2786784591
 21
-87.2639380994
  0
LINE
  5
258
100
AcDbEntity
  8
Livello_1
100
AcDbLine
 62
7
  6
CONTINUOUS
 10
-19.7903101031
 20
-87.2072891711
 11
-17.0997049953
 21
-87.0603857232
  0
LINE
  5
259
100
AcDbEntity
  8
Livello_1
100
AcDbLine
 62
7
  6
CONTINUOUS
 10
3.0740468224
 20
-96.4066598535
 11
4.6741682891
 21
-96.3465769659
  0
LINE
  5
25A
100
AcDbEntity
  8
Livello_1
100
AcDbLine
 62
7
  6
CONTINUOUS
 10
4.6716394956
 20
-96.3467630386
 11
3.0799987027
 21
-96.4066364097
  0
LINE
  5
25B
100
AcDbEntity
  8
Livello_1
100
AcDbLine
 62
7
  6
CONTINUOUS
 10
-22.4457835173
 20
-87.228311404
 11
-19.7903101031
 21
-87.2072891711
  0
LINE
  5
25C
100
AcDbEntity
  8
Livello_1
100
AcDbLine
 62
7
  6
CONTINUOUS
 10
-21.2786784591
 20
-87.2639380994
 11
-23.3868380997
 21
-87.2396660817
  0
LINE
  5
25D
100
AcDbEntity
  8
Livello_1
100
AcDbLine
 62
7
  6
CONTINUOUS
 10
-25.3839003616
 20
-87.1451778971
 11
-22.4457835173
 21
-87.228311404
  0
LINE
  5
25E
100
AcDbEntity
  8
Livello_1
100
AcDbLine
 62
7
  6
CONTINUOUS
 10
3.0799987027
 20
-96.4066364097
 11
1.0110932628
 21
-96.3285603605
  0
LINE
  5
25F
100
AcDbEntity
  8
Livello_1
100
AcDbLine
 62
7
  6
CONTINUOUS
 10
1.0084154269
 20
-96.3283432205
 11
3.0740468224
 21
-96.4066598535
  0
LINE
  5
260
100
AcDbEntity
  8
Livello_1
100
AcDbLine
 62
7
  6
CONTINUOUS
 10
-23.3868380997
 20
-87.2396660817
 11
-24.6027434526
 21
-87.1528910621
  0
LINE
  5
261
100
AcDbEntity
  8
Livello_1
100
AcDbLine
 62
7
  6
CONTINUOUS
 10
-26.5505980541
 20
-87.044859916
 11
-25.3839003616
 21
-87.1451778971
  0
LINE
  5
262
100
AcDbEntity
  8
Livello_1
100
AcDbLine
 62
7
  6
CONTINUOUS
 10
-24.6027434526
 20
-87.1528910621
 11
-25.9768069873
 21
-87.0044227147
  0
LINE
  5
263
100
AcDbEntity
  8
Livello_1
100
AcDbLine
 62
7
  6
CONTINUOUS
 10
-0.7457999193
 20
-96.1086742002
 11
1.0084154269
 21
-96.3283432205
  0
LINE
  5
264
100
AcDbEntity
  8
Livello_1
100
AcDbLine
 62
7
  6
CONTINUOUS
 10
1.0110932628
 20
-96.3285603605
 11
-0.7457999193
 21
-96.1086742002
  0
LINE
  5
265
100
AcDbEntity
  8
Livello_1
100
AcDbLine
 62
7
  6
CONTINUOUS
 10
-25.9768069873
 20
-87.0044227147
 11
-29.3623876919
 21
-86.4845697801
  0
LINE
  5
266
100
AcDbEntity
  8
Livello_1
100
AcDbLine
 62
7
  6
CONTINUOUS
 10
-28.1619485981
 20
-86.7897694618
 11
-26.5505980541
 21
-87.044859916
  0
LINE
  5
267
100
AcDbEntity
  8
Livello_1
100
AcDbLine
 62
7
  6
CONTINUOUS
 10
-29.3623876919
 20
-86.4845697801
 11
-30.8725031568
 21
-86.2355775838
  0
LINE
  5
268
100
AcDbEntity
  8
Livello_1
100
AcDbLine
 62
7
  6
CONTINUOUS
 10
-31.3953804739
 20
-86.1605654152
 11
-29.5882432087
 21
-86.4959396399
  0
LINE
  5
269
100
AcDbEntity
  8
Livello_1
100
AcDbLine
 62
7
  6
CONTINUOUS
 10
-29.5294251001
 20
-86.5094235507
 11
-28.1619485981
 21
-86.7897694618
  0
LINE
  5
26A
100
AcDbEntity
  8
Livello_1
100
AcDbLine
 62
7
  6
CONTINUOUS
 10
-0.7457999193
 20
-96.1086742002
 11
-2.2611689559
 21
-95.7628714667
  0
LINE
  5
26B
100
AcDbEntity
  8
Livello_1
100
AcDbLine
 62
7
  6
CONTINUOUS
 10
-29.5882432087
 20
-86.4959396399
 11
-29.5294251001
 21
-86.5094235507
  0
LINE
  5
26C
100
AcDbEntity
  8
Livello_1
100
AcDbLine
 62
7
  6
CONTINUOUS
 10
-17.3650595598
 20
-86.9617433874
 11
-17.3141906523
 21
-86.9738591645
  0
LINE
  5
26D
100
AcDbEntity
  8
Livello_1
100
AcDbLine
 62
7
  6
CONTINUOUS
 10
-17.9899367606
 20
-86.8085886065
 11
-17.3650595598
 21
-86.9617433874
  0
LINE
  5
26E
100
AcDbEntity
  8
Livello_1
100
AcDbLine
 62
7
  6
CONTINUOUS
 10
-18.9061221814
 20
-86.575863491
 11
-17.9899367606
 21
-86.8085886065
  0
LINE
  5
26F
100
AcDbEntity
  8
Livello_1
100
AcDbLine
 62
7
  6
CONTINUOUS
 10
-19.9380067915
 20
-86.3047827567
 11
-18.9061221814
 21
-86.575863491
  0
LINE
  5
270
100
AcDbEntity
  8
Livello_1
100
AcDbLine
 62
7
  6
CONTINUOUS
 10
-33.0631473738
 20
-85.7116288864
 11
-31.3953804739
 21
-86.1605654152
  0
LINE
  5
271
100
AcDbEntity
  8
Livello_1
100
AcDbLine
 62
7
  6
CONTINUOUS
 10
-21.0186476369
 20
-86.011639928
 11
-19.9380067915
 21
-86.3047827567
  0
LINE
  5
272
100
AcDbEntity
  8
Livello_1
100
AcDbLine
 62
7
  6
CONTINUOUS
 10
-30.8725031568
 20
-86.2355775838
 11
-32.4952768763
 21
-85.7873744619
  0
LINE
  5
273
100
AcDbEntity
  8
Livello_1
100
AcDbLine
 62
7
  6
CONTINUOUS
 10
-2.2585895661
 20
-95.7635350908
 11
-5.1425915001
 21
-94.9581808634
  0
LINE
  5
274
100
AcDbEntity
  8
Livello_1
100
AcDbLine
 62
7
  6
CONTINUOUS
 10
-22.1138969344
 20
-85.7051145841
 11
-21.0186476369
 21
-86.011639928
  0
LINE
  5
275
100
AcDbEntity
  8
Livello_1
100
AcDbLine
 62
7
  6
CONTINUOUS
 10
-23.2038117182
 20
-85.3905482158
 11
-22.1138969344
 21
-85.7051145841
  0
LINE
  5
276
100
AcDbEntity
  8
Livello_1
100
AcDbLine
 62
7
  6
CONTINUOUS
 10
-24.2758580095
 20
-85.0715180544
 11
-23.2038117182
 21
-85.3905482158
  0
LINE
  5
277
100
AcDbEntity
  8
Livello_1
100
AcDbLine
 62
7
  6
CONTINUOUS
 10
-5.1425915001
 20
-94.9581808634
 11
-6.5120531473
 21
-94.5467638194
  0
LINE
  5
278
100
AcDbEntity
  8
Livello_1
100
AcDbLine
 62
7
  6
CONTINUOUS
 10
-6.5120531473
 20
-94.5467638194
 11
-5.1351390455
 21
-94.9603763904
  0
LINE
  5
279
100
AcDbEntity
  8
Livello_1
100
AcDbLine
 62
7
  6
CONTINUOUS
 10
-25.3218334291
 20
-84.7505544958
 11
-24.2758580095
 21
-85.0715180544
  0
LINE
  5
27A
100
AcDbEntity
  8
Livello_1
100
AcDbLine
 62
7
  6
CONTINUOUS
 10
-26.3362706395
 20
-84.429515826
 11
-25.3218334291
 21
-84.7505544958
  0
LINE
  5
27B
100
AcDbEntity
  8
Livello_1
100
AcDbLine
 62
7
  6
CONTINUOUS
 10
-26.5614866889
 20
-84.3541314414
 11
-26.3362706395
 21
-84.429515826
  0
LINE
  5
27C
100
AcDbEntity
  8
Livello_1
100
AcDbLine
 62
7
  6
CONTINUOUS
 10
-6.5120531473
 20
-94.5467638194
 11
-7.7976096103
 21
-94.0825543276
  0
LINE
  5
27D
100
AcDbEntity
  8
Livello_1
100
AcDbLine
 62
7
  6
CONTINUOUS
 10
-34.6017498098
 20
-85.1554372401
 11
-33.0631473738
 21
-85.7116288864
  0
LINE
  5
27E
100
AcDbEntity
  8
Livello_1
100
AcDbLine
 62
7
  6
CONTINUOUS
 10
-26.8656777386
 20
-84.2430819217
 11
-26.5614866889
 21
-84.3541314414
  0
LINE
  5
27F
100
AcDbEntity
  8
Livello_1
100
AcDbLine
 62
7
  6
CONTINUOUS
 10
-32.4952768763
 20
-85.7873744619
 11
-34.2311223119
 21
-85.1252071257
  0
LINE
  5
280
100
AcDbEntity
  8
Livello_1
100
AcDbLine
 62
7
  6
CONTINUOUS
 10
-27.1681161044
 20
-84.1219469766
 11
-26.8656777386
 21
-84.2430819217
  0
LINE
  5
281
100
AcDbEntity
  8
Livello_1
100
AcDbLine
 62
7
  6
CONTINUOUS
 10
-27.4684489915
 20
-83.9908064593
 11
-27.1681161044
 21
-84.1219469766
  0
LINE
  5
282
100
AcDbEntity
  8
Livello_1
100
AcDbLine
 62
7
  6
CONTINUOUS
 10
-36.0205662124
 20
-84.496654714
 11
-34.6017498098
 21
-85.1554372401
  0
LINE
  5
283
100
AcDbEntity
  8
Livello_1
100
AcDbLine
 62
7
  6
CONTINUOUS
 10
-27.7663352941
 20
-83.8497487163
 11
-27.4684489915
 21
-83.9908064593
  0
LINE
  5
284
100
AcDbEntity
  8
Livello_1
100
AcDbLine
 62
7
  6
CONTINUOUS
 10
-34.2311223119
 20
-85.1252071257
 11
-36.0691959723
 21
-84.2390034918
  0
LINE
  5
285
100
AcDbEntity
  8
Livello_1
100
AcDbLine
 62
7
  6
CONTINUOUS
 10
-29.2531214135
 20
-86.516559555
 11
-30.3814821016
 21
-85.953546466
  0
LINE
  5
286
100
AcDbEntity
  8
Livello_1
100
AcDbLine
 62
7
  6
CONTINUOUS
 10
-28.0614463629
 20
-83.6988692947
 11
-27.7663352941
 21
-83.8497487163
  0
LINE
  5
287
100
AcDbEntity
  8
Livello_1
100
AcDbLine
 62
7
  6
CONTINUOUS
 10
-12.0185339883
 20
-90.9879977493
 11
-13.0947675766
 21
-90.4354569019
  0
LINE
  5
288
100
AcDbEntity
  8
Livello_1
100
AcDbLine
 62
7
  6
CONTINUOUS
 10
-9.0631296356
 20
-93.4255682551
 11
-7.7922431266
 21
-94.0845794424
  0
LINE
  5
289
100
AcDbEntity
  8
Livello_1
100
AcDbLine
 62
7
  6
CONTINUOUS
 10
-7.7976096103
 20
-94.0825543276
 11
-9.0731232834
 21
-93.4210268868
  0
LINE
  5
28A
100
AcDbEntity
  8
Livello_1
100
AcDbLine
 62
7
  6
CONTINUOUS
 10
-3.4292816747
 20
-94.5624432263
 11
-2.3077103001
 21
-95.154569537
  0
LINE
  5
28B
100
AcDbEntity
  8
Livello_1
100
AcDbLine
 62
7
  6
CONTINUOUS
 10
-28.3534665685
 20
-83.5382696514
 11
-28.0614463629
 21
-83.6988692947
  0
LINE
  5
28C
100
AcDbEntity
  8
Livello_1
100
AcDbLine
 62
7
  6
CONTINUOUS
 10
-39.4081404664
 20
-82.1825232237
 11
-40.4799349322
 21
-81.5825656742
  0
LINE
  5
28D
100
AcDbEntity
  8
Livello_1
100
AcDbLine
 62
7
  6
CONTINUOUS
 10
-36.0691959723
 20
-84.2390034918
 11
-37.9771618826
 21
-83.1329276664
  0
LINE
  5
28E
100
AcDbEntity
  8
Livello_1
100
AcDbLine
 62
7
  6
CONTINUOUS
 10
-37.3279897848
 20
-83.7382618598
 11
-36.0205662124
 21
-84.496654714
  0
LINE
  5
28F
100
AcDbEntity
  8
Livello_1
100
AcDbLine
 62
7
  6
CONTINUOUS
 10
-28.6420936672
 20
-83.3680558739
 11
-28.3534665685
 21
-83.5382696514
  0
LINE
  5
290
100
AcDbEntity
  8
Livello_1
100
AcDbLine
 62
7
  6
CONTINUOUS
 10
-40.4576211244
 20
-81.7122778027
 11
-39.517214035
 21
-82.2915967928
  0
LINE
  5
291
100
AcDbEntity
  8
Livello_1
100
AcDbLine
 62
7
  6
CONTINUOUS
 10
-28.927038979
 20
-83.1883374388
 11
-28.6420936672
 21
-83.3680558739
  0
LINE
  5
292
100
AcDbEntity
  8
Livello_1
100
AcDbLine
 62
7
  6
CONTINUOUS
 10
-30.3814821016
 20
-85.953546466
 11
-31.4427323132
 21
-85.2793485561
  0
LINE
  5
293
100
AcDbEntity
  8
Livello_1
100
AcDbLine
 62
7
  6
CONTINUOUS
 10
-27.291692542
 20
29.3824690742
 11
-27.5577605758
 21
29.5528592565
  0
LINE
  5
294
100
AcDbEntity
  8
Livello_1
100
AcDbLine
 62
7
  6
CONTINUOUS
 10
-27.6017922812
 20
30.1780955584
 11
-27.29707322
 21
29.982177724
  0
LINE
  5
295
100
AcDbEntity
  8
Livello_1
100
AcDbLine
 62
7
  6
CONTINUOUS
 10
-37.9771618826
 20
-83.1329276664
 11
-39.4081404664
 21
-82.1825232237
  0
LINE
  5
296
100
AcDbEntity
  8
Livello_1
100
AcDbLine
 62
7
  6
CONTINUOUS
 10
-29.2080273939
 20
-82.999226024
 11
-28.927038979
 21
-83.1883374388
  0
LINE
  5
297
100
AcDbEntity
  8
Livello_1
100
AcDbLine
 62
7
  6
CONTINUOUS
 10
-13.9460419692
 20
-89.9165718026
 11
-12.4137811435
 21
-90.9504193996
  0
LINE
  5
298
100
AcDbEntity
  8
Livello_1
100
AcDbLine
 62
7
  6
CONTINUOUS
 10
-13.0947675766
 20
-90.4354569019
 11
-14.2755521519
 21
-89.6359204326
  0
LINE
  5
299
100
AcDbEntity
  8
Livello_1
100
AcDbLine
 62
7
  6
CONTINUOUS
 10
-4.5691988206
 20
-93.781849912
 11
-3.4292816747
 21
-94.5624432263
  0
LINE
  5
29A
100
AcDbEntity
  8
Livello_1
100
AcDbLine
 62
7
  6
CONTINUOUS
 10
-10.3089555274
 20
-92.5666151052
 11
-9.0631296356
 21
-93.4255682551
  0
LINE
  5
29B
100
AcDbEntity
  8
Livello_1
100
AcDbLine
 62
7
  6
CONTINUOUS
 10
-9.0731232834
 20
-93.4210268868
 11
-10.3219508909
 21
-92.5595960986
  0
LINE
  5
29C
100
AcDbEntity
  8
Livello_1
100
AcDbLine
 62
7
  6
CONTINUOUS
 10
-27.0260790087
 20
29.1972962921
 11
-27.291692542
 21
29.3824690742
  0
LINE
  5
29D
100
AcDbEntity
  8
Livello_1
100
AcDbLine
 62
7
  6
CONTINUOUS
 10
-27.29707322
 20
29.982177724
 11
-26.9928897051
 21
29.7692737262
  0
LINE
  5
29E
100
AcDbEntity
  8
Livello_1
100
AcDbLine
 62
7
  6
CONTINUOUS
 10
-38.5312603196
 20
-82.8815674204
 11
-37.3279897848
 21
-83.7382618598
  0
LINE
  5
29F
100
AcDbEntity
  8
Livello_1
100
AcDbLine
 62
7
  6
CONTINUOUS
 10
-29.5356124298
 20
-82.7628736295
 11
-29.2080273939
 21
-82.999226024
  0
LINE
  5
2A0
100
AcDbEntity
  8
Livello_1
100
AcDbLine
 62
7
  6
CONTINUOUS
 10
-26.7614048709
 20
28.9972993553
 11
-27.0260790087
 21
29.1972962921
  0
LINE
  5
2A1
100
AcDbEntity
  8
Livello_1
100
AcDbLine
 62
7
  6
CONTINUOUS
 10
-26.9928897051
 20
29.7692737262
 11
-26.6898022526
 21
29.5393377505
  0
LINE
  5
2A2
100
AcDbEntity
  8
Livello_1
100
AcDbLine
 62
7
  6
CONTINUOUS
 10
-40.4799349322
 20
-81.5825656742
 11
-41.5269289645
 21
-80.783479408
  0
LINE
  5
2A3
100
AcDbEntity
  8
Livello_1
100
AcDbLine
 62
7
  6
CONTINUOUS
 10
-31.4427323132
 20
-85.2793485561
 11
-32.441398828
 21
-84.4913791448
  0
LINE
  5
2A4
100
AcDbEntity
  8
Livello_1
100
AcDbLine
 62
7
  6
CONTINUOUS
 10
-15.2720112816
 20
-88.8699225452
 11
-13.9460419692
 21
-89.9165718026
  0
LINE
  5
2A5
100
AcDbEntity
  8
Livello_1
100
AcDbLine
 62
7
  6
CONTINUOUS
 10
-41.3787927897
 20
-80.9842940369
 11
-40.4576211244
 21
-81.7122778027
  0
LINE
  5
2A6
100
AcDbEntity
  8
Livello_1
100
AcDbLine
 62
7
  6
CONTINUOUS
 10
-26.498189368
 20
28.782484216
 11
-26.7614048709
 21
28.9972993553
  0
LINE
  5
2A7
100
AcDbEntity
  8
Livello_1
100
AcDbLine
 62
7
  6
CONTINUOUS
 10
-30.3429494175
 20
-82.1023352504
 11
-29.5356124298
 21
-82.7628736295
  0
LINE
  5
2A8
100
AcDbEntity
  8
Livello_1
100
AcDbLine
 62
7
  6
CONTINUOUS
 10
-11.7357405694
 20
-91.4153389337
 11
-10.5994213363
 21
-92.3448652372
  0
LINE
  5
2A9
100
AcDbEntity
  8
Livello_1
100
AcDbLine
 62
7
  6
CONTINUOUS
 10
-26.6898022526
 20
29.5393377505
 11
-26.3884110339
 21
29.2923792394
  0
LINE
  5
2AA
100
AcDbEntity
  8
Livello_1
100
AcDbLine
 62
7
  6
CONTINUOUS
 10
-14.2755521519
 20
-89.6359204326
 11
-15.5344943281
 21
-88.5858795768
  0
LINE
  5
2AB
100
AcDbEntity
  8
Livello_1
100
AcDbLine
 62
7
  6
CONTINUOUS
 10
-5.7129059937
 20
-92.8066754477
 11
-4.5691988206
 21
-93.781849912
  0
LINE
  5
2AC
100
AcDbEntity
  8
Livello_1
100
AcDbLine
 62
7
  6
CONTINUOUS
 10
-39.6362978996
 20
-81.9262876546
 11
-38.5312603196
 21
-82.8815674204
  0
LINE
  5
2AD
100
AcDbEntity
  8
Livello_1
100
AcDbLine
 62
7
  6
CONTINUOUS
 10
-26.2369823502
 20
28.5529082336
 11
-26.498189368
 21
28.782484216
  0
LINE
  5
2AE
100
AcDbEntity
  8
Livello_1
100
AcDbLine
 62
7
  6
CONTINUOUS
 10
-11.5131323377
 20
-91.5059852641
 11
-10.3089555274
 21
-92.5666151052
  0
LINE
  5
2AF
100
AcDbEntity
  8
Livello_1
100
AcDbLine
 62
7
  6
CONTINUOUS
 10
-10.3219508909
 20
-92.5595960986
 11
-11.5269201743
 21
-91.4971326025
  0
LINE
  5
2B0
100
AcDbEntity
  8
Livello_1
100
AcDbLine
 62
7
  6
CONTINUOUS
 10
-26.3884110339
 20
29.2923792394
 11
-26.0893515144
 21
29.0284673967
  0
LINE
  5
2B1
100
AcDbEntity
  8
Livello_1
100
AcDbLine
 62
7
  6
CONTINUOUS
 10
-16.4255396704
 20
-87.7954222934
 11
-15.2720112816
 21
-88.8699225452
  0
LINE
  5
2B2
100
AcDbEntity
  8
Livello_1
100
AcDbLine
 62
7
  6
CONTINUOUS
 10
-25.9783598813
 20
28.3086831412
 11
-26.2369823502
 21
28.5529082336
  0
LINE
  5
2B3
100
AcDbEntity
  8
Livello_1
100
AcDbLine
 62
7
  6
CONTINUOUS
 10
-26.0893515144
 20
29.0284673967
 11
-25.7932893245
 21
28.7477345879
  0
LINE
  5
2B4
100
AcDbEntity
  8
Livello_1
100
AcDbLine
 62
7
  6
CONTINUOUS
 10
-32.441398828
 20
-84.4913791448
 11
-33.3805167838
 21
-83.5852201435
  0
LINE
  5
2B5
100
AcDbEntity
  8
Livello_1
100
AcDbLine
 62
7
  6
CONTINUOUS
 10
-31.1094933076
 20
-81.3574687916
 11
-30.3429494175
 21
-82.1023352504
  0
LINE
  5
2B6
100
AcDbEntity
  8
Livello_1
100
AcDbLine
 62
7
  6
CONTINUOUS
 10
-42.2778294115
 20
-80.0995434696
 11
-41.3787927897
 21
-80.9842940369
  0
LINE
  5
2B7
100
AcDbEntity
  8
Livello_1
100
AcDbLine
 62
7
  6
CONTINUOUS
 10
-15.5344943281
 20
-88.5858795768
 11
-16.7782027175
 21
-87.3580490157
  0
LINE
  5
2B8
100
AcDbEntity
  8
Livello_1
100
AcDbLine
 62
7
  6
CONTINUOUS
 10
-41.5269289645
 20
-80.783479408
 11
-42.5411353123
 21
-79.7747678381
  0
LINE
  5
2B9
100
AcDbEntity
  8
Livello_1
100
AcDbLine
 62
7
  6
CONTINUOUS
 10
-12.7947994475
 20
-90.3609379679
 11
-11.7357405694
 21
-91.4153389337
  0
LINE
  5
2BA
100
AcDbEntity
  8
Livello_1
100
AcDbLine
 62
7
  6
CONTINUOUS
 10
-25.7229192656
 20
28.0499769697
 11
-25.9783598813
 21
28.3086831412
  0
LINE
  5
2BB
100
AcDbEntity
  8
Livello_1
100
AcDbLine
 62
7
  6
CONTINUOUS
 10
-25.7932893245
 20
28.7477345879
 11
-25.5009144589
 21
28.4503785284
  0
LINE
  5
2BC
100
AcDbEntity
  8
Livello_1
100
AcDbLine
 62
7
  6
CONTINUOUS
 10
-11.5269201743
 20
-91.4971326025
 11
-12.0185339883
 21
-90.9879977493
  0
LINE
  5
2BD
100
AcDbEntity
  8
Livello_1
100
AcDbLine
 62
7
  6
CONTINUOUS
 10
-6.8408032968
 20
-91.6364445081
 11
-5.7129059937
 21
-92.8066754477
  0
LINE
  5
2BE
100
AcDbEntity
  8
Livello_1
100
AcDbLine
 62
7
  6
CONTINUOUS
 10
-40.6475536599
 20
-80.8707062228
 11
-39.6362978996
 21
-81.9262876546
  0
LINE
  5
2BF
100
AcDbEntity
  8
Livello_1
100
AcDbLine
 62
7
  6
CONTINUOUS
 10
-25.471273604
 20
27.7770148638
 11
-25.7229192656
 21
28.0499769697
  0
LINE
  5
2C0
100
AcDbEntity
  8
Livello_1
100
AcDbLine
 62
7
  6
CONTINUOUS
 10
-25.5009144589
 20
28.4503785284
 11
-25.2129349315
 21
28.1366631752
  0
LINE
  5
2C1
100
AcDbEntity
  8
Livello_1
100
AcDbLine
 62
7
  6
CONTINUOUS
 10
-16.7782027175
 20
-87.3580490157
 11
-17.1486532043
 21
-86.9532392494
  0
LINE
  5
2C2
100
AcDbEntity
  8
Livello_1
100
AcDbLine
 62
7
  6
CONTINUOUS
 10
-12.6587831477
 20
-90.2434146222
 11
-11.5131323377
 21
-91.5059852641
  0
LINE
  5
2C3
100
AcDbEntity
  8
Livello_1
100
AcDbLine
 62
7
  6
CONTINUOUS
 10
-17.4330584503
 20
-86.6770615861
 11
-16.4255396704
 21
-87.7954222934
  0
LINE
  5
2C4
100
AcDbEntity
  8
Livello_1
100
AcDbLine
 62
7
  6
CONTINUOUS
 10
-31.8306174323
 20
-80.5295358169
 11
-31.1094933076
 21
-81.3574687916
  0
LINE
  5
2C5
100
AcDbEntity
  8
Livello_1
100
AcDbLine
 62
7
  6
CONTINUOUS
 10
-25.2240460137
 20
27.4900787589
 11
-25.471273604
 21
27.7770148638
  0
LINE
  5
2C6
100
AcDbEntity
  8
Livello_1
100
AcDbLine
 62
7
  6
CONTINUOUS
 10
-25.2129349315
 20
28.1366631752
 11
-24.9300700437
 21
27.8069182892
  0
LINE
  5
2C7
100
AcDbEntity
  8
Livello_1
100
AcDbLine
 62
7
  6
CONTINUOUS
 10
-33.3805167838
 20
-83.5852201435
 11
-34.2615142836
 21
-82.5549452798
  0
LINE
  5
2C8
100
AcDbEntity
  8
Livello_1
100
AcDbLine
 62
7
  6
CONTINUOUS
 10
-43.1485705018
 20
-79.0508902227
 11
-42.2778294115
 21
-80.0995434696
  0
LINE
  5
2C9
100
AcDbEntity
  8
Livello_1
100
AcDbLine
 62
7
  6
CONTINUOUS
 10
-13.7783738971
 20
-89.1761301083
 11
-12.7947994475
 21
-90.3609379679
  0
LINE
  5
2CA
100
AcDbEntity
  8
Livello_1
100
AcDbLine
 62
7
  6
CONTINUOUS
 10
-24.9818636512
 20
27.189505923
 11
-25.2240460137
 21
27.4900787589
  0
LINE
  5
2CB
100
AcDbEntity
  8
Livello_1
100
AcDbLine
 62
7
  6
CONTINUOUS
 10
-24.9300700437
 20
27.8069182892
 11
-24.6530434311
 21
27.46153767
  0
LINE
  5
2CC
100
AcDbEntity
  8
Livello_1
100
AcDbLine
 62
7
  6
CONTINUOUS
 10
-7.9291685024
 20
-90.2781678839
 11
-6.8408032968
 21
-91.6364445081
  0
LINE
  5
2CD
100
AcDbEntity
  8
Livello_1
100
AcDbLine
 62
7
  6
CONTINUOUS
 10
-41.5678934913
 20
-79.7119266213
 11
-40.6475536599
 21
-80.8707062228
  0
LINE
  5
2CE
100
AcDbEntity
  8
Livello_1
100
AcDbLine
 62
7
  6
CONTINUOUS
 10
-12.9694784029
 20
-89.8503261609
 11
-12.6587831477
 21
-90.2434146222
  0
LINE
  5
2CF
100
AcDbEntity
  8
Livello_1
100
AcDbLine
 62
7
  6
CONTINUOUS
 10
-42.5411353123
 20
-79.7747678381
 11
-43.5096552553
 21
-78.547659115
  0
LINE
  5
2D0
100
AcDbEntity
  8
Livello_1
100
AcDbLine
 62
7
  6
CONTINUOUS
 10
-17.8891094452
 20
-86.0952976121
 11
-17.4330584503
 21
-86.6770615861
  0
LINE
  5
2D1
100
AcDbEntity
  8
Livello_1
100
AcDbLine
 62
7
  6
CONTINUOUS
 10
-24.7453517028
 20
26.8756864038
 11
-24.9818636512
 21
27.189505923
  0
LINE
  5
2D2
100
AcDbEntity
  8
Livello_1
100
AcDbLine
 62
7
  6
CONTINUOUS
 10
-24.6530434311
 20
27.46153767
 11
-24.3825760761
 21
27.1009761237
  0
LINE
  5
2D3
100
AcDbEntity
  8
Livello_1
100
AcDbLine
 62
7
  6
CONTINUOUS
 10
-32.5020185242
 20
-79.6195611951
 11
-31.8306174323
 21
-80.5295358169
  0
LINE
  5
2D4
100
AcDbEntity
  8
Livello_1
100
AcDbLine
 62
7
  6
CONTINUOUS
 10
-25.6216797856
 20
75.0411591336
 11
-24.7858115062
 21
73.9010865822
  0
LINE
  5
2D5
100
AcDbEntity
  8
Livello_1
100
AcDbLine
 62
7
  6
CONTINUOUS
 10
-18.3150249872
 20
-85.4967637813
 11
-17.8891094452
 21
-86.0952976121
  0
LINE
  5
2D6
100
AcDbEntity
  8
Livello_1
100
AcDbLine
 62
7
  6
CONTINUOUS
 10
-34.2615142836
 20
-82.5549452798
 11
-35.0841493123
 21
-81.3935395594
  0
LINE
  5
2D7
100
AcDbEntity
  8
Livello_1
100
AcDbLine
 62
7
  6
CONTINUOUS
 10
-24.5151274909
 20
26.5490594756
 11
-24.7453517028
 21
26.8756864038
  0
LINE
  5
2D8
100
AcDbEntity
  8
Livello_1
100
AcDbLine
 62
7
  6
CONTINUOUS
 10
-24.3825760761
 20
27.1009761237
 11
-24.1193794675
 21
26.7257452624
  0
LINE
  5
2D9
100
AcDbEntity
  8
Livello_1
100
AcDbLine
 62
7
  6
CONTINUOUS
 10
-14.0152097941
 20
-88.3313548309
 11
-12.9694784029
 21
-89.8503261609
  0
LINE
  5
2DA
100
AcDbEntity
  8
Livello_1
100
AcDbLine
 62
7
  6
CONTINUOUS
 10
-23.4884511513
 20
78.4332119935
 11
-22.5771959918
 21
77.1081577897
  0
LINE
  5
2DB
100
AcDbEntity
  8
Livello_1
100
AcDbLine
 62
7
  6
CONTINUOUS
 10
-14.6864144835
 20
-87.8542066121
 11
-13.7783738971
 21
-89.1761301083
  0
LINE
  5
2DC
100
AcDbEntity
  8
Livello_1
100
AcDbLine
 62
7
  6
CONTINUOUS
 10
-43.9812822618
 20
-77.8343192036
 11
-43.1485705018
 21
-79.0508902227
  0
LINE
  5
2DD
100
AcDbEntity
  8
Livello_1
100
AcDbLine
 62
7
  6
CONTINUOUS
 10
-22.8714859033
 20
79.0509121816
 11
-21.7701502989
 21
77.4031035124
  0
LINE
  5
2DE
100
AcDbEntity
  8
Livello_1
100
AcDbLine
 62
7
  6
CONTINUOUS
 10
-8.9518674234
 20
-88.7471869007
 11
-7.9291685024
 21
-90.2781678839
  0
LINE
  5
2DF
100
AcDbEntity
  8
Livello_1
100
AcDbLine
 62
7
  6
CONTINUOUS
 10
-24.2917948601
 20
26.2101092
 11
-24.5151274909
 21
26.5490594756
  0
LINE
  5
2E0
100
AcDbEntity
  8
Livello_1
100
AcDbLine
 62
7
  6
CONTINUOUS
 10
-42.3985292535
 20
-78.4462315825
 11
-41.5678934913
 21
-79.7119266213
  0
LINE
  5
2E1
100
AcDbEntity
  8
Livello_1
100
AcDbLine
 62
7
  6
CONTINUOUS
 10
-24.1193794675
 20
26.7257452624
 11
-23.8641490917
 21
26.3364082803
  0
LINE
  5
2E2
100
AcDbEntity
  8
Livello_1
100
AcDbLine
 62
7
  6
CONTINUOUS
 10
-43.5096552553
 20
-78.547659115
 11
-44.415057786
 21
-77.0978493346
  0
LINE
  5
2E3
100
AcDbEntity
  8
Livello_1
100
AcDbLine
 62
7
  6
CONTINUOUS
 10
-33.1196217547
 20
-78.6283021405
 11
-32.5020185242
 21
-79.6195611951
  0
LINE
  5
2E4
100
AcDbEntity
  8
Livello_1
100
AcDbLine
 62
7
  6
CONTINUOUS
 10
-24.7858115062
 20
73.9010865822
 11
-24.2260680176
 21
72.9918950795
  0
LINE
  5
2E5
100
AcDbEntity
  8
Livello_1
100
AcDbLine
 62
7
  6
CONTINUOUS
 10
-24.0759389735
 20
25.8593592515
 11
-24.2917948601
 21
26.2101092
  0
LINE
  5
2E6
100
AcDbEntity
  8
Livello_1
100
AcDbLine
 62
7
  6
CONTINUOUS
 10
-23.8641490917
 20
26.3364082803
 11
-23.6175584127
 21
25.9335738814
  0
LINE
  5
2E7
100
AcDbEntity
  8
Livello_1
100
AcDbLine
 62
7
  6
CONTINUOUS
 10
-19.0799861619
 20
-84.2457450177
 11
-18.3150249872
 21
-85.4967637813
  0
LINE
  5
2E8
100
AcDbEntity
  8
Livello_1
100
AcDbLine
 62
7
  6
CONTINUOUS
 10
-35.0841493123
 20
-81.3935395594
 11
-35.8464971616
 21
-80.0934280541
  0
LINE
  5
2E9
100
AcDbEntity
  8
Livello_1
100
AcDbLine
 62
7
  6
CONTINUOUS
 10
-23.6175584127
 20
25.9335738814
 11
-23.5408091798
 21
25.8023165831
  0
LINE
  5
2EA
100
AcDbEntity
  8
Livello_1
100
AcDbLine
 62
7
  6
CONTINUOUS
 10
-23.952600978
 20
25.6475999499
 11
-24.0759389735
 21
25.8593592515
  0
LINE
  5
2EB
100
AcDbEntity
  8
Livello_1
100
AcDbLine
 62
7
  6
CONTINUOUS
 10
-22.5771959918
 20
77.1081577897
 11
-21.7465398623
 21
75.6480676768
  0
LINE
  5
2EC
100
AcDbEntity
  8
Livello_1
100
AcDbLine
 62
7
  6
CONTINUOUS
 10
-15.5170283031
 20
-86.3877752011
 11
-14.6864144835
 21
-87.8542066121
  0
LINE
  5
2ED
100
AcDbEntity
  8
Livello_1
100
AcDbLine
 62
7
  6
CONTINUOUS
 10
-18.2528604593
 20
82.275445375
 11
-17.2222907674
 21
80.4520175629
  0
LINE
  5
2EE
100
AcDbEntity
  8
Livello_1
100
AcDbLine
 62
7
  6
CONTINUOUS
 10
-44.7624769403
 20
-76.4516557728
 11
-43.9812822618
 21
-77.8343192036
  0
LINE
  5
2EF
100
AcDbEntity
  8
Livello_1
100
AcDbLine
 62
7
  6
CONTINUOUS
 10
-9.775213958
 20
-87.2780408621
 11
-8.9518674234
 21
-88.7471869007
  0
LINE
  5
2F0
100
AcDbEntity
  8
Livello_1
100
AcDbLine
 62
7
  6
CONTINUOUS
 10
-23.5408091798
 20
25.8023165831
 11
-23.3066698027
 21
25.3828081611
  0
LINE
  5
2F1
100
AcDbEntity
  8
Livello_1
100
AcDbLine
 62
7
  6
CONTINUOUS
 10
-14.9642679399
 20
-86.6167546374
 11
-14.0152097941
 21
-88.3313548309
  0
LINE
  5
2F2
100
AcDbEntity
  8
Livello_1
100
AcDbLine
 62
7
  6
CONTINUOUS
 10
-23.7498569118
 20
25.2794311804
 11
-23.952600978
 21
25.6475999499
  0
LINE
  5
2F3
100
AcDbEntity
  8
Livello_1
100
AcDbLine
 62
7
  6
CONTINUOUS
 10
-21.7701502989
 20
77.4031035124
 11
-20.7899407782
 21
75.6112111009
  0
LINE
  5
2F4
100
AcDbEntity
  8
Livello_1
100
AcDbLine
 62
7
  6
CONTINUOUS
 10
-43.1390100603
 20
-77.069574264
 11
-42.3985292535
 21
-78.4462315825
  0
LINE
  5
2F5
100
AcDbEntity
  8
Livello_1
100
AcDbLine
 62
7
  6
CONTINUOUS
 10
-33.6794923313
 20
-77.5562400331
 11
-33.1196217547
 21
-78.6283021405
  0
LINE
  5
2F6
100
AcDbEntity
  8
Livello_1
100
AcDbLine
 62
7
  6
CONTINUOUS
 10
-23.3066698027
 20
25.3828081611
 11
-23.0827687033
 21
24.9516711527
  0
LINE
  5
2F7
100
AcDbEntity
  8
Livello_1
100
AcDbLine
 62
7
  6
CONTINUOUS
 10
-24.2260680176
 20
72.9918950795
 11
-23.5329870121
 21
71.6394540448
  0
LINE
  5
2F8
100
AcDbEntity
  8
Livello_1
100
AcDbLine
 62
7
  6
CONTINUOUS
 10
-23.5561109645
 20
24.9012388643
 11
-23.7498569118
 21
25.2794311804
  0
LINE
  5
2F9
100
AcDbEntity
  8
Livello_1
100
AcDbLine
 62
7
  6
CONTINUOUS
 10
-19.7408911805
 20
-82.9033488361
 11
-19.0799861619
 21
-84.2457450177
  0
LINE
  5
2FA
100
AcDbEntity
  8
Livello_1
100
AcDbLine
 62
7
  6
CONTINUOUS
 10
-44.415057786
 20
-77.0978493346
 11
-45.2363787443
 21
-75.4279107025
  0
LINE
  5
2FB
100
AcDbEntity
  8
Livello_1
100
AcDbLine
 62
7
  6
CONTINUOUS
 10
-35.8464971616
 20
-80.0934280541
 11
-36.5449817263
 21
-78.6471514367
  0
LINE
  5
2FC
100
AcDbEntity
  8
Livello_1
100
AcDbLine
 62
7
  6
CONTINUOUS
 10
-23.0827687033
 20
24.9516711527
 11
-22.8696406261
 21
24.5096219697
  0
LINE
  5
2FD
100
AcDbEntity
  8
Livello_1
100
AcDbLine
 62
7
  6
CONTINUOUS
 10
-23.3718202994
 20
24.5136442443
 11
-23.5561109645
 21
24.9012388643
  0
LINE
  5
2FE
100
AcDbEntity
  8
Livello_1
100
AcDbLine
 62
7
  6
CONTINUOUS
 10
-17.2222907674
 20
80.4520175629
 11
-16.2853406809
 21
78.4764507411
  0
LINE
  5
2FF
100
AcDbEntity
  8
Livello_1
100
AcDbLine
 62
7
  6
CONTINUOUS
 10
-21.7465398623
 20
75.6480676768
 11
-21.0002309566
 21
74.048762299
  0
LINE
  5
300
100
AcDbEntity
  8
Livello_1
100
AcDbLine
 62
7
  6
CONTINUOUS
 10
-10.6006310738
 20
-85.5012427473
 11
-9.775213958
 21
-87.2780408621
  0
LINE
  5
301
100
AcDbEntity
  8
Livello_1
100
AcDbLine
 62
7
  6
CONTINUOUS
 10
-45.4750121788
 20
-74.9138406517
 11
-44.7624769403
 21
-76.4516557728
  0
LINE
  5
302
100
AcDbEntity
  8
Livello_1
100
AcDbLine
 62
7
  6
CONTINUOUS
 10
-16.2665166303
 20
-84.7693718546
 11
-15.5170283031
 21
-86.3877752011
  0
LINE
  5
303
100
AcDbEntity
  8
Livello_1
100
AcDbLine
 62
7
  6
CONTINUOUS
 10
-22.8696406261
 20
24.5096219697
 11
-22.6677795146
 21
24.0573853317
  0
LINE
  5
304
100
AcDbEntity
  8
Livello_1
100
AcDbLine
 62
7
  6
CONTINUOUS
 10
-23.1974066954
 20
24.1172746696
 11
-23.3718202994
 21
24.5136442443
  0
LINE
  5
305
100
AcDbEntity
  8
Livello_1
100
AcDbLine
 62
7
  6
CONTINUOUS
 10
-20.7899407782
 20
75.6112111009
 11
-19.9377720331
 21
73.6729848419
  0
LINE
  5
306
100
AcDbEntity
  8
Livello_1
100
AcDbLine
 62
7
  6
CONTINUOUS
 10
-15.8022471142
 20
-84.7096028844
 11
-14.9642679399
 21
-86.6167546374
  0
LINE
  5
307
100
AcDbEntity
  8
Livello_1
100
AcDbLine
 62
7
  6
CONTINUOUS
 10
-43.7872865415
 20
-75.5782510129
 11
-43.1390100603
 21
-77.069574264
  0
LINE
  5
308
100
AcDbEntity
  8
Livello_1
100
AcDbLine
 62
7
  6
CONTINUOUS
 10
-34.177758517
 20
-76.4035893795
 11
-33.6794923313
 21
-77.5562400331
  0
LINE
  5
309
100
AcDbEntity
  8
Livello_1
100
AcDbLine
 62
7
  6
CONTINUOUS
 10
-22.6677795146
 20
24.0573853317
 11
-22.4776375304
 21
23.5956875995
  0
LINE
  5
30A
100
AcDbEntity
  8
Livello_1
100
AcDbLine
 62
7
  6
CONTINUOUS
 10
-23.5329870121
 20
71.6394540448
 11
-22.9468896698
 21
70.1957502269
  0
LINE
  5
30B
100
AcDbEntity
  8
Livello_1
100
AcDbLine
 62
7
  6
CONTINUOUS
 10
-23.0332558348
 20
23.7127579483
 11
-23.1974066954
 21
24.1172746696
  0
LINE
  5
30C
100
AcDbEntity
  8
Livello_1
100
AcDbLine
 62
7
  6
CONTINUOUS
 10
-46.5969751166
 20
88.4368667444
 11
-46.5295286752
 21
88.2675476725
  0
LINE
  5
30D
100
AcDbEntity
  8
Livello_1
100
AcDbLine
 62
7
  6
CONTINUOUS
 10
-36.5449817263
 20
-78.6471514367
 11
-37.1744440948
 21
-77.0482673889
  0
LINE
  5
30E
100
AcDbEntity
  8
Livello_1
100
AcDbLine
 62
7
  6
CONTINUOUS
 10
-16.2853406809
 20
78.4764507411
 11
-15.4429446465
 21
76.3353684585
  0
LINE
  5
30F
100
AcDbEntity
  8
Livello_1
100
AcDbLine
 62
7
  6
CONTINUOUS
 10
-20.3077216741
 20
-81.4425942965
 11
-19.7408911805
 21
-82.9033488361
  0
LINE
  5
310
100
AcDbEntity
  8
Livello_1
100
AcDbLine
 62
7
  6
CONTINUOUS
 10
-45.2363787443
 20
-75.4279107025
 11
-45.9506938236
 21
-73.5489118807
  0
LINE
  5
311
100
AcDbEntity
  8
Livello_1
100
AcDbLine
 62
7
  6
CONTINUOUS
 10
-22.4776375304
 20
23.5956875995
 11
-22.2996248469
 21
23.12525063
  0
LINE
  5
312
100
AcDbEntity
  8
Livello_1
100
AcDbLine
 62
7
  6
CONTINUOUS
 10
-21.0002309566
 20
74.048762299
 11
-20.3437277356
 21
72.3083968303
  0
LINE
  5
313
100
AcDbEntity
  8
Livello_1
100
AcDbLine
 62
7
  6
CONTINUOUS
 10
-46.0987435864
 20
-73.2444609309
 11
-45.4750121788
 21
-74.9138406517
  0
LINE
  5
314
100
AcDbEntity
  8
Livello_1
100
AcDbLine
 62
7
  6
CONTINUOUS
 10
-16.9294666277
 20
-82.992234987
 11
-16.2665166303
 21
-84.7693718546
  0
LINE
  5
315
100
AcDbEntity
  8
Livello_1
100
AcDbLine
 62
7
  6
CONTINUOUS
 10
-22.8797172426
 20
23.300717162
 11
-23.0332558348
 21
23.7127579483
  0
LINE
  5
316
100
AcDbEntity
  8
Livello_1
100
AcDbLine
 62
7
  6
CONTINUOUS
 10
-11.2898859105
 20
-83.6464033629
 11
-10.6006310738
 21
-85.5012427473
  0
LINE
  5
317
100
AcDbEntity
  8
Livello_1
100
AcDbLine
 62
7
  6
CONTINUOUS
 10
-46.3599424497
 20
90.1005277336
 11
-46.2692723028
 21
89.8517385186
  0
LINE
  5
318
100
AcDbEntity
  8
Livello_1
100
AcDbLine
 62
7
  6
CONTINUOUS
 10
-34.6105483373
 20
-75.1703184953
 11
-34.177758517
 21
-76.4035893795
  0
LINE
  5
319
100
AcDbEntity
  8
Livello_1
100
AcDbLine
 62
7
  6
CONTINUOUS
 10
-22.2996248469
 20
23.12525063
 11
-22.1341101384
 21
22.646786233
  0
LINE
  5
31A
100
AcDbEntity
  8
Livello_1
100
AcDbLine
 62
7
  6
CONTINUOUS
 10
-44.3398687206
 20
-73.9698572838
 11
-43.7872865415
 21
-75.5782510129
  0
LINE
  5
31B
100
AcDbEntity
  8
Livello_1
100
AcDbLine
 62
7
  6
CONTINUOUS
 10
-19.9377720331
 20
73.6729848419
 11
-19.2206559314
 21
71.5841951526
  0
LINE
  5
31C
100
AcDbEntity
  8
Livello_1
100
AcDbLine
 62
7
  6
CONTINUOUS
 10
-22.737104808
 20
22.8817660067
 11
-22.8797172426
 21
23.300717162
  0
LINE
  5
31D
100
AcDbEntity
  8
Livello_1
100
AcDbLine
 62
7
  6
CONTINUOUS
 10
-16.5155336934
 20
-82.6130670955
 11
-15.8022471142
 21
-84.7096028844
  0
LINE
  5
31E
100
AcDbEntity
  8
Livello_1
100
AcDbLine
 62
7
  6
CONTINUOUS
 10
-15.4429446465
 20
76.3353684585
 11
-14.6973399951
 21
74.0134012964
  0
LINE
  5
31F
100
AcDbEntity
  8
Livello_1
100
AcDbLine
 62
7
  6
CONTINUOUS
 10
-37.1744440948
 20
-77.0482673889
 11
-37.7282480746
 21
-75.2926279853
  0
LINE
  5
320
100
AcDbEntity
  8
Livello_1
100
AcDbLine
 62
7
  6
CONTINUOUS
 10
-22.1341101384
 20
22.646786233
 11
-21.9814216842
 21
22.1609912974
  0
LINE
  5
321
100
AcDbEntity
  8
Livello_1
100
AcDbLine
 62
7
  6
CONTINUOUS
 10
-22.9468896698
 20
70.1957502269
 11
-22.478226738
 21
68.680482991
  0
LINE
  5
322
100
AcDbEntity
  8
Livello_1
100
AcDbLine
 62
7
  6
CONTINUOUS
 10
-22.6056978167
 20
22.4565047077
 11
-22.737104808
 21
22.8817660067
  0
LINE
  5
323
100
AcDbEntity
  8
Livello_1
100
AcDbLine
 62
7
  6
CONTINUOUS
 10
-20.3437277356
 20
72.3083968303
 11
-19.7840391538
 21
70.4297056904
  0
LINE
  5
324
100
AcDbEntity
  8
Livello_1
100
AcDbLine
 62
7
  6
CONTINUOUS
 10
-20.7867327753
 20
-79.8299183389
 11
-20.3077216741
 21
-81.4425942965
  0
LINE
  5
325
100
AcDbEntity
  8
Livello_1
100
AcDbLine
 62
7
  6
CONTINUOUS
 10
-17.4989013309
 20
-81.0513208276
 11
-16.9294666277
 21
-82.992234987
  0
LINE
  5
326
100
AcDbEntity
  8
Livello_1
100
AcDbLine
 62
7
  6
CONTINUOUS
 10
-46.6121079945
 20
-71.4826681538
 11
-46.0987435864
 21
-73.2444609309
  0
LINE
  5
327
100
AcDbEntity
  8
Livello_1
100
AcDbLine
 62
7
  6
CONTINUOUS
 10
-11.8319306063
 20
-81.7435747576
 11
-11.2898859105
 21
-83.6464033629
  0
LINE
  5
328
100
AcDbEntity
  8
Livello_1
100
AcDbLine
 62
7
  6
CONTINUOUS
 10
-45.9506938236
 20
-73.5489118807
 11
-46.5350842611
 21
-71.4808341069
  0
LINE
  5
329
100
AcDbEntity
  8
Livello_1
100
AcDbLine
 62
7
  6
CONTINUOUS
 10
-22.4857424079
 20
22.0255165292
 11
-22.6056978167
 21
22.4565047077
  0
LINE
  5
32A
100
AcDbEntity
  8
Livello_1
100
AcDbLine
 62
7
  6
CONTINUOUS
 10
-34.9739403272
 20
-73.8561772245
 11
-34.6105483373
 21
-75.1703184953
  0
LINE
  5
32B
100
AcDbEntity
  8
Livello_1
100
AcDbLine
 62
7
  6
CONTINUOUS
 10
-44.7921234796
 20
-72.2447358857
 11
-44.3398687206
 21
-73.9698572838
  0
LINE
  5
32C
100
AcDbEntity
  8
Livello_1
100
AcDbLine
 62
7
  6
CONTINUOUS
 10
-14.6973399951
 20
74.0134012964
 11
-14.0519959489
 21
71.4928718903
  0
LINE
  5
32D
100
AcDbEntity
  8
Livello_1
100
AcDbLine
 62
7
  6
CONTINUOUS
 10
-19.2206559314
 20
71.5841951526
 11
-18.646258015
 21
69.3390613294
  0
LINE
  5
32E
100
AcDbEntity
  8
Livello_1
100
AcDbLine
 62
7
  6
CONTINUOUS
 10
-17.091211111
 20
-80.3302162187
 11
-16.5155336934
 21
-82.6130670955
  0
LINE
  5
32F
100
AcDbEntity
  8
Livello_1
100
AcDbLine
 62
7
  6
CONTINUOUS
 10
-22.3769423046
 20
21.5938488294
 11
-22.4857424079
 21
22.0255165292
  0
LINE
  5
330
100
AcDbEntity
  8
Livello_1
100
AcDbLine
 62
7
  6
CONTINUOUS
 10
-37.7282480746
 20
-75.2926279853
 11
-38.1984373917
 21
-73.3803114167
  0
LINE
  5
331
100
AcDbEntity
  8
Livello_1
100
AcDbLine
 62
7
  6
CONTINUOUS
 10
-19.7840391538
 20
70.4297056904
 11
-19.3294265657
 21
68.4239139237
  0
LINE
  5
332
100
AcDbEntity
  8
Livello_1
100
AcDbLine
 62
7
  6
CONTINUOUS
 10
-22.2810595329
 20
21.1619987478
 11
-22.3769423046
 21
21.5938488294
  0
LINE
  5
333
100
AcDbEntity
  8
Livello_1
100
AcDbLine
 62
7
  6
CONTINUOUS
 10
-17.9665058712
 20
-78.9446903823
 11
-17.4989013309
 21
-81.0513208276
  0
LINE
  5
334
100
AcDbEntity
  8
Livello_1
100
AcDbLine
 62
7
  6
CONTINUOUS
 10
-22.478226738
 20
68.680482991
 11
-22.1378844041
 21
67.1353789797
  0
LINE
  5
335
100
AcDbEntity
  8
Livello_1
100
AcDbLine
 62
7
  6
CONTINUOUS
 10
-21.1809194057
 20
-78.0221500593
 11
-20.7867327753
 21
-79.8299183389
  0
LINE
  5
336
100
AcDbEntity
  8
Livello_1
100
AcDbLine
 62
7
  6
CONTINUOUS
 10
-46.9949505178
 20
-69.6838466215
 11
-46.6121079945
 21
-71.4826681538
  0
LINE
  5
337
100
AcDbEntity
  8
Livello_1
100
AcDbLine
 62
7
  6
CONTINUOUS
 10
-35.2639274363
 20
-72.4607279407
 11
-34.9739403272
 21
-73.8561772245
  0
LINE
  5
338
100
AcDbEntity
  8
Livello_1
100
AcDbLine
 62
7
  6
CONTINUOUS
 10
-12.2205043501
 20
-79.8193264183
 11
-11.8319306063
 21
-81.7435747576
  0
LINE
  5
339
100
AcDbEntity
  8
Livello_1
100
AcDbLine
 62
7
  6
CONTINUOUS
 10
-14.0519959489
 20
71.4928718903
 11
-13.5115492971
 21
68.7532683058
  0
LINE
  5
33A
100
AcDbEntity
  8
Livello_1
100
AcDbLine
 62
7
  6
CONTINUOUS
 10
-46.5350842611
 20
-71.4808341069
 11
-46.9686645346
 21
-69.2515836533
  0
LINE
  5
33B
100
AcDbEntity
  8
Livello_1
100
AcDbLine
 62
7
  6
CONTINUOUS
 10
-22.1981397305
 20
20.7305330147
 11
-22.2810595329
 21
21.1619987478
  0
LINE
  5
33C
100
AcDbEntity
  8
Livello_1
100
AcDbLine
 62
7
  6
CONTINUOUS
 10
-45.1388280679
 20
-70.4083694705
 11
-44.7921234796
 21
-72.2447358857
  0
LINE
  5
33D
100
AcDbEntity
  8
Livello_1
100
AcDbLine
 62
7
  6
CONTINUOUS
 10
-38.1984373917
 20
-73.3803114167
 11
-38.5759913524
 21
-71.318736322
  0
LINE
  5
33E
100
AcDbEntity
  8
Livello_1
100
AcDbLine
 62
7
  6
CONTINUOUS
 10
-18.646258015
 20
69.3390613294
 11
-18.2232079767
 21
66.9305952345
  0
LINE
  5
33F
100
AcDbEntity
  8
Livello_1
100
AcDbLine
 62
7
  6
CONTINUOUS
 10
-17.5169385041
 20
-77.8638973294
 11
-17.091211111
 21
-80.3302162187
  0
LINE
  5
340
100
AcDbEntity
  8
Livello_1
100
AcDbLine
 62
7
  6
CONTINUOUS
 10
-47.0356726226
 20
-69.442146444
 11
-46.9949505178
 21
-69.6838466215
  0
LINE
  5
341
100
AcDbEntity
  8
Livello_1
100
AcDbLine
 62
7
  6
CONTINUOUS
 10
-22.1282103753
 20
20.3000425379
 11
-22.1981397305
 21
20.7305330147
  0
LINE
  5
342
100
AcDbEntity
  8
Livello_1
100
AcDbLine
 62
7
  6
CONTINUOUS
 10
-19.3294265657
 20
68.4239139237
 11
-18.9887861301
 21
66.3183622429
  0
LINE
  5
343
100
AcDbEntity
  8
Livello_1
100
AcDbLine
 62
7
  6
CONTINUOUS
 10
-18.322973104
 20
-76.6754745008
 11
-17.9665058712
 21
-78.9446903823
  0
LINE
  5
344
100
AcDbEntity
  8
Livello_1
100
AcDbLine
 62
7
  6
CONTINUOUS
 10
-21.4903184473
 20
-75.9614185564
 11
-21.1809194057
 21
-78.0221500593
  0
LINE
  5
345
100
AcDbEntity
  8
Livello_1
100
AcDbLine
 62
7
  6
CONTINUOUS
 10
-13.5115492971
 20
68.7532683058
 11
-13.0817630226
 21
65.7703830634
  0
LINE
  5
346
100
AcDbEntity
  8
Livello_1
100
AcDbLine
 62
7
  6
CONTINUOUS
 10
-35.4763924547
 20
-70.9833770584
 11
-35.2639274363
 21
-72.4607279407
  0
LINE
  5
347
100
AcDbEntity
  8
Livello_1
100
AcDbLine
 62
7
  6
CONTINUOUS
 10
-22.0712783753
 20
19.871140393
 11
-22.1282103753
 21
20.3000425379
  0
LINE
  5
348
100
AcDbEntity
  8
Livello_1
100
AcDbLine
 62
7
  6
CONTINUOUS
 10
-22.1378844041
 20
67.1353789797
 11
-21.9327661825
 21
65.5862201224
  0
LINE
  5
349
100
AcDbEntity
  8
Livello_1
100
AcDbLine
 62
7
  6
CONTINUOUS
 10
-38.5759913524
 20
-71.318736322
 11
-38.8512984425
 21
-69.1280079855
  0
LINE
  5
34A
100
AcDbEntity
  8
Livello_1
100
AcDbLine
 62
7
  6
CONTINUOUS
 10
-47.250672286
 20
-67.7109589808
 11
-47.0356726226
 21
-69.442146444
  0
LINE
  5
34B
100
AcDbEntity
  8
Livello_1
100
AcDbLine
 62
7
  6
CONTINUOUS
 10
-45.3753098403
 20
-68.4758070317
 11
-45.1388280679
 21
-70.4083694705
  0
LINE
  5
34C
100
AcDbEntity
  8
Livello_1
100
AcDbLine
 62
7
  6
CONTINUOUS
 10
-12.4531999487
 20
-77.8958827387
 11
-12.2205043501
 21
-79.8193264183
  0
LINE
  5
34D
100
AcDbEntity
  8
Livello_1
100
AcDbLine
 62
7
  6
CONTINUOUS
 10
-46.9686645346
 20
-69.2515836533
 11
-47.2283650228
 21
-66.9737129903
  0
LINE
  5
34E
100
AcDbEntity
  8
Livello_1
100
AcDbLine
 62
7
  6
CONTINUOUS
 10
-37.1068675736
 20
26.0966772284
 11
-36.9784757288
 21
26.4747212559
  0
LINE
  5
34F
100
AcDbEntity
  8
Livello_1
100
AcDbLine
 62
7
  6
CONTINUOUS
 10
-34.8672579763
 20
26.8959770748
 11
-35.1723261683
 21
26.0277511436
  0
LINE
  5
350
100
AcDbEntity
  8
Livello_1
100
AcDbLine
 62
7
  6
CONTINUOUS
 10
-36.9784757288
 20
26.4747212559
 11
-36.8396514218
 21
26.8391606508
  0
LINE
  5
351
100
AcDbEntity
  8
Livello_1
100
AcDbLine
 62
7
  6
CONTINUOUS
 10
-36.1524036991
 20
74.9307753029
 11
-36.4576665989
 21
74.3874534343
  0
LINE
  5
352
100
AcDbEntity
  8
Livello_1
100
AcDbLine
 62
7
  6
CONTINUOUS
 10
-37.751257757
 20
75.0223676212
 11
-37.2069997838
 21
75.9403733691
  0
LINE
  5
353
100
AcDbEntity
  8
Livello_1
100
AcDbLine
 62
7
  6
CONTINUOUS
 10
-28.0895095963
 20
29.8496665628
 11
-28.3544158245
 21
29.9763585911
  0
LINE
  5
354
100
AcDbEntity
  8
Livello_1
100
AcDbLine
 62
7
  6
CONTINUOUS
 10
-27.8238355698
 20
29.7085511778
 11
-28.0895095963
 21
29.8496665628
  0
LINE
  5
355
100
AcDbEntity
  8
Livello_1
100
AcDbLine
 62
7
  6
CONTINUOUS
 10
-28.2108134906
 20
30.5193987372
 11
-27.9065295475
 21
30.3571228432
  0
LINE
  5
356
100
AcDbEntity
  8
Livello_1
100
AcDbLine
 62
7
  6
CONTINUOUS
 10
-27.5577605758
 20
29.5528592565
 11
-27.8238355698
 21
29.7085511778
  0
LINE
  5
357
100
AcDbEntity
  8
Livello_1
100
AcDbLine
 62
7
  6
CONTINUOUS
 10
-27.9065295475
 20
30.3571228432
 11
-27.6017922812
 21
30.1780955584
  0
LINE
  5
358
100
AcDbEntity
  8
Livello_1
100
AcDbLine
 62
7
  6
CONTINUOUS
 10
-46.2692723028
 20
89.8517385186
 11
-46.0771413777
 21
89.6447442214
  0
LINE
  5
359
100
AcDbEntity
  8
Livello_1
100
AcDbLine
 62
7
  6
CONTINUOUS
 10
-26.5123112685
 20
76.0351862726
 11
-25.6216797856
 21
75.0411591336
  0
LINE
  5
35A
100
AcDbEntity
  8
Livello_1
100
AcDbLine
 62
7
  6
CONTINUOUS
 10
-24.4783505793
 20
79.6283331768
 11
-23.4884511513
 21
78.4332119935
  0
LINE
  5
35B
100
AcDbEntity
  8
Livello_1
100
AcDbLine
 62
7
  6
CONTINUOUS
 10
-24.0861776453
 20
80.5543654699
 11
-22.8714859033
 21
79.0509121816
  0
LINE
  5
35C
100
AcDbEntity
  8
Livello_1
100
AcDbLine
 62
7
  6
CONTINUOUS
 10
-20.5980134372
 20
85.5103909518
 11
-19.3774837222
 21
83.9582939492
  0
LINE
  5
35D
100
AcDbEntity
  8
Livello_1
100
AcDbLine
 62
7
  6
CONTINUOUS
 10
-19.3774837222
 20
83.9582939492
 11
-18.2528604593
 21
82.275445375
  0
LINE
  5
35E
100
AcDbEntity
  8
Livello_1
100
AcDbLine
 62
7
  6
CONTINUOUS
 10
-36.8396514218
 20
26.8391606508
 11
-36.6909137312
 21
27.1896192366
  0
LINE
  5
35F
100
AcDbEntity
  8
Livello_1
100
AcDbLine
 62
7
  6
CONTINUOUS
 10
-36.6909137312
 20
27.1896192366
 11
-36.5327808646
 21
27.5257905603
  0
LINE
  5
360
100
AcDbEntity
  8
Livello_1
100
AcDbLine
 62
7
  6
CONTINUOUS
 10
-35.8232362318
 20
75.4282049202
 11
-36.1524036991
 21
74.9307753029
  0
LINE
  5
361
100
AcDbEntity
  8
Livello_1
100
AcDbLine
 62
7
  6
CONTINUOUS
 10
-46.2203070052
 20
97.1504889026
 11
-46.103389103
 21
97.2786413102
  0
LINE
  5
362
100
AcDbEntity
  8
Livello_1
100
AcDbLine
 62
7
  6
CONTINUOUS
 10
-28.3544158245
 20
29.9763585911
 11
-28.618229252
 21
30.088805587
  0
LINE
  5
363
100
AcDbEntity
  8
Livello_1
100
AcDbLine
 62
7
  6
CONTINUOUS
 10
-28.8163739466
 20
30.794429003
 11
-28.5142201406
 21
30.6650990665
  0
LINE
  5
364
100
AcDbEntity
  8
Livello_1
100
AcDbLine
 62
7
  6
CONTINUOUS
 10
-28.5142201406
 20
30.6650990665
 11
-28.2108134906
 21
30.5193987372
  0
LINE
  5
365
100
AcDbEntity
  8
Livello_1
100
AcDbLine
 62
7
  6
CONTINUOUS
 10
-27.4377932503
 20
76.8746246582
 11
-26.5123112685
 21
76.0351862726
  0
LINE
  5
366
100
AcDbEntity
  8
Livello_1
100
AcDbLine
 62
7
  6
CONTINUOUS
 10
-25.546759035
 20
80.6985916559
 11
-24.4783505793
 21
79.6283331768
  0
LINE
  5
367
100
AcDbEntity
  8
Livello_1
100
AcDbLine
 62
7
  6
CONTINUOUS
 10
-25.4039825995
 20
81.909961388
 11
-24.0861776453
 21
80.5543654699
  0
LINE
  5
368
100
AcDbEntity
  8
Livello_1
100
AcDbLine
 62
7
  6
CONTINUOUS
 10
-21.9177496659
 20
86.939857858
 11
-20.5980134372
 21
85.5103909518
  0
LINE
  5
369
100
AcDbEntity
  8
Livello_1
100
AcDbLine
 62
7
  6
CONTINUOUS
 10
-34.5023297096
 20
27.6766066473
 11
-34.8672579763
 21
26.8959770748
  0
LINE
  5
36A
100
AcDbEntity
  8
Livello_1
100
AcDbLine
 62
7
  6
CONTINUOUS
 10
-36.5327808646
 20
27.5257905603
 11
-36.3657641097
 21
27.8474361735
  0
LINE
  5
36B
100
AcDbEntity
  8
Livello_1
100
AcDbLine
 62
7
  6
CONTINUOUS
 10
-37.2069997838
 20
75.9403733691
 11
-36.5978289014
 21
76.7254862923
  0
LINE
  5
36C
100
AcDbEntity
  8
Livello_1
100
AcDbLine
 62
7
  6
CONTINUOUS
 10
-35.4725118644
 20
75.8796886798
 11
-35.8232362318
 21
75.4282049202
  0
LINE
  5
36D
100
AcDbEntity
  8
Livello_1
100
AcDbLine
 62
7
  6
CONTINUOUS
 10
-28.8806667019
 20
30.1872044766
 11
-29.1414861277
 21
30.2717641549
  0
LINE
  5
36E
100
AcDbEntity
  8
Livello_1
100
AcDbLine
 62
7
  6
CONTINUOUS
 10
-29.4156621764
 20
31.0048994264
 11
-29.1169477881
 21
30.9076154675
  0
LINE
  5
36F
100
AcDbEntity
  8
Livello_1
100
AcDbLine
 62
7
  6
CONTINUOUS
 10
-28.618229252
 20
30.088805587
 11
-28.8806667019
 21
30.1872044766
  0
LINE
  5
370
100
AcDbEntity
  8
Livello_1
100
AcDbLine
 62
7
  6
CONTINUOUS
 10
-29.1169477881
 20
30.9076154675
 11
-28.8163739466
 21
30.794429003
  0
LINE
  5
371
100
AcDbEntity
  8
Livello_1
100
AcDbLine
 62
7
  6
CONTINUOUS
 10
-28.3799072002
 20
77.5562916591
 11
-27.4377932503
 21
76.8746246582
  0
LINE
  5
372
100
AcDbEntity
  8
Livello_1
100
AcDbLine
 62
7
  6
CONTINUOUS
 10
-46.5295286752
 20
88.2675476725
 11
-46.3104792448
 21
88.1076128228
  0
LINE
  5
373
100
AcDbEntity
  8
Livello_1
100
AcDbLine
 62
7
  6
CONTINUOUS
 10
-26.6953341179
 20
81.6483406411
 11
-25.546759035
 21
80.6985916559
  0
LINE
  5
374
100
AcDbEntity
  8
Livello_1
100
AcDbLine
 62
7
  6
CONTINUOUS
 10
-26.8093831661
 20
83.1099980725
 11
-25.4039825995
 21
81.909961388
  0
LINE
  5
375
100
AcDbEntity
  8
Livello_1
100
AcDbLine
 62
7
  6
CONTINUOUS
 10
-23.3414412463
 20
88.2531023437
 11
-21.9177496659
 21
86.939857858
  0
LINE
  5
376
100
AcDbEntity
  8
Livello_1
100
AcDbLine
 62
7
  6
CONTINUOUS
 10
-36.3657641097
 20
27.8474361735
 11
-36.1903620417
 21
28.1543826562
  0
LINE
  5
377
100
AcDbEntity
  8
Livello_1
100
AcDbLine
 62
7
  6
CONTINUOUS
 10
-34.0857539708
 20
28.3664782897
 11
-34.5023297096
 21
27.6766066473
  0
LINE
  5
378
100
AcDbEntity
  8
Livello_1
100
AcDbLine
 62
7
  6
CONTINUOUS
 10
-36.1903620417
 20
28.1543826562
 11
-36.0070550981
 21
28.4465175006
  0
LINE
  5
379
100
AcDbEntity
  8
Livello_1
100
AcDbLine
 62
7
  6
CONTINUOUS
 10
-35.1022695762
 20
76.2855652165
 11
-35.4725118644
 21
75.8796886798
  0
LINE
  5
37A
100
AcDbEntity
  8
Livello_1
100
AcDbLine
 62
7
  6
CONTINUOUS
 10
-29.1414861277
 20
30.2717641549
 11
-29.4004852801
 21
30.342698896
  0
LINE
  5
37B
100
AcDbEntity
  8
Livello_1
100
AcDbLine
 62
7
  6
CONTINUOUS
 10
-29.7122837137
 20
31.0865282365
 11
-29.4156621764
 21
31.0048994264
  0
LINE
  5
37C
100
AcDbEntity
  8
Livello_1
100
AcDbLine
 62
7
  6
CONTINUOUS
 10
-27.4264790228
 20
76.7796471438
 11
-27.962673233
 21
77.1000459574
  0
LINE
  5
37D
100
AcDbEntity
  8
Livello_1
100
AcDbLine
 62
7
  6
CONTINUOUS
 10
-27.3410578976
 20
76.723791501
 11
-27.4264790228
 21
76.7796471438
  0
LINE
  5
37E
100
AcDbEntity
  8
Livello_1
100
AcDbLine
 62
7
  6
CONTINUOUS
 10
-27.9274477551
 20
82.4807131871
 11
-26.6953341179
 21
81.6483406411
  0
LINE
  5
37F
100
AcDbEntity
  8
Livello_1
100
AcDbLine
 62
7
  6
CONTINUOUS
 10
-28.2765383442
 20
84.1411814893
 11
-26.8093831661
 21
83.1099980725
  0
LINE
  5
380
100
AcDbEntity
  8
Livello_1
100
AcDbLine
 62
7
  6
CONTINUOUS
 10
-24.8752595975
 20
89.4547970246
 11
-23.3414412463
 21
88.2531023437
  0
LINE
  5
381
100
AcDbEntity
  8
Livello_1
100
AcDbLine
 62
7
  6
CONTINUOUS
 10
-36.0070550981
 20
28.4465175006
 11
-35.816300615
 21
28.7237840023
  0
LINE
  5
382
100
AcDbEntity
  8
Livello_1
100
AcDbLine
 62
7
  6
CONTINUOUS
 10
-36.5978289014
 20
76.7254862923
 11
-35.9332121165
 21
77.3795204755
  0
LINE
  5
383
100
AcDbEntity
  8
Livello_1
100
AcDbLine
 62
7
  6
CONTINUOUS
 10
-34.7141948938
 20
76.6464424192
 11
-35.1022695762
 21
76.2855652165
  0
LINE
  5
384
100
AcDbEntity
  8
Livello_1
100
AcDbLine
 62
7
  6
CONTINUOUS
 10
-29.6574997849
 20
30.4002219223
 11
-29.9124007049
 21
30.44453925
  0
LINE
  5
385
100
AcDbEntity
  8
Livello_1
100
AcDbLine
 62
7
  6
CONTINUOUS
 10
-30.2985311626
 20
31.2037972949
 11
-30.0066228713
 21
31.1527481771
  0
LINE
  5
386
100
AcDbEntity
  8
Livello_1
100
AcDbLine
 62
7
  6
CONTINUOUS
 10
-29.4004852801
 20
30.342698896
 11
-29.6574997849
 21
30.4002219223
  0
LINE
  5
387
100
AcDbEntity
  8
Livello_1
100
AcDbLine
 62
7
  6
CONTINUOUS
 10
-30.0066228713
 20
31.1527481771
 11
-29.7122837137
 21
31.0865282365
  0
LINE
  5
388
100
AcDbEntity
  8
Livello_1
100
AcDbLine
 62
7
  6
CONTINUOUS
 10
-27.962673233
 20
77.1000459574
 11
-28.4967922989
 21
77.3687436403
  0
LINE
  5
389
100
AcDbEntity
  8
Livello_1
100
AcDbLine
 62
7
  6
CONTINUOUS
 10
-29.2480595374
 20
83.1972571346
 11
-27.9274477551
 21
82.4807131871
  0
LINE
  5
38A
100
AcDbEntity
  8
Livello_1
100
AcDbLine
 62
7
  6
CONTINUOUS
 10
-29.3234314877
 20
78.0817062003
 11
-28.3799072002
 21
77.5562916591
  0
LINE
  5
38B
100
AcDbEntity
  8
Livello_1
100
AcDbLine
 62
7
  6
CONTINUOUS
 10
-29.7597103719
 20
84.9825897374
 11
-28.2765383442
 21
84.1411814893
  0
LINE
  5
38C
100
AcDbEntity
  8
Livello_1
100
AcDbLine
 62
7
  6
CONTINUOUS
 10
-26.5267470687
 20
90.547859971
 11
-24.8752595975
 21
89.4547970246
  0
LINE
  5
38D
100
AcDbEntity
  8
Livello_1
100
AcDbLine
 62
7
  6
CONTINUOUS
 10
51.5610133739
 20
78.5690837844
 11
51.2664020283
 21
82.3092218513
  0
LINE
  5
38E
100
AcDbEntity
  8
Livello_1
100
AcDbLine
 62
7
  6
CONTINUOUS
 10
51.2748112022
 20
82.2274472563
 11
51.566438184
 21
78.4713622252
  0
LINE
  5
38F
100
AcDbEntity
  8
Livello_1
100
AcDbLine
 62
7
  6
CONTINUOUS
 10
51.7061150876
 20
74.346845946
 11
51.5610133739
 21
78.5690837844
  0
LINE
  5
390
100
AcDbEntity
  8
Livello_1
100
AcDbLine
 62
7
  6
CONTINUOUS
 10
51.566438184
 20
78.4713622252
 11
51.7077482399
 21
74.2297368917
  0
LINE
  5
391
100
AcDbEntity
  8
Livello_1
100
AcDbLine
 62
7
  6
CONTINUOUS
 10
51.7185866954
 20
72.5911365825
 11
51.7061150876
 21
74.346845946
  0
LINE
  5
392
100
AcDbEntity
  8
Livello_1
100
AcDbLine
 62
7
  6
CONTINUOUS
 10
51.7077482399
 20
74.2297368917
 11
51.7185866954
 21
72.5911365825
  0
LINE
  5
393
100
AcDbEntity
  8
Livello_1
100
AcDbLine
 62
7
  6
CONTINUOUS
 10
51.7185866954
 20
72.5911365825
 11
51.7185866954
 21
-56.2627119929
  0
LINE
  5
394
100
AcDbEntity
  8
Livello_1
100
AcDbLine
 62
7
  6
CONTINUOUS
 10
51.6273892693
 20
-59.2906026765
 11
51.7185866954
 21
-56.2627119929
  0
LINE
  5
395
100
AcDbEntity
  8
Livello_1
100
AcDbLine
 62
7
  6
CONTINUOUS
 10
51.7185866954
 20
-56.2627119929
 11
51.6271239389
 21
-59.2949701343
  0
LINE
  5
396
100
AcDbEntity
  8
Livello_1
100
AcDbLine
 62
7
  6
CONTINUOUS
 10
-35.816300615
 20
28.7237840023
 11
-35.6185284154
 21
28.9861753139
  0
LINE
  5
397
100
AcDbEntity
  8
Livello_1
100
AcDbLine
 62
7
  6
CONTINUOUS
 10
-33.6248410153
 20
28.9649293462
 11
-34.0857539708
 21
28.3664782897
  0
LINE
  5
398
100
AcDbEntity
  8
Livello_1
100
AcDbLine
 62
7
  6
CONTINUOUS
 10
-35.6185284154
 20
28.9861753139
 11
-35.4141369982
 21
29.2337278338
  0
LINE
  5
399
100
AcDbEntity
  8
Livello_1
100
AcDbLine
 62
7
  6
CONTINUOUS
 10
-29.9124007049
 20
30.44453925
 11
-30.1650916492
 21
30.4758438972
  0
LINE
  5
39A
100
AcDbEntity
  8
Livello_1
100
AcDbLine
 62
7
  6
CONTINUOUS
 10
-30.5878977919
 20
31.2398986793
 11
-30.2985311626
 21
31.2037972949
  0
LINE
  5
39B
100
AcDbEntity
  8
Livello_1
100
AcDbLine
 62
7
  6
CONTINUOUS
 10
-28.4967922989
 20
77.3687436403
 11
-29.0268085743
 21
77.586870684
  0
LINE
  5
39C
100
AcDbEntity
  8
Livello_1
100
AcDbLine
 62
7
  6
CONTINUOUS
 10
-46.0771413777
 20
89.6447442214
 11
-45.7538711175
 21
89.4946491112
  0
LINE
  5
39D
100
AcDbEntity
  8
Livello_1
100
AcDbLine
 62
7
  6
CONTINUOUS
 10
-28.3047452353
 20
91.5334479331
 11
-26.5267470687
 21
90.547859971
  0
LINE
  5
39E
100
AcDbEntity
  8
Livello_1
100
AcDbLine
 62
7
  6
CONTINUOUS
 10
47.9183596692
 20
95.951419681
 11
46.9077448594
 21
97.9645667616
  0
LINE
  5
39F
100
AcDbEntity
  8
Livello_1
100
AcDbLine
 62
7
  6
CONTINUOUS
 10
46.923217447
 20
97.9366262485
 11
47.9335778179
 21
95.9177899323
  0
LINE
  5
3A0
100
AcDbEntity
  8
Livello_1
100
AcDbLine
 62
7
  6
CONTINUOUS
 10
48.8172614746
 20
93.7444334637
 11
47.9183596692
 21
95.951419681
  0
LINE
  5
3A1
100
AcDbEntity
  8
Livello_1
100
AcDbLine
 62
7
  6
CONTINUOUS
 10
47.9335778179
 20
95.9177899323
 11
48.8319280072
 21
93.7041313961
  0
LINE
  5
3A2
100
AcDbEntity
  8
Livello_1
100
AcDbLine
 62
7
  6
CONTINUOUS
 10
49.6050309713
 20
91.3145410378
 11
48.8172614746
 21
93.7444334637
  0
LINE
  5
3A3
100
AcDbEntity
  8
Livello_1
100
AcDbLine
 62
7
  6
CONTINUOUS
 10
48.8319280072
 20
93.7041313961
 11
49.6188054531
 21
91.2663772084
  0
LINE
  5
3A4
100
AcDbEntity
  8
Livello_1
100
AcDbLine
 62
7
  6
CONTINUOUS
 10
50.2794875441
 20
88.6273561988
 11
49.6050309713
 21
91.3145410378
  0
LINE
  5
3A5
100
AcDbEntity
  8
Livello_1
100
AcDbLine
 62
7
  6
CONTINUOUS
 10
49.6188054531
 20
91.2663772084
 11
50.2919723856
 21
88.5698870801
  0
LINE
  5
3A6
100
AcDbEntity
  8
Livello_1
100
AcDbLine
 62
7
  6
CONTINUOUS
 10
50.8357834373
 20
85.6419742619
 11
50.2794875441
 21
88.6273561988
  0
LINE
  5
3A7
100
AcDbEntity
  8
Livello_1
100
AcDbLine
 62
7
  6
CONTINUOUS
 10
50.2919723856
 20
88.5698870801
 11
50.8465093367
 21
85.5734377465
  0
LINE
  5
3A8
100
AcDbEntity
  8
Livello_1
100
AcDbLine
 62
7
  6
CONTINUOUS
 10
51.2664020283
 20
82.3092218513
 11
50.8357834373
 21
85.6419742619
  0
LINE
  5
3A9
100
AcDbEntity
  8
Livello_1
100
AcDbLine
 62
7
  6
CONTINUOUS
 10
50.8465093367
 20
85.5734377465
 11
51.2748112022
 21
82.2274472563
  0
LINE
  5
3AA
100
AcDbEntity
  8
Livello_1
100
AcDbLine
 62
7
  6
CONTINUOUS
 10
-35.4141369982
 20
29.2337278338
 11
-35.2034903758
 21
29.4665140889
  0
LINE
  5
3AB
100
AcDbEntity
  8
Livello_1
100
AcDbLine
 62
7
  6
CONTINUOUS
 10
-34.309594816
 20
76.963069657
 11
-34.7141948938
 21
76.6464424192
  0
LINE
  5
3AC
100
AcDbEntity
  8
Livello_1
100
AcDbLine
 62
7
  6
CONTINUOUS
 10
-35.9332121165
 20
77.3795204755
 11
-35.2196702767
 21
77.9058452572
  0
LINE
  5
3AD
100
AcDbEntity
  8
Livello_1
100
AcDbLine
 62
7
  6
CONTINUOUS
 10
-45.7449055069
 20
97.4683055136
 11
-46.1040938083
 21
97.2780511189
  0
LINE
  5
3AE
100
AcDbEntity
  8
Livello_1
100
AcDbLine
 62
7
  6
CONTINUOUS
 10
-46.103389103
 20
97.2786413102
 11
-45.7428891737
 21
97.4690357714
  0
LINE
  5
3AF
100
AcDbEntity
  8
Livello_1
100
AcDbLine
 62
7
  6
CONTINUOUS
 10
-30.1650916492
 20
30.4758438972
 11
-30.415505493
 21
30.4943105428
  0
LINE
  5
3B0
100
AcDbEntity
  8
Livello_1
100
AcDbLine
 62
7
  6
CONTINUOUS
 10
-30.8746458516
 20
31.2612542566
 11
-30.5878977919
 21
31.2398986793
  0
LINE
  5
3B1
100
AcDbEntity
  8
Livello_1
100
AcDbLine
 62
7
  6
CONTINUOUS
 10
-46.3104792448
 20
88.1076128228
 11
-45.8626970573
 21
87.9391514532
  0
LINE
  5
3B2
100
AcDbEntity
  8
Livello_1
100
AcDbLine
 62
7
  6
CONTINUOUS
 10
-30.2568913094
 20
78.455725527
 11
-29.3234314877
 21
78.0817062003
  0
LINE
  5
3B3
100
AcDbEntity
  8
Livello_1
100
AcDbLine
 62
7
  6
CONTINUOUS
 10
-30.6635509643
 20
83.7976867297
 11
-29.2480595374
 21
83.1972571346
  0
LINE
  5
3B4
100
AcDbEntity
  8
Livello_1
100
AcDbLine
 62
7
  6
CONTINUOUS
 10
-31.1743984311
 20
85.6030694497
 11
-29.7597103719
 21
84.9825897374
  0
LINE
  5
3B5
100
AcDbEntity
  8
Livello_1
100
AcDbLine
 62
7
  6
CONTINUOUS
 10
-30.2162541854
 20
92.4097023104
 11
-28.3047452353
 21
91.5334479331
  0
LINE
  5
3B6
100
AcDbEntity
  8
Livello_1
100
AcDbLine
 62
7
  6
CONTINUOUS
 10
44.5342656693
 20
101.5036668218
 11
43.8614412206
 21
102.3013819912
  0
LINE
  5
3B7
100
AcDbEntity
  8
Livello_1
100
AcDbLine
 62
7
  6
CONTINUOUS
 10
43.8764128002
 20
102.284394744
 11
44.5494561812
 21
101.4848051177
  0
LINE
  5
3B8
100
AcDbEntity
  8
Livello_1
100
AcDbLine
 62
7
  6
CONTINUOUS
 10
45.781918107
 20
99.8084418469
 11
44.5342656693
 21
101.5036668218
  0
LINE
  5
3B9
100
AcDbEntity
  8
Livello_1
100
AcDbLine
 62
7
  6
CONTINUOUS
 10
44.5494561812
 20
101.4848051177
 11
45.7973769283
 21
99.7853772237
  0
LINE
  5
3BA
100
AcDbEntity
  8
Livello_1
100
AcDbLine
 62
7
  6
CONTINUOUS
 10
46.9077448594
 20
97.9645667616
 11
45.781918107
 21
99.8084418469
  0
LINE
  5
3BB
100
AcDbEntity
  8
Livello_1
100
AcDbLine
 62
7
  6
CONTINUOUS
 10
45.7973769283
 20
99.7853772237
 11
46.923217447
 21
97.9366262485
  0
LINE
  5
3BC
100
AcDbEntity
  8
Livello_1
100
AcDbLine
 62
7
  6
CONTINUOUS
 10
51.3565600669
 20
-62.2462707459
 11
51.6273892693
 21
-59.2906026765
  0
LINE
  5
3BD
100
AcDbEntity
  8
Livello_1
100
AcDbLine
 62
7
  6
CONTINUOUS
 10
51.6271239389
 20
-59.2949701343
 11
51.3555113031
 21
-62.2547790706
  0
LINE
  5
3BE
100
AcDbEntity
  8
Livello_1
100
AcDbLine
 62
7
  6
CONTINUOUS
 10
-33.1255324886
 20
29.4730930023
 11
-33.6248410153
 21
28.9649293462
  0
LINE
  5
3BF
100
AcDbEntity
  8
Livello_1
100
AcDbLine
 62
7
  6
CONTINUOUS
 10
-35.2034903758
 20
29.4665140889
 11
-34.9869155892
 21
29.6846352868
  0
LINE
  5
3C0
100
AcDbEntity
  8
Livello_1
100
AcDbLine
 62
7
  6
CONTINUOUS
 10
-33.8893921579
 20
77.2362123097
 11
-34.309594816
 21
76.963069657
  0
LINE
  5
3C1
100
AcDbEntity
  8
Livello_1
100
AcDbLine
 62
7
  6
CONTINUOUS
 10
-30.415505493
 20
30.4943105428
 11
-30.6636007922
 21
30.5000907053
  0
LINE
  5
3C2
100
AcDbEntity
  8
Livello_1
100
AcDbLine
 62
7
  6
CONTINUOUS
 10
-31.1587281632
 20
31.2680391885
 11
-30.8746458516
 21
31.2612542566
  0
LINE
  5
3C3
100
AcDbEntity
  8
Livello_1
100
AcDbLine
 62
7
  6
CONTINUOUS
 10
-45.8626970573
 20
87.9391514532
 11
-45.8405903856
 21
87.9325460206
  0
LINE
  5
3C4
100
AcDbEntity
  8
Livello_1
100
AcDbLine
 62
7
  6
CONTINUOUS
 10
-32.1815347567
 20
84.2797377213
 11
-30.6635509643
 21
83.7976867297
  0
LINE
  5
3C5
100
AcDbEntity
  8
Livello_1
100
AcDbLine
 62
7
  6
CONTINUOUS
 10
-32.0761226677
 20
85.8925234064
 11
-31.1743984311
 21
85.6030694497
  0
LINE
  5
3C6
100
AcDbEntity
  8
Livello_1
100
AcDbLine
 62
7
  6
CONTINUOUS
 10
-29.0268085743
 20
77.586870684
 11
-29.5511548284
 21
77.7557382316
  0
LINE
  5
3C7
100
AcDbEntity
  8
Livello_1
100
AcDbLine
 62
7
  6
CONTINUOUS
 10
-32.2687017793
 20
93.1738183187
 11
-30.2162541854
 21
92.4097023104
  0
LINE
  5
3C8
100
AcDbEntity
  8
Livello_1
100
AcDbLine
 62
7
  6
CONTINUOUS
 10
43.1548350176
 20
103.0672935817
 11
41.6384994031
 21
104.5057594889
  0
LINE
  5
3C9
100
AcDbEntity
  8
Livello_1
100
AcDbLine
 62
7
  6
CONTINUOUS
 10
41.6522776618
 20
104.493785291
 11
43.1694996575
 21
103.0520774784
  0
LINE
  5
3CA
100
AcDbEntity
  8
Livello_1
100
AcDbLine
 62
7
  6
CONTINUOUS
 10
43.8614412206
 20
102.3013819912
 11
43.1548350176
 21
103.0672935817
  0
LINE
  5
3CB
100
AcDbEntity
  8
Livello_1
100
AcDbLine
 62
7
  6
CONTINUOUS
 10
43.1694996575
 20
103.0520774784
 11
43.8764128002
 21
102.284394744
  0
LINE
  5
3CC
100
AcDbEntity
  8
Livello_1
100
AcDbLine
 62
7
  6
CONTINUOUS
 10
50.9109021364
 20
-65.1178052204
 11
51.3565600669
 21
-62.2462707459
  0
LINE
  5
3CD
100
AcDbEntity
  8
Livello_1
100
AcDbLine
 62
7
  6
CONTINUOUS
 10
51.3555113031
 20
-62.2547790706
 11
50.9085747373
 21
-65.1301737958
  0
LINE
  5
3CE
100
AcDbEntity
  8
Livello_1
100
AcDbLine
 62
7
  6
CONTINUOUS
 10
-34.9869155892
 20
29.6846352868
 11
-34.7647009014
 21
29.8882136801
  0
LINE
  5
3CF
100
AcDbEntity
  8
Livello_1
100
AcDbLine
 62
7
  6
CONTINUOUS
 10
-35.2196702767
 20
77.9058452572
 11
-34.4606724811
 21
78.307733084
  0
LINE
  5
3D0
100
AcDbEntity
  8
Livello_1
100
AcDbLine
 62
7
  6
CONTINUOUS
 10
-30.6636007922
 20
30.5000907053
 11
-30.9093579533
 21
30.4933084987
  0
LINE
  5
3D1
100
AcDbEntity
  8
Livello_1
100
AcDbLine
 62
7
  6
CONTINUOUS
 10
-31.4401228344
 20
31.2603969458
 11
-31.1587281632
 21
31.2680391885
  0
LINE
  5
3D2
100
AcDbEntity
  8
Livello_1
100
AcDbLine
 62
7
  6
CONTINUOUS
 10
-29.5511548284
 20
77.7557382316
 11
-30.068700902
 21
77.8767098231
  0
LINE
  5
3D3
100
AcDbEntity
  8
Livello_1
100
AcDbLine
 62
7
  6
CONTINUOUS
 10
-31.1727005994
 20
78.684803226
 11
-30.2568913094
 21
78.455725527
  0
LINE
  5
3D4
100
AcDbEntity
  8
Livello_1
100
AcDbLine
 62
7
  6
CONTINUOUS
 10
-45.7538711175
 20
89.4946491112
 11
-43.4338238081
 21
88.8903821411
  0
LINE
  5
3D5
100
AcDbEntity
  8
Livello_1
100
AcDbLine
 62
7
  6
CONTINUOUS
 10
-43.4338238081
 20
88.8903821411
 11
-32.0761226677
 21
85.8925234064
  0
LINE
  5
3D6
100
AcDbEntity
  8
Livello_1
100
AcDbLine
 62
7
  6
CONTINUOUS
 10
-43.738600465
 20
87.3666190299
 11
-42.8602009821
 21
87.1324409036
  0
LINE
  5
3D7
100
AcDbEntity
  8
Livello_1
100
AcDbLine
 62
7
  6
CONTINUOUS
 10
-42.8602009821
 20
87.1324409036
 11
-32.1815347567
 21
84.2797377213
  0
LINE
  5
3D8
100
AcDbEntity
  8
Livello_1
100
AcDbLine
 62
7
  6
CONTINUOUS
 10
-45.8405903856
 20
87.9325460206
 11
-43.738600465
 21
87.3666190299
  0
LINE
  5
3D9
100
AcDbEntity
  8
Livello_1
100
AcDbLine
 62
7
  6
CONTINUOUS
 10
-47.2180777887
 20
90.6048484574
 11
-46.3975207994
 21
90.3714772706
  0
LINE
  5
3DA
100
AcDbEntity
  8
Livello_1
100
AcDbLine
 62
7
  6
CONTINUOUS
 10
-34.4736213781
 20
93.8230968668
 11
-32.2687017793
 21
93.1738183187
  0
LINE
  5
3DB
100
AcDbEntity
  8
Livello_1
100
AcDbLine
 62
7
  6
CONTINUOUS
 10
41.6384994031
 20
104.5057594889
 11
39.9727354351
 21
105.8297089985
  0
LINE
  5
3DC
100
AcDbEntity
  8
Livello_1
100
AcDbLine
 62
7
  6
CONTINUOUS
 10
39.9853369266
 20
105.820536585
 11
41.6522776618
 21
104.493785291
  0
LINE
  5
3DD
100
AcDbEntity
  8
Livello_1
100
AcDbLine
 62
7
  6
CONTINUOUS
 10
50.2962857825
 20
-67.8922883258
 11
50.9109021364
 21
-65.1178052204
  0
LINE
  5
3DE
100
AcDbEntity
  8
Livello_1
100
AcDbLine
 62
7
  6
CONTINUOUS
 10
50.9085747373
 20
-65.1301737958
 11
50.2922142377
 21
-67.9081769442
  0
LINE
  5
3DF
100
AcDbEntity
  8
Livello_1
100
AcDbLine
 62
7
  6
CONTINUOUS
 10
-34.7647009014
 20
29.8882136801
 11
-34.5370946846
 21
30.0773849093
  0
LINE
  5
3E0
100
AcDbEntity
  8
Livello_1
100
AcDbLine
 62
7
  6
CONTINUOUS
 10
-32.5921224308
 20
29.8930628209
 11
-33.1255324886
 21
29.4730930023
  0
LINE
  5
3E1
100
AcDbEntity
  8
Livello_1
100
AcDbLine
 62
7
  6
CONTINUOUS
 10
-33.4541381675
 20
77.4665346933
 11
-33.8893921579
 21
77.2362123097
  0
LINE
  5
3E2
100
AcDbEntity
  8
Livello_1
100
AcDbLine
 62
7
  6
CONTINUOUS
 10
-45.5357239795
 20
97.5360305256
 11
-45.7449055069
 21
97.4683055136
  0
LINE
  5
3E3
100
AcDbEntity
  8
Livello_1
100
AcDbLine
 62
7
  6
CONTINUOUS
 10
-31.1527752423
 20
30.4740570064
 11
-31.3938647021
 21
30.4423953061
  0
LINE
  5
3E4
100
AcDbEntity
  8
Livello_1
100
AcDbLine
 62
7
  6
CONTINUOUS
 10
-30.9093579533
 20
30.4933084987
 11
-31.1527752423
 21
30.4740570064
  0
LINE
  5
3E5
100
AcDbEntity
  8
Livello_1
100
AcDbLine
 62
7
  6
CONTINUOUS
 10
-31.7188286315
 20
31.2384350948
 11
-31.4401228344
 21
31.2603969458
  0
LINE
  5
3E6
100
AcDbEntity
  8
Livello_1
100
AcDbLine
 62
7
  6
CONTINUOUS
 10
-30.068700902
 20
77.8767098231
 11
-30.5787114586
 21
77.9510791717
  0
LINE
  5
3E7
100
AcDbEntity
  8
Livello_1
100
AcDbLine
 62
7
  6
CONTINUOUS
 10
-45.6372818786
 20
96.7098849611
 11
-40.6682261675
 21
95.4245805261
  0
LINE
  5
3E8
100
AcDbEntity
  8
Livello_1
100
AcDbLine
 62
7
  6
CONTINUOUS
 10
-40.6682261675
 20
95.4245805261
 11
-34.4736213781
 21
93.8230968668
  0
LINE
  5
3E9
100
AcDbEntity
  8
Livello_1
100
AcDbLine
 62
7
  6
CONTINUOUS
 10
38.1396029571
 20
107.0488376811
 11
36.1171693586
 21
108.17000378
  0
LINE
  5
3EA
100
AcDbEntity
  8
Livello_1
100
AcDbLine
 62
7
  6
CONTINUOUS
 10
36.1263428346
 20
108.1653673718
 11
38.1506915297
 21
107.0420947568
  0
LINE
  5
3EB
100
AcDbEntity
  8
Livello_1
100
AcDbLine
 62
7
  6
CONTINUOUS
 10
39.9727354351
 20
105.8297089985
 11
38.1396029571
 21
107.0488376811
  0
LINE
  5
3EC
100
AcDbEntity
  8
Livello_1
100
AcDbLine
 62
7
  6
CONTINUOUS
 10
38.1506915297
 20
107.0420947568
 11
39.9853369266
 21
105.820536585
  0
LINE
  5
3ED
100
AcDbEntity
  8
Livello_1
100
AcDbLine
 62
7
  6
CONTINUOUS
 10
49.5198768345
 20
-70.5559597864
 11
50.2962857825
 21
-67.8922883258
  0
LINE
  5
3EE
100
AcDbEntity
  8
Livello_1
100
AcDbLine
 62
7
  6
CONTINUOUS
 10
50.2922142377
 20
-67.9081769442
 11
49.5136337158
 21
-70.5749645908
  0
LINE
  5
3EF
100
AcDbEntity
  8
Livello_1
100
AcDbLine
 62
7
  6
CONTINUOUS
 10
-34.5370946846
 20
30.0773849093
 11
-34.3043049739
 21
30.2522904428
  0
LINE
  5
3F0
100
AcDbEntity
  8
Livello_1
100
AcDbLine
 62
7
  6
CONTINUOUS
 10
-34.3043049739
 20
30.2522904428
 11
-34.0664996766
 21
30.4130702505
  0
LINE
  5
3F1
100
AcDbEntity
  8
Livello_1
100
AcDbLine
 62
7
  6
CONTINUOUS
 10
-33.0040415028
 20
77.654496485
 11
-33.4541381675
 21
77.4665346933
  0
LINE
  5
3F2
100
AcDbEntity
  8
Livello_1
100
AcDbLine
 62
7
  6
CONTINUOUS
 10
-46.3148484301
 20
90.9097148635
 11
-47.3196356878
 21
90.6048484574
  0
LINE
  5
3F3
100
AcDbEntity
  8
Livello_1
100
AcDbLine
 62
7
  6
CONTINUOUS
 10
-31.3938647021
 20
30.4423953061
 11
-31.6326480581
 21
30.3983461622
  0
LINE
  5
3F4
100
AcDbEntity
  8
Livello_1
100
AcDbLine
 62
7
  6
CONTINUOUS
 10
-31.9948602422
 20
31.2022218502
 11
-31.7188286315
 21
31.2384350948
  0
LINE
  5
3F5
100
AcDbEntity
  8
Livello_1
100
AcDbLine
 62
7
  6
CONTINUOUS
 10
-31.9748156646
 20
78.7716149527
 11
-31.1727005994
 21
78.684803226
  0
LINE
  5
3F6
100
AcDbEntity
  8
Livello_1
100
AcDbLine
 62
7
  6
CONTINUOUS
 10
36.1171693586
 20
108.17000378
 11
33.8790581022
 21
109.197470514
  0
LINE
  5
3F7
100
AcDbEntity
  8
Livello_1
100
AcDbLine
 62
7
  6
CONTINUOUS
 10
33.8858260854
 20
109.1946503556
 11
36.1263428346
 21
108.1653673718
  0
LINE
  5
3F8
100
AcDbEntity
  8
Livello_1
100
AcDbLine
 62
7
  6
CONTINUOUS
 10
48.5903327551
 20
-73.094484866
 11
49.5198768345
 21
-70.5559597864
  0
LINE
  5
3F9
100
AcDbEntity
  8
Livello_1
100
AcDbLine
 62
7
  6
CONTINUOUS
 10
49.5136337158
 20
-70.5749645908
 11
48.5815383133
 21
-73.1161367481
  0
LINE
  5
3FA
100
AcDbEntity
  8
Livello_1
100
AcDbLine
 62
7
  6
CONTINUOUS
 10
-34.0664996766
 20
30.4130702505
 11
-33.8238073979
 21
30.5598558207
  0
LINE
  5
3FB
100
AcDbEntity
  8
Livello_1
100
AcDbLine
 62
7
  6
CONTINUOUS
 10
-34.4606724811
 20
78.307733084
 11
-33.6569185783
 21
78.5869068074
  0
LINE
  5
3FC
100
AcDbEntity
  8
Livello_1
100
AcDbLine
 62
7
  6
CONTINUOUS
 10
-32.5390108524
 20
31.0871019607
 11
-32.2682435302
 21
31.1517833908
  0
LINE
  5
3FD
100
AcDbEntity
  8
Livello_1
100
AcDbLine
 62
7
  6
CONTINUOUS
 10
-31.6326480581
 20
30.3983461622
 11
-31.8691526802
 21
30.3418943797
  0
LINE
  5
3FE
100
AcDbEntity
  8
Livello_1
100
AcDbLine
 62
7
  6
CONTINUOUS
 10
-32.2682435302
 20
31.1517833908
 11
-31.9948602422
 21
31.2022218502
  0
LINE
  5
3FF
100
AcDbEntity
  8
Livello_1
100
AcDbLine
 62
7
  6
CONTINUOUS
 10
-30.5787114586
 20
77.9510791717
 11
-31.0807885369
 21
77.9799597731
  0
LINE
  5
400
100
AcDbEntity
  8
Livello_1
100
AcDbLine
 62
7
  6
CONTINUOUS
 10
33.8790581022
 20
109.197470514
 11
31.3937739001
 21
110.1331366259
  0
LINE
  5
401
100
AcDbEntity
  8
Livello_1
100
AcDbLine
 62
7
  6
CONTINUOUS
 10
31.3975322868
 20
110.1318603496
 11
33.8858260854
 21
109.1946503556
  0
LINE
  5
402
100
AcDbEntity
  8
Livello_1
100
AcDbLine
 62
7
  6
CONTINUOUS
 10
-32.0271744587
 20
30.2270395266
 11
-32.5921224308
 21
29.8930628209
  0
LINE
  5
403
100
AcDbEntity
  8
Livello_1
100
AcDbLine
 62
7
  6
CONTINUOUS
 10
-33.8238073979
 20
30.5598558207
 11
-33.5763188491
 21
30.6927636203
  0
LINE
  5
404
100
AcDbEntity
  8
Livello_1
100
AcDbLine
 62
7
  6
CONTINUOUS
 10
-32.5390108524
 20
77.8002666873
 11
-33.0040415028
 21
77.654496485
  0
LINE
  5
405
100
AcDbEntity
  8
Livello_1
100
AcDbLine
 62
7
  6
CONTINUOUS
 10
-32.8286876494
 20
78.7430581428
 11
-31.9748156646
 21
78.7716149527
  0
LINE
  5
406
100
AcDbEntity
  8
Livello_1
100
AcDbLine
 62
7
  6
CONTINUOUS
 10
-31.0807885369
 20
77.9799597731
 11
-31.5748028299
 21
77.9641908988
  0
LINE
  5
407
100
AcDbEntity
  8
Livello_1
100
AcDbLine
 62
7
  6
CONTINUOUS
 10
22.4735882714
 20
112.5811025388
 11
18.9693440043
 21
113.436490182
  0
LINE
  5
408
100
AcDbEntity
  8
Livello_1
100
AcDbLine
 62
7
  6
CONTINUOUS
 10
18.9693440043
 20
113.436490182
 11
22.4662155308
 21
112.5829494935
  0
LINE
  5
409
100
AcDbEntity
  8
Livello_1
100
AcDbLine
 62
7
  6
CONTINUOUS
 10
28.6237038135
 20
110.9767463081
 11
22.4735882714
 21
112.5811025388
  0
LINE
  5
40A
100
AcDbEntity
  8
Livello_1
100
AcDbLine
 62
7
  6
CONTINUOUS
 10
22.4662155308
 20
112.5829494935
 11
28.6237038135
 21
110.9767463081
  0
LINE
  5
40B
100
AcDbEntity
  8
Livello_1
100
AcDbLine
 62
7
  6
CONTINUOUS
 10
28.6237038135
 20
110.9767463081
 11
31.3975322868
 21
110.1318603496
  0
LINE
  5
40C
100
AcDbEntity
  8
Livello_1
100
AcDbLine
 62
7
  6
CONTINUOUS
 10
31.3937739001
 20
110.1331366259
 11
28.6237038135
 21
110.9767463081
  0
LINE
  5
40D
100
AcDbEntity
  8
Livello_1
100
AcDbLine
 62
7
  6
CONTINUOUS
 10
47.5179354807
 20
-75.4933332487
 11
48.5903327551
 21
-73.094484866
  0
LINE
  5
40E
100
AcDbEntity
  8
Livello_1
100
AcDbLine
 62
7
  6
CONTINUOUS
 10
48.5815383133
 20
-73.1161367481
 11
47.5062677186
 21
-75.5170996698
  0
LINE
  5
40F
100
AcDbEntity
  8
Livello_1
100
AcDbLine
 62
7
  6
CONTINUOUS
 10
-33.5763188491
 20
30.6927636203
 11
-33.3240887815
 21
30.8118890928
  0
LINE
  5
410
100
AcDbEntity
  8
Livello_1
100
AcDbLine
 62
7
  6
CONTINUOUS
 10
18.0100337919
 20
113.5766092073
 11
18.9693440043
 21
113.436490182
  0
LINE
  5
411
100
AcDbEntity
  8
Livello_1
100
AcDbLine
 62
7
  6
CONTINUOUS
 10
47.5062677186
 20
-75.5170996698
 11
47.1598253274
 21
-76.2034461098
  0
LINE
  5
412
100
AcDbEntity
  8
Livello_1
100
AcDbLine
 62
7
  6
CONTINUOUS
 10
47.1443651282
 20
-76.2332361114
 11
47.5179354807
 21
-75.4933332487
  0
LINE
  5
413
100
AcDbEntity
  8
Livello_1
100
AcDbLine
 62
7
  6
CONTINUOUS
 10
47.1598253274
 20
-76.2034461098
 11
45.9203823729
 21
-78.3954657185
  0
LINE
  5
414
100
AcDbEntity
  8
Livello_1
100
AcDbLine
 62
7
  6
CONTINUOUS
 10
45.9052931501
 20
-78.4199512458
 11
47.1443651282
 21
-76.2332361114
  0
LINE
  5
415
100
AcDbEntity
  8
Livello_1
100
AcDbLine
 62
7
  6
CONTINUOUS
 10
-33.3240887815
 20
30.8118890928
 11
-33.067138393
 21
30.9173012564
  0
LINE
  5
416
100
AcDbEntity
  8
Livello_1
100
AcDbLine
 62
7
  6
CONTINUOUS
 10
-31.5748028299
 20
77.9641908988
 11
-32.0608177984
 21
77.9042633034
  0
LINE
  5
417
100
AcDbEntity
  8
Livello_1
100
AcDbLine
 62
7
  6
CONTINUOUS
 10
-33.067138393
 20
30.9173012564
 11
-32.8054581357
 21
31.0090379789
  0
LINE
  5
418
100
AcDbEntity
  8
Livello_1
100
AcDbLine
 62
7
  6
CONTINUOUS
 10
-33.6569185783
 20
78.5869068074
 11
-32.8286876494
 21
78.7430581428
  0
LINE
  5
419
100
AcDbEntity
  8
Livello_1
100
AcDbLine
 62
7
  6
CONTINUOUS
 10
18.0115690926
 20
113.5764872545
 11
16.8001015666
 21
113.5932661679
  0
LINE
  5
41A
100
AcDbEntity
  8
Livello_1
100
AcDbLine
 62
7
  6
CONTINUOUS
 10
16.8014101799
 20
113.5933401465
 11
18.0100337919
 21
113.5766092073
  0
LINE
  5
41B
100
AcDbEntity
  8
Livello_1
100
AcDbLine
 62
7
  6
CONTINUOUS
 10
45.9203823729
 20
-78.3954657185
 11
44.5720326359
 21
-80.4115302306
  0
LINE
  5
41C
100
AcDbEntity
  8
Livello_1
100
AcDbLine
 62
7
  6
CONTINUOUS
 10
44.5578091973
 20
-80.4311011808
 11
45.9052931501
 21
-78.4199512458
  0
LINE
  5
41D
100
AcDbEntity
  8
Livello_1
100
AcDbLine
 62
7
  6
CONTINUOUS
 10
-32.8054581357
 20
31.0090379789
 11
-32.5390108524
 21
31.0871019607
  0
LINE
  5
41E
100
AcDbEntity
  8
Livello_1
100
AcDbLine
 62
7
  6
CONTINUOUS
 10
-32.0608177984
 20
77.9042633034
 11
-32.5390108524
 21
77.8002666873
  0
LINE
  5
41F
100
AcDbEntity
  8
Livello_1
100
AcDbLine
 62
7
  6
CONTINUOUS
 10
-47.3196356878
 20
90.7141147357
 11
-46.3599424497
 21
90.9399702531
  0
LINE
  5
420
100
AcDbEntity
  8
Livello_1
100
AcDbLine
 62
7
  6
CONTINUOUS
 10
16.0185763611
 20
113.4910269663
 11
16.8014101799
 21
113.5933401465
  0
LINE
  5
421
100
AcDbEntity
  8
Livello_1
100
AcDbLine
 62
7
  6
CONTINUOUS
 10
44.5720326359
 20
-80.4115302306
 11
43.1306071071
 21
-82.241780959
  0
LINE
  5
422
100
AcDbEntity
  8
Livello_1
100
AcDbLine
 62
7
  6
CONTINUOUS
 10
43.1176810115
 20
-82.2568940613
 11
44.5578091973
 21
-80.4311011808
  0
LINE
  5
423
100
AcDbEntity
  8
Livello_1
100
AcDbLine
 62
7
  6
CONTINUOUS
 10
-45.5357239795
 20
97.5360305256
 11
-42.8675970018
 21
98.2341177954
  0
LINE
  5
424
100
AcDbEntity
  8
Livello_1
100
AcDbLine
 62
7
  6
CONTINUOUS
 10
-42.8747706054
 20
98.2322505761
 11
-45.5357239795
 21
97.5360305256
  0
LINE
  5
425
100
AcDbEntity
  8
Livello_1
100
AcDbLine
 62
7
  6
CONTINUOUS
 10
-42.8675970018
 20
98.2341177954
 11
8.0626409119
 21
111.4369927174
  0
LINE
  5
426
100
AcDbEntity
  8
Livello_1
100
AcDbLine
 62
7
  6
CONTINUOUS
 10
7.957028684
 20
111.4096670207
 11
-42.8747706054
 21
98.2322505761
  0
LINE
  5
427
100
AcDbEntity
  8
Livello_1
100
AcDbLine
 62
7
  6
CONTINUOUS
 10
8.0626409119
 20
111.4369927174
 11
11.3759234897
 21
112.2939725592
  0
LINE
  5
428
100
AcDbEntity
  8
Livello_1
100
AcDbLine
 62
7
  6
CONTINUOUS
 10
11.3882143236
 20
112.2971502487
 11
7.957028684
 21
111.4096670207
  0
LINE
  5
429
100
AcDbEntity
  8
Livello_1
100
AcDbLine
 62
7
  6
CONTINUOUS
 10
16.0185763611
 20
113.4910269663
 11
11.3882143236
 21
112.2971502487
  0
LINE
  5
42A
100
AcDbEntity
  8
Livello_1
100
AcDbLine
 62
7
  6
CONTINUOUS
 10
11.3759234897
 20
112.2939725592
 11
16.0185763611
 21
113.4910269663
  0
LINE
  5
42B
100
AcDbEntity
  8
Livello_1
100
AcDbLine
 62
7
  6
CONTINUOUS
 10
43.1306071071
 20
-82.241780959
 11
41.6122294139
 21
-83.8788247657
  0
LINE
  5
42C
100
AcDbEntity
  8
Livello_1
100
AcDbLine
 62
7
  6
CONTINUOUS
 10
41.600961688
 20
-83.889992058
 11
43.1176810115
 21
-82.2568940613
  0
LINE
  5
42D
100
AcDbEntity
  8
Livello_1
100
AcDbLine
 62
7
  6
CONTINUOUS
 10
41.6122294139
 20
-83.8788247657
 11
40.032708263
 21
-85.3179184503
  0
LINE
  5
42E
100
AcDbEntity
  8
Livello_1
100
AcDbLine
 62
7
  6
CONTINUOUS
 10
40.0233862862
 20
-85.325692484
 11
41.600961688
 21
-83.889992058
  0
LINE
  5
42F
100
AcDbEntity
  8
Livello_1
100
AcDbLine
 62
7
  6
CONTINUOUS
 10
40.032708263
 20
-85.3179184503
 11
38.4069397311
 21
-86.5569169396
  0
LINE
  5
430
100
AcDbEntity
  8
Livello_1
100
AcDbLine
 62
7
  6
CONTINUOUS
 10
38.3997787521
 20
-86.5618746023
 11
40.0233862862
 21
-85.325692484
  0
LINE
  5
431
100
AcDbEntity
  8
Livello_1
100
AcDbLine
 62
7
  6
CONTINUOUS
 10
38.4069397311
 20
-86.5569169396
 11
36.7483870676
 21
-87.5959852163
  0
LINE
  5
432
100
AcDbEntity
  8
Livello_1
100
AcDbLine
 62
7
  6
CONTINUOUS
 10
36.7435360923
 20
-87.5987123165
 11
38.3997787521
 21
-86.5618746023
  0
LINE
  5
433
100
AcDbEntity
  8
Livello_1
100
AcDbLine
 62
7
  6
CONTINUOUS
 10
36.7483870676
 20
-87.5959852163
 11
35.0686932625
 21
-88.4371072071
  0
LINE
  5
434
100
AcDbEntity
  8
Livello_1
100
AcDbLine
 62
7
  6
CONTINUOUS
 10
35.0662444164
 20
-88.43818581
 11
36.7435360923
 21
-87.5987123165
  0
LINE
  5
435
100
AcDbEntity
  8
Livello_1
100
AcDbLine
 62
7
  6
CONTINUOUS
 10
35.0686932625
 20
-88.4371072071
 11
33.3774614041
 21
-89.0834499029
  0
LINE
  5
436
100
AcDbEntity
  8
Livello_1
100
AcDbLine
 62
7
  6
CONTINUOUS
 10
33.3774614041
 20
-89.0834499029
 11
35.0662444164
 21
-88.43818581
  0
LINE
  5
437
100
AcDbEntity
  8
Livello_1
100
AcDbLine
 62
7
  6
CONTINUOUS
 10
33.3774614041
 20
-89.0834499029
 11
28.5876572366
 21
-90.5721663978
  0
LINE
  5
438
100
AcDbEntity
  8
Livello_1
100
AcDbLine
 62
7
  6
CONTINUOUS
 10
28.5699335283
 20
-90.5775199784
 11
33.3774614041
 21
-89.0834499029
  0
LINE
  5
439
100
AcDbEntity
  8
Livello_1
100
AcDbLine
 62
7
  6
CONTINUOUS
 10
28.5876572366
 20
-90.5721663978
 11
22.5091917248
 21
-92.349130786
  0
LINE
  5
43A
100
AcDbEntity
  8
Livello_1
100
AcDbLine
 62
7
  6
CONTINUOUS
 10
22.5042158783
 20
-92.3505204712
 11
28.5699335283
 21
-90.5775199784
  0
ENDSEC
  0
SECTION
  2
OBJECTS
  0
DICTIONARY
  5
C
100
AcDbDictionary
280
0
281
1
  3
ACAD_GROUP
350
D
  3
ACAD_MLINESTYLE
350
17
  3
ACAD_LAYOUT
350
1A
  3
ACAD_PLOTSETTINGS
350
19
  3
ACAD_PLOTSTYLENAME
350
E
  0
DICTIONARY
  5
D
102
{ACAD_REACTORS
330
C
102
}
100
AcDbDictionary
280
0
281
1
  0
ACDBDICTIONARYWDFLT
  5
E
102
{ACAD_REACTORS
330
C
102
}
100
AcDbDictionary
281
1
  3
Normal
350
F
100
AcDbDictionaryWithDefault
340
F
  0
DICTIONARY
  5
17
102
{ACAD_REACTORS
330
C
102
}
100
AcDbDictionary
280
0
281
1
  3
Standard
350
18
  0
DICTIONARY
  5
19
102
{ACAD_REACTORS
330
C
102
}
100
AcDbDictionary
281
1
  0
DICTIONARY
  5
1A
102
{ACAD_REACTORS
330
C
102
}
100
AcDbDictionary
281
1
  3
Model
350
43B
  3
Layout1
350
43C
  0
ACDBPLACEHOLDER
  5
F
102
{ACAD_REACTORS
330
E
102
}
  0
MLINESTYLE
  5
18
102
{ACAD_REACTORS
330
17
102
}
100
AcDbMlineStyle
  2
STANDARD
 70
0
  3

 62
256
 51
90.0
 52
90.0
 71
2
 49
0.5
 62
256
  6
BYLAYER
 49
-0.5
 62
256
  6
BYLAYER
  0
LAYOUT
  5
43B
102
{ACAD_REACTORS
330
1A
102
}
100
AcDbPlotSettings
  1

  2
none_device
  4
ISO_A4_(297.00_x_210.00_MM)
  6

 40
0.0
 41
0.0
 42
0.0
 43
0.0
 44
297.0
 45
210.0
 46
0.0
 47
0.0
 48
0.0
 49
0.0
140
0.0
141
0.0
142
1.0
143
1.0
 70
1024
 72
1
 73
0
 74
0
  7

 75
0
147
1.0
148
0.0
149
0.0
100
AcDbLayout
  1
Model
 70
0
 71
0
 10
0.0
 20
0.0
 11
297.0
 21
210.0
 12
0.0
 22
0.0
 32
0.0
 14
0.0
 24
0.0
 34
0.0
 15
0.0
 25
0.0
 35
0.0
146
0.0
 13
0.0
 23
0.0
 33
0.0
 16
1.0
 26
0.0
 36
0.0
 17
0.0
 27
1.0
 37
0.0
 76
0
330
201
345
0
346
0
  0
LAYOUT
  5
43C
102
{ACAD_REACTORS
330
1A
102
}
100
AcDbPlotSettings
  1

  2
none_device
  4
ISO_A4_(297.00_x_210.00_MM)
  6

 40
0.0
 41
0.0
 42
0.0
 43
0.0
 44
297.0
 45
210.0
 46
0.0
 47
0.0
 48
0.0
 49
0.0
140
0.0
141
0.0
142
1.0
143
1.0
 70
0
 72
1
 73
0
 74
0
  7

 75
0
147
1.0
148
0.0
149
0.0
100
AcDbLayout
  1
Layout1
 70
0
 71
1
 10
0.0
 20
0.0
 11
297.0
 21
210.0
 12
0.0
 22
0.0
 32
0.0
 14
0.0
 24
0.0
 34
0.0
 15
0.0
 25
0.0
 35
0.0
146
0.0
 13
0.0
 23
0.0
 33
0.0
 16
1.0
 26
0.0
 36
0.0
 17
0.0
 27
1.0
 37
0.0
 76
0
330
202
345
0
346
0
  0
ENDSEC
  0
EOF
