  0
SECTION
  2
HEADER
  9
$ACADVER
  1
AC1024
  9
$DWGCODEPAGE
  3
ANSI_1252
  9
$EXTMAX
 10
297.0
 20
210.0
 30
0.0
  9
$EXTMIN
 10
0.0
 20
0.0
 30
0.0
  9
$LIMMIN
 10
0.0
 20
0.0
  9
$LIMMAX
 10
297.0
 20
210.0
  9
$VIEWCTR
 10
148.5
 20
105.0
  9
$VIEWSIZE
 40
210.0
  9
$CLAYER
  8
0
  9
$LTSCALE
 40
16.335
  9
$CELTYPE
  6
BYLAYER
  9
$DIMSCALE
 40
1.0
  9
$DIMASZ
 40
3.0
  9
$DIMEXO
 40
0.5
  9
$DIMDLI
 40
11.286
  9
$DIMEXE
 40
1.5
  9
$DIMCEN
 40
2.673
  9
$DIMLFAC
 40
1.0
  9
$DIMBLK
  1
_FILLED
  9
$DIMALT
 70
0
  9
$DIMALTF
 40
0.0393700787
  9
$DIMTXT
 40
3.0
  9
$DIMTOL
 70
1
  9
$DIMLIM
 70
0
  9
$DIMTFAC
 40
1.0
  9
$DIMTP
 40
0.01
  9
$DIMTM
 40
0.01
  9
$DIMGAP
 40
0.625
  9
$DIMDSEP
 70
44
  9
$AUNITS
 70
0
  9
$PDMODE
 70
3
  9
$PDSIZE
 40
3.0
  9
$HANDSEED
  5
3FB
  9
$TILEMODE
 70
1
  9
$MEASUREMENT
 70
1
  9
$INSUNITS
 70
4
  0
ENDSEC
  0
SECTION
  2
CLASSES
  0
CLASS
  1
ACDBDICTIONARYWDFLT
  2
AcDbDictionaryWithDefault
  3
AutoCAD 2000
 90
0
 91
1
280
0
281
0
  0
CLASS
  1
ACDBPLACEHOLDER
  2
AcDbPlaceHolder
  3
AutoCAD 2000
 90
0
 91
1
280
0
281
0
  0
CLASS
  1
LAYOUT
  2
AcDbLayout
  3
AutoCAD 2000
 90
0
 91
0
280
0
281
0
  0
ENDSEC
  0
SECTION
  2
TABLES
  0
TABLE
  2
VPORT
  5
8
100
AcDbSymbolTable
 70
2
  0
VPORT
  5
1F4
100
AcDbSymbolTableRecord
100
AcDbViewportTableRecord
  2
*ACTIVE
 70
0
 10
0.0
 20
0.0
 11
1.0
 21
1.0
 12
148.5
 22
105.0
 13
0.0
 23
0.0
 14
1.0
 24
1.0
 15
0.0
 25
0.0
 16
0.0
 26
0.0
 36
1.0
 17
0.0
 27
0.0
 37
0.0
 40
210.0
 41
1.4142857143
 42
50.0
 43
0.0
 44
0.0
 50
0.0
 51
0.0
 71
0
 72
100
 73
1
 74
1
 75
0
 76
0
 77
0
 78
0
  0
ENDTAB
  0
TABLE
  2
LTYPE
  5
5
100
AcDbSymbolTable
 70
6
  0
LTYPE
  5
14
100
AcDbSymbolTableRecord
100
AcDbLinetypeTableRecord
  2
BYBLOCK
 70
0
  3

 72
65
 73
0
 40
0.0
  0
LTYPE
  5
15
100
AcDbSymbolTableRecord
100
AcDbLinetypeTableRecord
  2
BYLAYER
 70
0
  3

 72
65
 73
0
 40
0.0
  0
LTYPE
  5
16
100
AcDbSymbolTableRecord
100
AcDbLinetypeTableRecord
  2
CONTINUOUS
 70
64
  3
Solid line
 72
65
 73
0
 40
0.0
  0
LTYPE
  5
1F5
100
AcDbSymbolTableRecord
100
AcDbLinetypeTableRecord
  2
CENTER
 70
64
  3
____ _ ____ _ ____ _ ____ _ ____ _ ____ _ ____
 72
65
 73
4
 40
0.6
 49
0.375
 74
0
 49
-0.075
 74
0
 49
0.075
 74
0
 49
-0.075
 74
0
  0
LTYPE
  5
1F6
100
AcDbSymbolTableRecord
100
AcDbLinetypeTableRecord
  2
HIDDEN
 70
64
  3
- - - - - - - - - - - - - - - - - - - -
 72
65
 73
2
 40
0.2
 49
0.1
 74
0
 49
-0.1
 74
0
  0
LTYPE
  5
1F7
100
AcDbSymbolTableRecord
100
AcDbLinetypeTableRecord
  2
PHANTOM
 70
64
  3
_____ _ _ _____ _ _ _____ _ _ _____
 72
65
 73
6
 40
0.8
 49
0.45
 74
0
 49
-0.05
 74
0
 49
0.1
 74
0
 49
-0.05
 74
0
 49
0.1
 74
0
 49
-0.05
 74
0
  0
LTYPE
  5
1F8
100
AcDbSymbolTableRecord
100
AcDbLinetypeTableRecord
  2
DOT
 70
64
  3
. . . . . . . . . . . . . . . . . . . .
 72
65
 73
2
 40
0.2
 49
0.1
 74
0
 49
-0.1
 74
0
  0
LTYPE
  5
1F9
100
AcDbSymbolTableRecord
100
AcDbLinetypeTableRecord
  2
DASHED
 70
64
  3
- - - - - - - - - - - - - - - - - - - -
 72
65
 73
2
 40
0.2
 49
0.1
 74
0
 49
-0.1
 74
0
  0
ENDTAB
  0
TABLE
  2
LAYER
  5
2
100
AcDbSymbolTable
 70
36
  0
LAYER
  5
10
100
AcDbSymbolTableRecord
100
AcDbLayerTableRecord
  2
0
 70
0
 62
7
  6
CONTINUOUS
370
-3
390
F
  0
LAYER
  5
1FA
100
AcDbSymbolTableRecord
100
AcDbLayerTableRecord
  2
DEFAULT_1
 70
0
 62
7
  6
CENTER
370
-3
390
F
  0
LAYER
  5
1FB
100
AcDbSymbolTableRecord
100
AcDbLayerTableRecord
  2
DEFAULT_2
 70
0
 62
7
  6
HIDDEN
370
-3
390
F
  0
LAYER
  5
1FC
100
AcDbSymbolTableRecord
100
AcDbLayerTableRecord
  2
DEFAULT_3
 70
0
 62
7
  6
PHANTOM
370
-3
390
F
  0
LAYER
  5
1FD
100
AcDbSymbolTableRecord
100
AcDbLayerTableRecord
  2
Livello_1
 70
0
 62
7
  6
CONTINUOUS
370
-3
390
F
  0
LAYER
  5
1FE
100
AcDbSymbolTableRecord
100
AcDbLayerTableRecord
  2
SNAPLINE
 70
0
 62
7
  6
CONTINUOUS
370
-3
390
F
  0
ENDTAB
  0
TABLE
  2
STYLE
  5
3
100
AcDbSymbolTable
 70
1
  0
STYLE
  5
11
100
AcDbSymbolTableRecord
100
AcDbTextStyleTableRecord
  2
STANDARD
 70
0
 40
0.0
 41
0.8
 50
0.0
 71
0
 42
0.2
  3
txt
  4

  0
STYLE
  5
1FF
100
AcDbSymbolTableRecord
100
AcDbTextStyleTableRecord
  2
TEXTSTYLE_1
 70
0
 40
0.0
 41
0.8
 50
0.0
 71
0
 42
0.2
  3
gdt
  4

  0
ENDTAB
  0
TABLE
  2
VIEW
  5
6
100
AcDbSymbolTable
 70
0
  0
ENDTAB
  0
TABLE
  2
UCS
  5
7
100
AcDbSymbolTable
 70
0
  0
ENDTAB
  0
TABLE
  2
APPID
  5
9
100
AcDbSymbolTable
 70
1
  0
APPID
  5
200
100
AcDbSymbolTableRecord
100
AcDbRegAppTableRecord
  2
ACAD
 70
0
  0
ENDTAB
  0
TABLE
  2
BLOCK_RECORD
  5
1
100
AcDbSymbolTable
 70
0
  0
BLOCK_RECORD
  5
201
100
AcDbSymbolTableRecord
100
AcDbBlockTableRecord
  2
*Model_Space
  0
BLOCK_RECORD
  5
202
100
AcDbSymbolTableRecord
100
AcDbBlockTableRecord
  2
*Paper_Space
  0
BLOCK_RECORD
  5
203
100
AcDbSymbolTableRecord
100
AcDbBlockTableRecord
  2
_FILLED
  0
ENDTAB
  0
TABLE
  2
DIMSTYLE
  5
A
100
AcDbSymbolTable
 70
1
100
AcDbDimStyleTable
 71
0
  0
DIMSTYLE
105
204
100
AcDbSymbolTableRecord
100
AcDbDimStyleTableRecord
  2
STANDARD
 70
0
  3

  4

 40
1.0
 41
3.0
 42
0.5
 43
0.38
 44
1.5
 45
0.0
 46
0.0
 47
0.01
 48
0.01
140
3.0
141
0.09
142
0.0
143
25.4
144
1.0
145
0.0
146
1.0
147
0.625
 71
1
 72
0
 73
0
 74
0
 75
0
 76
0
 77
1
 78
8
 79
2
170
0
171
1
172
0
173
0
174
0
175
0
176
0
177
0
178
0
270
2
179
2
271
2
272
2
273
2
274
2
275
0
280
0
281
0
282
0
283
1
284
8
285
0
286
0
287
3
288
0
340
11
278
44
341
203
342
203
343
203
344
203
  0
ENDTAB
  0
ENDSEC
  0
SECTION
  2
BLOCKS
  0
BLOCK
  5
20
100
AcDbEntity
  8
0
100
AcDbBlockBegin
  2
*Model_Space
 70
0
 10
0.0
 20
0.0
 30
0.0
  3
*Model_Space
  1

  0
ENDBLK
  5
21
100
AcDbEntity
  8
0
100
AcDbBlockEnd
  0
BLOCK
  5
1C
100
AcDbEntity
  8
0
100
AcDbBlockBegin
  2
*Paper_Space
 70
0
 10
0.0
 20
0.0
 30
0.0
  3
*Paper_Space
  1

  0
ENDBLK
  5
1D
100
AcDbEntity
  8
0
100
AcDbBlockEnd
  0
BLOCK
  5
205
100
AcDbEntity
  8
0
100
AcDbBlockBegin
  2
_FILLED
 70
64
 10
0.0
 20
0.0
  3
_FILLED
  1

  0
SOLID
  5
206
100
AcDbEntity
  8
0
  6
BYBLOCK
 62
0
100
AcDbTrace
 10
0.0
 20
0.0
 11
-1.0
 21
0.3166666667
 12
-1.0
 22
-0.3166666667
 13
-1.0
 23
-0.3166666667
  0
ENDBLK
  5
207
100
AcDbEntity
  8
0
  6
BYBLOCK
 62
0
100
AcDbBlockEnd
  0
ENDSEC
  0
SECTION
  2
ENTITIES
  0
LINE
  5
208
100
AcDbEntity
  8
Livello_1
100
AcDbLine
 62
7
  6
CONTINUOUS
 10
-23.6497518377
 20
-65.6798699054
 11
-23.708149037
 21
-65.1389339825
  0
LINE
  5
209
100
AcDbEntity
  8
Livello_1
100
AcDbLine
 62
7
  6
CONTINUOUS
 10
9.6601959573
 20
-65.0139162535
 11
9.667460142
 21
-65.0814388266
  0
LINE
  5
20A
100
AcDbEntity
  8
Livello_1
100
AcDbLine
 62
7
  6
CONTINUOUS
 10
10.6959447111
 20
-63.0763704393
 11
10.7114066846
 21
-63.2201744649
  0
LINE
  5
20B
100
AcDbEntity
  8
Livello_1
100
AcDbLine
 62
7
  6
CONTINUOUS
 10
5.4350642819
 20
-66.5716240081
 11
5.4242720152
 21
-66.4303238942
  0
LINE
  5
20C
100
AcDbEntity
  8
Livello_1
100
AcDbLine
 62
7
  6
CONTINUOUS
 10
-23.5131388439
 20
-57.7698443782
 11
-23.5069774089
 21
-57.8741689059
  0
LINE
  5
20D
100
AcDbEntity
  8
Livello_1
100
AcDbLine
 62
7
  6
CONTINUOUS
 10
-39.5208181914
 20
85.7848570646
 11
-39.5208181914
 21
-69.9138764718
  0
LINE
  5
20E
100
AcDbEntity
  8
Livello_1
100
AcDbLine
 62
7
  6
CONTINUOUS
 10
-32.2577801959
 20
-64.8452334096
 11
-32.2577801959
 21
72.8403224756
  0
LINE
  5
20F
100
AcDbEntity
  8
Livello_1
100
AcDbLine
 62
7
  6
CONTINUOUS
 10
-23.708149037
 20
-65.1389339825
 11
-23.708149037
 21
-57.7698443782
  0
LINE
  5
210
100
AcDbEntity
  8
Livello_1
100
AcDbLine
 62
7
  6
CONTINUOUS
 10
-23.5644179159
 20
-57.2495676628
 11
-23.5644179159
 21
67.2258255455
  0
LINE
  5
211
100
AcDbEntity
  8
Livello_1
100
AcDbLine
 62
7
  6
CONTINUOUS
 10
-15.1304453938
 20
-64.7490383625
 11
-15.1304453938
 21
62.5128920558
  0
LINE
  5
212
100
AcDbEntity
  8
Livello_1
100
AcDbLine
 62
7
  6
CONTINUOUS
 10
-7.8247372216
 20
-89.3038535368
 11
-7.8247372216
 21
-88.2901249242
  0
LINE
  5
213
100
AcDbEntity
  8
Livello_1
100
AcDbLine
 62
7
  6
CONTINUOUS
 10
-7.7735829161
 20
63.5863838688
 11
-7.7735829161
 21
64.6195760704
  0
LINE
  5
214
100
AcDbEntity
  8
Livello_1
100
AcDbLine
 62
7
  6
CONTINUOUS
 10
-7.2619150961
 20
57.0632042307
 11
-7.2619150961
 21
-75.5490846572
  0
LINE
  5
215
100
AcDbEntity
  8
Livello_1
100
AcDbLine
 62
7
  6
CONTINUOUS
 10
-6.6026483898
 20
-91.0717962369
 11
-6.6026483898
 21
-90.1616239011
  0
LINE
  5
216
100
AcDbEntity
  8
Livello_1
100
AcDbLine
 62
7
  6
CONTINUOUS
 10
-6.6026483898
 20
-88.6544433917
 11
-6.6026483898
 21
-81.0904683607
  0
LINE
  5
217
100
AcDbEntity
  8
Livello_1
100
AcDbLine
 62
7
  6
CONTINUOUS
 10
-6.5527417505
 20
64.9705445117
 11
-6.5527417505
 21
64.0737222022
  0
LINE
  5
218
100
AcDbEntity
  8
Livello_1
100
AcDbLine
 62
7
  6
CONTINUOUS
 10
-6.5527417505
 20
62.5531916669
 11
-6.5527417505
 21
56.7631481327
  0
LINE
  5
219
100
AcDbEntity
  8
Livello_1
100
AcDbLine
 62
7
  6
CONTINUOUS
 10
5.0233371229
 20
-74.0148394323
 11
5.3074731439
 21
-73.9724561381
  0
LINE
  5
21A
100
AcDbEntity
  8
Livello_1
100
AcDbLine
 62
7
  6
CONTINUOUS
 10
4.7363310563
 20
-74.0525317556
 11
5.0233371229
 21
-74.0148394323
  0
LINE
  5
21B
100
AcDbEntity
  8
Livello_1
100
AcDbLine
 62
7
  6
CONTINUOUS
 10
4.7363310563
 20
-70.8944042174
 11
5.0233371229
 21
-70.8567042386
  0
LINE
  5
21C
100
AcDbEntity
  8
Livello_1
100
AcDbLine
 62
7
  6
CONTINUOUS
 10
4.4463606051
 20
-70.927534645
 11
4.7363310563
 21
-70.8944042174
  0
LINE
  5
21D
100
AcDbEntity
  8
Livello_1
100
AcDbLine
 62
7
  6
CONTINUOUS
 10
4.4463606051
 20
-74.0856540632
 11
4.7363310563
 21
-74.0525317556
  0
LINE
  5
21E
100
AcDbEntity
  8
Livello_1
100
AcDbLine
 62
7
  6
CONTINUOUS
 10
8.2095586975
 20
-66.2963645833
 11
8.2571801855
 21
-66.2910798737
  0
LINE
  5
21F
100
AcDbEntity
  8
Livello_1
100
AcDbLine
 62
7
  6
CONTINUOUS
 10
4.1533314302
 20
-74.1143273111
 11
4.4463606051
 21
-74.0856540632
  0
LINE
  5
220
100
AcDbEntity
  8
Livello_1
100
AcDbLine
 62
7
  6
CONTINUOUS
 10
4.1533314302
 20
-70.95621649
 11
4.4463606051
 21
-70.927534645
  0
LINE
  5
221
100
AcDbEntity
  8
Livello_1
100
AcDbLine
 62
7
  6
CONTINUOUS
 10
8.1633608307
 20
-66.3002748441
 11
8.2095586975
 21
-66.2963645833
  0
LINE
  5
222
100
AcDbEntity
  8
Livello_1
100
AcDbLine
 62
7
  6
CONTINUOUS
 10
3.8571491934
 20
-74.138672455
 11
4.1533314302
 21
-74.1143273111
  0
LINE
  5
223
100
AcDbEntity
  8
Livello_1
100
AcDbLine
 62
7
  6
CONTINUOUS
 10
3.8571491934
 20
-70.980570722
 11
4.1533314302
 21
-70.95621649
  0
LINE
  5
224
100
AcDbEntity
  8
Livello_1
100
AcDbLine
 62
7
  6
CONTINUOUS
 10
9.0959618621
 20
-61.5888346122
 11
9.2125717299
 21
-61.5801589725
  0
LINE
  5
225
100
AcDbEntity
  8
Livello_1
100
AcDbLine
 62
7
  6
CONTINUOUS
 10
7.0446756581
 20
-68.1613521694
 11
6.9231201051
 21
-68.1703286987
  0
LINE
  5
226
100
AcDbEntity
  8
Livello_1
100
AcDbLine
 62
7
  6
CONTINUOUS
 10
3.5577195548
 20
-74.1588104507
 11
3.8571491934
 21
-74.138672455
  0
LINE
  5
227
100
AcDbEntity
  8
Livello_1
100
AcDbLine
 62
7
  6
CONTINUOUS
 10
3.5577195548
 20
-71.000718311
 11
3.8571491934
 21
-70.980570722
  0
LINE
  5
228
100
AcDbEntity
  8
Livello_1
100
AcDbLine
 62
7
  6
CONTINUOUS
 10
8.1186688357
 20
-66.3028239666
 11
8.1633608307
 21
-66.3002748441
  0
LINE
  5
229
100
AcDbEntity
  8
Livello_1
100
AcDbLine
 62
7
  6
CONTINUOUS
 10
8.0755649637
 20
-66.3040252603
 11
8.1186688357
 21
-66.3028239666
  0
LINE
  5
22A
100
AcDbEntity
  8
Livello_1
100
AcDbLine
 62
7
  6
CONTINUOUS
 10
9.2125717299
 20
-61.5801589725
 11
9.3266061759
 21
-61.5776190221
  0
LINE
  5
22B
100
AcDbEntity
  8
Livello_1
100
AcDbLine
 62
7
  6
CONTINUOUS
 10
6.9231201051
 20
-68.1703286987
 11
6.8043811543
 21
-68.1726515906
  0
LINE
  5
22C
100
AcDbEntity
  8
Livello_1
100
AcDbLine
 62
7
  6
CONTINUOUS
 10
-6.6550503612
 20
-91.2801564561
 11
-3.7429979532
 21
-91.2801564561
  0
LINE
  5
22D
100
AcDbEntity
  8
Livello_1
100
AcDbLine
 62
7
  6
CONTINUOUS
 10
-3.769822772
 20
-90.0580676243
 11
-6.5770712372
 21
-90.0580676243
  0
LINE
  5
22E
100
AcDbEntity
  8
Livello_1
100
AcDbLine
 62
7
  6
CONTINUOUS
 10
-6.5770712372
 20
-88.9139579164
 11
-3.769822772
 21
-88.9139579164
  0
LINE
  5
22F
100
AcDbEntity
  8
Livello_1
100
AcDbLine
 62
7
  6
CONTINUOUS
 10
-3.769822772
 20
-80.8565309888
 11
-6.5770712372
 21
-80.8565309888
  0
LINE
  5
230
100
AcDbEntity
  8
Livello_1
100
AcDbLine
 62
7
  6
CONTINUOUS
 10
8.034131465
 20
-66.3038920355
 11
8.0755649637
 21
-66.3040252603
  0
LINE
  5
231
100
AcDbEntity
  8
Livello_1
100
AcDbLine
 62
7
  6
CONTINUOUS
 10
9.3266061759
 20
-61.5776190221
 11
9.4379938961
 21
-61.5810732593
  0
LINE
  5
232
100
AcDbEntity
  8
Livello_1
100
AcDbLine
 62
7
  6
CONTINUOUS
 10
6.8043811543
 20
-68.1726515906
 11
6.6885401952
 21
-68.1684813394
  0
LINE
  5
233
100
AcDbEntity
  8
Livello_1
100
AcDbLine
 62
7
  6
CONTINUOUS
 10
7.9944505909
 20
-66.3024376025
 11
8.034131465
 21
-66.3038920355
  0
LINE
  5
234
100
AcDbEntity
  8
Livello_1
100
AcDbLine
 62
7
  6
CONTINUOUS
 10
7.9566045916
 20
-66.2996752709
 11
7.9944505909
 21
-66.3024376025
  0
LINE
  5
235
100
AcDbEntity
  8
Livello_1
100
AcDbLine
 62
7
  6
CONTINUOUS
 10
9.4379938961
 20
-61.5810732593
 11
9.5466855355
 21
-61.5903883763
  0
LINE
  5
236
100
AcDbEntity
  8
Livello_1
100
AcDbLine
 62
7
  6
CONTINUOUS
 10
6.6885401952
 20
-68.1684813394
 11
6.5756525614
 21
-68.1579687094
  0
LINE
  5
237
100
AcDbEntity
  8
Livello_1
100
AcDbLine
 62
7
  6
CONTINUOUS
 10
-7.3714601693
 20
-75.8220739746
 11
-8.9884998311
 21
-75.6586400331
  0
LINE
  5
238
100
AcDbEntity
  8
Livello_1
100
AcDbLine
 62
7
  6
CONTINUOUS
 10
7.9206757181
 20
-66.295618351
 11
7.9566045916
 21
-66.2996752709
  0
LINE
  5
239
100
AcDbEntity
  8
Livello_1
100
AcDbLine
 62
7
  6
CONTINUOUS
 10
9.5466855355
 20
-61.5903883763
 11
9.6526506847
 21
-61.6054428974
  0
LINE
  5
23A
100
AcDbEntity
  8
Livello_1
100
AcDbLine
 62
7
  6
CONTINUOUS
 10
6.5756525614
 20
-68.1579687094
 11
6.46575128
 21
-68.1412502539
  0
LINE
  5
23B
100
AcDbEntity
  8
Livello_1
100
AcDbLine
 62
7
  6
CONTINUOUS
 10
7.8867462212
 20
-66.290280153
 11
7.9206757181
 21
-66.295618351
  0
LINE
  5
23C
100
AcDbEntity
  8
Livello_1
100
AcDbLine
 62
7
  6
CONTINUOUS
 10
-8.9884998311
 20
-75.6586400331
 11
-10.5719495711
 21
-75.384052557
  0
LINE
  5
23D
100
AcDbEntity
  8
Livello_1
100
AcDbLine
 62
7
  6
CONTINUOUS
 10
9.6526506847
 20
-61.6054428974
 11
9.7558746328
 21
-61.6261304032
  0
LINE
  5
23E
100
AcDbEntity
  8
Livello_1
100
AcDbLine
 62
7
  6
CONTINUOUS
 10
6.46575128
 20
-68.1412502539
 11
6.3588511296
 21
-68.1184443822
  0
LINE
  5
23F
100
AcDbEntity
  8
Livello_1
100
AcDbLine
 62
7
  6
CONTINUOUS
 10
-10.5719495711
 20
-75.384052557
 11
-12.1182936296
 21
-75.0003724194
  0
LINE
  5
240
100
AcDbEntity
  8
Livello_1
100
AcDbLine
 62
7
  6
CONTINUOUS
 10
6.3588511296
 20
-68.1184443822
 11
6.2549528881
 21
-68.0896480321
  0
LINE
  5
241
100
AcDbEntity
  8
Livello_1
100
AcDbLine
 62
7
  6
CONTINUOUS
 10
-12.1182936296
 20
-75.0003724194
 11
-13.6224753623
 21
-74.5100523531
  0
LINE
  5
242
100
AcDbEntity
  8
Livello_1
100
AcDbLine
 62
7
  6
CONTINUOUS
 10
6.2549528881
 20
-68.0896480321
 11
6.1540476629
 21
-68.0549339993
  0
LINE
  5
243
100
AcDbEntity
  8
Livello_1
100
AcDbLine
 62
7
  6
CONTINUOUS
 10
-13.6224753623
 20
-74.5100523531
 11
-15.0775039252
 21
-73.9164355725
  0
LINE
  5
244
100
AcDbEntity
  8
Livello_1
100
AcDbLine
 62
7
  6
CONTINUOUS
 10
6.1540476629
 20
-68.0549339993
 11
6.0561211981
 21
-68.0143489468
  0
LINE
  5
245
100
AcDbEntity
  8
Livello_1
100
AcDbLine
 62
7
  6
CONTINUOUS
 10
-4.1353889053
 20
-77.2646253859
 11
-7.3714601693
 21
-75.8220739746
  0
LINE
  5
246
100
AcDbEntity
  8
Livello_1
100
AcDbLine
 62
7
  6
CONTINUOUS
 10
6.0561211981
 20
-68.0143489468
 11
5.9611580523
 21
-67.9679121032
  0
LINE
  5
247
100
AcDbEntity
  8
Livello_1
100
AcDbLine
 62
7
  6
CONTINUOUS
 10
-15.0775039252
 20
-73.9164355725
 11
-16.4740089628
 21
-73.2244426533
  0
LINE
  5
248
100
AcDbEntity
  8
Livello_1
100
AcDbLine
 62
7
  6
CONTINUOUS
 10
-15.5460636385
 20
-64.7865594254
 11
-15.1693725725
 21
-64.9829757343
  0
LINE
  5
249
100
AcDbEntity
  8
Livello_1
100
AcDbLine
 62
7
  6
CONTINUOUS
 10
-15.9157550763
 20
-64.5892551134
 11
-15.5460636385
 21
-64.7865594254
  0
LINE
  5
24A
100
AcDbEntity
  8
Livello_1
100
AcDbLine
 62
7
  6
CONTINUOUS
 10
-16.2783189336
 20
-64.3911980377
 11
-15.9157550763
 21
-64.5892551134
  0
LINE
  5
24B
100
AcDbEntity
  8
Livello_1
100
AcDbLine
 62
7
  6
CONTINUOUS
 10
-16.6336272582
 20
-64.1925234378
 11
-16.2783189336
 21
-64.3911980377
  0
LINE
  5
24C
100
AcDbEntity
  8
Livello_1
100
AcDbLine
 62
7
  6
CONTINUOUS
 10
5.9611580523
 20
-67.9679121032
 11
5.8691455578
 21
-67.915614631
  0
LINE
  5
24D
100
AcDbEntity
  8
Livello_1
100
AcDbLine
 62
7
  6
CONTINUOUS
 10
-16.9815520984
 20
-63.9933665523
 11
-16.6336272582
 21
-64.1925234378
  0
LINE
  5
24E
100
AcDbEntity
  8
Livello_1
100
AcDbLine
 62
7
  6
CONTINUOUS
 10
-17.3219655021
 20
-63.7938626211
 11
-16.9815520984
 21
-63.9933665523
  0
LINE
  5
24F
100
AcDbEntity
  8
Livello_1
100
AcDbLine
 62
7
  6
CONTINUOUS
 10
-16.4740089628
 20
-73.2244426533
 11
-17.7997752709
 21
-72.4414931614
  0
LINE
  5
250
100
AcDbEntity
  8
Livello_1
100
AcDbLine
 62
7
  6
CONTINUOUS
 10
-17.6547395172
 20
-63.5941468827
 11
-17.3219655021
 21
-63.7938626211
  0
LINE
  5
251
100
AcDbEntity
  8
Livello_1
100
AcDbLine
 62
7
  6
CONTINUOUS
 10
-6.5770712372
 20
-90.0580676243
 11
-7.8247372216
 21
-89.3038535368
  0
LINE
  5
252
100
AcDbEntity
  8
Livello_1
100
AcDbLine
 62
7
  6
CONTINUOUS
 10
-7.8247372216
 20
-88.1597438289
 11
-6.5770712372
 21
-88.9139579164
  0
LINE
  5
253
100
AcDbEntity
  8
Livello_1
100
AcDbLine
 62
7
  6
CONTINUOUS
 10
-17.9797461914
 20
-63.3943545767
 11
-17.6547395172
 21
-63.5941468827
  0
LINE
  5
254
100
AcDbEntity
  8
Livello_1
100
AcDbLine
 62
7
  6
CONTINUOUS
 10
-6.5770712372
 20
-80.8565309888
 11
-32.2577801959
 21
-64.8452334096
  0
LINE
  5
255
100
AcDbEntity
  8
Livello_1
100
AcDbLine
 62
7
  6
CONTINUOUS
 10
-18.2620168442
 20
-63.2168064658
 11
-17.9797461914
 21
-63.3943545767
  0
LINE
  5
256
100
AcDbEntity
  8
Livello_1
100
AcDbLine
 62
7
  6
CONTINUOUS
 10
-18.5379593764
 20
-63.0393996955
 11
-18.2620168442
 21
-63.2168064658
  0
LINE
  5
257
100
AcDbEntity
  8
Livello_1
100
AcDbLine
 62
7
  6
CONTINUOUS
 10
-39.5208181914
 20
-69.9138764718
 11
-6.6550503612
 21
-91.2801564561
  0
LINE
  5
258
100
AcDbEntity
  8
Livello_1
100
AcDbLine
 62
7
  6
CONTINUOUS
 10
9.7778335539
 20
-61.5043582032
 11
9.8663561287
 21
-61.561948812
  0
LINE
  5
259
100
AcDbEntity
  8
Livello_1
100
AcDbLine
 62
7
  6
CONTINUOUS
 10
24.4330429743
 20
-66.2232804896
 11
20.0746961574
 21
-63.3824698096
  0
LINE
  5
25A
100
AcDbEntity
  8
Livello_1
100
AcDbLine
 62
7
  6
CONTINUOUS
 10
-18.8074839232
 20
-62.8622292487
 11
-18.5379593764
 21
-63.0393996955
  0
LINE
  5
25B
100
AcDbEntity
  8
Livello_1
100
AcDbLine
 62
7
  6
CONTINUOUS
 10
24.4330429743
 20
-66.2232804896
 11
20.5547980281
 21
-63.6597011913
  0
LINE
  5
25C
100
AcDbEntity
  8
Livello_1
100
AcDbLine
 62
7
  6
CONTINUOUS
 10
-19.0705006193
 20
-62.6853901078
 11
-18.8074839232
 21
-62.8622292487
  0
LINE
  5
25D
100
AcDbEntity
  8
Livello_1
100
AcDbLine
 62
7
  6
CONTINUOUS
 10
-19.3269196001
 20
-62.5089772559
 11
-19.0705006193
 21
-62.6853901078
  0
LINE
  5
25E
100
AcDbEntity
  8
Livello_1
100
AcDbLine
 62
7
  6
CONTINUOUS
 10
-17.7997752709
 20
-72.4414931614
 11
-19.0393436084
 21
-71.5786903893
  0
LINE
  5
25F
100
AcDbEntity
  8
Livello_1
100
AcDbLine
 62
7
  6
CONTINUOUS
 10
-19.576651001
 20
-62.3330856759
 11
-19.3269196001
 21
-62.5089772559
  0
LINE
  5
260
100
AcDbEntity
  8
Livello_1
100
AcDbLine
 62
7
  6
CONTINUOUS
 10
-19.819604957
 20
-62.1578103505
 11
-19.576651001
 21
-62.3330856759
  0
LINE
  5
261
100
AcDbEntity
  8
Livello_1
100
AcDbLine
 62
7
  6
CONTINUOUS
 10
13.1174610948
 20
-17.0099690977
 11
16.1294515478
 21
-19.1847756751
  0
LINE
  5
262
100
AcDbEntity
  8
Livello_1
100
AcDbLine
 62
7
  6
CONTINUOUS
 10
-20.0556916034
 20
-61.9832462622
 11
-19.819604957
 21
-62.1578103505
  0
LINE
  5
263
100
AcDbEntity
  8
Livello_1
100
AcDbLine
 62
7
  6
CONTINUOUS
 10
9.8663561287
 20
-61.561948812
 11
9.9510344003
 21
-61.6248568994
  0
LINE
  5
264
100
AcDbEntity
  8
Livello_1
100
AcDbLine
 62
7
  6
CONTINUOUS
 10
-20.2848210752
 20
-61.8094883944
 11
-20.0556916034
 21
-61.9832462622
  0
LINE
  5
265
100
AcDbEntity
  8
Livello_1
100
AcDbLine
 62
7
  6
CONTINUOUS
 10
-20.5069035078
 20
-61.6366317294
 11
-20.2848210752
 21
-61.8094883944
  0
LINE
  5
266
100
AcDbEntity
  8
Livello_1
100
AcDbLine
 62
7
  6
CONTINUOUS
 10
-20.7218490362
 20
-61.4647712503
 11
-20.5069035078
 21
-61.6366317294
  0
LINE
  5
267
100
AcDbEntity
  8
Livello_1
100
AcDbLine
 62
7
  6
CONTINUOUS
 10
-19.0393436084
 20
-71.5786903893
 11
-20.1738668457
 21
-70.6522275701
  0
LINE
  5
268
100
AcDbEntity
  8
Livello_1
100
AcDbLine
 62
7
  6
CONTINUOUS
 10
-20.9295677958
 20
-61.2940019398
 11
-20.7218490362
 21
-61.4647712503
  0
LINE
  5
269
100
AcDbEntity
  8
Livello_1
100
AcDbLine
 62
7
  6
CONTINUOUS
 10
9.9510344003
 20
-61.6248568994
 11
10.0318812522
 21
-61.6930897687
  0
LINE
  5
26A
100
AcDbEntity
  8
Livello_1
100
AcDbLine
 62
7
  6
CONTINUOUS
 10
-21.1299699219
 20
-61.1244187809
 11
-20.9295677958
 21
-61.2940019398
  0
LINE
  5
26B
100
AcDbEntity
  8
Livello_1
100
AcDbLine
 62
7
  6
CONTINUOUS
 10
-21.3229655493
 20
-60.9561167561
 11
-21.1299699219
 21
-61.1244187809
  0
LINE
  5
26C
100
AcDbEntity
  8
Livello_1
100
AcDbLine
 62
7
  6
CONTINUOUS
 10
-21.5084648132
 20
-60.7891908484
 11
-21.3229655493
 21
-60.9561167561
  0
LINE
  5
26D
100
AcDbEntity
  8
Livello_1
100
AcDbLine
 62
7
  6
CONTINUOUS
 10
-21.686377849
 20
-60.6237360403
 11
-21.5084648132
 21
-60.7891908484
  0
LINE
  5
26E
100
AcDbEntity
  8
Livello_1
100
AcDbLine
 62
7
  6
CONTINUOUS
 10
10.0318812522
 20
-61.6930897687
 11
10.1088858901
 21
-61.7666701076
  0
LINE
  5
26F
100
AcDbEntity
  8
Livello_1
100
AcDbLine
 62
7
  6
CONTINUOUS
 10
-20.1738668457
 20
-70.6522275701
 11
-21.1815769527
 21
-69.6847973427
  0
LINE
  5
270
100
AcDbEntity
  8
Livello_1
100
AcDbLine
 62
7
  6
CONTINUOUS
 10
-21.8566147918
 20
-60.4598473152
 11
-21.686377849
 21
-60.6237360403
  0
LINE
  5
271
100
AcDbEntity
  8
Livello_1
100
AcDbLine
 62
7
  6
CONTINUOUS
 10
0.2679986535
 20
0.6584784419
 11
1.2378094232
 21
-0.2772710464
  0
LINE
  5
272
100
AcDbEntity
  8
Livello_1
100
AcDbLine
 62
7
  6
CONTINUOUS
 10
-22.0190857769
 20
-60.2976196553
 11
-21.8566147918
 21
-60.4598473152
  0
LINE
  5
273
100
AcDbEntity
  8
Livello_1
100
AcDbLine
 62
7
  6
CONTINUOUS
 10
-22.1585954963
 20
-60.153113476
 11
-22.0190857769
 21
-60.2976196553
  0
LINE
  5
274
100
AcDbEntity
  8
Livello_1
100
AcDbLine
 62
7
  6
CONTINUOUS
 10
-22.291676488
 20
-60.010098938
 11
-22.1585954963
 21
-60.153113476
  0
LINE
  5
275
100
AcDbEntity
  8
Livello_1
100
AcDbLine
 62
7
  6
CONTINUOUS
 10
10.1088858901
 20
-61.7666701076
 11
10.1820125806
 21
-61.8456321717
  0
LINE
  5
276
100
AcDbEntity
  8
Livello_1
100
AcDbLine
 62
7
  6
CONTINUOUS
 10
-21.1815769527
 20
-69.6847973427
 11
-21.842741402
 21
-68.9471416913
  0
LINE
  5
277
100
AcDbEntity
  8
Livello_1
100
AcDbLine
 62
7
  6
CONTINUOUS
 10
-22.4182632405
 20
-59.868645284
 11
-22.291676488
 21
-60.010098938
  0
LINE
  5
278
100
AcDbEntity
  8
Livello_1
100
AcDbLine
 62
7
  6
CONTINUOUS
 10
-22.5382902424
 20
-59.7288217566
 11
-22.4182632405
 21
-59.868645284
  0
LINE
  5
279
100
AcDbEntity
  8
Livello_1
100
AcDbLine
 62
7
  6
CONTINUOUS
 10
-22.651691982
 20
-59.5906975984
 11
-22.5382902424
 21
-59.7288217566
  0
LINE
  5
27A
100
AcDbEntity
  8
Livello_1
100
AcDbLine
 62
7
  6
CONTINUOUS
 10
10.1820125806
 20
-61.8456321717
 11
10.2511998946
 21
-61.9300174625
  0
LINE
  5
27B
100
AcDbEntity
  8
Livello_1
100
AcDbLine
 62
7
  6
CONTINUOUS
 10
-22.7584029483
 20
-59.4543420514
 11
-22.651691982
 21
-59.5906975984
  0
LINE
  5
27C
100
AcDbEntity
  8
Livello_1
100
AcDbLine
 62
7
  6
CONTINUOUS
 10
-21.842741402
 20
-68.9471416913
 11
-22.5655673005
 21
-67.9962215503
  0
LINE
  5
27D
100
AcDbEntity
  8
Livello_1
100
AcDbLine
 62
7
  6
CONTINUOUS
 10
-22.8583576297
 20
-59.3198243584
 11
-22.7584029483
 21
-59.4543420514
  0
LINE
  5
27E
100
AcDbEntity
  8
Livello_1
100
AcDbLine
 62
7
  6
CONTINUOUS
 10
10.2511998946
 20
-61.9300174625
 11
10.3163605037
 21
-62.0198699796
  0
LINE
  5
27F
100
AcDbEntity
  8
Livello_1
100
AcDbLine
 62
7
  6
CONTINUOUS
 10
5.8812479178
 20
-67.8071924569
 11
5.819228126
 21
-67.7202107788
  0
LINE
  5
280
100
AcDbEntity
  8
Livello_1
100
AcDbLine
 62
7
  6
CONTINUOUS
 10
-22.9514905142
 20
-59.1872137616
 11
-22.8583576297
 21
-59.3198243584
  0
LINE
  5
281
100
AcDbEntity
  8
Livello_1
100
AcDbLine
 62
7
  6
CONTINUOUS
 10
-23.0377360913
 20
-59.0565795038
 11
-22.9514905142
 21
-59.1872137616
  0
LINE
  5
282
100
AcDbEntity
  8
Livello_1
100
AcDbLine
 62
7
  6
CONTINUOUS
 10
10.3163605037
 20
-62.0198699796
 11
10.3773815752
 21
-62.1152311443
  0
LINE
  5
283
100
AcDbEntity
  8
Livello_1
100
AcDbLine
 62
7
  6
CONTINUOUS
 10
5.819228126
 20
-67.7202107788
 11
5.761034051
 21
-67.6281460386
  0
LINE
  5
284
100
AcDbEntity
  8
Livello_1
100
AcDbLine
 62
7
  6
CONTINUOUS
 10
-23.117028849
 20
-58.9279908273
 11
-23.0377360913
 21
-59.0565795038
  0
LINE
  5
285
100
AcDbEntity
  8
Livello_1
100
AcDbLine
 62
7
  6
CONTINUOUS
 10
-22.5655673005
 20
-67.9962215503
 11
-23.1013663869
 21
-67.1169165395
  0
LINE
  5
286
100
AcDbEntity
  8
Livello_1
100
AcDbLine
 62
7
  6
CONTINUOUS
 10
-23.1893032757
 20
-58.8015169748
 11
-23.117028849
 21
-58.9279908273
  0
LINE
  5
287
100
AcDbEntity
  8
Livello_1
100
AcDbLine
 62
7
  6
CONTINUOUS
 10
10.3773815752
 20
-62.1152311443
 11
10.4341257905
 21
-62.2161344988
  0
LINE
  5
288
100
AcDbEntity
  8
Livello_1
100
AcDbLine
 62
7
  6
CONTINUOUS
 10
5.761034051
 20
-67.6281460386
 11
5.7067887351
 21
-67.5309681801
  0
LINE
  5
289
100
AcDbEntity
  8
Livello_1
100
AcDbLine
 62
7
  6
CONTINUOUS
 10
9.2348190122
 20
-63.7864731892
 11
9.2774125379
 21
-63.8676643324
  0
LINE
  5
28A
100
AcDbEntity
  8
Livello_1
100
AcDbLine
 62
7
  6
CONTINUOUS
 10
-23.2544938603
 20
-58.6772271884
 11
-23.1893032757
 21
-58.8015169748
  0
LINE
  5
28B
100
AcDbEntity
  8
Livello_1
100
AcDbLine
 62
7
  6
CONTINUOUS
 10
9.2774125379
 20
-63.8676643324
 11
9.2935666392
 21
-63.898684672
  0
LINE
  5
28C
100
AcDbEntity
  8
Livello_1
100
AcDbLine
 62
7
  6
CONTINUOUS
 10
9.2229365472
 20
-63.763469063
 11
9.2348190122
 21
-63.7864731892
  0
LINE
  5
28D
100
AcDbEntity
  8
Livello_1
100
AcDbLine
 62
7
  6
CONTINUOUS
 10
9.2935666392
 20
-63.898684672
 11
9.3105193112
 21
-63.9316318429
  0
LINE
  5
28E
100
AcDbEntity
  8
Livello_1
100
AcDbLine
 62
7
  6
CONTINUOUS
 10
9.3105193112
 20
-63.9316318429
 11
9.3281628186
 21
-63.9664749564
  0
LINE
  5
28F
100
AcDbEntity
  8
Livello_1
100
AcDbLine
 62
7
  6
CONTINUOUS
 10
9.2123913298
 20
-63.7425462125
 11
9.2229365472
 21
-63.763469063
  0
LINE
  5
290
100
AcDbEntity
  8
Livello_1
100
AcDbLine
 62
7
  6
CONTINUOUS
 10
9.3281628186
 20
-63.9664749564
 11
9.3463894258
 21
-64.0031831233
  0
LINE
  5
291
100
AcDbEntity
  8
Livello_1
100
AcDbLine
 62
7
  6
CONTINUOUS
 10
10.4341257905
 20
-62.2161344988
 11
10.4864329924
 21
-62.322600307
  0
LINE
  5
292
100
AcDbEntity
  8
Livello_1
100
AcDbLine
 62
7
  6
CONTINUOUS
 10
5.7067887351
 20
-67.5309681801
 11
5.6566345817
 21
-67.4286587404
  0
LINE
  5
293
100
AcDbEntity
  8
Livello_1
100
AcDbLine
 62
7
  6
CONTINUOUS
 10
9.3463894258
 20
-64.0031831233
 11
9.3650913979
 21
-64.0417254546
  0
LINE
  5
294
100
AcDbEntity
  8
Livello_1
100
AcDbLine
 62
7
  6
CONTINUOUS
 10
-23.3125350913
 20
-58.5551907106
 11
-23.2544938603
 21
-58.6772271884
  0
LINE
  5
295
100
AcDbEntity
  8
Livello_1
100
AcDbLine
 62
7
  6
CONTINUOUS
 10
9.3650913979
 20
-64.0417254546
 11
9.3841609993
 21
-64.0820710616
  0
LINE
  5
296
100
AcDbEntity
  8
Livello_1
100
AcDbLine
 62
7
  6
CONTINUOUS
 10
9.3841609993
 20
-64.0820710616
 11
9.4078103948
 21
-64.1337861972
  0
LINE
  5
297
100
AcDbEntity
  8
Livello_1
100
AcDbLine
 62
7
  6
CONTINUOUS
 10
-23.1013663869
 20
-67.1169165395
 11
-23.4563431818
 21
-66.3394664904
  0
LINE
  5
298
100
AcDbEntity
  8
Livello_1
100
AcDbLine
 62
7
  6
CONTINUOUS
 10
9.4078103948
 20
-64.1337861972
 11
9.4316513251
 21
-64.1880925759
  0
LINE
  5
299
100
AcDbEntity
  8
Livello_1
100
AcDbLine
 62
7
  6
CONTINUOUS
 10
5.6566345817
 20
-67.4286587404
 11
5.6107314786
 21
-67.3212152502
  0
LINE
  5
29A
100
AcDbEntity
  8
Livello_1
100
AcDbLine
 62
7
  6
CONTINUOUS
 10
10.4864329924
 20
-62.322600307
 11
10.5341224568
 21
-62.434630183
  0
LINE
  5
29B
100
AcDbEntity
  8
Livello_1
100
AcDbLine
 62
7
  6
CONTINUOUS
 10
-23.3633614571
 20
-58.4354767843
 11
-23.3125350913
 21
-58.5551907106
  0
LINE
  5
29C
100
AcDbEntity
  8
Livello_1
100
AcDbLine
 62
7
  6
CONTINUOUS
 10
9.4316513251
 20
-64.1880925759
 11
9.4554870879
 21
-64.2449338009
  0
LINE
  5
29D
100
AcDbEntity
  8
Livello_1
100
AcDbLine
 62
7
  6
CONTINUOUS
 10
9.4554870879
 20
-64.2449338009
 11
9.4791209815
 21
-64.3042534758
  0
LINE
  5
29E
100
AcDbEntity
  8
Livello_1
100
AcDbLine
 62
7
  6
CONTINUOUS
 10
9.4791209815
 20
-64.3042534758
 11
9.5023563035
 21
-64.3659952044
  0
LINE
  5
29F
100
AcDbEntity
  8
Livello_1
100
AcDbLine
 62
7
  6
CONTINUOUS
 10
-23.4069074464
 20
-58.3181546513
 11
-23.3633614571
 21
-58.4354767843
  0
LINE
  5
2A0
100
AcDbEntity
  8
Livello_1
100
AcDbLine
 62
7
  6
CONTINUOUS
 10
5.6107314786
 20
-67.3212152502
 11
5.5692544515
 21
-67.2086554983
  0
LINE
  5
2A1
100
AcDbEntity
  8
Livello_1
100
AcDbLine
 62
7
  6
CONTINUOUS
 10
10.5341224568
 20
-62.434630183
 11
10.5769957634
 21
-62.5522018993
  0
LINE
  5
2A2
100
AcDbEntity
  8
Livello_1
100
AcDbLine
 62
7
  6
CONTINUOUS
 10
9.5023563035
 20
-64.3659952044
 11
9.5249963528
 21
-64.4301025899
  0
LINE
  5
2A3
100
AcDbEntity
  8
Livello_1
100
AcDbLine
 62
7
  6
CONTINUOUS
 10
9.5249963528
 20
-64.4301025899
 11
9.5468444266
 21
-64.4965192354
  0
LINE
  5
2A4
100
AcDbEntity
  8
Livello_1
100
AcDbLine
 62
7
  6
CONTINUOUS
 10
-23.4431075476
 20
-58.2032935546
 11
-23.4069074464
 21
-58.3181546513
  0
LINE
  5
2A5
100
AcDbEntity
  8
Livello_1
100
AcDbLine
 62
7
  6
CONTINUOUS
 10
5.5692544515
 20
-67.2086554983
 11
5.532390878
 21
-67.0910215471
  0
LINE
  5
2A6
100
AcDbEntity
  8
Livello_1
100
AcDbLine
 62
7
  6
CONTINUOUS
 10
10.5769957634
 20
-62.5522018993
 11
10.6148402216
 21
-62.6752645165
  0
LINE
  5
2A7
100
AcDbEntity
  8
Livello_1
100
AcDbLine
 62
7
  6
CONTINUOUS
 10
9.5468444266
 20
-64.4965192354
 11
9.5677038233
 21
-64.5651887448
  0
LINE
  5
2A8
100
AcDbEntity
  8
Livello_1
100
AcDbLine
 62
7
  6
CONTINUOUS
 10
-23.4563431818
 20
-66.3394664904
 11
-23.6497518377
 21
-65.6798699054
  0
LINE
  5
2A9
100
AcDbEntity
  8
Livello_1
100
AcDbLine
 62
7
  6
CONTINUOUS
 10
9.5677038233
 20
-64.5651887448
 11
9.5873778404
 21
-64.6360547214
  0
LINE
  5
2AA
100
AcDbEntity
  8
Livello_1
100
AcDbLine
 62
7
  6
CONTINUOUS
 10
5.532390878
 20
-67.0910215471
 11
5.5003373104
 21
-66.9683833798
  0
LINE
  5
2AB
100
AcDbEntity
  8
Livello_1
100
AcDbLine
 62
7
  6
CONTINUOUS
 10
-23.4718962496
 20
-58.0909627365
 11
-23.4431075476
 21
-58.2032935546
  0
LINE
  5
2AC
100
AcDbEntity
  8
Livello_1
100
AcDbLine
 62
7
  6
CONTINUOUS
 10
10.6148402216
 20
-62.6752645165
 11
10.6474327933
 21
-62.8037340053
  0
LINE
  5
2AD
100
AcDbEntity
  8
Livello_1
100
AcDbLine
 62
7
  6
CONTINUOUS
 10
9.5873778404
 20
-64.6360547214
 11
9.6024556368
 21
-64.6956303054
  0
LINE
  5
2AE
100
AcDbEntity
  8
Livello_1
100
AcDbLine
 62
7
  6
CONTINUOUS
 10
9.6024556368
 20
-64.6956303054
 11
9.6165005027
 21
-64.7566076097
  0
LINE
  5
2AF
100
AcDbEntity
  8
Livello_1
100
AcDbLine
 62
7
  6
CONTINUOUS
 10
5.5003373104
 20
-66.9683833798
 11
5.4732959607
 21
-66.8408420513
  0
LINE
  5
2B0
100
AcDbEntity
  8
Livello_1
100
AcDbLine
 62
7
  6
CONTINUOUS
 10
9.6165005027
 20
-64.7566076097
 11
9.629404703
 21
-64.8189557455
  0
LINE
  5
2B1
100
AcDbEntity
  8
Livello_1
100
AcDbLine
 62
7
  6
CONTINUOUS
 10
10.6474327933
 20
-62.8037340053
 11
10.6745444292
 21
-62.9374895128
  0
LINE
  5
2B2
100
AcDbEntity
  8
Livello_1
100
AcDbLine
 62
7
  6
CONTINUOUS
 10
-23.4932080406
 20
-57.9812314393
 11
-23.4718962496
 21
-58.0909627365
  0
LINE
  5
2B3
100
AcDbEntity
  8
Livello_1
100
AcDbLine
 62
7
  6
CONTINUOUS
 10
9.629404703
 20
-64.8189557455
 11
9.6410605024
 21
-64.8826438242
  0
LINE
  5
2B4
100
AcDbEntity
  8
Livello_1
100
AcDbLine
 62
7
  6
CONTINUOUS
 10
5.4732959607
 20
-66.8408420513
 11
5.4514709327
 21
-66.7085322296
  0
LINE
  5
2B5
100
AcDbEntity
  8
Livello_1
100
AcDbLine
 62
7
  6
CONTINUOUS
 10
9.6410605024
 20
-64.8826438242
 11
9.6513601656
 21
-64.9476409563
  0
LINE
  5
2B6
100
AcDbEntity
  8
Livello_1
100
AcDbLine
 62
7
  6
CONTINUOUS
 10
10.6745444292
 20
-62.9374895128
 11
10.6959447111
 21
-63.0763704393
  0
LINE
  5
2B7
100
AcDbEntity
  8
Livello_1
100
AcDbLine
 62
7
  6
CONTINUOUS
 10
9.6513601656
 20
-64.9476409563
 11
9.6601959573
 21
-65.0139162535
  0
LINE
  5
2B8
100
AcDbEntity
  8
Livello_1
100
AcDbLine
 62
7
  6
CONTINUOUS
 10
-23.5069774089
 20
-57.8741689059
 11
-23.4932080406
 21
-57.9812314393
  0
LINE
  5
2B9
100
AcDbEntity
  8
Livello_1
100
AcDbLine
 62
7
  6
CONTINUOUS
 10
5.4514709327
 20
-66.7085322296
 11
5.4350642819
 21
-66.5716240081
  0
LINE
  5
2BA
100
AcDbEntity
  8
Livello_1
100
AcDbLine
 62
7
  6
CONTINUOUS
 10
9.667460142
 20
-65.0814388266
 11
9.6730449846
 21
-65.1501777872
  0
LINE
  5
2BB
100
AcDbEntity
  8
Livello_1
100
AcDbLine
 62
7
  6
CONTINUOUS
 10
10.7114066846
 20
-63.2201744649
 11
10.7207117292
 21
-63.3686566503
  0
LINE
  5
2BC
100
AcDbEntity
  8
Livello_1
100
AcDbLine
 62
7
  6
CONTINUOUS
 10
9.6730449846
 20
-65.1501777872
 11
9.6768427491
 21
-65.2201022457
  0
LINE
  5
2BD
100
AcDbEntity
  8
Livello_1
100
AcDbLine
 62
7
  6
CONTINUOUS
 10
5.4242720152
 20
-66.4303238942
 11
5.4192801453
 21
-66.2848748979
  0
LINE
  5
2BE
100
AcDbEntity
  8
Livello_1
100
AcDbLine
 62
7
  6
CONTINUOUS
 10
-4.1816773135
 20
57.8658353298
 11
-4.1816773135
 21
-76.6407923937
  0
LINE
  5
2BF
100
AcDbEntity
  8
Livello_1
100
AcDbLine
 62
7
  6
CONTINUOUS
 10
-3.8209770775
 20
-91.0717962369
 11
-3.8209770775
 21
-90.1616239011
  0
LINE
  5
2C0
100
AcDbEntity
  8
Livello_1
100
AcDbLine
 62
7
  6
CONTINUOUS
 10
-3.8209770775
 20
-88.6544433917
 11
-3.8209770775
 21
-81.0904683607
  0
LINE
  5
2C1
100
AcDbEntity
  8
Livello_1
100
AcDbLine
 62
7
  6
CONTINUOUS
 10
-3.6284622158
 20
64.9705445117
 11
-3.6284622158
 21
64.0737222022
  0
LINE
  5
2C2
100
AcDbEntity
  8
Livello_1
100
AcDbLine
 62
7
  6
CONTINUOUS
 10
-3.6284622158
 20
62.5531916669
 11
-3.6284622158
 21
56.7631481327
  0
LINE
  5
2C3
100
AcDbEntity
  8
Livello_1
100
AcDbLine
 62
7
  6
CONTINUOUS
 10
-2.3759303341
 20
55.5228433774
 11
-2.3759303341
 21
-76.3288758976
  0
LINE
  5
2C4
100
AcDbEntity
  8
Livello_1
100
AcDbLine
 62
7
  6
CONTINUOUS
 10
0.0
 20
50.1021089748
 11
0.0
 21
22.2270050825
  0
LINE
  5
2C5
100
AcDbEntity
  8
Livello_1
100
AcDbLine
 62
7
  6
CONTINUOUS
 10
-0.0
 20
0.8960340455
 11
0.0
 21
-26.9790698468
  0
LINE
  5
2C6
100
AcDbEntity
  8
Livello_1
100
AcDbLine
 62
7
  6
CONTINUOUS
 10
1.5399941249
 20
-22.362456171
 11
1.5399941249
 21
-0.4783948031
  0
LINE
  5
2C7
100
AcDbEntity
  8
Livello_1
100
AcDbLine
 62
7
  6
CONTINUOUS
 10
1.5399941249
 20
26.8436187583
 11
1.5399941249
 21
48.7276801262
  0
LINE
  5
2C8
100
AcDbEntity
  8
Livello_1
100
AcDbLine
 62
7
  6
CONTINUOUS
 10
3.5456171948
 20
-71.1835013776
 11
3.5456171948
 21
-73.9127707186
  0
LINE
  5
2C9
100
AcDbEntity
  8
Livello_1
100
AcDbLine
 62
7
  6
CONTINUOUS
 10
5.867512405
 20
-73.8731328124
 11
6.1436043229
 21
-73.8159508696
  0
LINE
  5
2CA
100
AcDbEntity
  8
Livello_1
100
AcDbLine
 62
7
  6
CONTINUOUS
 10
5.5888334584
 20
-73.9252609165
 11
5.867512405
 21
-73.8731328124
  0
LINE
  5
2CB
100
AcDbEntity
  8
Livello_1
100
AcDbLine
 62
7
  6
CONTINUOUS
 10
5.5888334584
 20
-70.7671117479
 11
5.867512405
 21
-70.7149772978
  0
LINE
  5
2CC
100
AcDbEntity
  8
Livello_1
100
AcDbLine
 62
7
  6
CONTINUOUS
 10
-2.4198481766
 20
-76.9527088898
 11
-4.1353889053
 21
-77.2646253859
  0
LINE
  5
2CD
100
AcDbEntity
  8
Livello_1
100
AcDbLine
 62
7
  6
CONTINUOUS
 10
7.2957613154
 20
-68.1227775286
 11
7.1689370422
 21
-68.1455567124
  0
LINE
  5
2CE
100
AcDbEntity
  8
Livello_1
100
AcDbLine
 62
7
  6
CONTINUOUS
 10
5.3074731439
 20
-73.9724561381
 11
5.5888334584
 21
-73.9252609165
  0
LINE
  5
2CF
100
AcDbEntity
  8
Livello_1
100
AcDbLine
 62
7
  6
CONTINUOUS
 10
5.3074731439
 20
-70.8143137384
 11
5.5888334584
 21
-70.7671117479
  0
LINE
  5
2D0
100
AcDbEntity
  8
Livello_1
100
AcDbLine
 62
7
  6
CONTINUOUS
 10
8.3061430441
 20
-66.2844074057
 11
8.3563650224
 21
-66.2763338688
  0
LINE
  5
2D1
100
AcDbEntity
  8
Livello_1
100
AcDbLine
 62
7
  6
CONTINUOUS
 10
5.0233371229
 20
-70.8567042386
 11
5.3074731439
 21
-70.8143137384
  0
LINE
  5
2D2
100
AcDbEntity
  8
Livello_1
100
AcDbLine
 62
7
  6
CONTINUOUS
 10
8.2571801855
 20
-66.2910798737
 11
8.3061430441
 21
-66.2844074057
  0
LINE
  5
2D3
100
AcDbEntity
  8
Livello_1
100
AcDbLine
 62
7
  6
CONTINUOUS
 10
7.1689370422
 20
-68.1455567124
 11
7.0446756581
 21
-68.1613521694
  0
LINE
  5
2D4
100
AcDbEntity
  8
Livello_1
100
AcDbLine
 62
7
  6
CONTINUOUS
 10
8.9768724962
 20
-61.6037916429
 11
9.0959618621
 21
-61.5888346122
  0
LINE
  5
2D5
100
AcDbEntity
  8
Livello_1
100
AcDbLine
 62
7
  6
CONTINUOUS
 10
9.6768427491
 20
-65.2201022457
 11
9.6787457011
 21
-65.2911813138
  0
LINE
  5
2D6
100
AcDbEntity
  8
Livello_1
100
AcDbLine
 62
7
  6
CONTINUOUS
 10
10.7207117292
 20
-63.3686566503
 11
10.7236543139
 21
-63.5215296965
  0
LINE
  5
2D7
100
AcDbEntity
  8
Livello_1
100
AcDbLine
 62
7
  6
CONTINUOUS
 10
12.8494624412
 20
53.9133542576
 11
12.8494624412
 21
32.3642912063
  0
LINE
  5
2D8
100
AcDbEntity
  8
Livello_1
100
AcDbLine
 62
7
  6
CONTINUOUS
 10
12.8494624412
 20
4.7072793283
 11
12.8494624412
 21
-16.8417837227
  0
LINE
  5
2D9
100
AcDbEntity
  8
Livello_1
100
AcDbLine
 62
7
  6
CONTINUOUS
 10
13.3709868228
 20
-66.5827330598
 11
13.3709868228
 21
-69.3120024007
  0
LINE
  5
2DA
100
AcDbEntity
  8
Livello_1
100
AcDbLine
 62
7
  6
CONTINUOUS
 10
9.6787457011
 20
-65.2911813138
 11
9.6786461046
 21
-65.3633841024
  0
LINE
  5
2DB
100
AcDbEntity
  8
Livello_1
100
AcDbLine
 62
7
  6
CONTINUOUS
 10
5.4192801453
 20
-66.2848748979
 11
5.4202609246
 21
-66.1355556783
  0
LINE
  5
2DC
100
AcDbEntity
  8
Livello_1
100
AcDbLine
 62
7
  6
CONTINUOUS
 10
10.7236543139
 20
-63.5215296965
 11
10.72004647
 21
-63.6784654082
  0
LINE
  5
2DD
100
AcDbEntity
  8
Livello_1
100
AcDbLine
 62
7
  6
CONTINUOUS
 10
9.6786461046
 20
-65.3633841024
 11
9.676917877
 21
-65.4253335798
  0
LINE
  5
2DE
100
AcDbEntity
  8
Livello_1
100
AcDbLine
 62
7
  6
CONTINUOUS
 10
5.4202609246
 20
-66.1355556783
 11
5.4273693808
 21
-65.9826787388
  0
LINE
  5
2DF
100
AcDbEntity
  8
Livello_1
100
AcDbLine
 62
7
  6
CONTINUOUS
 10
6.6884044281
 20
-73.6859416456
 11
6.9573012933
 21
-73.6128724528
  0
LINE
  5
2E0
100
AcDbEntity
  8
Livello_1
100
AcDbLine
 62
7
  6
CONTINUOUS
 10
6.4172035511
 20
-70.59542714
 11
6.6884044281
 21
-70.5277694938
  0
LINE
  5
2E1
100
AcDbEntity
  8
Livello_1
100
AcDbLine
 62
7
  6
CONTINUOUS
 10
6.4172035511
 20
-73.7535941326
 11
6.6884044281
 21
-73.6859416456
  0
LINE
  5
2E2
100
AcDbEntity
  8
Livello_1
100
AcDbLine
 62
7
  6
CONTINUOUS
 10
8.4602573353
 20
-66.255930349
 11
8.5235938415
 21
-66.2411712324
  0
LINE
  5
2E3
100
AcDbEntity
  8
Livello_1
100
AcDbLine
 62
7
  6
CONTINUOUS
 10
7.4249712328
 20
-68.0928558238
 11
7.2957613154
 21
-68.1227775286
  0
LINE
  5
2E4
100
AcDbEntity
  8
Livello_1
100
AcDbLine
 62
7
  6
CONTINUOUS
 10
6.1436043229
 20
-73.8159508696
 11
6.4172035511
 21
-73.7535941326
  0
LINE
  5
2E5
100
AcDbEntity
  8
Livello_1
100
AcDbLine
 62
7
  6
CONTINUOUS
 10
6.1436043229
 20
-70.6577894181
 11
6.4172035511
 21
-70.59542714
  0
LINE
  5
2E6
100
AcDbEntity
  8
Livello_1
100
AcDbLine
 62
7
  6
CONTINUOUS
 10
8.4077638698
 20
-66.2668459531
 11
8.4602573353
 21
-66.255930349
  0
LINE
  5
2E7
100
AcDbEntity
  8
Livello_1
100
AcDbLine
 62
7
  6
CONTINUOUS
 10
5.867512405
 20
-70.7149772978
 11
6.1436043229
 21
-70.6577894181
  0
LINE
  5
2E8
100
AcDbEntity
  8
Livello_1
100
AcDbLine
 62
7
  6
CONTINUOUS
 10
8.3563650224
 20
-66.2763338688
 11
8.4077638698
 21
-66.2668459531
  0
LINE
  5
2E9
100
AcDbEntity
  8
Livello_1
100
AcDbLine
 62
7
  6
CONTINUOUS
 10
8.8554264292
 20
-61.6251757047
 11
8.9768724962
 21
-61.6037916429
  0
LINE
  5
2EA
100
AcDbEntity
  8
Livello_1
100
AcDbLine
 62
7
  6
CONTINUOUS
 10
13.1174610948
 20
32.1961058316
 11
16.1294515478
 21
30.0212992542
  0
LINE
  5
2EB
100
AcDbEntity
  8
Livello_1
100
AcDbLine
 62
7
  6
CONTINUOUS
 10
0.2679986535
 20
49.8645533712
 11
1.2378094232
 21
48.9288038829
  0
LINE
  5
2EC
100
AcDbEntity
  8
Livello_1
100
AcDbLine
 62
7
  6
CONTINUOUS
 10
16.3633889199
 20
-19.2494047732
 11
16.3633889199
 21
8.8268228757
  0
LINE
  5
2ED
100
AcDbEntity
  8
Livello_1
100
AcDbLine
 62
7
  6
CONTINUOUS
 10
16.3633889199
 20
29.9566701561
 11
16.3633889199
 21
58.0327730385
  0
LINE
  5
2EE
100
AcDbEntity
  8
Livello_1
100
AcDbLine
 62
7
  6
CONTINUOUS
 10
20.0746961574
 20
-66.4523519644
 11
20.0746961574
 21
67.6406744853
  0
LINE
  5
2EF
100
AcDbEntity
  8
Livello_1
100
AcDbLine
 62
7
  6
CONTINUOUS
 10
24.3550638503
 20
69.590776419
 11
24.3550638503
 21
80.0156495524
  0
LINE
  5
2F0
100
AcDbEntity
  8
Livello_1
100
AcDbLine
 62
7
  6
CONTINUOUS
 10
24.4330429743
 20
-77.8153451515
 11
24.4330429743
 21
-66.2232804896
  0
LINE
  5
2F1
100
AcDbEntity
  8
Livello_1
100
AcDbLine
 62
7
  6
CONTINUOUS
 10
9.676917877
 20
-65.4253335798
 11
9.6736134673
 21
-65.4880467852
  0
LINE
  5
2F2
100
AcDbEntity
  8
Livello_1
100
AcDbLine
 62
7
  6
CONTINUOUS
 10
10.72004647
 20
-63.6784654082
 11
10.7097218213
 21
-63.8390973414
  0
LINE
  5
2F3
100
AcDbEntity
  8
Livello_1
100
AcDbLine
 62
7
  6
CONTINUOUS
 10
9.6736134673
 20
-65.4880467852
 11
9.6686676066
 21
-65.5515050057
  0
LINE
  5
2F4
100
AcDbEntity
  8
Livello_1
100
AcDbLine
 62
7
  6
CONTINUOUS
 10
5.4273693808
 20
-65.9826787388
 11
5.440740279
 21
-65.8265877114
  0
LINE
  5
2F5
100
AcDbEntity
  8
Livello_1
100
AcDbLine
 62
7
  6
CONTINUOUS
 10
7.5563538772
 20
-68.0556443979
 11
7.4249712328
 21
-68.0928558238
  0
LINE
  5
2F6
100
AcDbEntity
  8
Livello_1
100
AcDbLine
 62
7
  6
CONTINUOUS
 10
8.6060996924
 20
-61.6877804395
 11
8.7317750866
 21
-61.6531279316
  0
LINE
  5
2F7
100
AcDbEntity
  8
Livello_1
100
AcDbLine
 62
7
  6
CONTINUOUS
 10
6.6884044281
 20
-70.5277694938
 11
6.9573012933
 21
-70.4546955103
  0
LINE
  5
2F8
100
AcDbEntity
  8
Livello_1
100
AcDbLine
 62
7
  6
CONTINUOUS
 10
8.5235938415
 20
-66.2411712324
 11
8.5882085492
 21
-66.2243775111
  0
LINE
  5
2F9
100
AcDbEntity
  8
Livello_1
100
AcDbLine
 62
7
  6
CONTINUOUS
 10
8.7317750866
 20
-61.6531279316
 11
8.8554264292
 21
-61.6251757047
  0
LINE
  5
2FA
100
AcDbEntity
  8
Livello_1
100
AcDbLine
 62
7
  6
CONTINUOUS
 10
-32.077492461
 20
72.7879205043
 11
-7.2619150961
 21
57.0632042307
  0
LINE
  5
2FB
100
AcDbEntity
  8
Livello_1
100
AcDbLine
 62
7
  6
CONTINUOUS
 10
-6.6038960557
 20
62.677459199
 11
-7.7735829161
 21
63.5863838688
  0
LINE
  5
2FC
100
AcDbEntity
  8
Livello_1
100
AcDbLine
 62
7
  6
CONTINUOUS
 10
-6.6038960557
 20
63.8471460594
 11
-7.7735829161
 21
64.7560707293
  0
LINE
  5
2FD
100
AcDbEntity
  8
Livello_1
100
AcDbLine
 62
7
  6
CONTINUOUS
 10
9.6686676066
 20
-65.5515050057
 11
9.662015026
 21
-65.6156895279
  0
LINE
  5
2FE
100
AcDbEntity
  8
Livello_1
100
AcDbLine
 62
7
  6
CONTINUOUS
 10
10.7097218213
 20
-63.8390973414
 11
10.6925390168
 21
-64.0030245666
  0
LINE
  5
2FF
100
AcDbEntity
  8
Livello_1
100
AcDbLine
 62
7
  6
CONTINUOUS
 10
5.440740279
 20
-65.8265877114
 11
5.4604856094
 21
-65.6676538076
  0
LINE
  5
300
100
AcDbEntity
  8
Livello_1
100
AcDbLine
 62
7
  6
CONTINUOUS
 10
9.662015026
 20
-65.6156895279
 11
9.6535904568
 21
-65.6805816389
  0
LINE
  5
301
100
AcDbEntity
  8
Livello_1
100
AcDbLine
 62
7
  6
CONTINUOUS
 10
5.4604856094
 20
-65.6676538076
 11
5.4866926894
 21
-65.5062715566
  0
LINE
  5
302
100
AcDbEntity
  8
Livello_1
100
AcDbLine
 62
7
  6
CONTINUOUS
 10
-23.708149037
 20
-57.7698443782
 11
-23.5644179159
 21
-57.2495676628
  0
LINE
  5
303
100
AcDbEntity
  8
Livello_1
100
AcDbLine
 62
7
  6
CONTINUOUS
 10
1.5059328436
 20
26.6413721023
 11
0.3679366989
 21
22.5925712159
  0
LINE
  5
304
100
AcDbEntity
  8
Livello_1
100
AcDbLine
 62
7
  6
CONTINUOUS
 10
-6.435710681
 20
65.1337392226
 11
-38.9920573472
 21
85.5764968453
  0
LINE
  5
305
100
AcDbEntity
  8
Livello_1
100
AcDbLine
 62
7
  6
CONTINUOUS
 10
10.6925390168
 20
-64.0030245666
 11
10.6683844424
 21
-64.1698164155
  0
LINE
  5
306
100
AcDbEntity
  8
Livello_1
100
AcDbLine
 62
7
  6
CONTINUOUS
 10
9.6535904568
 20
-65.6805816389
 11
9.6433286301
 21
-65.7461626247
  0
LINE
  5
307
100
AcDbEntity
  8
Livello_1
100
AcDbLine
 62
7
  6
CONTINUOUS
 10
9.6433286301
 20
-65.7461626247
 11
9.6311642766
 21
-65.8124137725
  0
LINE
  5
308
100
AcDbEntity
  8
Livello_1
100
AcDbLine
 62
7
  6
CONTINUOUS
 10
10.6683844424
 20
-64.1698164155
 11
10.6371741165
 21
-64.3390180253
  0
LINE
  5
309
100
AcDbEntity
  8
Livello_1
100
AcDbLine
 62
7
  6
CONTINUOUS
 10
5.4866926894
 20
-65.5062715566
 11
5.5194229345
 21
-65.3428539939
  0
LINE
  5
30A
100
AcDbEntity
  8
Livello_1
100
AcDbLine
 62
7
  6
CONTINUOUS
 10
1.5059328436
 20
-22.5647028271
 11
0.3679366989
 21
-26.6135037135
  0
LINE
  5
30B
100
AcDbEntity
  8
Livello_1
100
AcDbLine
 62
7
  6
CONTINUOUS
 10
-39.4453343992
 20
85.851856728
 11
-39.5208181914
 21
85.7848570646
  0
LINE
  5
30C
100
AcDbEntity
  8
Livello_1
100
AcDbLine
 62
7
  6
CONTINUOUS
 10
9.6311642766
 20
-65.8124137725
 11
9.6170321281
 21
-65.879316369
  0
LINE
  5
30D
100
AcDbEntity
  8
Livello_1
100
AcDbLine
 62
7
  6
CONTINUOUS
 10
10.6371741165
 20
-64.3390180253
 11
10.5988547188
 21
-64.5101564544
  0
LINE
  5
30E
100
AcDbEntity
  8
Livello_1
100
AcDbLine
 62
7
  6
CONTINUOUS
 10
5.5194229345
 20
-65.3428539939
 11
5.5587113222
 21
-65.1778274734
  0
LINE
  5
30F
100
AcDbEntity
  8
Livello_1
100
AcDbLine
 62
7
  6
CONTINUOUS
 10
9.6170321281
 20
-65.879316369
 11
9.6008669151
 21
-65.9468517008
  0
LINE
  5
310
100
AcDbEntity
  8
Livello_1
100
AcDbLine
 62
7
  6
CONTINUOUS
 10
5.5587113222
 20
-65.1778274734
 11
5.6045665449
 21
-65.0116263097
  0
LINE
  5
311
100
AcDbEntity
  8
Livello_1
100
AcDbLine
 62
7
  6
CONTINUOUS
 10
10.5988547188
 20
-64.5101564544
 11
10.5534037398
 21
-64.6827471186
  0
LINE
  5
312
100
AcDbEntity
  8
Livello_1
100
AcDbLine
 62
7
  6
CONTINUOUS
 10
9.6008669151
 20
-65.9468517008
 11
9.5826033689
 21
-66.0150010546
  0
LINE
  5
313
100
AcDbEntity
  8
Livello_1
100
AcDbLine
 62
7
  6
CONTINUOUS
 10
9.5826033689
 20
-66.0150010546
 11
9.5621762208
 21
-66.0837457169
  0
LINE
  5
314
100
AcDbEntity
  8
Livello_1
100
AcDbLine
 62
7
  6
CONTINUOUS
 10
10.5534037398
 20
-64.6827471186
 11
10.5135160335
 21
-64.8164330165
  0
LINE
  5
315
100
AcDbEntity
  8
Livello_1
100
AcDbLine
 62
7
  6
CONTINUOUS
 10
5.6045665449
 20
-65.0116263097
 11
5.6442606637
 21
-64.883371748
  0
LINE
  5
316
100
AcDbEntity
  8
Livello_1
100
AcDbLine
 62
7
  6
CONTINUOUS
 10
24.3550638503
 20
80.0156495524
 11
-8.2097669443
 21
100.6264677834
  0
LINE
  5
317
100
AcDbEntity
  8
Livello_1
100
AcDbLine
 62
7
  6
CONTINUOUS
 10
9.5621762208
 20
-66.0837457169
 11
9.5395202016
 21
-66.153066975
  0
LINE
  5
318
100
AcDbEntity
  8
Livello_1
100
AcDbLine
 62
7
  6
CONTINUOUS
 10
10.5135160335
 20
-64.8164330165
 11
10.4555423053
 21
-64.9902025097
  0
LINE
  5
319
100
AcDbEntity
  8
Livello_1
100
AcDbLine
 62
7
  6
CONTINUOUS
 10
5.6442606637
 20
-64.883371748
 11
5.7015960894
 21
-64.7163741943
  0
LINE
  5
31A
100
AcDbEntity
  8
Livello_1
100
AcDbLine
 62
7
  6
CONTINUOUS
 10
9.5395202016
 20
-66.153066975
 11
9.5145700424
 21
-66.2229461153
  0
LINE
  5
31B
100
AcDbEntity
  8
Livello_1
100
AcDbLine
 62
7
  6
CONTINUOUS
 10
5.7015960894
 20
-64.7163741943
 11
5.7653184718
 21
-64.5495493351
  0
LINE
  5
31C
100
AcDbEntity
  8
Livello_1
100
AcDbLine
 62
7
  6
CONTINUOUS
 10
10.4555423053
 20
-64.9902025097
 11
10.3906083438
 21
-65.1639072779
  0
LINE
  5
31D
100
AcDbEntity
  8
Livello_1
100
AcDbLine
 62
7
  6
CONTINUOUS
 10
9.5145700424
 20
-66.2229461153
 11
9.4892907954
 21
-66.2883170632
  0
LINE
  5
31E
100
AcDbEntity
  8
Livello_1
100
AcDbLine
 62
7
  6
CONTINUOUS
 10
10.4577445397
 20
-64.6415658585
 11
10.4845115677
 21
-64.5747394243
  0
LINE
  5
31F
100
AcDbEntity
  8
Livello_1
100
AcDbLine
 62
7
  6
CONTINUOUS
 10
10.3906083438
 20
-65.1639072779
 11
10.3188102502
 21
-65.3370896385
  0
LINE
  5
320
100
AcDbEntity
  8
Livello_1
100
AcDbLine
 62
7
  6
CONTINUOUS
 10
9.4892907954
 20
-66.2883170632
 11
9.4619249021
 21
-66.3541379242
  0
LINE
  5
321
100
AcDbEntity
  8
Livello_1
100
AcDbLine
 62
7
  6
CONTINUOUS
 10
5.7653184718
 20
-64.5495493351
 11
5.8353370797
 21
-64.3833025864
  0
LINE
  5
322
100
AcDbEntity
  8
Livello_1
100
AcDbLine
 62
7
  6
CONTINUOUS
 10
12.983461768
 20
54.1484145291
 11
15.9272048918
 21
57.5953413444
  0
LINE
  5
323
100
AcDbEntity
  8
Livello_1
100
AcDbLine
 62
7
  6
CONTINUOUS
 10
13.1634952419
 20
62.7233737945
 11
13.3953163095
 21
62.9674167736
  0
LINE
  5
324
100
AcDbEntity
  8
Livello_1
100
AcDbLine
 62
7
  6
CONTINUOUS
 10
12.9283519716
 20
62.4865109382
 11
13.1634952419
 21
62.7233737945
  0
LINE
  5
325
100
AcDbEntity
  8
Livello_1
100
AcDbLine
 62
7
  6
CONTINUOUS
 10
12.690063998
 20
62.2567890202
 11
12.9283519716
 21
62.4865109382
  0
LINE
  5
326
100
AcDbEntity
  8
Livello_1
100
AcDbLine
 62
7
  6
CONTINUOUS
 10
-8.2097669443
 20
100.6264677834
 11
-39.4453343992
 21
85.851856728
  0
LINE
  5
327
100
AcDbEntity
  8
Livello_1
100
AcDbLine
 62
7
  6
CONTINUOUS
 10
10.4293820552
 20
-64.7069287112
 11
10.4577445397
 21
-64.6415658585
  0
LINE
  5
328
100
AcDbEntity
  8
Livello_1
100
AcDbLine
 62
7
  6
CONTINUOUS
 10
9.4619249021
 20
-66.3541379242
 11
9.432420105
 21
-66.4203937151
  0
LINE
  5
329
100
AcDbEntity
  8
Livello_1
100
AcDbLine
 62
7
  6
CONTINUOUS
 10
10.3188102502
 20
-65.3370896385
 11
10.2402627723
 21
-65.5093109776
  0
LINE
  5
32A
100
AcDbEntity
  8
Livello_1
100
AcDbLine
 62
7
  6
CONTINUOUS
 10
5.8353370797
 20
-64.3833025864
 11
5.9115456203
 21
-64.2180224855
  0
LINE
  5
32B
100
AcDbEntity
  8
Livello_1
100
AcDbLine
 62
7
  6
CONTINUOUS
 10
10.3994776566
 20
-64.7708366465
 11
10.4293820552
 21
-64.7069287112
  0
LINE
  5
32C
100
AcDbEntity
  8
Livello_1
100
AcDbLine
 62
7
  6
CONTINUOUS
 10
9.432420105
 20
-66.4203937151
 11
9.4007241458
 21
-66.4870694526
  0
LINE
  5
32D
100
AcDbEntity
  8
Livello_1
100
AcDbLine
 62
7
  6
CONTINUOUS
 10
5.9115456203
 20
-64.2180224855
 11
5.9938249559
 21
-64.054078212
  0
LINE
  5
32E
100
AcDbEntity
  8
Livello_1
100
AcDbLine
 62
7
  6
CONTINUOUS
 10
12.4488088211
 20
62.0341688558
 11
12.690063998
 21
62.2567890202
  0
LINE
  5
32F
100
AcDbEntity
  8
Livello_1
100
AcDbLine
 62
7
  6
CONTINUOUS
 10
12.2047639413
 20
61.8186112606
 11
12.4488088211
 21
62.0341688558
  0
LINE
  5
330
100
AcDbEntity
  8
Livello_1
100
AcDbLine
 62
7
  6
CONTINUOUS
 10
11.958106858
 20
61.6100770503
 11
12.2047639413
 21
61.8186112606
  0
LINE
  5
331
100
AcDbEntity
  8
Livello_1
100
AcDbLine
 62
7
  6
CONTINUOUS
 10
11.7090150718
 20
61.4085270401
 11
11.958106858
 21
61.6100770503
  0
LINE
  5
332
100
AcDbEntity
  8
Livello_1
100
AcDbLine
 62
7
  6
CONTINUOUS
 10
3.2848550042
 20
58.4190504274
 11
3.5404689814
 21
58.4116831382
  0
LINE
  5
333
100
AcDbEntity
  8
Livello_1
100
AcDbLine
 62
7
  6
CONTINUOUS
 10
10.2402627723
 20
-65.5093109776
 11
10.1550960298
 21
-65.6801548422
  0
LINE
  5
334
100
AcDbEntity
  8
Livello_1
100
AcDbLine
 62
7
  6
CONTINUOUS
 10
10.368084886
 20
-64.8332983293
 11
10.3994776566
 21
-64.7708366465
  0
LINE
  5
335
100
AcDbEntity
  8
Livello_1
100
AcDbLine
 62
7
  6
CONTINUOUS
 10
9.4007241458
 20
-66.4870694526
 11
9.3667847667
 21
-66.5541501543
  0
LINE
  5
336
100
AcDbEntity
  8
Livello_1
100
AcDbLine
 62
7
  6
CONTINUOUS
 10
9.3667847667
 20
-66.5541501543
 11
9.3305497101
 21
-66.6216208371
  0
LINE
  5
337
100
AcDbEntity
  8
Livello_1
100
AcDbLine
 62
7
  6
CONTINUOUS
 10
10.3352572859
 20
-64.8943224234
 11
10.368084886
 21
-64.8332983293
  0
LINE
  5
338
100
AcDbEntity
  8
Livello_1
100
AcDbLine
 62
7
  6
CONTINUOUS
 10
10.1550960298
 20
-65.6801548422
 11
10.0634522354
 21
-65.8492292027
  0
LINE
  5
339
100
AcDbEntity
  8
Livello_1
100
AcDbLine
 62
7
  6
CONTINUOUS
 10
5.9938249559
 20
-64.054078212
 11
6.0820458099
 21
-63.8918177629
  0
LINE
  5
33A
100
AcDbEntity
  8
Livello_1
100
AcDbLine
 62
7
  6
CONTINUOUS
 10
11.4576660822
 20
61.213922046
 11
11.7090150718
 21
61.4085270401
  0
LINE
  5
33B
100
AcDbEntity
  8
Livello_1
100
AcDbLine
 62
7
  6
CONTINUOUS
 10
11.2042373895
 20
61.0262228827
 11
11.4576660822
 21
61.213922046
  0
LINE
  5
33C
100
AcDbEntity
  8
Livello_1
100
AcDbLine
 62
7
  6
CONTINUOUS
 10
10.9489064934
 20
60.8453903663
 11
11.2042373895
 21
61.0262228827
  0
LINE
  5
33D
100
AcDbEntity
  8
Livello_1
100
AcDbLine
 62
7
  6
CONTINUOUS
 10
10.691850894
 20
60.6713853121
 11
10.9489064934
 21
60.8453903663
  0
LINE
  5
33E
100
AcDbEntity
  8
Livello_1
100
AcDbLine
 62
7
  6
CONTINUOUS
 10
3.8002842849
 20
58.4113472878
 11
4.0640574298
 21
58.4180966272
  0
LINE
  5
33F
100
AcDbEntity
  8
Livello_1
100
AcDbLine
 62
7
  6
CONTINUOUS
 10
-6.6038960557
 20
56.64624183
 11
-3.5627102186
 21
56.64624183
  0
LINE
  5
340
100
AcDbEntity
  8
Livello_1
100
AcDbLine
 62
7
  6
CONTINUOUS
 10
-3.6406893426
 20
62.677459199
 11
-6.6038960557
 21
62.677459199
  0
LINE
  5
341
100
AcDbEntity
  8
Livello_1
100
AcDbLine
 62
7
  6
CONTINUOUS
 10
-3.6406893426
 20
63.8471460594
 11
-6.6038960557
 21
63.8471460594
  0
LINE
  5
342
100
AcDbEntity
  8
Livello_1
100
AcDbLine
 62
7
  6
CONTINUOUS
 10
3.5404689814
 20
58.4116831382
 11
3.8002842849
 21
58.4113472878
  0
LINE
  5
343
100
AcDbEntity
  8
Livello_1
100
AcDbLine
 62
7
  6
CONTINUOUS
 10
9.3305497101
 20
-66.6216208371
 11
9.2919667177
 21
-66.6894665179
  0
LINE
  5
344
100
AcDbEntity
  8
Livello_1
100
AcDbLine
 62
7
  6
CONTINUOUS
 10
10.301048398
 20
-64.9539175937
 11
10.3352572859
 21
-64.8943224234
  0
LINE
  5
345
100
AcDbEntity
  8
Livello_1
100
AcDbLine
 62
7
  6
CONTINUOUS
 10
6.0820458099
 20
-63.8918177629
 11
6.1760713901
 21
-63.731566752
  0
LINE
  5
346
100
AcDbEntity
  8
Livello_1
100
AcDbLine
 62
7
  6
CONTINUOUS
 10
10.0634522354
 20
-65.8492292027
 11
9.965482518
 21
-66.0161679363
  0
LINE
  5
347
100
AcDbEntity
  8
Livello_1
100
AcDbLine
 62
7
  6
CONTINUOUS
 10
9.2919667177
 20
-66.6894665179
 11
9.2509835317
 21
-66.7576722142
  0
LINE
  5
348
100
AcDbEntity
  8
Livello_1
100
AcDbLine
 62
7
  6
CONTINUOUS
 10
6.1760713901
 20
-63.731566752
 11
6.275505119
 21
-63.5744530954
  0
LINE
  5
349
100
AcDbEntity
  8
Livello_1
100
AcDbLine
 62
7
  6
CONTINUOUS
 10
12.983461768
 20
4.9424643663
 11
15.9272048918
 21
8.3893911816
  0
LINE
  5
34A
100
AcDbEntity
  8
Livello_1
100
AcDbLine
 62
7
  6
CONTINUOUS
 10
10.4332480914
 20
60.5041685357
 11
10.691850894
 21
60.6713853121
  0
LINE
  5
34B
100
AcDbEntity
  8
Livello_1
100
AcDbLine
 62
7
  6
CONTINUOUS
 10
10.1732755855
 20
60.3437008524
 11
10.4332480914
 21
60.5041685357
  0
LINE
  5
34C
100
AcDbEntity
  8
Livello_1
100
AcDbLine
 62
7
  6
CONTINUOUS
 10
9.9121108764
 20
60.1899430776
 11
10.1732755855
 21
60.3437008524
  0
LINE
  5
34D
100
AcDbEntity
  8
Livello_1
100
AcDbLine
 62
7
  6
CONTINUOUS
 10
4.6025033079
 20
58.4530658786
 11
4.8766890729
 21
58.4813932929
  0
LINE
  5
34E
100
AcDbEntity
  8
Livello_1
100
AcDbLine
 62
7
  6
CONTINUOUS
 10
4.3315449321
 20
58.4319849071
 11
4.6025033079
 21
58.4530658786
  0
LINE
  5
34F
100
AcDbEntity
  8
Livello_1
100
AcDbLine
 62
7
  6
CONTINUOUS
 10
4.0640574298
 20
58.4180966272
 11
4.3315449321
 21
58.4319849071
  0
LINE
  5
350
100
AcDbEntity
  8
Livello_1
100
AcDbLine
 62
7
  6
CONTINUOUS
 10
-3.7260296959
 20
65.1337392226
 11
-6.435710681
 21
65.1337392226
  0
LINE
  5
351
100
AcDbEntity
  8
Livello_1
100
AcDbLine
 62
7
  6
CONTINUOUS
 10
10.2655117651
 20
-65.0120925039
 11
10.301048398
 21
-64.9539175937
  0
LINE
  5
352
100
AcDbEntity
  8
Livello_1
100
AcDbLine
 62
7
  6
CONTINUOUS
 10
9.965482518
 20
-66.0161679363
 11
9.8626037603
 21
-66.1792083707
  0
LINE
  5
353
100
AcDbEntity
  8
Livello_1
100
AcDbLine
 62
7
  6
CONTINUOUS
 10
9.2509835317
 20
-66.7576722142
 11
9.207547894
 21
-66.8262229426
  0
LINE
  5
354
100
AcDbEntity
  8
Livello_1
100
AcDbLine
 62
7
  6
CONTINUOUS
 10
10.2287009287
 20
-65.0688558189
 11
10.2655117651
 21
-65.0120925039
  0
LINE
  5
355
100
AcDbEntity
  8
Livello_1
100
AcDbLine
 62
7
  6
CONTINUOUS
 10
9.207547894
 20
-66.8262229426
 11
9.161607547
 21
-66.8951037209
  0
LINE
  5
356
100
AcDbEntity
  8
Livello_1
100
AcDbLine
 62
7
  6
CONTINUOUS
 10
6.275505119
 20
-63.5744530954
 11
6.3793581139
 21
-63.4216202473
  0
LINE
  5
357
100
AcDbEntity
  8
Livello_1
100
AcDbLine
 62
7
  6
CONTINUOUS
 10
9.6499314636
 20
60.0428560272
 11
9.9121108764
 21
60.1899430776
  0
LINE
  5
358
100
AcDbEntity
  8
Livello_1
100
AcDbLine
 62
7
  6
CONTINUOUS
 10
9.3869148479
 20
59.9024005162
 11
9.6499314636
 21
60.0428560272
  0
LINE
  5
359
100
AcDbEntity
  8
Livello_1
100
AcDbLine
 62
7
  6
CONTINUOUS
 10
13.3953163095
 20
62.9674167736
 11
19.9212332412
 21
66.3997458972
  0
LINE
  5
35A
100
AcDbEntity
  8
Livello_1
100
AcDbLine
 62
7
  6
CONTINUOUS
 10
9.1232385285
 20
59.7685373605
 11
9.3869148479
 21
59.9024005162
  0
LINE
  5
35B
100
AcDbEntity
  8
Livello_1
100
AcDbLine
 62
7
  6
CONTINUOUS
 10
8.8590800055
 20
59.6412273756
 11
9.1232385285
 21
59.7685373605
  0
LINE
  5
35C
100
AcDbEntity
  8
Livello_1
100
AcDbLine
 62
7
  6
CONTINUOUS
 10
24.2758370605
 20
76.8428349539
 11
-3.6406893426
 21
63.8471460594
  0
LINE
  5
35D
100
AcDbEntity
  8
Livello_1
100
AcDbLine
 62
7
  6
CONTINUOUS
 10
24.2758370605
 20
75.6731480934
 11
-3.6406893426
 21
62.677459199
  0
LINE
  5
35E
100
AcDbEntity
  8
Livello_1
100
AcDbLine
 62
7
  6
CONTINUOUS
 10
24.2758370605
 20
78.129428117
 11
-3.7260296959
 21
65.1337392226
  0
LINE
  5
35F
100
AcDbEntity
  8
Livello_1
100
AcDbLine
 62
7
  6
CONTINUOUS
 10
20.1514276154
 20
67.6412983184
 11
24.3550638503
 21
69.590776419
  0
LINE
  5
360
100
AcDbEntity
  8
Livello_1
100
AcDbLine
 62
7
  6
CONTINUOUS
 10
-3.5627102186
 20
56.64624183
 11
24.3550638503
 21
69.590776419
  0
LINE
  5
361
100
AcDbEntity
  8
Livello_1
100
AcDbLine
 62
7
  6
CONTINUOUS
 10
5.4337688327
 20
58.5600024539
 11
5.7161758598
 21
58.610391703
  0
LINE
  5
362
100
AcDbEntity
  8
Livello_1
100
AcDbLine
 62
7
  6
CONTINUOUS
 10
5.1538587425
 20
58.5170209011
 11
5.4337688327
 21
58.5600024539
  0
LINE
  5
363
100
AcDbEntity
  8
Livello_1
100
AcDbLine
 62
7
  6
CONTINUOUS
 10
4.8766890729
 20
58.4813932929
 11
5.1538587425
 21
58.5170209011
  0
LINE
  5
364
100
AcDbEntity
  8
Livello_1
100
AcDbLine
 62
7
  6
CONTINUOUS
 10
9.8626037603
 20
-66.1792083707
 11
9.7548775916
 21
-66.3376803568
  0
LINE
  5
365
100
AcDbEntity
  8
Livello_1
100
AcDbLine
 62
7
  6
CONTINUOUS
 10
10.1906694317
 20
-65.1242162028
 11
10.2287009287
 21
-65.0688558189
  0
LINE
  5
366
100
AcDbEntity
  8
Livello_1
100
AcDbLine
 62
7
  6
CONTINUOUS
 10
9.161607547
 20
-66.8951037209
 11
9.1131102327
 21
-66.9642995657
  0
LINE
  5
367
100
AcDbEntity
  8
Livello_1
100
AcDbLine
 62
7
  6
CONTINUOUS
 10
10.1514708155
 20
-65.1781823196
 11
10.1906694317
 21
-65.1242162028
  0
LINE
  5
368
100
AcDbEntity
  8
Livello_1
100
AcDbLine
 62
7
  6
CONTINUOUS
 10
6.3793581139
 20
-63.4216202473
 11
6.4874022847
 21
-63.2733381472
  0
LINE
  5
369
100
AcDbEntity
  8
Livello_1
100
AcDbLine
 62
7
  6
CONTINUOUS
 10
9.7548775916
 20
-66.3376803568
 11
9.6425594251
 21
-66.4912773436
  0
LINE
  5
36A
100
AcDbEntity
  8
Livello_1
100
AcDbLine
 62
7
  6
CONTINUOUS
 10
9.1131102327
 20
-66.9642995657
 11
9.0620036929
 21
-67.0337954939
  0
LINE
  5
36B
100
AcDbEntity
  8
Livello_1
100
AcDbLine
 62
7
  6
CONTINUOUS
 10
16.3292028721
 20
58.0327730385
 11
0.0
 21
50.1021089748
  0
LINE
  5
36C
100
AcDbEntity
  8
Livello_1
100
AcDbLine
 62
7
  6
CONTINUOUS
 10
-2.3552190788
 20
55.8201621818
 11
3.2848550042
 21
58.4190504274
  0
LINE
  5
36D
100
AcDbEntity
  8
Livello_1
100
AcDbLine
 62
7
  6
CONTINUOUS
 10
1.5399941249
 20
48.7276801262
 11
12.8494624412
 21
53.9133542576
  0
LINE
  5
36E
100
AcDbEntity
  8
Livello_1
100
AcDbLine
 62
7
  6
CONTINUOUS
 10
8.5946167795
 20
59.5204313766
 11
8.8590800055
 21
59.6412273756
  0
LINE
  5
36F
100
AcDbEntity
  8
Livello_1
100
AcDbLine
 62
7
  6
CONTINUOUS
 10
8.3300263498
 20
59.4061101793
 11
8.5946167795
 21
59.5204313766
  0
LINE
  5
370
100
AcDbEntity
  8
Livello_1
100
AcDbLine
 62
7
  6
CONTINUOUS
 10
8.0361036836
 20
59.2866328705
 11
8.3300263498
 21
59.4061101793
  0
LINE
  5
371
100
AcDbEntity
  8
Livello_1
100
AcDbLine
 62
7
  6
CONTINUOUS
 10
6.2875067861
 20
58.7336082923
 11
6.5759437171
 21
58.8065431353
  0
LINE
  5
372
100
AcDbEntity
  8
Livello_1
100
AcDbLine
 62
7
  6
CONTINUOUS
 10
6.0008363387
 20
58.6682423986
 11
6.2875067861
 21
58.7336082923
  0
LINE
  5
373
100
AcDbEntity
  8
Livello_1
100
AcDbLine
 62
7
  6
CONTINUOUS
 10
5.7161758598
 20
58.610391703
 11
6.0008363387
 21
58.6682423986
  0
LINE
  5
374
100
AcDbEntity
  8
Livello_1
100
AcDbLine
 62
7
  6
CONTINUOUS
 10
10.1111586232
 20
-65.2307628343
 11
10.1514708155
 21
-65.1781823196
  0
LINE
  5
375
100
AcDbEntity
  8
Livello_1
100
AcDbLine
 62
7
  6
CONTINUOUS
 10
9.0620036929
 20
-67.0337954939
 11
9.00823567
 21
-67.1035765231
  0
LINE
  5
376
100
AcDbEntity
  8
Livello_1
100
AcDbLine
 62
7
  6
CONTINUOUS
 10
6.4874022847
 20
-63.2733381472
 11
6.5993864918
 21
-63.1298798727
  0
LINE
  5
377
100
AcDbEntity
  8
Livello_1
100
AcDbLine
 62
7
  6
CONTINUOUS
 10
9.6425594251
 20
-66.4912773436
 11
9.5259322726
 21
-66.6396885116
  0
LINE
  5
378
100
AcDbEntity
  8
Livello_1
100
AcDbLine
 62
7
  6
CONTINUOUS
 10
9.00823567
 20
-67.1035765231
 11
8.9517539057
 21
-67.17362767
  0
LINE
  5
379
100
AcDbEntity
  8
Livello_1
100
AcDbLine
 62
7
  6
CONTINUOUS
 10
10.0697863961
 20
-65.2819664109
 11
10.1111586232
 21
-65.2307628343
  0
LINE
  5
37A
100
AcDbEntity
  8
Livello_1
100
AcDbLine
 62
7
  6
CONTINUOUS
 10
6.5993864918
 20
-63.1298798727
 11
6.7150364751
 21
-62.991518744
  0
LINE
  5
37B
100
AcDbEntity
  8
Livello_1
100
AcDbLine
 62
7
  6
CONTINUOUS
 10
7.7424865961
 20
59.1750470172
 11
8.0361036836
 21
59.2866328705
  0
LINE
  5
37C
100
AcDbEntity
  8
Livello_1
100
AcDbLine
 62
7
  6
CONTINUOUS
 10
7.4494185715
 20
59.0712988678
 11
7.7424865961
 21
59.1750470172
  0
LINE
  5
37D
100
AcDbEntity
  8
Livello_1
100
AcDbLine
 62
7
  6
CONTINUOUS
 10
7.1571430941
 20
58.975334672
 11
7.4494185715
 21
59.0712988678
  0
LINE
  5
37E
100
AcDbEntity
  8
Livello_1
100
AcDbLine
 62
7
  6
CONTINUOUS
 10
6.5759437171
 20
58.8065431353
 11
6.8659036478
 21
58.8871006779
  0
LINE
  5
37F
100
AcDbEntity
  8
Livello_1
100
AcDbLine
 62
7
  6
CONTINUOUS
 10
9.5259322726
 20
-66.6396885116
 11
9.4053069027
 21
-66.782602335
  0
LINE
  5
380
100
AcDbEntity
  8
Livello_1
100
AcDbLine
 62
7
  6
CONTINUOUS
 10
10.0274076773
 20
-65.331801714
 11
10.0697863961
 21
-65.2819664109
  0
LINE
  5
381
100
AcDbEntity
  8
Livello_1
100
AcDbLine
 62
7
  6
CONTINUOUS
 10
9.9840760082
 20
-65.3802774075
 11
10.0274076773
 21
-65.331801714
  0
LINE
  5
382
100
AcDbEntity
  8
Livello_1
100
AcDbLine
 62
7
  6
CONTINUOUS
 10
6.7150364751
 20
-62.991518744
 11
6.8340552979
 21
-62.8585250821
  0
LINE
  5
383
100
AcDbEntity
  8
Livello_1
100
AcDbLine
 62
7
  6
CONTINUOUS
 10
12.8494624412
 20
32.3642912063
 11
1.5399941249
 21
26.8436187583
  0
LINE
  5
384
100
AcDbEntity
  8
Livello_1
100
AcDbLine
 62
7
  6
CONTINUOUS
 10
0.2009989902
 20
22.1940667005
 11
16.3633889199
 21
29.9566701561
  0
LINE
  5
385
100
AcDbEntity
  8
Livello_1
100
AcDbLine
 62
7
  6
CONTINUOUS
 10
6.8659036478
 20
58.8871006779
 11
7.1571430941
 21
58.975334672
  0
LINE
  5
386
100
AcDbEntity
  8
Livello_1
100
AcDbLine
 62
7
  6
CONTINUOUS
 10
9.4053069027
 20
-66.782602335
 11
9.2810213308
 21
-66.9197106012
  0
LINE
  5
387
100
AcDbEntity
  8
Livello_1
100
AcDbLine
 62
7
  6
CONTINUOUS
 10
9.9398449316
 20
-65.4274021561
 11
9.9840760082
 21
-65.3802774075
  0
LINE
  5
388
100
AcDbEntity
  8
Livello_1
100
AcDbLine
 62
7
  6
CONTINUOUS
 10
13.2068604258
 20
-66.5137007846
 11
13.4489659467
 21
-66.257341771
  0
LINE
  5
389
100
AcDbEntity
  8
Livello_1
100
AcDbLine
 62
7
  6
CONTINUOUS
 10
13.2068604258
 20
-69.6719176888
 11
13.4489659467
 21
-69.4155586776
  0
LINE
  5
38A
100
AcDbEntity
  8
Livello_1
100
AcDbLine
 62
7
  6
CONTINUOUS
 10
6.8340552979
 20
-62.8585250821
 11
6.9561243648
 21
-62.7311626701
  0
LINE
  5
38B
100
AcDbEntity
  8
Livello_1
100
AcDbLine
 62
7
  6
CONTINUOUS
 10
9.2810213308
 20
-66.9197106012
 11
9.1534395588
 21
-67.0507128217
  0
LINE
  5
38C
100
AcDbEntity
  8
Livello_1
100
AcDbLine
 62
7
  6
CONTINUOUS
 10
9.8833728617
 20
-65.4844215249
 11
9.9398449316
 21
-65.4274021561
  0
LINE
  5
38D
100
AcDbEntity
  8
Livello_1
100
AcDbLine
 62
7
  6
CONTINUOUS
 10
6.9561243648
 20
-62.7311626701
 11
7.0432870123
 21
-62.6454190577
  0
LINE
  5
38E
100
AcDbEntity
  8
Livello_1
100
AcDbLine
 62
7
  6
CONTINUOUS
 10
12.964903705
 20
-66.7614982563
 11
13.2068604258
 21
-66.5137007846
  0
LINE
  5
38F
100
AcDbEntity
  8
Livello_1
100
AcDbLine
 62
7
  6
CONTINUOUS
 10
12.964903705
 20
-69.9197151448
 11
13.2068604258
 21
-69.6719176888
  0
LINE
  5
390
100
AcDbEntity
  8
Livello_1
100
AcDbLine
 62
7
  6
CONTINUOUS
 10
12.7230014457
 20
-67.0008551561
 11
12.964903705
 21
-66.7614982563
  0
LINE
  5
391
100
AcDbEntity
  8
Livello_1
100
AcDbLine
 62
7
  6
CONTINUOUS
 10
12.7230014457
 20
-70.1590720011
 11
12.964903705
 21
-69.9197151448
  0
LINE
  5
392
100
AcDbEntity
  8
Livello_1
100
AcDbLine
 62
7
  6
CONTINUOUS
 10
9.1534395588
 20
-67.0507128217
 11
9.0515357791
 21
-67.1487977433
  0
LINE
  5
393
100
AcDbEntity
  8
Livello_1
100
AcDbLine
 62
7
  6
CONTINUOUS
 10
12.4810593091
 20
-67.2318924529
 11
12.7230014457
 21
-67.0008551561
  0
LINE
  5
394
100
AcDbEntity
  8
Livello_1
100
AcDbLine
 62
7
  6
CONTINUOUS
 10
9.8256837014
 20
-65.5393605029
 11
9.8833728617
 21
-65.4844215249
  0
LINE
  5
395
100
AcDbEntity
  8
Livello_1
100
AcDbLine
 62
7
  6
CONTINUOUS
 10
7.0432870123
 20
-62.6454190577
 11
7.1696933978
 21
-62.5282642326
  0
LINE
  5
396
100
AcDbEntity
  8
Livello_1
100
AcDbLine
 62
7
  6
CONTINUOUS
 10
16.3292028721
 20
8.8268228757
 11
0.0
 21
0.8960340455
  0
LINE
  5
397
100
AcDbEntity
  8
Livello_1
100
AcDbLine
 62
7
  6
CONTINUOUS
 10
12.4810593091
 20
-70.3901092138
 11
12.7230014457
 21
-70.1590720011
  0
LINE
  5
398
100
AcDbEntity
  8
Livello_1
100
AcDbLine
 62
7
  6
CONTINUOUS
 10
12.2389829562
 20
-67.4547311161
 11
12.4810593091
 21
-67.2318924529
  0
LINE
  5
399
100
AcDbEntity
  8
Livello_1
100
AcDbLine
 62
7
  6
CONTINUOUS
 10
12.2389829562
 20
-70.6129477382
 11
12.4810593091
 21
-70.3901092138
  0
LINE
  5
39A
100
AcDbEntity
  8
Livello_1
100
AcDbLine
 62
7
  6
CONTINUOUS
 10
9.0515357791
 20
-67.1487977433
 11
8.9191522535
 21
-67.2681259118
  0
LINE
  5
39B
100
AcDbEntity
  8
Livello_1
100
AcDbLine
 62
7
  6
CONTINUOUS
 10
9.7668820256
 20
-65.5922360124
 11
9.8256837014
 21
-65.5393605029
  0
LINE
  5
39C
100
AcDbEntity
  8
Livello_1
100
AcDbLine
 62
7
  6
CONTINUOUS
 10
11.9966780478
 20
-67.6694921153
 11
12.2389829562
 21
-67.4547311161
  0
LINE
  5
39D
100
AcDbEntity
  8
Livello_1
100
AcDbLine
 62
7
  6
CONTINUOUS
 10
11.9966780478
 20
-70.8277085305
 11
12.2389829562
 21
-70.6129477382
  0
LINE
  5
39E
100
AcDbEntity
  8
Livello_1
100
AcDbLine
 62
7
  6
CONTINUOUS
 10
7.1696933978
 20
-62.5282642326
 11
7.2980649444
 21
-62.4174921253
  0
LINE
  5
39F
100
AcDbEntity
  8
Livello_1
100
AcDbLine
 62
7
  6
CONTINUOUS
 10
9.7070724087
 20
-65.6430649759
 11
9.7668820256
 21
-65.5922360124
  0
LINE
  5
3A0
100
AcDbEntity
  8
Livello_1
100
AcDbLine
 62
7
  6
CONTINUOUS
 10
8.9191522535
 20
-67.2681259118
 11
8.7847547452
 21
-67.3804817522
  0
LINE
  5
3A1
100
AcDbEntity
  8
Livello_1
100
AcDbLine
 62
7
  6
CONTINUOUS
 10
7.2980649444
 20
-62.4174921253
 11
7.4280148926
 21
-62.313291698
  0
LINE
  5
3A2
100
AcDbEntity
  8
Livello_1
100
AcDbLine
 62
7
  6
CONTINUOUS
 10
1.5399941249
 20
-0.4783948031
 11
12.8494624412
 21
4.7072793283
  0
LINE
  5
3A3
100
AcDbEntity
  8
Livello_1
100
AcDbLine
 62
7
  6
CONTINUOUS
 10
11.7540502449
 20
-67.8762964198
 11
11.9966780478
 21
-67.6694921153
  0
LINE
  5
3A4
100
AcDbEntity
  8
Livello_1
100
AcDbLine
 62
7
  6
CONTINUOUS
 10
11.7540502449
 20
-71.0345125462
 11
11.9966780478
 21
-70.8277085305
  0
LINE
  5
3A5
100
AcDbEntity
  8
Livello_1
100
AcDbLine
 62
7
  6
CONTINUOUS
 10
11.5110052091
 20
-68.0752649989
 11
11.7540502449
 21
-67.8762964198
  0
LINE
  5
3A6
100
AcDbEntity
  8
Livello_1
100
AcDbLine
 62
7
  6
CONTINUOUS
 10
11.5110052091
 20
-71.2334807413
 11
11.7540502449
 21
-71.0345125462
  0
LINE
  5
3A7
100
AcDbEntity
  8
Livello_1
100
AcDbLine
 62
7
  6
CONTINUOUS
 10
9.6463594254
 20
-65.6918643165
 11
9.7070724087
 21
-65.6430649759
  0
LINE
  5
3A8
100
AcDbEntity
  8
Livello_1
100
AcDbLine
 62
7
  6
CONTINUOUS
 10
11.267448601
 20
-68.2665188225
 11
11.5110052091
 21
-68.0752649989
  0
LINE
  5
3A9
100
AcDbEntity
  8
Livello_1
100
AcDbLine
 62
7
  6
CONTINUOUS
 10
8.7847547452
 20
-67.3804817522
 11
8.6487871396
 21
-67.4856588391
  0
LINE
  5
3AA
100
AcDbEntity
  8
Livello_1
100
AcDbLine
 62
7
  6
CONTINUOUS
 10
9.5848476498
 20
-65.7386509559
 11
9.6463594254
 21
-65.6918643165
  0
LINE
  5
3AB
100
AcDbEntity
  8
Livello_1
100
AcDbLine
 62
7
  6
CONTINUOUS
 10
7.4280148926
 20
-62.313291698
 11
7.5591517455
 21
-62.2158250442
  0
LINE
  5
3AC
100
AcDbEntity
  8
Livello_1
100
AcDbLine
 62
7
  6
CONTINUOUS
 10
12.8494624412
 20
-16.8417837227
 11
1.5399941249
 21
-22.362456171
  0
LINE
  5
3AD
100
AcDbEntity
  8
Livello_1
100
AcDbLine
 62
7
  6
CONTINUOUS
 10
11.267448601
 20
-71.4247340712
 11
11.5110052091
 21
-71.2334807413
  0
LINE
  5
3AE
100
AcDbEntity
  8
Livello_1
100
AcDbLine
 62
7
  6
CONTINUOUS
 10
11.023286082
 20
-68.4501788591
 11
11.267448601
 21
-68.2665188225
  0
LINE
  5
3AF
100
AcDbEntity
  8
Livello_1
100
AcDbLine
 62
7
  6
CONTINUOUS
 10
11.023286082
 20
-71.6083934919
 11
11.267448601
 21
-71.4247340712
  0
LINE
  5
3B0
100
AcDbEntity
  8
Livello_1
100
AcDbLine
 62
7
  6
CONTINUOUS
 10
9.5226416572
 20
-65.7834418174
 11
9.5848476498
 21
-65.7386509559
  0
LINE
  5
3B1
100
AcDbEntity
  8
Livello_1
100
AcDbLine
 62
7
  6
CONTINUOUS
 10
10.7784233126
 20
-68.6263660791
 11
11.023286082
 21
-68.4501788591
  0
LINE
  5
3B2
100
AcDbEntity
  8
Livello_1
100
AcDbLine
 62
7
  6
CONTINUOUS
 10
10.7784233126
 20
-71.7845799591
 11
11.023286082
 21
-71.6083934919
  0
LINE
  5
3B3
100
AcDbEntity
  8
Livello_1
100
AcDbLine
 62
7
  6
CONTINUOUS
 10
8.6487871396
 20
-67.4856588391
 11
8.5116971337
 21
-67.5834838487
  0
LINE
  5
3B4
100
AcDbEntity
  8
Livello_1
100
AcDbLine
 62
7
  6
CONTINUOUS
 10
7.5591517455
 20
-62.2158250442
 11
7.6910838882
 21
-62.1252248636
  0
LINE
  5
3B5
100
AcDbEntity
  8
Livello_1
100
AcDbLine
 62
7
  6
CONTINUOUS
 10
9.4598460221
 20
-65.8262538231
 11
9.5226416572
 21
-65.7834418174
  0
LINE
  5
3B6
100
AcDbEntity
  8
Livello_1
100
AcDbLine
 62
7
  6
CONTINUOUS
 10
0.2009989902
 20
-27.0120082288
 11
16.3633889199
 21
-19.2494047732
  0
LINE
  5
3B7
100
AcDbEntity
  8
Livello_1
100
AcDbLine
 62
7
  6
CONTINUOUS
 10
10.5327659546
 20
-68.7952014509
 11
10.7784233126
 21
-68.6263660791
  0
LINE
  5
3B8
100
AcDbEntity
  8
Livello_1
100
AcDbLine
 62
7
  6
CONTINUOUS
 10
10.5327659546
 20
-71.9534144285
 11
10.7784233126
 21
-71.7845799591
  0
LINE
  5
3B9
100
AcDbEntity
  8
Livello_1
100
AcDbLine
 62
7
  6
CONTINUOUS
 10
8.5116971337
 20
-67.5834838487
 11
8.3739303516
 21
-67.6738194044
  0
LINE
  5
3BA
100
AcDbEntity
  8
Livello_1
100
AcDbLine
 62
7
  6
CONTINUOUS
 10
10.2862196684
 20
-68.9568059447
 11
10.5327659546
 21
-68.7952014509
  0
LINE
  5
3BB
100
AcDbEntity
  8
Livello_1
100
AcDbLine
 62
7
  6
CONTINUOUS
 10
10.2862196684
 20
-72.1150178556
 11
10.5327659546
 21
-71.9534144285
  0
LINE
  5
3BC
100
AcDbEntity
  8
Livello_1
100
AcDbLine
 62
7
  6
CONTINUOUS
 10
9.3965653187
 20
-65.8671038957
 11
9.4598460221
 21
-65.8262538231
  0
LINE
  5
3BD
100
AcDbEntity
  8
Livello_1
100
AcDbLine
 62
7
  6
CONTINUOUS
 10
7.6910838882
 20
-62.1252248636
 11
7.8234243595
 21
-62.0415926212
  0
LINE
  5
3BE
100
AcDbEntity
  8
Livello_1
100
AcDbLine
 62
7
  6
CONTINUOUS
 10
9.3329041218
 20
-65.9060089577
 11
9.3965653187
 21
-65.8671038957
  0
LINE
  5
3BF
100
AcDbEntity
  8
Livello_1
100
AcDbLine
 62
7
  6
CONTINUOUS
 10
10.0386901156
 20
-69.1113005295
 11
10.2862196684
 21
-68.9568059447
  0
LINE
  5
3C0
100
AcDbEntity
  8
Livello_1
100
AcDbLine
 62
7
  6
CONTINUOUS
 10
10.0386901156
 20
-72.2695111967
 11
10.2862196684
 21
-72.1150178556
  0
LINE
  5
3C1
100
AcDbEntity
  8
Livello_1
100
AcDbLine
 62
7
  6
CONTINUOUS
 10
8.3739303516
 20
-67.6738194044
 11
8.2359243547
 21
-67.7565659795
  0
LINE
  5
3C2
100
AcDbEntity
  8
Livello_1
100
AcDbLine
 62
7
  6
CONTINUOUS
 10
9.7900829568
 20
-69.2588061746
 11
10.0386901156
 21
-69.1113005295
  0
LINE
  5
3C3
100
AcDbEntity
  8
Livello_1
100
AcDbLine
 62
7
  6
CONTINUOUS
 10
9.7900829568
 20
-72.4170154071
 11
10.0386901156
 21
-72.2695111967
  0
LINE
  5
3C4
100
AcDbEntity
  8
Livello_1
100
AcDbLine
 62
7
  6
CONTINUOUS
 10
7.8234243595
 20
-62.0415926212
 11
7.9557956089
 21
-61.9649974831
  0
LINE
  5
3C5
100
AcDbEntity
  8
Livello_1
100
AcDbLine
 62
7
  6
CONTINUOUS
 10
9.2689670062
 20
-65.9429859316
 11
9.3329041218
 21
-65.9060089577
  0
LINE
  5
3C6
100
AcDbEntity
  8
Livello_1
100
AcDbLine
 62
7
  6
CONTINUOUS
 10
9.5403038534
 20
-69.3994438497
 11
9.7900829568
 21
-69.2588061746
  0
LINE
  5
3C7
100
AcDbEntity
  8
Livello_1
100
AcDbLine
 62
7
  6
CONTINUOUS
 10
9.2048585464
 20
-65.9780517402
 11
9.2689670062
 21
-65.9429859316
  0
LINE
  5
3C8
100
AcDbEntity
  8
Livello_1
100
AcDbLine
 62
7
  6
CONTINUOUS
 10
7.9557956089
 20
-61.9649974831
 11
8.0878340645
 21
-61.8954760892
  0
LINE
  5
3C9
100
AcDbEntity
  8
Livello_1
100
AcDbLine
 62
7
  6
CONTINUOUS
 10
-31.8678845756
 20
-64.7160999805
 11
-24.2223121895
 21
-61.1229467116
  0
LINE
  5
3CA
100
AcDbEntity
  8
Livello_1
100
AcDbLine
 62
7
  6
CONTINUOUS
 10
9.5403038534
 20
-72.557651443
 11
9.7900829568
 21
-72.4170154071
  0
LINE
  5
3CB
100
AcDbEntity
  8
Livello_1
100
AcDbLine
 62
7
  6
CONTINUOUS
 10
8.2359243547
 20
-67.7565659795
 11
8.0981027725
 21
-67.8316627434
  0
LINE
  5
3CC
100
AcDbEntity
  8
Livello_1
100
AcDbLine
 62
7
  6
CONTINUOUS
 10
9.2892584663
 20
-69.5333345244
 11
9.5403038534
 21
-69.3994438497
  0
LINE
  5
3CD
100
AcDbEntity
  8
Livello_1
100
AcDbLine
 62
7
  6
CONTINUOUS
 10
9.2892584663
 20
-72.6915402597
 11
9.5403038534
 21
-72.557651443
  0
LINE
  5
3CE
100
AcDbEntity
  8
Livello_1
100
AcDbLine
 62
7
  6
CONTINUOUS
 10
9.1348495086
 20
-66.0141455585
 11
9.2048585464
 21
-65.9780517402
  0
LINE
  5
3CF
100
AcDbEntity
  8
Livello_1
100
AcDbLine
 62
7
  6
CONTINUOUS
 10
9.0368524567
 20
-69.6605991671
 11
9.2892584663
 21
-69.5333345244
  0
LINE
  5
3D0
100
AcDbEntity
  8
Livello_1
100
AcDbLine
 62
7
  6
CONTINUOUS
 10
8.0981027725
 20
-67.8316627434
 11
7.960869789
 21
-67.899087301
  0
LINE
  5
3D1
100
AcDbEntity
  8
Livello_1
100
AcDbLine
 62
7
  6
CONTINUOUS
 10
9.0648967754
 20
-66.048007041
 11
9.1348495086
 21
-66.0141455585
  0
LINE
  5
3D2
100
AcDbEntity
  8
Livello_1
100
AcDbLine
 62
7
  6
CONTINUOUS
 10
8.0878340645
 20
-61.8954760892
 11
8.2191943575
 21
-61.8330331801
  0
LINE
  5
3D3
100
AcDbEntity
  8
Livello_1
100
AcDbLine
 62
7
  6
CONTINUOUS
 10
9.0368524567
 20
-72.8188028132
 11
9.2892584663
 21
-72.6915402597
  0
LINE
  5
3D4
100
AcDbEntity
  8
Livello_1
100
AcDbLine
 62
7
  6
CONTINUOUS
 10
24.302661879
 20
-67.3661425313
 11
-3.769822772
 21
-80.8565309888
  0
LINE
  5
3D5
100
AcDbEntity
  8
Livello_1
100
AcDbLine
 62
7
  6
CONTINUOUS
 10
8.7829914854
 20
-69.7813587483
 11
9.0368524567
 21
-69.6605991671
  0
LINE
  5
3D6
100
AcDbEntity
  8
Livello_1
100
AcDbLine
 62
7
  6
CONTINUOUS
 10
8.7829914854
 20
-72.9395600592
 11
9.0368524567
 21
-72.8188028132
  0
LINE
  5
3D7
100
AcDbEntity
  8
Livello_1
100
AcDbLine
 62
7
  6
CONTINUOUS
 10
8.6360944116
 20
-68.5930972605
 11
19.9992123655
 21
-63.2296307263
  0
LINE
  5
3D8
100
AcDbEntity
  8
Livello_1
100
AcDbLine
 62
7
  6
CONTINUOUS
 10
-2.251662802
 20
-73.7299876519
 11
8.6360944116
 21
-68.5930972605
  0
LINE
  5
3D9
100
AcDbEntity
  8
Livello_1
100
AcDbLine
 62
7
  6
CONTINUOUS
 10
3.5577195548
 20
-74.1588104507
 11
-2.4198481766
 21
-76.9527088898
  0
LINE
  5
3DA
100
AcDbEntity
  8
Livello_1
100
AcDbLine
 62
7
  6
CONTINUOUS
 10
8.9951361135
 20
-66.0796581583
 11
9.0648967754
 21
-66.048007041
  0
LINE
  5
3DB
100
AcDbEntity
  8
Livello_1
100
AcDbLine
 62
7
  6
CONTINUOUS
 10
8.5275812136
 20
-69.8957342368
 11
8.7829914854
 21
-69.7813587483
  0
LINE
  5
3DC
100
AcDbEntity
  8
Livello_1
100
AcDbLine
 62
7
  6
CONTINUOUS
 10
20.0746961574
 20
-66.4523519644
 11
13.4489659467
 21
-69.4155586776
  0
LINE
  5
3DD
100
AcDbEntity
  8
Livello_1
100
AcDbLine
 62
7
  6
CONTINUOUS
 10
7.960869789
 20
-67.899087301
 11
7.8246051905
 21
-67.9588543275
  0
LINE
  5
3DE
100
AcDbEntity
  8
Livello_1
100
AcDbLine
 62
7
  6
CONTINUOUS
 10
8.2191943575
 20
-61.8330331801
 11
8.3495530562
 21
-61.7776430645
  0
LINE
  5
3DF
100
AcDbEntity
  8
Livello_1
100
AcDbLine
 62
7
  6
CONTINUOUS
 10
8.9257032889
 20
-66.1091208799
 11
8.9951361135
 21
-66.0796581583
  0
LINE
  5
3E0
100
AcDbEntity
  8
Livello_1
100
AcDbLine
 62
7
  6
CONTINUOUS
 10
-3.769822772
 20
-88.9139579164
 11
24.302661879
 21
-75.4235694592
  0
LINE
  5
3E1
100
AcDbEntity
  8
Livello_1
100
AcDbLine
 62
7
  6
CONTINUOUS
 10
24.302661879
 20
-76.5676791671
 11
-3.769822772
 21
-90.0580676243
  0
LINE
  5
3E2
100
AcDbEntity
  8
Livello_1
100
AcDbLine
 62
7
  6
CONTINUOUS
 10
-3.7429979532
 20
-91.2801564561
 11
24.4330429743
 21
-77.8153451515
  0
LINE
  5
3E3
100
AcDbEntity
  8
Livello_1
100
AcDbLine
 62
7
  6
CONTINUOUS
 10
8.5275812136
 20
-73.0539329532
 11
8.7829914854
 21
-72.9395600592
  0
LINE
  5
3E4
100
AcDbEntity
  8
Livello_1
100
AcDbLine
 62
7
  6
CONTINUOUS
 10
8.2705273027
 20
-70.0038466021
 11
8.5275812136
 21
-69.8957342368
  0
LINE
  5
3E5
100
AcDbEntity
  8
Livello_1
100
AcDbLine
 62
7
  6
CONTINUOUS
 10
8.2705273027
 20
-73.1620424512
 11
8.5275812136
 21
-73.0539329532
  0
LINE
  5
3E6
100
AcDbEntity
  8
Livello_1
100
AcDbLine
 62
7
  6
CONTINUOUS
 10
8.8567340683
 20
-66.1364171764
 11
8.9257032889
 21
-66.1091208799
  0
LINE
  5
3E7
100
AcDbEntity
  8
Livello_1
100
AcDbLine
 62
7
  6
CONTINUOUS
 10
8.0117354133
 20
-70.1058168139
 11
8.2705273027
 21
-70.0038466021
  0
LINE
  5
3E8
100
AcDbEntity
  8
Livello_1
100
AcDbLine
 62
7
  6
CONTINUOUS
 10
8.0117354133
 20
-73.2640095092
 11
8.2705273027
 21
-73.1620424512
  0
LINE
  5
3E9
100
AcDbEntity
  8
Livello_1
100
AcDbLine
 62
7
  6
CONTINUOUS
 10
7.8246051905
 20
-67.9588543275
 11
7.6896601493
 21
-68.0110131517
  0
LINE
  5
3EA
100
AcDbEntity
  8
Livello_1
100
AcDbLine
 62
7
  6
CONTINUOUS
 10
8.3495530562
 20
-61.7776430645
 11
8.478611791
 21
-61.7292518616
  0
LINE
  5
3EB
100
AcDbEntity
  8
Livello_1
100
AcDbLine
 62
7
  6
CONTINUOUS
 10
8.7883642177
 20
-66.1615690178
 11
8.8567340683
 21
-66.1364171764
  0
LINE
  5
3EC
100
AcDbEntity
  8
Livello_1
100
AcDbLine
 62
7
  6
CONTINUOUS
 10
8.478611791
 20
-61.7292518616
 11
8.6060996924
 21
-61.6877804395
  0
LINE
  5
3ED
100
AcDbEntity
  8
Livello_1
100
AcDbLine
 62
7
  6
CONTINUOUS
 10
7.7511112066
 20
-70.2017658409
 11
8.0117354133
 21
-70.1058168139
  0
LINE
  5
3EE
100
AcDbEntity
  8
Livello_1
100
AcDbLine
 62
7
  6
CONTINUOUS
 10
7.7511112066
 20
-73.3599550825
 11
8.0117354133
 21
-73.2640095092
  0
LINE
  5
3EF
100
AcDbEntity
  8
Livello_1
100
AcDbLine
 62
7
  6
CONTINUOUS
 10
7.4885603437
 20
-70.2918146531
 11
7.7511112066
 21
-70.2017658409
  0
LINE
  5
3F0
100
AcDbEntity
  8
Livello_1
100
AcDbLine
 62
7
  6
CONTINUOUS
 10
7.4885603437
 20
-73.450000127
 11
7.7511112066
 21
-73.3599550825
  0
LINE
  5
3F1
100
AcDbEntity
  8
Livello_1
100
AcDbLine
 62
7
  6
CONTINUOUS
 10
8.7207295034
 20
-66.1845983738
 11
8.7883642177
 21
-66.1615690178
  0
LINE
  5
3F2
100
AcDbEntity
  8
Livello_1
100
AcDbLine
 62
7
  6
CONTINUOUS
 10
7.6896601493
 20
-68.0110131517
 11
7.5563538772
 21
-68.0556443979
  0
LINE
  5
3F3
100
AcDbEntity
  8
Livello_1
100
AcDbLine
 62
7
  6
CONTINUOUS
 10
7.2239884855
 20
-70.3760842199
 11
7.4885603437
 21
-70.2918146531
  0
LINE
  5
3F4
100
AcDbEntity
  8
Livello_1
100
AcDbLine
 62
7
  6
CONTINUOUS
 10
8.6539656919
 20
-66.2055272152
 11
8.7207295034
 21
-66.1845983738
  0
LINE
  5
3F5
100
AcDbEntity
  8
Livello_1
100
AcDbLine
 62
7
  6
CONTINUOUS
 10
7.2239884855
 20
-73.5342655987
 11
7.4885603437
 21
-73.450000127
  0
LINE
  5
3F6
100
AcDbEntity
  8
Livello_1
100
AcDbLine
 62
7
  6
CONTINUOUS
 10
6.9573012933
 20
-70.4546955103
 11
7.2239884855
 21
-70.3760842199
  0
LINE
  5
3F7
100
AcDbEntity
  8
Livello_1
100
AcDbLine
 62
7
  6
CONTINUOUS
 10
6.9573012933
 20
-73.6128724528
 11
7.2239884855
 21
-73.5342655987
  0
LINE
  5
3F8
100
AcDbEntity
  8
Livello_1
100
AcDbLine
 62
7
  6
CONTINUOUS
 10
8.5882085492
 20
-66.2243775111
 11
8.6539656919
 21
-66.2055272152
  0
ENDSEC
  0
SECTION
  2
OBJECTS
  0
DICTIONARY
  5
C
100
AcDbDictionary
280
0
281
1
  3
ACAD_GROUP
350
D
  3
ACAD_MLINESTYLE
350
17
  3
ACAD_LAYOUT
350
1A
  3
ACAD_PLOTSETTINGS
350
19
  3
ACAD_PLOTSTYLENAME
350
E
  0
DICTIONARY
  5
D
102
{ACAD_REACTORS
330
C
102
}
100
AcDbDictionary
280
0
281
1
  0
ACDBDICTIONARYWDFLT
  5
E
102
{ACAD_REACTORS
330
C
102
}
100
AcDbDictionary
281
1
  3
Normal
350
F
100
AcDbDictionaryWithDefault
340
F
  0
DICTIONARY
  5
17
102
{ACAD_REACTORS
330
C
102
}
100
AcDbDictionary
280
0
281
1
  3
Standard
350
18
  0
DICTIONARY
  5
19
102
{ACAD_REACTORS
330
C
102
}
100
AcDbDictionary
281
1
  0
DICTIONARY
  5
1A
102
{ACAD_REACTORS
330
C
102
}
100
AcDbDictionary
281
1
  3
Model
350
3F9
  3
Layout1
350
3FA
  0
ACDBPLACEHOLDER
  5
F
102
{ACAD_REACTORS
330
E
102
}
  0
MLINESTYLE
  5
18
102
{ACAD_REACTORS
330
17
102
}
100
AcDbMlineStyle
  2
STANDARD
 70
0
  3

 62
256
 51
90.0
 52
90.0
 71
2
 49
0.5
 62
256
  6
BYLAYER
 49
-0.5
 62
256
  6
BYLAYER
  0
LAYOUT
  5
3F9
102
{ACAD_REACTORS
330
1A
102
}
100
AcDbPlotSettings
  1

  2
none_device
  4
ISO_A4_(297.00_x_210.00_MM)
  6

 40
0.0
 41
0.0
 42
0.0
 43
0.0
 44
297.0
 45
210.0
 46
0.0
 47
0.0
 48
0.0
 49
0.0
140
0.0
141
0.0
142
1.0
143
1.0
 70
1024
 72
1
 73
0
 74
0
  7

 75
0
147
1.0
148
0.0
149
0.0
100
AcDbLayout
  1
Model
 70
0
 71
0
 10
0.0
 20
0.0
 11
297.0
 21
210.0
 12
0.0
 22
0.0
 32
0.0
 14
0.0
 24
0.0
 34
0.0
 15
0.0
 25
0.0
 35
0.0
146
0.0
 13
0.0
 23
0.0
 33
0.0
 16
1.0
 26
0.0
 36
0.0
 17
0.0
 27
1.0
 37
0.0
 76
0
330
201
345
0
346
0
  0
LAYOUT
  5
3FA
102
{ACAD_REACTORS
330
1A
102
}
100
AcDbPlotSettings
  1

  2
none_device
  4
ISO_A4_(297.00_x_210.00_MM)
  6

 40
0.0
 41
0.0
 42
0.0
 43
0.0
 44
297.0
 45
210.0
 46
0.0
 47
0.0
 48
0.0
 49
0.0
140
0.0
141
0.0
142
1.0
143
1.0
 70
0
 72
1
 73
0
 74
0
  7

 75
0
147
1.0
148
0.0
149
0.0
100
AcDbLayout
  1
Layout1
 70
0
 71
1
 10
0.0
 20
0.0
 11
297.0
 21
210.0
 12
0.0
 22
0.0
 32
0.0
 14
0.0
 24
0.0
 34
0.0
 15
0.0
 25
0.0
 35
0.0
146
0.0
 13
0.0
 23
0.0
 33
0.0
 16
1.0
 26
0.0
 36
0.0
 17
0.0
 27
1.0
 37
0.0
 76
0
330
202
345
0
346
0
  0
ENDSEC
  0
EOF
