  0
SECTION
  2
HEADER
  9
$ACADVER
  1
AC1021
  9
$DWGCODEPAGE
  3
ANSI_1252
  9
$EXTMAX
 10
297.0
 20
210.0
 30
0.0
  9
$EXTMIN
 10
0.0
 20
0.0
 30
0.0
  9
$LIMMIN
 10
0.0
 20
0.0
  9
$LIMMAX
 10
297.0
 20
210.0
  9
$VIEWCTR
 10
148.5
 20
105.0
  9
$VIEWSIZE
 40
210.0
  9
$CLAYER
  8
0
  9
$LTSCALE
 40
16.335
  9
$CELTYPE
  6
BYLAYER
  9
$DIMSCALE
 40
1.0
  9
$DIMASZ
 40
3.0
  9
$DIMEXO
 40
0.5
  9
$DIMDLI
 40
11.286
  9
$DIMEXE
 40
1.5
  9
$DIMCEN
 40
2.673
  9
$DIMLFAC
 40
1.0
  9
$DIMBLK
  1
_FILLED
  9
$DIMALT
 70
0
  9
$DIMALTF
 40
0.0393700787
  9
$DIMTXT
 40
3.0
  9
$DIMTOL
 70
1
  9
$DIMLIM
 70
0
  9
$DIMTFAC
 40
1.0
  9
$DIMTP
 40
0.01
  9
$DIMTM
 40
0.01
  9
$DIMGAP
 40
0.625
  9
$DIMDSEP
 70
44
  9
$AUNITS
 70
0
  9
$PDMODE
 70
3
  9
$PDSIZE
 40
3.0
  9
$HANDSEED
  5
305
  9
$TILEMODE
 70
1
  9
$MEASUREMENT
 70
1
  9
$INSUNITS
 70
4
  0
ENDSEC
  0
SECTION
  2
CLASSES
  0
CLASS
  1
ACDBDICTIONARYWDFLT
  2
AcDbDictionaryWithDefault
  3
AutoCAD 2000
 90
0
 91
1
280
0
281
0
  0
CLASS
  1
ACDBPLACEHOLDER
  2
AcDbPlaceHolder
  3
AutoCAD 2000
 90
0
 91
1
280
0
281
0
  0
CLASS
  1
LAYOUT
  2
AcDbLayout
  3
AutoCAD 2000
 90
0
 91
0
280
0
281
0
  0
ENDSEC
  0
SECTION
  2
TABLES
  0
TABLE
  2
VPORT
  5
8
100
AcDbSymbolTable
 70
2
  0
VPORT
  5
1F4
100
AcDbSymbolTableRecord
100
AcDbViewportTableRecord
  2
*ACTIVE
 70
0
 10
0.0
 20
0.0
 11
1.0
 21
1.0
 12
148.5
 22
105.0
 13
0.0
 23
0.0
 14
1.0
 24
1.0
 15
0.0
 25
0.0
 16
0.0
 26
0.0
 36
1.0
 17
0.0
 27
0.0
 37
0.0
 40
210.0
 41
1.4142857143
 42
50.0
 43
0.0
 44
0.0
 50
0.0
 51
0.0
 71
0
 72
100
 73
1
 74
1
 75
0
 76
0
 77
0
 78
0
  0
ENDTAB
  0
TABLE
  2
LTYPE
  5
5
100
AcDbSymbolTable
 70
6
  0
LTYPE
  5
14
100
AcDbSymbolTableRecord
100
AcDbLinetypeTableRecord
  2
BYBLOCK
 70
0
  3

 72
65
 73
0
 40
0.0
  0
LTYPE
  5
15
100
AcDbSymbolTableRecord
100
AcDbLinetypeTableRecord
  2
BYLAYER
 70
0
  3

 72
65
 73
0
 40
0.0
  0
LTYPE
  5
16
100
AcDbSymbolTableRecord
100
AcDbLinetypeTableRecord
  2
CONTINUOUS
 70
64
  3
Solid line
 72
65
 73
0
 40
0.0
  0
LTYPE
  5
1F5
100
AcDbSymbolTableRecord
100
AcDbLinetypeTableRecord
  2
CENTER
 70
64
  3
____ _ ____ _ ____ _ ____ _ ____ _ ____ _ ____
 72
65
 73
4
 40
0.6
 49
0.375
 74
0
 49
-0.075
 74
0
 49
0.075
 74
0
 49
-0.075
 74
0
  0
LTYPE
  5
1F6
100
AcDbSymbolTableRecord
100
AcDbLinetypeTableRecord
  2
HIDDEN
 70
64
  3
- - - - - - - - - - - - - - - - - - - -
 72
65
 73
2
 40
0.2
 49
0.1
 74
0
 49
-0.1
 74
0
  0
LTYPE
  5
1F7
100
AcDbSymbolTableRecord
100
AcDbLinetypeTableRecord
  2
PHANTOM
 70
64
  3
_____ _ _ _____ _ _ _____ _ _ _____
 72
65
 73
6
 40
0.8
 49
0.45
 74
0
 49
-0.05
 74
0
 49
0.1
 74
0
 49
-0.05
 74
0
 49
0.1
 74
0
 49
-0.05
 74
0
  0
LTYPE
  5
1F8
100
AcDbSymbolTableRecord
100
AcDbLinetypeTableRecord
  2
DOT
 70
64
  3
. . . . . . . . . . . . . . . . . . . .
 72
65
 73
2
 40
0.2
 49
0.1
 74
0
 49
-0.1
 74
0
  0
LTYPE
  5
1F9
100
AcDbSymbolTableRecord
100
AcDbLinetypeTableRecord
  2
DASHED
 70
64
  3
- - - - - - - - - - - - - - - - - - - -
 72
65
 73
2
 40
0.2
 49
0.1
 74
0
 49
-0.1
 74
0
  0
ENDTAB
  0
TABLE
  2
LAYER
  5
2
100
AcDbSymbolTable
 70
36
  0
LAYER
  5
10
100
AcDbSymbolTableRecord
100
AcDbLayerTableRecord
  2
0
 70
0
 62
7
  6
CONTINUOUS
370
-3
390
F
  0
LAYER
  5
1FA
100
AcDbSymbolTableRecord
100
AcDbLayerTableRecord
  2
DEFAULT_1
 70
0
 62
7
  6
CENTER
370
-3
390
F
  0
LAYER
  5
1FB
100
AcDbSymbolTableRecord
100
AcDbLayerTableRecord
  2
DEFAULT_2
 70
0
 62
7
  6
HIDDEN
370
-3
390
F
  0
LAYER
  5
1FC
100
AcDbSymbolTableRecord
100
AcDbLayerTableRecord
  2
DEFAULT_3
 70
0
 62
7
  6
PHANTOM
370
-3
390
F
  0
LAYER
  5
1FD
100
AcDbSymbolTableRecord
100
AcDbLayerTableRecord
  2
ASSI
 70
0
 62
7
  6
CONTINUOUS
370
-3
390
F
  0
LAYER
  5
1FE
100
AcDbSymbolTableRecord
100
AcDbLayerTableRecord
  2
COLOR5
 70
0
 62
7
  6
CONTINUOUS
370
-3
390
F
  0
LAYER
  5
1FF
100
AcDbSymbolTableRecord
100
AcDbLayerTableRecord
  2
COORDINATE
 70
0
 62
7
  6
CONTINUOUS
370
-3
390
F
  0
LAYER
  5
200
100
AcDbSymbolTableRecord
100
AcDbLayerTableRecord
  2
COORD_ORIGINE
 70
0
 62
7
  6
CONTINUOUS
370
-3
390
F
  0
LAYER
  5
201
100
AcDbSymbolTableRecord
100
AcDbLayerTableRecord
  2
COSMETICI
 70
0
 62
7
  6
CONTINUOUS
370
-3
390
F
  0
LAYER
  5
202
100
AcDbSymbolTableRecord
100
AcDbLayerTableRecord
  2
CURVE
 70
0
 62
7
  6
CONTINUOUS
370
-3
390
F
  0
LAYER
  5
203
100
AcDbSymbolTableRecord
100
AcDbLayerTableRecord
  2
DRAFT
 70
0
 62
7
  6
CONTINUOUS
370
-3
390
F
  0
LAYER
  5
204
100
AcDbSymbolTableRecord
100
AcDbLayerTableRecord
  2
NOTE
 70
0
 62
7
  6
CONTINUOUS
370
-3
390
F
  0
LAYER
  5
205
100
AcDbSymbolTableRecord
100
AcDbLayerTableRecord
  2
PIANI
 70
0
 62
7
  6
CONTINUOUS
370
-3
390
F
  0
LAYER
  5
206
100
AcDbSymbolTableRecord
100
AcDbLayerTableRecord
  2
PIANI_ORIGINE
 70
0
 62
7
  6
CONTINUOUS
370
-3
390
F
  0
LAYER
  5
207
100
AcDbSymbolTableRecord
100
AcDbLayerTableRecord
  2
PUNTI
 70
0
 62
7
  6
CONTINUOUS
370
-3
390
F
  0
LAYER
  5
208
100
AcDbSymbolTableRecord
100
AcDbLayerTableRecord
  2
RACCORDO
 70
0
 62
7
  6
CONTINUOUS
370
-3
390
F
  0
LAYER
  5
209
100
AcDbSymbolTableRecord
100
AcDbLayerTableRecord
  2
SIMBOLI
 70
0
 62
7
  6
CONTINUOUS
370
-3
390
F
  0
LAYER
  5
20A
100
AcDbSymbolTableRecord
100
AcDbLayerTableRecord
  2
SNAPLINE
 70
0
 62
7
  6
CONTINUOUS
370
-3
390
F
  0
LAYER
  5
20B
100
AcDbSymbolTableRecord
100
AcDbLayerTableRecord
  2
SUPERFICI
 70
0
 62
7
  6
CONTINUOUS
370
-3
390
F
  0
LAYER
  5
20C
100
AcDbSymbolTableRecord
100
AcDbLayerTableRecord
  2
TRASH
 70
0
 62
7
  6
CONTINUOUS
370
-3
390
F
  0
ENDTAB
  0
TABLE
  2
STYLE
  5
3
100
AcDbSymbolTable
 70
1
  0
STYLE
  5
11
100
AcDbSymbolTableRecord
100
AcDbTextStyleTableRecord
  2
STANDARD
 70
0
 40
0.0
 41
0.8
 50
0.0
 71
0
 42
0.2
  3
txt
  4

  0
STYLE
  5
20D
100
AcDbSymbolTableRecord
100
AcDbTextStyleTableRecord
  2
TEXTSTYLE_1
 70
0
 40
0.0
 41
0.8
 50
0.0
 71
0
 42
0.2
  3
gdt
  4

  0
ENDTAB
  0
TABLE
  2
VIEW
  5
6
100
AcDbSymbolTable
 70
0
  0
ENDTAB
  0
TABLE
  2
UCS
  5
7
100
AcDbSymbolTable
 70
0
  0
ENDTAB
  0
TABLE
  2
APPID
  5
9
100
AcDbSymbolTable
 70
1
  0
APPID
  5
20E
100
AcDbSymbolTableRecord
100
AcDbRegAppTableRecord
  2
ACAD
 70
0
  0
ENDTAB
  0
TABLE
  2
BLOCK_RECORD
  5
1
100
AcDbSymbolTable
 70
0
  0
BLOCK_RECORD
  5
20F
100
AcDbSymbolTableRecord
100
AcDbBlockTableRecord
  2
*Model_Space
  0
BLOCK_RECORD
  5
210
100
AcDbSymbolTableRecord
100
AcDbBlockTableRecord
  2
*Paper_Space
  0
ENDTAB
  0
TABLE
  2
DIMSTYLE
  5
A
100
AcDbSymbolTable
 70
1
100
AcDbDimStyleTable
 71
0
  0
DIMSTYLE
105
211
100
AcDbSymbolTableRecord
100
AcDbDimStyleTableRecord
  2
STANDARD
 70
0
  3

  4

 40
1.0
 41
3.0
 42
0.5
 43
0.38
 44
1.5
 45
0.0
 46
0.0
 47
0.01
 48
0.01
140
3.0
141
0.09
142
0.0
143
25.4
144
1.0
145
0.0
146
1.0
147
0.625
 71
1.0
 72
0.0
 73
0
 74
0
 75
0
 76
0
 77
1
 78
8
170
0
171
2
172
0
173
0
174
0
175
0
176
0
177
0
178
0
270
2
271
2
272
2
273
2
274
2
275
0
280
0
281
0
282
0
283
1
284
8
285
0
286
0
287
3
288
0
340
11
278
44
  0
ENDTAB
  0
ENDSEC
  0
SECTION
  2
BLOCKS
  0
BLOCK
  5
20
100
AcDbEntity
  8
0
100
AcDbBlockBegin
  2
*Model_Space
 70
0
 10
0.0
 20
0.0
 30
0.0
  3
*Model_Space
  1

  0
ENDBLK
  5
21
100
AcDbEntity
  8
0
100
AcDbBlockEnd
  0
BLOCK
  5
1C
100
AcDbEntity
  8
0
100
AcDbBlockBegin
  2
*Paper_Space
 70
0
 10
0.0
 20
0.0
 30
0.0
  3
*Paper_Space
  1

  0
ENDBLK
  5
1D
100
AcDbEntity
  8
0
100
AcDbBlockEnd
  0
ENDSEC
  0
SECTION
  2
ENTITIES
  0
LWPOLYLINE
  5
212
100
AcDbEntity
  8
0
100
AcDbPolyline
 62
7
  6
CONTINUOUS
 90
8
 70
0
 10
5.4174109159
 20
-53.071195141
 10
5.6352790217
 20
-53.0260938161
 10
5.8510920685
 20
-52.9740393538
 10
6.0679791194
 20
-52.914355385
 10
6.2842194706
 20
-52.8469292758
 10
6.4922477019
 20
-52.7743369957
 10
6.6566819589
 20
-52.7126659149
 10
6.7769321543
 20
-52.6656511372
  0
LWPOLYLINE
  5
213
100
AcDbEntity
  8
0
100
AcDbPolyline
 62
7
  6
CONTINUOUS
 90
8
 70
0
 10
0.5278634351
 20
52.8799502829
 10
0.5894945019
 20
52.9154278182
 10
0.7119510984
 20
52.969348311
 10
0.8411588228
 20
53.0058001584
 10
0.9772689496
 20
53.0244262285
 10
1.1201302043
 20
53.0255836532
 10
1.2666226257
 20
53.0091158575
 10
1.2757085133
 20
53.0070348806
  0
LWPOLYLINE
  5
214
100
AcDbEntity
  8
0
100
AcDbPolyline
 62
253
  6
CONTINUOUS
 90
4
 70
0
 10
-9.4583086006
 20
-45.1323254769
 10
-9.287100966
 20
-45.1893683971
 10
-9.1054041149
 20
-45.2627704155
 10
-8.9132598494
 20
-45.3526200633
  0
LWPOLYLINE
  5
215
100
AcDbEntity
  8
0
100
AcDbPolyline
 62
7
  6
CONTINUOUS
 90
3
 70
0
 10
-9.1255758072
 20
-45.3248681911
 10
-8.9979645383
 20
-45.3767131407
 10
-8.8548813732
 20
-45.442404112
  0
LWPOLYLINE
  5
216
100
AcDbEntity
  8
0
100
AcDbPolyline
 62
253
  6
CONTINUOUS
 90
4
 70
0
 10
-4.3035078735
 20
-50.2044263224
 10
-4.3651825994
 20
-50.178586873
 10
-4.4392485622
 20
-50.1442598447
 10
-4.5261918507
 20
-50.1018941683
  0
LWPOLYLINE
  5
217
100
AcDbEntity
  8
0
100
AcDbPolyline
 62
253
  6
CONTINUOUS
 90
3
 70
0
 10
-5.5020685523
 20
-48.6410405181
 10
-5.3361349804
 20
-48.7177749991
 10
-5.2250539731
 20
-48.7699858918
  0
LWPOLYLINE
  5
218
100
AcDbEntity
  8
0
100
AcDbPolyline
 62
7
  6
CONTINUOUS
 90
12
 70
0
 10
1.1078342015
 20
-52.921413419
 10
1.340548851
 20
-53.0303971259
 10
1.7558956067
 20
-53.1937073642
 10
2.1766225108
 20
-53.3189849409
 10
2.6020830077
 20
-53.4061037559
 10
3.0293036632
 20
-53.4576798256
 10
3.4576365347
 20
-53.4739683999
 10
3.8877295647
 20
-53.4547142288
 10
4.3185531459
 20
-53.4017675788
 10
4.7497640758
 20
-53.3157452052
 10
5.1817055569
 20
-53.1960303527
 10
5.6143775892
 20
-53.0426230212
  0
LINE
  5
219
100
AcDbEntity
  8
0
100
AcDbLine
 62
7
  6
CONTINUOUS
 10
-11.5687005411
 20
-46.5807826277
 11
-5.8134220741
 21
-49.4583899941
  0
LINE
  5
21A
100
AcDbEntity
  8
0
100
AcDbLine
 62
7
  6
CONTINUOUS
 10
-4.9877140994
 20
-49.8698031646
 11
-5.8134220741
 21
-49.4583899941
  0
LINE
  5
21B
100
AcDbEntity
  8
0
100
AcDbLine
 62
7
  6
CONTINUOUS
 10
1.1088256066
 20
-52.9195457016
 11
-4.6257974844
 21
-50.0521816563
  0
LINE
  5
21C
100
AcDbEntity
  8
0
100
AcDbLine
 62
7
  6
CONTINUOUS
 10
-4.6257974844
 20
-50.0521816563
 11
-4.9877140994
 21
-49.8698031646
  0
LWPOLYLINE
  5
21D
100
AcDbEntity
  8
0
100
AcDbPolyline
 62
253
  6
CONTINUOUS
 90
35
 70
0
 10
-6.0172632476
 20
-49.3563069551
 10
-6.2304408042
 20
-49.2484899785
 10
-6.4522459083
 20
-49.1346976487
 10
-6.6831112618
 20
-49.0140119931
 10
-6.9212870198
 20
-48.8865436706
 10
-7.1667378143
 20
-48.7514578465
 10
-7.4190788303
 20
-48.6079718329
 10
-7.6759996468
 20
-48.4561774098
 10
-7.9390972085
 20
-48.2938968278
 10
-8.2061475161
 20
-48.1211410968
 10
-8.469141102
 20
-47.941480705
 10
-8.7281412636
 20
-47.7536953362
 10
-8.9824483474
 20
-47.5571562014
 10
-9.2231039813
 20
-47.3570842856
 10
-9.4501245786
 20
-47.1524814628
 10
-9.6630284249
 20
-46.9433539988
 10
-9.8525216387
 20
-46.7377802014
 10
-10.0168644485
 20
-46.537220007
 10
-10.1578965899
 20
-46.3409901615
 10
-10.2722270717
 20
-46.1554895312
 10
-10.3581689235
 20
-45.9838760821
 10
-10.4180467025
 20
-45.8250418693
 10
-10.4547856381
 20
-45.6797360115
 10
-10.468584563
 20
-45.5494239504
 10
-10.4599184758
 20
-45.4345098785
 10
-10.4321559112
 20
-45.3341705095
 10
-10.3857593589
 20
-45.2491052469
 10
-10.3208259606
 20
-45.1800244008
 10
-10.2401363351
 20
-45.1259918687
 10
-10.1441213411
 20
-45.087309258
 10
-10.0327731324
 20
-45.0646646178
 10
-9.9081780249
 20
-45.0576002859
 10
-9.770406257
 20
-45.0663481376
 10
-9.6196846265
 20
-45.0913338601
 10
-9.4583086006
 20
-45.1323254769
  0
LWPOLYLINE
  5
21E
100
AcDbEntity
  8
0
100
AcDbPolyline
 62
7
  6
CONTINUOUS
 90
24
 70
0
 10
-11.5695943829
 20
-46.5827022563
 10
-11.7277231427
 20
-46.5001998225
 10
-12.092297686
 20
-46.2779502392
 10
-12.4521854224
 20
-46.0140609323
 10
-12.8069012269
 20
-45.7087174669
 10
-13.1540456154
 20
-45.3594126063
 10
-13.4937209134
 20
-44.9663960151
 10
-13.8258247953
 20
-44.5294180286
 10
-14.1476508008
 20
-44.0452224167
 10
-14.4593230717
 20
-43.5141357927
 10
-14.7607174661
 20
-42.9358315433
 10
-15.0487550977
 20
-42.3060735988
 10
-15.3237171905
 20
-41.6248079787
 10
-15.5853225205
 20
-40.8920886636
 10
-15.8296485293
 20
-40.1038415254
 10
-16.0571269575
 20
-39.2602729543
 10
-16.2673260643
 20
-38.3611765601
 10
-16.45502807
 20
-37.401859045
 10
-16.6207812538
 20
-36.3827003631
 10
-16.7640373363
 20
-35.3033205603
 10
-16.8779336993
 20
-34.1578864763
 10
-16.9601828035
 20
-32.9444537243
 10
-17.0130721881
 20
-31.6649666912
 10
-17.0366018532
 20
-30.3194253769
  0
LWPOLYLINE
  5
21F
100
AcDbEntity
  8
0
100
AcDbPolyline
 62
7
  6
CONTINUOUS
 90
21
 70
0
 10
1.1260895193
 20
-52.3673052813
 10
1.1808997915
 20
-52.3971369959
 10
1.397756895
 20
-52.5088855028
 10
1.6170555241
 20
-52.6120558675
 10
1.838466498
 20
-52.7066467325
 10
2.0615882241
 20
-52.7926700849
 10
2.2862239896
 20
-52.8701736835
 10
2.512314549
 20
-52.9391595057
 10
2.7395861305
 20
-52.9995629992
 10
2.9675373491
 20
-53.0512976566
 10
3.1958035358
 20
-53.0943586668
 10
3.4241291937
 20
-53.1287914427
 10
3.6520488569
 20
-53.1546400226
 10
3.8789296525
 20
-53.1719878731
 10
4.10441846
 20
-53.180997336
 10
4.3282349896
 20
-53.1818609599
 10
4.5499193342
 20
-53.174796716
 10
4.7680904597
 20
-53.1601468666
 10
4.9836277632
 20
-53.1381632864
 10
5.1996302817
 20
-53.1086219244
 10
5.4174109159
 20
-53.071195141
  0
LWPOLYLINE
  5
220
100
AcDbEntity
  8
0
100
AcDbPolyline
 62
7
  6
CONTINUOUS
 90
3
 70
0
 10
-8.2769763472
 20
46.9930927633
 10
-7.8936765164
 20
47.2795077117
 10
-7.5118833141
 20
47.5319933468
  0
LWPOLYLINE
  5
221
100
AcDbEntity
  8
0
100
AcDbPolyline
 62
7
  6
CONTINUOUS
 90
35
 70
0
 10
-8.9589086467
 20
46.9635091815
 10
-9.2788805135
 20
46.7367571791
 10
-9.7503778938
 20
46.3600473692
 10
-10.2112458398
 20
45.9404446204
 10
-10.6590295697
 20
45.4815354728
 10
-11.0933446082
 20
44.9853413273
 10
-11.515812256
 20
44.4520523913
 10
-11.9258288763
 20
43.8845175634
 10
-12.3219852919
 20
43.2870083692
 10
-12.70441423
 20
42.6602723162
 10
-13.0730849441
 20
42.0047716632
 10
-13.4279913229
 20
41.3215063198
 10
-13.7694274739
 20
40.6115856935
 10
-14.0975497825
 20
39.8772319175
 10
-14.4128786652
 20
39.1205748461
 10
-14.7155474344
 20
38.3419263094
 10
-15.0048094027
 20
37.5419646072
 10
-15.2802792069
 20
36.7207480417
 10
-15.5420656836
 20
35.8770479829
 10
-15.7894647399
 20
35.0125622979
 10
-16.0223124279
 20
34.1274562777
 10
-16.2411395647
 20
33.2187345529
 10
-16.4451803231
 20
32.2886151166
 10
-16.6339781703
 20
31.3390083629
 10
-16.8079680867
 20
30.3666349492
 10
-16.9660952821
 20
29.3710811751
 10
-17.1069471916
 20
28.3531752701
 10
-17.2296517382
 20
27.3101402802
 10
-17.332859255
 20
26.2433630236
 10
-17.41549945
 20
25.1513969067
 10
-17.4762478475
 20
24.0290286646
 10
-17.5118144589
 20
22.8777066792
 10
-17.5222759116
 20
21.7044830014
 10
-17.5215561479
 20
20.5237220165
 10
-17.5216293656
 20
0.8049033401
  0
LWPOLYLINE
  5
222
100
AcDbEntity
  8
0
100
AcDbPolyline
 62
7
  6
CONTINUOUS
 90
5
 70
0
 10
-8.7301430552
 20
47.1116813735
 10
-8.7951547872
 20
47.0704785699
 10
-8.8625674876
 20
47.0271130619
 10
-8.9307296171
 20
46.9823583952
 10
-8.960187724
 20
46.9626468798
  0
LINE
  5
223
100
AcDbEntity
  8
0
100
AcDbLine
 62
7
  6
CONTINUOUS
 10
0.5278980968
 20
52.8798868233
 11
-7.8066699129
 21
47.6871509765
  0
LINE
  5
224
100
AcDbEntity
  8
0
100
AcDbLine
 62
7
  6
CONTINUOUS
 10
1.7247669287
 20
53.2868172742
 11
-7.5118833141
 21
47.5319933468
  0
LINE
  5
225
100
AcDbEntity
  8
0
100
AcDbLine
 62
7
  6
CONTINUOUS
 10
-7.8066699129
 20
47.6871509765
 11
-8.7301430552
 21
47.1116813735
  0
LINE
  5
226
100
AcDbEntity
  8
0
100
AcDbLine
 62
7
  6
CONTINUOUS
 10
-8.8548813732
 20
-45.442404112
 11
-8.8145889548
 21
-45.4622240844
  0
LINE
  5
227
100
AcDbEntity
  8
0
100
AcDbLine
 62
7
  6
CONTINUOUS
 10
-8.8145889549
 20
-45.4622240844
 11
-8.8143461243
 21
-45.4623453812
  0
LINE
  5
228
100
AcDbEntity
  8
0
100
AcDbLine
 62
7
  6
CONTINUOUS
 10
-8.8143461243
 20
-45.4623453812
 11
-8.7744988065
 21
-45.4824939432
  0
LINE
  5
229
100
AcDbEntity
  8
0
100
AcDbLine
 62
253
  6
CONTINUOUS
 10
-8.9132598494
 20
-45.3526200633
 11
-8.7127208115
 21
-45.4591731808
  0
LWPOLYLINE
  5
22A
100
AcDbEntity
  8
0
100
AcDbPolyline
 62
7
  6
CONTINUOUS
 90
31
 70
0
 10
-8.7744988065
 20
-45.4824939432
 10
-8.6069734969
 20
-45.5729326882
 10
-8.4354284829
 20
-45.6745965687
 10
-8.2607468218
 20
-45.786534863
 10
-8.0849700839
 20
-45.9069602693
 10
-7.9116287857
 20
-46.0329917898
 10
-7.7414605303
 20
-46.1636259933
 10
-7.5743137623
 20
-46.2983068736
 10
-7.4113387835
 20
-46.4353730363
 10
-7.253327066
 20
-46.5734838518
 10
-7.1010527919
 20
-46.7113506432
 10
-6.955376999
 20
-46.8476186793
 10
-6.8163012887
 20
-46.9816630641
 10
-6.6829482656
 20
-47.1136676023
 10
-6.5553706379
 20
-47.243052173
 10
-6.4340482337
 20
-47.3688867448
 10
-6.3188975119
 20
-47.4908434044
 10
-6.2090898423
 20
-47.6094449346
 10
-6.1043780186
 20
-47.7246401849
 10
-6.0042403844
 20
-47.8366791178
 10
-5.9078462777
 20
-47.9462227029
 10
-5.8153498138
 20
-48.0528926328
 10
-5.726974349
 20
-48.1562382862
 10
-5.6423694543
 20
-48.2564855866
 10
-5.5614637919
 20
-48.3535520506
 10
-5.4842376345
 20
-48.447303553
 10
-5.4103123197
 20
-48.5380629416
 10
-5.3394071533
 20
-48.6260516009
 10
-5.2713960415
 20
-48.7113134657
 10
-5.2062088225
 20
-48.7938452218
 10
-5.14392019
 20
-48.8734688534
  0
LWPOLYLINE
  5
22B
100
AcDbEntity
  8
0
100
AcDbPolyline
 62
7
  6
CONTINUOUS
 90
21
 70
0
 10
4.3562041118
 20
-51.2973937748
 10
4.2774989129
 20
-51.2525531467
 10
3.9228740277
 20
-51.0254193412
 10
3.5709062205
 20
-50.7575712929
 10
3.2250817113
 20
-50.4469201036
 10
2.8855216546
 20
-50.0935522252
 10
2.5521048958
 20
-49.6973812059
 10
2.2279541911
 20
-49.2560587924
 10
1.9127592403
 20
-48.7700067516
 10
1.6068303437
 20
-48.2388033166
 10
1.3142211578
 20
-47.658834933
 10
1.0350967402
 20
-47.0300724495
 10
0.7692920333
 20
-46.3525450174
 10
0.5203655216
 20
-45.6227265364
 10
0.2876758552
 20
-44.8413947052
 10
0.0718643839
 20
-44.0077718252
 10
-0.1215863585
 20
-43.1159986995
 10
-0.2935127085
 20
-42.1667138324
 10
-0.4430783297
 20
-41.1592787197
 10
-0.5622916788
 20
-40.0859186523
 10
-0.6484889081
 20
-38.9440420606
  0
LWPOLYLINE
  5
22C
100
AcDbEntity
  8
0
100
AcDbPolyline
 62
7
  6
CONTINUOUS
 90
22
 70
0
 10
4.0220328443
 20
-51.1135543454
 10
3.8390615934
 20
-51.0071441912
 10
3.4812831044
 20
-50.7655985735
 10
3.1390880155
 20
-50.4908769078
 10
2.8118814328
 20
-50.1851952217
 10
2.4927065478
 20
-49.84336306
 10
2.1816125138
 20
-49.4656507623
 10
1.8803527667
 20
-49.0534647981
 10
1.5863616113
 20
-48.6010323612
 10
1.3004781575
 20
-48.1062998398
 10
1.024891477
 20
-47.5696215801
 10
0.7598736734
 20
-46.9881914635
 10
0.5071050702
 20
-46.3620421413
 10
0.2680818863
 20
-45.6914479661
 10
0.0432764624
 20
-44.9741640753
 10
-0.165828959
 20
-44.2110658953
 10
-0.357443454
 20
-43.4037417796
 10
-0.5301247514
 20
-42.549396473
 10
-0.681867474
 20
-41.6478320299
 10
-0.8112698981
 20
-40.6964669321
 10
-0.9172307654
 20
-39.6882257179
 10
-0.9970177313
 20
-38.6195318151
  0
LWPOLYLINE
  5
22D
100
AcDbEntity
  8
0
100
AcDbPolyline
 62
253
  6
CONTINUOUS
 90
23
 70
0
 10
-8.7127208115
 20
-45.4591731808
 10
-8.5096274143
 20
-45.5783614601
 10
-8.3039368809
 20
-45.7100943016
 10
-8.0946458367
 20
-45.8548743192
 10
-7.8825887064
 20
-46.0118375769
 10
-7.670444937
 20
-46.1787674841
 10
-7.4582074667
 20
-46.35518021
 10
-7.2455766199
 20
-46.5408802137
 10
-7.0347683041
 20
-46.7340202972
 10
-6.8256682067
 20
-46.9339466629
 10
-6.617961603
 20
-47.1403076447
 10
-6.4135322295
 20
-47.3516179343
 10
-6.2118893718
 20
-47.5672985806
 10
-6.0129643714
 20
-47.7865152191
 10
-5.8192328547
 20
-48.0072662524
 10
-5.6297192232
 20
-48.2294594655
 10
-5.4447156371
 20
-48.4512861971
 10
-5.2686315266
 20
-48.6681971764
 10
-5.1008168285
 20
-48.880489276
 10
-4.9412897556
 20
-49.0858202392
 10
-4.7957812429
 20
-49.2764880007
 10
-4.6657213377
 20
-49.4514848711
 10
-4.5496186613
 20
-49.6111511498
  0
LWPOLYLINE
  5
22E
100
AcDbEntity
  8
0
100
AcDbPolyline
 62
253
  6
CONTINUOUS
 90
17
 70
0
 10
-5.1298524995
 20
-49.7987436301
 10
-5.165213092
 20
-49.7769655829
 10
-5.1958593677
 20
-49.7472750105
 10
-5.221248441
 20
-49.7102696548
 10
-5.2408413535
 20
-49.6665523916
 10
-5.2542639818
 20
-49.6168985925
 10
-5.2613558947
 20
-49.5623079277
 10
-5.2619700144
 20
-49.5037969663
 10
-5.2559962507
 20
-49.4423980773
 10
-5.2435996844
 20
-49.3792527829
 10
-5.2250690565
 20
-49.3155532463
 10
-5.2006950084
 20
-49.2524951023
 10
-5.1708733897
 20
-49.1912461333
 10
-5.1362320219
 20
-49.1329052101
 10
-5.0974318997
 20
-49.0785649556
 10
-5.0551452562
 20
-49.0293083635
 10
-5.0370595157
 20
-49.0119060508
  0
LINE
  5
22F
100
AcDbEntity
  8
0
100
AcDbLine
 62
7
  6
CONTINUOUS
 10
15.872716944
 20
46.2128422665
 11
5.6143775892
 21
40.9688628951
  0
LINE
  5
230
100
AcDbEntity
  8
0
100
AcDbLine
 62
253
  6
CONTINUOUS
 10
-4.9638940205
 20
-36.3557792932
 11
-17.0366018532
 21
-30.3194253769
  0
LWPOLYLINE
  5
231
100
AcDbEntity
  8
0
100
AcDbPolyline
 62
7
  6
CONTINUOUS
 90
50
 70
0
 10
4.8602963251
 20
40.0982070449
 10
4.430627903
 20
39.8001208959
 10
3.999061061
 20
39.4640010682
 10
3.5657454836
 20
39.0920622395
 10
3.1305314862
 20
38.682089732
 10
2.692970015
 20
38.2274395123
 10
2.2520821247
 20
37.7274747423
 10
1.8088467607
 20
37.1828322601
 10
1.3657517051
 20
36.5887785453
 10
0.9210171639
 20
35.9438892336
 10
0.4764229311
 20
35.2495886893
 10
0.0397961713
 20
34.505416486
 10
-0.3930695576
 20
33.6956118785
 10
-0.8179678135
 20
32.835935612
 10
-1.2144521069
 20
31.9732094953
 10
-1.576906365
 20
31.1111104166
 10
-1.9109466605
 20
30.2459614876
 10
-2.2129747216
 20
29.4135538523
 10
-2.4784331743
 20
28.6274187993
 10
-2.7118793926
 20
27.87402504
 10
-2.9233872261
 20
27.1485698522
 10
-3.1142032635
 20
26.4506422897
 10
-3.2830809162
 20
25.7806532987
 10
-3.436354268
 20
25.1350329961
 10
-3.5747506188
 20
24.5137219991
 10
-3.6975426686
 20
23.9167796905
 10
-3.8088826014
 20
23.3408143355
 10
-3.9091718162
 20
22.7856252081
 10
-3.9980089139
 20
22.2514130343
 10
-4.0783418814
 20
21.7353882566
 10
-4.1504611142
 20
21.2373817024
 10
-4.2140762167
 20
20.7575625444
 10
-4.2712639888
 20
20.2936487434
 10
-4.3222148996
 20
19.8455077506
 10
-4.3667384799
 20
19.413272115
 10
-4.406340122
 20
18.9950574443
 10
-4.4411674287
 20
18.5909184889
 10
-4.471072797
 20
18.2008004985
 10
-4.4971188102
 20
17.8226548301
 10
-4.5194405122
 20
17.4557443925
 10
-4.537902859
 20
17.100806277
 10
-4.5531633021
 20
16.7580031142
 10
-4.5650266788
 20
16.4286228049
 10
-4.5736881518
 20
16.1113774484
 10
-4.5803906612
 20
15.8025659737
 10
-4.5852202883
 20
15.5042772213
 10
-4.5880909518
 20
15.2144223508
 10
-4.589987347
 20
14.9230337693
 10
-4.5909819653
 20
14.626833494
 10
-4.5897804775
 20
13.1213563681
  0
LINE
  5
232
100
AcDbEntity
  8
0
100
AcDbLine
 62
7
  6
CONTINUOUS
 10
5.2880663272
 20
40.3582595151
 11
4.8602963251
 21
40.0982070449
  0
LWPOLYLINE
  5
233
100
AcDbEntity
  8
0
100
AcDbPolyline
 62
7
  6
CONTINUOUS
 90
4
 70
0
 10
5.4347135661
 20
40.4401197269
 10
5.3994487166
 20
40.4207758712
 10
5.3632663272
 20
40.4006771227
 10
5.2880663272
 20
40.3582595151
  0
LWPOLYLINE
  5
234
100
AcDbEntity
  8
0
100
AcDbPolyline
 62
7
  6
CONTINUOUS
 90
34
 70
0
 10
5.6143775892
 20
40.9688628951
 10
5.1871695088
 20
40.7354139759
 10
4.758913189
 20
40.468317976
 10
4.3296086299
 20
40.1675748956
 10
3.8981766962
 20
39.8333906257
 10
3.4656965231
 20
39.4655592751
 10
3.0354055167
 20
39.0634631709
 10
2.6075337329
 20
38.6267373444
 10
2.1818511157
 20
38.1557467641
 10
1.7609049028
 20
37.6509686629
 10
1.3451317661
 20
37.1130526527
 10
0.9340950338
 20
36.5413491215
 10
0.5290319281
 20
35.9343864656
 10
0.1295310628
 20
35.2919363178
 10
-0.2639961759
 20
34.6142270454
 10
-0.6490784078
 20
33.9004721464
 10
-1.0257971762
 20
33.1507440978
 10
-1.3940709379
 20
32.3649704225
 10
-1.7511836827
 20
31.5421471875
 10
-2.0974206729
 20
30.6819656939
 10
-2.4324966463
 20
29.7847346404
 10
-2.7528398059
 20
28.8503761906
 10
-3.0588085258
 20
27.8789786971
 10
-3.3500444319
 20
26.8704538072
 10
-3.6219006049
 20
25.8244586267
 10
-3.8746642038
 20
24.7405922104
 10
-4.1080480696
 20
23.6192555035
 10
-4.3165438064
 20
22.4613084468
 10
-4.5009062711
 20
21.266638725
 10
-4.6603806068
 20
20.0353586535
 10
-4.7871938463
 20
18.7686651194
 10
-4.8787550006
 20
17.4669570849
 10
-4.9376550586
 20
16.1298355878
 10
-4.9638940205
 20
14.757300628
  0
LINE
  5
235
100
AcDbEntity
  8
0
100
AcDbLine
 62
7
  6
CONTINUOUS
 10
5.5023254425
 20
40.476631896
 11
5.4347135661
 21
40.4401197269
  0
LINE
  5
236
100
AcDbEntity
  8
0
100
AcDbLine
 62
7
  6
CONTINUOUS
 10
5.5649523991
 20
40.509950426
 11
5.5023254425
 21
40.476631896
  0
LINE
  5
237
100
AcDbEntity
  8
0
100
AcDbLine
 62
7
  6
CONTINUOUS
 10
5.6275604979
 20
40.5426787754
 11
5.5649523991
 21
40.509950426
  0
LINE
  5
238
100
AcDbEntity
  8
0
100
AcDbLine
 62
7
  6
CONTINUOUS
 10
5.6913902017
 20
40.5755262176
 11
5.6275604979
 21
40.5426787754
  0
LINE
  5
239
100
AcDbEntity
  8
0
100
AcDbLine
 62
7
  6
CONTINUOUS
 10
15.872716944
 20
45.7798295646
 11
6.2933418489
 21
40.8829192622
  0
LINE
  5
23A
100
AcDbEntity
  8
0
100
AcDbLine
 62
7
  6
CONTINUOUS
 10
6.2933418489
 20
40.8829192622
 11
5.6913902017
 21
40.5755262176
  0
LINE
  5
23B
100
AcDbEntity
  8
0
100
AcDbLine
 62
253
  6
CONTINUOUS
 10
-0.7332284798
 20
-36.4640493598
 11
-1.0683516384
 21
-36.3016067401
  0
LINE
  5
23C
100
AcDbEntity
  8
0
100
AcDbLine
 62
7
  6
CONTINUOUS
 10
-5.14392019
 20
-48.8734688534
 11
-5.08451436
 21
-48.9501193817
  0
LINE
  5
23D
100
AcDbEntity
  8
0
100
AcDbLine
 62
7
  6
CONTINUOUS
 10
-5.08451436
 20
-48.9501193817
 11
-4.9737615154
 21
-49.0949406812
  0
LINE
  5
23E
100
AcDbEntity
  8
0
100
AcDbLine
 62
7
  6
CONTINUOUS
 10
-4.9737615154
 20
-49.0949406812
 11
-4.8735920434
 21
-49.2281723744
  0
LWPOLYLINE
  5
23F
100
AcDbEntity
  8
0
100
AcDbPolyline
 62
7
  6
CONTINUOUS
 90
16
 70
0
 10
-4.8735920434
 20
-49.2281723744
 10
-4.783556972
 20
-49.3499887137
 10
-4.7421898881
 20
-49.4067288089
 10
-4.7032717847
 20
-49.4606325365
 10
-4.6668104021
 20
-49.511665185
 10
-4.6328693955
 20
-49.5597088167
 10
-4.6013881682
 20
-49.60481221
 10
-4.5723254967
 20
-49.6469959784
 10
-4.5457261572
 20
-49.6861523245
 10
-4.5214634055
 20
-49.7224224445
 10
-4.4995374597
 20
-49.7557587562
 10
-4.4801689942
 20
-49.7857718834
 10
-4.4632029001
 20
-49.8126659311
 10
-4.4486640737
 20
-49.8363562351
 10
-4.4369476326
 20
-49.8560879591
 10
-4.428489937
 20
-49.8708766513
  0
LWPOLYLINE
  5
240
100
AcDbEntity
  8
0
100
AcDbPolyline
 62
253
  6
CONTINUOUS
 90
3
 70
0
 10
-4.5496186613
 20
-49.6111511498
 10
-4.4493537448
 20
-49.751341298
 10
-4.3662094661
 20
-49.8717149279
  0
LWPOLYLINE
  5
241
100
AcDbEntity
  8
0
100
AcDbPolyline
 62
253
  6
CONTINUOUS
 90
10
 70
0
 10
-6.2771048271
 20
-47.5359830234
 10
-6.2443224977
 20
-47.5855829262
 10
-6.1662023845
 20
-47.6952523101
 10
-6.0850159716
 20
-47.8010601711
 10
-6.0010112903
 20
-47.9026832544
 10
-5.9144449815
 20
-47.9998110792
 10
-5.8255815958
 20
-48.0921468044
 10
-5.7346927478
 20
-48.1794082035
 10
-5.6420562132
 20
-48.2613286039
 10
-5.6305608632
 20
-48.2706529285
  0
LWPOLYLINE
  5
242
100
AcDbEntity
  8
0
100
AcDbPolyline
 62
253
  6
CONTINUOUS
 90
10
 70
0
 10
-4.3662094661
 20
-49.8717149279
 10
-4.2993674746
 20
-49.9736083394
 10
-4.2479563371
 20
-50.0567105925
 10
-4.212865701
 20
-50.1215446686
 10
-4.1938502729
 20
-50.1694751532
 10
-4.188525695
 20
-50.2021966184
 10
-4.1968981115
 20
-50.2208153196
 10
-4.2195762124
 20
-50.2263541807
 10
-4.2551092986
 20
-50.2205692252
 10
-4.3035078735
 20
-50.2044263224
  0
LWPOLYLINE
  5
243
100
AcDbEntity
  8
0
100
AcDbPolyline
 62
7
  6
CONTINUOUS
 90
3
 70
0
 10
7.1463745385
 20
37.3648546558
 10
7.4598037226
 20
37.5333409796
 10
17.6375767012
 20
42.7358967497
  0
LINE
  5
244
100
AcDbEntity
  8
0
100
AcDbLine
 62
7
  6
CONTINUOUS
 10
8.3827440145
 20
37.6473914949
 11
17.9911300918
 21
42.5591200544
  0
LINE
  5
245
100
AcDbEntity
  8
0
100
AcDbLine
 62
7
  6
CONTINUOUS
 10
7.9677687806
 20
37.4385094184
 11
8.3827440145
 21
37.6473914949
  0
LINE
  5
246
100
AcDbEntity
  8
0
100
AcDbLine
 62
253
  6
CONTINUOUS
 10
-0.7264260438
 20
-29.0309855197
 11
-1.0615492022
 21
-28.8685426577
  0
LINE
  5
247
100
AcDbEntity
  8
0
100
AcDbLine
 62
253
  6
CONTINUOUS
 10
-17.0366018532
 20
-22.8894318304
 11
-4.9638940205
 21
-28.9257857468
  0
LINE
  5
248
100
AcDbEntity
  8
0
100
AcDbLine
 62
7
  6
CONTINUOUS
 10
-7.7002703137
 20
-26.834970676
 11
-14.5254439924
 21
-23.4223838367
  0
LINE
  5
249
100
AcDbEntity
  8
0
100
AcDbLine
 62
253
  6
CONTINUOUS
 10
-5.1886417604
 20
-27.8908992755
 11
-7.8196911422
 21
-26.5753745889
  0
LINE
  5
24A
100
AcDbEntity
  8
0
100
AcDbLine
 62
253
  6
CONTINUOUS
 10
-14.6079162444
 20
-23.1812620335
 11
-17.2389656262
 21
-21.8657373468
  0
LINE
  5
24B
100
AcDbEntity
  8
0
100
AcDbLine
 62
7
  6
CONTINUOUS
 10
-8.3829132888
 20
-25.274759531
 11
-13.6458247626
 21
-22.6433037941
  0
LINE
  5
24C
100
AcDbEntity
  8
0
100
AcDbLine
 62
253
  6
CONTINUOUS
 10
-17.0401610969
 20
-22.7437958442
 11
-17.1108847669
 21
-22.6896941343
  0
LWPOLYLINE
  5
24D
100
AcDbEntity
  8
0
100
AcDbPolyline
 62
253
  6
CONTINUOUS
 90
4
 70
0
 10
-17.076422989
 20
-22.3977449721
 10
-17.1118911811
 20
-22.3703496323
 10
-17.2229753611
 20
-22.2681887234
 10
-17.3187133235
 20
-22.1613503594
  0
LWPOLYLINE
  5
24E
100
AcDbEntity
  8
0
100
AcDbPolyline
 62
253
  6
CONTINUOUS
 90
8
 70
0
 10
-17.1108847669
 20
-22.6896941343
 10
-17.2218092002
 20
-22.5890534198
 10
-17.3174048237
 20
-22.4841879641
 10
-17.3956966141
 20
-22.3769695733
 10
-17.4555892085
 20
-22.2688695547
 10
-17.4967087756
 20
-22.1602580166
 10
-17.5183424582
 20
-22.0514032263
 10
-17.5216380217
 20
-21.9890703514
  0
LINE
  5
24F
100
AcDbEntity
  8
0
100
AcDbLine
 62
253
  6
CONTINUOUS
 10
-17.3187133235
 20
-22.1613503594
 11
-17.3971271799
 21
-22.0517363337
  0
LWPOLYLINE
  5
250
100
AcDbEntity
  8
0
100
AcDbPolyline
 62
7
  6
CONTINUOUS
 90
11
 70
0
 10
-6.3160598046
 20
-47.4939083673
 10
-6.3115442047
 20
-47.5012061694
 10
-6.2320811582
 20
-47.6199669972
 10
-6.1489718595
 20
-47.7349670516
 10
-6.0624475538
 20
-47.8458625556
 10
-5.9727471763
 20
-47.9523183353
 10
-5.8801188482
 20
-48.0540064055
 10
-5.7848090651
 20
-48.1506174677
 10
-5.6870391937
 20
-48.2418787564
 10
-5.5871029566
 20
-48.3274627388
 10
-5.5759232665
 20
-48.3362043146
  0
LWPOLYLINE
  5
251
100
AcDbEntity
  8
0
100
AcDbPolyline
 62
253
  6
CONTINUOUS
 90
5
 70
0
 10
-8.9137039623
 20
-45.3530868747
 10
-8.8930428458
 20
-45.390990819
 10
-8.8676037187
 20
-45.4229497581
 10
-8.8377818125
 20
-45.4484498704
 10
-8.8145889549
 20
-45.4622240844
  0
LWPOLYLINE
  5
252
100
AcDbEntity
  8
0
100
AcDbPolyline
 62
7
  6
CONTINUOUS
 90
5
 70
0
 10
-6.1203394853
 20
-23.6845218945
 10
-5.9455610576
 20
-23.7239273534
 10
-5.768574617
 20
-23.7608423958
 10
-5.58952257
 20
-23.7952364939
 10
-5.4085475153
 20
-23.8270790811
  0
LWPOLYLINE
  5
253
100
AcDbEntity
  8
0
100
AcDbPolyline
 62
7
  6
CONTINUOUS
 90
3
 70
0
 10
-6.4627040188
 20
-23.5983620772
 10
-6.2927676854
 20
-23.642656508
 10
-6.1203394853
 20
-23.6845218945
  0
LWPOLYLINE
  5
254
100
AcDbEntity
  8
0
100
AcDbPolyline
 62
7
  6
CONTINUOUS
 90
7
 70
0
 10
-8.0279609811
 20
-23.0154686272
 10
-7.7908276663
 20
-23.1283820742
 10
-7.5441972105
 20
-23.2349897179
 10
-7.2880696137
 20
-23.3352915582
 10
-7.022444876
 20
-23.4292875952
 10
-6.7473229973
 20
-23.5169778288
 10
-6.4627039777
 20
-23.5983622591
  0
LINE
  5
255
100
AcDbEntity
  8
0
100
AcDbLine
 62
7
  6
CONTINUOUS
 10
-13.5016547451
 20
-22.5712187853
 11
-8.451826661
 21
-25.0961328274
  0
LINE
  5
256
100
AcDbEntity
  8
0
100
AcDbLine
 62
7
  6
CONTINUOUS
 10
-6.6729065237
 20
-23.6929958704
 11
-8.0279609811
 21
-23.0154686272
  0
LINE
  5
257
100
AcDbEntity
  8
0
100
AcDbLine
 62
253
  6
CONTINUOUS
 10
-1.2336871968
 20
-26.8559230202
 11
-1.5603334363
 21
-26.6879607308
  0
LINE
  5
258
100
AcDbEntity
  8
0
100
AcDbLine
 62
253
  6
CONTINUOUS
 10
-17.3971271799
 20
-22.0517363337
 11
-17.4571198671
 21
-21.940850419
  0
LWPOLYLINE
  5
259
100
AcDbEntity
  8
0
100
AcDbPolyline
 62
7
  6
CONTINUOUS
 90
10
 70
0
 10
-14.6079162444
 20
-23.1812620335
 10
-14.5953853126
 20
-23.2075091822
 10
-14.583692266
 20
-23.2339112418
 10
-14.5728386321
 20
-23.2604620545
 10
-14.5628243622
 20
-23.2871611964
 10
-14.5536524826
 20
-23.3139967974
 10
-14.5453282206
 20
-23.3409446662
 10
-14.5378532055
 20
-23.3679916343
 10
-14.531226343
 20
-23.395136435
 10
-14.5254478542
 20
-23.4223719091
  0
LWPOLYLINE
  5
25A
100
AcDbEntity
  8
0
100
AcDbPolyline
 62
7
  6
CONTINUOUS
 90
18
 70
0
 10
-17.6144299898
 20
-21.00782084
 10
-17.9466295731
 20
-20.1084112653
 10
-18.2355643609
 20
-19.1675086043
 10
-18.4817481971
 20
-18.1825206421
 10
-18.6846672378
 20
-17.1560395935
 10
-18.8427799511
 20
-16.0958421023
 10
-18.9557450984
 20
-15.0016711624
 10
-19.0239039184
 20
-13.87378378
 10
-19.0467385952
 20
-12.7207276172
 10
-19.0239039184
 20
-11.5423109766
 10
-18.9557450984
 20
-10.3387255557
 10
-18.8427799511
 20
-9.1190941095
 10
-18.6846672378
 20
-7.8832946602
 10
-18.4817481972
 20
-6.6314491856
 10
-18.2355643609
 20
-5.3730463739
 10
-17.946629573
 20
-4.111249121
 10
-17.6144299895
 20
-2.842894531
 10
-17.196937839
 20
-1.4252682754
  0
LWPOLYLINE
  5
25B
100
AcDbEntity
  8
0
100
AcDbPolyline
 62
253
  6
CONTINUOUS
 90
3
 70
0
 10
-17.4571198671
 20
-21.940850419
 10
-17.4983170072
 20
-21.8290689777
 10
-17.520004814
 20
-21.7166562115
  0
LINE
  5
25C
100
AcDbEntity
  8
0
100
AcDbLine
 62
7
  6
CONTINUOUS
 10
-13.5016577535
 20
-22.5712110955
 11
-13.863508877
 21
-21.7479176018
  0
LINE
  5
25D
100
AcDbEntity
  8
0
100
AcDbLine
 62
7
  6
CONTINUOUS
 10
-13.8630332505
 20
-21.7495767168
 11
-14.1836174004
 21
-20.8882686052
  0
LWPOLYLINE
  5
25E
100
AcDbEntity
  8
0
100
AcDbPolyline
 62
7
  6
CONTINUOUS
 90
3
 70
0
 10
-14.330125932
 20
-20.9738431535
 10
-14.0115025808
 20
-21.836569628
 10
-13.6513154247
 20
-22.6632096586
  0
LINE
  5
25F
100
AcDbEntity
  8
0
100
AcDbLine
 62
7
  6
CONTINUOUS
 10
-14.1827907845
 20
-20.8911757327
 11
-14.4619803153
 21
-19.9922717956
  0
LWPOLYLINE
  5
260
100
AcDbEntity
  8
0
100
AcDbPolyline
 62
7
  6
CONTINUOUS
 90
34
 70
0
 10
-17.6036659277
 20
-21.0324161596
 10
-17.6007720695
 20
-21.0438601281
 10
-17.5974739623
 20
-21.0572810235
 10
-17.594199034
 20
-21.0710045118
 10
-17.5909540333
 20
-21.0850189567
 10
-17.5877463528
 20
-21.0993085797
 10
-17.5845768935
 20
-21.1138861517
 10
-17.5814431192
 20
-21.1287831041
 10
-17.5783496987
 20
-21.1439992328
 10
-17.5753005348
 20
-21.1595352479
 10
-17.5722931162
 20
-21.1754244688
 10
-17.5693294507
 20
-21.1916797996
 10
-17.5664154982
 20
-21.2082928896
 10
-17.5635553719
 20
-21.2252648165
 10
-17.56075293
 20
-21.2425980961
 10
-17.5580121955
 20
-21.2602942439
 10
-17.5553375026
 20
-21.2783525367
 10
-17.5527323445
 20
-21.2967778251
 10
-17.5502011146
 20
-21.3155687104
 10
-17.5477492332
 20
-21.3347148701
 10
-17.5453800358
 20
-21.3542209467
 10
-17.5430976928
 20
-21.374085335
 10
-17.5409082434
 20
-21.3942883145
 10
-17.5388152263
 20
-21.4148298683
 10
-17.536821948
 20
-21.4357127035
 10
-17.5349337469
 20
-21.4569201465
 10
-17.5331546836
 20
-21.4784476806
 10
-17.5314881318
 20
-21.5002988216
 10
-17.5299381499
 20
-21.5224684355
 10
-17.5285086645
 20
-21.5449517327
 10
-17.5272030669
 20
-21.5677519723
 10
-17.5260246917
 20
-21.590875685
 10
-17.5249770497
 20
-21.6143239847
 10
-17.5240634593
 20
-21.6380953147
  0
LINE
  5
261
100
AcDbEntity
  8
0
100
AcDbLine
 62
7
  6
CONTINUOUS
 10
-15.1547035304
 20
-16.0589654684
 11
-15.0456412915
 21
-17.089905742
  0
LINE
  5
262
100
AcDbEntity
  8
0
100
AcDbLine
 62
253
  6
CONTINUOUS
 10
-17.520004814
 20
-21.7166562115
 11
-17.5230856269
 21
-21.6693282453
  0
LINE
  5
263
100
AcDbEntity
  8
0
100
AcDbLine
 62
7
  6
CONTINUOUS
 10
-15.1547035304
 20
-16.0589654684
 11
-15.220913311
 21
-14.99677097
  0
LINE
  5
264
100
AcDbEntity
  8
0
100
AcDbLine
 62
7
  6
CONTINUOUS
 10
-17.5240634593
 20
-21.6380953147
 11
-17.5230856272
 21
-21.6693282452
  0
LWPOLYLINE
  5
265
100
AcDbEntity
  8
0
100
AcDbPolyline
 62
7
  6
CONTINUOUS
 90
4
 70
0
 10
-17.5231245863
 20
-21.6678374959
 10
-17.5225630483
 20
-21.6901324745
 10
-17.5218239264
 20
-21.7348375068
 10
-17.5215148121
 20
-21.790296913
  0
LINE
  5
266
100
AcDbEntity
  8
0
100
AcDbLine
 62
7
  6
CONTINUOUS
 10
-15.2428922448
 20
-13.9155580935
 11
-15.2207146602
 21
-14.9982201672
  0
LWPOLYLINE
  5
267
100
AcDbEntity
  8
0
100
AcDbPolyline
 62
7
  6
CONTINUOUS
 90
10
 70
0
 10
-17.0366018532
 20
-22.8894318304
 10
-17.0391978912
 20
-22.7597317952
 10
-17.0468093745
 20
-22.6338020764
 10
-17.0594363031
 20
-22.5116426741
 10
-17.0771363293
 20
-22.3929619429
 10
-17.0998518008
 20
-22.2780515282
 10
-17.1274097604
 20
-22.1677863657
 10
-17.1597525558
 20
-22.0624581009
 10
-17.1969378393
 20
-21.9617750884
 10
-17.6144299898
 20
-21.00782084
  0
LWPOLYLINE
  5
268
100
AcDbEntity
  8
0
100
AcDbPolyline
 62
7
  6
CONTINUOUS
 90
15
 70
0
 10
-17.5214626998
 20
-28.1002425268
 10
-17.5202817781
 20
-29.4553206321
 10
-17.496219587
 20
-30.7771788459
 10
-17.4381858445
 20
-32.0078959667
 10
-17.3512337
 20
-33.1536180231
 10
-17.2377633514
 20
-34.2406241517
 10
-17.099590218
 20
-35.2727037597
 10
-16.9393539069
 20
-36.2463713566
 10
-16.7573046127
 20
-37.1703930793
 10
-16.554658297
 20
-38.04566183
 10
-16.3331422764
 20
-38.8716410564
 10
-16.0924785147
 20
-39.6547920689
 10
-15.8315825817
 20
-40.3996633631
 10
-15.5520579325
 20
-41.1020810657
 10
-15.3505958844
 20
-41.5495245806
  0
LINE
  5
269
100
AcDbEntity
  8
0
100
AcDbLine
 62
7
  6
CONTINUOUS
 10
-17.0366018532
 20
-30.3194253769
 11
-17.0366018532
 21
-22.8894318304
  0
LINE
  5
26A
100
AcDbEntity
  8
0
100
AcDbLine
 62
7
  6
CONTINUOUS
 10
-17.0366018532
 20
-0.3195403818
 11
-17.0366018532
 21
20.7936545444
  0
LINE
  5
26B
100
AcDbEntity
  8
0
100
AcDbLine
 62
7
  6
CONTINUOUS
 10
-17.5215148121
 20
-21.790296913
 11
-17.5214626998
 21
-28.1002425268
  0
LWPOLYLINE
  5
26C
100
AcDbEntity
  8
0
100
AcDbPolyline
 62
7
  6
CONTINUOUS
 90
16
 70
0
 10
-17.5216293656
 20
0.8049033401
 10
-17.5222559813
 20
0.7123950747
 10
-17.5247013337
 20
0.6235065022
 10
-17.5286994782
 20
0.5370592218
 10
-17.5344584397
 20
0.4480459564
 10
-17.5422999469
 20
0.3537421579
 10
-17.5522961805
 20
0.2552717366
 10
-17.5649216606
 20
0.1502093145
 10
-17.5807365813
 20
0.0369347875
 10
-17.5998722125
 20
-0.0826992337
 10
-17.622152443
 20
-0.2059970677
 10
-17.6475513879
 20
-0.3320749921
 10
-17.6763375152
 20
-0.4616106691
 10
-17.7085710156
 20
-0.5942019505
 10
-17.744323191
 20
-0.7295227438
 10
-17.7698502172
 20
-0.8200801323
  0
LWPOLYLINE
  5
26D
100
AcDbEntity
  8
0
100
AcDbPolyline
 62
7
  6
CONTINUOUS
 90
32
 70
0
 10
-17.0366018532
 20
20.7936545444
 10
-17.0130533784
 20
22.1658590719
 10
-16.9601298519
 20
23.5045040282
 10
-16.8778312738
 20
24.8095894132
 10
-16.7638415221
 20
26.0816424076
 10
-16.6204767188
 20
27.3201358308
 10
-16.4546852292
 20
28.5234881408
 10
-16.2671432836
 20
29.6915576256
 10
-16.0571746517
 20
30.8244859972
 10
-15.8296990083
 20
31.9211168496
 10
-15.5849725284
 20
32.9810386949
 10
-15.3227390371
 20
34.004663021
 10
-15.047149684
 20
34.9920678851
 10
-14.7585243634
 20
35.9433305295
 10
-14.456543181
 20
36.858373712
 10
-14.1443976037
 20
37.7370437628
 10
-13.8223342767
 20
38.5790348609
 10
-13.4901065549
 20
39.3846528275
 10
-13.1501659692
 20
40.1546614566
 10
-12.8025542317
 20
40.889164322
 10
-12.4472296304
 20
41.5880578499
 10
-12.0865185598
 20
42.2517951131
 10
-11.7207723039
 20
42.880108745
 10
-11.3496395788
 20
43.4732661123
 10
-10.9743929272
 20
44.0325223877
 10
-10.5946151538
 20
44.5585144423
 10
-10.2107234538
 20
45.0506054051
 10
-9.8252419562
 20
45.5081398365
 10
-9.4379798952
 20
45.9306901836
 10
-9.0491280366
 20
46.3186839993
 10
-8.6617828066
 20
46.6727485016
 10
-8.2769763472
 20
46.9930927633
  0
LWPOLYLINE
  5
26E
100
AcDbEntity
  8
0
100
AcDbPolyline
 62
7
  6
CONTINUOUS
 90
9
 70
0
 10
-17.196937839
 20
-1.4252682754
 10
-17.1597525557
 20
-1.2832868224
 10
-17.1274097604
 20
-1.1420382447
 10
-17.0998518008
 20
-1.0011668676
 10
-17.0771363293
 20
-0.8610283658
 10
-17.0594363031
 20
-0.7226897639
 10
-17.0468093745
 20
-0.5865067367
 10
-17.0391978912
 20
-0.4521236093
 10
-17.0366018532
 20
-0.3195403818
  0
LINE
  5
26F
100
AcDbEntity
  8
0
100
AcDbLine
 62
7
  6
CONTINUOUS
 10
-17.7698502169
 20
-0.8200801324
 11
-17.7698380617
 21
-0.820038086
  0
LWPOLYLINE
  5
270
100
AcDbEntity
  8
0
100
AcDbPolyline
 62
7
  6
CONTINUOUS
 90
19
 70
0
 10
-17.7698380617
 20
-0.820038086
 10
-18.0746026194
 20
-1.837969631
 10
-18.4070957993
 20
-3.0677077625
 10
-18.6986587324
 20
-4.298984015
 10
-18.9478407014
 20
-5.5277251804
 10
-19.15370361
 20
-6.7506341468
 10
-19.3152595125
 20
-7.9621789635
 10
-19.4321090992
 20
-9.1575365093
 10
-19.5043140555
 20
-10.3361902618
 10
-19.5315703451
 20
-11.4986725555
 10
-19.5131499792
 20
-12.6435215172
 10
-19.448625998
 20
-13.7667466906
 10
-19.337756178
 20
-14.865192312
 10
-19.1800901764
 20
-15.9371484281
 10
-18.9753224501
 20
-16.9793110329
 10
-18.7238623398
 20
-17.9869302885
 10
-18.4261149466
 20
-18.9573519731
 10
-18.0820324646
 20
-19.8893487386
 10
-17.7526657859
 20
-20.6511026411
  0
LINE
  5
271
100
AcDbEntity
  8
0
100
AcDbLine
 62
7
  6
CONTINUOUS
 10
-4.8387501628
 20
-27.5772619922
 11
-4.9037583075
 21
-27.4499178438
  0
LWPOLYLINE
  5
272
100
AcDbEntity
  8
0
100
AcDbPolyline
 62
7
  6
CONTINUOUS
 90
10
 70
0
 10
-5.1886417418
 20
-27.8908992639
 10
-5.3993494269
 20
-27.4650657605
 10
-5.5986853231
 20
-27.0288662679
 10
-5.7866494304
 20
-26.5823007861
 10
-5.9633424892
 20
-26.1250813972
 10
-6.1286637592
 20
-25.6574960191
 10
-6.2823110189
 20
-25.1804084051
 10
-6.4241835279
 20
-24.6941064731
 10
-6.5543820268
 20
-24.1983023053
 10
-6.6729065155
 20
-23.6929959016
  0
LWPOLYLINE
  5
273
100
AcDbEntity
  8
0
100
AcDbPolyline
 62
7
  6
CONTINUOUS
 90
10
 70
0
 10
-4.9037583075
 20
-27.4499178438
 10
-5.0984002864
 20
-27.049653731
 10
-5.2829266358
 20
-26.6401166001
 10
-5.4573373557
 20
-26.2213064512
 10
-5.6217216618
 20
-25.7929850817
 10
-5.7759903385
 20
-25.3553906942
 10
-5.9198757385
 20
-24.9092378962
 10
-6.0532886463
 20
-24.4547648904
 10
-6.1763182774
 20
-23.9917334741
 10
-6.2576647475
 20
-23.6511794646
  0
LWPOLYLINE
  5
274
100
AcDbEntity
  8
0
100
AcDbPolyline
 62
7
  6
CONTINUOUS
 90
10
 70
0
 10
-7.8196908691
 20
-26.575374357
 10
-8.2146666855
 20
-25.7108626441
 10
-8.5655557521
 20
-24.8013416713
 10
-8.87147183
 20
-23.8491116259
 10
-9.1316418141
 20
-22.8565831014
 10
-9.3454096753
 20
-21.8262636606
 10
-9.5122369593
 20
-20.7607505818
 10
-9.6317020408
 20
-19.6627341889
 10
-9.7035022073
 20
-18.5349931659
 10
-9.7274557852
 20
-17.3803790785
  0
LWPOLYLINE
  5
275
100
AcDbEntity
  8
0
100
AcDbPolyline
 62
7
  6
CONTINUOUS
 90
10
 70
0
 10
-7.7002741756
 20
-26.8349587485
 10
-7.7137647165
 20
-26.8038672483
 10
-7.7272036605
 20
-26.7733164069
 10
-7.7405907863
 20
-26.7433133833
 10
-7.7539294454
 20
-26.7138583158
 10
-7.7672157514
 20
-26.6849655014
 10
-7.7804377052
 20
-26.6566625179
 10
-7.7935900233
 20
-26.6289623642
 10
-7.8066750114
 20
-26.6018643352
 10
-7.8196911422
 20
-26.5753745889
  0
LINE
  5
276
100
AcDbEntity
  8
0
100
AcDbLine
 62
7
  6
CONTINUOUS
 10
-14.4609303556
 20
-19.9960081432
 11
-14.6990650445
 21
-19.0576099538
  0
LINE
  5
277
100
AcDbEntity
  8
0
100
AcDbLine
 62
7
  6
CONTINUOUS
 10
-14.6979296792
 20
-19.0617534222
 11
-14.8944041651
 21
-18.086600299
  0
LWPOLYLINE
  5
278
100
AcDbEntity
  8
0
100
AcDbPolyline
 62
7
  6
CONTINUOUS
 90
3
 70
0
 10
-14.8933110399
 20
-18.0907320959
 10
-15.046595409
 20
-17.0861944883
 10
-15.1553282984
 20
-16.0561808071
  0
LINE
  5
279
100
AcDbEntity
  8
0
100
AcDbLine
 62
7
  6
CONTINUOUS
 10
-15.2207146602
 20
-12.8107184352
 11
-15.2428796119
 21
-13.9155517771
  0
LINE
  5
27A
100
AcDbEntity
  8
0
100
AcDbLine
 62
7
  6
CONTINUOUS
 10
-15.1547035304
 20
-11.6839620043
 11
-15.220913311
 21
-12.8123662832
  0
LINE
  5
27B
100
AcDbEntity
  8
0
100
AcDbLine
 62
7
  6
CONTINUOUS
 10
-15.0456412915
 20
-10.5439594917
 11
-15.1553282984
 21
-11.6873714335
  0
LINE
  5
27C
100
AcDbEntity
  8
0
100
AcDbLine
 62
7
  6
CONTINUOUS
 10
-14.8933110399
 20
-9.3908028863
 11
-15.046595409
 21
-10.548624863
  0
LWPOLYLINE
  5
27D
100
AcDbEntity
  8
0
100
AcDbPolyline
 62
7
  6
CONTINUOUS
 90
10
 70
0
 10
-14.5254478542
 20
-2.5229804582
 10
-14.531226343
 20
-2.5637064732
 10
-14.5378532055
 20
-2.6042902179
 10
-14.5453282206
 20
-2.6447243119
 10
-14.5536524827
 20
-2.68501084
 10
-14.5628243624
 20
-2.7251327472
 10
-14.5728386321
 20
-2.7650538425
 10
-14.5836922655
 20
-2.804756972
 10
-14.595385311
 20
-2.8442440178
 10
-14.6079162416
 20
-2.8835072948
  0
LINE
  5
27E
100
AcDbEntity
  8
0
100
AcDbLine
 62
7
  6
CONTINUOUS
 10
-14.6979296792
 20
-8.2244001993
 11
-14.8944041651
 21
-9.3960278083
  0
LINE
  5
27F
100
AcDbEntity
  8
0
100
AcDbLine
 62
7
  6
CONTINUOUS
 10
-14.4609303556
 20
-7.0531461547
 11
-14.6990650445
 21
-8.2296790329
  0
LINE
  5
280
100
AcDbEntity
  8
0
100
AcDbLine
 62
7
  6
CONTINUOUS
 10
-14.1827907845
 20
-5.8798389941
 11
-14.4619803153
 21
-7.057932462
  0
LINE
  5
281
100
AcDbEntity
  8
0
100
AcDbLine
 62
7
  6
CONTINUOUS
 10
-13.8630332505
 20
-4.7016804759
 11
-14.1836174004
 21
-5.8835727375
  0
LWPOLYLINE
  5
282
100
AcDbEntity
  8
0
100
AcDbPolyline
 62
7
  6
CONTINUOUS
 90
17
 70
0
 10
-13.6513154247
 20
-3.5763297084
 10
-14.0115025808
 20
-4.7631568951
 10
-14.330125932
 20
-5.9445067207
 10
-14.6071854783
 20
-7.1203791853
 10
-14.8431405428
 20
-8.2935271354
 10
-15.0375318024
 20
-9.4611977245
 10
-15.1889812874
 20
-10.6151324128
 10
-15.2971838859
 20
-11.7552337884
 10
-15.3624447099
 20
-12.8815992632
 10
-15.3843011254
 20
-13.9862625339
 10
-15.3624447099
 20
-15.069069389
 10
-15.2971838859
 20
-16.1301740398
 10
-15.1889812874
 20
-17.1620728169
 10
-15.0375318024
 20
-18.1645580202
 10
-14.8431405428
 20
-19.1378373496
 10
-14.6071854783
 20
-20.0750302352
 10
-14.330125932
 20
-20.9738431535
  0
LINE
  5
283
100
AcDbEntity
  8
0
100
AcDbLine
 62
7
  6
CONTINUOUS
 10
-13.863508877
 20
-4.7038152175
 11
-13.5398431569
 21
-3.6437357137
  0
LWPOLYLINE
  5
284
100
AcDbEntity
  8
0
100
AcDbPolyline
 62
7
  6
CONTINUOUS
 90
19
 70
0
 10
-14.6079159901
 20
-2.8835073188
 10
-15.0028917956
 20
-4.1429948191
 10
-15.3537808553
 20
-5.4034048368
 10
-15.6596969294
 20
-6.6615509456
 10
-15.9198669125
 20
-7.9142494494
 10
-16.1336347744
 20
-9.1583367538
 10
-16.3004620587
 20
-10.390677119
 10
-16.4199271402
 20
-11.6081585933
 10
-16.4917273067
 20
-12.8076997829
 10
-16.5156808846
 20
-13.9862668593
 10
-16.4917273163
 20
-15.1408803877
 10
-16.4199271545
 20
-16.2686214724
 10
-16.3004620716
 20
-17.3666379344
 10
-16.1336347768
 20
-18.4321510995
 10
-15.9198668951
 20
-19.4624706301
 10
-15.6596968946
 20
-20.4549991958
 10
-15.3537808161
 20
-21.407229222
 10
-15.0028917664
 20
-22.3167501384
 10
-14.6079159901
 20
-23.1812617637
  0
LWPOLYLINE
  5
285
100
AcDbEntity
  8
0
100
AcDbPolyline
 62
7
  6
CONTINUOUS
 90
7
 70
0
 10
-5.4412725601
 20
-13.4511420256
 10
-5.6226136394
 20
-13.4192103165
 10
-5.8020267125
 20
-13.3847168697
 10
-5.9793682855
 20
-13.3476922781
 10
-6.1544950405
 20
-13.308167099
 10
-6.3272638351
 20
-13.2661718542
 10
-6.4975321121
 20
-13.2217374919
  0
LWPOLYLINE
  5
286
100
AcDbEntity
  8
0
100
AcDbPolyline
 62
7
  6
CONTINUOUS
 90
10
 70
0
 10
-5.4412732916
 20
-13.451142699
 10
-5.5561836073
 20
-13.4255655053
 10
-5.6673200188
 20
-13.3975937085
 10
-5.7744430705
 20
-13.3673419143
 10
-5.8772062132
 20
-13.3349371173
 10
-5.9755262671
 20
-13.3004749235
 10
-6.0695426601
 20
-13.2640114699
 10
-6.1591363255
 20
-13.2256276742
 10
-6.2439700796
 20
-13.1854374208
 10
-6.3238309761
 20
-13.1435380441
  0
LINE
  5
287
100
AcDbEntity
  8
0
100
AcDbLine
 62
7
  6
CONTINUOUS
 10
-8.060443214
 20
-12.6394090162
 11
-6.7070954183
 21
-13.3160829345
  0
LINE
  5
288
100
AcDbEntity
  8
0
100
AcDbLine
 62
7
  6
CONTINUOUS
 10
-14.5254439924
 20
-2.5229646688
 11
-14.136030416
 21
-2.9908720228
  0
LWPOLYLINE
  5
289
100
AcDbEntity
  8
0
100
AcDbPolyline
 62
7
  6
CONTINUOUS
 90
3
 70
0
 10
-14.136030416
 20
-2.9908720228
 10
-13.7480752849
 20
-3.4591880858
 10
-13.6513154247
 20
-3.5763297084
  0
LWPOLYLINE
  5
28A
100
AcDbEntity
  8
0
100
AcDbPolyline
 62
7
  6
CONTINUOUS
 90
6
 70
0
 10
-1.5603334362
 20
-26.6879607307
 10
-1.8772230403
 20
-26.0155277796
 10
-2.1621033414
 20
-25.3175391654
 10
-2.414911818
 20
-24.5956650102
 10
-2.636579879
 20
-23.8481644918
 10
-2.8259003293
 20
-23.08003396
  0
LWPOLYLINE
  5
28B
100
AcDbEntity
  8
0
100
AcDbPolyline
 62
7
  6
CONTINUOUS
 90
6
 70
0
 10
-1.2336875594
 20
-26.8559221725
 10
-1.5957274007
 20
-26.0758445568
 10
-1.9156343878
 20
-25.2618046621
 10
-2.1934085209
 20
-24.4138024883
 10
-2.4295349306
 20
-23.5295537366
 10
-2.6235284862
 20
-22.611342706
  0
LINE
  5
28C
100
AcDbEntity
  8
0
100
AcDbLine
 62
7
  6
CONTINUOUS
 10
-13.6513154247
 20
-3.5763297084
 11
-13.6458247626
 21
-3.5907449108
  0
LWPOLYLINE
  5
28D
100
AcDbEntity
  8
0
100
AcDbPolyline
 62
253
  6
CONTINUOUS
 90
13
 70
0
 10
-8.0279526251
 20
-23.0154727877
 10
-8.1748736949
 20
-22.2385782814
 10
-8.2961056239
 20
-21.4414568367
 10
-8.3914136971
 20
-20.6251919727
 10
-8.4607133334
 20
-19.7906319683
 10
-8.5037163487
 20
-18.9391795856
 10
-8.5200004384
 20
-18.0728302223
 10
-8.5093802373
 20
-17.1928943203
 10
-8.4720331378
 20
-16.3005410418
 10
-8.4082627356
 20
-15.3976455936
 10
-8.3183127258
 20
-14.4857169786
 10
-8.2022971384
 20
-13.5658658908
 10
-8.0604432513
 20
-12.6394089956
  0
LWPOLYLINE
  5
28E
100
AcDbEntity
  8
0
100
AcDbPolyline
 62
7
  6
CONTINUOUS
 90
9
 70
0
 10
-9.7274557852
 20
-17.3803790785
 10
-9.7035022169
 20
-16.2018125707
 10
-9.6317020551
 20
-15.0022713242
 10
-9.5122369722
 20
-13.7847897793
 10
-9.3454096774
 20
-12.5524493194
 10
-9.1316417957
 20
-11.308361907
 10
-8.8714717952
 20
-10.0556633408
 10
-8.5655557167
 20
-8.7975172361
 10
-8.214666667
 20
-7.5371072701
  0
LWPOLYLINE
  5
28F
100
AcDbEntity
  8
0
100
AcDbPolyline
 62
253
  6
CONTINUOUS
 90
19
 70
0
 10
-1.4687492431
 20
-8.6185498909
 10
-1.6137260357
 20
-8.5944212249
 10
-1.7724150989
 20
-8.5641068259
 10
-1.9434507497
 20
-8.5278674128
 10
-2.1260046364
 20
-8.4858345984
 10
-2.3180763146
 20
-8.4383993475
 10
-2.5162507204
 20
-8.3863680224
 10
-2.7178042717
 20
-8.3304583193
 10
-2.9220655975
 20
-8.2708359
 10
-3.1285882783
 20
-8.2075421565
 10
-3.3358505641
 20
-8.1409473355
 10
-3.5422001579
 20
-8.0716455989
 10
-3.7469934264
 20
-7.9999239857
 10
-3.9496101813
 20
-7.9260031983
 10
-4.1471045459
 20
-7.8509381263
 10
-4.3354733254
 20
-7.776282227
 10
-4.5124863203
 20
-7.7029971661
 10
-4.6774070147
 20
-7.631439615
 10
-4.8288066419
 20
-7.5622339666
  0
LINE
  5
290
100
AcDbEntity
  8
0
100
AcDbLine
 62
253
  6
CONTINUOUS
 10
-1.1792994177
 20
-8.9371321192
 11
-1.5228438635
 21
-8.7756656154
  0
LINE
  5
291
100
AcDbEntity
  8
0
100
AcDbLine
 62
7
  6
CONTINUOUS
 10
-13.6458247626
 20
-3.5907449108
 11
-7.9991291238
 21
-6.4140927303
  0
LINE
  5
292
100
AcDbEntity
  8
0
100
AcDbLine
 62
253
  6
CONTINUOUS
 10
-17.238965629
 20
-1.5679826109
 11
-14.6079162416
 21
-2.8835072948
  0
LINE
  5
293
100
AcDbEntity
  8
0
100
AcDbLine
 62
253
  6
CONTINUOUS
 10
-7.819691145
 20
-6.277619853
 11
-5.1886417576
 21
-7.5931445368
  0
LINE
  5
294
100
AcDbEntity
  8
0
100
AcDbLine
 62
7
  6
CONTINUOUS
 10
-14.5254439924
 20
-2.5229646688
 11
-7.7002703137
 21
-5.9355515081
  0
LINE
  5
295
100
AcDbEntity
  8
0
100
AcDbLine
 62
253
  6
CONTINUOUS
 10
-4.9638940205
 20
-6.3558942982
 11
-17.0366018532
 21
-0.3195403818
  0
LINE
  5
296
100
AcDbEntity
  8
0
100
AcDbLine
 62
253
  6
CONTINUOUS
 10
-17.182336772
 20
-1.369518244
 11
-17.1980513062
 21
-1.3604211285
  0
LWPOLYLINE
  5
297
100
AcDbEntity
  8
0
100
AcDbPolyline
 62
253
  6
CONTINUOUS
 90
10
 70
0
 10
-17.1980513062
 20
-1.3604211285
 10
-17.3230718038
 20
-1.2829077864
 10
-17.4358356601
 20
-1.2073172207
 10
-17.534667817
 20
-1.1346288726
 10
-17.617553225
 20
-1.0662218769
 10
-17.6833348721
 20
-1.0030413348
 10
-17.7316299108
 20
-0.9453548674
 10
-17.7617481325
 20
-0.8934907879
 10
-17.7729958438
 20
-0.8479942065
 10
-17.7698502169
 20
-0.8200801324
  0
LWPOLYLINE
  5
298
100
AcDbEntity
  8
0
100
AcDbPolyline
 62
253
  6
CONTINUOUS
 90
9
 70
0
 10
-17.0366018532
 20
0.2204797294
 10
-17.1108847669
 20
0.2773041653
 10
-17.2218092002
 20
0.3779448797
 10
-17.3174048236
 20
0.4828103355
 10
-17.395696614
 20
0.5900287262
 10
-17.4555892084
 20
0.6981287449
 10
-17.4967087755
 20
0.806740283
 10
-17.5183424582
 20
0.9155950733
 10
-17.5216380477
 20
0.9777526582
  0
LWPOLYLINE
  5
299
100
AcDbEntity
  8
0
100
AcDbPolyline
 62
7
  6
CONTINUOUS
 90
13
 70
0
 10
-5.4085490811
 20
-23.8270817473
 10
-5.5586513195
 20
-23.0488812671
 10
-5.6822881949
 20
-22.2508478623
 10
-5.7793176306
 20
-21.4341181316
 10
-5.8495930948
 20
-20.5996298729
 10
-5.8929395121
 20
-19.7486944903
 10
-5.9092202165
 20
-18.8830314377
 10
-5.8983791801
 20
-18.0039875807
 10
-5.8604975464
 20
-17.1126542705
 10
-5.7957024191
 20
-16.210394414
 10
-5.7041355175
 20
-15.2985315554
 10
-5.5859478378
 20
-14.3783476223
 10
-5.4412732916
 20
-13.451142699
  0
LWPOLYLINE
  5
29A
100
AcDbEntity
  8
0
100
AcDbPolyline
 62
7
  6
CONTINUOUS
 90
26
 70
0
 10
-4.5905721946
 20
-28.6947137752
 10
-4.5929100415
 20
-28.6219892222
 10
-4.5963551439
 20
-28.5522849869
 10
-4.6009075017
 20
-28.4856010692
 10
-4.6066747009
 20
-28.422083768
 10
-4.6135491555
 20
-28.3615867844
 10
-4.6212081079
 20
-28.3036712222
 10
-4.629626249
 20
-28.2483162306
 10
-4.6388288877
 20
-28.1955426604
 10
-4.6485691933
 20
-28.1449741677
 10
-4.6588434256
 20
-28.0965748884
 10
-4.6696553248
 20
-28.0503806866
 10
-4.6807692803
 20
-28.0061228109
 10
-4.6921578434
 20
-27.9637926349
 10
-4.703848463
 20
-27.9233987851
 10
-4.7156878745
 20
-27.8846983893
 10
-4.7276220885
 20
-27.8477292772
 10
-4.7397050946
 20
-27.8124536191
 10
-4.751945597
 20
-27.7785150541
 10
-4.7644339739
 20
-27.7457822354
 10
-4.7770798472
 20
-27.7143865098
 10
-4.7896207866
 20
-27.6843655562
 10
-4.8019008803
 20
-27.655930762
 10
-4.8140760401
 20
-27.6288707398
 10
-4.8263515713
 20
-27.6025890073
 10
-4.8387501628
 20
-27.5772619922
  0
LWPOLYLINE
  5
29B
100
AcDbEntity
  8
0
100
AcDbPolyline
 62
7
  6
CONTINUOUS
 90
10
 70
0
 10
-4.9638940205
 20
-28.9257857468
 10
-4.9667732883
 20
-28.7959654817
 10
-4.9752231087
 20
-28.6696333177
 10
-4.9892434817
 20
-28.5467892545
 10
-5.0088975768
 20
-28.427139801
 10
-5.0341222245
 20
-28.3109784483
 10
-5.0647279158
 20
-28.1991856709
 10
-5.1006514809
 20
-28.0920549601
 10
-5.1419560896
 20
-27.9892928244
 10
-5.1886417418
 20
-27.8908992639
  0
LWPOLYLINE
  5
29C
100
AcDbEntity
  8
0
100
AcDbPolyline
 62
7
  6
CONTINUOUS
 90
24
 70
0
 10
-4.9638940205
 20
-36.3557792932
 10
-4.9377744076
 20
-37.702292243
 10
-4.8790637482
 20
-38.9843987326
 10
-4.7877620423
 20
-40.2020987621
 10
-4.6613300359
 20
-41.3535740125
 10
-4.5023069829
 20
-42.4406428027
 10
-4.3183106453
 20
-43.4687600901
 10
-4.1099501952
 20
-44.4382748464
 10
-3.8766164605
 20
-45.3488380999
 10
-3.6240996871
 20
-46.204857892
 10
-3.3528791782
 20
-47.0065178504
 10
-3.0624756306
 20
-47.7536343475
 10
-2.7572413803
 20
-48.4500645416
 10
-2.4374896581
 20
-49.0957393607
 10
-2.1029072332
 20
-49.6907278767
 10
-1.7569067495
 20
-50.2390944639
 10
-1.3996272286
 20
-50.7411589573
 10
-1.030929649
 20
-51.1966015219
 10
-0.6538095898
 20
-51.6085270263
 10
-0.2683805378
 20
-51.977182433
 10
0.1254709937
 20
-52.3023207796
 10
0.5250898859
 20
-52.5863060478
 10
0.9299356881
 20
-52.8289281261
 10
1.1078342015
 20
-52.921413419
  0
LWPOLYLINE
  5
29D
100
AcDbEntity
  8
0
100
AcDbPolyline
 62
7
  6
CONTINUOUS
 90
35
 70
0
 10
-4.5900815544
 20
-36.2101195763
 10
-4.5869749424
 20
-36.923424136
 10
-4.5678159695
 20
-37.6571490271
 10
-4.5326046358
 20
-38.4112942495
 10
-4.4822056458
 20
-39.1930107028
 10
-4.4157542949
 20
-39.9951474874
 10
-4.3306564695
 20
-40.7962519045
 10
-4.2238146737
 20
-41.6019459307
 10
-4.0983264034
 20
-42.4066075894
 10
-3.9608900319
 20
-43.171918252
 10
-3.8122761649
 20
-43.8842371618
 10
-3.6517141967
 20
-44.5572050754
 10
-3.4835906836
 20
-45.193425634
 10
-3.308812708
 20
-45.7918837671
 10
-3.1264731875
 20
-46.3535945452
 10
-2.9382374322
 20
-46.8842068203
 10
-2.7441051505
 20
-47.3842454499
 10
-2.544076634
 20
-47.8531855766
 10
-2.3398180671
 20
-48.2951014806
 10
-2.1312582334
 20
-48.7102373086
 10
-1.9184683493
 20
-49.0983489139
 10
-1.7033282482
 20
-49.4627781363
 10
-1.4858775689
 20
-49.8035289456
 10
-1.2660766726
 20
-50.120597372
 10
-1.0456864763
 20
-50.417313347
 10
-0.8250100322
 20
-50.6940825431
 10
-0.6037442881
 20
-50.9504992878
 10
-0.3827410045
 20
-51.1886764945
 10
-0.1620342815
 20
-51.4087721979
 10
0.0584099811
 20
-51.6106283633
 10
0.2778423235
 20
-51.7958837997
 10
0.4963437785
 20
-51.96432664
 10
0.7138333133
 20
-52.1161687513
 10
0.9293183693
 20
-52.2536845444
 10
1.1259245226
 20
-52.3676039466
  0
LINE
  5
29E
100
AcDbEntity
  8
0
100
AcDbLine
 62
7
  6
CONTINUOUS
 10
-4.5905721946
 20
-28.6947137752
 11
-4.5900812549
 21
-28.7796468999
  0
LINE
  5
29F
100
AcDbEntity
  8
0
100
AcDbLine
 62
7
  6
CONTINUOUS
 10
-4.5901223228
 20
-35.9936480906
 11
-4.5900815544
 21
-36.2101195763
  0
LINE
  5
2A0
100
AcDbEntity
  8
0
100
AcDbLine
 62
7
  6
CONTINUOUS
 10
-4.9638940205
 20
-36.3557792932
 11
-4.9638940205
 21
-28.9257857468
  0
LINE
  5
2A1
100
AcDbEntity
  8
0
100
AcDbLine
 62
7
  6
CONTINUOUS
 10
-4.9638940205
 20
-6.3558942982
 11
-4.9638940205
 21
14.757300628
  0
LINE
  5
2A2
100
AcDbEntity
  8
0
100
AcDbLine
 62
7
  6
CONTINUOUS
 10
-4.5901669779
 20
-35.5760870896
 11
-4.5901223228
 21
-35.9936480906
  0
LINE
  5
2A3
100
AcDbEntity
  8
0
100
AcDbLine
 62
7
  6
CONTINUOUS
 10
-4.5901318119
 20
-28.8954594493
 11
-4.5900618164
 21
-29.0984716079
  0
LINE
  5
2A4
100
AcDbEntity
  8
0
100
AcDbLine
 62
7
  6
CONTINUOUS
 10
-4.5900776178
 20
4.4345615889
 11
-4.5899365541
 21
-6.1197544591
  0
LWPOLYLINE
  5
2A5
100
AcDbEntity
  8
0
100
AcDbPolyline
 62
7
  6
CONTINUOUS
 90
3
 70
0
 10
-4.5900618164
 20
-29.0984716079
 10
-4.5900650223
 20
-29.1566548164
 10
-4.5901669779
 20
-35.5760870896
  0
LINE
  5
2A6
100
AcDbEntity
  8
0
100
AcDbLine
 62
7
  6
CONTINUOUS
 10
-4.5897804775
 20
13.1213563681
 11
-4.5900776178
 21
4.4345615889
  0
LINE
  5
2A7
100
AcDbEntity
  8
0
100
AcDbLine
 62
7
  6
CONTINUOUS
 10
-4.5900812549
 20
-28.7796468999
 11
-4.5901318119
 21
-28.8954594493
  0
LWPOLYLINE
  5
2A8
100
AcDbEntity
  8
0
100
AcDbPolyline
 62
7
  6
CONTINUOUS
 90
33
 70
0
 10
-4.5899365541
 20
-6.1197544591
 10
-4.5901430278
 20
-6.2243483522
 10
-4.5906356176
 20
-6.2590663442
 10
-4.5916000803
 20
-6.2953139621
 10
-4.5929382514
 20
-6.3323969666
 10
-4.5946469238
 20
-6.36986831
 10
-4.5967238995
 20
-6.4077824552
 10
-4.5991713764
 20
-6.4460849394
 10
-4.6019927414
 20
-6.4841653258
 10
-4.6051939009
 20
-6.5217113121
 10
-4.6087689485
 20
-6.5590352007
 10
-4.6127035515
 20
-6.5964634612
 10
-4.6169813523
 20
-6.6340260299
 10
-4.6216187085
 20
-6.6716929706
 10
-4.6266503602
 20
-6.7097009446
 10
-4.632057141
 20
-6.7480178777
 10
-4.6378582172
 20
-6.786675844
 10
-4.6441458279
 20
-6.8260077282
 10
-4.6509046014
 20
-6.8660112803
 10
-4.6581499095
 20
-6.9066887501
 10
-4.666020106
 20
-6.9483797714
 10
-4.6744999503
 20
-6.9910727628
 10
-4.6836046832
 20
-7.0347793058
 10
-4.6935183808
 20
-7.0798737776
 10
-4.7042230918
 20
-7.1263565152
 10
-4.7157367675
 20
-7.1742271818
 10
-4.7282973383
 20
-7.2238591437
 10
-4.7418846638
 20
-7.2752713333
 10
-4.7565188843
 20
-7.3284448183
 10
-4.7724983516
 20
-7.3836961676
 10
-4.7899225163
 20
-7.4411309042
 10
-4.8086919277
 20
-7.500643505
 10
-4.8288065859
 20
-7.5622339703
  0
LWPOLYLINE
  5
2A9
100
AcDbEntity
  8
0
100
AcDbPolyline
 62
7
  6
CONTINUOUS
 90
10
 70
0
 10
-6.707095409
 20
-13.31608289
 10
-6.5880835717
 20
-12.6835945858
 10
-6.4565627217
 20
-12.0499436535
 10
-6.312532859
 20
-11.4151300933
 10
-6.1558837125
 20
-10.7787349795
 10
-5.9867255532
 20
-10.1411772376
 10
-5.8053891952
 20
-9.5037136449
 10
-5.6119849096
 20
-8.866763127
 10
-5.4064024251
 20
-8.2299067581
 10
-5.1886417418
 20
-7.5931445383
  0
LINE
  5
2AA
100
AcDbEntity
  8
0
100
AcDbLine
 62
7
  6
CONTINUOUS
 10
-13.6458247626
 20
-22.6433037941
 11
-13.6513154247
 21
-22.6632096586
  0
LWPOLYLINE
  5
2AB
100
AcDbEntity
  8
0
100
AcDbPolyline
 62
7
  6
CONTINUOUS
 90
10
 70
0
 10
-7.9944611752
 20
-6.4047568332
 10
-8.3545432074
 20
-7.5909942698
 10
-8.6731187732
 20
-8.772125363
 10
-8.9501878724
 20
-9.9481501126
 10
-9.1862513054
 20
-11.1217527742
 10
-9.3808082719
 20
-12.2902490922
 10
-9.5323563717
 20
-13.4455863007
 10
-9.6405870821
 20
-14.5880465096
 10
-9.7058089257
 20
-15.7173476089
 10
-9.7274464195
 20
-16.8146889851
  0
LINE
  5
2AC
100
AcDbEntity
  8
0
100
AcDbLine
 62
7
  6
CONTINUOUS
 10
-8.214666667
 20
-7.5371072701
 11
-7.8196908907
 21
-6.2776198685
  0
LINE
  5
2AD
100
AcDbEntity
  8
0
100
AcDbLine
 62
7
  6
CONTINUOUS
 10
-7.819691145
 20
-6.277619853
 11
-7.7935900239
 21
-6.1998080949
  0
LINE
  5
2AE
100
AcDbEntity
  8
0
100
AcDbLine
 62
7
  6
CONTINUOUS
 10
-7.7935900239
 20
-6.1998080949
 11
-7.7672157513
 21
-6.122937052
  0
LINE
  5
2AF
100
AcDbEntity
  8
0
100
AcDbLine
 62
7
  6
CONTINUOUS
 10
-7.7672157513
 20
-6.122937052
 11
-7.7405907863
 21
-6.0470930291
  0
LWPOLYLINE
  5
2B0
100
AcDbEntity
  8
0
100
AcDbPolyline
 62
7
  6
CONTINUOUS
 90
3
 70
0
 10
-7.7405907863
 20
-6.0470930291
 10
-7.7137647165
 20
-5.9724372865
 10
-7.7002741756
 20
-5.9355672975
  0
LINE
  5
2B1
100
AcDbEntity
  8
0
100
AcDbLine
 62
7
  6
CONTINUOUS
 10
-2.8259003293
 20
-23.08003396
 11
-2.9809722497
 21
-22.3040375433
  0
LWPOLYLINE
  5
2B2
100
AcDbEntity
  8
0
100
AcDbPolyline
 62
7
  6
CONTINUOUS
 90
12
 70
0
 10
-2.6235284862
 20
-22.611342706
 10
-2.7739337952
 20
-21.6660222926
 10
-2.8804237409
 20
-20.6933927549
 10
-2.94332544
 20
-19.6936538344
 10
-2.962164851
 20
-18.6742576521
 10
-2.9366012456
 20
-17.6350068444
 10
-2.866975352
 20
-16.5760987749
 10
-2.7538353129
 20
-15.5055776556
 10
-2.5967331971
 20
-14.4230706944
 10
-2.3961169357
 20
-13.3289506834
 10
-2.1538784649
 20
-12.2323802111
 10
-1.8706484301
 20
-11.1364134737
  0
LWPOLYLINE
  5
2B3
100
AcDbEntity
  8
0
100
AcDbPolyline
 62
7
  6
CONTINUOUS
 90
22
 70
0
 10
-2.9809722497
 20
-22.3040375433
 10
-3.1031230952
 20
-21.5242670436
 10
-3.1942394007
 20
-20.7417986049
 10
-3.2554450263
 20
-19.9661085638
 10
-3.288951663
 20
-19.2017864583
 10
-3.2971691037
 20
-18.4490496125
 10
-3.2823526799
 20
-17.7109815345
 10
-3.2469368254
 20
-16.9906297979
 10
-3.193186468
 20
-16.2885849553
 10
-3.1229964435
 20
-15.6039549396
 10
-3.0383018321
 20
-14.9382319722
 10
-2.9409242212
 20
-14.2922907722
 10
-2.8320576369
 20
-13.6639592282
 10
-2.7132135761
 20
-13.0540786607
 10
-2.5858616575
 20
-12.4633110909
 10
-2.4506121967
 20
-11.8889734511
 10
-2.3086177843
 20
-11.3315261744
 10
-2.1610017553
 20
-10.7914308898
 10
-2.0078832813
 20
-10.2658537038
 10
-1.8497911634
 20
-9.7540202361
 10
-1.6878322348
 20
-9.2572271457
 10
-1.5228440468
 20
-8.7756661375
  0
LINE
  5
2B4
100
AcDbEntity
  8
0
100
AcDbLine
 62
7
  6
CONTINUOUS
 10
-0.6484889081
 20
-38.9440420606
 11
-0.7043338655
 21
-37.7362405142
  0
LWPOLYLINE
  5
2B5
100
AcDbEntity
  8
0
100
AcDbPolyline
 62
7
  6
CONTINUOUS
 90
3
 70
0
 10
-0.9970177313
 20
-38.6195318151
 10
-1.0471921522
 20
-37.4906608729
 10
-1.0649497091
 20
-36.3000711511
  0
LWPOLYLINE
  5
2B6
100
AcDbEntity
  8
0
100
AcDbPolyline
 62
7
  6
CONTINUOUS
 90
13
 70
0
 10
-1.0661843119
 20
-28.7237021104
 10
-1.0733319211
 20
-28.5321789469
 10
-1.0867461128
 20
-28.3439971906
 10
-1.1064048332
 20
-28.1594135029
 10
-1.1322497123
 20
-27.9788124202
 10
-1.1642464097
 20
-27.8023078818
 10
-1.2024363871
 20
-27.6297742026
 10
-1.2467967251
 20
-27.4614804642
 10
-1.2972991133
 20
-27.2976959047
 10
-1.3540418755
 20
-27.138347922
 10
-1.4170374346
 20
-26.9835839978
 10
-1.4863001996
 20
-26.8338817239
 10
-1.5603334363
 20
-26.6879607308
  0
LWPOLYLINE
  5
2B7
100
AcDbEntity
  8
0
100
AcDbPolyline
 62
7
  6
CONTINUOUS
 90
10
 70
0
 10
-0.7298265508
 20
-29.0325202246
 10
-0.7361854564
 20
-28.7603237484
 10
-0.7547540329
 20
-28.4959430773
 10
-0.7855322803
 20
-28.2393782114
 10
-0.8282578759
 20
-27.9909328083
 10
-0.8831931424
 20
-27.7503032103
 10
-0.9511250473
 20
-27.516578445
 10
-1.032315913
 20
-27.2894548549
 10
-1.126503417
 20
-27.0692360974
 10
-1.2336875594
 20
-26.8559221725
  0
LINE
  5
2B8
100
AcDbEntity
  8
0
100
AcDbLine
 62
7
  6
CONTINUOUS
 10
-0.7043338655
 20
-37.7362405142
 11
-0.7298265508
 21
-36.4625140132
  0
LINE
  5
2B9
100
AcDbEntity
  8
0
100
AcDbLine
 62
7
  6
CONTINUOUS
 10
-1.0656649278
 20
-28.7526237354
 11
-1.0661853405
 21
-28.7237025448
  0
LINE
  5
2BA
100
AcDbEntity
  8
0
100
AcDbLine
 62
7
  6
CONTINUOUS
 10
-1.0652929008
 20
-28.7817303436
 11
-1.0656649278
 21
-28.7526237354
  0
LINE
  5
2BB
100
AcDbEntity
  8
0
100
AcDbLine
 62
7
  6
CONTINUOUS
 10
-1.0650576949
 20
-28.8110142917
 11
-1.0652929008
 21
-28.7817303436
  0
LINE
  5
2BC
100
AcDbEntity
  8
0
100
AcDbLine
 62
7
  6
CONTINUOUS
 10
-1.0649372029
 20
-28.8503199433
 11
-1.0650576949
 21
-28.8110142917
  0
LINE
  5
2BD
100
AcDbEntity
  8
0
100
AcDbLine
 62
7
  6
CONTINUOUS
 10
-0.7292722217
 20
-5.550719397
 11
-0.7298265508
 21
14.6505661402
  0
LINE
  5
2BE
100
AcDbEntity
  8
0
100
AcDbLine
 62
7
  6
CONTINUOUS
 10
-1.0683516384
 20
-36.3016067401
 11
-1.0615492022
 21
-28.8685426577
  0
LINE
  5
2BF
100
AcDbEntity
  8
0
100
AcDbLine
 62
7
  6
CONTINUOUS
 10
-0.7332284798
 20
-36.4640493598
 11
-0.7264260438
 21
-29.0309855197
  0
LINE
  5
2C0
100
AcDbEntity
  8
0
100
AcDbLine
 62
7
  6
CONTINUOUS
 10
-1.0649497094
 20
-28.8700781247
 11
-1.0649372029
 21
-28.8503199433
  0
LWPOLYLINE
  5
2C1
100
AcDbEntity
  8
0
100
AcDbPolyline
 62
7
  6
CONTINUOUS
 90
37
 70
0
 10
-1.0649499407
 20
14.8129564989
 10
-1.0512652761
 20
15.891385438
 10
-1.0130374463
 20
16.9439953956
 10
-0.9493036434
 20
17.9710825025
 10
-0.863919177
 20
18.969961563
 10
-0.7588035204
 20
19.9408783505
 10
-0.6352705012
 20
20.8867917023
 10
-0.4949440568
 20
21.8064232564
 10
-0.3392907909
 20
22.6983256278
 10
-0.168901227
 20
23.5655167141
 10
0.0150824991
 20
24.4073836756
 10
0.2111252814
 20
25.2222559358
 10
0.4185292888
 20
26.0119255435
 10
0.6363427406
 20
26.7756815396
 10
0.8637723273
 20
27.5129693448
 10
1.100905536
 20
28.2260125312
 10
1.3470007341
 20
28.9146427828
 10
1.600911919
 20
29.5783405019
 10
1.862331507
 20
30.2188562815
 10
2.1304435582
 20
30.8351930113
 10
2.4044737602
 20
31.4258320854
 10
2.6844472724
 20
31.9915132074
 10
2.9694680753
 20
32.5311809111
 10
3.258747556
 20
33.044369585
 10
3.5527047316
 20
33.5329695037
 10
3.8506843236
 20
33.9971095643
 10
4.1517249001
 20
34.4362832874
 10
4.455773133
 20
34.8507459976
 10
4.7617635807
 20
35.239039801
 10
5.0681868477
 20
35.5999707985
 10
5.3742325206
 20
35.933552729
 10
5.6785221782
 20
36.2392376589
 10
5.9800943425
 20
36.5171150851
 10
6.2787882129
 20
36.7682797612
 10
6.5737340297
 20
36.9931157848
 10
6.8632795488
 20
37.1916863878
 10
7.1463744533
 20
37.3648565827
  0
LWPOLYLINE
  5
2C2
100
AcDbEntity
  8
0
100
AcDbPolyline
 62
7
  6
CONTINUOUS
 90
44
 70
0
 10
-0.7298265508
 20
14.6505661402
 10
-0.7125304903
 20
15.725912258
 10
-0.6739595133
 20
16.7713165731
 10
-0.6141136196
 20
17.7867790855
 10
-0.5311107519
 20
18.7720537466
 10
-0.4268329675
 20
19.7273866051
 10
-0.3069264389
 20
20.6535158068
 10
-0.1719951049
 20
21.5502742927
 10
-0.0214350268
 20
22.4178291218
 10
0.1409194392
 20
23.2574196177
 10
0.3148051851
 20
24.0690530245
 10
0.5004853188
 20
24.8527220981
 10
0.6949148073
 20
25.6096444297
 10
0.8978146818
 20
26.3398690555
 10
1.1094639112
 20
27.0433469393
 10
1.3276543695
 20
27.7211485633
 10
1.5523964975
 20
28.37325219
 10
1.7836798545
 20
28.9996795569
 10
2.0192649924
 20
29.6015663587
 10
2.2588806112
 20
30.1790572633
 10
2.502798011
 20
30.7320076028
 10
2.7495916436
 20
31.261119069
 10
2.9993228699
 20
31.7664158164
 10
3.251930329
 20
32.2478736904
 10
3.5058043908
 20
32.706121919
 10
3.7610347233
 20
33.1410640742
 10
4.0175316584
 20
33.5527965838
 10
4.2734165627
 20
33.9422379598
 10
4.52853022
 20
34.3094040965
 10
4.7830318464
 20
34.6542790994
 10
5.0355204566
 20
34.9777337974
 10
5.2860253517
 20
35.2796047008
 10
5.5345172307
 20
35.5600552992
 10
5.7795072049
 20
35.82044689
 10
6.0214837835
 20
36.0609662789
 10
6.2599584573
 20
36.2814266601
 10
6.4919768105
 20
36.482628914
 10
6.715861759
 20
36.6632590724
 10
6.9332903869
 20
36.8246311034
 10
7.1463395298
 20
36.9714877919
 10
7.3540005349
 20
37.1020730219
 10
7.5572820549
 20
37.2181429094
 10
7.7612868836
 20
37.3297085871
 10
7.9677687806
 20
37.4385094184
  0
LWPOLYLINE
  5
2C3
100
AcDbEntity
  8
0
100
AcDbPolyline
 62
7
  6
CONTINUOUS
 90
14
 70
0
 10
-6.3238309761
 20
-13.1435380441
 10
-6.2867957449
 20
-12.9439215122
 10
-6.2498315726
 20
-12.7500573675
 10
-6.2129384592
 20
-12.5619456102
 10
-6.17606415
 20
-12.3797822604
 10
-6.1392608997
 20
-12.2033712978
 10
-6.1026854726
 20
-12.0321246619
 10
-6.0663529906
 20
-11.8660170919
 10
-6.0302483317
 20
-11.7050738484
 10
-5.9944828938
 20
-11.5487826532
 10
-5.9590686152
 20
-11.3971248791
 10
-5.9239935575
 20
-11.2501191531
 10
-5.889333304
 20
-11.1073090778
 10
-5.8550968724
 20
-10.9686783849
  0
LINE
  5
2C4
100
AcDbEntity
  8
0
100
AcDbLine
 62
7
  6
CONTINUOUS
 10
-5.8550968724
 20
-10.9686783849
 11
-5.7879169526
 21
-10.7035963587
  0
LINE
  5
2C5
100
AcDbEntity
  8
0
100
AcDbLine
 62
7
  6
CONTINUOUS
 10
-5.7879169526
 20
-10.7035963587
 11
-5.7226001053
 21
-10.4536259499
  0
LINE
  5
2C6
100
AcDbEntity
  8
0
100
AcDbLine
 62
7
  6
CONTINUOUS
 10
-5.7226001053
 20
-10.4536259499
 11
-5.6592440535
 21
-10.2177585683
  0
LINE
  5
2C7
100
AcDbEntity
  8
0
100
AcDbLine
 62
7
  6
CONTINUOUS
 10
-5.6592440535
 20
-10.2177585683
 11
-5.5978996787
 21
-9.9953284779
  0
LINE
  5
2C8
100
AcDbEntity
  8
0
100
AcDbLine
 62
7
  6
CONTINUOUS
 10
-5.5978996787
 20
-9.9953284779
 11
-5.5386183931
 21
-9.7853583586
  0
LINE
  5
2C9
100
AcDbEntity
  8
0
100
AcDbLine
 62
7
  6
CONTINUOUS
 10
-5.5386183931
 20
-9.7853583586
 11
-5.4814203494
 21
-9.5870445304
  0
LINE
  5
2CA
100
AcDbEntity
  8
0
100
AcDbLine
 62
7
  6
CONTINUOUS
 10
-5.4814203494
 20
-9.5870445304
 11
-5.4263101779
 21
-9.3998599886
  0
LINE
  5
2CB
100
AcDbEntity
  8
0
100
AcDbLine
 62
7
  6
CONTINUOUS
 10
-5.4263101779
 20
-9.3998599886
 11
-5.3732821658
 21
-9.2230474861
  0
LINE
  5
2CC
100
AcDbEntity
  8
0
100
AcDbLine
 62
7
  6
CONTINUOUS
 10
-5.3732821658
 20
-9.2230474861
 11
-5.3222935048
 21
-9.0558985983
  0
LINE
  5
2CD
100
AcDbEntity
  8
0
100
AcDbLine
 62
7
  6
CONTINUOUS
 10
-5.3222935048
 20
-9.0558985983
 11
-5.2495404678
 21
-8.822163524
  0
LINE
  5
2CE
100
AcDbEntity
  8
0
100
AcDbLine
 62
7
  6
CONTINUOUS
 10
-5.2495404678
 20
-8.822163524
 11
-5.1810419595
 21
-8.6069184147
  0
LINE
  5
2CF
100
AcDbEntity
  8
0
100
AcDbLine
 62
7
  6
CONTINUOUS
 10
-5.1810419595
 20
-8.6069184147
 11
-5.116522211
 21
-8.408230621
  0
LWPOLYLINE
  5
2D0
100
AcDbEntity
  8
0
100
AcDbPolyline
 62
7
  6
CONTINUOUS
 90
10
 70
0
 10
-5.1886417418
 20
-7.5931445383
 10
-5.1419560896
 20
-7.4527150278
 10
-5.1006514809
 20
-7.3127620554
 10
-5.0647279158
 20
-7.1732856212
 10
-5.0341222245
 20
-7.0339353556
 10
-5.0088975768
 20
-6.8950616282
 10
-4.9892434817
 20
-6.7577155478
 10
-4.9752231087
 20
-6.6222474842
 10
-4.9667732883
 20
-6.4883070677
 10
-4.9638940205
 20
-6.3558942982
  0
LINE
  5
2D1
100
AcDbEntity
  8
0
100
AcDbLine
 62
7
  6
CONTINUOUS
 10
-5.116522211
 20
-8.408230621
 11
-5.0559269608
 21
-8.2249665913
  0
LINE
  5
2D2
100
AcDbEntity
  8
0
100
AcDbLine
 62
7
  6
CONTINUOUS
 10
-5.0559269608
 20
-8.2249665913
 11
-4.9811889656
 21
-8.0029611963
  0
LINE
  5
2D3
100
AcDbEntity
  8
0
100
AcDbLine
 62
7
  6
CONTINUOUS
 10
-4.9811889656
 20
-8.0029611963
 11
-4.9308092608
 21
-7.8558197341
  0
LINE
  5
2D4
100
AcDbEntity
  8
0
100
AcDbLine
 62
7
  6
CONTINUOUS
 10
-4.9308092608
 20
-7.8558197341
 11
-4.8288065859
 21
-7.5622339703
  0
LINE
  5
2D5
100
AcDbEntity
  8
0
100
AcDbLine
 62
7
  6
CONTINUOUS
 10
-7.9944611752
 20
-6.4047568332
 11
-7.9301924648
 21
-6.299438658
  0
LINE
  5
2D6
100
AcDbEntity
  8
0
100
AcDbLine
 62
7
  6
CONTINUOUS
 10
-7.9301924648
 20
-6.299438658
 11
-7.8652908719
 21
-6.1947202057
  0
LINE
  5
2D7
100
AcDbEntity
  8
0
100
AcDbLine
 62
7
  6
CONTINUOUS
 10
-7.8652908719
 20
-6.1947202057
 11
-7.7997565929
 21
-6.09060179
  0
LWPOLYLINE
  5
2D8
100
AcDbEntity
  8
0
100
AcDbPolyline
 62
7
  6
CONTINUOUS
 90
3
 70
0
 10
-7.7997565929
 20
-6.09060179
 10
-7.7335904144
 20
-5.987084665
 10
-7.7002703137
 20
-5.9355515081
  0
LWPOLYLINE
  5
2D9
100
AcDbEntity
  8
0
100
AcDbPolyline
 62
7
  6
CONTINUOUS
 90
3
 70
0
 10
-1.8706484301
 20
-11.1364134737
 10
-1.5457961858
 20
-10.037996275
 10
-1.1793217322
 20
-8.937128615
  0
LWPOLYLINE
  5
2DA
100
AcDbEntity
  8
0
100
AcDbPolyline
 62
7
  6
CONTINUOUS
 90
11
 70
0
 10
-1.1793217322
 20
-8.937128615
 10
-1.0506445077
 20
-8.5260803115
 10
-0.9439707239
 20
-8.1347569738
 10
-0.8593003805
 20
-7.7631586019
 10
-0.79972696
 20
-7.4145896031
 10
-0.7621569801
 20
-7.0857455702
 10
-0.7373099938
 20
-6.7667132806
 10
-0.7260563524
 20
-6.4581765808
 10
-0.7275257048
 20
-6.1594516245
 10
-0.7298265508
 20
-5.8585736496
 10
-0.7292722217
 20
-5.550719397
  0
LWPOLYLINE
  5
2DB
100
AcDbEntity
  8
0
100
AcDbPolyline
 62
7
  6
CONTINUOUS
 90
13
 70
0
 10
-1.4687471319
 20
-8.6185502122
 10
-1.4014125948
 20
-8.4077923138
 10
-1.3400158918
 20
-8.1969319513
 10
-1.2846401177
 20
-7.9862643021
 10
-1.2353823042
 20
-7.7762142627
 10
-1.1922711464
 20
-7.5669606469
 10
-1.1553081674
 20
-7.3584382422
 10
-1.1245734394
 20
-7.1509554386
 10
-1.1001402471
 20
-6.9448226223
 10
-1.0820495782
 20
-6.7399908946
 10
-1.070349021
 20
-6.5366378141
 10
-1.0652158078
 20
-6.3352373701
 10
-1.0649499407
 20
14.8129564989
  0
LINE
  5
2DC
100
AcDbEntity
  8
0
100
AcDbLine
 62
7
  6
CONTINUOUS
 10
-1.4792374213
 20
-8.6497538016
 11
-1.4687492431
 21
-8.6185498909
  0
LINE
  5
2DD
100
AcDbEntity
  8
0
100
AcDbLine
 62
7
  6
CONTINUOUS
 10
-1.4935000586
 20
-8.69153307
 11
-1.4792374213
 21
-8.6497538016
  0
LINE
  5
2DE
100
AcDbEntity
  8
0
100
AcDbLine
 62
7
  6
CONTINUOUS
 10
-1.5117248833
 20
-8.7440288878
 11
-1.4935000586
 21
-8.69153307
  0
LINE
  5
2DF
100
AcDbEntity
  8
0
100
AcDbLine
 62
7
  6
CONTINUOUS
 10
-1.5228440468
 20
-8.7756661375
 11
-1.5117248833
 21
-8.7440288878
  0
LWPOLYLINE
  5
2E0
100
AcDbEntity
  8
0
100
AcDbPolyline
 62
253
  6
CONTINUOUS
 90
19
 70
0
 10
-1.0649497091
 20
-6.1352480975
 10
-1.226970795
 20
-6.1927656244
 10
-1.4025104805
 20
-6.2445487757
 10
-1.5900579883
 20
-6.2901514239
 10
-1.7886846891
 20
-6.329227038
 10
-1.9961817988
 20
-6.3611480837
 10
-2.2088428504
 20
-6.3852409571
 10
-2.4237463747
 20
-6.4011820155
 10
-2.6401670155
 20
-6.4088592688
 10
-2.8575906477
 20
-6.4080014076
 10
-3.0743707296
 20
-6.3983395696
 10
-3.2888083551
 20
-6.3801318906
 10
-3.5002674504
 20
-6.353638058
 10
-3.7081092595
 20
-6.318948334
 10
-3.9093027542
 20
-6.2765102361
 10
-4.0997845181
 20
-6.2272752822
 10
-4.2773353129
 20
-6.172049029
 10
-4.4412403199
 20
-6.1112093946
 10
-4.5900816354
 20
-6.0452962333
  0
LWPOLYLINE
  5
2E1
100
AcDbEntity
  8
0
100
AcDbPolyline
 62
253
  6
CONTINUOUS
 90
19
 70
0
 10
7.1463744533
 20
37.3648565827
 10
7.1318190329
 20
37.5460774789
 10
7.1039431711
 20
37.7349630515
 10
7.0629862554
 20
37.9298873386
 10
7.0090123251
 20
38.1297997274
 10
6.9423997704
 20
38.3323405237
 10
6.8642196301
 20
38.5338185997
 10
6.775554351
 20
38.7314713079
 10
6.6766363309
 20
38.9245903335
 10
6.5674097062
 20
39.1125377747
 10
6.4483851806
 20
39.2936954052
 10
6.3207051975
 20
39.4667726115
 10
6.1849848707
 20
39.6314015903
 10
6.0416459239
 20
39.7870922954
 10
5.8927116356
 20
39.9315329085
 10
5.7412984971
 20
40.0618730373
 10
5.5894371415
 20
40.1767583061
 10
5.4379177571
 20
40.2758363232
 10
5.2880666684
 20
40.3582595835
  0
LINE
  5
2E2
100
AcDbEntity
  8
0
100
AcDbLine
 62
7
  6
CONTINUOUS
 10
-13.6513154247
 20
-22.6632096586
 11
-13.8449266752
 21
-22.8331991038
  0
LINE
  5
2E3
100
AcDbEntity
  8
0
100
AcDbLine
 62
7
  6
CONTINUOUS
 10
-13.8449266752
 20
-22.8331991038
 11
-14.0389042407
 21
-23.0024555423
  0
LINE
  5
2E4
100
AcDbEntity
  8
0
100
AcDbLine
 62
7
  6
CONTINUOUS
 10
-14.0389042407
 20
-23.0024555423
 11
-14.2332475372
 21
-23.1709784669
  0
LWPOLYLINE
  5
2E5
100
AcDbEntity
  8
0
100
AcDbPolyline
 62
7
  6
CONTINUOUS
 90
3
 70
0
 10
-14.2332475372
 20
-23.1709784669
 10
-14.4279542281
 20
-23.338765848
 10
-14.5254439924
 20
-23.4223838367
  0
LINE
  5
2E6
100
AcDbEntity
  8
0
100
AcDbLine
 62
7
  6
CONTINUOUS
 10
-6.3238309761
 20
-13.1435380441
 11
-6.7070954183
 21
-13.3160829345
  0
LINE
  5
2E7
100
AcDbEntity
  8
0
100
AcDbLine
 62
253
  6
CONTINUOUS
 10
-17.0366018532
 20
20.7936545444
 11
-4.9638940205
 21
14.757300628
  0
LINE
  5
2E8
100
AcDbEntity
  8
0
100
AcDbLine
 62
7
  6
CONTINUOUS
 10
-13.6458247626
 20
-22.6433037941
 11
-13.5016547451
 21
-22.5712187853
  0
LINE
  5
2E9
100
AcDbEntity
  8
0
100
AcDbLine
 62
253
  6
CONTINUOUS
 10
-0.7298265508
 20
14.6505659081
 11
-1.0649497091
 21
14.8130087702
  0
LINE
  5
2EA
100
AcDbEntity
  8
0
100
AcDbLine
 62
7
  6
CONTINUOUS
 10
15.872716944
 20
46.2128422665
 11
15.872716944
 21
45.7798295646
  0
LINE
  5
2EB
100
AcDbEntity
  8
0
100
AcDbLine
 62
7
  6
CONTINUOUS
 10
17.9911300918
 20
42.5591200544
 11
17.9911300918
 21
-47.5142318172
  0
LWPOLYLINE
  5
2EC
100
AcDbEntity
  8
0
100
AcDbPolyline
 62
253
  6
CONTINUOUS
 90
11
 70
0
 10
7.53140081
 20
-51.579729345
 10
7.5245416255
 20
-51.6166541069
 10
7.4797660041
 20
-51.7878551731
 10
7.4229925413
 20
-51.9504667613
 10
7.3544388127
 20
-52.1019722121
 10
7.2755905566
 20
-52.2388112811
 10
7.1877782031
 20
-52.3593349418
 10
7.0912721823
 20
-52.4637258644
 10
6.9864481338
 20
-52.5517182007
 10
6.8740850135
 20
-52.6225771962
 10
6.7773800163
 20
-52.6672704769
  0
LINE
  5
2ED
100
AcDbEntity
  8
0
100
AcDbLine
 62
7
  6
CONTINUOUS
 10
-6.6729065237
 20
-23.6929958704
 11
-6.4627039777
 21
-23.5983622591
  0
LWPOLYLINE
  5
2EE
100
AcDbEntity
  8
0
100
AcDbPolyline
 62
253
  6
CONTINUOUS
 90
19
 70
0
 10
-1.5603334363
 20
-26.6879607308
 10
-1.7104785488
 20
-26.8192901193
 10
-1.8737535217
 20
-26.9451225561
 10
-2.0487531597
 20
-27.0643743539
 10
-2.2346178654
 20
-27.1762664443
 10
-2.4292918047
 20
-27.2792530605
 10
-2.6293034791
 20
-27.3713330439
 10
-2.8319047727
 20
-27.4512528917
 10
-3.0364151792
 20
-27.5186519608
 10
-3.2423633342
 20
-27.5729748071
 10
-3.4482053405
 20
-27.6133798982
 10
-3.6523175859
 20
-27.6398355372
 10
-3.8540828662
 20
-27.6525845491
 10
-4.0528911263
 20
-27.6516044064
 10
-4.2458464104
 20
-27.6368182136
 10
-4.4290462786
 20
-27.6086720907
 10
-4.6003430713
 20
-27.5678562784
 10
-4.75903826
 20
-27.5147781356
 10
-4.9037582384
 20
-27.4499179898
  0
LWPOLYLINE
  5
2EF
100
AcDbEntity
  8
0
100
AcDbPolyline
 62
7
  6
CONTINUOUS
 90
11
 70
0
 10
17.6157316628
 20
-47.6601088958
 10
17.6115100787
 20
-47.6975117927
 10
17.5787342603
 20
-47.8627226632
 10
17.5324997449
 20
-48.019575315
 10
17.4732434537
 20
-48.1666196046
 10
17.4022761499
 20
-48.2995051016
 10
17.3193180751
 20
-48.4175636778
 10
17.2246489878
 20
-48.5214634614
 10
17.1204189265
 20
-48.6088584069
 10
17.006363474
 20
-48.6793672539
 10
16.9101270152
 20
-48.7231576106
  0
LWPOLYLINE
  5
2F0
100
AcDbEntity
  8
0
100
AcDbPolyline
 62
253
  6
CONTINUOUS
 90
19
 70
0
 10
-1.0661853405
 20
-28.7237025448
 10
-1.2283643093
 20
-28.7864333231
 10
-1.404042226
 20
-28.8434527274
 10
-1.5917071219
 20
-28.8942695468
 10
-1.7904294105
 20
-28.9385067103
 10
-1.997998643
 20
-28.9754717376
 10
-2.2107067421
 20
-29.0043968807
 10
-2.425631615
 20
-29.0248924001
 10
-2.6420476521
 20
-29.0368286572
 10
-2.8594399508
 20
-29.0399143271
 10
-3.0761613483
 20
-29.0338399138
 10
-3.290513967
 20
-29.0188425727
 10
-3.5018626263
 20
-28.9951805132
 10
-3.7095689399
 20
-28.9629358427
 10
-3.910603669
 20
-28.9225181392
 10
-4.1009068864
 20
-28.8748418114
 10
-4.2782621554
 20
-28.8207033308
 10
-4.4419559359
 20
-28.7604823212
 10
-4.590572197
 20
-28.6947138161
  0
LWPOLYLINE
  5
2F1
100
AcDbEntity
  8
0
100
AcDbPolyline
 62
253
  6
CONTINUOUS
 90
19
 70
0
 10
-1.0649497091
 20
-36.3000711511
 10
-1.226970795
 20
-36.357588678
 10
-1.4025104805
 20
-36.4093718293
 10
-1.5900579883
 20
-36.4549744775
 10
-1.7886846891
 20
-36.4940500916
 10
-1.9961817988
 20
-36.5259711373
 10
-2.2088428504
 20
-36.5500640107
 10
-2.4237463747
 20
-36.5660050691
 10
-2.6401670155
 20
-36.5736823224
 10
-2.8575906477
 20
-36.5728244612
 10
-3.0743707296
 20
-36.5631626232
 10
-3.2888083551
 20
-36.5449549442
 10
-3.5002674504
 20
-36.5184611116
 10
-3.7081092634
 20
-36.4837713868
 10
-3.9093027617
 20
-36.4413332879
 10
-4.0997845181
 20
-36.3920983358
 10
-4.2773352932
 20
-36.3368720893
 10
-4.4412402745
 20
-36.2760324666
 10
-4.5900815613
 20
-36.2101193228
  0
LWPOLYLINE
  5
2F2
100
AcDbEntity
  8
0
100
AcDbPolyline
 62
253
  6
CONTINUOUS
 90
28
 70
0
 10
-9.70399766
 20
-45.2267247839
 10
-9.7203591022
 20
-45.2350616361
 10
-9.781623937
 20
-45.2797063402
 10
-9.8266386822
 20
-45.338344239
 10
-9.8536652899
 20
-45.4106403387
 10
-9.8614588006
 20
-45.4963687023
 10
-9.8490524094
 20
-45.5951965072
 10
-9.8151898432
 20
-45.7063632361
 10
-9.7585306784
 20
-45.8290643494
 10
-9.6785621676
 20
-45.9624452615
 10
-9.5755678932
 20
-46.1052476401
 10
-9.4477188533
 20
-46.2566677338
 10
-9.2957207706
 20
-46.4147007177
 10
-9.1249492673
 20
-46.5755087389
 10
-8.9362178837
 20
-46.7363757695
 10
-8.7304564336
 20
-46.89603618
 10
-8.5148386078
 20
-47.0524758823
 10
-8.2920476156
 20
-47.2033370474
 10
-8.0624694531
 20
-47.3480134981
 10
-7.830243334
 20
-47.4874140909
 10
-7.5968947051
 20
-47.6207273315
 10
-7.3634324815
 20
-47.7471100119
 10
-7.1329792438
 20
-47.8676753216
 10
-6.9073400261
 20
-47.9817831326
 10
-6.686779318
 20
-48.0893757735
 10
-6.4717541252
 20
-48.1924077165
 10
-6.2626694136
 20
-48.2907667482
 10
-5.5020685523
 20
-48.6410405181
  0
LINE
  5
2F3
100
AcDbEntity
  8
0
100
AcDbLine
 62
7
  6
CONTINUOUS
 10
-9.70399766
 20
-45.2267247839
 11
-9.7023548253
 21
-45.2260904545
  0
LWPOLYLINE
  5
2F4
100
AcDbEntity
  8
0
100
AcDbPolyline
 62
7
  6
CONTINUOUS
 90
11
 70
0
 10
-9.7023548253
 20
-45.2260904545
 10
-9.6980125686
 20
-45.2245219375
 10
-9.6802400319
 20
-45.2201742763
 10
-9.6505185146
 20
-45.2162555281
 10
-9.6090622937
 20
-45.2146157515
 10
-9.5561604392
 20
-45.2167489632
 10
-9.4925654288
 20
-45.2238464094
 10
-9.4179085152
 20
-45.237049243
 10
-9.3327422972
 20
-45.2573141233
 10
-9.2365143803
 20
-45.285807181
 10
-9.1255758072
 20
-45.3248681911
  0
LINE
  5
2F5
100
AcDbEntity
  8
0
100
AcDbLine
 62
253
  6
CONTINUOUS
 10
5.6143775892
 20
40.9688628951
 11
-7.5118833141
 21
47.5319933468
  0
LWPOLYLINE
  5
2F6
100
AcDbEntity
  8
0
100
AcDbPolyline
 62
253
  6
CONTINUOUS
 90
8
 70
0
 10
-8.1589998028
 20
47.0812489355
 10
-8.2009697054
 20
47.091231757
 10
-8.3467211665
 20
47.1100007684
 10
-8.4888642961
 20
47.1118470264
 10
-8.6247311308
 20
47.0964994758
 10
-8.7524470129
 20
47.0641501121
 10
-8.8714925326
 20
47.0147601272
 10
-8.9589086467
 20
46.9635091815
  0
LINE
  5
2F7
100
AcDbEntity
  8
0
100
AcDbLine
 62
253
  6
CONTINUOUS
 10
16.8934120239
 20
42.355485839
 11
17.2469654145
 21
42.1787091437
  0
LINE
  5
2F8
100
AcDbEntity
  8
0
100
AcDbLine
 62
7
  6
CONTINUOUS
 10
17.9911300918
 20
42.5591200544
 11
17.6375767012
 21
42.7358967497
  0
LINE
  5
2F9
100
AcDbEntity
  8
0
100
AcDbLine
 62
7
  6
CONTINUOUS
 10
1.7247669287
 20
53.2868172742
 11
15.872716944
 21
46.2128422665
  0
LWPOLYLINE
  5
2FA
100
AcDbEntity
  8
0
100
AcDbPolyline
 62
253
  6
CONTINUOUS
 90
19
 70
0
 10
15.1285495212
 20
45.3994172504
 10
15.2788293143
 20
45.3165327402
 10
15.4295905982
 20
45.2173033897
 10
15.5797401343
 20
45.1019813607
 10
15.7291883181
 20
44.9700175478
 10
15.8755923024
 20
44.822772372
 10
16.0146722126
 20
44.6644116486
 10
16.1441712103
 20
44.4983051577
 10
16.2647882632
 20
44.3244523695
 10
16.3768965761
 20
44.1425219842
 10
16.4796400557
 20
43.9538724126
 10
16.5722905722
 20
43.7598948237
 10
16.6550055213
 20
43.5600014366
 10
16.7275048393
 20
43.3534591759
 10
16.7879543916
 20
43.1439528447
 10
16.8347088865
 20
42.9375288828
 10
16.8676008738
 20
42.7371509339
 10
16.8870932299
 20
42.5427211756
 10
16.8934092784
 20
42.3554844355
  0
LINE
  5
2FB
100
AcDbEntity
  8
0
100
AcDbLine
 62
7
  6
CONTINUOUS
 10
17.2469654145
 20
-47.8042810598
 11
17.9911300918
 21
-47.5133438268
  0
LWPOLYLINE
  5
2FC
100
AcDbEntity
  8
0
100
AcDbPolyline
 62
7
  6
CONTINUOUS
 90
3
 70
0
 10
17.2469654145
 20
-47.8042810598
 10
10.1170279189
 20
-50.579339748
 10
8.9032730013
 20
-51.0525703046
  0
LINE
  5
2FD
100
AcDbEntity
  8
0
100
AcDbLine
 62
7
  6
CONTINUOUS
 10
5.6143775892
 20
-53.0426230212
 11
5.6919919526
 21
-53.0124145637
  0
LINE
  5
2FE
100
AcDbEntity
  8
0
100
AcDbLine
 62
7
  6
CONTINUOUS
 10
6.775619927
 20
-52.6679576886
 11
16.9102537596
 21
-48.7234345161
  0
LWPOLYLINE
  5
2FF
100
AcDbEntity
  8
0
100
AcDbPolyline
 62
7
  6
CONTINUOUS
 90
4
 70
0
 10
8.9032730013
 20
-51.0525703046
 10
8.5202020479
 20
-51.200843865
 10
8.1498338941
 20
-51.3496744676
 10
7.7904306015
 20
-51.4930039177
  0
LWPOLYLINE
  5
300
100
AcDbEntity
  8
0
100
AcDbPolyline
 62
7
  6
CONTINUOUS
 90
11
 70
0
 10
7.7904306015
 20
-51.4930039177
 10
7.4370425014
 20
-51.6113213274
 10
7.0909568817
 20
-51.7005376287
 10
6.7508864546
 20
-51.7647418894
 10
6.4080196879
 20
-51.7966904256
 10
6.0593073293
 20
-51.7955972284
 10
5.707798631
 20
-51.7622483068
 10
5.3538298178
 20
-51.6917580035
 10
4.9958072334
 20
-51.5836887199
 10
4.6353245341
 20
-51.4384780548
 10
4.3562041118
 20
-51.2973937748
  0
LWPOLYLINE
  5
301
100
AcDbEntity
  8
0
100
AcDbPolyline
 62
253
  6
CONTINUOUS
 90
10
 70
0
 10
0.6020924312
 20
52.587343559
 10
0.5996517095
 20
52.5878515413
 10
0.4891709691
 20
52.6016316587
 10
0.3809325536
 20
52.6058151506
 10
0.2755260443
 20
52.6004092209
 10
0.1734535464
 20
52.5854183055
 10
0.074981838
 20
52.5607483775
 10
-0.0193959366
 20
52.5263108214
 10
-0.1090458854
 20
52.4820625139
 10
-0.1411167686
 20
52.4630612656
  0
ELLIPSE
  5
302
100
AcDbEntity
  8
0
100
AcDbEllipse
 62
7
  6
CONTINUOUS
 10
15.868070572
 20
43.614959194
 30
0.0
 11
-1.116424275
 21
2.2358657637
 31
0.0
 40
0.6140178746
 41
-2.2536534526
 42
-0.6853696792
  0
ENDSEC
  0
SECTION
  2
OBJECTS
  0
DICTIONARY
  5
C
100
AcDbDictionary
280
0
281
1
  3
ACAD_GROUP
350
D
  3
ACAD_MLINESTYLE
350
17
  3
ACAD_LAYOUT
350
1A
  3
ACAD_PLOTSETTINGS
350
19
  3
ACAD_PLOTSTYLENAME
350
E
  0
DICTIONARY
  5
D
102
{ACAD_REACTORS
330
C
102
}
100
AcDbDictionary
280
0
281
1
  0
ACDBDICTIONARYWDFLT
  5
E
102
{ACAD_REACTORS
330
C
102
}
100
AcDbDictionary
281
1
  3
Normal
350
F
100
AcDbDictionaryWithDefault
340
F
  0
DICTIONARY
  5
17
102
{ACAD_REACTORS
330
C
102
}
100
AcDbDictionary
280
0
281
1
  3
Standard
350
18
  0
DICTIONARY
  5
19
102
{ACAD_REACTORS
330
C
102
}
100
AcDbDictionary
281
1
  0
DICTIONARY
  5
1A
102
{ACAD_REACTORS
330
C
102
}
100
AcDbDictionary
281
1
  3
Model
350
303
  3
Layout1
350
304
  0
ACDBPLACEHOLDER
  5
F
102
{ACAD_REACTORS
330
E
102
}
  0
MLINESTYLE
  5
18
102
{ACAD_REACTORS
330
17
102
}
100
AcDbMlineStyle
  2
STANDARD
 70
0
  3

 62
256
 51
90.0
 52
90.0
 71
2
 49
0.5
 62
256
  6
BYLAYER
 49
-0.5
 62
256
  6
BYLAYER
  0
LAYOUT
  5
303
102
{ACAD_REACTORS
330
1A
102
}
100
AcDbPlotSettings
  1

  2
none_device
  4
ISO_A4_(297.00_x_210.00_MM)
  6

 40
0.0
 41
0.0
 42
0.0
 43
0.0
 44
297.0
 45
210.0
 46
0.0
 47
0.0
 48
0.0
 49
0.0
140
0.0
141
0.0
142
1.0
143
1.0
 70
1024
 72
1
 73
0
 74
0
  7

 75
0
147
1.0
148
0.0
149
0.0
100
AcDbLayout
  1
Model
 70
0
 71
0
 10
0.0
 20
0.0
 11
297.0
 21
210.0
 12
0.0
 22
0.0
 32
0.0
 14
0.0
 24
0.0
 34
0.0
 15
0.0
 25
0.0
 35
0.0
146
0.0
 13
0.0
 23
0.0
 33
0.0
 16
1.0
 26
0.0
 36
0.0
 17
0.0
 27
1.0
 37
0.0
 76
0
330
20F
345
0
346
0
  0
LAYOUT
  5
304
102
{ACAD_REACTORS
330
1A
102
}
100
AcDbPlotSettings
  1

  2
none_device
  4
ISO_A4_(297.00_x_210.00_MM)
  6

 40
0.0
 41
0.0
 42
0.0
 43
0.0
 44
297.0
 45
210.0
 46
0.0
 47
0.0
 48
0.0
 49
0.0
140
0.0
141
0.0
142
1.0
143
1.0
 70
0
 72
1
 73
0
 74
0
  7

 75
0
147
1.0
148
0.0
149
0.0
100
AcDbLayout
  1
Layout1
 70
0
 71
1
 10
0.0
 20
0.0
 11
297.0
 21
210.0
 12
0.0
 22
0.0
 32
0.0
 14
0.0
 24
0.0
 34
0.0
 15
0.0
 25
0.0
 35
0.0
146
0.0
 13
0.0
 23
0.0
 33
0.0
 16
1.0
 26
0.0
 36
0.0
 17
0.0
 27
1.0
 37
0.0
 76
0
330
210
345
0
346
0
  0
ENDSEC
  0
EOF
