  0
SECTION
  2
HEADER
  9
$ACADVER
  1
AC1024
  9
$DWGCODEPAGE
  3
ANSI_1252
  9
$EXTMAX
 10
420.0
 20
297.0
 30
0.0
  9
$EXTMIN
 10
0.0
 20
-0.0
 30
0.0
  9
$LIMMIN
 10
0.0
 20
-0.0
  9
$LIMMAX
 10
420.0
 20
297.0
  9
$VIEWCTR
 10
210.0
 20
148.5
  9
$VIEWSIZE
 40
297.0
  9
$CLAYER
  8
0
  9
$LTSCALE
 40
23.1
  9
$CELTYPE
  6
BYLAYER
  9
$DIMSCALE
 40
1.0
  9
$DIMASZ
 40
3.0
  9
$DIMEXO
 40
0.5
  9
$DIMDLI
 40
15.96
  9
$DIMEXE
 40
1.5
  9
$DIMCEN
 40
3.78
  9
$DIMLFAC
 40
1.0
  9
$DIMBLK
  1
_FILLED
  9
$DIMALT
 70
0
  9
$DIMALTF
 40
0.0393700787
  9
$DIMTXT
 40
3.0
  9
$DIMTOL
 70
1
  9
$DIMLIM
 70
0
  9
$DIMTFAC
 40
1.0
  9
$DIMTP
 40
0.01
  9
$DIMTM
 40
0.01
  9
$DIMGAP
 40
0.625
  9
$DIMDSEP
 70
44
  9
$AUNITS
 70
0
  9
$PDMODE
 70
3
  9
$PDSIZE
 40
3.0
  9
$HANDSEED
  5
298
  9
$TILEMODE
 70
1
  9
$MEASUREMENT
 70
1
  9
$INSUNITS
 70
4
  0
ENDSEC
  0
SECTION
  2
CLASSES
  0
CLASS
  1
ACDBDICTIONARYWDFLT
  2
AcDbDictionaryWithDefault
  3
AutoCAD 2000
 90
0
 91
1
280
0
281
0
  0
CLASS
  1
ACDBPLACEHOLDER
  2
AcDbPlaceHolder
  3
AutoCAD 2000
 90
0
 91
1
280
0
281
0
  0
CLASS
  1
LAYOUT
  2
AcDbLayout
  3
AutoCAD 2000
 90
0
 91
0
280
0
281
0
  0
ENDSEC
  0
SECTION
  2
TABLES
  0
TABLE
  2
VPORT
  5
8
100
AcDbSymbolTable
 70
2
  0
VPORT
  5
1F4
100
AcDbSymbolTableRecord
100
AcDbViewportTableRecord
  2
*ACTIVE
 70
0
 10
0.0
 20
0.0
 11
1.0
 21
1.0
 12
210.0
 22
148.5
 13
0.0
 23
0.0
 14
1.0
 24
1.0
 15
0.0
 25
0.0
 16
0.0
 26
0.0
 36
1.0
 17
0.0
 27
0.0
 37
0.0
 40
297.0
 41
1.4141414141
 42
50.0
 43
0.0
 44
0.0
 50
0.0
 51
0.0
 71
0
 72
100
 73
1
 74
1
 75
0
 76
0
 77
0
 78
0
  0
ENDTAB
  0
TABLE
  2
LTYPE
  5
5
100
AcDbSymbolTable
 70
6
  0
LTYPE
  5
14
100
AcDbSymbolTableRecord
100
AcDbLinetypeTableRecord
  2
BYBLOCK
 70
0
  3

 72
65
 73
0
 40
0.0
  0
LTYPE
  5
15
100
AcDbSymbolTableRecord
100
AcDbLinetypeTableRecord
  2
BYLAYER
 70
0
  3

 72
65
 73
0
 40
0.0
  0
LTYPE
  5
16
100
AcDbSymbolTableRecord
100
AcDbLinetypeTableRecord
  2
CONTINUOUS
 70
64
  3
Solid line
 72
65
 73
0
 40
0.0
  0
LTYPE
  5
1F5
100
AcDbSymbolTableRecord
100
AcDbLinetypeTableRecord
  2
CENTER
 70
64
  3
____ _ ____ _ ____ _ ____ _ ____ _ ____ _ ____
 72
65
 73
4
 40
0.6
 49
0.375
 74
0
 49
-0.075
 74
0
 49
0.075
 74
0
 49
-0.075
 74
0
  0
LTYPE
  5
1F6
100
AcDbSymbolTableRecord
100
AcDbLinetypeTableRecord
  2
HIDDEN
 70
64
  3
- - - - - - - - - - - - - - - - - - - -
 72
65
 73
2
 40
0.2
 49
0.1
 74
0
 49
-0.1
 74
0
  0
LTYPE
  5
1F7
100
AcDbSymbolTableRecord
100
AcDbLinetypeTableRecord
  2
PHANTOM
 70
64
  3
_____ _ _ _____ _ _ _____ _ _ _____
 72
65
 73
6
 40
0.8
 49
0.45
 74
0
 49
-0.05
 74
0
 49
0.1
 74
0
 49
-0.05
 74
0
 49
0.1
 74
0
 49
-0.05
 74
0
  0
LTYPE
  5
1F8
100
AcDbSymbolTableRecord
100
AcDbLinetypeTableRecord
  2
DOT
 70
64
  3
. . . . . . . . . . . . . . . . . . . .
 72
65
 73
2
 40
0.2
 49
0.1
 74
0
 49
-0.1
 74
0
  0
LTYPE
  5
1F9
100
AcDbSymbolTableRecord
100
AcDbLinetypeTableRecord
  2
DASHED
 70
64
  3
- - - - - - - - - - - - - - - - - - - -
 72
65
 73
2
 40
0.2
 49
0.1
 74
0
 49
-0.1
 74
0
  0
ENDTAB
  0
TABLE
  2
LAYER
  5
2
100
AcDbSymbolTable
 70
36
  0
LAYER
  5
10
100
AcDbSymbolTableRecord
100
AcDbLayerTableRecord
  2
0
 70
0
 62
7
  6
CONTINUOUS
370
-3
390
F
  0
LAYER
  5
1FA
100
AcDbSymbolTableRecord
100
AcDbLayerTableRecord
  2
DEFAULT_1
 70
0
 62
7
  6
CENTER
370
-3
390
F
  0
LAYER
  5
1FB
100
AcDbSymbolTableRecord
100
AcDbLayerTableRecord
  2
DEFAULT_2
 70
0
 62
7
  6
HIDDEN
370
-3
390
F
  0
LAYER
  5
1FC
100
AcDbSymbolTableRecord
100
AcDbLayerTableRecord
  2
DEFAULT_3
 70
0
 62
7
  6
PHANTOM
370
-3
390
F
  0
ENDTAB
  0
TABLE
  2
STYLE
  5
3
100
AcDbSymbolTable
 70
1
  0
STYLE
  5
11
100
AcDbSymbolTableRecord
100
AcDbTextStyleTableRecord
  2
STANDARD
 70
0
 40
0.0
 41
0.8
 50
0.0
 71
0
 42
0.2
  3
txt
  4

  0
STYLE
  5
1FD
100
AcDbSymbolTableRecord
100
AcDbTextStyleTableRecord
  2
TEXTSTYLE_1
 70
0
 40
0.0
 41
0.8
 50
0.0
 71
0
 42
0.2
  3
gdt
  4

  0
ENDTAB
  0
TABLE
  2
VIEW
  5
6
100
AcDbSymbolTable
 70
0
  0
ENDTAB
  0
TABLE
  2
UCS
  5
7
100
AcDbSymbolTable
 70
0
  0
ENDTAB
  0
TABLE
  2
APPID
  5
9
100
AcDbSymbolTable
 70
1
  0
APPID
  5
1FE
100
AcDbSymbolTableRecord
100
AcDbRegAppTableRecord
  2
ACAD
 70
0
  0
ENDTAB
  0
TABLE
  2
BLOCK_RECORD
  5
1
100
AcDbSymbolTable
 70
0
  0
BLOCK_RECORD
  5
1FF
100
AcDbSymbolTableRecord
100
AcDbBlockTableRecord
  2
*Model_Space
  0
BLOCK_RECORD
  5
200
100
AcDbSymbolTableRecord
100
AcDbBlockTableRecord
  2
*Paper_Space
  0
BLOCK_RECORD
  5
201
100
AcDbSymbolTableRecord
100
AcDbBlockTableRecord
  2
_FILLED
  0
ENDTAB
  0
TABLE
  2
DIMSTYLE
  5
A
100
AcDbSymbolTable
 70
1
100
AcDbDimStyleTable
 71
0
  0
DIMSTYLE
105
202
100
AcDbSymbolTableRecord
100
AcDbDimStyleTableRecord
  2
STANDARD
 70
0
  3

  4

 40
1.0
 41
3.0
 42
0.5
 43
0.38
 44
1.5
 45
0.0
 46
0.0
 47
0.01
 48
0.01
140
3.0
141
0.09
142
0.0
143
25.4
144
1.0
145
0.0
146
1.0
147
0.625
 71
1
 72
0
 73
0
 74
0
 75
0
 76
0
 77
1
 78
8
 79
2
170
0
171
1
172
0
173
0
174
0
175
0
176
0
177
0
178
0
270
2
179
2
271
2
272
2
273
2
274
2
275
0
280
0
281
0
282
0
283
1
284
8
285
0
286
0
287
3
288
0
340
11
278
44
341
201
342
201
343
201
344
201
  0
ENDTAB
  0
ENDSEC
  0
SECTION
  2
BLOCKS
  0
BLOCK
  5
20
100
AcDbEntity
  8
0
100
AcDbBlockBegin
  2
*Model_Space
 70
0
 10
0.0
 20
0.0
 30
0.0
  3
*Model_Space
  1

  0
ENDBLK
  5
21
100
AcDbEntity
  8
0
100
AcDbBlockEnd
  0
BLOCK
  5
1C
100
AcDbEntity
  8
0
100
AcDbBlockBegin
  2
*Paper_Space
 70
0
 10
0.0
 20
0.0
 30
0.0
  3
*Paper_Space
  1

  0
ENDBLK
  5
1D
100
AcDbEntity
  8
0
100
AcDbBlockEnd
  0
BLOCK
  5
203
100
AcDbEntity
  8
0
100
AcDbBlockBegin
  2
_FILLED
 70
64
 10
0.0
 20
0.0
  3
_FILLED
  1

  0
SOLID
  5
204
100
AcDbEntity
  8
0
  6
BYBLOCK
 62
0
100
AcDbTrace
 10
0.0
 20
0.0
 11
-1.0
 21
0.3166666667
 12
-1.0
 22
-0.3166666667
 13
-1.0
 23
-0.3166666667
  0
ENDBLK
  5
205
100
AcDbEntity
  8
0
  6
BYBLOCK
 62
0
100
AcDbBlockEnd
  0
ENDSEC
  0
SECTION
  2
ENTITIES
  0
LINE
  5
206
100
AcDbEntity
  8
0
100
AcDbLine
 62
7
  6
CONTINUOUS
 10
182.7985544967
 20
240.4572051266
 11
183.2935292436
 21
240.7046925001
  0
LINE
  5
207
100
AcDbEntity
  8
0
100
AcDbLine
 62
7
  6
CONTINUOUS
 10
183.4349505998
 20
240.7710730512
 11
187.6775912869
 21
242.8923933947
  0
LINE
  5
208
100
AcDbEntity
  8
0
100
AcDbLine
 62
7
  6
CONTINUOUS
 10
183.7407428391
 20
240.6762907128
 11
183.2457680922
 21
240.4288033394
  0
LINE
  5
209
100
AcDbEntity
  8
0
100
AcDbLine
 62
7
  6
CONTINUOUS
 10
188.1248048996
 20
242.8639916007
 11
183.8821642107
 21
240.7426712563
  0
LINE
  5
20A
100
AcDbEntity
  8
0
100
AcDbLine
 62
7
  6
CONTINUOUS
 10
188.2308708996
 20
242.8534571671
 11
188.1883723311
 21
242.8322078828
  0
LWPOLYLINE
  5
20B
100
AcDbEntity
  8
0
100
AcDbPolyline
 62
7
  6
CONTINUOUS
 90
30
 70
0
 10
183.4349639957
 20
240.7710464278
 10
183.4422377787
 20
240.7745926403
 10
183.4495869929
 20
240.7779822424
 10
183.4570092708
 20
240.7812134157
 10
183.4645022447
 20
240.7842843419
 10
183.4720635471
 20
240.7871932028
 10
183.4796908105
 20
240.7899381802
 10
183.4873816673
 20
240.7925174557
 10
183.4950638201
 20
240.7949089081
 10
183.5028019889
 20
240.797137226
 10
183.510592055
 20
240.7992038105
 10
183.5184298993
 20
240.8011100628
 10
183.5263114029
 20
240.8028573841
 10
183.5342324469
 20
240.8044471754
 10
183.5421889123
 20
240.8058808381
 10
183.5501766802
 20
240.8071597733
 10
183.5581916317
 20
240.808285382
 10
183.5662296478
 20
240.8092590656
 10
183.5742866097
 20
240.8100822251
 10
183.5823583983
 20
240.8107562618
 10
183.5904408947
 20
240.8112825768
 10
183.59852998
 20
240.8116625712
 10
183.6066215353
 20
240.8118976463
 10
183.6147114415
 20
240.8119892032
 10
183.6227955799
 20
240.811938643
 10
183.6308698315
 20
240.811747367
 10
183.6389300772
 20
240.8114167763
 10
183.6469721982
 20
240.8109482721
 10
183.6549920756
 20
240.8103432555
 10
183.6629855904
 20
240.8096031278
  0
LWPOLYLINE
  5
20C
100
AcDbEntity
  8
0
100
AcDbPolyline
 62
7
  6
CONTINUOUS
 90
41
 70
0
 10
182.7985678927
 20
240.4571785032
 10
182.808193394
 20
240.4618146767
 10
182.8179665826
 20
240.4661596883
 10
182.8278780059
 20
240.4702158689
 10
182.8379182114
 20
240.4739855494
 10
182.8480777466
 20
240.477471061
 10
182.8583471589
 20
240.4806747345
 10
182.868716996
 20
240.4835989009
 10
182.8791778052
 20
240.4862458913
 10
182.889720134
 20
240.4886180367
 10
182.90033453
 20
240.4907176679
 10
182.9110115406
 20
240.492547116
 10
182.9217417133
 20
240.494108712
 10
182.9325155956
 20
240.4954047869
 10
182.9433237349
 20
240.4964376716
 10
182.9541566789
 20
240.4972096972
 10
182.9650049748
 20
240.4977231946
 10
182.9758591703
 20
240.4979804948
 10
182.9867098129
 20
240.4979839288
 10
182.9975474499
 20
240.4977358275
 10
183.008362629
 20
240.4972385221
 10
183.0208349967
 20
240.4963563307
 10
183.0332617095
 20
240.4951527895
 10
183.0456398132
 20
240.493636903
 10
183.0579663542
 20
240.4918176758
 10
183.0702383784
 20
240.4897041121
 10
183.0824529321
 20
240.4873052166
 10
183.0946070612
 20
240.4846299937
 10
183.106697812
 20
240.4816874479
 10
183.1187222305
 20
240.4784865837
 10
183.1306773628
 20
240.4750364054
 10
183.1425602551
 20
240.4713459177
 10
183.1543679535
 20
240.467424125
 10
183.166097504
 20
240.4632800317
 10
183.1777459529
 20
240.4589226423
 10
183.1893103461
 20
240.4543609614
 10
183.2007877298
 20
240.4496039933
 10
183.2121751502
 20
240.4446607426
 10
183.2234696533
 20
240.4395402137
 10
183.2346682853
 20
240.4342514112
 10
183.2457680922
 20
240.4288033394
  0
LWPOLYLINE
  5
20D
100
AcDbEntity
  8
0
100
AcDbPolyline
 62
7
  6
CONTINUOUS
 90
24
 70
0
 10
242.8608890056
 20
81.9791381205
 10
242.8551637541
 20
81.9791200082
 10
242.8494386083
 20
81.9791921551
 10
242.8437145401
 20
81.9793530958
 10
242.8379925215
 20
81.9796013651
 10
242.8322735246
 20
81.9799354977
 10
242.8265585214
 20
81.9803540284
 10
242.8201469933
 20
81.980922814
 10
242.8137431454
 20
81.981594275
 10
242.8073483962
 20
81.9823665125
 10
242.8009641643
 20
81.9832376274
 10
242.7945918683
 20
81.9842057208
 10
242.7882329269
 20
81.9852688937
 10
242.7818887586
 20
81.9864252472
 10
242.775560782
 20
81.9876728822
 10
242.7692504157
 20
81.9890098998
 10
242.7629590783
 20
81.990434401
 10
242.7566881884
 20
81.9919444868
 10
242.7504391645
 20
81.9935382583
 10
242.7442134253
 20
81.9952138165
 10
242.7380123894
 20
81.9969692623
 10
242.7318374753
 20
81.998802697
 10
242.7256901016
 20
82.0007122213
 10
242.719571687
 20
82.0026959365
  0
LINE
  5
20E
100
AcDbEntity
  8
0
100
AcDbLine
 62
7
  6
CONTINUOUS
 10
243.2084231339
 20
82.4445909271
 11
243.4912658466
 21
82.4445909271
  0
LINE
  5
20F
100
AcDbEntity
  8
0
100
AcDbLine
 62
7
  6
CONTINUOUS
 10
243.4912658493
 20
90.0223132939
 11
243.2084231369
 21
90.0223132939
  0
LWPOLYLINE
  5
210
100
AcDbEntity
  8
0
100
AcDbPolyline
 62
7
  6
CONTINUOUS
 90
25
 70
0
 10
243.0026670678
 20
81.865251293
 10
242.9936968624
 20
81.8662524131
 10
242.98474506
 20
81.8674120672
 10
242.9758132196
 20
81.8687266486
 10
242.9669028998
 20
81.8701925507
 10
242.9580156594
 20
81.8718061669
 10
242.9491530571
 20
81.8735638906
 10
242.9396319763
 20
81.8756153848
 10
242.9301431028
 20
81.8778265932
 10
242.9206882232
 20
81.8801940747
 10
242.9112691238
 20
81.882714388
 10
242.9018875909
 20
81.8853840917
 10
242.8925454111
 20
81.8881997448
 10
242.8832443708
 20
81.8911579059
 10
242.8739862562
 20
81.8942551338
 10
242.8647728539
 20
81.8974879872
 10
242.8556059502
 20
81.9008530249
 10
242.8464873316
 20
81.9043468057
 10
242.8374187844
 20
81.9079658882
 10
242.8284020951
 20
81.9117068313
 10
242.81943905
 20
81.9155661937
 10
242.8105314357
 20
81.9195405341
 10
242.8016810383
 20
81.9236264114
 10
242.7928896445
 20
81.9278203842
 10
242.7841590406
 20
81.9321190113
  0
LWPOLYLINE
  5
211
100
AcDbEntity
  8
0
100
AcDbPolyline
 62
7
  6
CONTINUOUS
 90
16
 70
0
 10
242.719571687
 20
82.0026959365
 10
242.7143144436
 20
82.0044664932
 10
242.7090744307
 20
82.0062918145
 10
242.7038521217
 20
82.0081710406
 10
242.6986479903
 20
82.0101033119
 10
242.6934625101
 20
82.0120877687
 10
242.6882961546
 20
82.0141235511
 10
242.6831493976
 20
82.0162097996
 10
242.6780227125
 20
82.0183456544
 10
242.6729165729
 20
82.0205302559
 10
242.6678314525
 20
82.0227627442
 10
242.6627678249
 20
82.0250422597
 10
242.6577261636
 20
82.0273679428
 10
242.6527069422
 20
82.0297389336
 10
242.6477106344
 20
82.0321543725
 10
242.6427377137
 20
82.0346133998
  0
LINE
  5
212
100
AcDbEntity
  8
0
100
AcDbLine
 62
7
  6
CONTINUOUS
 10
242.7841590427
 20
81.9321190104
 11
183.3871894732
 21
111.6306037951
  0
LINE
  5
213
100
AcDbEntity
  8
0
100
AcDbLine
 62
7
  6
CONTINUOUS
 10
242.6427377137
 20
82.0346133998
 11
183.2457680905
 21
111.7330982114
  0
LWPOLYLINE
  5
214
100
AcDbEntity
  8
0
100
AcDbPolyline
 62
7
  6
CONTINUOUS
 90
15
 70
0
 10
183.2457680905
 20
111.7330982114
 10
183.2400958016
 20
111.7359698707
 10
183.2344510381
 20
111.7388980732
 10
183.2288340011
 20
111.7418816317
 10
183.2232448921
 20
111.7449193589
 10
183.2176839121
 20
111.7480100677
 10
183.2121512627
 20
111.7511525707
 10
183.206647145
 20
111.7543456808
 10
183.2011717603
 20
111.7575882107
 10
183.1957253098
 20
111.7608789732
 10
183.190307995
 20
111.7642167811
 10
183.184920017
 20
111.7676004471
 10
183.1795615772
 20
111.7710287839
 10
183.1742328769
 20
111.7745006044
 10
183.1689341172
 20
111.7780147214
  0
LWPOLYLINE
  5
215
100
AcDbEntity
  8
0
100
AcDbPolyline
 62
7
  6
CONTINUOUS
 90
17
 70
0
 10
183.387189476
 20
111.6306037936
 10
183.3782302456
 20
111.6351540526
 10
183.3693277771
 20
111.6398151269
 10
183.360481643
 20
111.6445840922
 10
183.3516914157
 20
111.6494580239
 10
183.3425206154
 20
111.6546860611
 10
183.3334113293
 20
111.6600239389
 10
183.3243638936
 20
111.6654689745
 10
183.3153786446
 20
111.671018485
 10
183.3064559183
 20
111.6766697875
 10
183.297596051
 20
111.6824201991
 10
183.2887993788
 20
111.6882670371
 10
183.2800662379
 20
111.6942076184
 10
183.2713969646
 20
111.7002392604
 10
183.2627918949
 20
111.7063592801
 10
183.254251365
 20
111.7125649946
 10
183.2457757112
 20
111.7188537211
  0
LINE
  5
216
100
AcDbEntity
  8
0
100
AcDbLine
 62
7
  6
CONTINUOUS
 10
183.245768117
 20
111.7330981978
 11
183.3871894732
 21
111.6306037951
  0
LWPOLYLINE
  5
217
100
AcDbEntity
  8
0
100
AcDbPolyline
 62
7
  6
CONTINUOUS
 90
39
 70
0
 10
183.0962199801
 20
111.8326135886
 10
183.0763044432
 20
111.8496980754
 10
183.0568440933
 20
111.8673063073
 10
183.037839282
 20
111.8854216453
 10
183.0192903611
 20
111.9040274502
 10
183.0011976822
 20
111.9231070831
 10
182.9835615972
 20
111.9426439049
 10
182.9663824576
 20
111.9626212764
 10
182.9496606153
 20
111.9830225587
 10
182.9333964219
 20
112.0038311127
 10
182.9175902292
 20
112.0250302993
 10
182.9022423889
 20
112.0466034796
 10
182.8873532526
 20
112.0685340143
 10
182.8729231722
 20
112.0908052645
 10
182.8589524993
 20
112.1134005911
 10
182.8454415856
 20
112.1363033551
 10
182.8323907829
 20
112.1594969174
 10
182.8198004429
 20
112.1829646389
 10
182.8076709173
 20
112.2066898806
 10
182.7960025577
 20
112.2306560034
 10
182.7849437323
 20
112.2545251142
 10
182.7743494953
 20
112.278601383
 10
182.7642350721
 20
112.3028736314
 10
182.7546156876
 20
112.327330681
 10
182.7455065672
 20
112.3519613534
 10
182.7369229357
 20
112.3767544701
 10
182.7288800185
 20
112.4016988527
 10
182.7213930407
 20
112.4267833228
 10
182.7144772273
 20
112.4519967019
 10
182.7081478035
 20
112.4773278117
 10
182.7024199944
 20
112.5027654736
 10
182.6973090253
 20
112.5282985093
 10
182.6928301211
 20
112.5539157403
 10
182.6889985071
 20
112.5796059881
 10
182.6858294084
 20
112.6053580745
 10
182.68333805
 20
112.6311608208
 10
182.6815396572
 20
112.6570030488
 10
182.6804494551
 20
112.6828735799
 10
182.6800826688
 20
112.7087612358
  0
LINE
  5
218
100
AcDbEntity
  8
0
100
AcDbLine
 62
7
  6
CONTINUOUS
 10
182.5386613111
 20
120.441310107
 11
182.5386613111
 21
121.8319240333
  0
LINE
  5
219
100
AcDbEntity
  8
0
100
AcDbLine
 62
7
  6
CONTINUOUS
 10
182.5386613111
 20
122.3100814923
 11
182.5386613111
 21
239.9163313262
  0
LWPOLYLINE
  5
21A
100
AcDbEntity
  8
0
100
AcDbPolyline
 62
7
  6
CONTINUOUS
 90
44
 70
0
 10
182.5386613111
 20
239.9163313262
 10
182.5388191686
 20
239.9345705664
 10
182.5392994472
 20
239.9528143236
 10
182.5401122059
 20
239.9710536159
 10
182.5412675037
 20
239.9892794615
 10
182.5427753996
 20
240.0074828786
 10
182.5446459526
 20
240.0256548852
 10
182.5468892218
 20
240.0437864995
 10
182.5495152661
 20
240.0618687397
 10
182.5525341446
 20
240.0798926239
 10
182.5559559162
 20
240.0978491703
 10
182.5590560996
 20
240.1124541373
 10
182.5624395485
 20
240.1269981183
 10
182.5661142057
 20
240.1414710112
 10
182.5700880137
 20
240.1558627139
 10
182.5743689153
 20
240.1701631241
 10
182.5789648531
 20
240.1843621396
 10
182.5838837699
 20
240.1984496583
 10
182.5891336083
 20
240.2124155779
 10
182.5947223109
 20
240.2262497964
 10
182.6006578205
 20
240.2399422114
 10
182.6069480797
 20
240.253482721
 10
182.6128956765
 20
240.2654844908
 10
182.6191382101
 20
240.2773415646
 10
182.6256790522
 20
240.2890394827
 10
182.6325215742
 20
240.3005637858
 10
182.6396691481
 20
240.3119000142
 10
182.6471251454
 20
240.3230337085
 10
182.6548929377
 20
240.3339504092
 10
182.6629758969
 20
240.3446356566
 10
182.6713773944
 20
240.3550749914
 10
182.6801008021
 20
240.365253954
 10
182.6891494916
 20
240.3751580849
 10
182.6978695954
 20
240.3841214528
 10
182.7068648204
 20
240.3928213053
 10
182.716125261
 20
240.4012450165
 10
182.7256410117
 20
240.4093799604
 10
182.7354021671
 20
240.4172135111
 10
182.7453988218
 20
240.4247330425
 10
182.7556210702
 20
240.4319259288
 10
182.766059007
 20
240.438779544
 10
182.7767027267
 20
240.445281262
 10
182.7875423237
 20
240.4514184571
 10
182.7985678927
 20
240.4571785032
  0
LINE
  5
21B
100
AcDbEntity
  8
0
100
AcDbLine
 62
7
  6
CONTINUOUS
 10
242.6427377119
 20
210.7303185296
 11
243.1377124588
 21
210.977805903
  0
LINE
  5
21C
100
AcDbEntity
  8
0
100
AcDbLine
 62
7
  6
CONTINUOUS
 10
243.2791338524
 20
211.0441864354
 11
247.5217745412
 21
213.1655067798
  0
LINE
  5
21D
100
AcDbEntity
  8
0
100
AcDbLine
 62
7
  6
CONTINUOUS
 10
247.9764838608
 20
212.763608603
 11
248.1935259442
 21
212.8721296447
  0
LINE
  5
21E
100
AcDbEntity
  8
0
100
AcDbLine
 62
7
  6
CONTINUOUS
 10
248.5470793348
 20
212.2623402476
 11
248.2288812833
 21
212.1032412218
  0
LINE
  5
21F
100
AcDbEntity
  8
0
100
AcDbLine
 62
7
  6
CONTINUOUS
 10
243.8448192399
 20
209.7582271086
 11
243.3498444931
 21
209.5107397352
  0
LINE
  5
220
100
AcDbEntity
  8
0
100
AcDbLine
 62
7
  6
CONTINUOUS
 10
248.228881285
 20
211.9459279853
 11
243.9862405962
 21
209.8246076409
  0
LINE
  5
221
100
AcDbEntity
  8
0
100
AcDbLine
 62
7
  6
CONTINUOUS
 10
182.6800826688
 20
120.2864835279
 11
243.2084231354
 21
90.0223132946
  0
LINE
  5
222
100
AcDbEntity
  8
0
100
AcDbLine
 62
7
  6
CONTINUOUS
 10
243.3498444931
 20
90.035718516
 11
182.5386613111
 21
120.441310107
  0
LINE
  5
223
100
AcDbEntity
  8
0
100
AcDbLine
 62
7
  6
CONTINUOUS
 10
182.5386613111
 20
121.8319240333
 11
243.3498444931
 21
91.4263324423
  0
LINE
  5
224
100
AcDbEntity
  8
0
100
AcDbLine
 62
7
  6
CONTINUOUS
 10
242.9962911025
 20
91.6482538947
 11
182.8922147017
 21
121.7002920951
  0
LINE
  5
225
100
AcDbEntity
  8
0
100
AcDbLine
 62
7
  6
CONTINUOUS
 10
245.2590328023
 20
90.9061967704
 11
245.2147856157
 21
90.9283203637
  0
LINE
  5
226
100
AcDbEntity
  8
0
100
AcDbLine
 62
7
  6
CONTINUOUS
 10
243.9862405962
 20
91.8286463941
 11
243.7776037764
 21
91.932964804
  0
LINE
  5
227
100
AcDbEntity
  8
0
100
AcDbLine
 62
7
  6
CONTINUOUS
 10
245.2590328023
 20
92.421741227
 11
245.2157315321
 21
92.4433918621
  0
LWPOLYLINE
  5
228
100
AcDbEntity
  8
0
100
AcDbPolyline
 62
7
  6
CONTINUOUS
 90
20
 70
0
 10
182.8922147017
 20
121.7002920951
 10
182.8874414701
 20
121.7027192064
 10
182.8827007768
 20
121.7052097152
 10
182.877992358
 20
121.7077617673
 10
182.87331595
 20
121.710373508
 10
182.868671289
 20
121.7130430829
 10
182.863404075
 20
121.7161612051
 10
182.8581781171
 20
121.7193504989
 10
182.8529935871
 20
121.7226090846
 10
182.8478506569
 20
121.7259350826
 10
182.8427494982
 20
121.7293266131
 10
182.8376902827
 20
121.7327817965
 10
182.8326731824
 20
121.7362987532
 10
182.8276983689
 20
121.7398756033
 10
182.822766014
 20
121.7435104674
 10
182.8178762896
 20
121.7472014656
 10
182.8130293674
 20
121.7509467184
 10
182.8082254192
 20
121.754744346
 10
182.8034646168
 20
121.7585924688
 10
182.798747132
 20
121.7624892071
  0
LINE
  5
229
100
AcDbEntity
  8
0
100
AcDbLine
 62
7
  6
CONTINUOUS
 10
242.7841590427
 20
81.9321190104
 11
242.6427376865
 21
82.034613413
  0
LWPOLYLINE
  5
22A
100
AcDbEntity
  8
0
100
AcDbPolyline
 62
7
  6
CONTINUOUS
 90
21
 70
0
 10
182.798747132
 20
121.7624892071
 10
182.7918624906
 20
121.7683280845
 10
182.7850676908
 20
121.7742719039
 10
182.7783622181
 20
121.7803180053
 10
182.7717455579
 20
121.7864637288
 10
182.7652171953
 20
121.7927064145
 10
182.7584307844
 20
121.7993888688
 10
182.7517419292
 20
121.8061730234
 10
182.7451506476
 20
121.813055797
 10
182.7386569574
 20
121.8200341082
 10
182.7322608763
 20
121.8271048758
 10
182.7259624222
 20
121.8342650183
 10
182.719761613
 20
121.8415114545
 10
182.7136584663
 20
121.848841103
 10
182.707653
 20
121.8562508825
 10
182.7017452319
 20
121.8637377118
 10
182.6959351799
 20
121.8712985094
 10
182.6902228616
 20
121.8789301941
 10
182.684608295
 20
121.8866296844
 10
182.6790914978
 20
121.8943938992
 10
182.6736724879
 20
121.9022197571
  0
LWPOLYLINE
  5
22B
100
AcDbEntity
  8
0
100
AcDbPolyline
 62
7
  6
CONTINUOUS
 90
22
 70
0
 10
182.6736724879
 20
121.9022197571
 10
182.6669869454
 20
121.9121595718
 10
182.6604443627
 20
121.9222096677
 10
182.6540467822
 20
121.9323665131
 10
182.6477962464
 20
121.9426265762
 10
182.6416947978
 20
121.9529863254
 10
182.6357444788
 20
121.963442229
 10
182.629947332
 20
121.9739907555
 10
182.6243053997
 20
121.984628373
 10
182.6188207246
 20
121.99535155
 10
182.6134953489
 20
122.0061567547
 10
182.6083313153
 20
122.0170404556
 10
182.6033306662
 20
122.0279991208
 10
182.598495444
 20
122.0390292188
 10
182.5938276913
 20
122.0501272179
 10
182.5893294504
 20
122.0612895865
 10
182.585002764
 20
122.0725127928
 10
182.5808496744
 20
122.0837933051
 10
182.5768722241
 20
122.0951275919
 10
182.5730724556
 20
122.1065121214
 10
182.5694524114
 20
122.1179433621
 10
182.5660141339
 20
122.1294177821
  0
LWPOLYLINE
  5
22C
100
AcDbEntity
  8
0
100
AcDbPolyline
 62
7
  6
CONTINUOUS
 90
22
 70
0
 10
182.5660141339
 20
122.1294177821
 10
182.5634006651
 20
122.1386157269
 10
182.5609070381
 20
122.1478462512
 10
182.558533604
 20
122.1571097611
 10
182.5562807141
 20
122.1664066628
 10
182.5541487196
 20
122.1757373626
 10
182.5523656907
 20
122.1840122404
 10
182.5506798386
 20
122.192311984
 10
182.5490936273
 20
122.2006347401
 10
182.5476095209
 20
122.2089786555
 10
182.5462299833
 20
122.217341877
 10
182.5449574785
 20
122.2257225513
 10
182.5437944705
 20
122.2341188253
 10
182.5427434233
 20
122.2425288456
 10
182.5418068008
 20
122.2509507592
 10
182.540987067
 20
122.2593827127
 10
182.540286686
 20
122.2678228529
 10
182.5397081216
 20
122.2762693267
 10
182.539253838
 20
122.2847202807
 10
182.538926299
 20
122.2931738618
 10
182.5387279688
 20
122.3016282167
 10
182.5386613111
 20
122.3100814923
  0
LINE
  5
22D
100
AcDbEntity
  8
0
100
AcDbLine
 62
7
  6
CONTINUOUS
 10
182.6800826688
 20
112.7087612358
 11
182.6800826673
 21
120.3705994289
  0
LINE
  5
22E
100
AcDbEntity
  8
0
100
AcDbLine
 62
7
  6
CONTINUOUS
 10
191.2007193806
 20
226.6652406325
 11
191.2007193806
 21
131.809478156
  0
LINE
  5
22F
100
AcDbEntity
  8
0
100
AcDbLine
 62
7
  6
CONTINUOUS
 10
191.2714300587
 20
226.6298852934
 11
191.2714300587
 21
131.844833495
  0
LINE
  5
230
100
AcDbEntity
  8
0
100
AcDbLine
 62
7
  6
CONTINUOUS
 10
191.2007193806
 20
131.809478156
 11
234.6877864236
 21
110.0659446345
  0
LINE
  5
231
100
AcDbEntity
  8
0
100
AcDbLine
 62
7
  6
CONTINUOUS
 10
234.6877864236
 20
110.1366553126
 11
191.2714300587
 21
131.844833495
  0
LINE
  5
232
100
AcDbEntity
  8
0
100
AcDbLine
 62
7
  6
CONTINUOUS
 10
182.6738516743
 20
121.9024093147
 11
182.5386613111
 21
121.8319240333
  0
LINE
  5
233
100
AcDbEntity
  8
0
100
AcDbLine
 62
7
  6
CONTINUOUS
 10
191.2007193806
 20
131.809478156
 11
191.2714300587
 21
131.844833495
  0
LINE
  5
234
100
AcDbEntity
  8
0
100
AcDbLine
 62
7
  6
CONTINUOUS
 10
234.6877864236
 20
110.0659446345
 11
234.6877864236
 21
204.921707111
  0
LWPOLYLINE
  5
235
100
AcDbEntity
  8
0
100
AcDbPolyline
 62
7
  6
CONTINUOUS
 90
30
 70
0
 10
250.3586141516
 20
210.7762148548
 10
250.3598767897
 20
210.7828406173
 10
250.3609930884
 20
210.7894975337
 10
250.3619656551
 20
210.7961829505
 10
250.3627970974
 20
210.8028942142
 10
250.3634900228
 20
210.8096286712
 10
250.3640470389
 20
210.8163836679
 10
250.3644707533
 20
210.8231565509
 10
250.3647637733
 20
210.8299446664
 10
250.3649287067
 20
210.836745361
 10
250.3649681609
 20
210.8435559812
 10
250.3648847435
 20
210.8503738733
 10
250.3646810619
 20
210.8571963839
 10
250.3643597238
 20
210.8640208593
 10
250.3639233366
 20
210.870844646
 10
250.363374508
 20
210.8776650905
 10
250.3627158454
 20
210.8844795392
 10
250.3619499564
 20
210.8912853385
 10
250.3610794486
 20
210.898079835
 10
250.3601069293
 20
210.9048603749
 10
250.3590350063
 20
210.9116243049
 10
250.357866287
 20
210.9183689713
 10
250.356603379
 20
210.9250917206
 10
250.3552488898
 20
210.9317898992
 10
250.3538054269
 20
210.9384608535
 10
250.3522755979
 20
210.9451019301
 10
250.3506620103
 20
210.9517104754
 10
250.3489672717
 20
210.9582838357
 10
250.3471939896
 20
210.9648193577
 10
250.3453447715
 20
210.9713143876
  0
LINE
  5
236
100
AcDbEntity
  8
0
100
AcDbLine
 62
7
  6
CONTINUOUS
 10
250.3787257572
 20
210.8232682135
 11
250.3759203036
 21
210.8652432706
  0
LWPOLYLINE
  5
237
100
AcDbEntity
  8
0
100
AcDbPolyline
 62
7
  6
CONTINUOUS
 90
44
 70
0
 10
243.8448192399
 20
209.7582271086
 10
243.844325822
 20
209.7911740179
 10
243.8428649583
 20
209.8241104261
 10
243.8404657338
 20
209.8570153447
 10
243.8371572334
 20
209.8898677855
 10
243.8329685421
 20
209.9226467601
 10
243.8279287448
 20
209.9553312802
 10
243.8220669264
 20
209.9879003575
 10
243.8154121719
 20
210.0203330037
 10
243.8079935663
 20
210.0526082305
 10
243.7998401946
 20
210.0847050495
 10
243.7909811415
 20
210.1166024725
 10
243.7796462593
 20
210.1539841105
 10
243.7673832075
 20
210.1910435785
 10
243.75420715
 20
210.2277659736
 10
243.7401332508
 20
210.2641363932
 10
243.7251766738
 20
210.3001399346
 10
243.7093525829
 20
210.335761695
 10
243.692676142
 20
210.3709867716
 10
243.6751625151
 20
210.4058002619
 10
243.6568268659
 20
210.4401872631
 10
243.6376843586
 20
210.4741328724
 10
243.6182410983
 20
210.5068103494
 10
243.5980381825
 20
210.5390243162
 10
243.5770695937
 20
210.5707456232
 10
243.5553293143
 20
210.6019451212
 10
243.5328113269
 20
210.6325936604
 10
243.509509614
 20
210.6626620916
 10
243.485418158
 20
210.6921212651
 10
243.4605309415
 20
210.7209420316
 10
243.434841947
 20
210.7490952415
 10
243.4083451569
 20
210.7765517454
 10
243.3882009896
 20
210.7964127515
 10
243.3676125002
 20
210.8158379509
 10
243.3465816094
 20
210.8347895496
 10
243.325110238
 20
210.8532297538
 10
243.3032003068
 20
210.8711207694
 10
243.2808537366
 20
210.8884248024
 10
243.2580724481
 20
210.9051040588
 10
243.2348583621
 20
210.9211207447
 10
243.2112133994
 20
210.9364370661
 10
243.1871394808
 20
210.9510152289
 10
243.162638527
 20
210.9648174392
 10
243.1377124588
 20
210.977805903
  0
LWPOLYLINE
  5
238
100
AcDbEntity
  8
0
100
AcDbPolyline
 62
7
  6
CONTINUOUS
 90
24
 70
0
 10
248.2288812833
 20
211.9459279845
 10
248.2287047003
 20
211.965265484
 10
248.228181413
 20
211.9845977632
 10
248.2273211163
 20
212.0039212271
 10
248.2261335052
 20
212.0232322806
 10
248.2246282745
 20
212.0425273287
 10
248.2228151193
 20
212.0618027766
 10
248.2203811984
 20
212.0837684718
 10
248.2175657438
 20
212.1056980791
 10
248.2143755181
 20
212.1275857112
 10
248.2108172837
 20
212.1494254804
 10
248.2068978032
 20
212.1712114995
 10
248.2026238391
 20
212.192937881
 10
248.198002154
 20
212.2145987373
 10
248.1930395104
 20
212.2361881812
 10
248.1877426708
 20
212.257700325
 10
248.1821183978
 20
212.2791292814
 10
248.176173454
 20
212.3004691629
 10
248.1699146018
 20
212.321714082
 10
248.1633486038
 20
212.3428581514
 10
248.1564822225
 20
212.3638954836
 10
248.1493222205
 20
212.3848201911
 10
248.1418753603
 20
212.4056263865
 10
248.1341484044
 20
212.4263081823
  0
LINE
  5
239
100
AcDbEntity
  8
0
100
AcDbLine
 62
7
  6
CONTINUOUS
 10
250.3787428093
 20
210.8193657488
 11
250.3787257572
 21
210.8232682135
  0
LINE
  5
23A
100
AcDbEntity
  8
0
100
AcDbLine
 62
7
  6
CONTINUOUS
 10
243.2084231354
 20
90.0223132946
 11
243.2084231354
 21
82.4445910025
  0
LINE
  5
23B
100
AcDbEntity
  8
0
100
AcDbLine
 62
7
  6
CONTINUOUS
 10
243.3498444931
 20
209.5107397352
 11
243.3498444931
 21
91.9044899013
  0
LINE
  5
23C
100
AcDbEntity
  8
0
100
AcDbLine
 62
7
  6
CONTINUOUS
 10
243.3498444931
 20
91.4263324423
 11
243.3498444931
 21
90.035718516
  0
LINE
  5
23D
100
AcDbEntity
  8
0
100
AcDbLine
 62
7
  6
CONTINUOUS
 10
243.4912658466
 20
90.0223132939
 11
243.4912658466
 21
82.4445909271
  0
LINE
  5
23E
100
AcDbEntity
  8
0
100
AcDbLine
 62
7
  6
CONTINUOUS
 10
243.9862405962
 20
91.8286463941
 11
243.9862405962
 21
209.8246076409
  0
LINE
  5
23F
100
AcDbEntity
  8
0
100
AcDbLine
 62
7
  6
CONTINUOUS
 10
245.2590328023
 20
92.4650424972
 11
245.2590328023
 21
90.9061967704
  0
LINE
  5
240
100
AcDbEntity
  8
0
100
AcDbLine
 62
7
  6
CONTINUOUS
 10
248.2288812833
 20
84.8133986287
 11
248.2288812833
 21
211.9459279636
  0
LINE
  5
241
100
AcDbEntity
  8
0
100
AcDbLine
 62
7
  6
CONTINUOUS
 10
248.5470793348
 20
84.9566058912
 11
248.5470793348
 21
212.2623402476
  0
LINE
  5
242
100
AcDbEntity
  8
0
100
AcDbLine
 62
7
  6
CONTINUOUS
 10
250.3586094201
 20
90.168329743
 11
250.3586094201
 21
210.776216005
  0
LINE
  5
243
100
AcDbEntity
  8
0
100
AcDbLine
 62
7
  6
CONTINUOUS
 10
250.3787448617
 20
210.8199445444
 11
250.3787448617
 21
90.2120591469
  0
LWPOLYLINE
  5
244
100
AcDbEntity
  8
0
100
AcDbPolyline
 62
7
  6
CONTINUOUS
 90
21
 70
0
 10
243.2084231354
 20
82.4445910025
 10
243.208372794
 20
82.4354890364
 10
243.2082209388
 20
82.4263885825
 10
243.2079663213
 20
82.4172895306
 10
243.2076076928
 20
82.4081917704
 10
243.2071438046
 20
82.3990951916
 10
243.2066078094
 20
82.3905052088
 10
243.2059751901
 20
82.3819183022
 10
243.2052443283
 20
82.3733365923
 10
243.2044136055
 20
82.3647621998
 10
243.203481403
 20
82.3561972453
 10
243.2024461025
 20
82.3476438496
 10
243.2013060853
 20
82.3391041331
 10
243.200059733
 20
82.3305802165
 10
243.1987054271
 20
82.3220742205
 10
243.197241549
 20
82.3135882657
 10
243.1956664802
 20
82.3051244727
 10
243.1939786022
 20
82.2966849622
 10
243.1921762964
 20
82.2882718547
 10
243.1902579445
 20
82.279887271
 10
243.1882219278
 20
82.2715333316
  0
LINE
  5
245
100
AcDbEntity
  8
0
100
AcDbLine
 62
7
  6
CONTINUOUS
 10
250.3787448617
 20
210.8199445444
 11
250.3787410489
 21
210.8193270636
  0
LWPOLYLINE
  5
246
100
AcDbEntity
  8
0
100
AcDbPolyline
 62
7
  6
CONTINUOUS
 90
46
 70
0
 10
243.3498444931
 20
91.9044899013
 10
243.3497931663
 20
91.896662058
 10
243.3496355203
 20
91.8888202248
 10
243.3493660572
 20
91.8809688454
 10
243.3489792788
 20
91.8731123632
 10
243.3484696869
 20
91.8652552218
 10
243.3478317835
 20
91.8574018648
 10
243.3470600703
 20
91.8495567358
 10
243.3461490494
 20
91.8417242782
 10
243.3450932226
 20
91.8339089358
 10
243.3438870918
 20
91.826115152
 10
243.3425251588
 20
91.8183473703
 10
243.3410019256
 20
91.8106100345
 10
243.3393118939
 20
91.802907588
 10
243.3374495658
 20
91.7952444744
 10
243.3354094431
 20
91.7876251372
 10
243.3331860276
 20
91.78005402
 10
243.3307738213
 20
91.7725355665
 10
243.328167326
 20
91.7650742201
 10
243.3253610436
 20
91.7576744244
 10
243.322349476
 20
91.7503406229
 10
243.3191271251
 20
91.7430772593
 10
243.3156884928
 20
91.7358887771
 10
243.3128632675
 20
91.7303561996
 10
243.3099055548
 20
91.7248781284
 10
243.3068168791
 20
91.7194611371
 10
243.303598765
 20
91.7141117994
 10
243.3002527368
 20
91.7088366887
 10
243.2967803192
 20
91.7036423788
 10
243.2931830366
 20
91.6985354432
 10
243.2894624134
 20
91.6935224556
 10
243.2856199743
 20
91.6886099895
 10
243.2816572437
 20
91.6838046186
 10
243.2775757461
 20
91.6791129164
 10
243.273377006
 20
91.6745414565
 10
243.2690625479
 20
91.6700968127
 10
243.2646338963
 20
91.6657855584
 10
243.2600925756
 20
91.6616142672
 10
243.2554401105
 20
91.6575895129
 10
243.2506780253
 20
91.6537178689
 10
243.2458078446
 20
91.6500059089
 10
243.2408310929
 20
91.6464602065
 10
243.2357492946
 20
91.6430873353
 10
243.2305639743
 20
91.6398938689
 10
243.2252766565
 20
91.636886381
 10
243.2198888656
 20
91.634071445
  0
LWPOLYLINE
  5
247
100
AcDbEntity
  8
0
100
AcDbPolyline
 62
7
  6
CONTINUOUS
 90
44
 70
0
 10
243.4912658493
 20
82.4445910108
 10
243.4911080488
 20
82.4263519306
 10
243.4906279277
 20
82.4081083245
 10
243.4898154113
 20
82.3898691756
 10
243.488660425
 20
82.3716434671
 10
243.4871528939
 20
82.353440182
 10
243.4852827435
 20
82.3352683035
 10
243.4830398991
 20
82.3171368147
 10
243.480414286
 20
82.2990546987
 10
243.4773958296
 20
82.2810309386
 10
243.4739744551
 20
82.2630745175
 10
243.4708745576
 20
82.2484696017
 10
243.4674913725
 20
82.2339256704
 10
243.463816964
 20
82.2194528226
 10
243.4598433962
 20
82.205061157
 10
243.4555627336
 20
82.1907607725
 10
243.4509670402
 20
82.1765617679
 10
243.4460483803
 20
82.162474242
 10
243.4407988181
 20
82.1485082937
 10
243.4352104179
 20
82.1346740218
 10
243.4292752439
 20
82.1209815251
 10
243.4229853603
 20
82.1074409024
 10
243.4170379002
 20
82.0954385367
 10
243.4107955116
 20
82.0835808538
 10
243.4042548162
 20
82.0718823178
 10
243.3974124356
 20
82.0603573929
 10
243.3902649915
 20
82.049020543
 10
243.3828091055
 20
82.0378862324
 10
243.3750413992
 20
82.026968925
 10
243.3669584943
 20
82.0162830851
 10
243.3585570124
 20
82.0058431767
 10
243.3498335751
 20
81.995663664
 10
243.3407848042
 20
81.9857590109
 10
243.3320646019
 20
81.976795214
 10
243.3230692333
 20
81.9680949602
 10
243.3138086078
 20
81.9596708766
 10
243.3042926348
 20
81.9515355902
 10
243.2945312234
 20
81.9437017282
 10
243.284534283
 20
81.9361819176
 10
243.2743117229
 20
81.9289887854
 10
243.2638734525
 20
81.9221349586
 10
243.253229381
 20
81.9156330645
 10
243.2423894178
 20
81.9094957299
 10
243.2313634721
 20
81.903735582
  0
LWPOLYLINE
  5
248
100
AcDbEntity
  8
0
100
AcDbPolyline
 62
7
  6
CONTINUOUS
 90
37
 70
0
 10
250.3787468522
 20
210.8193270437
 10
250.3787138566
 20
210.8180786581
 10
250.3786492256
 20
210.8168309199
 10
250.3785532347
 20
210.8155845931
 10
250.3784261589
 20
210.8143404418
 10
250.3782682737
 20
210.8130992297
 10
250.3780798543
 20
210.811861721
 10
250.377861176
 20
210.8106286796
 10
250.3776125141
 20
210.8094008695
 10
250.3773341439
 20
210.8081790547
 10
250.3769944129
 20
210.8068441759
 10
250.3766200342
 20
210.8055178293
 10
250.3762118999
 20
210.8042003854
 10
250.3757709021
 20
210.8028922149
 10
250.3752979328
 20
210.8015936883
 10
250.3747938842
 20
210.800305176
 10
250.3742596484
 20
210.7990270488
 10
250.3736961174
 20
210.7977596771
 10
250.3731041833
 20
210.7965034315
 10
250.3724847382
 20
210.7952586826
 10
250.3718386741
 20
210.7940258008
 10
250.3711668833
 20
210.7928051569
 10
250.3704702577
 20
210.7915971212
 10
250.3697496894
 20
210.7904020644
 10
250.3690060706
 20
210.789220357
 10
250.3682402933
 20
210.7880523696
 10
250.3674532496
 20
210.7868984727
 10
250.3666458317
 20
210.7857590369
 10
250.3658189314
 20
210.7846344327
 10
250.3649734411
 20
210.7835250307
 10
250.3641102527
 20
210.7824312015
 10
250.3632302583
 20
210.7813533156
 10
250.3623343501
 20
210.7802917435
 10
250.36142342
 20
210.7792468559
 10
250.3604983603
 20
210.7782190232
 10
250.359560063
 20
210.777208616
 10
250.3586094201
 20
210.7762160049
  0
LINE
  5
249
100
AcDbEntity
  8
0
100
AcDbLine
 62
7
  6
CONTINUOUS
 10
250.3774890202
 20
90.1828933584
 11
250.3787428558
 21
90.2121839678
  0
LWPOLYLINE
  5
24A
100
AcDbEntity
  8
0
100
AcDbPolyline
 62
7
  6
CONTINUOUS
 90
14
 70
0
 10
243.8415024648
 20
92.0948219026
 10
243.8420032134
 20
92.0991977808
 10
243.8424614835
 20
92.1035792249
 10
243.8428776958
 20
92.1079656572
 10
243.8432522712
 20
92.1123565002
 10
243.8435856307
 20
92.1167511764
 10
243.8438781952
 20
92.1211491083
 10
243.8441303855
 20
92.1255497182
 10
243.8443426225
 20
92.1299524286
 10
243.8445153271
 20
92.1343566621
 10
243.8446489203
 20
92.1387618409
 10
243.8447438229
 20
92.1431673877
 10
243.8448004558
 20
92.1475727248
 10
243.8448192399
 20
209.7582271086
  0
LINE
  5
24B
100
AcDbEntity
  8
0
100
AcDbLine
 62
7
  6
CONTINUOUS
 10
250.3727944493
 20
90.1478891873
 11
250.3774890202
 21
90.1828933584
  0
LINE
  5
24C
100
AcDbEntity
  8
0
100
AcDbLine
 62
7
  6
CONTINUOUS
 10
250.3645349256
 20
90.1125016971
 11
250.3727944493
 21
90.1478891873
  0
LWPOLYLINE
  5
24D
100
AcDbEntity
  8
0
100
AcDbPolyline
 62
7
  6
CONTINUOUS
 90
20
 70
0
 10
248.534522578
 20
84.8500850745
 10
248.5357385846
 20
84.8550896576
 10
248.5368877328
 20
84.8601101569
 10
248.5379710723
 20
84.8651457899
 10
248.5389896531
 20
84.8701957741
 10
248.5399445247
 20
84.8752593269
 10
248.5409502005
 20
84.8810092086
 10
248.5418763208
 20
84.886774074
 10
248.5427236959
 20
84.8925525075
 10
248.5434931357
 20
84.8983430932
 10
248.5441854506
 20
84.9041444158
 10
248.5448014506
 20
84.9099550594
 10
248.545341946
 20
84.9157736084
 10
248.5458077468
 20
84.9215986473
 10
248.5461996632
 20
84.9274287604
 10
248.5465185054
 20
84.933262532
 10
248.5467650835
 20
84.9390985465
 10
248.5469402076
 20
84.9449353883
 10
248.547044688
 20
84.9507716418
 10
248.5470793348
 20
84.9566058912
  0
LWPOLYLINE
  5
24E
100
AcDbEntity
  8
0
100
AcDbPolyline
 62
7
  6
CONTINUOUS
 90
48
 70
0
 10
243.1882219278
 20
82.2715333316
 10
243.1856251599
 20
82.261603463
 10
243.1828253039
 20
82.2516820409
 10
243.1798211885
 20
82.2417799119
 10
243.1766116426
 20
82.2319079224
 10
243.173195495
 20
82.2220769188
 10
243.1695715745
 20
82.2122977477
 10
243.1657387099
 20
82.2025812555
 10
243.1616957302
 20
82.1929382886
 10
243.157441464
 20
82.1833796936
 10
243.1529747403
 20
82.1739163169
 10
243.1482943879
 20
82.164559005
 10
243.1433992356
 20
82.1553186043
 10
243.1382881122
 20
82.1462059613
 10
243.1329598465
 20
82.1372319225
 10
243.1274132675
 20
82.1284073344
 10
243.1216472038
 20
82.1197430433
 10
243.1156604845
 20
82.1112498959
 10
243.1094519381
 20
82.1029387385
 10
243.1030203937
 20
82.0948204175
 10
243.09636468
 20
82.0869057796
 10
243.0894836259
 20
82.0792056712
 10
243.0823760601
 20
82.0717309386
 10
243.0750408116
 20
82.0644924284
 10
243.0674767091
 20
82.0575009871
 10
243.0597978815
 20
82.0508617331
 10
243.0519044908
 20
82.0444797834
 10
243.0438054358
 20
82.0383618857
 10
243.0355096157
 20
82.0325147878
 10
243.0270259292
 20
82.0269452375
 10
243.0183632754
 20
82.0216599825
 10
243.0095305531
 20
82.0166657706
 10
243.0005366613
 20
82.0119693496
 10
242.9913904989
 20
82.0075774672
 10
242.9821009649
 20
82.0034968712
 10
242.9726769582
 20
81.9997343095
 10
242.9637177269
 20
81.9964968333
 10
242.9546584433
 20
81.9935432746
 10
242.9455096813
 20
81.9908714286
 10
242.936282015
 20
81.9884790908
 10
242.9269860183
 20
81.9863640564
 10
242.9176322652
 20
81.9845241208
 10
242.9082313297
 20
81.9829570793
 10
242.8987937858
 20
81.9816607273
 10
242.8893302074
 20
81.9806328601
 10
242.8798511686
 20
81.979871273
 10
242.8703672433
 20
81.9793737613
 10
242.8608890056
 20
81.9791381205
  0
LWPOLYLINE
  5
24F
100
AcDbEntity
  8
0
100
AcDbPolyline
 62
7
  6
CONTINUOUS
 90
17
 70
0
 10
248.1980551039
 20
84.5759178008
 10
248.2004973575
 20
84.5847285142
 10
248.2028261327
 20
84.5935702453
 10
248.2050435575
 20
84.6024414426
 10
248.2071517595
 20
84.6113405545
 10
248.2092443275
 20
84.6206867784
 10
248.2112211028
 20
84.6300599045
 10
248.2130837076
 20
84.639457931
 10
248.2148337642
 20
84.6488788564
 10
248.2164728948
 20
84.6583206792
 10
248.2180027218
 20
84.6677813977
 10
248.2194248674
 20
84.6772590103
 10
248.2207409538
 20
84.6867515154
 10
248.2219526033
 20
84.6962569115
 10
248.2230614381
 20
84.705773197
 10
248.2240690806
 20
84.7152983702
 10
248.224977153
 20
84.7248304296
  0
LINE
  5
250
100
AcDbEntity
  8
0
100
AcDbLine
 62
7
  6
CONTINUOUS
 10
250.3580810106
 20
90.092066742
 11
250.3645349256
 21
90.1125016971
  0
LWPOLYLINE
  5
251
100
AcDbEntity
  8
0
100
AcDbPolyline
 62
7
  6
CONTINUOUS
 90
34
 70
0
 10
250.3581824553
 20
90.0922097794
 10
250.3589318999
 20
90.0944612806
 10
250.3596415795
 20
90.0967316849
 10
250.3603107761
 20
90.0990196838
 10
250.3609387719
 20
90.1013239688
 10
250.3615248488
 20
90.1036432314
 10
250.3620682889
 20
90.105976163
 10
250.3625683744
 20
90.1083214551
 10
250.3630243873
 20
90.1106777992
 10
250.3634356096
 20
90.1130438868
 10
250.3638013234
 20
90.1154184094
 10
250.3641208109
 20
90.1178000583
 10
250.3643933539
 20
90.1201875252
 10
250.3646182347
 20
90.1225795014
 10
250.3647947352
 20
90.1249746785
 10
250.3649221376
 20
90.127371748
 10
250.364999724
 20
90.1297694012
 10
250.3650267763
 20
90.1321663297
 10
250.3650025766
 20
90.134561225
 10
250.3649264071
 20
90.1369527785
 10
250.3647975497
 20
90.1393396817
 10
250.3646152866
 20
90.1417206261
 10
250.3643788999
 20
90.1440943032
 10
250.3640876715
 20
90.1464594044
 10
250.3637408835
 20
90.1488146213
 10
250.3633611894
 20
90.1510328769
 10
250.3629319221
 20
90.1532403925
 10
250.3624538919
 20
90.1554364485
 10
250.3619279093
 20
90.1576203255
 10
250.3613547844
 20
90.1597913042
 10
250.3607353276
 20
90.1619486649
 10
250.3600703493
 20
90.1640916884
 10
250.3593606598
 20
90.1662196552
 10
250.3586070693
 20
90.1683318458
  0
LINE
  5
252
100
AcDbEntity
  8
0
100
AcDbLine
 62
7
  6
CONTINUOUS
 10
250.3586094201
 20
90.168329743
 11
248.5470793348
 21
84.9566058912
  0
LINE
  5
253
100
AcDbEntity
  8
0
100
AcDbLine
 62
7
  6
CONTINUOUS
 10
248.5253304654
 20
84.8192918374
 11
250.358172349
 21
90.0923291658
  0
LWPOLYLINE
  5
254
100
AcDbEntity
  8
0
100
AcDbPolyline
 62
7
  6
CONTINUOUS
 90
26
 70
0
 10
248.1710895839
 20
212.3693539719
 10
248.1756544883
 20
212.358311073
 10
248.1800539344
 20
212.3472035035
 10
248.1842869977
 20
212.336030072
 10
248.188352754
 20
212.3247895873
 10
248.192250279
 20
212.3134808581
 10
248.1959786484
 20
212.3021026932
 10
248.1991451224
 20
212.2919444849
 10
248.2021737772
 20
212.2817338397
 10
248.2050608014
 20
212.2714739681
 10
248.2078023835
 20
212.261168081
 10
248.2103947121
 20
212.2508193891
 10
248.2128339758
 20
212.2404311032
 10
248.2151163631
 20
212.230006434
 10
248.2172380625
 20
212.2195485923
 10
248.2191952626
 20
212.2090607888
 10
248.220984152
 20
212.1985462342
 10
248.2226009191
 20
212.1880081394
 10
248.2240417527
 20
212.1774497151
 10
248.2253028411
 20
212.166874172
 10
248.2263803729
 20
212.1562847209
 10
248.2272705368
 20
212.1456845726
 10
248.2279695212
 20
212.1350769378
 10
248.2284735147
 20
212.1244650272
 10
248.2287787059
 20
212.1138520516
 10
248.2288812833
 20
212.1032412218
  0
LINE
  5
255
100
AcDbEntity
  8
0
100
AcDbLine
 62
7
  6
CONTINUOUS
 10
250.3540444598
 20
210.9645448446
 11
250.333400735
 21
211.021313232
  0
LWPOLYLINE
  5
256
100
AcDbEntity
  8
0
100
AcDbPolyline
 62
7
  6
CONTINUOUS
 90
30
 70
0
 10
250.3453447715
 20
210.9713143876
 10
250.3416671673
 20
210.9834622144
 10
250.3377393297
 20
210.9955294853
 10
250.3335651153
 20
211.0075153981
 10
250.3291483811
 20
211.0194191505
 10
250.3244929838
 20
211.0312399404
 10
250.3196027801
 20
211.0429769657
 10
250.3144816268
 20
211.054629424
 10
250.3091333807
 20
211.0661965132
 10
250.3030762706
 20
211.0786517112
 10
250.2967600818
 20
211.090998292
 10
250.2901886792
 20
211.1032291376
 10
250.2833659279
 20
211.1153371297
 10
250.2762956929
 20
211.1273151502
 10
250.2689818393
 20
211.1391560808
 10
250.2614282322
 20
211.1508528034
 10
250.2536387366
 20
211.1623981997
 10
250.2456172175
 20
211.1737851516
 10
250.23736754
 20
211.1850065409
 10
250.2288935692
 20
211.1960552494
 10
250.22019917
 20
211.2069241588
 10
250.2112882077
 20
211.217606151
 10
250.2021645471
 20
211.2280941078
 10
250.1928320534
 20
211.238380911
 10
250.1832945917
 20
211.2484594425
 10
250.1735560269
 20
211.2583225839
 10
250.1636202241
 20
211.2679632172
 10
250.1534910484
 20
211.277374224
 10
250.1431723648
 20
211.2865484863
 10
250.1326680384
 20
211.2954788859
  0
LINE
  5
257
100
AcDbEntity
  8
0
100
AcDbLine
 62
7
  6
CONTINUOUS
 10
250.367990499
 20
210.9120701827
 11
250.3540444598
 21
210.9645448446
  0
LWPOLYLINE
  5
258
100
AcDbEntity
  8
0
100
AcDbPolyline
 62
7
  6
CONTINUOUS
 90
20
 70
0
 10
243.9514109434
 20
210.1104603583
 10
243.9547544322
 20
210.0958673923
 10
243.9579426422
 20
210.0812402598
 10
243.9609746115
 20
210.0665786013
 10
243.9638493781
 20
210.0518820577
 10
243.9665659798
 20
210.0371502697
 10
243.9691683813
 20
210.0221123645
 10
243.9716019377
 20
210.0070405006
 10
243.9738628193
 20
209.9919376404
 10
243.9759471958
 20
209.9768067461
 10
243.9778512375
 20
209.9616507803
 10
243.9795711143
 20
209.9464727053
 10
243.9811029962
 20
209.9312754834
 10
243.9824430533
 20
209.9160620771
 10
243.9835874557
 20
209.9008354488
 10
243.9845323732
 20
209.8855985608
 10
243.985273976
 20
209.8703543754
 10
243.9858084341
 20
209.8551058552
 10
243.9861319175
 20
209.8398559625
 10
243.9862405962
 20
209.8246076597
  0
LINE
  5
259
100
AcDbEntity
  8
0
100
AcDbLine
 62
7
  6
CONTINUOUS
 10
250.3759203036
 20
210.8652432706
 11
250.367990499
 21
210.9120701827
  0
LWPOLYLINE
  5
25A
100
AcDbEntity
  8
0
100
AcDbPolyline
 62
7
  6
CONTINUOUS
 90
32
 70
0
 10
243.7781253824
 20
91.9322437943
 10
243.7813051937
 20
91.9361492124
 10
243.784397461
 20
91.9401259287
 10
243.7874024111
 20
91.9441710177
 10
243.7903202705
 20
91.9482815539
 10
243.793151266
 20
91.9524546116
 10
243.7958956242
 20
91.9566872655
 10
243.7985535719
 20
91.96097659
 10
243.8011253357
 20
91.9653196595
 10
243.8040282866
 20
91.9704708181
 10
243.8068150322
 20
91.975688418
 10
243.8094872717
 20
91.9809691932
 10
243.8120467043
 20
91.9863098778
 10
243.814495029
 20
91.9917072058
 10
243.8168339451
 20
91.9971579112
 10
243.8190651516
 20
92.002658728
 10
243.8211903478
 20
92.0082063903
 10
243.8232112328
 20
92.0137976319
 10
243.8251295057
 20
92.0194291871
 10
243.8269468656
 20
92.0250977896
 10
243.8286650117
 20
92.0308001737
 10
243.8302856433
 20
92.0365330732
 10
243.8318104593
 20
92.0422932222
 10
243.8332411589
 20
92.0480773547
 10
243.8345794413
 20
92.0538822048
 10
243.8358270057
 20
92.0597045063
 10
243.8369855512
 20
92.0655409935
 10
243.8380567769
 20
92.0713884001
 10
243.8390423819
 20
92.0772434604
 10
243.8399440655
 20
92.0831029082
 10
243.8407635267
 20
92.0889634776
 10
243.8415024648
 20
92.0948219026
  0
LWPOLYLINE
  5
25B
100
AcDbEntity
  8
0
100
AcDbPolyline
 62
7
  6
CONTINUOUS
 90
37
 70
0
 10
250.3586074648
 20
90.1683322525
 10
250.3596119024
 20
90.1693814377
 10
250.3605986757
 20
90.1704459859
 10
250.3615672524
 20
90.1715266375
 10
250.3625170999
 20
90.1726241326
 10
250.3634476859
 20
90.1737392114
 10
250.3643584779
 20
90.1748726141
 10
250.3652489437
 20
90.176025081
 10
250.3661185507
 20
90.1771973523
 10
250.3669667666
 20
90.1783901682
 10
250.3677178406
 20
90.1794913407
 10
250.3684501389
 20
90.1806093804
 10
250.3691629569
 20
90.1817436096
 10
250.3698555903
 20
90.1828933507
 10
250.3705273346
 20
90.184057926
 10
250.3711774854
 20
90.1852366578
 10
250.3718053382
 20
90.1864288686
 10
250.3724101886
 20
90.1876338805
 10
250.3729913322
 20
90.188851016
 10
250.3735480646
 20
90.1900795974
 10
250.3740796813
 20
90.191318947
 10
250.3745854779
 20
90.1925683872
 10
250.3750647499
 20
90.1938272403
 10
250.375516793
 20
90.1950948286
 10
250.3759409027
 20
90.1963704744
 10
250.3763363745
 20
90.1976535002
 10
250.3767025041
 20
90.1989432281
 10
250.3770385869
 20
90.2002389807
 10
250.3773439187
 20
90.2015400801
 10
250.3776177949
 20
90.2028458488
 10
250.3778595111
 20
90.2041556091
 10
250.3780683628
 20
90.2054686832
 10
250.3782436457
 20
90.2067843936
 10
250.3783846554
 20
90.2081020626
 10
250.3784906873
 20
90.2094210125
 10
250.378561037
 20
90.2107405656
 10
250.3785950002
 20
90.2120600443
  0
LINE
  5
25C
100
AcDbEntity
  8
0
100
AcDbLine
 62
7
  6
CONTINUOUS
 10
243.3498444931
 20
91.4263324423
 11
245.2590328023
 21
92.421741227
  0
LWPOLYLINE
  5
25D
100
AcDbEntity
  8
0
100
AcDbPolyline
 62
7
  6
CONTINUOUS
 90
37
 70
0
 10
247.9689789058
 20
84.2725432989
 10
247.9780126082
 20
84.2772314075
 10
247.9869197797
 20
84.2821796274
 10
247.9956962937
 20
84.2873805792
 10
248.0043380236
 20
84.2928268834
 10
248.0128408429
 20
84.2985111607
 10
248.0212006251
 20
84.3044260316
 10
248.0294132435
 20
84.3105641168
 10
248.0374745717
 20
84.3169180368
 10
248.045380483
 20
84.3234804122
 10
248.053126851
 20
84.3302438636
 10
248.0607095491
 20
84.3372010116
 10
248.0681244507
 20
84.3443444768
 10
248.0753674293
 20
84.3516668799
 10
248.0824343583
 20
84.3591608413
 10
248.0893211111
 20
84.3668189816
 10
248.0960235613
 20
84.3746339216
 10
248.1025375823
 20
84.3825982817
 10
248.1088590475
 20
84.3907046826
 10
248.1157230673
 20
84.3999661383
 10
248.1223428731
 20
84.4093896225
 10
248.1287221515
 20
84.4189674351
 10
248.1348645895
 20
84.4286918756
 10
248.140773874
 20
84.4385552437
 10
248.1464536916
 20
84.4485498391
 10
248.1519077294
 20
84.4586679616
 10
248.157139674
 20
84.4689019107
 10
248.1621532124
 20
84.4792439862
 10
248.1669520314
 20
84.4896864878
 10
248.1715398177
 20
84.5002217151
 10
248.1759202584
 20
84.5108419678
 10
248.1800970401
 20
84.5215395457
 10
248.1840738497
 20
84.5323067484
 10
248.187854374
 20
84.5431358755
 10
248.1914423
 20
84.5540192269
 10
248.1948413143
 20
84.564949102
 10
248.1980551039
 20
84.5759178008
  0
LWPOLYLINE
  5
25E
100
AcDbEntity
  8
0
100
AcDbPolyline
 62
7
  6
CONTINUOUS
 90
36
 70
0
 10
248.4170794561
 20
84.6861551557
 10
248.4214231657
 20
84.6883999989
 10
248.425708594
 20
84.6907656113
 10
248.42993367
 20
84.693248707
 10
248.434096323
 20
84.6958459998
 10
248.4381944821
 20
84.698554204
 10
248.4422260764
 20
84.7013700335
 10
248.4461890352
 20
84.7042902024
 10
248.4500812875
 20
84.7073114248
 10
248.4539007626
 20
84.7104304147
 10
248.4576453895
 20
84.7136438861
 10
248.4613130975
 20
84.7169485532
 10
248.4649018156
 20
84.7203411299
 10
248.4684094731
 20
84.7238183303
 10
248.4718339992
 20
84.7273768684
 10
248.4751733228
 20
84.7310134584
 10
248.4784253733
 20
84.7347248142
 10
248.4815880798
 20
84.73850765
 10
248.4847958299
 20
84.7425333893
 10
248.4879051212
 20
84.7466304589
 10
248.4909173102
 20
84.7507957281
 10
248.4938337537
 20
84.7550260664
 10
248.4966558083
 20
84.7593183434
 10
248.4993848307
 20
84.7636694284
 10
248.5020221774
 20
84.768076191
 10
248.5045692052
 20
84.7725355006
 10
248.5070272706
 20
84.7770442268
 10
248.5093977304
 20
84.781599239
 10
248.5116819412
 20
84.7861974067
 10
248.5138812596
 20
84.7908355993
 10
248.5159970424
 20
84.7955106864
 10
248.518030646
 20
84.8002195374
 10
248.5199834273
 20
84.8049590218
 10
248.5218567427
 20
84.8097260092
 10
248.5236519491
 20
84.8145173688
 10
248.525370403
 20
84.8193299704
  0
LWPOLYLINE
  5
25F
100
AcDbEntity
  8
0
100
AcDbPolyline
 62
7
  6
CONTINUOUS
 90
26
 70
0
 10
243.7148636124
 20
91.8815588185
 10
243.7177527002
 20
91.8830354533
 10
243.7206181331
 20
91.8845664238
 10
243.7234590985
 20
91.8861506292
 10
243.7262747838
 20
91.8877869689
 10
243.7290643764
 20
91.8894743421
 10
243.7318270638
 20
91.8912116482
 10
243.7345620332
 20
91.8929977864
 10
243.7372684723
 20
91.8948316562
 10
243.7399455683
 20
91.8967121568
 10
243.7425925087
 20
91.8986381874
 10
243.7452084809
 20
91.9006086476
 10
243.7477926724
 20
91.9026224364
 10
243.7503442704
 20
91.9046784533
 10
243.7528624625
 20
91.9067755976
 10
243.755346436
 20
91.9089127686
 10
243.7577953784
 20
91.9110888655
 10
243.7602084771
 20
91.9133027878
 10
243.7625849195
 20
91.9155534346
 10
243.764923893
 20
91.9178397054
 10
243.767224585
 20
91.9201604995
 10
243.769486183
 20
91.9225147161
 10
243.7717078743
 20
91.9249012546
 10
243.7738888463
 20
91.9273190142
 10
243.7760282866
 20
91.9297668943
 10
243.7781253824
 20
91.9322437943
  0
LINE
  5
260
100
AcDbEntity
  8
0
100
AcDbLine
 62
7
  6
CONTINUOUS
 10
243.3498444931
 20
91.9044899013
 11
243.8448192399
 21
92.1519772747
  0
LINE
  5
261
100
AcDbEntity
  8
0
100
AcDbLine
 62
7
  6
CONTINUOUS
 10
243.2198979003
 20
91.6340530011
 11
243.7148726471
 21
91.8815403745
  0
LINE
  5
262
100
AcDbEntity
  8
0
100
AcDbLine
 62
7
  6
CONTINUOUS
 10
243.9862405962
 20
91.8286463941
 11
245.2590328023
 21
92.4650424972
  0
LINE
  5
263
100
AcDbEntity
  8
0
100
AcDbLine
 62
7
  6
CONTINUOUS
 10
243.491265848
 20
90.0223132932
 11
245.2590328023
 21
90.9061967704
  0
LINE
  5
264
100
AcDbEntity
  8
0
100
AcDbLine
 62
7
  6
CONTINUOUS
 10
243.491265848
 20
82.4445909238
 11
248.228881285
 21
84.8133986423
  0
LINE
  5
265
100
AcDbEntity
  8
0
100
AcDbLine
 62
7
  6
CONTINUOUS
 10
248.2288812833
 20
84.7975068655
 11
248.5470793348
 21
84.9566058912
  0
LINE
  5
266
100
AcDbEntity
  8
0
100
AcDbLine
 62
7
  6
CONTINUOUS
 10
248.4170555242
 20
84.6861303822
 11
248.1975363722
 21
84.5763708061
  0
LINE
  5
267
100
AcDbEntity
  8
0
100
AcDbLine
 62
7
  6
CONTINUOUS
 10
243.2313726637
 20
81.9037172104
 11
247.9689880976
 21
84.2725249273
  0
LWPOLYLINE
  5
268
100
AcDbEntity
  8
0
100
AcDbPolyline
 62
7
  6
CONTINUOUS
 90
30
 70
0
 10
243.2313634721
 20
81.903735582
 10
243.2240696988
 20
81.9001799639
 10
243.2167000777
 20
81.8967818218
 10
243.2092570034
 20
81.8935429888
 10
243.2017428704
 20
81.8904652984
 10
243.1941600731
 20
81.8875505838
 10
243.1865110061
 20
81.8848006783
 10
243.1787980639
 20
81.8822174153
 10
243.1710923898
 20
81.879822535
 10
243.1633304578
 20
81.877591767
 10
243.1555164167
 20
81.87552369
 10
243.1476544156
 20
81.8736168829
 10
243.1397486035
 20
81.8718699243
 10
243.1318031292
 20
81.8702813931
 10
243.1238221419
 20
81.8688498681
 10
243.1158097905
 20
81.867573928
 10
243.1077702239
 20
81.8664521515
 10
243.0997075912
 20
81.8654831175
 10
243.0916260413
 20
81.8646654047
 10
243.0835297232
 20
81.8639975919
 10
243.0754227859
 20
81.8634782579
 10
243.0673093784
 20
81.8631059814
 10
243.0591936496
 20
81.8628793412
 10
243.0510797486
 20
81.8627969161
 10
243.0429718242
 20
81.8628572848
 10
243.0348740256
 20
81.8630590261
 10
243.0267905017
 20
81.8634007188
 10
243.0187254014
 20
81.8638809417
 10
243.0106828738
 20
81.8644982735
 10
243.0026670678
 20
81.865251293
  0
LWPOLYLINE
  5
269
100
AcDbEntity
  8
0
100
AcDbPolyline
 62
7
  6
CONTINUOUS
 90
41
 70
0
 10
243.2198888656
 20
91.634071445
 10
243.2150718598
 20
91.6317571063
 10
243.2101813213
 20
91.6295879713
 10
243.2052219557
 20
91.6275628944
 10
243.2001984686
 20
91.6256807305
 10
243.1951155658
 20
91.6239403342
 10
243.1899779529
 20
91.6223405603
 10
243.1847903354
 20
91.6208802633
 10
243.1795574191
 20
91.6195582981
 10
243.1742839097
 20
91.6183735194
 10
243.1689745126
 20
91.6173247817
 10
243.1636339336
 20
91.6164109399
 10
243.1582668784
 20
91.6156308486
 10
243.1528780525
 20
91.6149833624
 10
243.1474721617
 20
91.6144673362
 10
243.1420539115
 20
91.6140816246
 10
243.1366280076
 20
91.6138250824
 10
243.1311991557
 20
91.6136965641
 10
243.1257720614
 20
91.6136949245
 10
243.1203514303
 20
91.6138190183
 10
243.1149419681
 20
91.6140677002
 10
243.1087090221
 20
91.6145083743
 10
243.1024987691
 20
91.6151094632
 10
243.0963126972
 20
91.6158664878
 10
243.0901522946
 20
91.6167749692
 10
243.0840190492
 20
91.6178304282
 10
243.077914449
 20
91.6190283859
 10
243.0718399822
 20
91.6203643633
 10
243.0657971367
 20
91.6218338812
 10
243.0597874006
 20
91.6234324606
 10
243.0538122619
 20
91.6251556226
 10
243.0478732087
 20
91.6269988881
 10
243.041971729
 20
91.6289577781
 10
243.0361093108
 20
91.6310278135
 10
243.0302874422
 20
91.6332045153
 10
243.0245076113
 20
91.6354834044
 10
243.018771306
 20
91.6378600019
 10
243.0130800145
 20
91.6403298287
 10
243.0074352247
 20
91.6428884058
 10
243.0018384247
 20
91.6455312541
 10
242.9962911025
 20
91.6482538947
  0
LINE
  5
26A
100
AcDbEntity
  8
0
100
AcDbLine
 62
7
  6
CONTINUOUS
 10
245.2590328023
 20
90.9494980405
 11
243.3498444931
 21
90.035718516
  0
LWPOLYLINE
  5
26B
100
AcDbEntity
  8
0
100
AcDbPolyline
 62
7
  6
CONTINUOUS
 90
31
 70
0
 10
188.2308708996
 20
242.8534571671
 10
188.2252490361
 20
242.8562113003
 10
188.2195850832
 20
242.8588709464
 10
188.2138769274
 20
242.8614342602
 10
188.2081224552
 20
242.8638993962
 10
188.2023195532
 20
242.866264509
 10
188.196466108
 20
242.8685277532
 10
188.190560006
 20
242.8706872835
 10
188.1857061661
 20
242.8723692595
 10
188.1808181884
 20
242.8739787368
 10
188.1758983228
 20
242.8755133467
 10
188.170948819
 20
242.8769707208
 10
188.1659719266
 20
242.8783484903
 10
188.1609698955
 20
242.8796442868
 10
188.1559449755
 20
242.8808557416
 10
188.1508994162
 20
242.8819804862
 10
188.1458354674
 20
242.8830161518
 10
188.1407553788
 20
242.8839603701
 10
188.1356614003
 20
242.8848107722
 10
188.1305557815
 20
242.8855649898
 10
188.1254407722
 20
242.8862206541
 10
188.1203186221
 20
242.8867753966
 10
188.115191581
 20
242.8872268486
 10
188.1100618986
 20
242.8875726417
 10
188.1049318247
 20
242.8878104071
 10
188.0998036091
 20
242.8879377764
 10
188.0946795014
 20
242.8879523808
 10
188.0895617514
 20
242.8878518519
 10
188.0844526089
 20
242.887633821
 10
188.0793543236
 20
242.8872959196
 10
188.0742691452
 20
242.886835779
  0
LWPOLYLINE
  5
26C
100
AcDbEntity
  8
0
100
AcDbPolyline
 62
7
  6
CONTINUOUS
 90
34
 70
0
 10
183.7407428391
 20
240.6762907128
 10
183.7296086578
 20
240.6817528588
 10
183.7183814041
 20
240.6870471031
 10
183.707063221
 20
240.692165551
 10
183.6956562517
 20
240.6971003079
 10
183.6841626394
 20
240.701843479
 10
183.6725845273
 20
240.7063871696
 10
183.6609240584
 20
240.7107234852
 10
183.649183376
 20
240.7148445309
 10
183.6373646232
 20
240.7187424122
 10
183.6254699432
 20
240.7224092343
 10
183.6135014791
 20
240.7258371026
 10
183.6014613741
 20
240.7290181224
 10
183.5893517714
 20
240.7319443989
 10
183.577174814
 20
240.7346080376
 10
183.5649326453
 20
240.7370011437
 10
183.5526274083
 20
240.7391158226
 10
183.5423808448
 20
240.7406522247
 10
183.5320988338
 20
240.7419876148
 10
183.5217877987
 20
240.7431177571
 10
183.5114541632
 20
240.7440384157
 10
183.5011043507
 20
240.744745355
 10
183.4907447849
 20
240.745234339
 10
183.4803818892
 20
240.7455011322
 10
183.4700220872
 20
240.7455414986
 10
183.4596718025
 20
240.7453512025
 10
183.4493374585
 20
240.7449260082
 10
183.4390254789
 20
240.7442616798
 10
183.4287422872
 20
240.7433539816
 10
183.4184943069
 20
240.7421986779
 10
183.4082879616
 20
240.7407915328
 10
183.3981296748
 20
240.7391283106
 10
183.3880258701
 20
240.7372047755
 10
183.377982971
 20
240.7350166917
  0
LWPOLYLINE
  5
26D
100
AcDbEntity
  8
0
100
AcDbPolyline
 62
7
  6
CONTINUOUS
 90
30
 70
0
 10
188.1248048978
 20
242.8639915998
 10
188.1144935522
 20
242.8690554232
 10
188.1041132883
 20
242.8739664652
 10
188.0936605861
 20
242.8787211733
 10
188.0831319253
 20
242.8833159949
 10
188.0725237855
 20
242.8877473776
 10
188.0618326467
 20
242.8920117689
 10
188.0510549886
 20
242.8961056164
 10
188.04173295
 20
242.899480615
 10
188.0323482683
 20
242.9027229343
 10
188.0229046432
 20
242.9058281724
 10
188.0134057744
 20
242.9087919275
 10
188.0038553615
 20
242.9116097978
 10
187.9942571044
 20
242.9142773813
 10
187.9846147027
 20
242.9167902763
 10
187.9749318561
 20
242.9191440809
 10
187.9652122643
 20
242.9213343933
 10
187.9554596271
 20
242.9233568115
 10
187.9456776441
 20
242.9252069338
 10
187.9358700151
 20
242.9268803583
 10
187.9260404398
 20
242.9283726832
 10
187.9161926179
 20
242.9296795065
 10
187.906330249
 20
242.9307964266
 10
187.8964570329
 20
242.9317190414
 10
187.8865766694
 20
242.9324429492
 10
187.876692858
 20
242.9329637482
 10
187.8668092986
 20
242.9332770364
 10
187.8569296908
 20
242.9333784121
 10
187.8470577344
 20
242.9332634733
 10
187.837197129
 20
242.9329278183
  0
LINE
  5
26E
100
AcDbEntity
  8
0
100
AcDbLine
 62
7
  6
CONTINUOUS
 10
234.6877864236
 20
204.921707111
 11
191.2007193806
 21
226.6652406325
  0
LINE
  5
26F
100
AcDbEntity
  8
0
100
AcDbLine
 62
7
  6
CONTINUOUS
 10
183.2457680922
 20
240.4288033394
 11
242.6427377119
 21
210.7303185296
  0
LINE
  5
270
100
AcDbEntity
  8
0
100
AcDbLine
 62
7
  6
CONTINUOUS
 10
183.7407428391
 20
240.6762907128
 11
243.1377124588
 21
210.977805903
  0
LINE
  5
271
100
AcDbEntity
  8
0
100
AcDbLine
 62
7
  6
CONTINUOUS
 10
183.8821641953
 20
240.7426712639
 11
243.279133815
 21
211.0441864541
  0
LINE
  5
272
100
AcDbEntity
  8
0
100
AcDbLine
 62
7
  6
CONTINUOUS
 10
247.5217745861
 20
213.1655067553
 11
188.124804918
 21
242.8639915893
  0
LINE
  5
273
100
AcDbEntity
  8
0
100
AcDbLine
 62
7
  6
CONTINUOUS
 10
248.1935259442
 20
212.8721296447
 11
188.2308708996
 21
242.8534571671
  0
LWPOLYLINE
  5
274
100
AcDbEntity
  8
0
100
AcDbPolyline
 62
7
  6
CONTINUOUS
 90
20
 70
0
 10
248.1935259442
 20
212.8721296447
 10
248.1980221614
 20
212.8698444696
 10
248.2024886236
 20
212.8675012452
 10
248.206925562
 20
212.8651016648
 10
248.2113332084
 20
212.8626474216
 10
248.215711794
 20
212.860140209
 10
248.2206582843
 20
212.8572253224
 10
248.2255674022
 20
212.8542458266
 10
248.2304390918
 20
212.8512034844
 10
248.2352732975
 20
212.8481000588
 10
248.2400699634
 20
212.8449373127
 10
248.2448290338
 20
212.841717009
 10
248.2495504529
 20
212.8384409105
 10
248.2542341651
 20
212.8351107802
 10
248.2588801144
 20
212.8317283808
 10
248.2634882453
 20
212.8282954755
 10
248.2680585019
 20
212.8248138269
 10
248.2725908285
 20
212.8212851981
 10
248.2770851694
 20
212.8177113519
 10
248.2815414687
 20
212.8140940512
  0
LWPOLYLINE
  5
275
100
AcDbEntity
  8
0
100
AcDbPolyline
 62
7
  6
CONTINUOUS
 90
21
 70
0
 10
243.279133815
 20
211.0441864541
 10
243.2904167472
 20
211.0384328873
 10
243.3016094703
 20
211.0325042998
 10
243.312712722
 20
211.0264064365
 10
243.3237272398
 20
211.0201450424
 10
243.3346537612
 20
211.0137258627
 10
243.346291171
 20
211.0066622281
 10
243.3578273835
 20
210.999427795
 10
243.3692618477
 20
210.9920271322
 10
243.3805940125
 20
210.9844648083
 10
243.3918233272
 20
210.976745392
 10
243.4029492405
 20
210.968873452
 10
243.4139712017
 20
210.960853557
 10
243.4248886596
 20
210.9526902757
 10
243.4357010633
 20
210.9443881767
 10
243.4464078617
 20
210.9359518288
 10
243.457008504
 20
210.9273858005
 10
243.4675024392
 20
210.9186946607
 10
243.4778891162
 20
210.909882978
 10
243.488167984
 20
210.9009553211
 10
243.4983384917
 20
210.8919162587
  0
LWPOLYLINE
  5
276
100
AcDbEntity
  8
0
100
AcDbPolyline
 62
7
  6
CONTINUOUS
 90
44
 70
0
 10
242.6427377119
 20
210.7303185296
 10
242.6676638058
 20
210.7173300519
 10
242.6921647844
 20
210.7035278261
 10
242.7162387269
 20
210.6889496463
 10
242.7398837127
 20
210.6736333065
 10
242.7630978208
 20
210.6576166009
 10
242.7858791306
 20
210.6409373235
 10
242.8082257212
 20
210.6236332685
 10
242.8301356719
 20
210.6057422298
 10
242.8516070618
 20
210.5873020016
 10
242.8726379703
 20
210.568350378
 10
242.8932264765
 20
210.5489251531
 10
242.9133706596
 20
210.5290641209
 10
242.9398674521
 20
210.5016075995
 10
242.9655564485
 20
210.4734543722
 10
242.9904436662
 20
210.4446335883
 10
243.0145351228
 20
210.4151743973
 10
243.0378368358
 20
210.3851059486
 10
243.0603548227
 20
210.3544573918
 10
243.082095101
 20
210.3232578764
 10
243.1030636881
 20
210.2915365516
 10
243.1232666017
 20
210.2593225672
 10
243.1427098591
 20
210.2266450724
 10
243.1618523503
 20
210.1926994679
 10
243.1801879837
 20
210.158312472
 10
243.1977015953
 20
210.1234989874
 10
243.2143780213
 20
210.088273917
 10
243.2302020977
 20
210.0526521634
 10
243.2451586605
 20
210.0166486292
 10
243.2592325459
 20
209.9802782173
 10
243.2724085899
 20
209.9435558303
 10
243.2846716285
 20
209.9064963709
 10
243.2960064979
 20
209.8691147418
 10
243.3048655343
 20
209.8372173494
 10
243.3130188906
 20
209.8051205615
 10
243.3204374821
 20
209.7728453664
 10
243.3270922238
 20
209.7404127522
 10
243.3329540309
 20
209.7078437073
 10
243.3379938185
 20
209.67515922
 10
243.3421825017
 20
209.6423802784
 10
243.3454909956
 20
209.6095278709
 10
243.3478902154
 20
209.5766229857
 10
243.3493510762
 20
209.543686611
 10
243.3498444931
 20
209.5107397352
  0
LWPOLYLINE
  5
277
100
AcDbEntity
  8
0
100
AcDbPolyline
 62
7
  6
CONTINUOUS
 90
13
 70
0
 10
247.5956840655
 20
213.123770458
 10
247.5896827106
 20
213.1275155786
 10
247.5836519575
 20
213.1312156792
 10
247.5775920198
 20
213.1348696972
 10
247.571503111
 20
213.13847657
 10
247.5653854445
 20
213.1420352347
 10
247.559239234
 20
213.1455446287
 10
247.5530646929
 20
213.1490036893
 10
247.5468620348
 20
213.1524113539
 10
247.5406314731
 20
213.1557665597
 10
247.5343732214
 20
213.1590682441
 10
247.5280874932
 20
213.1623153443
 10
247.5217745021
 20
213.1655067977
  0
LINE
  5
278
100
AcDbEntity
  8
0
100
AcDbLine
 62
7
  6
CONTINUOUS
 10
248.5470793348
 20
212.2623402476
 11
250.3586094201
 21
210.776216005
  0
LINE
  5
279
100
AcDbEntity
  8
0
100
AcDbLine
 62
7
  6
CONTINUOUS
 10
250.1297508714
 20
211.2979058002
 11
248.2815308414
 21
212.8141293587
  0
LINE
  5
27A
100
AcDbEntity
  8
0
100
AcDbLine
 62
7
  6
CONTINUOUS
 10
250.1326991467
 20
211.2954717836
 11
250.1302410928
 21
211.2975034969
  0
LWPOLYLINE
  5
27B
100
AcDbEntity
  8
0
100
AcDbPolyline
 62
7
  6
CONTINUOUS
 90
32
 70
0
 10
243.4983384917
 20
210.8919162587
 10
243.5190362075
 20
210.8728865355
 10
243.5393133464
 20
210.8533952561
 10
243.5591700562
 20
210.8334574964
 10
243.5786064851
 20
210.8130883321
 10
243.5976227809
 20
210.792302839
 10
243.6162190916
 20
210.7711160932
 10
243.6343955653
 20
210.7495431703
 10
243.6521523498
 20
210.7275991462
 10
243.6694895933
 20
210.7052990968
 10
243.6864074437
 20
210.6826580979
 10
243.702906049
 20
210.6596912253
 10
243.7189855571
 20
210.6364135549
 10
243.734646116
 20
210.6128401626
 10
243.7498878738
 20
210.5889861241
 10
243.7647109784
 20
210.5648665153
 10
243.7791155779
 20
210.5404964121
 10
243.7944563644
 20
210.5134515948
 10
243.809283677
 20
210.4861324253
 10
243.8235889406
 20
210.458548669
 10
243.8373635801
 20
210.4307100909
 10
243.8505990204
 20
210.4026264563
 10
243.8632866864
 20
210.3743075305
 10
243.875418003
 20
210.3457630788
 10
243.886984395
 20
210.3170028663
 10
243.8979772874
 20
210.2880366583
 10
243.908388105
 20
210.2588742201
 10
243.9182082728
 20
210.2295253168
 10
243.9274292157
 20
210.1999997137
 10
243.9360423584
 20
210.1703071761
 10
243.9440391261
 20
210.1404574692
 10
243.9514109434
 20
210.1104603583
  0
LINE
  5
27C
100
AcDbEntity
  8
0
100
AcDbLine
 62
7
  6
CONTINUOUS
 10
250.1918010316
 20
211.2398184896
 11
250.1428400693
 21
211.2868660645
  0
LWPOLYLINE
  5
27D
100
AcDbEntity
  8
0
100
AcDbPolyline
 62
7
  6
CONTINUOUS
 90
36
 70
0
 10
248.3283504919
 20
212.7714535741
 10
248.3400951605
 20
212.7593450408
 10
248.3515431337
 20
212.7469484134
 10
248.3626936205
 20
212.7342728763
 10
248.3735458301
 20
212.7213276141
 10
248.3840989717
 20
212.7081218111
 10
248.3943522544
 20
212.6946646517
 10
248.4043048874
 20
212.6809653206
 10
248.4139560799
 20
212.667033002
 10
248.4233050409
 20
212.6528768805
 10
248.4323509797
 20
212.6385061405
 10
248.4410931054
 20
212.6239299665
 10
248.4495306271
 20
212.6091575428
 10
248.457662754
 20
212.594198054
 10
248.4654886954
 20
212.5790606846
 10
248.4730076602
 20
212.5637546188
 10
248.4802188577
 20
212.5482890413
 10
248.487121497
 20
212.5326731365
 10
248.4931456504
 20
212.5183077859
 10
248.4989030952
 20
212.5038314403
 10
248.5043844314
 20
212.4892505038
 10
248.5095802587
 20
212.4745713802
 10
248.5144811771
 20
212.4598004737
 10
248.5190777863
 20
212.4449441881
 10
248.5233606863
 20
212.4300089275
 10
248.5273204769
 20
212.4150010958
 10
248.530947758
 20
212.3999270971
 10
248.5342331294
 20
212.3847933352
 10
248.5371671909
 20
212.3696062143
 10
248.5397405425
 20
212.3543721382
 10
248.541943784
 20
212.339097511
 10
248.5437675153
 20
212.3237887367
 10
248.5452023361
 20
212.3084522192
 10
248.5462388464
 20
212.2930943625
 10
248.546867646
 20
212.2777215707
 10
248.5470793348
 20
212.2623402476
  0
LINE
  5
27E
100
AcDbEntity
  8
0
100
AcDbLine
 62
7
  6
CONTINUOUS
 10
250.2351427723
 20
211.1893214048
 11
250.1918010316
 21
211.2398184896
  0
LINE
  5
27F
100
AcDbEntity
  8
0
100
AcDbLine
 62
7
  6
CONTINUOUS
 10
250.2738613032
 20
211.1348828927
 11
250.2351427723
 21
211.1893214048
  0
LWPOLYLINE
  5
280
100
AcDbEntity
  8
0
100
AcDbPolyline
 62
7
  6
CONTINUOUS
 90
25
 70
0
 10
247.9949030679
 20
212.7064746352
 10
247.9832432253
 20
212.7248890519
 10
247.9713333287
 20
212.7431388906
 10
247.9591705719
 20
212.7612236321
 10
247.9467521487
 20
212.7791427573
 10
247.9340752529
 20
212.7968957469
 10
247.9211370782
 20
212.8144820819
 10
247.9087558208
 20
212.8308321268
 10
247.8961425086
 20
212.8470256606
 10
247.8832976541
 20
212.8630533942
 10
247.8702217698
 20
212.8789060389
 10
247.8569153681
 20
212.8945743054
 10
247.8433789615
 20
212.910048905
 10
247.8296130626
 20
212.9253205485
 10
247.8156181836
 20
212.9403799471
 10
247.8013948372
 20
212.9552178117
 10
247.7869435357
 20
212.9698248533
 10
247.7722647917
 20
212.9841917831
 10
247.7573591176
 20
212.998309312
 10
247.7422270259
 20
213.012168151
 10
247.726869029
 20
213.0257590112
 10
247.7112856395
 20
213.0390726036
 10
247.6954773697
 20
213.0520996391
 10
247.6794447322
 20
213.0648308289
 10
247.6631882394
 20
213.077256884
  0
LINE
  5
281
100
AcDbEntity
  8
0
100
AcDbLine
 62
7
  6
CONTINUOUS
 10
250.3066549891
 20
211.0785539367
 11
250.2738613032
 21
211.1348828927
  0
LINE
  5
282
100
AcDbEntity
  8
0
100
AcDbLine
 62
7
  6
CONTINUOUS
 10
250.333400735
 20
211.021313232
 11
250.3066549891
 21
211.0785539367
  0
LWPOLYLINE
  5
283
100
AcDbEntity
  8
0
100
AcDbPolyline
 62
7
  6
CONTINUOUS
 90
21
 70
0
 10
183.6629855904
 20
240.8096031278
 10
183.6700613469
 20
240.8088365835
 10
183.6771259448
 20
240.8079708875
 10
183.684178676
 20
240.8070078006
 10
183.691218832
 20
240.8059490838
 10
183.6982457047
 20
240.804796498
 10
183.7056181169
 20
240.8034854239
 10
183.7129739475
 20
240.8020743646
 10
183.7203120799
 20
240.8005651417
 10
183.7276313973
 20
240.7989595766
 10
183.7349307831
 20
240.7972594906
 10
183.7422091205
 20
240.7954667052
 10
183.749465293
 20
240.7935830418
 10
183.7566981839
 20
240.7916103218
 10
183.7639066764
 20
240.7895503668
 10
183.7710896539
 20
240.787404998
 10
183.7782459997
 20
240.7851760369
 10
183.7853745971
 20
240.782865305
 10
183.7924743295
 20
240.7804746236
 10
183.7995440801
 20
240.7780058142
 10
183.8065827324
 20
240.7754606983
  0
LWPOLYLINE
  5
284
100
AcDbEntity
  8
0
100
AcDbPolyline
 62
7
  6
CONTINUOUS
 90
25
 70
0
 10
187.837197129
 20
242.9329278183
 10
187.8301313874
 20
242.932550756
 10
187.8230731571
 20
242.9320601253
 10
187.8160230483
 20
242.9314536583
 10
187.8089816712
 20
242.9307290875
 10
187.8019496363
 20
242.9298841449
 10
187.7949275537
 20
242.928916563
 10
187.7881635527
 20
242.9278651248
 10
187.7814123966
 20
242.9266976112
 10
187.7746770999
 20
242.9254141987
 10
187.7679606767
 20
242.9240150634
 10
187.7612661414
 20
242.9225003818
 10
187.7545965083
 20
242.9208703301
 10
187.7479547915
 20
242.9191250846
 10
187.7413440055
 20
242.9172648218
 10
187.7347671645
 20
242.9152897178
 10
187.7282272828
 20
242.913199949
 10
187.7217273747
 20
242.9109956917
 10
187.7152704545
 20
242.9086771222
 10
187.7088595364
 20
242.9062444168
 10
187.7024976348
 20
242.9036977519
 10
187.6961877639
 20
242.9010373038
 10
187.689932938
 20
242.8982632487
 10
187.6837361714
 20
242.895375763
 10
187.6776004785
 20
242.8923750231
  0
ARC
  5
285
100
AcDbEntity
  8
0
100
AcDbCircle
 62
7
  6
CONTINUOUS
 10
246.6158727976
 20
211.8463541907
 40
1.6252715006
100
AcDbArc
 50
20.9059581713
 51
30.1700722705
  0
ARC
  5
286
100
AcDbEntity
  8
0
100
AcDbCircle
 62
7
  6
CONTINUOUS
 10
246.6228727407
 20
211.8508485114
 40
1.6169611258
100
AcDbArc
 50
30.1570481321
 51
31.9485070968
  0
ARC
  5
287
100
AcDbEntity
  8
0
100
AcDbCircle
 62
7
  6
CONTINUOUS
 10
246.7750343351
 20
211.9261960159
 40
1.4650228635
100
AcDbArc
 50
20.9696653291
 51
30.1371725059
  0
ARC
  5
288
100
AcDbEntity
  8
0
100
AcDbCircle
 62
7
  6
CONTINUOUS
 10
246.8053995748
 20
211.9440044766
 40
1.429821099
100
AcDbArc
 50
30.1309339753
 51
34.7021373532
  0
ARC
  5
289
100
AcDbEntity
  8
0
100
AcDbCircle
 62
7
  6
CONTINUOUS
 10
246.8441114649
 20
211.9522505376
 40
1.3911965389
100
AcDbArc
 50
16.262254993
 51
20.9858076597
  0
ARC
  5
28A
100
AcDbEntity
  8
0
100
AcDbCircle
 62
7
  6
CONTINUOUS
 10
247.0594866572
 20
212.2733579276
 40
1.0053403068
100
AcDbArc
 50
53.0946598473
 51
57.767975362
  0
ARC
  5
28B
100
AcDbEntity
  8
0
100
AcDbCircle
 62
7
  6
CONTINUOUS
 10
247.2411415225
 20
84.8125685428
 40
0.9877401097
100
AcDbArc
 50
354.903864009
 51
0.048156491
  0
ARC
  5
28C
100
AcDbEntity
  8
0
100
AcDbCircle
 62
7
  6
CONTINUOUS
 10
183.6689224284
 20
112.5181399117
 40
0.8932717582
100
AcDbArc
 50
230.1239405948
 51
233.1049052423
  0
ARC
  5
28D
100
AcDbEntity
  8
0
100
AcDbCircle
 62
7
  6
CONTINUOUS
 10
183.6275643847
 20
112.4629638567
 40
0.8243161045
100
AcDbArc
 50
233.1014630629
 51
236.1944096484
  0
ARC
  5
28E
100
AcDbEntity
  8
0
100
AcDbCircle
 62
7
  6
CONTINUOUS
 10
247.4189898499
 20
212.0518843022
 40
0.8163583778
100
AcDbArc
 50
22.8851494339
 51
25.5725056822
  0
ARC
  5
28F
100
AcDbEntity
  8
0
100
AcDbCircle
 62
7
  6
CONTINUOUS
 10
183.5496902742
 20
240.079804901
 40
0.7415731409
100
AcDbArc
 50
63.3630277978
 51
69.7317705918
  0
ARC
  5
290
100
AcDbEntity
  8
0
100
AcDbCircle
 62
7
  6
CONTINUOUS
 10
247.8848269629
 20
212.331583832
 40
0.6246587155
100
AcDbArc
 50
44.763021317
 51
50.5733398179
  0
ARC
  5
291
100
AcDbEntity
  8
0
100
AcDbCircle
 62
7
  6
CONTINUOUS
 10
183.4646502976
 20
240.3604424874
 40
0.3844698429
100
AcDbArc
 50
103.0275974809
 51
111.3277845176
  0
ARC
  5
292
100
AcDbEntity
  8
0
100
AcDbCircle
 62
7
  6
CONTINUOUS
 10
183.6072796313
 20
240.4284064385
 40
0.3835551204
100
AcDbArc
 50
121.100056978
 51
126.797396846
  0
ARC
  5
293
100
AcDbEntity
  8
0
100
AcDbCircle
 62
7
  6
CONTINUOUS
 10
183.6037754986
 20
240.4340748949
 40
0.3768914134
100
AcDbArc
 50
116.6093424015
 51
121.0890323056
  0
ARC
  5
294
100
AcDbEntity
  8
0
100
AcDbCircle
 62
7
  6
CONTINUOUS
 10
183.4614465439
 20
240.3694201261
 40
0.3749419284
100
AcDbArc
 50
111.3707018303
 51
116.6034621962
  0
ARC
  5
295
100
AcDbEntity
  8
0
100
AcDbCircle
 62
7
  6
CONTINUOUS
 10
248.1891459869
 20
84.9361237243
 40
0.3559320707
100
AcDbArc
 50
340.8443861277
 51
346.0114654353
  0
ENDSEC
  0
SECTION
  2
OBJECTS
  0
DICTIONARY
  5
C
100
AcDbDictionary
280
0
281
1
  3
ACAD_GROUP
350
D
  3
ACAD_MLINESTYLE
350
17
  3
ACAD_LAYOUT
350
1A
  3
ACAD_PLOTSETTINGS
350
19
  3
ACAD_PLOTSTYLENAME
350
E
  0
DICTIONARY
  5
D
102
{ACAD_REACTORS
330
C
102
}
100
AcDbDictionary
280
0
281
1
  0
ACDBDICTIONARYWDFLT
  5
E
102
{ACAD_REACTORS
330
C
102
}
100
AcDbDictionary
281
1
  3
Normal
350
F
100
AcDbDictionaryWithDefault
340
F
  0
DICTIONARY
  5
17
102
{ACAD_REACTORS
330
C
102
}
100
AcDbDictionary
280
0
281
1
  3
Standard
350
18
  0
DICTIONARY
  5
19
102
{ACAD_REACTORS
330
C
102
}
100
AcDbDictionary
281
1
  0
DICTIONARY
  5
1A
102
{ACAD_REACTORS
330
C
102
}
100
AcDbDictionary
281
1
  3
Model
350
296
  3
Layout1
350
297
  0
ACDBPLACEHOLDER
  5
F
102
{ACAD_REACTORS
330
E
102
}
  0
MLINESTYLE
  5
18
102
{ACAD_REACTORS
330
17
102
}
100
AcDbMlineStyle
  2
STANDARD
 70
0
  3

 62
256
 51
90.0
 52
90.0
 71
2
 49
0.5
 62
256
  6
BYLAYER
 49
-0.5
 62
256
  6
BYLAYER
  0
LAYOUT
  5
296
102
{ACAD_REACTORS
330
1A
102
}
100
AcDbPlotSettings
  1

  2
none_device
  4
ISO_A3_(420.00_x_297.00_MM)
  6

 40
0.0
 41
0.0
 42
0.0
 43
0.0
 44
420.0
 45
297.0
 46
0.0
 47
0.0
 48
0.0
 49
0.0
140
0.0
141
0.0
142
1.0
143
1.0
 70
1024
 72
1
 73
0
 74
0
  7

 75
0
147
1.0
148
0.0
149
0.0
100
AcDbLayout
  1
Model
 70
0
 71
0
 10
0.0
 20
0.0
 11
420.0
 21
297.0
 12
0.0
 22
0.0
 32
0.0
 14
0.0
 24
0.0
 34
0.0
 15
0.0
 25
0.0
 35
0.0
146
0.0
 13
0.0
 23
0.0
 33
0.0
 16
1.0
 26
0.0
 36
0.0
 17
0.0
 27
1.0
 37
0.0
 76
0
330
1FF
345
0
346
0
  0
LAYOUT
  5
297
102
{ACAD_REACTORS
330
1A
102
}
100
AcDbPlotSettings
  1

  2
none_device
  4
ISO_A3_(420.00_x_297.00_MM)
  6

 40
0.0
 41
0.0
 42
0.0
 43
0.0
 44
420.0
 45
297.0
 46
0.0
 47
0.0
 48
0.0
 49
0.0
140
0.0
141
0.0
142
1.0
143
1.0
 70
0
 72
1
 73
0
 74
0
  7

 75
0
147
1.0
148
0.0
149
0.0
100
AcDbLayout
  1
Layout1
 70
0
 71
1
 10
0.0
 20
0.0
 11
420.0
 21
297.0
 12
0.0
 22
0.0
 32
0.0
 14
0.0
 24
0.0
 34
0.0
 15
0.0
 25
0.0
 35
0.0
146
0.0
 13
0.0
 23
0.0
 33
0.0
 16
1.0
 26
0.0
 36
0.0
 17
0.0
 27
1.0
 37
0.0
 76
0
330
200
345
0
346
0
  0
ENDSEC
  0
EOF
