  0
SECTION
  2
HEADER
  9
$ACADVER
  1
AC1024
  9
$DWGCODEPAGE
  3
ANSI_1252
  9
$EXTMAX
 10
420.0
 20
297.0
 30
0.0
  9
$EXTMIN
 10
0.0
 20
0.0
 30
0.0
  9
$LIMMIN
 10
0.0
 20
0.0
  9
$LIMMAX
 10
420.0
 20
297.0
  9
$VIEWCTR
 10
210.0
 20
148.5
  9
$VIEWSIZE
 40
297.0
  9
$CLAYER
  8
0
  9
$LTSCALE
 40
23.1
  9
$CELTYPE
  6
BYLAYER
  9
$DIMSCALE
 40
1.0
  9
$DIMASZ
 40
3.0
  9
$DIMEXO
 40
0.5
  9
$DIMDLI
 40
15.96
  9
$DIMEXE
 40
1.5
  9
$DIMCEN
 40
3.78
  9
$DIMLFAC
 40
1.0
  9
$DIMBLK
  1
_FILLED
  9
$DIMALT
 70
0
  9
$DIMALTF
 40
0.0393700787
  9
$DIMTXT
 40
3.0
  9
$DIMTOL
 70
1
  9
$DIMLIM
 70
0
  9
$DIMTFAC
 40
1.0
  9
$DIMTP
 40
0.01
  9
$DIMTM
 40
0.01
  9
$DIMGAP
 40
0.625
  9
$DIMDSEP
 70
44
  9
$AUNITS
 70
0
  9
$PDMODE
 70
3
  9
$PDSIZE
 40
3.0
  9
$HANDSEED
  5
300
  9
$TILEMODE
 70
1
  9
$MEASUREMENT
 70
1
  9
$INSUNITS
 70
4
  0
ENDSEC
  0
SECTION
  2
CLASSES
  0
CLASS
  1
ACDBDICTIONARYWDFLT
  2
AcDbDictionaryWithDefault
  3
AutoCAD 2000
 90
0
 91
1
280
0
281
0
  0
CLASS
  1
ACDBPLACEHOLDER
  2
AcDbPlaceHolder
  3
AutoCAD 2000
 90
0
 91
1
280
0
281
0
  0
CLASS
  1
LAYOUT
  2
AcDbLayout
  3
AutoCAD 2000
 90
0
 91
0
280
0
281
0
  0
ENDSEC
  0
SECTION
  2
TABLES
  0
TABLE
  2
VPORT
  5
8
100
AcDbSymbolTable
 70
2
  0
VPORT
  5
1F4
100
AcDbSymbolTableRecord
100
AcDbViewportTableRecord
  2
*ACTIVE
 70
0
 10
0.0
 20
0.0
 11
1.0
 21
1.0
 12
210.0
 22
148.5
 13
0.0
 23
0.0
 14
1.0
 24
1.0
 15
0.0
 25
0.0
 16
0.0
 26
0.0
 36
1.0
 17
0.0
 27
0.0
 37
0.0
 40
297.0
 41
1.4141414141
 42
50.0
 43
0.0
 44
0.0
 50
0.0
 51
0.0
 71
0
 72
100
 73
1
 74
1
 75
0
 76
0
 77
0
 78
0
  0
ENDTAB
  0
TABLE
  2
LTYPE
  5
5
100
AcDbSymbolTable
 70
6
  0
LTYPE
  5
14
100
AcDbSymbolTableRecord
100
AcDbLinetypeTableRecord
  2
BYBLOCK
 70
0
  3

 72
65
 73
0
 40
0.0
  0
LTYPE
  5
15
100
AcDbSymbolTableRecord
100
AcDbLinetypeTableRecord
  2
BYLAYER
 70
0
  3

 72
65
 73
0
 40
0.0
  0
LTYPE
  5
16
100
AcDbSymbolTableRecord
100
AcDbLinetypeTableRecord
  2
CONTINUOUS
 70
64
  3
Solid line
 72
65
 73
0
 40
0.0
  0
LTYPE
  5
1F5
100
AcDbSymbolTableRecord
100
AcDbLinetypeTableRecord
  2
CENTER
 70
64
  3
____ _ ____ _ ____ _ ____ _ ____ _ ____ _ ____
 72
65
 73
4
 40
0.6
 49
0.375
 74
0
 49
-0.075
 74
0
 49
0.075
 74
0
 49
-0.075
 74
0
  0
LTYPE
  5
1F6
100
AcDbSymbolTableRecord
100
AcDbLinetypeTableRecord
  2
HIDDEN
 70
64
  3
- - - - - - - - - - - - - - - - - - - -
 72
65
 73
2
 40
0.2
 49
0.1
 74
0
 49
-0.1
 74
0
  0
LTYPE
  5
1F7
100
AcDbSymbolTableRecord
100
AcDbLinetypeTableRecord
  2
PHANTOM
 70
64
  3
_____ _ _ _____ _ _ _____ _ _ _____
 72
65
 73
6
 40
0.8
 49
0.45
 74
0
 49
-0.05
 74
0
 49
0.1
 74
0
 49
-0.05
 74
0
 49
0.1
 74
0
 49
-0.05
 74
0
  0
LTYPE
  5
1F8
100
AcDbSymbolTableRecord
100
AcDbLinetypeTableRecord
  2
DOT
 70
64
  3
. . . . . . . . . . . . . . . . . . . .
 72
65
 73
2
 40
0.2
 49
0.1
 74
0
 49
-0.1
 74
0
  0
LTYPE
  5
1F9
100
AcDbSymbolTableRecord
100
AcDbLinetypeTableRecord
  2
DASHED
 70
64
  3
- - - - - - - - - - - - - - - - - - - -
 72
65
 73
2
 40
0.2
 49
0.1
 74
0
 49
-0.1
 74
0
  0
ENDTAB
  0
TABLE
  2
LAYER
  5
2
100
AcDbSymbolTable
 70
36
  0
LAYER
  5
10
100
AcDbSymbolTableRecord
100
AcDbLayerTableRecord
  2
0
 70
0
 62
7
  6
CONTINUOUS
370
-3
390
F
  0
LAYER
  5
1FA
100
AcDbSymbolTableRecord
100
AcDbLayerTableRecord
  2
DEFAULT_1
 70
0
 62
7
  6
CENTER
370
-3
390
F
  0
LAYER
  5
1FB
100
AcDbSymbolTableRecord
100
AcDbLayerTableRecord
  2
DEFAULT_2
 70
0
 62
7
  6
HIDDEN
370
-3
390
F
  0
LAYER
  5
1FC
100
AcDbSymbolTableRecord
100
AcDbLayerTableRecord
  2
DEFAULT_3
 70
0
 62
7
  6
PHANTOM
370
-3
390
F
  0
LAYER
  5
1FD
100
AcDbSymbolTableRecord
100
AcDbLayerTableRecord
  2
ASSI
 70
0
 62
7
  6
CONTINUOUS
370
-3
390
F
  0
LAYER
  5
1FE
100
AcDbSymbolTableRecord
100
AcDbLayerTableRecord
  2
COORDINATE
 70
0
 62
7
  6
CONTINUOUS
370
-3
390
F
  0
LAYER
  5
1FF
100
AcDbSymbolTableRecord
100
AcDbLayerTableRecord
  2
COPY_PUBLISH
 70
0
 62
7
  6
CONTINUOUS
370
-3
390
F
  0
LAYER
  5
200
100
AcDbSymbolTableRecord
100
AcDbLayerTableRecord
  2
COSMETICI
 70
0
 62
7
  6
CONTINUOUS
370
-3
390
F
  0
LAYER
  5
201
100
AcDbSymbolTableRecord
100
AcDbLayerTableRecord
  2
CURVE
 70
0
 62
7
  6
CONTINUOUS
370
-3
390
F
  0
LAYER
  5
202
100
AcDbSymbolTableRecord
100
AcDbLayerTableRecord
  2
DRAFT
 70
0
 62
7
  6
CONTINUOUS
370
-3
390
F
  0
LAYER
  5
203
100
AcDbSymbolTableRecord
100
AcDbLayerTableRecord
  2
IMPORT_IGES
 70
0
 62
7
  6
CONTINUOUS
370
-3
390
F
  0
LAYER
  5
204
100
AcDbSymbolTableRecord
100
AcDbLayerTableRecord
  2
NONE
 70
0
 62
7
  6
CONTINUOUS
370
-3
390
F
  0
LAYER
  5
205
100
AcDbSymbolTableRecord
100
AcDbLayerTableRecord
  2
NOTE
 70
0
 62
7
  6
CONTINUOUS
370
-3
390
F
  0
LAYER
  5
206
100
AcDbSymbolTableRecord
100
AcDbLayerTableRecord
  2
PIANI
 70
0
 62
7
  6
CONTINUOUS
370
-3
390
F
  0
LAYER
  5
207
100
AcDbSymbolTableRecord
100
AcDbLayerTableRecord
  2
PUNTI
 70
0
 62
7
  6
CONTINUOUS
370
-3
390
F
  0
LAYER
  5
208
100
AcDbSymbolTableRecord
100
AcDbLayerTableRecord
  2
RACCORDO
 70
0
 62
7
  6
CONTINUOUS
370
-3
390
F
  0
LAYER
  5
209
100
AcDbSymbolTableRecord
100
AcDbLayerTableRecord
  2
SIMBOLI
 70
0
 62
7
  6
CONTINUOUS
370
-3
390
F
  0
LAYER
  5
20A
100
AcDbSymbolTableRecord
100
AcDbLayerTableRecord
  2
SMUSSO
 70
0
 62
7
  6
CONTINUOUS
370
-3
390
F
  0
LAYER
  5
20B
100
AcDbSymbolTableRecord
100
AcDbLayerTableRecord
  2
SUPERFICI
 70
0
 62
7
  6
CONTINUOUS
370
-3
390
F
  0
LAYER
  5
20C
100
AcDbSymbolTableRecord
100
AcDbLayerTableRecord
  2
TRASH
 70
0
 62
7
  6
CONTINUOUS
370
-3
390
F
  0
ENDTAB
  0
TABLE
  2
STYLE
  5
3
100
AcDbSymbolTable
 70
1
  0
STYLE
  5
11
100
AcDbSymbolTableRecord
100
AcDbTextStyleTableRecord
  2
STANDARD
 70
0
 40
0.0
 41
0.8
 50
0.0
 71
0
 42
0.2
  3
txt
  4

  0
STYLE
  5
20D
100
AcDbSymbolTableRecord
100
AcDbTextStyleTableRecord
  2
TEXTSTYLE_1
 70
0
 40
0.0
 41
0.8
 50
0.0
 71
0
 42
0.2
  3
gdt
  4

  0
ENDTAB
  0
TABLE
  2
VIEW
  5
6
100
AcDbSymbolTable
 70
0
  0
ENDTAB
  0
TABLE
  2
UCS
  5
7
100
AcDbSymbolTable
 70
0
  0
ENDTAB
  0
TABLE
  2
APPID
  5
9
100
AcDbSymbolTable
 70
1
  0
APPID
  5
20E
100
AcDbSymbolTableRecord
100
AcDbRegAppTableRecord
  2
ACAD
 70
0
  0
ENDTAB
  0
TABLE
  2
BLOCK_RECORD
  5
1
100
AcDbSymbolTable
 70
0
  0
BLOCK_RECORD
  5
20F
100
AcDbSymbolTableRecord
100
AcDbBlockTableRecord
  2
*Model_Space
  0
BLOCK_RECORD
  5
210
100
AcDbSymbolTableRecord
100
AcDbBlockTableRecord
  2
*Paper_Space
  0
BLOCK_RECORD
  5
211
100
AcDbSymbolTableRecord
100
AcDbBlockTableRecord
  2
_FILLED
  0
ENDTAB
  0
TABLE
  2
DIMSTYLE
  5
A
100
AcDbSymbolTable
 70
1
100
AcDbDimStyleTable
 71
0
  0
DIMSTYLE
105
212
100
AcDbSymbolTableRecord
100
AcDbDimStyleTableRecord
  2
STANDARD
 70
0
  3

  4

 40
1.0
 41
3.0
 42
0.5
 43
0.38
 44
1.5
 45
0.0
 46
0.0
 47
0.01
 48
0.01
140
3.0
141
0.09
142
0.0
143
25.4
144
1.0
145
0.0
146
1.0
147
0.625
 71
1
 72
0
 73
0
 74
0
 75
0
 76
0
 77
1
 78
8
 79
2
170
0
171
1
172
0
173
0
174
0
175
0
176
0
177
0
178
0
270
2
179
2
271
2
272
2
273
2
274
2
275
0
280
0
281
0
282
0
283
1
284
8
285
0
286
0
287
3
288
0
340
11
278
44
341
211
342
211
343
211
344
211
  0
ENDTAB
  0
ENDSEC
  0
SECTION
  2
BLOCKS
  0
BLOCK
  5
20
100
AcDbEntity
  8
0
100
AcDbBlockBegin
  2
*Model_Space
 70
0
 10
0.0
 20
0.0
 30
0.0
  3
*Model_Space
  1

  0
ENDBLK
  5
21
100
AcDbEntity
  8
0
100
AcDbBlockEnd
  0
BLOCK
  5
1C
100
AcDbEntity
  8
0
100
AcDbBlockBegin
  2
*Paper_Space
 70
0
 10
0.0
 20
0.0
 30
0.0
  3
*Paper_Space
  1

  0
ENDBLK
  5
1D
100
AcDbEntity
  8
0
100
AcDbBlockEnd
  0
BLOCK
  5
213
100
AcDbEntity
  8
0
100
AcDbBlockBegin
  2
_FILLED
 70
64
 10
0.0
 20
0.0
  3
_FILLED
  1

  0
SOLID
  5
214
100
AcDbEntity
  8
0
  6
BYBLOCK
 62
0
100
AcDbTrace
 10
0.0
 20
0.0
 11
-1.0
 21
0.3166666667
 12
-1.0
 22
-0.3166666667
 13
-1.0
 23
-0.3166666667
  0
ENDBLK
  5
215
100
AcDbEntity
  8
0
  6
BYBLOCK
 62
0
100
AcDbBlockEnd
  0
ENDSEC
  0
SECTION
  2
ENTITIES
  0
LWPOLYLINE
  5
216
100
AcDbEntity
  8
IMPORT_IGES
100
AcDbPolyline
 62
7
  6
CONTINUOUS
 90
25
 70
0
 10
-98.338336718
 20
128.7881352425
 10
-98.4990134681
 20
128.6891982329
 10
-98.654405379
 20
128.5809542158
 10
-98.8041044516
 20
128.4636585858
 10
-98.9479503846
 20
128.337436946
 10
-99.085789144
 20
128.2024244576
 10
-99.2174731287
 20
128.0587656954
 10
-99.3428613282
 20
127.9066144928
 10
-99.4618194736
 20
127.7461337772
 10
-99.5742201816
 20
127.5774953952
 10
-99.6799430906
 20
127.4008799292
 10
-99.77887499
 20
127.2164765033
 10
-99.870909941
 20
127.0244825815
 10
-99.9559493903
 20
126.8251037555
 10
-100.0339022754
 20
126.6185535252
 10
-100.1046851225
 20
126.4050530698
 10
-100.1682221355
 20
126.1848310109
 10
-100.2244452775
 20
125.9581231678
 10
-100.2732943432
 20
125.7251723049
 10
-100.3147170239
 20
125.486227872
 10
-100.3486689631
 20
125.2415457365
 10
-100.3751138043
 20
124.9913879104
 10
-100.3940232295
 20
124.7360222689
 10
-100.4053769902
 20
124.4757222638
 10
-100.4091629285
 20
124.2107666311
  0
LINE
  5
217
100
AcDbEntity
  8
IMPORT_IGES
100
AcDbLine
 62
7
  6
CONTINUOUS
 10
-93.0350358591
 20
131.8501946925
 11
-98.338336718
 21
128.7881352425
  0
LINE
  5
218
100
AcDbEntity
  8
IMPORT_IGES
100
AcDbLine
 62
250
  6
CONTINUOUS
 10
-93.3380951166
 20
128.2927234657
 11
-88.0347942577
 21
131.3547829157
  0
LINE
  5
219
100
AcDbEntity
  8
IMPORT_IGES
100
AcDbLine
 62
250
  6
CONTINUOUS
 10
-86.9742365863
 20
130.7424302081
 11
-86.6205806954
 21
130.9466266871
  0
LWPOLYLINE
  5
21A
100
AcDbEntity
  8
IMPORT_IGES
100
AcDbPolyline
 62
7
  6
CONTINUOUS
 90
25
 70
0
 10
-93.035041657
 20
131.8501913449
 10
-92.8649915329
 20
131.9418998391
 10
-92.6933330021
 20
132.0221763339
 10
-92.5169092374
 20
132.0929219899
 10
-92.3357104422
 20
132.154111409
 10
-92.1497464129
 20
132.2057699894
 10
-91.9595829977
 20
132.2477471535
 10
-91.7652053918
 20
132.2800182758
 10
-91.5666283999
 20
132.3026079819
 10
-91.3644622847
 20
132.3154395716
 10
-91.1585927973
 20
132.3184626682
 10
-90.9491341866
 20
132.3117276483
 10
-90.7370394617
 20
132.2953089415
 10
-90.5225060614
 20
132.2692014602
 10
-90.3053365469
 20
132.233410292
 10
-90.0858916117
 20
132.1880251292
 10
-89.8640597102
 20
132.1330211964
 10
-89.6399523879
 20
132.068423269
 10
-89.4142649746
 20
131.9943953657
 10
-89.1869905425
 20
131.9109085883
 10
-88.9581360193
 20
131.8179918349
 10
-88.728417518
 20
131.7158958196
 10
-88.4980737427
 20
131.6047041136
 10
-88.2668659893
 20
131.4843331456
 10
-88.0347942577
 20
131.3547829157
  0
LINE
  5
21B
100
AcDbEntity
  8
IMPORT_IGES
100
AcDbLine
 62
250
  6
CONTINUOUS
 10
-94.0452018978
 20
127.0679785956
 11
-93.3380951166
 21
128.2927234657
  0
LWPOLYLINE
  5
21C
100
AcDbEntity
  8
IMPORT_IGES
100
AcDbPolyline
 62
7
  6
CONTINUOUS
 90
23
 70
0
 10
-86.9323288283
 20
115.3599044103
 10
-86.9631180454
 20
115.3357252227
 10
-87.1067194978
 20
115.2094152957
 10
-87.2444495832
 20
115.0742130739
 10
-87.3758949419
 20
114.9305332527
 10
-87.5010416501
 20
114.7783506981
 10
-87.6199036316
 20
114.6176905442
 10
-87.7321092993
 20
114.4490428889
 10
-87.8376721541
 20
114.2722836086
 10
-87.9365786951
 20
114.0875368269
 10
-88.0284168315
 20
113.8956650128
 10
-88.1130834283
 20
113.6968365923
 10
-88.1906816205
 20
113.4908831393
 10
-88.2611087223
 20
113.2781618437
 10
-88.324399055
 20
113.0585637246
 10
-88.3805182974
 20
112.8321977628
 10
-88.4292607999
 20
112.5997480907
 10
-88.4706049992
 20
112.3611942586
 10
-88.5045724586
 20
112.1165567162
 10
-88.5310222187
 20
111.8665809445
 10
-88.549907293
 20
111.6115154371
 10
-88.561274668
 20
111.3511117005
 10
-88.5651243436
 20
111.0853697345
  0
LINE
  5
21D
100
AcDbEntity
  8
IMPORT_IGES
100
AcDbLine
 62
250
  6
CONTINUOUS
 10
-87.3428442558
 20
114.9666601781
 11
-86.6559360344
 21
115.3632723762
  0
LWPOLYLINE
  5
21E
100
AcDbEntity
  8
IMPORT_IGES
100
AcDbPolyline
 62
7
  6
CONTINUOUS
 90
25
 70
0
 10
-87.4135427465
 20
115.131978027
 10
-87.2434926224
 20
115.2236865212
 10
-87.0718340917
 20
115.303963016
 10
-86.895410327
 20
115.374708672
 10
-86.7142115317
 20
115.4358980911
 10
-86.5282475025
 20
115.4875566715
 10
-86.3380840873
 20
115.5295338357
 10
-86.1437064813
 20
115.561804958
 10
-85.9451294895
 20
115.5843946641
 10
-85.7429633743
 20
115.5972262537
 10
-85.5370938869
 20
115.6002493503
 10
-85.3276352761
 20
115.5935143304
 10
-85.1155405513
 20
115.5770956236
 10
-84.9010071509
 20
115.5509881423
 10
-84.6838376365
 20
115.5151969741
 10
-84.4643927012
 20
115.4698118114
 10
-84.2425607998
 20
115.4148078785
 10
-84.0184534775
 20
115.3502099511
 10
-83.7927660642
 20
115.2761820479
 10
-83.5654916321
 20
115.1926952704
 10
-83.3366371089
 20
115.0997785171
 10
-83.1069186075
 20
114.9976825018
 10
-82.8765748323
 20
114.8864907958
 10
-82.6453670789
 20
114.7661198278
 10
-82.4132953473
 20
114.6365695978
  0
LINE
  5
21F
100
AcDbEntity
  8
IMPORT_IGES
100
AcDbLine
 62
250
  6
CONTINUOUS
 10
-89.4843631592
 20
110.5546127632
 11
-88.5651243436
 21
111.0853697345
  0
LINE
  5
220
100
AcDbEntity
  8
IMPORT_IGES
100
AcDbLine
 62
250
  6
CONTINUOUS
 10
-86.6559360344
 20
102.8564730117
 11
-88.5651243436
 21
101.7541316097
  0
LINE
  5
221
100
AcDbEntity
  8
IMPORT_IGES
100
AcDbLine
 62
250
  6
CONTINUOUS
 10
-77.6638948003
 20
107.9017939485
 11
-79.0781083627
 21
107.0852447619
  0
LINE
  5
222
100
AcDbEntity
  8
0
100
AcDbLine
 62
7
  6
CONTINUOUS
 10
97.0010270371
 20
-112.3484731123
 11
97.6569986843
 21
-112.1818496306
  0
LINE
  5
223
100
AcDbEntity
  8
0
100
AcDbLine
 62
7
  6
CONTINUOUS
 10
97.7320212996
 20
-116.5415648451
 11
96.515340845
 21
-116.8431323451
  0
LINE
  5
224
100
AcDbEntity
  8
0
100
AcDbLine
 62
7
  6
CONTINUOUS
 10
97.9300493821
 20
-112.1113395349
 11
98.2829211217
 21
-112.0251536548
  0
LINE
  5
225
100
AcDbEntity
  8
0
100
AcDbLine
 62
7
  6
CONTINUOUS
 10
96.515340845
 20
-116.4173953498
 11
98.2829211217
 21
-116.0528627655
  0
LINE
  5
226
100
AcDbEntity
  8
IMPORT_IGES
100
AcDbLine
 62
7
  6
CONTINUOUS
 10
-88.5651243436
 20
97.6139258069
 11
-85.5952758626
 21
99.3286790988
  0
LINE
  5
227
100
AcDbEntity
  8
IMPORT_IGES
100
AcDbLine
 62
250
  6
CONTINUOUS
 10
-78.1352993211
 20
102.4676092478
 11
-76.7210857587
 21
103.2841584344
  0
LINE
  5
228
100
AcDbEntity
  8
IMPORT_IGES
100
AcDbLine
 62
250
  6
CONTINUOUS
 10
-76.7210857587
 20
96.9944515438
 11
-78.1352993211
 21
96.1779023572
  0
LWPOLYLINE
  5
229
100
AcDbEntity
  8
IMPORT_IGES
100
AcDbPolyline
 62
7
  6
CONTINUOUS
 90
19
 70
0
 10
82.4132953473
 20
-106.4379802141
 10
82.3157138347
 20
-106.4604525694
 10
82.1707153537
 20
-106.4853609418
 10
82.0227090931
 20
-106.502509989
 10
81.871647597
 20
-106.5118644961
 10
81.7175783212
 20
-106.5134596781
 10
81.561170064
 20
-106.5073117368
 10
81.4025015397
 20
-106.4934029008
 10
81.2414940341
 20
-106.4717509414
 10
81.0785802028
 20
-106.4424253751
 10
80.9137054539
 20
-106.4054032807
 10
80.7469243793
 20
-106.3607075794
 10
80.5788334103
 20
-106.3084765512
 10
80.4094261644
 20
-106.2486829813
 10
80.2387090241
 20
-106.1813540845
 10
80.0672975679
 20
-106.1067097857
 10
79.8953969889
 20
-106.024823393
 10
79.7228020941
 20
-105.9356215983
 10
79.5495128835
 20
-105.8391044015
  0
LINE
  5
22A
100
AcDbEntity
  8
0
100
AcDbLine
 62
7
  6
CONTINUOUS
 10
98.2829211217
 20
-112.4465592752
 11
96.515340845
 21
-112.8269632253
  0
LINE
  5
22B
100
AcDbEntity
  8
0
100
AcDbLine
 62
7
  6
CONTINUOUS
 10
97.4967067694
 20
-114.0058021435
 11
96.515340845
 21
-114.1464020538
  0
LINE
  5
22C
100
AcDbEntity
  8
0
100
AcDbLine
 62
7
  6
CONTINUOUS
 10
97.1335360195
 20
-113.681395902
 11
98.2829211217
 21
-113.52430249
  0
LINE
  5
22D
100
AcDbEntity
  8
IMPORT_IGES
100
AcDbLine
 62
250
  6
CONTINUOUS
 10
94.752308679
 20
-127.2729681822
 11
93.3380951166
 21
-127.2729681822
  0
LWPOLYLINE
  5
22E
100
AcDbEntity
  8
IMPORT_IGES
100
AcDbPolyline
 62
7
  6
CONTINUOUS
 90
5
 70
0
 10
-100.3546633861
 20
124.3223005663
 10
-100.378472801
 20
124.0972876559
 10
-100.395471945
 20
123.8677164001
 10
-100.4057019875
 20
123.6333596629
 10
-100.4091629285
 20
123.3942174444
  0
LWPOLYLINE
  5
22F
100
AcDbEntity
  8
IMPORT_IGES
100
AcDbPolyline
 62
7
  6
CONTINUOUS
 90
13
 70
0
 10
-85.5952758626
 20
86.6733898085
 10
-85.6510460851
 20
86.5659387897
 10
-85.7021102961
 20
86.4538571088
 10
-85.7484684957
 20
86.3371447659
 10
-85.7901730331
 20
86.2156235681
 10
-85.827171559
 20
86.0894717084
 10
-85.859307026
 20
85.9592237651
 10
-85.8865586496
 20
85.8248622317
 10
-85.9089472144
 20
85.6864046149
 10
-85.9263780265
 20
85.5444380127
 10
-85.9388195214
 20
85.3991581244
 10
-85.9463032636
 20
85.2503692508
 10
-85.9488292532
 20
85.0980713917
  0
LINE
  5
230
100
AcDbEntity
  8
IMPORT_IGES
100
AcDbLine
 62
7
  6
CONTINUOUS
 10
-85.5952758626
 20
86.6733898085
 11
-88.5651243436
 21
84.9586365166
  0
LINE
  5
231
100
AcDbEntity
  8
IMPORT_IGES
100
AcDbLine
 62
250
  6
CONTINUOUS
 10
-88.5651243436
 20
83.5874553964
 11
-85.9488292532
 21
85.0980713917
  0
LINE
  5
232
100
AcDbEntity
  8
IMPORT_IGES
100
AcDbLine
 62
250
  6
CONTINUOUS
 10
-73.7579716281
 20
86.1014476365
 11
-72.3437580657
 21
86.9179968231
  0
LINE
  5
233
100
AcDbEntity
  8
IMPORT_IGES
100
AcDbLine
 62
250
  6
CONTINUOUS
 10
-85.9488292532
 20
78.8593394972
 11
-88.5651243436
 21
77.3487235019
  0
LINE
  5
234
100
AcDbEntity
  8
IMPORT_IGES
100
AcDbLine
 62
7
  6
CONTINUOUS
 10
-88.5651243436
 20
75.1609931951
 11
-85.5952758626
 21
76.875746487
  0
LWPOLYLINE
  5
235
100
AcDbEntity
  8
IMPORT_IGES
100
AcDbPolyline
 62
7
  6
CONTINUOUS
 90
49
 70
0
 10
-100.4091629285
 20
-15.4057296104
 10
-100.4057252382
 20
-15.6485742072
 10
-100.3955099926
 20
-15.8945624014
 10
-100.3785171916
 20
-16.143694193
 10
-100.3547126813
 20
-16.3962496994
 10
-100.3241306156
 20
-16.6519488032
 10
-100.2868734565
 20
-16.9099511521
 10
-100.2429180547
 20
-17.1702636119
 10
-100.1922875595
 20
-17.4328793169
 10
-100.1351538807
 20
-17.6969373176
 10
-100.0715347606
 20
-17.9623320045
 10
-100.0014124569
 20
-18.2291689871
 10
-99.9249056524
 20
-18.4969041444
 10
-99.8419357659
 20
-18.7657397228
 10
-99.7525813787
 20
-19.0354734759
 10
-99.6571969176
 20
-19.3049545436
 10
-99.5557745188
 20
-19.5741076077
 10
-99.4483220461
 20
-19.8430079865
 10
-99.3352175178
 20
-20.1107307741
 10
-99.2164480125
 20
-20.3772529836
 10
-99.0920264516
 20
-20.642597602
 10
-98.9623696176
 20
-20.9059086843
 10
-98.8274626047
 20
-21.1671755146
 10
-98.6873203187
 20
-21.4264088088
 10
-98.5424042596
 20
-21.6827847696
 10
-98.3927076218
 20
-21.9362828497
 10
-98.2382372109
 20
-22.1869235964
 10
-98.0794749436
 20
-22.4339448546
 10
-97.9164118539
 20
-22.6773341344
 10
-97.7490569077
 20
-22.9171039258
 10
-97.5779189193
 20
-23.1525295435
 10
-97.4029750366
 20
-23.3836142212
 10
-97.2242481116
 20
-23.6103547252
 10
-97.0423155153
 20
-23.8320166688
 10
-96.8571105036
 20
-24.0486351315
 10
-96.6686998206
 20
-24.2601750338
 10
-96.4778610696
 20
-24.4657967508
 10
-96.2847254231
 20
-24.6653412591
 10
-96.0891617087
 20
-24.8589675821
 10
-95.891554012
 20
-25.0463131647
 10
-95.6918195341
 20
-25.2274497221
 10
-95.490041074
 20
-25.402305539
 10
-95.2868511148
 20
-25.5703029145
 10
-95.0822431855
 20
-25.7314222837
 10
-94.8762237571
 20
-25.8856832115
 10
-94.6694447246
 20
-26.0325666918
 10
-94.4621233864
 20
-26.1718997225
 10
-94.2540424441
 20
-26.3038553057
 10
-94.0452018978
 20
-26.4284334415
  0
LINE
  5
236
100
AcDbEntity
  8
IMPORT_IGES
100
AcDbLine
 62
7
  6
CONTINUOUS
 10
-100.4091629285
 20
-15.4057296104
 11
-100.4091629285
 21
124.2107666311
  0
LWPOLYLINE
  5
237
100
AcDbEntity
  8
IMPORT_IGES
100
AcDbPolyline
 62
7
  6
CONTINUOUS
 90
21
 70
0
 10
-75.3062666346
 20
69.3696116322
 10
-75.3937237822
 20
69.2842307147
 10
-75.5257095421
 20
69.1407139566
 10
-75.6513730499
 20
68.9886590842
 10
-75.7707340494
 20
68.8280927625
 10
-75.883410742
 20
68.6595269288
 10
-75.9893821515
 20
68.4829366946
 10
-76.0886692542
 20
68.2983469485
 10
-76.1809531799
 20
68.1063442932
 10
-76.266212238
 20
67.9069049372
 10
-76.3444681192
 20
67.700052672
 10
-76.4154670255
 20
67.4864454756
 10
-76.4791861603
 20
67.2660621313
 10
-76.5356483203
 20
67.0389238556
 10
-76.5846680975
 20
66.8057522765
 10
-76.6262222132
 20
66.5665281416
 10
-76.6603339461
 20
66.3212707032
 10
-76.6868877243
 20
66.0707593457
 10
-76.7058450239
 20
65.815253864
 10
-76.7172443687
 20
65.5544944632
 10
-76.7210857587
 20
65.2884811434
  0
LWPOLYLINE
  5
238
100
AcDbEntity
  8
IMPORT_IGES
100
AcDbPolyline
 62
7
  6
CONTINUOUS
 90
49
 70
0
 10
-88.5651243436
 20
-14.6510528916
 10
-88.5613034211
 20
-14.9208840061
 10
-88.549953584
 20
-15.1941988607
 10
-88.5310748324
 20
-15.4709974556
 10
-88.5046288156
 20
-15.7515899614
 10
-88.4706538842
 20
-16.0356662074
 10
-88.4292650901
 20
-16.3222956813
 10
-88.380436985
 20
-16.6114862217
 10
-88.3241950172
 20
-16.90322999
 10
-88.2607305831
 20
-17.1965729583
 10
-88.1900741399
 20
-17.491368982
 10
-88.1121952303
 20
-17.7877642057
 10
-88.0271938793
 20
-18.0852430358
 10
-87.934959122
 20
-18.38410339
 10
-87.8356019232
 20
-18.6840473505
 10
-87.7295552023
 20
-18.9836655703
 10
-87.6168271991
 20
-19.2828169154
 10
-87.4974096737
 20
-19.5816425198
 10
-87.3717108258
 20
-19.8791564385
 10
-87.2397117485
 20
-20.1753478065
 10
-87.1014313486
 20
-20.4702274888
 10
-86.9573345463
 20
-20.7628421351
 10
-86.8074047451
 20
-21.0531795516
 10
-86.6516585413
 20
-21.3412519322
 10
-86.4906106451
 20
-21.6261425079
 10
-86.3242538069
 20
-21.9078277761
 10
-86.1525952762
 20
-22.1863312394
 10
-85.9761715114
 20
-22.4608066367
 10
-85.7949727162
 20
-22.7312398826
 10
-85.6090086869
 20
-22.9976450626
 10
-85.4188452717
 20
-23.2592181721
 10
-85.2244676658
 20
-23.5159516814
 10
-85.0258906739
 20
-23.7678531203
 10
-84.8237245587
 20
-24.0141410723
 10
-84.6178550713
 20
-24.2548970926
 10
-84.4083964606
 20
-24.4900396261
 10
-84.1963017357
 20
-24.7185425912
 10
-83.9817683354
 20
-24.9401729032
 10
-83.7645988209
 20
-25.1551636468
 10
-83.5451538857
 20
-25.3631879946
 10
-83.3233219842
 20
-25.5643499812
 10
-83.099214662
 20
-25.7585455721
 10
-82.8735272486
 20
-25.9451358367
 10
-82.6462528165
 20
-26.1240998766
 10
-82.4173982934
 20
-26.2954585902
 10
-82.187679792
 20
-26.4586357421
 10
-81.9573360168
 20
-26.613439254
 10
-81.7261282633
 20
-26.7600612042
 10
-81.4940565317
 20
-26.8985015928
  0
LINE
  5
239
100
AcDbEntity
  8
IMPORT_IGES
100
AcDbLine
 62
7
  6
CONTINUOUS
 10
-89.4843631592
 20
110.5546127632
 11
-89.4843631592
 21
-15.1818098629
  0
LINE
  5
23A
100
AcDbEntity
  8
IMPORT_IGES
100
AcDbLine
 62
7
  6
CONTINUOUS
 10
-88.5651243436
 20
111.0853697345
 11
-88.5651243436
 21
-14.6510528916
  0
LWPOLYLINE
  5
23B
100
AcDbEntity
  8
IMPORT_IGES
100
AcDbPolyline
 62
7
  6
CONTINUOUS
 90
25
 70
0
 10
-89.4843631592
 20
110.5546127632
 10
-89.4805422366
 20
110.8200315721
 10
-89.4691923996
 20
111.0802399194
 10
-89.4503136479
 20
111.3352378051
 10
-89.4238676311
 20
111.5852911135
 10
-89.3898926998
 20
111.8301339604
 10
-89.3485039056
 20
112.0689686923
 10
-89.2996758006
 20
112.3017737609
 10
-89.2434338328
 20
112.5285707145
 10
-89.1799693986
 20
112.7486265451
 10
-89.1093129554
 20
112.9618302793
 10
-89.0314340459
 20
113.1682928904
 10
-88.9464326949
 20
113.3676142909
 10
-88.8541979376
 20
113.5599642593
 10
-88.7548407388
 20
113.7451730171
 10
-88.6487940178
 20
113.9223311417
 10
-88.5360660146
 20
114.0913070143
 10
-88.4166484892
 20
114.2522322538
 10
-88.2909496413
 20
114.4045922936
 10
-88.158950564
 20
114.5483544358
 10
-88.0206701642
 20
114.6835513785
 10
-87.8765733619
 20
114.8097666494
 10
-87.7266435606
 20
114.9269688896
 10
-87.5708973569
 20
115.035189458
 10
-87.4135427465
 20
115.131978027
  0
LINE
  5
23C
100
AcDbEntity
  8
IMPORT_IGES
100
AcDbLine
 62
7
  6
CONTINUOUS
 10
-86.6544217487
 20
115.4525069768
 11
-86.6559360344
 21
115.3632723762
  0
LWPOLYLINE
  5
23D
100
AcDbEntity
  8
IMPORT_IGES
100
AcDbPolyline
 62
7
  6
CONTINUOUS
 90
20
 70
0
 10
-78.3819430557
 20
112.3089173093
 10
-78.3985548273
 20
112.127672718
 10
-78.4111741992
 20
111.9156550681
 10
-78.4174127436
 20
111.6993268766
 10
-78.4172508229
 20
111.4794670799
 10
-78.4106544713
 20
111.2560206015
 10
-78.3976576545
 20
111.0290425178
 10
-78.3783426317
 20
110.7994769946
 10
-78.3527153488
 20
110.5674936043
 10
-78.3207698599
 20
110.3329227746
 10
-78.2825705865
 20
110.0961999539
 10
-78.2380856533
 20
109.8571744611
 10
-78.1873469356
 20
109.6159969774
 10
-78.1305144798
 20
109.3735549936
 10
-78.0675666917
 20
109.1298602523
 10
-77.9985251655
 20
108.8849010109
 10
-77.9236147304
 20
108.6395295335
 10
-77.8429103293
 20
108.3940299079
 10
-77.7563370193
 20
108.1481180463
 10
-77.5640012846
 20
107.6368049145
  0
LWPOLYLINE
  5
23E
100
AcDbEntity
  8
IMPORT_IGES
100
AcDbPolyline
 62
7
  6
CONTINUOUS
 90
13
 70
0
 10
-85.5952758626
 20
29.520470433
 10
-85.6510460851
 20
29.4130194142
 10
-85.7021102961
 20
29.3009377333
 10
-85.7484684957
 20
29.1842253904
 10
-85.7901730331
 20
29.0627041927
 10
-85.827171559
 20
28.9365523329
 10
-85.859307026
 20
28.8063043896
 10
-85.8865586496
 20
28.6719428562
 10
-85.9089472144
 20
28.5334852394
 10
-85.9263780265
 20
28.3915186372
 10
-85.9388195214
 20
28.2462387489
 10
-85.9463032636
 20
28.0974498753
 10
-85.9488292532
 20
27.9451520162
  0
LWPOLYLINE
  5
23F
100
AcDbEntity
  8
IMPORT_IGES
100
AcDbPolyline
 62
7
  6
CONTINUOUS
 90
27
 70
0
 10
-71.2207725731
 20
69.9822693537
 10
-71.0636486627
 20
70.0783501256
 10
-70.9048210998
 20
70.1869830882
 10
-70.7513247232
 20
70.3041675221
 10
-70.6031447945
 20
70.4298787588
 10
-70.460692303
 20
70.5637683337
 10
-70.3239846753
 20
70.7058579948
 10
-70.1930044849
 20
70.8561259942
 10
-70.0681104418
 20
71.0141586241
 10
-69.9493192709
 20
71.1799775419
 10
-69.8366142473
 20
71.3535610904
 10
-69.7303039062
 20
71.5344305898
 10
-69.6304060699
 20
71.7226060663
 10
-69.5369029161
 20
71.9180674939
 10
-69.4500495136
 20
72.1202761147
 10
-69.3698658096
 20
72.3292419379
 10
-69.2963318569
 20
72.5449549544
 10
-69.2296428819
 20
72.7668463796
 10
-69.1698145987
 20
72.9949343975
 10
-69.1168312932
 20
73.2292008241
 10
-69.07084105
 20
73.4690223226
 10
-69.0318613382
 20
73.7144138443
 10
-68.9998746887
 20
73.965360438
 10
-68.9749767789
 20
74.2211939138
 10
-68.9571995014
 20
74.4816915417
 10
-68.9465109637
 20
74.7470760516
 10
-68.9429111657
 20
75.0173474437
  0
LINE
  5
240
100
AcDbEntity
  8
IMPORT_IGES
100
AcDbLine
 62
7
  6
CONTINUOUS
 10
-69.8066064348
 20
70.7987911578
 11
-71.2208199972
 21
69.9822419711
  0
LINE
  5
241
100
AcDbEntity
  8
IMPORT_IGES
100
AcDbLine
 62
250
  6
CONTINUOUS
 10
-78.1352993211
 20
64.4719319567
 11
-76.7210857587
 21
65.2884811434
  0
LWPOLYLINE
  5
242
100
AcDbEntity
  8
IMPORT_IGES
100
AcDbPolyline
 62
7
  6
CONTINUOUS
 90
12
 70
0
 10
-76.0644826388
 20
69.0492950667
 10
-75.8916919109
 20
69.1423733265
 10
-75.7196861025
 20
69.2226187614
 10
-75.5428619371
 20
69.2933117071
 10
-75.3612042809
 20
69.3544221561
 10
-75.1747282678
 20
69.4059801158
 10
-74.9840268301
 20
69.4478143098
 10
-74.7890864464
 20
69.4798942925
 10
-74.5899206381
 20
69.5022505094
 10
-74.3871629024
 20
69.5148030205
 10
-74.181024405
 20
69.5175251792
 10
-73.9712939803
 20
69.510443632
  0
LWPOLYLINE
  5
243
100
AcDbEntity
  8
IMPORT_IGES
100
AcDbPolyline
 62
7
  6
CONTINUOUS
 90
48
 70
0
 10
-84.4285496737
 20
-12.3847738043
 10
-84.4268389487
 20
-12.4635192439
 10
-84.4218229989
 20
-12.5435919948
 10
-84.4135018244
 20
-12.624992057
 10
-84.4018341097
 20
-12.7079392603
 10
-84.3868611702
 20
-12.7922137749
 10
-84.368706952
 20
-12.8771561107
 10
-84.3473430491
 20
-12.9627718702
 10
-84.3227978674
 20
-13.0490554509
 10
-84.2952805709
 20
-13.1353305546
 10
-84.2648022676
 20
-13.2215271564
 10
-84.2313518495
 20
-13.3077152812
 10
-84.1951051559
 20
-13.3934287066
 10
-84.1560045445
 20
-13.4787582689
 10
-84.1141076577
 20
-13.5636131317
 10
-84.069763262
 20
-13.6472545629
 10
-84.0229567147
 20
-13.7296480924
 10
-83.9737026586
 20
-13.8108281903
 10
-83.9223937887
 20
-13.8901595347
 10
-83.8690242022
 20
-13.9676113766
 10
-83.8135998019
 20
-14.043214465
 10
-83.7565309918
 20
-14.1164257243
 10
-83.697812424
 20
-14.1872234279
 10
-83.6374494464
 20
-14.2556293025
 10
-83.5758685058
 20
-14.3211654526
 10
-83.5130553524
 20
-14.3838196282
 10
-83.449024236
 20
-14.4436040794
 10
-83.3842443528
 20
-14.5000776608
 10
-83.3187060329
 20
-14.5532189286
 10
-83.2524189463
 20
-14.6030493265
 10
-83.1858812992
 20
-14.6491920406
 10
-83.1190923319
 20
-14.6916176936
 10
-83.0520528042
 20
-14.7303556627
 10
-82.9852632013
 20
-14.7651172654
 10
-82.9187265003
 20
-14.7958719506
 10
-82.8524397242
 20
-14.8226502693
 10
-82.7868944271
 20
-14.845255192
 10
-82.7220968081
 20
-14.8636556204
 10
-82.6580406681
 20
-14.8778826527
 10
-82.5951989648
 20
-14.8878325545
 10
-82.5335817952
 20
-14.8934743113
 10
-82.4731790622
 20
-14.8948389377
 10
-82.4144334325
 20
-14.8919157428
 10
-82.3573562941
 20
-14.884674187
 10
-82.301936259
 20
-14.87314481
 10
-82.2485818306
 20
-14.8574085398
 10
-82.1973079226
 20
-14.8374356777
 10
-82.1908306571
 20
-14.8342529079
  0
LWPOLYLINE
  5
244
100
AcDbEntity
  8
IMPORT_IGES
100
AcDbPolyline
 62
7
  6
CONTINUOUS
 90
22
 70
0
 10
-86.6559360344
 20
102.8564730117
 10
-86.6533702993
 20
102.7000410287
 10
-86.6457705964
 20
102.5413648302
 10
-86.6331369255
 20
102.3804444163
 10
-86.6154368034
 20
102.2170426334
 10
-86.5927027133
 20
102.051396635
 10
-86.5650321058
 20
101.8842178818
 10
-86.5324037095
 20
101.7154997591
 10
-86.4948387958
 20
101.5452488816
 10
-86.4524986285
 20
101.3741965535
 10
-86.4053626321
 20
101.202339318
 10
-86.3534513822
 20
101.029680632
 10
-86.2969878691
 20
100.8569621697
 10
-86.2359524804
 20
100.6841836773
 10
-86.1703648287
 20
100.5113454087
 10
-86.1005067421
 20
100.3391898001
 10
-86.0263598257
 20
100.1677198036
 10
-85.9479424745
 20
99.996932467
 10
-85.8655917012
 20
99.8275613703
 10
-85.7794198437
 20
99.65985104
 10
-85.6893145641
 20
99.4935569495
 10
-85.5952758626
 20
99.3286790988
  0
LWPOLYLINE
  5
245
100
AcDbEntity
  8
IMPORT_IGES
100
AcDbPolyline
 62
7
  6
CONTINUOUS
 90
13
 70
0
 10
-85.9488292532
 20
21.7064201217
 10
-85.9463032636
 20
21.5512053131
 10
-85.9388195214
 20
21.3937744015
 10
-85.9263780265
 20
21.2341273869
 10
-85.9089472144
 20
21.0720321197
 10
-85.8865586496
 20
20.9077207495
 10
-85.859307026
 20
20.7418897243
 10
-85.827171559
 20
20.5745325492
 10
-85.7901730331
 20
20.4056557191
 10
-85.7484684957
 20
20.2359751669
 10
-85.7021102961
 20
20.0657295371
 10
-85.6510460851
 20
19.8946801853
 10
-85.5952758626
 20
19.7228271115
  0
LWPOLYLINE
  5
246
100
AcDbEntity
  8
IMPORT_IGES
100
AcDbPolyline
 62
7
  6
CONTINUOUS
 90
13
 70
0
 10
-85.9488292532
 20
78.8593394972
 10
-85.9463032636
 20
78.7041246886
 10
-85.9388195214
 20
78.546693777
 10
-85.9263780265
 20
78.3870467624
 10
-85.9089472144
 20
78.2249514952
 10
-85.8865586496
 20
78.060640125
 10
-85.859307026
 20
77.8948090998
 10
-85.827171559
 20
77.7274519247
 10
-85.7901730331
 20
77.5585750946
 10
-85.7484684957
 20
77.3888945424
 10
-85.7021102961
 20
77.2186489126
 10
-85.6510460851
 20
77.0475995608
 10
-85.5952758626
 20
76.875746487
  0
LWPOLYLINE
  5
247
100
AcDbEntity
  8
IMPORT_IGES
100
AcDbPolyline
 62
7
  6
CONTINUOUS
 90
46
 70
0
 10
-76.7210857587
 20
-8.2620289652
 10
-76.7180372074
 20
-8.463705432
 10
-76.7089947512
 20
-8.6681075801
 10
-76.6939583902
 20
-8.8752354094
 10
-76.6728936981
 20
-9.0853515259
 10
-76.6458351012
 20
-9.2981933237
 10
-76.6128858779
 20
-9.5129729844
 10
-76.5740237401
 20
-9.7296967241
 10
-76.529270976
 20
-9.9483583266
 10
-76.4787977285
 20
-10.1681513247
 10
-76.4226093073
 20
-10.3890102539
 10
-76.3607004027
 20
-10.6110005787
 10
-76.2932252287
 20
-10.8335122253
 10
-76.2201237099
 20
-11.0566754749
 10
-76.1414559217
 20
-11.2803600463
 10
-76.0575563042
 20
-11.5035650234
 10
-75.9684137014
 20
-11.7262402595
 10
-75.8740392694
 20
-11.9484359012
 10
-75.7748009162
 20
-12.1693014721
 10
-75.6706842276
 20
-12.3888199978
 10
-75.5617036179
 20
-12.6070084527
 10
-75.4482702381
 20
-12.8230672833
 10
-75.3303722713
 20
-13.0369812677
 10
-75.2080215345
 20
-13.2487656278
 10
-75.08166463
 20
-13.4576664753
 10
-74.951293106
 20
-13.663667565
 10
-74.8169154143
 20
-13.8667851421
 10
-74.6790035121
 20
-14.0663140547
 10
-74.5375392416
 20
-14.2622517028
 10
-74.3925407607
 20
-14.4546006864
 10
-74.2445345001
 20
-14.6426636535
 10
-74.0934730039
 20
-14.8264601899
 10
-73.9394037281
 20
-15.0059707097
 10
-73.782995471
 20
-15.1804391033
 10
-73.6243269467
 20
-15.3497567019
 10
-73.4633194411
 20
-15.5140321742
 10
-73.3004056097
 20
-15.6728354168
 10
-73.1355308608
 20
-15.8262065496
 10
-72.9687497863
 20
-15.9741054527
 10
-72.8006588172
 20
-16.1159816622
 10
-72.6312515713
 20
-16.2518153335
 10
-72.460534431
 20
-16.3816263113
 10
-72.2891229749
 20
-16.5049236654
 10
-72.1172223959
 20
-16.6215437525
 10
-71.944627501
 20
-16.7316502161
 10
-71.7713382904
 20
-16.8352430561
  0
LWPOLYLINE
  5
248
100
AcDbEntity
  8
IMPORT_IGES
100
AcDbPolyline
 62
7
  6
CONTINUOUS
 90
42
 70
0
 10
-85.5952758626
 20
-10.4865731298
 10
-85.5912143268
 20
-10.7912143182
 10
-85.5791421954
 20
-11.0996036694
 10
-85.5590594686
 20
-11.4117411834
 10
-85.5309302296
 20
-11.7279311453
 10
-85.4947903951
 20
-12.04786927
 10
-85.4507477154
 20
-12.3706427025
 10
-85.3987798397
 20
-12.6962583808
 10
-85.3389091187
 20
-13.0247093669
 10
-85.2713103555
 20
-13.3550619917
 10
-85.1959801557
 20
-13.6872679418
 10
-85.1129219136
 20
-14.0213755305
 10
-85.0223206153
 20
-14.3565960293
 10
-84.9241262514
 20
-14.6930358544
 10
-84.8183888313
 20
-15.0305885894
 10
-84.7054433691
 20
-15.3681462565
 10
-84.5852765486
 20
-15.7056668441
 10
-84.4579016859
 20
-16.0431923638
 10
-84.3236937436
 20
-16.3797408725
 10
-84.1826350906
 20
-16.7153025853
 10
-84.034743358
 20
-17.0498872871
 10
-83.8804464006
 20
-17.3825423906
 10
-83.7197285726
 20
-17.7132577286
 10
-83.5526055199
 20
-18.0420434683
 10
-83.3795520343
 20
-18.3679775234
 10
-83.2005529375
 20
-18.6910507185
 10
-83.0156234079
 20
-19.011272229
 10
-82.8252837728
 20
-19.3277474953
 10
-82.629519399
 20
-19.6404666904
 10
-82.4283449197
 20
-19.9494396414
 10
-82.2223245622
 20
-20.2538012696
 10
-82.0114442804
 20
-20.5535403678
 10
-81.7957181204
 20
-20.8486681433
 10
-81.575752447
 20
-21.1383531391
 10
-81.3515312619
 20
-21.4225849691
 10
-81.1230705634
 20
-21.7013740195
 10
-80.8910247124
 20
-21.9739199915
 10
-80.6553519929
 20
-22.2402326866
 10
-80.4160941208
 20
-22.5003023035
 10
-80.174030605
 20
-22.7532991392
 10
-79.9292299574
 20
-22.9991274225
 10
-79.6816236661
 20
-23.2378829246
  0
LWPOLYLINE
  5
249
100
AcDbEntity
  8
IMPORT_IGES
100
AcDbPolyline
 62
7
  6
CONTINUOUS
 90
18
 70
0
 10
-78.1352993211
 20
102.4676092478
 10
-78.1382967482
 20
102.7065535135
 10
-78.1472218637
 20
102.9483241059
 10
-78.1620746676
 20
103.1929210251
 10
-78.1828776009
 20
103.4405550199
 10
-78.2096082227
 20
103.6910153413
 10
-78.2421992098
 20
103.9436697432
 10
-78.2806654061
 20
104.198523788
 10
-78.3249919678
 20
104.4555719132
 10
-78.3750670395
 20
104.7141651845
 10
-78.4309051813
 20
104.9743075154
 10
-78.4924918331
 20
105.2359949925
 10
-78.5596714598
 20
105.4985669406
 10
-78.6324582259
 20
105.7620255944
 10
-78.7108379668
 20
106.0263687192
 10
-78.7946126539
 20
106.2909289363
 10
-78.8837162774
 20
106.5554837859
 10
-78.978214847
 20
106.8202557278
  0
LINE
  5
24A
100
AcDbEntity
  8
IMPORT_IGES
100
AcDbLine
 62
7
  6
CONTINUOUS
 10
-86.6559360344
 20
115.3632723762
 11
-86.6559360344
 21
102.8564730117
  0
LINE
  5
24B
100
AcDbEntity
  8
IMPORT_IGES
100
AcDbLine
 62
7
  6
CONTINUOUS
 10
-85.9488292532
 20
85.0980713917
 11
-85.9488292532
 21
78.8593394972
  0
LINE
  5
24C
100
AcDbEntity
  8
IMPORT_IGES
100
AcDbLine
 62
7
  6
CONTINUOUS
 10
-85.9488292532
 20
27.9451520162
 11
-85.9488292532
 21
21.7064201217
  0
LINE
  5
24D
100
AcDbEntity
  8
IMPORT_IGES
100
AcDbLine
 62
7
  6
CONTINUOUS
 10
-85.5952758626
 20
-10.4865731298
 11
-85.5952758626
 21
19.7228271115
  0
LINE
  5
24E
100
AcDbEntity
  8
IMPORT_IGES
100
AcDbLine
 62
7
  6
CONTINUOUS
 10
-85.5952758626
 20
29.520470433
 11
-85.5952758626
 21
76.875746487
  0
LINE
  5
24F
100
AcDbEntity
  8
IMPORT_IGES
100
AcDbLine
 62
7
  6
CONTINUOUS
 10
-85.5952758626
 20
86.6733898085
 11
-85.5952758626
 21
99.3286790988
  0
LINE
  5
250
100
AcDbEntity
  8
IMPORT_IGES
100
AcDbLine
 62
7
  6
CONTINUOUS
 10
-85.206367133
 20
51.3406168801
 11
-85.206367133
 21
54.6064979873
  0
LINE
  5
251
100
AcDbEntity
  8
IMPORT_IGES
100
AcDbLine
 62
7
  6
CONTINUOUS
 10
-84.4992603518
 20
60.3217504699
 11
-84.4992603518
 21
59.0970450547
  0
LINE
  5
252
100
AcDbEntity
  8
IMPORT_IGES
100
AcDbLine
 62
7
  6
CONTINUOUS
 10
-84.4992603518
 20
46.033520626
 11
-84.4992603518
 21
44.8088152108
  0
LINE
  5
253
100
AcDbEntity
  8
IMPORT_IGES
100
AcDbLine
 62
7
  6
CONTINUOUS
 10
-78.1352993211
 20
-9.0785781519
 11
-78.1352993211
 21
64.4719319567
  0
LINE
  5
254
100
AcDbEntity
  8
IMPORT_IGES
100
AcDbLine
 62
7
  6
CONTINUOUS
 10
-78.1352993211
 20
96.1779023572
 11
-78.1352993211
 21
102.4676092478
  0
LINE
  5
255
100
AcDbEntity
  8
IMPORT_IGES
100
AcDbLine
 62
7
  6
CONTINUOUS
 10
-76.7210857587
 20
-8.2620289652
 11
-76.7210857587
 21
65.2884811434
  0
LINE
  5
256
100
AcDbEntity
  8
IMPORT_IGES
100
AcDbLine
 62
7
  6
CONTINUOUS
 10
-76.7210857587
 20
96.9944515438
 11
-76.7210857587
 21
103.2841584344
  0
LWPOLYLINE
  5
257
100
AcDbEntity
  8
IMPORT_IGES
100
AcDbPolyline
 62
7
  6
CONTINUOUS
 90
25
 70
0
 10
-78.1352993211
 20
64.4719319567
 10
-78.1314580011
 20
64.7379434123
 10
-78.1200588086
 20
64.9987011197
 10
-78.1011017435
 20
65.254205079
 10
-78.0745482919
 20
65.5047150876
 10
-78.0404369677
 20
65.7499713482
 10
-77.998883313
 20
65.9891944681
 10
-77.9498640493
 20
66.2223651976
 10
-77.8934024552
 20
66.4495027865
 10
-77.8296839084
 20
66.6698855924
 10
-77.7586856121
 20
66.8834924007
 10
-77.6804303631
 20
67.0903444259
 10
-77.5951719299
 20
67.2897836694
 10
-77.5028886212
 20
67.4817863412
 10
-77.4036021282
 20
67.6663762312
 10
-77.2976312929
 20
67.8429667102
 10
-77.1849551384
 20
68.0115328913
 10
-77.0655946415
 20
68.1720996615
 10
-76.9399315752
 20
68.3241550524
 10
-76.8079461946
 20
68.4676724004
 10
-76.6696582445
 20
68.6026783693
 10
-76.5255087324
 20
68.7287409815
 10
-76.3754794361
 20
68.8458321893
 10
-76.2195885777
 20
68.9539800405
 10
-76.0644826388
 20
69.0492950667
  0
LWPOLYLINE
  5
258
100
AcDbEntity
  8
IMPORT_IGES
100
AcDbPolyline
 62
7
  6
CONTINUOUS
 90
34
 70
0
 10
-81.8476099223
 20
-15.5080744432
 10
-81.8499726104
 20
-15.6353843325
 10
-81.8569520513
 20
-15.7593571331
 10
-81.8685482452
 20
-15.8799928449
 10
-81.8848015955
 20
-15.9975012837
 10
-81.9056716989
 20
-16.1116726338
 10
-81.9310373443
 20
-16.2218774482
 10
-81.960928451
 20
-16.3280910394
 10
-81.9953150998
 20
-16.430338095
 10
-82.0339863224
 20
-16.5280632307
 10
-82.0769303002
 20
-16.6211943878
 10
-82.1241588519
 20
-16.7098036249
 10
-82.1754964651
 20
-16.7935517347
 10
-82.2309999302
 20
-16.872481296
 10
-82.2906124569
 20
-16.9465497299
 10
-82.3539881623
 20
-17.0152900921
 10
-82.4211422364
 20
-17.0786509271
 10
-82.4920594892
 20
-17.1366836903
 10
-82.5663484685
 20
-17.1890758033
 10
-82.6440206185
 20
-17.2357909161
 10
-82.725064495
 20
-17.2768653787
 10
-82.809054313
 20
-17.312095663
 10
-82.8960030576
 20
-17.3414523478
 10
-82.9858977437
 20
-17.3649648544
 10
-83.0782736318
 20
-17.3825179182
 10
-83.173142297
 20
-17.3940827068
 10
-83.2704921641
 20
-17.3996880526
 10
-83.3698237683
 20
-17.3993051885
 10
-83.4711483668
 20
-17.3929047427
 10
-83.5744547023
 20
-17.3805160871
 10
-83.6792095392
 20
-17.3621985702
 10
-83.7854243446
 20
-17.3379205988
 10
-83.8930876512
 20
-17.3077137661
 10
-83.9191639363
 20
-17.2990696763
  0
LWPOLYLINE
  5
259
100
AcDbEntity
  8
IMPORT_IGES
100
AcDbPolyline
 62
7
  6
CONTINUOUS
 90
17
 70
0
 10
-84.5346156909
 20
-12.4460149933
 10
-84.5329456109
 20
-12.3696536768
 10
-84.5279395232
 20
-12.295410773
 10
-84.5196098737
 20
-12.2234708614
 10
-84.5079773711
 20
-12.1540127961
 10
-84.4930709357
 20
-12.0872092607
 10
-84.4749276273
 20
-12.0232263393
 10
-84.4535925529
 20
-11.9622231036
 10
-84.429118755
 20
-11.9043512171
 10
-84.4015670792
 20
-11.8497545586
 10
-84.3710060234
 20
-11.7985688639
 10
-84.3375115672
 20
-11.7509213888
 10
-84.301166983
 20
-11.7069305923
 10
-84.2620626292
 20
-11.6667058425
 10
-84.2202957254
 20
-11.6303471445
 10
-84.1759701107
 20
-11.5979448917
 10
-84.1411587109
 20
-11.5763149571
  0
LWPOLYLINE
  5
25A
100
AcDbEntity
  8
IMPORT_IGES
100
AcDbPolyline
 62
7
  6
CONTINUOUS
 90
46
 70
0
 10
87.5979264019
 20
-131.2715136897
 10
87.8047495273
 20
-131.3634445749
 10
88.0109060704
 20
-131.4471647891
 10
88.2157194773
 20
-131.5224020076
 10
88.4191841183
 20
-131.5891262503
 10
88.6213056232
 20
-131.6473674974
 10
88.8214243269
 20
-131.6969433645
 10
89.0194576381
 20
-131.7378266508
 10
89.2154881482
 20
-131.7700445572
 10
89.4091039665
 20
-131.7934963019
 10
89.6004409549
 20
-131.8081695948
 10
89.7893632515
 20
-131.8140767261
 10
89.9750513808
 20
-131.8111537844
 10
90.1574361809
 20
-131.7993517565
 10
90.3365868136
 20
-131.7787196557
 10
90.5118912887
 20
-131.7493406102
 10
90.6833232369
 20
-131.7111844751
 10
90.8509090275
 20
-131.6642813953
 10
91.0141157779
 20
-131.6088049347
 10
91.172926754
 20
-131.54472822
 10
91.3273586898
 20
-131.4720781244
 10
91.4769289054
 20
-131.3911088316
 10
91.6216162025
 20
-131.3018002441
 10
91.7614417794
 20
-131.2041724593
 10
91.8959865507
 20
-131.0985399543
 10
92.025235216
 20
-130.9848835423
 10
92.1492030759
 20
-130.86322241
 10
92.2675169458
 20
-130.7339285946
 10
92.3801681992
 20
-130.5969707287
 10
92.4871654627
 20
-130.4523801798
 10
92.5881614317
 20
-130.3006230875
 10
92.6831531114
 20
-130.1416206556
 10
92.7721434965
 20
-129.9754516804
 10
92.8547942664
 20
-129.8028186897
 10
92.931033291
 20
-129.6238314966
 10
93.0009327003
 20
-129.438380288
 10
93.0643705636
 20
-129.2468381525
 10
93.1213675868
 20
-129.0491214402
 10
93.1719030641
 20
-128.8453138011
 10
93.2157929478
 20
-128.636039273
 10
93.2530170578
 20
-128.421278733
 10
93.2835955742
 20
-128.201051304
 10
93.3074049891
 20
-127.9760383937
 10
93.3244041331
 20
-127.7464671379
 10
93.3346341757
 20
-127.5121104007
 10
93.3380951166
 20
-127.2729681822
  0
LWPOLYLINE
  5
25B
100
AcDbEntity
  8
IMPORT_IGES
100
AcDbPolyline
 62
7
  6
CONTINUOUS
 90
37
 70
0
 10
-76.7210857587
 20
96.9944515438
 10
-76.7172444388
 20
96.7240042283
 10
-76.7058452463
 20
96.4500830191
 10
-76.6868881812
 20
96.1726879162
 10
-76.6603347295
 20
95.8915146472
 10
-76.6262234053
 20
95.6068674845
 10
-76.5846697506
 20
95.3196592456
 10
-76.535650487
 20
95.0298822992
 10
-76.4791888928
 20
94.7375442767
 10
-76.415470346
 20
94.4435808901
 10
-76.3444720497
 20
94.1479870289
 10
-76.2662168008
 20
93.8507678037
 10
-76.1809583675
 20
93.5528742586
 10
-76.0886750588
 20
93.254305135
 10
-75.9893885658
 20
92.9550616916
 10
-75.8834177305
 20
92.6560987482
 10
-75.770741576
 20
92.3574169682
 10
-75.6513810792
 20
92.0590156882
 10
-75.5257180129
 20
91.7618477382
 10
-75.3937326322
 20
91.4659169809
 10
-75.2554446822
 20
91.1712195536
 10
-75.11129517
 20
90.878696698
 10
-74.9612658737
 20
90.5883554194
 10
-74.8053750153
 20
90.3001887125
 10
-74.6441182688
 20
90.015116803
 10
-74.4774783485
 20
89.7331485747
 10
-74.3054725401
 20
89.4542751437
 10
-74.1286483747
 20
89.1793900841
 10
-73.9469907185
 20
88.9085059272
 10
-73.7605147054
 20
88.6416101417
 10
-73.5698132677
 20
88.3795587076
 10
-73.374872884
 20
88.1223664561
 10
-73.1757070757
 20
87.8700185561
 10
-72.9729493401
 20
87.6233264941
 10
-72.7668108427
 20
87.3825607657
 10
-72.5570804179
 20
87.1474508754
 10
-72.1270566506
 20
86.6852871025
  0
LWPOLYLINE
  5
25C
100
AcDbEntity
  8
IMPORT_IGES
100
AcDbPolyline
 62
7
  6
CONTINUOUS
 90
39
 70
0
 10
-68.9429111657
 20
75.0173474437
 10
-68.9465099818
 20
75.2917611234
 10
-68.957197775
 20
75.5694786208
 10
-68.9749745453
 20
75.8504999357
 10
-68.9998718722
 20
76.1350847146
 10
-69.0318581763
 20
76.4229733112
 10
-69.070838719
 20
76.7133867862
 10
-69.1168310465
 20
77.0063304575
 10
-69.1698176126
 20
77.3017990074
 10
-69.2296510405
 20
77.5989975437
 10
-69.2963471784
 20
77.8979262637
 10
-69.3698901779
 20
78.1985849701
 10
-69.4500851177
 20
78.5001781796
 10
-69.5369526308
 20
78.8027203786
 10
-69.6304720841
 20
79.1061970806
 10
-69.7303866561
 20
79.4097693433
 10
-69.8367149007
 20
79.7134383002
 10
-69.949438264
 20
80.0172028177
 10
-70.0682442636
 20
80.3202205533
 10
-70.1931488954
 20
80.6224865902
 10
-70.3241361634
 20
80.9240058452
 10
-70.4608455966
 20
81.2239507259
 10
-70.6032931757
 20
81.5223171756
 10
-70.75146292
 20
81.8191092509
 10
-70.9049464161
 20
82.1135115296
 10
-71.0637582492
 20
82.4055171149
 10
-71.2278838341
 20
82.6951329037
 10
-71.3968710015
 20
82.9815641636
 10
-71.5707261426
 20
83.2647927144
 10
-71.7494428663
 20
83.5448367364
 10
-71.9325498297
 20
83.8209560378
 10
-72.1200603148
 20
84.0931449822
 10
-72.3119610398
 20
84.3614092059
 10
-72.5077408162
 20
84.6250254272
 10
-72.7074101944
 20
84.8839829408
 10
-72.9109586241
 20
85.138292452
 10
-73.1178432662
 20
85.3872627938
 10
-73.3278831744
 20
85.6306635773
 10
-73.541259295
 20
85.8687251915
  0
LWPOLYLINE
  5
25D
100
AcDbEntity
  8
IMPORT_IGES
100
AcDbPolyline
 62
7
  6
CONTINUOUS
 90
27
 70
0
 10
-67.5286976033
 20
75.8338966303
 10
-67.5322964194
 20
75.5636387732
 10
-67.5429842126
 20
75.2982632716
 10
-67.5607609829
 20
75.0377701254
 10
-67.5856583099
 20
74.7819361555
 10
-67.6176446139
 20
74.5309845412
 10
-67.6566251566
 20
74.2855848197
 10
-67.7026174841
 20
74.0457519354
 10
-67.7556040503
 20
73.811470944
 10
-67.8154374782
 20
73.5833665504
 10
-67.882133616
 20
73.3614568586
 10
-67.9556766156
 20
73.1457237647
 10
-68.0358715553
 20
72.9367376614
 10
-68.1227390684
 20
72.7345078892
 10
-68.2162585217
 20
72.5390251077
 10
-68.3161730938
 20
72.3508316883
 10
-68.4225013383
 20
72.1699479231
 10
-68.5352247017
 20
71.9963535201
 10
-68.6540307012
 20
71.8305299747
 10
-68.778935333
 20
71.6725006758
 10
-68.909922601
 20
71.5222422345
 10
-69.0466320342
 20
71.3801659805
 10
-69.1890796133
 20
71.2462944247
 10
-69.3372493577
 20
71.1206050561
 10
-69.4907328537
 20
71.0034416715
 10
-69.6495446868
 20
70.8948280102
 10
-69.8065590728
 20
70.7988185045
  0
LWPOLYLINE
  5
25E
100
AcDbEntity
  8
IMPORT_IGES
100
AcDbPolyline
 62
7
  6
CONTINUOUS
 90
8
 70
0
 10
-81.9613338026
 20
-14.5554248141
 10
-81.9806585339
 20
-14.5937188825
 10
-82.0112195898
 20
-14.6449045772
 10
-82.044714046
 20
-14.6925520524
 10
-82.0810586302
 20
-14.7365428489
 10
-82.120162984
 20
-14.7767675986
 10
-82.1619298878
 20
-14.8131262966
 10
-82.2062555025
 20
-14.8455285494
  0
LINE
  5
25F
100
AcDbEntity
  8
IMPORT_IGES
100
AcDbLine
 62
7
  6
CONTINUOUS
 10
-85.5952758626
 20
29.520470433
 11
-88.5651243436
 21
27.8057171411
  0
LINE
  5
260
100
AcDbEntity
  8
IMPORT_IGES
100
AcDbLine
 62
250
  6
CONTINUOUS
 10
-88.5651243436
 20
26.4345360209
 11
-85.9488292532
 21
27.9451520162
  0
LWPOLYLINE
  5
261
100
AcDbEntity
  8
IMPORT_IGES
100
AcDbPolyline
 62
7
  6
CONTINUOUS
 90
4
 70
0
 10
86.9741340859
 20
-130.9467293334
 10
87.1827314402
 20
-131.0632014564
 10
87.3906622122
 20
-131.1714629085
 10
87.5979264019
 20
-131.2715136897
  0
LWPOLYLINE
  5
262
100
AcDbEntity
  8
IMPORT_IGES
100
AcDbPolyline
 62
7
  6
CONTINUOUS
 90
23
 70
0
 10
76.261466351
 20
-117.9845633642
 10
76.4932438334
 20
-118.1139768986
 10
76.7242735994
 20
-118.2342653492
 10
76.954555649
 20
-118.3454287162
 10
77.1843394295
 20
-118.4475667451
 10
77.4133754936
 20
-118.5405796903
 10
77.6409154995
 20
-118.6241683148
 10
77.8669535105
 20
-118.6982998066
 10
78.0914954634
 20
-118.7630069777
 10
78.3138108265
 20
-118.8180890267
 10
78.533788261
 20
-118.8635168358
 10
78.7515391057
 20
-118.8993195228
 10
78.9666668464
 20
-118.9253836403
 10
79.1793740079
 20
-118.9416979967
 10
79.3894580653
 20
-118.9482737836
 10
79.5959149296
 20
-118.9450311286
 10
79.7986264915
 20
-118.9319113513
 10
79.9977108603
 20
-118.9089731322
 10
80.1925182745
 20
-118.8763126403
 10
80.3830298702
 20
-118.8338971526
 10
80.5692645112
 20
-118.7817593921
 10
80.7506290282
 20
-118.7200936963
 10
80.7805700682
 20
-118.708009805
  0
LWPOLYLINE
  5
263
100
AcDbEntity
  8
IMPORT_IGES
100
AcDbPolyline
 62
7
  6
CONTINUOUS
 90
25
 70
0
 10
87.6812408671
 20
-131.3549250168
 10
87.9125997205
 20
-131.484137235
 10
88.143710829
 20
-131.6044681213
 10
88.3743267131
 20
-131.7157888224
 10
88.6042004235
 20
-131.8179801333
 10
88.8330858058
 20
-131.9109326249
 10
89.0607377635
 20
-131.9945467614
 10
89.2869125215
 20
-132.0687330067
 10
89.5113678861
 20
-132.1334119202
 10
89.7338635047
 20
-132.1885142423
 10
89.9541611237
 20
-132.233980968
 10
90.1720248427
 20
-132.2697634103
 10
90.3872213679
 20
-132.2958232524
 10
90.5995202613
 20
-132.312132589
 10
90.8086941881
 20
-132.3186739555
 10
91.0145191595
 20
-132.3154403472
 10
91.2167747731
 20
-132.3024352269
 10
91.4152444483
 20
-132.2796725207
 10
91.6097156591
 20
-132.2471766034
 10
91.7999801606
 20
-132.2049822726
 10
91.9858342129
 20
-132.1531347109
 10
92.1670787988
 20
-132.0916894381
 10
92.3435198372
 20
-132.0207122513
 10
92.5149683904
 20
-131.9402791546
 10
92.6814824685
 20
-131.8503367936
  0
LINE
  5
264
100
AcDbEntity
  8
IMPORT_IGES
100
AcDbLine
 62
7
  6
CONTINUOUS
 10
86.9741340859
 20
-130.9467293334
 11
87.6812408671
 21
-131.3549250168
  0
LINE
  5
265
100
AcDbEntity
  8
IMPORT_IGES
100
AcDbLine
 62
7
  6
CONTINUOUS
 10
86.9741340859
 20
-130.9467293334
 11
-94.0452018978
 21
-26.4284334415
  0
LINE
  5
266
100
AcDbEntity
  8
IMPORT_IGES
100
AcDbLine
 62
7
  6
CONTINUOUS
 10
-82.4132953473
 20
-27.4292585641
 11
75.3422275354
 21
-118.5153203356
  0
LWPOLYLINE
  5
267
100
AcDbEntity
  8
IMPORT_IGES
100
AcDbPolyline
 62
7
  6
CONTINUOUS
 90
49
 70
0
 10
-82.4132953473
 20
-27.4292585641
 10
-82.6450728297
 20
-27.2910212715
 10
-82.8761025957
 20
-27.1445223393
 10
-83.1063846454
 20
-26.9897617676
 10
-83.3361684258
 20
-26.8265512465
 10
-83.5652044899
 20
-26.6550790859
 10
-83.7927444958
 20
-26.4759102151
 10
-84.0187825069
 20
-26.2890186776
 10
-84.2433244597
 20
-26.0944304299
 10
-84.4656398229
 20
-25.8927882701
 10
-84.6856172573
 20
-25.6841916517
 10
-84.9033681021
 20
-25.4685411213
 10
-85.1184958427
 20
-25.2461811163
 10
-85.3312030042
 20
-25.0168665743
 10
-85.5412870617
 20
-24.7808425576
 10
-85.7477439259
 20
-24.5391886908
 10
-85.9504554879
 20
-24.291982683
 10
-86.1495398566
 20
-24.039146825
 10
-86.3443472708
 20
-23.7815276142
 10
-86.5348588665
 20
-23.5191141112
 10
-86.7210935076
 20
-23.2519172553
 10
-86.9024580245
 20
-22.9808163615
 10
-87.0789335577
 20
-22.7058031555
 10
-87.2505389667
 20
-22.4268859114
 10
-87.4167376606
 20
-22.144968767
 10
-87.5775056598
 20
-21.8600571969
 10
-87.7328669439
 20
-21.5721457264
 10
-87.8823568609
 20
-21.2821220686
 10
-88.0259583134
 20
-20.9899847838
 10
-88.1636883987
 20
-20.6957353118
 10
-88.2951337575
 20
-20.4002656852
 10
-88.4202804656
 20
-20.1035668489
 10
-88.5391424472
 20
-19.805647858
 10
-88.6513481148
 20
-19.5074279103
 10
-88.7569109697
 20
-19.2087672912
 10
-88.8558175106
 20
-18.9098057153
 10
-88.947655647
 20
-18.6118815232
 10
-89.0323222438
 20
-18.315282239
 10
-89.109920436
 20
-18.0197203387
 10
-89.1803475379
 20
-17.7256715912
 10
-89.2436378706
 20
-17.4329873823
 10
-89.2997571129
 20
-17.1418163262
 10
-89.3484996154
 20
-16.853080034
 10
-89.3898438147
 20
-16.5667829569
 10
-89.4238112742
 20
-16.2829206437
 10
-89.4502610343
 20
-16.0024013519
 10
-89.4691461086
 20
-15.7255278342
 10
-89.4805134835
 20
-15.4519973378
 10
-89.4843631592
 20
-15.1818098629
  0
LWPOLYLINE
  5
268
100
AcDbEntity
  8
IMPORT_IGES
100
AcDbPolyline
 62
7
  6
CONTINUOUS
 90
11
 70
0
 10
-79.6816236661
 20
-23.2378829246
 10
-79.4317857044
 20
-23.4690232571
 10
-79.1796730608
 20
-23.69257146
 10
-78.9253287467
 20
-23.9085044931
 10
-78.6694557695
 20
-24.1162108477
 10
-78.4120487429
 20
-24.3156701739
 10
-78.153113053
 20
-24.5069028216
 10
-77.8933678661
 20
-24.6893583311
 10
-77.633052904
 20
-24.8628532159
 10
-77.3719284447
 20
-25.0275709626
 10
-77.1099944884
 20
-25.1835115713
  0
LINE
  5
269
100
AcDbEntity
  8
IMPORT_IGES
100
AcDbLine
 62
250
  6
CONTINUOUS
 10
-85.9488292532
 20
21.7064201217
 11
-88.5651243436
 21
20.1958041264
  0
LINE
  5
26A
100
AcDbEntity
  8
IMPORT_IGES
100
AcDbLine
 62
7
  6
CONTINUOUS
 10
-88.5651243436
 20
18.0080738196
 11
-85.5952758626
 21
19.7228271115
  0
LINE
  5
26B
100
AcDbEntity
  8
IMPORT_IGES
100
AcDbLine
 62
7
  6
CONTINUOUS
 10
-81.4940565317
 20
-26.8985015928
 11
76.261466351
 21
-117.9845633642
  0
LINE
  5
26C
100
AcDbEntity
  8
IMPORT_IGES
100
AcDbLine
 62
7
  6
CONTINUOUS
 10
82.086955167
 20
-116.6935999575
 11
-79.5304705456
 21
-23.3777238931
  0
LWPOLYLINE
  5
26D
100
AcDbEntity
  8
IMPORT_IGES
100
AcDbPolyline
 62
7
  6
CONTINUOUS
 90
33
 70
0
 10
-52.1917680746
 20
-24.280675787
 10
-52.0704306428
 20
-24.5687280913
 10
-51.9433071413
 20
-24.8553291301
 10
-51.8102574352
 20
-25.1407617352
 10
-51.6714216592
 20
-25.4247430746
 10
-51.5272202172
 20
-25.7064246529
 10
-51.377637672
 20
-25.9857992879
 10
-51.2226894608
 20
-26.2628741618
 10
-51.0628422985
 20
-26.5368223243
 10
-50.8980820337
 20
-26.8076344054
 10
-50.7284228178
 20
-27.0753197752
 10
-50.5543738211
 20
-27.3390795943
 10
-50.3759221071
 20
-27.5989025318
 10
-50.1930806123
 20
-27.8547999187
 10
-50.0063973162
 20
-28.1060069077
 10
-49.8158611495
 20
-28.3525095488
 10
-49.6214831816
 20
-28.5943217921
 10
-49.4238445997
 20
-28.8307206417
 10
-49.2229356835
 20
-29.0616904695
 10
-49.0187661534
 20
-29.2872469037
 10
-48.8119463578
 20
-29.506713833
 10
-48.6024686662
 20
-29.7200733265
 10
-48.3903407093
 20
-29.9273433152
 10
-48.1761957269
 20
-30.1279014808
 10
-47.9600276405
 20
-30.3217284109
 10
-47.7418425288
 20
-30.5088435179
 10
-47.5222918676
 20
-30.6886827208
 10
-47.3013713057
 20
-30.8612250478
 10
-47.0790851943
 20
-31.0264914707
 10
-46.8560980631
 20
-31.1839808236
 10
-46.6326314218
 20
-31.3335260512
 10
-46.4084637606
 20
-31.4752942088
 10
-46.1835950795
 20
-31.6092852963
  0
LWPOLYLINE
  5
26E
100
AcDbEntity
  8
IMPORT_IGES
100
AcDbPolyline
 62
7
  6
CONTINUOUS
 90
59
 70
0
 10
-53.6059825111
 20
-25.0972228787
 10
-53.8486107809
 20
-24.4893284924
 10
-53.9820690682
 20
-24.1724992534
 10
-54.1219078613
 20
-23.8572336854
 10
-54.2682889598
 20
-23.5432039161
 10
-54.421050564
 20
-23.2307378179
 10
-54.5797072748
 20
-22.9208190086
 10
-54.744284907
 20
-22.6134495042
 10
-54.9147576458
 20
-22.3086272887
 10
-55.090562648
 20
-22.0073299326
 10
-55.2716486629
 20
-21.7096662729
 10
-55.4580669411
 20
-21.4155274727
 10
-55.649408391
 20
-21.1255645908
 10
-55.8457640599
 20
-20.8396682569
 10
-56.0470429005
 20
-20.5579478414
 10
-56.2525626792
 20
-20.2813825148
 10
-56.46232543
 20
-20.0100152455
 10
-56.676329119
 20
-19.7438030651
 10
-56.893885411
 20
-19.4835962385
 10
-57.1149911873
 20
-19.2294327166
 10
-57.3396495667
 20
-18.9812745486
 10
-57.5671815706
 20
-18.7398581464
 10
-57.7975657998
 20
-18.505227554
 10
-58.0308236534
 20
-18.2773387274
 10
-58.2663403509
 20
-18.0567959478
 10
-58.5041666978
 20
-17.8435775719
 10
-58.7442518886
 20
-17.637705243
 10
-58.9858287267
 20
-17.4398481719
 10
-59.2288985508
 20
-17.2500390803
 10
-59.4734600222
 20
-17.0682452466
 10
-59.7187419285
 20
-16.8950377158
 10
-59.9647364783
 20
-16.7304519857
 10
-60.2114514631
 20
-16.5744525587
 10
-60.4581390444
 20
-16.427503987
 10
-60.7047918985
 20
-16.2896367489
 10
-60.9514173491
 20
-16.1608203662
 10
-61.1972895298
 20
-16.0414279556
 10
-61.4424125473
 20
-15.9314838615
 10
-61.6867822948
 20
-15.8309637395
 10
-61.9296605857
 20
-15.740167674
 10
-62.1710517815
 20
-15.6591243689
 10
-62.4109515207
 20
-15.5878051204
 10
-62.6486085316
 20
-15.5264239014
 10
-62.8839816177
 20
-15.4750153159
 10
-63.1171119754
 20
-15.4335447601
 10
-63.347371923
 20
-15.4021223954
 10
-63.5747788307
 20
-15.3807692838
 10
-63.7993153282
 20
-15.3694643633
 10
-64.0203016223
 20
-15.3682546104
 10
-64.2377303995
 20
-15.3771713153
 10
-64.4516089733
 20
-15.3961831877
 10
-64.6612794899
 20
-15.4252433334
 10
-64.8667451484
 20
-15.4643923112
 10
-65.0680027497
 20
-15.5135895622
 10
-65.2643848433
 20
-15.5726665154
 10
-65.4558136819
 20
-15.6416226592
 10
-65.6423670127
 20
-15.7204585051
 10
-65.823610627
 20
-15.8090070166
 10
-65.9579690995
 20
-15.8828865278
  0
LWPOLYLINE
  5
26F
100
AcDbEntity
  8
IMPORT_IGES
100
AcDbPolyline
 62
7
  6
CONTINUOUS
 90
22
 70
0
 10
-71.7713382904
 20
-16.8352430561
 10
-71.5505953872
 20
-16.9539088106
 10
-71.3306449413
 20
-17.0642384844
 10
-71.1114869526
 20
-17.1662320773
 10
-70.8929120805
 20
-17.2599694622
 10
-70.6751296657
 20
-17.3453707662
 10
-70.4587677302
 20
-17.4221963711
 10
-70.2438306113
 20
-17.4904219908
 10
-70.0303139717
 20
-17.5500719113
 10
-69.8188328215
 20
-17.6009793729
 10
-69.6093930677
 20
-17.643119722
 10
-69.4019888033
 20
-17.6765176121
 10
-69.1972173173
 20
-17.7010802434
 10
-68.9950859218
 20
-17.7167827026
 10
-68.7955873047
 20
-17.723649903
 10
-68.5992968183
 20
-17.7216637844
 10
-68.4062236881
 20
-17.7107993618
 10
-68.2163586886
 20
-17.6910816203
 10
-68.0302494955
 20
-17.6625674547
 10
-67.8479065509
 20
-17.6252320066
 10
-67.6693194128
 20
-17.5791001345
 10
-67.662029526
 20
-17.5768085204
  0
LWPOLYLINE
  5
270
100
AcDbEntity
  8
IMPORT_IGES
100
AcDbPolyline
 62
7
  6
CONTINUOUS
 90
10
 70
0
 10
80.9637264459
 20
-105.0225552148
 10
81.1368645934
 20
-105.1190029608
 10
81.3093660841
 20
-105.208162167
 10
81.4812309179
 20
-105.2900328332
 10
81.6526693111
 20
-105.3646965851
 10
81.8234710473
 20
-105.4320717971
 10
81.9930054783
 20
-105.4919135926
 10
82.1612668423
 20
-105.5441929096
 10
82.3282609011
 20
-105.5889388102
 10
82.4132953473
 20
-105.6080222645
  0
LWPOLYLINE
  5
271
100
AcDbEntity
  8
IMPORT_IGES
100
AcDbPolyline
 62
7
  6
CONTINUOUS
 90
22
 70
0
 10
55.3759832349
 20
-90.2485129746
 10
55.6008535453
 20
-90.3741954652
 10
55.8250227225
 20
-90.4912912119
 10
56.0484907665
 20
-90.5998002146
 10
56.2714791893
 20
-90.6998112016
 10
56.493766479
 20
-90.7912354447
 10
56.714688099
 20
-90.8738067593
 10
56.9342396963
 20
-90.9474991479
 10
57.1524256241
 20
-91.0123386079
 10
57.3685944053
 20
-91.0681369475
 10
57.5827399594
 20
-91.1148677342
 10
57.7948683671
 20
-91.1525574005
 10
58.0043463927
 20
-91.1810970524
 10
58.2111664039
 20
-91.200459947
 10
58.415336033
 20
-91.2106728272
 10
58.6162449416
 20
-91.2117070279
 10
58.8138834077
 20
-91.203535696
 10
59.0082611532
 20
-91.1861856846
 10
59.198797006
 20
-91.159708888
 10
59.3854798952
 20
-91.1240785736
 10
59.5683208917
 20
-91.0793214739
 10
59.6186117799
 20
-91.0641732078
  0
LINE
  5
272
100
AcDbEntity
  8
IMPORT_IGES
100
AcDbLine
 62
7
  6
CONTINUOUS
 10
53.9617696725
 20
-91.0650621612
 11
-47.5978086418
 21
-32.425834483
  0
LINE
  5
273
100
AcDbEntity
  8
IMPORT_IGES
100
AcDbLine
 62
7
  6
CONTINUOUS
 10
55.3759832349
 20
-90.2485129746
 11
-46.1835950795
 21
-31.6092852963
  0
LWPOLYLINE
  5
274
100
AcDbEntity
  8
IMPORT_IGES
100
AcDbPolyline
 62
7
  6
CONTINUOUS
 90
39
 70
0
 10
-84.4995172935
 20
-10.9151328397
 10
-84.4444348517
 20
-10.9476069792
 10
-84.3335283116
 20
-11.0169599555
 10
-84.2229172923
 20
-11.0915256648
 10
-84.1125995239
 20
-11.1712764725
 10
-84.0031570549
 20
-11.2557895967
 10
-83.8945955328
 20
-11.3450896604
 10
-83.7869093102
 20
-11.4391520405
 10
-83.6806634928
 20
-11.5374800859
 10
-83.5758689829
 20
-11.640092106
 10
-83.4725148783
 20
-11.7469697913
 10
-83.3711335781
 20
-11.8575615623
 10
-83.2717324149
 20
-11.97188911
 10
-83.1743040561
 20
-12.0899307433
 10
-83.0793589023
 20
-12.21106981
 10
-82.9869058682
 20
-12.3353296307
 10
-82.8969360391
 20
-12.4626868848
 10
-82.8099330715
 20
-12.592454958
 10
-82.7259181881
 20
-12.724639436
 10
-82.6448701663
 20
-12.859234733
 10
-82.5672089943
 20
-12.9955374786
 10
-82.4929552824
 20
-13.1335479509
 10
-82.4220884203
 20
-13.2732658716
 10
-82.3549665652
 20
-13.4139870358
 10
-82.2915969795
 20
-13.5557484394
 10
-82.2319724008
 20
-13.6985130863
 10
-82.176429199
 20
-13.8414657835
 10
-82.1250135588
 20
-13.9845222796
 10
-82.0776792956
 20
-14.127766826
 10
-82.034624225
 20
-14.270636983
 10
-81.9958379369
 20
-14.413224195
 10
-81.9613308415
 20
-14.5554370177
 10
-81.9313319854
 20
-14.6964386791
 10
-81.905875497
 20
-14.8362193763
 10
-81.884927248
 20
-14.9747889122
 10
-81.8686138999
 20
-15.1113399232
 10
-81.8569776731
 20
-15.2456032881
 10
-81.8499763473
 20
-15.3778481281
 10
-81.8476099223
 20
-15.5080744432
  0
LWPOLYLINE
  5
275
100
AcDbEntity
  8
IMPORT_IGES
100
AcDbPolyline
 62
7
  6
CONTINUOUS
 90
33
 70
0
 10
-47.5978086418
 20
-32.425834483
 10
-47.8226789523
 20
-32.2918423757
 10
-48.0468481294
 20
-32.1500731756
 10
-48.2703161734
 20
-32.0005268826
 10
-48.4933045963
 20
-31.8430364283
 10
-48.7155918859
 20
-31.6777688811
 10
-48.9365135059
 20
-31.5052254465
 10
-49.1560651033
 20
-31.3253851537
 10
-49.374251031
 20
-31.1382689734
 10
-49.5904198122
 20
-30.944441023
 10
-49.8045653664
 20
-30.7438818914
 10
-50.016693774
 20
-30.5366109897
 10
-50.2261717996
 20
-30.3232506684
 10
-50.4329918108
 20
-30.1037829982
 10
-50.63716144
 20
-29.8782259084
 10
-50.8380703486
 20
-29.6472555374
 10
-51.0357088146
 20
-29.4108562589
 10
-51.2300865602
 20
-29.1690436992
 10
-51.420622413
 20
-28.9225408757
 10
-51.6073053022
 20
-28.6713338402
 10
-51.7901462986
 20
-28.415436541
 10
-51.9685974425
 20
-28.15561384
 10
-52.142645796
 20
-27.8918544089
 10
-52.3123042969
 20
-27.6241695762
 10
-52.477063799
 20
-27.3533581894
 10
-52.6369101494
 20
-27.0794108808
 10
-52.791857501
 20
-26.8023370182
 10
-52.9414391661
 20
-26.5229635527
 10
-53.0856397065
 20
-26.2412833048
 10
-53.2244745604
 20
-25.9573034541
 10
-53.3575233539
 20
-25.6718724896
 10
-53.4846459626
 20
-25.385273241
 10
-53.6059825111
 20
-25.0972228787
  0
LWPOLYLINE
  5
276
100
AcDbEntity
  8
IMPORT_IGES
100
AcDbPolyline
 62
7
  6
CONTINUOUS
 90
46
 70
0
 10
-73.1855518528
 20
-17.6517922427
 10
-73.3586900004
 20
-17.5483043958
 10
-73.531191491
 20
-17.4382632043
 10
-73.7030563249
 20
-17.3216686684
 10
-73.874494718
 20
-17.1983596612
 10
-74.0452964543
 20
-17.0684973094
 10
-74.2148308852
 20
-16.9325649936
 10
-74.3830922493
 20
-16.7905403051
 10
-74.550086308
 20
-16.6424456524
 10
-74.7151996975
 20
-16.4888316422
 10
-74.8783783771
 20
-16.3297356077
 10
-75.0396763875
 20
-16.1651202156
 10
-75.1986424867
 20
-15.9954240726
 10
-75.3553594644
 20
-15.82053001
 10
-75.509744531
 20
-15.6405551964
 10
-75.6610980759
 20
-15.456289744
 10
-75.8093710908
 20
-15.2677490682
 10
-75.954612584
 20
-15.0749177535
 10
-76.0962699694
 20
-14.8785396664
 10
-76.2343213384
 20
-14.6786108129
 10
-76.3687885995
 20
-14.4751351869
 10
-76.4991848922
 20
-14.2688686367
 10
-76.6254911246
 20
-14.0598085412
 10
-76.7477263887
 20
-13.8479575214
 10
-76.8654610997
 20
-13.6340792896
 10
-76.978676962
 20
-13.4181746505
 10
-77.0873922714
 20
-13.2002427992
 10
-77.19123233
 20
-12.9810450334
 10
-77.2901858063
 20
-12.7605669295
 10
-77.3842640318
 20
-12.538822911
 10
-77.4731263033
 20
-12.3166175461
 10
-77.556765853
 20
-12.0938999468
 10
-77.6351894488
 20
-11.8707210011
 10
-77.7080766908
 20
-11.6480379407
 10
-77.7753728269
 20
-11.4259732671
 10
-77.8371326093
 20
-11.2044044788
 10
-77.893199894
 20
-10.9839213029
 10
-77.9435821286
 20
-10.764456404
 10
-77.9882718655
 20
-10.5460771176
 10
-78.0270906183
 20
-10.3295751768
 10
-78.0600180088
 20
-10.114954978
 10
-78.0870744152
 20
-9.9022121248
 10
-78.1081424848
 20
-9.6921251613
 10
-78.1231831003
 20
-9.4849536019
 10
-78.1322353791
 20
-9.2804379321
 10
-78.1352993211
 20
-9.0785781519
  0
LWPOLYLINE
  5
277
100
AcDbEntity
  8
IMPORT_IGES
100
AcDbPolyline
 62
7
  6
CONTINUOUS
 90
34
 70
0
 10
79.5495128835
 20
-105.8391044015
 10
79.3287699803
 20
-105.7028617846
 10
79.1088195344
 20
-105.5591981966
 10
78.8896615457
 20
-105.4081136376
 10
78.6710866736
 20
-105.2494462389
 10
78.4533042587
 20
-105.0833578692
 10
78.2369423232
 20
-104.9103341343
 10
78.0220052043
 20
-104.7303557567
 10
77.8084885647
 20
-104.5434420138
 10
77.5970074145
 20
-104.350136344
 10
77.3875676607
 20
-104.1504209153
 10
77.1801633963
 20
-103.9443135597
 10
76.9753919103
 20
-103.7324112116
 10
76.7732605148
 20
-103.514697402
 10
76.5737618977
 20
-103.2911885999
 10
76.3774714113
 20
-103.0625311478
 10
76.1843982811
 20
-102.8287107141
 10
75.9945332816
 20
-102.5897416302
 10
75.8084240885
 20
-102.3463132335
 10
75.626081144
 20
-102.0984127236
 10
75.4474940059
 20
-101.8460529008
 10
75.2731790235
 20
-101.5899615027
 10
75.1031483472
 20
-101.3301281498
 10
74.9373898266
 20
-101.0665632216
 10
74.7763833604
 20
-100.8000255941
 10
74.6201421961
 20
-100.5305066751
 10
74.468653086
 20
-100.2580150568
 10
74.3223561861
 20
-99.9833353916
 10
74.1812659113
 20
-99.7064610875
 10
74.0453678465
 20
-99.4273987366
 10
73.915058902
 20
-99.1469527675
 10
73.7904713811
 20
-98.8653913231
 10
73.6714729805
 20
-98.5824462605
 10
73.4310064409
 20
-97.9797223292
  0
LWPOLYLINE
  5
278
100
AcDbEntity
  8
IMPORT_IGES
100
AcDbPolyline
 62
7
  6
CONTINUOUS
 90
9
 70
0
 10
-67.3075127767
 20
-17.1829482732
 10
-67.4265120125
 20
-17.3284778424
 10
-67.5511003767
 20
-17.4661694647
 10
-67.6814101819
 20
-17.5961384935
 10
-67.8173091156
 20
-17.7182695754
 10
-67.9584002396
 20
-17.83221665
 10
-68.1046979682
 20
-17.9379564777
 10
-68.2561878871
 20
-18.0355122982
 10
-68.3178619518
 20
-18.0720309177
  0
LWPOLYLINE
  5
279
100
AcDbEntity
  8
IMPORT_IGES
100
AcDbPolyline
 62
7
  6
CONTINUOUS
 90
16
 70
0
 10
-84.0848981312
 20
-11.5476972302
 10
-84.1131145754
 20
-11.5682498091
 10
-84.1550268917
 20
-11.6045847224
 10
-84.1941697126
 20
-11.6446528195
 10
-84.2304954413
 20
-11.6884376331
 10
-84.2640516745
 20
-11.7359556306
 10
-84.2946410765
 20
-11.7869525297
 10
-84.3222735512
 20
-11.8414922851
 10
-84.3469391945
 20
-11.899510942
 10
-84.3684109585
 20
-11.9605623539
 10
-84.3866563568
 20
-12.0246790118
 10
-84.4017078757
 20
-12.0918284246
 10
-84.4134359258
 20
-12.1614669722
 10
-84.4217973105
 20
-12.233413448
 10
-84.4268352265
 20
-12.3078490587
 10
-84.4285496737
 20
-12.3847738043
  0
LINE
  5
27A
100
AcDbEntity
  8
IMPORT_IGES
100
AcDbLine
 62
250
  6
CONTINUOUS
 10
-85.5952758626
 20
-10.4865731298
 11
-88.5651243436
 21
-12.2013264218
  0
LWPOLYLINE
  5
27B
100
AcDbEntity
  8
IMPORT_IGES
100
AcDbPolyline
 62
7
  6
CONTINUOUS
 90
28
 70
0
 10
-78.978214847
 20
106.8202557278
 10
-79.1703062934
 20
107.3308578905
 10
-79.2566935713
 20
107.5761830924
 10
-79.3372701965
 20
107.8212203674
 10
-79.4121224873
 20
108.0662695911
 10
-79.4811641253
 20
108.3110308879
 10
-79.5441361553
 20
108.5546046318
 10
-79.601012779
 20
108.7970038073
 10
-79.6518197946
 20
109.0382154298
 10
-79.6963756424
 20
109.2773009199
 10
-79.7346434322
 20
109.5141058981
 10
-79.7666600542
 20
109.7487847438
 10
-79.7923546186
 20
109.9808620161
 10
-79.8117298419
 20
110.2104918976
 10
-79.8247830078
 20
110.4375202057
 10
-79.8314350769
 20
110.661008952
 10
-79.8316533577
 20
110.8808990627
 10
-79.8254705418
 20
111.0972496115
 10
-79.8129056653
 20
111.3092998312
 10
-79.7939220263
 20
111.5170736063
 10
-79.7685563267
 20
111.7205470522
 10
-79.7369377071
 20
111.9188877476
 10
-79.699071546
 20
112.1119558301
 10
-79.654952465
 20
112.2998911621
 10
-79.6046934696
 20
112.4822809087
 10
-79.5482823057
 20
112.6591627129
 10
-79.4857312274
 20
112.8304989317
 10
-79.4470063069
 20
112.9238714822
  0
LWPOLYLINE
  5
27C
100
AcDbEntity
  8
IMPORT_IGES
100
AcDbPolyline
 62
7
  6
CONTINUOUS
 90
18
 70
0
 10
-77.5640012846
 20
107.6368049145
 10
-77.469502715
 20
107.3720329726
 10
-77.3803990915
 20
107.1074781229
 10
-77.2966244045
 20
106.8429179059
 10
-77.2182446635
 20
106.5785747811
 10
-77.1454578974
 20
106.3151161273
 10
-77.0782782707
 20
106.0525441791
 10
-77.0166916189
 20
105.7908567021
 10
-76.9608534771
 20
105.5307143711
 10
-76.9107784054
 20
105.2721210998
 10
-76.8664518438
 20
105.0150729746
 10
-76.8279856474
 20
104.7602189298
 10
-76.7953946603
 20
104.507564528
 10
-76.7686640386
 20
104.2571042065
 10
-76.7478611052
 20
104.0094702118
 10
-76.7330083013
 20
103.7648732926
 10
-76.7240831858
 20
103.5231027002
 10
-76.7210857587
 20
103.2841584344
  0
LINE
  5
27D
100
AcDbEntity
  8
IMPORT_IGES
100
AcDbLine
 62
7
  6
CONTINUOUS
 10
-82.2062555025
 20
-14.8455285494
 11
-82.2410669023
 21
-14.8671584841
  0
LINE
  5
27E
100
AcDbEntity
  8
IMPORT_IGES
100
AcDbLine
 62
250
  6
CONTINUOUS
 10
-88.5651243436
 20
-14.6510528916
 11
-89.4843631592
 21
-15.1818098629
  0
LINE
  5
27F
100
AcDbEntity
  8
IMPORT_IGES
100
AcDbLine
 62
250
  6
CONTINUOUS
 10
-76.7210857587
 20
-8.2620289652
 11
-78.1352993211
 21
-9.0785781519
  0
LINE
  5
280
100
AcDbEntity
  8
IMPORT_IGES
100
AcDbLine
 62
7
  6
CONTINUOUS
 10
-73.1855518528
 20
-17.6517922427
 11
-71.7713382904
 21
-16.8352430561
  0
LINE
  5
281
100
AcDbEntity
  8
IMPORT_IGES
100
AcDbLine
 62
7
  6
CONTINUOUS
 10
-84.1411587109
 20
-11.5763149571
 11
-84.1291959856
 21
-11.5695796413
  0
LWPOLYLINE
  5
282
100
AcDbEntity
  8
IMPORT_IGES
100
AcDbPolyline
 62
7
  6
CONTINUOUS
 90
49
 70
0
 10
-82.2410669023
 20
-14.8671584841
 10
-82.2530296276
 20
-14.8738937999
 10
-82.3021359753
 20
-14.8981515275
 10
-82.3534524595
 20
-14.9182414237
 10
-82.4068514993
 20
-14.934113542
 10
-82.4622003363
 20
-14.9457284217
 10
-82.5193613645
 20
-14.9530571864
 10
-82.5781924726
 20
-14.9560816156
 10
-82.6385473973
 20
-14.9547941902
 10
-82.7002760866
 20
-14.9491981108
 10
-82.7632250734
 20
-14.9393072902
 10
-82.8272378565
 20
-14.9251463185
 10
-82.89215529
 20
-14.9067504022
 10
-82.9578159791
 20
-14.8841652764
 10
-83.0240566808
 20
-14.8574470913
 10
-83.0907127103
 20
-14.8266622724
 10
-83.1576183503
 20
-14.7918873558
 10
-83.2246072629
 20
-14.7532087973
 10
-83.2915129029
 20
-14.7107227579
 10
-83.3581689324
 20
-14.6645348646
 10
-83.4244096341
 20
-14.6147599478
 10
-83.4900703232
 20
-14.5615217557
 10
-83.5549877567
 20
-14.504952647
 10
-83.6190005398
 20
-14.4451932613
 10
-83.6819495266
 20
-14.3823921698
 10
-83.7436782159
 20
-14.316705506
 10
-83.8040331406
 20
-14.2482965773
 10
-83.8628642487
 20
-14.1773354591
 10
-83.9200252769
 20
-14.1039985718
 10
-83.9753741139
 20
-14.0284682425
 10
-84.0287731537
 20
-13.9509322516
 10
-84.0800896379
 20
-13.8715833657
 10
-84.1291959856
 20
-13.7906188586
 10
-84.1759701107
 20
-13.708240021
 10
-84.2202957254
 20
-13.6246516594
 10
-84.2620626292
 20
-13.5400615878
 10
-84.301166983
 20
-13.4546801105
 10
-84.3375115672
 20
-13.3687194992
 10
-84.3710060234
 20
-13.2823934655
 10
-84.4015670792
 20
-13.1959166296
 10
-84.429118755
 20
-13.1095039865
 10
-84.4535925529
 20
-13.0233703717
 10
-84.4749276273
 20
-12.9377299269
 10
-84.4930709357
 20
-12.8527955677
 10
-84.5079773711
 20
-12.7687784544
 10
-84.5196098737
 20
-12.6858874666
 10
-84.5279395232
 20
-12.6043286846
 10
-84.5329456109
 20
-12.5243048762
 10
-84.5346156909
 20
-12.4460149933
  0
LWPOLYLINE
  5
283
100
AcDbEntity
  8
IMPORT_IGES
100
AcDbPolyline
 62
7
  6
CONTINUOUS
 90
9
 70
0
 10
-84.1291959856
 20
-11.5695796413
 10
-84.0800896379
 20
-11.5453219137
 10
-84.0287731537
 20
-11.5252320174
 10
-83.9753741139
 20
-11.5093598991
 10
-83.9200252769
 20
-11.4977450194
 10
-83.8628642487
 20
-11.4904162548
 10
-83.8040331406
 20
-11.4873918255
 10
-83.7436782159
 20
-11.488679251
 10
-83.7322771666
 20
-11.4897128251
  0
LWPOLYLINE
  5
284
100
AcDbEntity
  8
IMPORT_IGES
100
AcDbPolyline
 62
7
  6
CONTINUOUS
 90
10
 70
0
 10
-65.9579690995
 20
-15.8828865278
 10
-65.9995962998
 20
-15.9073230699
 10
-66.1702722561
 20
-16.0153517889
 10
-66.3350489621
 20
-16.1327615078
 10
-66.4938981732
 20
-16.259588958
 10
-66.6468481341
 20
-16.3957974081
 10
-66.7933940441
 20
-16.5409449991
 10
-66.9333676366
 20
-16.6948844443
 10
-67.0669371784
 20
-16.8577630303
 10
-67.3075127767
 20
-17.1829482732
  0
LINE
  5
285
100
AcDbEntity
  8
IMPORT_IGES
100
AcDbLine
 62
7
  6
CONTINUOUS
 10
-64.5436819906
 20
-15.0662948752
 11
-65.957895553
 21
-15.8828440618
  0
LINE
  5
286
100
AcDbEntity
  8
IMPORT_IGES
100
AcDbLine
 62
250
  6
CONTINUOUS
 10
-82.4132953473
 20
-27.4292585641
 11
-81.4940565317
 21
-26.8985015928
  0
LINE
  5
287
100
AcDbEntity
  8
IMPORT_IGES
100
AcDbLine
 62
250
  6
CONTINUOUS
 10
-80.7871547512
 20
-27.3066578213
 11
-77.1099944884
 21
-25.1835115713
  0
LWPOLYLINE
  5
288
100
AcDbEntity
  8
IMPORT_IGES
100
AcDbPolyline
 62
7
  6
CONTINUOUS
 90
26
 70
0
 10
-68.3178619518
 20
-18.0720309177
 10
-68.4124298152
 20
-18.1246077699
 10
-68.5734369991
 20
-18.2052190019
 10
-68.7391961922
 20
-18.2773698852
 10
-68.9092274738
 20
-18.3408557518
 10
-69.0835429928
 20
-18.3956521909
 10
-69.2621306002
 20
-18.4417836134
 10
-69.4444739282
 20
-18.4791185841
 10
-69.6305834175
 20
-18.5076322442
 10
-69.8204486274
 20
-18.5273494524
 10
-70.0135218679
 20
-18.5382133502
 10
-70.2098123629
 20
-18.5401989524
 10
-70.4093108886
 20
-18.5333312441
 10
-70.6114420829
 20
-18.5176283215
 10
-70.8162132563
 20
-18.4930652718
 10
-71.0236170984
 20
-18.4596670077
 10
-71.2330563154
 20
-18.4175263642
 10
-71.4445368127
 20
-18.3666186886
 10
-71.6580526849
 20
-18.3069686335
 10
-71.8729889225
 20
-18.2387429918
 10
-72.089349861
 20
-18.1619174784
 10
-72.3071311647
 20
-18.0765163785
 10
-72.5257048174
 20
-17.9827793401
 10
-72.7448614803
 20
-17.880786246
 10
-72.9648104921
 20
-17.7704572136
 10
-73.1855518528
 20
-17.6517922427
  0
LWPOLYLINE
  5
289
100
AcDbEntity
  8
IMPORT_IGES
100
AcDbPolyline
 62
7
  6
CONTINUOUS
 90
59
 70
0
 10
-64.5437557712
 20
-15.0663374763
 10
-64.4110278094
 20
-14.9933111502
 10
-64.2299579694
 20
-14.9047315216
 10
-64.0435553129
 20
-14.8258340404
 10
-63.8522288969
 20
-14.7567974224
 10
-63.6558876789
 20
-14.6976174234
 10
-63.4546227014
 20
-14.6482982877
 10
-63.2491161489
 20
-14.609031464
 10
-63.0393659838
 20
-14.5798622715
 10
-62.8253742436
 20
-14.560745391
 10
-62.6078292256
 20
-14.5517363142
 10
-62.3867340456
 20
-14.5528693925
 10
-62.1620855876
 20
-14.5641102745
 10
-61.9345628015
 20
-14.5854113973
 10
-61.704187084
 20
-14.6167920972
 10
-61.4709370383
 20
-14.6582330379
 10
-61.2354274242
 20
-14.7096286479
 10
-60.9976074356
 20
-14.7710159475
 10
-60.7575278786
 20
-14.8423579165
 10
-60.5159559308
 20
-14.9234379229
 10
-60.2728902508
 20
-15.0142902357
 10
-60.02833218
 20
-15.1148805858
 10
-59.7830529203
 20
-15.2248895341
 10
-59.5370602604
 20
-15.3443435831
 10
-59.2903464117
 20
-15.4732162303
 10
-59.0436592095
 20
-15.6111085278
 10
-58.7970059758
 20
-15.758042499
 10
-58.5503793887
 20
-15.9139961206
 10
-58.3045053187
 20
-16.0785043759
 10
-58.0593796568
 20
-16.2515963523
 10
-57.8150065119
 20
-16.4332429624
 10
-57.5721240813
 20
-16.6228919275
 10
-57.3307280008
 20
-16.8205769889
 10
-57.0908226346
 20
-17.0262644053
 10
-56.8531592728
 20
-17.2393006733
 10
-56.617779111
 20
-17.459672829
 10
-56.3846409536
 20
-17.6873938364
 10
-56.1543725036
 20
-17.9218490835
 10
-55.9269563879
 20
-18.1630796906
 10
-55.7024099797
 20
-18.4110445373
 10
-55.4814131012
 20
-18.6650056512
 10
-55.2639730632
 20
-18.9249858792
 10
-55.0500825549
 20
-19.1909623743
 10
-54.8403994656
 20
-19.462128622
 10
-54.6349205928
 20
-19.7385288771
 10
-54.433649139
 20
-20.0201188848
 10
-54.2372526011
 20
-20.3059593665
 10
-54.0458087304
 20
-20.5959600368
 10
-53.8592397757
 20
-20.8902111811
 10
-53.6779799807
 20
-21.1880443777
 10
-53.5019775634
 20
-21.4895742899
 10
-53.3312843059
 20
-21.7946862545
 10
-53.1664897982
 20
-22.1023678603
 10
-53.0076222832
 20
-22.4126232268
 10
-52.854653518
 20
-22.7254482345
 10
-52.7080883646
 20
-23.0398181143
 10
-52.5680951102
 20
-23.3553912765
 10
-52.4345054674
 20
-23.6725093107
 10
-52.1917680746
 20
-24.280675787
  0
LWPOLYLINE
  5
28A
100
AcDbEntity
  8
IMPORT_IGES
100
AcDbPolyline
 62
7
  6
CONTINUOUS
 90
12
 70
0
 10
-85.5943375224
 20
-10.5569546544
 10
-85.5273723368
 20
-10.5611846938
 10
-85.4240660013
 20
-10.5735733494
 10
-85.3193111644
 20
-10.5918908662
 10
-85.213096359
 20
-10.6161688377
 10
-85.1054330523
 20
-10.6463756703
 10
-84.996888882
 20
-10.6823572358
 10
-84.887457975
 20
-10.7241454098
 10
-84.7771462044
 20
-10.7717083166
 10
-84.6665388271
 20
-10.8247962001
 10
-84.5556346427
 20
-10.8834391013
 10
-84.4995172935
 20
-10.9151328397
  0
LINE
  5
28B
100
AcDbEntity
  8
IMPORT_IGES
100
AcDbLine
 62
250
  6
CONTINUOUS
 10
-52.3073194364
 20
-23.9911722169
 11
-53.7215329988
 21
-24.8077214036
  0
LINE
  5
28C
100
AcDbEntity
  8
IMPORT_IGES
100
AcDbLine
 62
7
  6
CONTINUOUS
 10
-84.4992603518
 20
44.8088152108
 11
-85.5952758626
 21
45.4416408305
  0
LINE
  5
28D
100
AcDbEntity
  8
IMPORT_IGES
100
AcDbLine
 62
7
  6
CONTINUOUS
 10
-84.4992603518
 20
46.033520626
 11
-85.5952758626
 21
46.6663462457
  0
LINE
  5
28E
100
AcDbEntity
  8
IMPORT_IGES
100
AcDbLine
 62
250
  6
CONTINUOUS
 10
-47.5978086418
 20
-32.425834483
 11
-46.1835950795
 21
-31.6092852963
  0
LINE
  5
28F
100
AcDbEntity
  8
IMPORT_IGES
100
AcDbLine
 62
250
  6
CONTINUOUS
 10
93.3380951166
 20
11.5269788726
 11
94.752308679
 21
11.5269788726
  0
LINE
  5
290
100
AcDbEntity
  8
IMPORT_IGES
100
AcDbLine
 62
7
  6
CONTINUOUS
 10
-85.206367133
 20
51.3406168801
 11
-85.5952758626
 21
51.5651679064
  0
LINE
  5
291
100
AcDbEntity
  8
IMPORT_IGES
100
AcDbLine
 62
7
  6
CONTINUOUS
 10
-85.5952758626
 20
54.8310490136
 11
-85.206367133
 21
54.6064979873
  0
LINE
  5
292
100
AcDbEntity
  8
IMPORT_IGES
100
AcDbLine
 62
7
  6
CONTINUOUS
 10
-84.4992603518
 20
59.0970450547
 11
-85.5952758626
 21
59.7298706744
  0
LINE
  5
293
100
AcDbEntity
  8
IMPORT_IGES
100
AcDbLine
 62
7
  6
CONTINUOUS
 10
-85.5952758626
 20
60.9545760896
 11
-84.4992603518
 21
60.3217504699
  0
LWPOLYLINE
  5
294
100
AcDbEntity
  8
IMPORT_IGES
100
AcDbPolyline
 62
7
  6
CONTINUOUS
 90
37
 70
0
 10
-73.541259295
 20
85.8687251915
 10
-73.9712924817
 20
86.330900023
 10
-74.1810215382
 20
86.5660082821
 10
-74.3871587974
 20
86.8067724138
 10
-74.5899154264
 20
87.0534629025
 10
-74.7890802582
 20
87.3058092638
 10
-74.9840197918
 20
87.5630000441
 10
-75.1747205072
 20
87.8250500764
 10
-75.3611959244
 20
88.0919445277
 10
-75.5428531016
 20
88.3628274457
 10
-75.7196769065
 20
88.6377113639
 10
-75.8916824714
 20
88.9165837489
 10
-76.0583222507
 20
89.1985510483
 10
-76.2195789602
 20
89.4836221484
 10
-76.3754698842
 20
89.771788163
 10
-76.5254993298
 20
90.0621288817
 10
-76.6696490764
 20
90.3546513122
 10
-76.8079373446
 20
90.6493484468
 10
-76.9399231045
 20
90.9452790522
 10
-77.0655866123
 20
91.2424469935
 10
-77.1849476118
 20
91.5408484055
 10
-77.2976243044
 20
91.8395304595
 10
-77.4035957139
 20
92.1384938211
 10
-77.5028828166
 20
92.4377378247
 10
-77.5951667423
 20
92.7363076443
 10
-77.6804258004
 20
93.0342020235
 10
-77.7586816816
 20
93.3314222186
 10
-77.8296805879
 20
93.6270171724
 10
-77.8933997227
 20
93.9209817765
 10
-77.9498618827
 20
94.2133211392
 10
-77.9988816598
 20
94.5030995283
 10
-78.0404357756
 20
94.7903093144
 10
-78.0745475085
 20
95.074958127
 10
-78.1011012867
 20
95.356133122
 10
-78.1200585862
 20
95.633530018
 10
-78.131457931
 20
95.9074530964
 10
-78.1352993211
 20
96.1779023572
  0
LWPOLYLINE
  5
295
100
AcDbEntity
  8
IMPORT_IGES
100
AcDbPolyline
 62
7
  6
CONTINUOUS
 90
39
 70
0
 10
-72.1270566506
 20
86.6852871025
 10
-71.913687804
 20
86.4472340785
 10
-71.7036515258
 20
86.2038377512
 10
-71.4967665355
 20
85.9548677706
 10
-71.2932141136
 20
85.7005544866
 10
-71.0935381018
 20
85.4415889493
 10
-70.8977490387
 20
85.1779603449
 10
-70.7058363856
 20
84.9096794872
 10
-70.5183123689
 20
84.6374698676
 10
-70.3351901956
 20
84.3613256028
 10
-70.1564566586
 20
84.0812525762
 10
-69.9825843637
 20
83.7979919286
 10
-69.813579111
 20
83.5115240007
 10
-69.6494351003
 20
83.2218684518
 10
-69.4906075374
 20
82.9298254007
 10
-69.3371111609
 20
82.6353871987
 10
-69.1889312321
 20
82.3385614945
 10
-69.0464787406
 20
82.0401713531
 10
-68.9097711129
 20
81.7402151503
 10
-68.7787909225
 20
81.4386945102
 10
-68.6538968794
 20
81.1364373698
 10
-68.5351057085
 20
80.8334413854
 10
-68.4224006849
 20
80.5297089008
 10
-68.3160903438
 20
80.2260748843
 10
-68.2161925075
 20
79.9225398904
 10
-68.1226893538
 20
79.6191033647
 10
-68.0358359512
 20
79.3165986116
 10
-67.9556522473
 20
79.015038657
 10
-67.8821182945
 20
78.714410475
 10
-67.8154293196
 20
78.4155082932
 10
-67.7556010363
 20
78.1183320735
 10
-67.7026177308
 20
77.8228818538
 10
-67.6566274877
 20
77.5299519752
 10
-67.6176477758
 20
77.2395476593
 10
-67.5856611263
 20
76.9516636845
 10
-67.5607632165
 20
76.6670787266
 10
-67.542985939
 20
76.3860523443
 10
-67.5322974013
 20
76.1083249789
 10
-67.5286976033
 20
75.8338966303
  0
LWPOLYLINE
  5
296
100
AcDbEntity
  8
IMPORT_IGES
100
AcDbPolyline
 62
7
  6
CONTINUOUS
 90
10
 70
0
 10
72.3219301302
 20
19.7613530633
 10
72.3635573305
 20
19.7857896054
 10
72.5342332868
 20
19.8938183243
 10
72.6990099928
 20
20.0112280433
 10
72.8578592039
 20
20.1380554934
 10
73.0108091647
 20
20.2742639436
 10
73.1573550748
 20
20.4194115345
 10
73.2973286673
 20
20.5733509798
 10
73.4308982091
 20
20.7362295658
 10
73.6714738074
 20
21.0614148087
  0
LINE
  5
297
100
AcDbEntity
  8
IMPORT_IGES
100
AcDbLine
 62
250
  6
CONTINUOUS
 10
73.5580637
 20
20.9080472925
 11
74.9722772624
 21
21.7245964792
  0
LINE
  5
298
100
AcDbEntity
  8
IMPORT_IGES
100
AcDbLine
 62
7
  6
CONTINUOUS
 10
73.736070146
 20
20.5778597839
 11
72.3218565837
 21
19.7613105973
  0
LINE
  5
299
100
AcDbEntity
  8
IMPORT_IGES
100
AcDbLine
 62
250
  6
CONTINUOUS
 10
92.984541726
 20
26.8364870238
 11
87.6812408671
 21
23.7744275738
  0
LWPOLYLINE
  5
29A
100
AcDbEntity
  8
IMPORT_IGES
100
AcDbPolyline
 62
7
  6
CONTINUOUS
 90
14
 70
0
 10
74.6818229825
 20
21.9504974532
 10
74.7763908459
 20
22.0030743054
 10
74.9373980298
 20
22.0836855374
 10
75.1031572229
 20
22.1558364207
 10
75.2731885045
 20
22.2193222873
 10
75.4475040234
 20
22.2741187264
 10
75.6260916308
 20
22.3202501489
 10
75.8084349588
 20
22.3575851196
 10
75.9945444481
 20
22.3860987796
 10
76.1844096581
 20
22.4058159879
 10
76.3774828986
 20
22.4166798857
 10
76.5737733936
 20
22.4186654879
 10
76.7732719193
 20
22.4117977796
 10
76.9629534379
 20
22.3970620323
  0
LWPOLYLINE
  5
29B
100
AcDbEntity
  8
IMPORT_IGES
100
AcDbPolyline
 62
7
  6
CONTINUOUS
 90
5
 70
0
 10
-85.206367133
 20
52.8898317818
 10
-85.2586663602
 20
52.9089268321
 10
-85.3981021965
 20
52.9553899184
 10
-85.5408736197
 20
52.9986448725
 10
-85.5952758626
 20
53.0135499726
  0
LINE
  5
29C
100
AcDbEntity
  8
IMPORT_IGES
100
AcDbLine
 62
250
  6
CONTINUOUS
 10
94.3987552884
 20
26.4283307952
 11
93.9746387595
 21
26.1834512269
  0
LWPOLYLINE
  5
29D
100
AcDbEntity
  8
IMPORT_IGES
100
AcDbPolyline
 62
7
  6
CONTINUOUS
 90
58
 70
0
 10
73.4310064409
 20
-97.9797223292
 10
73.2975682365
 20
-97.6628897837
 10
73.157749087
 20
-97.3476199431
 10
73.0113872122
 20
-97.0335849281
 10
72.8586443923
 20
-96.7211126181
 10
72.7000059674
 20
-96.4111866511
 10
72.5354461212
 20
-96.1038090389
 10
72.3649906701
 20
-95.7989777696
 10
72.1892024025
 20
-95.4976704449
 10
72.0081325624
 20
-95.1999959037
 10
71.821729906
 20
-94.9058453071
 10
71.63040349
 20
-94.6158697397
 10
71.434062272
 20
-94.3299598236
 10
71.2327972945
 20
-94.0482249368
 10
71.0272907419
 20
-93.7716442975
 10
70.8175405768
 20
-93.5002608718
 10
70.6035488367
 20
-93.2340316937
 10
70.3860038187
 20
-92.9738070831
 10
70.1649086386
 20
-92.7196249894
 10
69.9402601807
 20
-92.4714474632
 10
69.7127373946
 20
-92.2300109757
 10
69.4823616771
 20
-91.9953595715
 10
69.2491116314
 20
-91.7674492061
 10
69.0136020172
 20
-91.546884217
 10
68.7757820287
 20
-91.333642955
 10
68.5357024717
 20
-91.1277470693
 10
68.2941305238
 20
-90.9298658455
 10
68.0510648438
 20
-90.7400320037
 10
67.806506773
 20
-90.5582128238
 10
67.5612275133
 20
-90.3849794311
 10
67.3152348535
 20
-90.2203673225
 10
67.0685210047
 20
-90.0643410012
 10
66.8218338026
 20
-89.9173651012
 10
66.5751805689
 20
-89.7794701006
 10
66.3285539818
 20
-89.6506255214
 10
66.0826799118
 20
-89.5312045637
 10
65.8375542498
 20
-89.42123157
 10
65.5931811049
 20
-89.3206821978
 10
65.3502986744
 20
-89.2298566201
 10
65.1089025939
 20
-89.1487835386
 10
64.8689972277
 20
-89.0774342516
 10
64.6313338659
 20
-89.0160228266
 10
64.3959537041
 20
-88.9645838715
 10
64.1628155466
 20
-88.9230827785
 10
63.9325470966
 20
-88.8916297914
 10
63.705130981
 20
-88.8702459685
 10
63.4805845728
 20
-88.8589102515
 10
63.2595876942
 20
-88.8576697095
 10
63.0421476563
 20
-88.866555632
 10
62.8282571479
 20
-88.8855367294
 10
62.6185740586
 20
-88.9145662015
 10
62.4130951858
 20
-88.9536846047
 10
62.211823732
 20
-89.0028513826
 10
62.0154271942
 20
-89.0618980654
 10
61.8239833235
 20
-89.1308241524
 10
61.6374143687
 20
-89.2096301443
 10
61.4561545737
 20
-89.2981490732
 10
61.3212516258
 20
-89.3723132623
  0
LWPOLYLINE
  5
29E
100
AcDbEntity
  8
IMPORT_IGES
100
AcDbPolyline
 62
7
  6
CONTINUOUS
 90
34
 70
0
 10
74.8451117714
 20
-97.1629031449
 10
75.0856873698
 20
-97.7658990586
 10
75.2046866056
 20
-98.0488459624
 10
75.3292749697
 20
-98.3304091047
 10
75.459584775
 20
-98.6108566303
 10
75.5954837086
 20
-98.8899203943
 10
75.7365748326
 20
-99.1667959623
 10
75.8828725612
 20
-99.44147674
 10
76.0343624801
 20
-99.7139693215
 10
76.1906044082
 20
-99.9834890556
 10
76.3516115922
 20
-100.2500273477
 10
76.5173707853
 20
-100.5135927923
 10
76.6874020668
 20
-100.7734265209
 10
76.8617175858
 20
-101.029518152
 10
77.0403051932
 20
-101.281878067
 10
77.2226485212
 20
-101.5297785423
 10
77.4087580105
 20
-101.7732067756
 10
77.5986232204
 20
-102.0121755691
 10
77.7916964609
 20
-102.2459956055
 10
77.987986956
 20
-102.4746525512
 10
78.1874854817
 20
-102.6981607397
 10
78.3896166759
 20
-102.9158738537
 10
78.5943878494
 20
-103.1277754222
 10
78.8017916914
 20
-103.3338819162
 10
79.0112309084
 20
-103.5335964307
 10
79.2227114057
 20
-103.7269011324
 10
79.436227278
 20
-103.9138138547
 10
79.6511635156
 20
-104.0937911926
 10
79.867524454
 20
-104.2668138677
 10
80.0853057578
 20
-104.4329011584
 10
80.3038794105
 20
-104.5915674954
 10
80.5230360733
 20
-104.7426510223
 10
80.7429850851
 20
-104.8863135954
 10
80.9637264459
 20
-105.0225552148
  0
LWPOLYLINE
  5
29F
100
AcDbEntity
  8
IMPORT_IGES
100
AcDbPolyline
 62
7
  6
CONTINUOUS
 90
9
 70
0
 10
73.6714738074
 20
21.0614148087
 10
73.7904730432
 20
21.2069443779
 10
73.9150614073
 20
21.3446360002
 10
74.0453712126
 20
21.474605029
 10
74.1812701463
 20
21.5967361109
 10
74.3223612702
 20
21.7106831855
 10
74.4686589988
 20
21.8164230132
 10
74.6201489177
 20
21.9139788336
 10
74.6818229825
 20
21.9504974532
  0
LWPOLYLINE
  5
2A0
100
AcDbEntity
  8
IMPORT_IGES
100
AcDbPolyline
 62
7
  6
CONTINUOUS
 90
4
 70
0
 10
75.4402035687
 20
22.2718238136
 10
75.3292724644
 20
22.161182556
 10
75.2046849435
 20
22.0234916579
 10
75.0856865428
 20
21.8779629656
  0
LINE
  5
2A1
100
AcDbEntity
  8
IMPORT_IGES
100
AcDbLine
 62
250
  6
CONTINUOUS
 10
99.9851238779
 20
15.7731645659
 11
100.4091629285
 21
16.0179993992
  0
LINE
  5
2A2
100
AcDbEntity
  8
IMPORT_IGES
100
AcDbLine
 62
250
  6
CONTINUOUS
 10
94.752308679
 20
11.5269788726
 11
100.0556095379
 21
14.5890383226
  0
LWPOLYLINE
  5
2A3
100
AcDbEntity
  8
IMPORT_IGES
100
AcDbPolyline
 62
7
  6
CONTINUOUS
 90
10
 70
0
 10
75.0856865428
 20
21.8779629656
 10
74.8452200032
 20
21.5529237667
 10
74.7117817989
 20
21.3901823148
 10
74.5719626494
 20
21.2363721234
 10
74.4256007746
 20
21.0913521327
 10
74.2728579547
 20
20.9552634025
 10
74.1142195297
 20
20.8285291122
 10
73.9496596836
 20
20.7111810855
 10
73.7792042324
 20
20.6031874986
 10
73.7361439266
 20
20.5779023851
  0
LINE
  5
2A4
100
AcDbEntity
  8
IMPORT_IGES
100
AcDbLine
 62
250
  6
CONTINUOUS
 10
87.6812408671
 20
23.7744275738
 11
86.9741340859
 21
22.5496827037
  0
LWPOLYLINE
  5
2A5
100
AcDbEntity
  8
IMPORT_IGES
100
AcDbPolyline
 62
7
  6
CONTINUOUS
 90
14
 70
0
 10
-73.9712939803
 20
69.510443632
 10
-73.541270213
 20
69.4760267374
 10
-73.3279013664
 20
69.4676867656
 10
-73.1178650882
 20
69.4685384635
 10
-72.9109800978
 20
69.4786028431
 10
-72.707427676
 20
69.4978588925
 10
-72.5077516642
 20
69.5262435765
 10
-72.311962601
 20
69.5637798784
 10
-72.120049948
 20
69.6104448148
 10
-71.9325259313
 20
69.6661064005
 10
-71.7494037579
 20
69.7307857695
 10
-71.570670221
 20
69.8044617878
 10
-71.3967979261
 20
69.8869390675
 10
-71.2207725731
 20
69.9822693537
  0
LWPOLYLINE
  5
2A6
100
AcDbEntity
  8
IMPORT_IGES
100
AcDbPolyline
 62
7
  6
CONTINUOUS
 90
45
 70
0
 10
-94.0452018978
 20
127.0679785956
 10
-94.2537992521
 20
127.1844507187
 10
-94.461730024
 20
127.2927121708
 10
-94.6689942137
 20
127.392762952
 10
-94.8758173391
 20
127.4846938371
 10
-95.0819738823
 20
127.5684140513
 10
-95.2867872892
 20
127.6436512699
 10
-95.4902519302
 20
127.7103755126
 10
-95.692373435
 20
127.7686167597
 10
-95.8924921387
 20
127.8181926268
 10
-96.0905254499
 20
127.8590759131
 10
-96.28655596
 20
127.8912938194
 10
-96.4801717784
 20
127.9147455641
 10
-96.6715087668
 20
127.929418857
 10
-96.8604310634
 20
127.9353259883
 10
-97.0461191927
 20
127.9324030466
 10
-97.2285039928
 20
127.9206010187
 10
-97.4076546255
 20
127.8999689179
 10
-97.5829591006
 20
127.8705898725
 10
-97.7543910488
 20
127.8324337373
 10
-97.9219768394
 20
127.7855306576
 10
-98.0851835898
 20
127.730054197
 10
-98.2439945658
 20
127.6659774822
 10
-98.3984265017
 20
127.5933273866
 10
-98.5479967173
 20
127.5123580939
 10
-98.6926840144
 20
127.4230495063
 10
-98.8325095912
 20
127.3254217216
 10
-98.9670543625
 20
127.2197892166
 10
-99.0963030279
 20
127.1061328045
 10
-99.2202708877
 20
126.9844716722
 10
-99.3385847577
 20
126.8551778569
 10
-99.4512360111
 20
126.718219991
 10
-99.5582332746
 20
126.5736294421
 10
-99.6592292435
 20
126.4218723497
 10
-99.7542209233
 20
126.2628699179
 10
-99.8432113084
 20
126.0967009426
 10
-99.9258620783
 20
125.9240679519
 10
-100.0021011029
 20
125.7450807588
 10
-100.0720005121
 20
125.5596295502
 10
-100.1354383755
 20
125.3680874147
 10
-100.1924353987
 20
125.1703707025
 10
-100.242970876
 20
124.9665630633
 10
-100.2868607597
 20
124.7572885353
 10
-100.3240848697
 20
124.5425279952
 10
-100.3546633861
 20
124.3223005663
  0
LWPOLYLINE
  5
2A7
100
AcDbEntity
  8
IMPORT_IGES
100
AcDbPolyline
 62
7
  6
CONTINUOUS
 90
25
 70
0
 10
-93.3380951166
 20
128.2927234657
 10
-93.56945397
 20
128.4219356839
 10
-93.8005650785
 20
128.5422665702
 10
-94.0311809626
 20
128.6535872713
 10
-94.261054673
 20
128.7557785822
 10
-94.4899400552
 20
128.8487310738
 10
-94.717592013
 20
128.9323452103
 10
-94.943766771
 20
129.0065314556
 10
-95.1682221355
 20
129.0712103692
 10
-95.3907177542
 20
129.1263126912
 10
-95.6110153732
 20
129.1717794169
 10
-95.8288790922
 20
129.2075618592
 10
-96.0440756174
 20
129.2336217013
 10
-96.2563745108
 20
129.2499310379
 10
-96.4655484376
 20
129.2564724044
 10
-96.671373409
 20
129.2532387961
 10
-96.8736290226
 20
129.2402336758
 10
-97.0720986978
 20
129.2174709696
 10
-97.2665699086
 20
129.1849750523
 10
-97.4568344101
 20
129.1427807215
 10
-97.6426884624
 20
129.0909331598
 10
-97.8239330483
 20
129.029487887
 10
-98.0003740867
 20
128.9585107002
 10
-98.1718226399
 20
128.8780776035
 10
-98.338336718
 20
128.7881352425
  0
LINE
  5
2A8
100
AcDbEntity
  8
IMPORT_IGES
100
AcDbLine
 62
7
  6
CONTINUOUS
 10
75.3422275354
 20
23.5505078264
 11
-82.4132953473
 21
114.6365695978
  0
LINE
  5
2A9
100
AcDbEntity
  8
IMPORT_IGES
100
AcDbLine
 62
7
  6
CONTINUOUS
 10
-94.0452018978
 20
127.0679785956
 11
86.9741340859
 21
22.5496827037
  0
LINE
  5
2AA
100
AcDbEntity
  8
IMPORT_IGES
100
AcDbLine
 62
7
  6
CONTINUOUS
 10
87.6812408671
 20
23.7744275738
 11
-93.3380951166
 21
128.2927234657
  0
LWPOLYLINE
  5
2AB
100
AcDbEntity
  8
IMPORT_IGES
100
AcDbPolyline
 62
7
  6
CONTINUOUS
 90
49
 70
0
 10
75.3422275354
 20
23.5505078264
 10
75.5740050178
 20
23.4122705338
 10
75.8050347839
 20
23.2657716016
 10
76.0353168335
 20
23.1110110298
 10
76.265100614
 20
22.9478005088
 10
76.4941366781
 20
22.7763283482
 10
76.721676684
 20
22.5971594773
 10
76.947714695
 20
22.4102679399
 10
77.1722566478
 20
22.2156796921
 10
77.394572011
 20
22.0140375323
 10
77.6145494454
 20
21.805440914
 10
77.8323002902
 20
21.5897903836
 10
78.0474280309
 20
21.3674303786
 10
78.2601351924
 20
21.1381158365
 10
78.4702192498
 20
20.9020918199
 10
78.6766761141
 20
20.6604379531
 10
78.879387676
 20
20.4132319452
 10
79.0784720448
 20
20.1603960873
 10
79.2732794589
 20
19.9027768764
 10
79.4637910546
 20
19.6403633735
 10
79.6500256957
 20
19.3731665176
 10
79.8313902126
 20
19.1020656237
 10
80.0078657458
 20
18.8270524177
 10
80.1794711548
 20
18.5481351737
 10
80.3456698487
 20
18.2662180292
 10
80.5064378479
 20
17.9813064591
 10
80.661799132
 20
17.6933949886
 10
80.8112890491
 20
17.4033713309
 10
80.9548905015
 20
17.1112340461
 10
81.0926205868
 20
16.8169845741
 10
81.2240659456
 20
16.5215149474
 10
81.3492126537
 20
16.2248161112
 10
81.4680746353
 20
15.9268971203
 10
81.5802803029
 20
15.6286771725
 10
81.6858431578
 20
15.3300165535
 10
81.7847496988
 20
15.0310549775
 10
81.8765878351
 20
14.7331307854
 10
81.9612544319
 20
14.4365315013
 10
82.0388526241
 20
14.140969601
 10
82.109279726
 20
13.8469208535
 10
82.1725700587
 20
13.5542366446
 10
82.228689301
 20
13.2630655884
 10
82.2774318035
 20
12.9743292962
 10
82.3187760028
 20
12.6880322191
 10
82.3527434623
 20
12.4041699059
 10
82.3791932224
 20
12.1236506142
 10
82.3980782967
 20
11.8467770964
 10
82.4094456717
 20
11.5732466001
 10
82.4132953473
 20
11.3030591252
  0
LWPOLYLINE
  5
2AC
100
AcDbEntity
  8
IMPORT_IGES
100
AcDbPolyline
 62
7
  6
CONTINUOUS
 90
24
 70
0
 10
56.1714931863
 20
34.6194495738
 10
56.3806548047
 20
34.4150775252
 10
56.5901328303
 20
34.2017172039
 10
56.7969528415
 20
33.9822495337
 10
57.0011224706
 20
33.7566924439
 10
57.2020313793
 20
33.5257220729
 10
57.3996698453
 20
33.2893227944
 10
57.5940475909
 20
33.0475102347
 10
57.7845834436
 20
32.8010074112
 10
57.9712663328
 20
32.5498003757
 10
58.1541073293
 20
32.2939030764
 10
58.3325584732
 20
32.0340803755
 10
58.5066068266
 20
31.7703209444
 10
58.6762653276
 20
31.5026361116
 10
58.8410248297
 20
31.2318247249
 10
59.0008711801
 20
30.9578774163
 10
59.1558185317
 20
30.6808035537
 10
59.3054001968
 20
30.4014300881
 10
59.4496007372
 20
30.1197498403
 10
59.5884355911
 20
29.8357699895
 10
59.7214843846
 20
29.5503390251
 10
59.8486069932
 20
29.2637397767
 10
59.9699435415
 20
28.9756894147
 10
60.2125718113
 20
28.3677950284
  0
LWPOLYLINE
  5
2AD
100
AcDbEntity
  8
IMPORT_IGES
100
AcDbPolyline
 62
7
  6
CONTINUOUS
 90
58
 70
0
 10
60.2125718113
 20
28.3677950284
 10
60.3460300988
 20
28.050965789
 10
60.485868892
 20
27.7357002209
 10
60.6322499905
 20
27.4216704515
 10
60.7850115947
 20
27.1092043533
 10
60.9436683055
 20
26.7992855441
 10
61.1082459377
 20
26.4919160396
 10
61.2787186765
 20
26.1870938242
 10
61.4545236786
 20
25.885796468
 10
61.6356096935
 20
25.5881328084
 10
61.8220279718
 20
25.2939940081
 10
62.0133694217
 20
25.0040311263
 10
62.2097250906
 20
24.7181347924
 10
62.4110039312
 20
24.4364143769
 10
62.6165237099
 20
24.1598490502
 10
62.8262864607
 20
23.888481781
 10
63.0402901496
 20
23.6222696006
 10
63.2578464417
 20
23.362062774
 10
63.478952218
 20
23.1078992521
 10
63.7036105974
 20
22.859741084
 10
63.9311426013
 20
22.6183246819
 10
64.1615268304
 20
22.3836940894
 10
64.3947846841
 20
22.1558052629
 10
64.6303013816
 20
21.9352624833
 10
64.8681277285
 20
21.7220441074
 10
65.1082129193
 20
21.5161717785
 10
65.3497897574
 20
21.3183147073
 10
65.5928595815
 20
21.1285056158
 10
65.8374210528
 20
20.946711782
 10
66.0827029591
 20
20.7735042513
 10
66.328697509
 20
20.6089185212
 10
66.5754124937
 20
20.4529190942
 10
66.8221000751
 20
20.3059705224
 10
67.0687529291
 20
20.1681032844
 10
67.3153783798
 20
20.0392869017
 10
67.5612505605
 20
19.9198944911
 10
67.806373578
 20
19.8099503969
 10
68.0507433255
 20
19.7094302749
 10
68.2936216163
 20
19.6186342095
 10
68.5350128122
 20
19.5375909044
 10
68.7749125514
 20
19.4662716558
 10
69.0125695623
 20
19.4048904369
 10
69.2479426484
 20
19.3534818514
 10
69.4810730061
 20
19.3120112956
 10
69.7113329536
 20
19.2805889309
 10
69.9387398614
 20
19.2592358192
 10
70.1632763589
 20
19.2479308988
 10
70.3842626529
 20
19.2467211459
 10
70.6016914302
 20
19.2556378508
 10
70.815570004
 20
19.2746497232
 10
71.0252405206
 20
19.3037098688
 10
71.230706179
 20
19.3428588467
 10
71.4319637804
 20
19.3920560977
 10
71.6283458739
 20
19.4511330509
 10
71.8197747125
 20
19.5200891947
 10
72.0063280434
 20
19.5989250406
 10
72.1875716577
 20
19.687473552
 10
72.3219301302
 20
19.7613530633
  0
LINE
  5
2AE
100
AcDbEntity
  8
IMPORT_IGES
100
AcDbLine
 62
7
  6
CONTINUOUS
 10
92.984541726
 20
26.8364870238
 11
-88.0347942577
 21
131.3547829157
  0
LINE
  5
2AF
100
AcDbEntity
  8
IMPORT_IGES
100
AcDbLine
 62
7
  6
CONTINUOUS
 10
94.3987552884
 20
26.4283307952
 11
-86.6205806954
 21
130.9466266871
  0
LWPOLYLINE
  5
2B0
100
AcDbEntity
  8
IMPORT_IGES
100
AcDbPolyline
 62
7
  6
CONTINUOUS
 90
49
 70
0
 10
92.984541726
 20
26.8364870238
 10
93.2163192085
 20
26.6982497311
 10
93.4473489745
 20
26.551750799
 10
93.6776310241
 20
26.3969902272
 10
93.9074148046
 20
26.2337797062
 10
94.1364508687
 20
26.0623075456
 10
94.3639908746
 20
25.8831386747
 10
94.5900288856
 20
25.6962471373
 10
94.8145708384
 20
25.5016588895
 10
95.0368862016
 20
25.3000167297
 10
95.256863636
 20
25.0914201114
 10
95.4746144808
 20
24.875769581
 10
95.6897422215
 20
24.653409576
 10
95.902449383
 20
24.4240950339
 10
96.1125334404
 20
24.1880710172
 10
96.3189903047
 20
23.9464171505
 10
96.5217018666
 20
23.6992111426
 10
96.7207862354
 20
23.4463752847
 10
96.9155936496
 20
23.1887560738
 10
97.1061052452
 20
22.9263425709
 10
97.2923398863
 20
22.659145715
 10
97.4737044032
 20
22.3880448211
 10
97.6501799364
 20
22.1130316151
 10
97.8217853454
 20
21.8341143711
 10
97.9879840393
 20
21.5521972266
 10
98.1487520385
 20
21.2672856565
 10
98.3041133227
 20
20.979374186
 10
98.4536032397
 20
20.6893505283
 10
98.5972046921
 20
20.3972132435
 10
98.7349347775
 20
20.1029637714
 10
98.8663801362
 20
19.8074941448
 10
98.9915268443
 20
19.5107953085
 10
99.1103888259
 20
19.2128763177
 10
99.2225944935
 20
18.9146563699
 10
99.3281573484
 20
18.6159957509
 10
99.4270638894
 20
18.3170341749
 10
99.5189020257
 20
18.0191099828
 10
99.6035686225
 20
17.7225106987
 10
99.6811668148
 20
17.4269487984
 10
99.7515939166
 20
17.1329000508
 10
99.8148842493
 20
16.8402158419
 10
99.8710034917
 20
16.5490447858
 10
99.9197459941
 20
16.2603084936
 10
99.9610901934
 20
15.9740114165
 10
99.9950576529
 20
15.6901491033
 10
100.021507413
 20
15.4096298116
 10
100.0403924873
 20
15.1327562938
 10
100.0517598623
 20
14.8592257975
 10
100.0556095379
 20
14.5890383226
  0
LWPOLYLINE
  5
2B1
100
AcDbEntity
  8
IMPORT_IGES
100
AcDbPolyline
 62
7
  6
CONTINUOUS
 90
49
 70
0
 10
94.3987552884
 20
26.4283307952
 10
94.5957921956
 20
26.3108136648
 10
94.7921964237
 20
26.1862695803
 10
94.9879679727
 20
26.0546985416
 10
95.1833194161
 20
25.9159403731
 10
95.3780381804
 20
25.7701552505
 10
95.5714865456
 20
25.6178237006
 10
95.7636591719
 20
25.4589237704
 10
95.9545613991
 20
25.2934774129
 10
96.143571527
 20
25.1220310133
 10
96.3306200968
 20
24.9446389817
 10
96.5157765672
 20
24.7612469082
 10
96.6986276145
 20
24.572237948
 10
96.8792802584
 20
24.3774760438
 10
97.0576274792
 20
24.177097253
 10
97.232934893
 20
23.9718929031
 10
97.4051544735
 20
23.7618740061
 10
97.5743342472
 20
23.54702955
 10
97.7398839094
 20
23.3281178267
 10
97.9017744043
 20
23.1051435731
 10
98.0600347877
 20
22.8781020522
 10
98.2141619227
 20
22.6477373442
 10
98.3641401111
 20
22.4140422261
 10
98.5099850511
 20
22.1770239209
 10
98.6512407001
 20
21.9374481786
 10
98.7878872175
 20
21.6953188034
 10
98.9199444439
 20
21.4506319911
 10
99.047015859
 20
21.2041420788
 10
99.1690870133
 20
20.955847502
 10
99.2861723563
 20
20.7057498252
 10
99.3979187155
 20
20.4546080786
 10
99.5043196155
 20
20.202396185
 10
99.6053815318
 20
19.9491402216
 10
99.7007707184
 20
19.69567745
 10
99.7904773459
 20
19.441960083
 10
99.8745112436
 20
19.1880359077
 10
99.9525681539
 20
18.9348855474
 10
100.0245895072
 20
18.6826613237
 10
100.090633873
 20
18.4312109151
 10
100.150572702
 20
18.1810579799
 10
100.2044209304
 20
17.9321134742
 10
100.252163622
 20
17.684466442
 10
100.2936274193
 20
17.4389076735
 10
100.3287931953
 20
17.195441165
 10
100.357680077
 20
16.9540629202
 10
100.3801720887
 20
16.7155517411
 10
100.3962305719
 20
16.4801672282
 10
100.4058941852
 20
16.2476497809
 10
100.4091629285
 20
16.0179993992
  0
LWPOLYLINE
  5
2B2
100
AcDbEntity
  8
0
100
AcDbPolyline
 62
7
  6
CONTINUOUS
 90
73
 70
0
 10
97.4473856245
 20
-110.030062942
 10
97.44628054
 20
-110.0237495407
 10
97.4445866047
 20
-110.0179804711
 10
97.4423691826
 20
-110.0127009131
 10
97.4396936376
 20
-110.0078560466
 10
97.4366253335
 20
-110.0033910512
 10
97.4332296343
 20
-109.9992511068
 10
97.4295719038
 20
-109.9953813933
 10
97.425717506
 20
-109.9917270904
 10
97.4217318048
 20
-109.9882333779
 10
97.417680164
 20
-109.9848454358
 10
97.4074382023
 20
-109.9765703753
 10
97.3971403354
 20
-109.9686669731
 10
97.3867343088
 20
-109.961183769
 10
97.3761678678
 20
-109.9541693029
 10
97.3653887579
 20
-109.9476721146
 10
97.3543447246
 20
-109.9417407442
 10
97.3429835132
 20
-109.9364237314
 10
97.3312528692
 20
-109.9317696162
 10
97.3181251362
 20
-109.927531448
 10
97.3045415542
 20
-109.9241114151
 10
97.2905381603
 20
-109.9214977814
 10
97.2761509917
 20
-109.9196788108
 10
97.2614160853
 20
-109.918642767
 10
97.2463694784
 20
-109.9183779137
 10
97.231047208
 20
-109.9188725149
 10
97.2154853112
 20
-109.9201148343
 10
97.1997198251
 20
-109.9220931357
 10
97.1837867868
 20
-109.9247956829
 10
97.1677323382
 20
-109.9282070388
 10
97.1515558754
 20
-109.9323161131
 10
97.1352666619
 20
-109.9371094003
 10
97.1188739612
 20
-109.9425733951
 10
97.1023870368
 20
-109.9486945921
 10
97.0858151523
 20
-109.9554594859
 10
97.0667797799
 20
-109.9639631377
 10
97.0476696501
 20
-109.9732631989
 10
97.0285089333
 20
-109.9833324845
 10
97.0093217997
 20
-109.9941438091
 10
96.9901324197
 20
-110.0056699878
 10
96.9709649634
 20
-110.0178838352
 10
96.9523197896
 20
-110.0304352934
 10
96.9337410844
 20
-110.0436257212
 10
96.9152514929
 20
-110.0574661396
 10
96.8968736602
 20
-110.0719675697
 10
96.8786302315
 20
-110.0871410325
 10
96.8623650438
 20
-110.1013607359
 10
96.8462465232
 20
-110.1161256128
 10
96.8302944361
 20
-110.1314289073
 10
96.8145285489
 20
-110.1472638638
 10
96.7989686282
 20
-110.1636237263
 10
96.782287507
 20
-110.182017865
 10
96.7659016491
 20
-110.2009914889
 10
96.7498388049
 20
-110.2205100308
 10
96.7341267251
 20
-110.2405389235
 10
96.71879316
 20
-110.2610435998
 10
96.7038658603
 20
-110.2819894923
 10
96.6893725763
 20
-110.3033420338
 10
96.6753410587
 20
-110.3250666571
 10
96.6625354737
 20
-110.3458962329
 10
96.6501766033
 20
-110.3670022122
 10
96.6382744986
 20
-110.3883599257
 10
96.6268392105
 20
-110.409944704
 10
96.6158807903
 20
-110.4317318778
 10
96.6054092889
 20
-110.4536967777
 10
96.5954347576
 20
-110.4758147343
 10
96.588488876
 20
-110.492016956
 10
96.5818504404
 20
-110.5082660922
 10
96.575557516
 20
-110.524540845
 10
96.5696481675
 20
-110.5408199166
 10
96.56416046
 20
-110.5570820091
 10
96.5591324584
 20
-110.5733058245
 10
96.5546022277
 20
-110.5894700649
  0
LWPOLYLINE
  5
2B3
100
AcDbEntity
  8
0
100
AcDbPolyline
 62
7
  6
CONTINUOUS
 90
22
 70
0
 10
96.8164659169
 20
-111.079458424
 10
96.8143121033
 20
-111.0658263541
 10
96.8122558335
 20
-111.0521198744
 10
96.8103135849
 20
-111.0383268871
 10
96.8085018349
 20
-111.0244352945
 10
96.8068370611
 20
-111.0104329987
 10
96.8053357409
 20
-110.9963079019
 10
96.8039142943
 20
-110.9809141096
 10
96.8027025216
 20
-110.96536819
 10
96.8017004908
 20
-110.9496751622
 10
96.8009082702
 20
-110.9338400453
 10
96.8003259281
 20
-110.9178678586
 10
96.7999535325
 20
-110.9017636211
 10
96.7997911518
 20
-110.8855323521
 10
96.7998388542
 20
-110.8691790705
 10
96.8000967077
 20
-110.8527087957
 10
96.8005647808
 20
-110.8361265467
 10
96.8012431415
 20
-110.8194373427
 10
96.802131858
 20
-110.8026462028
 10
96.8032309987
 20
-110.7857581462
 10
96.8045406316
 20
-110.7687781919
 10
96.806060825
 20
-110.7517113593
  0
LINE
  5
2B4
100
AcDbEntity
  8
IMPORT_IGES
100
AcDbLine
 62
7
  6
CONTINUOUS
 10
82.4132953473
 20
-114.4333635009
 11
82.4132953473
 21
11.3030591252
  0
LWPOLYLINE
  5
2B5
100
AcDbEntity
  8
IMPORT_IGES
100
AcDbPolyline
 62
7
  6
CONTINUOUS
 90
25
 70
0
 10
82.4132953473
 20
-114.4333635009
 10
82.4094744248
 20
-114.6987823098
 10
82.3981245877
 20
-114.9589906571
 10
82.3792458361
 20
-115.2139885428
 10
82.3527998193
 20
-115.4640418513
 10
82.3188248879
 20
-115.7088846982
 10
82.2774360938
 20
-115.9477194301
 10
82.2286079887
 20
-116.1805244987
 10
82.1723660209
 20
-116.4073214523
 10
82.1089015868
 20
-116.6273772829
 10
82.0382451435
 20
-116.840581017
 10
81.960366234
 20
-117.0470436281
 10
81.875364883
 20
-117.2463650287
 10
81.7831301257
 20
-117.438714997
 10
81.6837729269
 20
-117.6239237548
 10
81.5777262059
 20
-117.8010818794
 10
81.4649982027
 20
-117.9700577521
 10
81.3455806774
 20
-118.1309829915
 10
81.2198818295
 20
-118.2833430314
 10
81.0878827522
 20
-118.4271051736
 10
80.9496023523
 20
-118.5623021162
 10
80.80550555
 20
-118.6885173872
 10
80.6555757487
 20
-118.8057196273
 10
80.499829545
 20
-118.9139401958
 10
80.3424749347
 20
-119.0107287647
  0
LWPOLYLINE
  5
2B6
100
AcDbEntity
  8
IMPORT_IGES
100
AcDbPolyline
 62
7
  6
CONTINUOUS
 90
49
 70
0
 10
93.3380951166
 20
11.5269788726
 10
93.3346574263
 20
11.7698234694
 10
93.3244421807
 20
12.0158116636
 10
93.3074493797
 20
12.2649434552
 10
93.2836448694
 20
12.5174989616
 10
93.2530628038
 20
12.7731980654
 10
93.2158056447
 20
13.0312004144
 10
93.1718502429
 20
13.2915128742
 10
93.1212197477
 20
13.5541285792
 10
93.0640860688
 20
13.8181865798
 10
93.0004669487
 20
14.0835812667
 10
92.930344645
 20
14.3504182493
 10
92.8538378406
 20
14.6181534066
 10
92.7708679541
 20
14.886988985
 10
92.6815135668
 20
15.1567227381
 10
92.5861291057
 20
15.4262038058
 10
92.4847067069
 20
15.69535687
 10
92.3772542343
 20
15.9642572487
 10
92.264149706
 20
16.2319800363
 10
92.1453802007
 20
16.4985022458
 10
92.0209586398
 20
16.7638468642
 10
91.8913018058
 20
17.0271579465
 10
91.7563947929
 20
17.2884247768
 10
91.6162525068
 20
17.547658071
 10
91.4713364477
 20
17.8040340319
 10
91.3216398099
 20
18.0575321119
 10
91.1671693991
 20
18.3081728586
 10
91.0084071317
 20
18.5551941168
 10
90.845344042
 20
18.7985833967
 10
90.6779890958
 20
19.0383531881
 10
90.5068511075
 20
19.2737788057
 10
90.3319072247
 20
19.5048634835
 10
90.1531802997
 20
19.7316039875
 10
89.9712477035
 20
19.9532659311
 10
89.7860426918
 20
20.1698843938
 10
89.5976320087
 20
20.3814242961
 10
89.4067932577
 20
20.587046013
 10
89.2136576112
 20
20.7865905214
 10
89.0180938968
 20
20.9802168444
 10
88.8204862001
 20
21.167562427
 10
88.6207517223
 20
21.3486989843
 10
88.4189732622
 20
21.5235548012
 10
88.2157833029
 20
21.6915521768
 10
88.0111753737
 20
21.8526715459
 10
87.8051559452
 20
22.0069324737
 10
87.5983769127
 20
22.153815954
 10
87.3910555745
 20
22.2931489848
 10
87.1829746323
 20
22.425104568
 10
86.9741340859
 20
22.5496827037
  0
LWPOLYLINE
  5
2B7
100
AcDbEntity
  8
IMPORT_IGES
100
AcDbPolyline
 62
7
  6
CONTINUOUS
 90
49
 70
0
 10
94.752308679
 20
11.5269788726
 10
94.7485227407
 20
11.796306412
 10
94.73716898
 20
12.0697174553
 10
94.7182595548
 20
12.3469192272
 10
94.6918147136
 20
12.627614893
 10
94.6578627744
 20
12.9115038767
 10
94.6164400937
 20
13.1982821831
 10
94.567591028
 20
13.4876427226
 10
94.5113678861
 20
13.7792756407
 10
94.447830873
 20
14.0728686497
 10
94.3770480259
 20
14.3681073627
 10
94.2990951408
 20
14.6646756308
 10
94.2140556915
 20
14.9622558812
 10
94.1220207405
 20
15.2605294575
 10
94.0230888411
 20
15.559176961
 10
93.9173659321
 20
15.8578785924
 10
93.8049652241
 20
16.1563144944
 10
93.6860070787
 20
16.4541650946
 10
93.5606188792
 20
16.7511114469
 10
93.4289348945
 20
17.0468355739
 10
93.2910961351
 20
17.3410208066
 10
93.1472502021
 20
17.6333521242
 10
92.9975511295
 20
17.923516491
 10
92.8421592186
 20
18.2112031917
 10
92.6812408671
 20
18.4961041642
 10
92.5149683904
 20
18.7779143294
 10
92.3435198372
 20
19.0563319178
 10
92.1670787988
 20
19.3310587931
 10
91.9858342129
 20
19.6018007707
 10
91.7999801606
 20
19.8682679334
 10
91.6097156591
 20
20.1301749414
 10
91.4152444483
 20
20.3872413382
 10
91.2167747731
 20
20.6391918506
 10
91.0145191595
 20
20.8857566838
 10
90.8086941881
 20
21.1266718098
 10
90.5995202613
 20
21.3616792509
 10
90.3872213679
 20
21.590527355
 10
90.1720248427
 20
21.812971066
 10
89.9541611237
 20
22.0287721855
 10
89.7338635047
 20
22.2376996282
 10
89.5113678861
 20
22.4395296696
 10
89.2869125215
 20
22.6340461848
 10
89.0607377635
 20
22.8210408807
 10
88.8330858058
 20
23.0003135188
 10
88.6042004235
 20
23.1716721293
 10
88.3743267131
 20
23.3349332173
 10
88.143710829
 20
23.4899219586
 10
87.9125997205
 20
23.6364723874
 10
87.6812408671
 20
23.7744275738
  0
LINE
  5
2B8
100
AcDbEntity
  8
IMPORT_IGES
100
AcDbLine
 62
7
  6
CONTINUOUS
 10
93.3380951166
 20
11.5269788726
 11
93.3380951166
 21
-127.2729681822
  0
LINE
  5
2B9
100
AcDbEntity
  8
IMPORT_IGES
100
AcDbLine
 62
7
  6
CONTINUOUS
 10
94.752308679
 20
-127.2729681822
 11
94.752308679
 21
11.5269788726
  0
LINE
  5
2BA
100
AcDbEntity
  8
0
100
AcDbLine
 62
7
  6
CONTINUOUS
 10
96.515235486
 20
-115.8333272197
 11
96.515235486
 21
-116.2593556948
  0
LINE
  5
2BB
100
AcDbEntity
  8
0
100
AcDbLine
 62
7
  6
CONTINUOUS
 10
96.515340845
 20
-118.0959031096
 11
96.515340845
 21
-117.6331048955
  0
LINE
  5
2BC
100
AcDbEntity
  8
0
100
AcDbLine
 62
7
  6
CONTINUOUS
 10
96.515340845
 20
-116.8431323451
 11
96.515340845
 21
-116.4173953498
  0
LINE
  5
2BD
100
AcDbEntity
  8
0
100
AcDbLine
 62
7
  6
CONTINUOUS
 10
96.515340845
 20
-115.4196351963
 11
96.515340845
 21
-114.9939594363
  0
LINE
  5
2BE
100
AcDbEntity
  8
0
100
AcDbLine
 62
7
  6
CONTINUOUS
 10
96.515340845
 20
-114.1464020538
 11
96.515340845
 21
-113.7248886593
  0
LINE
  5
2BF
100
AcDbEntity
  8
0
100
AcDbLine
 62
7
  6
CONTINUOUS
 10
96.515340845
 20
-112.8269632253
 11
96.515340845
 21
-112.4148318907
  0
LINE
  5
2C0
100
AcDbEntity
  8
0
100
AcDbLine
 62
7
  6
CONTINUOUS
 10
97.3017010827
 20
-110.5558187295
 11
97.3017010827
 21
-110.7992897207
  0
LINE
  5
2C1
100
AcDbEntity
  8
0
100
AcDbLine
 62
7
  6
CONTINUOUS
 10
97.5911879714
 20
-110.6180171593
 11
97.5911879714
 21
-110.3895909245
  0
LINE
  5
2C2
100
AcDbEntity
  8
0
100
AcDbLine
 62
7
  6
CONTINUOUS
 10
97.6569986843
 20
-112.1818496306
 11
97.6569986843
 21
-111.7739574098
  0
LINE
  5
2C3
100
AcDbEntity
  8
0
100
AcDbLine
 62
7
  6
CONTINUOUS
 10
97.9300493821
 20
-111.5311598385
 11
97.9300493821
 21
-112.1113395349
  0
LINE
  5
2C4
100
AcDbEntity
  8
0
100
AcDbLine
 62
7
  6
CONTINUOUS
 10
98.2829211217
 20
-115.2387161631
 11
98.2829211217
 21
-114.812687688
  0
LINE
  5
2C5
100
AcDbEntity
  8
0
100
AcDbLine
 62
7
  6
CONTINUOUS
 10
98.2829211334
 20
-110.6429332675
 11
98.2829211334
 21
-110.218619101
  0
LINE
  5
2C6
100
AcDbEntity
  8
0
100
AcDbLine
 62
7
  6
CONTINUOUS
 10
98.2829211334
 20
-109.5662154085
 11
98.2829211334
 21
-109.1564256304
  0
LINE
  5
2C7
100
AcDbEntity
  8
0
100
AcDbLine
 62
7
  6
CONTINUOUS
 10
98.2829211217
 20
-110.7680360025
 11
98.2829211217
 21
-111.2170521983
  0
LINE
  5
2C8
100
AcDbEntity
  8
0
100
AcDbLine
 62
7
  6
CONTINUOUS
 10
98.2829211217
 20
-112.0251536548
 11
98.2829211217
 21
-112.4465592752
  0
LINE
  5
2C9
100
AcDbEntity
  8
0
100
AcDbLine
 62
7
  6
CONTINUOUS
 10
98.2829211217
 20
-112.5134575838
 11
98.2829211217
 21
-112.9302264695
  0
LINE
  5
2CA
100
AcDbEntity
  8
0
100
AcDbLine
 62
7
  6
CONTINUOUS
 10
98.2829211217
 20
-113.52430249
 11
98.2829211217
 21
-113.5840534178
  0
LINE
  5
2CB
100
AcDbEntity
  8
0
100
AcDbLine
 62
7
  6
CONTINUOUS
 10
98.2829211217
 20
-114.175773105
 11
98.2829211217
 21
-114.5833436366
  0
LINE
  5
2CC
100
AcDbEntity
  8
0
100
AcDbLine
 62
7
  6
CONTINUOUS
 10
98.2829211217
 20
-116.0528627655
 11
98.2829211217
 21
-116.4283002929
  0
LINE
  5
2CD
100
AcDbEntity
  8
IMPORT_IGES
100
AcDbLine
 62
7
  6
CONTINUOUS
 10
100.0556095379
 20
-124.2109087322
 11
100.0556095379
 21
14.5890383226
  0
LINE
  5
2CE
100
AcDbEntity
  8
IMPORT_IGES
100
AcDbLine
 62
7
  6
CONTINUOUS
 10
100.4091629285
 20
-122.7819476556
 11
100.4091629285
 21
16.0179993992
  0
LWPOLYLINE
  5
2CF
100
AcDbEntity
  8
0
100
AcDbPolyline
 62
7
  6
CONTINUOUS
 90
48
 70
0
 10
97.5911879714
 20
-110.3895909245
 10
97.5912600997
 20
-110.3829896814
 10
97.5914772716
 20
-110.3762930453
 10
97.5918406671
 20
-110.369507086
 10
97.5923514663
 20
-110.3626378732
 10
97.5930108495
 20
-110.3556914769
 10
97.5938199968
 20
-110.3486739667
 10
97.5947800883
 20
-110.3415914126
 10
97.5958923041
 20
-110.3344498842
 10
97.5971578244
 20
-110.3272554514
 10
97.5985778294
 20
-110.320014184
 10
97.6001534992
 20
-110.3127321518
 10
97.6018860139
 20
-110.3054154246
 10
97.6037765537
 20
-110.2980700721
 10
97.6058262987
 20
-110.2907021643
 10
97.608036429
 20
-110.2833177708
 10
97.6104081249
 20
-110.2759229615
 10
97.6129425664
 20
-110.2685238062
 10
97.6157107297
 20
-110.2609376425
 10
97.6186459295
 20
-110.2533577971
 10
97.6217428171
 20
-110.2457887755
 10
97.6249960439
 20
-110.2382350834
 10
97.6284002614
 20
-110.2307012264
 10
97.6319501208
 20
-110.2231917099
 10
97.6356402737
 20
-110.2157110397
 10
97.6394653714
 20
-110.2082637211
 10
97.6434200653
 20
-110.2008542599
 10
97.6474990068
 20
-110.1934871616
 10
97.6516968472
 20
-110.1861669318
 10
97.6560082381
 20
-110.178898076
 10
97.6604278307
 20
-110.1716850998
 10
97.6649502765
 20
-110.1645325088
 10
97.6695702269
 20
-110.1574448085
 10
97.6742823332
 20
-110.1504265046
 10
97.6790812469
 20
-110.1434821026
 10
97.6839616193
 20
-110.1366161081
 10
97.6889181019
 20
-110.1298330266
 10
97.693945346
 20
-110.1231373638
 10
97.699038003
 20
-110.1165336251
 10
97.7041907243
 20
-110.1100263163
 10
97.7093981614
 20
-110.1036199428
 10
97.7146549655
 20
-110.0973190102
 10
97.7199557882
 20
-110.091128024
 10
97.7252952808
 20
-110.08505149
 10
97.7306680946
 20
-110.0790939136
 10
97.7360688811
 20
-110.0732598004
 10
97.7414922918
 20
-110.067553656
 10
97.7469329779
 20
-110.061979986
  0
LWPOLYLINE
  5
2D0
100
AcDbEntity
  8
IMPORT_IGES
100
AcDbPolyline
 62
7
  6
CONTINUOUS
 90
25
 70
0
 10
100.0556095379
 20
-124.2109087322
 10
100.0517886154
 20
-124.4763275411
 10
100.0404387783
 20
-124.7365358884
 10
100.0215600267
 20
-124.9915337741
 10
99.9951140099
 20
-125.2415870826
 10
99.9611390785
 20
-125.4864299295
 10
99.9197502844
 20
-125.7252646614
 10
99.8709221793
 20
-125.95806973
 10
99.8146802115
 20
-126.1848666836
 10
99.7512157774
 20
-126.4049225142
 10
99.6805593342
 20
-126.6181262483
 10
99.6026804246
 20
-126.8245888594
 10
99.5176790736
 20
-127.02391026
 10
99.4254443163
 20
-127.2162602283
 10
99.3260871175
 20
-127.4014689861
 10
99.2200403966
 20
-127.5786271107
 10
99.1073123933
 20
-127.7476029834
 10
98.987894868
 20
-127.9085282228
 10
98.8621960201
 20
-128.0608882627
 10
98.7301969428
 20
-128.2046504049
 10
98.5919165429
 20
-128.3398473475
 10
98.4478197406
 20
-128.4660626185
 10
98.2978899393
 20
-128.5832648586
 10
98.1421437356
 20
-128.6914854271
 10
97.9847891253
 20
-128.788273996
  0
LWPOLYLINE
  5
2D1
100
AcDbEntity
  8
IMPORT_IGES
100
AcDbPolyline
 62
7
  6
CONTINUOUS
 90
13
 70
0
 10
100.4091629285
 20
-122.7819476556
 10
100.4059148045
 20
-123.0075835226
 10
100.3962645936
 20
-123.2287923735
 10
100.3802122957
 20
-123.4455742084
 10
100.3577254872
 20
-123.6581557567
 10
100.3288365918
 20
-123.8663102891
 10
100.2936428803
 20
-124.0693576164
 10
100.2521226704
 20
-124.2672790538
 10
100.2042976444
 20
-124.4600932863
 10
100.1503301212
 20
-124.64717618
 10
100.0902324898
 20
-124.828454687
 10
100.0239923612
 20
-125.0040018553
 10
100.0190046074
 20
-125.0156958642
  0
LWPOLYLINE
  5
2D2
100
AcDbEntity
  8
0
100
AcDbPolyline
 62
7
  6
CONTINUOUS
 90
49
 70
0
 10
96.806060825
 20
-110.7517113593
 10
96.8069371636
 20
-110.7433973219
 10
96.8079962899
 20
-110.7349772128
 10
96.8092376901
 20
-110.7264599289
 10
96.8106608502
 20
-110.7178543669
 10
96.8122652564
 20
-110.7091694236
 10
96.8140503949
 20
-110.7004139958
 10
96.8160157518
 20
-110.6915969804
 10
96.8181608132
 20
-110.682727274
 10
96.8204850653
 20
-110.6738137734
 10
96.8229879942
 20
-110.6648653756
 10
96.8256690861
 20
-110.6558909772
 10
96.828527827
 20
-110.6468994751
 10
96.8315637032
 20
-110.637899766
 10
96.8347762008
 20
-110.6289007468
 10
96.8381648059
 20
-110.6199113141
 10
96.8417290047
 20
-110.6109403649
 10
96.8454682832
 20
-110.6019967959
 10
96.8493821277
 20
-110.593089504
 10
96.8534700243
 20
-110.5842273858
 10
96.8577314591
 20
-110.5754193381
 10
96.8621659182
 20
-110.5666742579
 10
96.8667728879
 20
-110.5580010418
 10
96.8715518541
 20
-110.5494085867
 10
96.8765023032
 20
-110.5409057894
 10
96.8815944144
 20
-110.5325462835
 10
96.8868476682
 20
-110.5242913559
 10
96.8922540763
 20
-110.5161480896
 10
96.8978056503
 20
-110.5081235677
 10
96.9034944019
 20
-110.5002248733
 10
96.9093123427
 20
-110.4924590897
 10
96.9152514843
 20
-110.4848332998
 10
96.9213038385
 20
-110.4773545869
 10
96.9274614168
 20
-110.470030034
 10
96.933716231
 20
-110.4628667243
 10
96.9400602926
 20
-110.4558717409
 10
96.9464856132
 20
-110.4490521669
 10
96.9529842047
 20
-110.4424150854
 10
96.9595480785
 20
-110.4359675797
 10
96.9661692464
 20
-110.4297167326
 10
96.9728397199
 20
-110.4236696276
 10
96.9795515108
 20
-110.4178333475
 10
96.9862966307
 20
-110.4122149756
 10
96.9930670912
 20
-110.4068215949
 10
96.999854904
 20
-110.4016602887
 10
97.0066520807
 20
-110.39673814
 10
97.013450633
 20
-110.3920622319
 10
97.0202425725
 20
-110.3876396476
 10
97.0270199108
 20
-110.3834774702
  0
LWPOLYLINE
  5
2D3
100
AcDbEntity
  8
IMPORT_IGES
100
AcDbPolyline
 62
7
  6
CONTINUOUS
 90
10
 70
0
 10
60.2126800604
 20
-90.3466808071
 10
59.9699426676
 20
-90.6745402265
 10
59.8486052359
 20
-90.8224751061
 10
59.7214817343
 20
-90.9622771117
 10
59.5884320282
 20
-91.0940672511
 10
59.4495962522
 20
-91.2177245166
 10
59.3053948102
 20
-91.3328858841
 10
59.155812265
 20
-91.4395263454
 10
59.0008640538
 20
-91.5376709088
 10
58.9620784983
 20
-91.5604351224
  0
LWPOLYLINE
  5
2D4
100
AcDbEntity
  8
IMPORT_IGES
100
AcDbPolyline
 62
7
  6
CONTINUOUS
 90
9
 70
0
 10
61.3212516258
 20
-89.3723132623
 10
61.2801521564
 20
-89.3964358055
 10
61.1094588989
 20
-89.5044354748
 10
60.9446643913
 20
-89.621816514
 10
60.7857968763
 20
-89.7486156562
 10
60.6328281111
 20
-89.8847961683
 10
60.4862629577
 20
-90.0299162827
 10
60.3462697032
 20
-90.1838287437
 10
60.2126800604
 20
-90.3466808071
  0
LINE
  5
2D5
100
AcDbEntity
  8
IMPORT_IGES
100
AcDbLine
 62
250
  6
CONTINUOUS
 10
55.3759832349
 20
-90.2485129746
 11
53.9617696725
 21
-91.0650621612
  0
LINE
  5
2D6
100
AcDbEntity
  8
IMPORT_IGES
100
AcDbLine
 62
7
  6
CONTINUOUS
 10
62.735538623
 20
-88.5557216741
 11
61.3213250606
 21
-89.3722708608
  0
LWPOLYLINE
  5
2D7
100
AcDbEntity
  8
IMPORT_IGES
100
AcDbPolyline
 62
7
  6
CONTINUOUS
 90
58
 70
0
 10
62.7354649466
 20
-88.5557642151
 10
62.868737241
 20
-88.4824529379
 10
63.0498232559
 20
-88.3939028692
 10
63.2362415341
 20
-88.3150352239
 10
63.4275829841
 20
-88.2460286522
 10
63.623938653
 20
-88.1868789229
 10
63.8252174935
 20
-88.1375902673
 10
64.0307372723
 20
-88.0983540297
 10
64.2405000231
 20
-88.0692155271
 10
64.454503712
 20
-88.0501294425
 10
64.6720600041
 20
-88.0411511687
 10
64.8931657804
 20
-88.0423150551
 10
65.1178241598
 20
-88.0535867523
 10
65.3453561637
 20
-88.074918605
 10
65.5757403928
 20
-88.1063299455
 10
65.8089982464
 20
-88.1478014415
 10
66.044514944
 20
-88.1992274409
 10
66.2823412908
 20
-88.260644969
 10
66.5224264816
 20
-88.3320170005
 10
66.7640033198
 20
-88.4131268066
 10
67.0070731438
 20
-88.5040086552
 10
67.2516346152
 20
-88.6046282784
 10
67.4969165215
 20
-88.7146661448
 10
67.7429110714
 20
-88.8341487549
 10
67.9896260561
 20
-88.9630496081
 10
68.2363136375
 20
-89.1009696719
 10
68.4829664915
 20
-89.2479309671
 10
68.7295919422
 20
-89.4039114729
 10
68.9754641229
 20
-89.5684460936
 10
69.2205871403
 20
-89.7415639158
 10
69.4649568879
 20
-89.9232358529
 10
69.7078351787
 20
-90.1129095498
 10
69.9492263746
 20
-90.3106187469
 10
70.1891261138
 20
-90.5163297039
 10
70.4267831247
 20
-90.7293888441
 10
70.6621562107
 20
-90.9497831985
 10
70.8952865685
 20
-91.1775257362
 10
71.125546516
 20
-91.4120017873
 10
71.3529534238
 20
-91.6532524725
 10
71.5774899213
 20
-91.9012366712
 10
71.7984762153
 20
-92.1552163514
 10
72.0159049926
 20
-92.4152143583
 10
72.2297835663
 20
-92.6812078466
 10
72.439454083
 20
-92.9523902493
 10
72.6449197414
 20
-93.2288058193
 10
72.8461773427
 20
-93.5104103037
 10
73.0425594363
 20
-93.796264376
 10
73.2339882749
 20
-94.0862777442
 10
73.4205416058
 20
-94.3805407005
 10
73.6017852201
 20
-94.6783847948
 10
73.7777708929
 20
-94.9799246918
 10
73.9484468492
 20
-95.285045727
 10
74.1132235551
 20
-95.5927354557
 10
74.2720727663
 20
-95.9029979932
 10
74.4250227271
 20
-96.2158292243
 10
74.5715686372
 20
-96.5302043588
 10
74.7115422297
 20
-96.8457818002
 10
74.8451117714
 20
-97.1629031449
  0
LWPOLYLINE
  5
2D8
100
AcDbEntity
  8
IMPORT_IGES
100
AcDbPolyline
 62
7
  6
CONTINUOUS
 90
26
 70
0
 10
58.9620784983
 20
-91.5604351224
 10
58.8410168916
 20
-91.6270315752
 10
58.6762566267
 20
-91.7075826322
 10
58.5065974108
 20
-91.7793497922
 10
58.3325484142
 20
-91.8421221926
 10
58.1540967002
 20
-91.8958735639
 10
57.9712552053
 20
-91.9406301756
 10
57.7845719092
 20
-91.9762599737
 10
57.5940357426
 20
-92.0027362254
 10
57.3996577746
 20
-92.0200856635
 10
57.2020191927
 20
-92.0282564328
 10
57.0011102765
 20
-92.0272216802
 10
56.7969407464
 20
-92.0170082586
 10
56.5901209508
 20
-91.9976448722
 10
56.3806432593
 20
-91.9691047782
 10
56.1685153023
 20
-91.9314147194
 10
55.9543703199
 20
-91.884683627
 10
55.7382022336
 20
-91.8288850695
 10
55.5200171218
 20
-91.7640454785
 10
55.3004664606
 20
-91.690353081
 10
55.0795458987
 20
-91.6077818807
 10
54.8572597874
 20
-91.516357874
 10
54.6342726561
 20
-91.4163472771
 10
54.4108060148
 20
-91.3078388287
 10
54.1866383536
 20
-91.1907437901
 10
53.9617696725
 20
-91.0650621612
  0
LWPOLYLINE
  5
2D9
100
AcDbEntity
  8
0
100
AcDbPolyline
 62
7
  6
CONTINUOUS
 90
32
 70
0
 10
96.5546022277
 20
-110.5894700649
 10
96.5472515709
 20
-110.6183753744
 10
96.5405329279
 20
-110.6471525333
 10
96.5344156398
 20
-110.6757983327
 10
96.5288690475
 20
-110.7043095634
 10
96.5238624922
 20
-110.7326830165
 10
96.519365315
 20
-110.7609154827
 10
96.5153468567
 20
-110.789003753
 10
96.5117764586
 20
-110.8169446184
 10
96.5086234617
 20
-110.8447348697
 10
96.505857207
 20
-110.8723712979
 10
96.5034470355
 20
-110.8998506939
 10
96.5013622884
 20
-110.9271698486
 10
96.4987851171
 20
-110.9679526607
 10
96.4968480227
 20
-111.0083769469
 10
96.4955243213
 20
-111.0484539073
 10
96.4947873288
 20
-111.0881947415
 10
96.4946103612
 20
-111.1276106496
 10
96.4949667344
 20
-111.1667128315
 10
96.4958297643
 20
-111.2055124869
 10
96.4971727669
 20
-111.2440208158
 10
96.4989690582
 20
-111.282249018
 10
96.5011919541
 20
-111.3202082935
 10
96.5038147706
 20
-111.3579098421
 10
96.5068108236
 20
-111.3953648637
 10
96.510153429
 20
-111.4325845582
 10
96.5138159028
 20
-111.4695801255
 10
96.517771561
 20
-111.5063627654
 10
96.5219937195
 20
-111.5429436779
 10
96.5264556942
 20
-111.5793340627
 10
96.5311308012
 20
-111.6155451199
 10
96.5359923563
 20
-111.6515880492
  0
LINE
  5
2DA
100
AcDbEntity
  8
IMPORT_IGES
100
AcDbLine
 62
250
  6
CONTINUOUS
 10
74.9722772624
 20
-97.4815683931
 11
73.5580637
 21
-98.2981175798
  0
LWPOLYLINE
  5
2DB
100
AcDbEntity
  8
IMPORT_IGES
100
AcDbPolyline
 62
7
  6
CONTINUOUS
 90
13
 70
0
 10
-88.7506521719
 20
131.7257777819
 10
-88.7360146656
 20
131.7239989183
 10
-88.5512705827
 20
131.6935890082
 10
-88.3645971176
 20
131.6550152574
 10
-88.1759246221
 20
131.6082546983
 10
-87.9853227444
 20
131.5533302986
 10
-87.7933896639
 20
131.4903872701
 10
-87.600119277
 20
131.4194000032
 10
-87.4055176873
 20
131.3403941075
 10
-87.2102013852
 20
131.2535916239
 10
-87.0143758676
 20
131.1590665662
 10
-86.8178356376
 20
131.0567449206
 10
-86.6205806954
 20
130.9466266871
  0
LINE
  5
2DC
100
AcDbEntity
  8
IMPORT_IGES
100
AcDbLine
 62
7
  6
CONTINUOUS
 10
80.9637264459
 20
-105.0225552148
 11
79.5495128835
 21
-105.8391044015
  0
LWPOLYLINE
  5
2DD
100
AcDbEntity
  8
0
100
AcDbPolyline
 62
7
  6
CONTINUOUS
 90
59
 70
0
 10
97.0270199108
 20
-110.3834774702
 10
97.0346944645
 20
-110.3790228598
 10
97.0424283652
 20
-110.3747594998
 10
97.0502110204
 20
-110.3706936061
 10
97.0580318379
 20
-110.3668313943
 10
97.0658802254
 20
-110.3631790801
 10
97.0737455903
 20
-110.3597428793
 10
97.0816173404
 20
-110.3565290075
 10
97.0894848834
 20
-110.3535436803
 10
97.0973376268
 20
-110.3507931136
 10
97.1051649783
 20
-110.348283523
 10
97.1129563456
 20
-110.3460211243
 10
97.1207011363
 20
-110.344012133
 10
97.128388758
 20
-110.3422627649
 10
97.1360086184
 20
-110.3407792357
 10
97.1435501251
 20
-110.3395677611
 10
97.1510026857
 20
-110.3386345568
 10
97.158355708
 20
-110.3379858385
 10
97.1655985996
 20
-110.3376278219
 10
97.172720768
 20
-110.3375667227
 10
97.179711621
 20
-110.3378087566
 10
97.1865605661
 20
-110.3383601392
 10
97.1932570111
 20
-110.3392270863
 10
97.1997903635
 20
-110.3404158136
 10
97.2061500311
 20
-110.3419325367
 10
97.2123254214
 20
-110.3437834715
 10
97.2183059421
 20
-110.3459748335
 10
97.2240810008
 20
-110.3485128384
 10
97.2296400052
 20
-110.351403702
 10
97.234972363
 20
-110.35465364
 10
97.2400674817
 20
-110.358268868
 10
97.244853834
 20
-110.3621962699
 10
97.2494041182
 20
-110.3664718179
 10
97.2537234777
 20
-110.371082076
 10
97.2578170556
 20
-110.376013608
 10
97.2616899954
 20
-110.3812529779
 10
97.2653474403
 20
-110.3867867495
 10
97.2687945336
 20
-110.3926014869
 10
97.2720364187
 20
-110.3986837538
 10
97.2750782389
 20
-110.4050201143
 10
97.2779251374
 20
-110.4115971322
 10
97.2805822576
 20
-110.4184013714
 10
97.2830547428
 20
-110.4254193958
 10
97.2853477362
 20
-110.4326377694
 10
97.2874663813
 20
-110.4400430561
 10
97.2894158212
 20
-110.4476218197
 10
97.2912011994
 20
-110.4553606242
 10
97.2928276591
 20
-110.4632460335
 10
97.2943003437
 20
-110.4712646114
 10
97.2956243963
 20
-110.479402922
 10
97.2968049605
 20
-110.4876475291
 10
97.2978471793
 20
-110.4959849966
 10
97.2987561963
 20
-110.5044018885
 10
97.2995371546
 20
-110.5128847686
 10
97.3001951976
 20
-110.5214202008
 10
97.3007354686
 20
-110.5299947491
 10
97.3011631109
 20
-110.5385949774
 10
97.3014832679
 20
-110.5472074495
 10
97.3017010827
 20
-110.5558187295
  0
LINE
  5
2DE
100
AcDbEntity
  8
IMPORT_IGES
100
AcDbLine
 62
250
  6
CONTINUOUS
 10
76.261466351
 20
-117.9845633642
 11
75.3422275354
 21
-118.5153203356
  0
LINE
  5
2DF
100
AcDbEntity
  8
0
100
AcDbLine
 62
7
  6
CONTINUOUS
 10
97.4578304811
 20
-110.0240322127
 11
97.4473856245
 21
-110.030062942
  0
LINE
  5
2E0
100
AcDbEntity
  8
0
100
AcDbLine
 62
7
  6
CONTINUOUS
 10
98.2829211334
 20
-110.218619101
 11
97.5911879714
 21
-110.6180171593
  0
LINE
  5
2E1
100
AcDbEntity
  8
0
100
AcDbLine
 62
7
  6
CONTINUOUS
 10
97.3017010827
 20
-110.7992897207
 11
96.8164659169
 21
-111.079458424
  0
LINE
  5
2E2
100
AcDbEntity
  8
0
100
AcDbLine
 62
7
  6
CONTINUOUS
 10
96.5359923563
 20
-111.6515880492
 11
98.2829211334
 21
-110.6429332675
  0
LWPOLYLINE
  5
2E3
100
AcDbEntity
  8
IMPORT_IGES
100
AcDbPolyline
 62
7
  6
CONTINUOUS
 90
25
 70
0
 10
80.3424749347
 20
-119.0107287647
 10
80.1724248106
 20
-119.102437259
 10
80.0007662798
 20
-119.1827137537
 10
79.8243425151
 20
-119.2534594098
 10
79.6431437199
 20
-119.3146488289
 10
79.4571796906
 20
-119.3663074092
 10
79.2670162754
 20
-119.4082845734
 10
79.0726386695
 20
-119.4405556957
 10
78.8740616776
 20
-119.4631454018
 10
78.6718955624
 20
-119.4759769915
 10
78.466026075
 20
-119.479000088
 10
78.2565674643
 20
-119.4722650682
 10
78.0444727394
 20
-119.4558463614
 10
77.8299393391
 20
-119.4297388801
 10
77.6127698246
 20
-119.3939477119
 10
77.3933248894
 20
-119.3485625491
 10
77.1714929879
 20
-119.2935586163
 10
76.9473856656
 20
-119.2289606889
 10
76.7216982523
 20
-119.1549327856
 10
76.4944238202
 20
-119.0714460081
 10
76.265569297
 20
-118.9785292548
 10
76.0358507957
 20
-118.8764332395
 10
75.8055070204
 20
-118.7652415335
 10
75.574299267
 20
-118.6448705655
 10
75.3422275354
 20
-118.5153203356
  0
LINE
  5
2E4
100
AcDbEntity
  8
0
100
AcDbLine
 62
7
  6
CONTINUOUS
 10
98.2829211217
 20
-113.5840534178
 11
97.1287248649
 21
-114.7502545556
  0
LINE
  5
2E5
100
AcDbEntity
  8
0
100
AcDbLine
 62
7
  6
CONTINUOUS
 10
96.515340845
 20
-114.9939594363
 11
97.4967067694
 21
-114.0058021435
  0
LWPOLYLINE
  5
2E6
100
AcDbEntity
  8
0
100
AcDbPolyline
 62
7
  6
CONTINUOUS
 90
7
 70
0
 10
97.7469329779
 20
-110.061979986
 10
97.7713938717
 20
-110.0375013393
 10
97.7959807355
 20
-110.0133720572
 10
97.8206796472
 20
-109.9895542827
 10
97.8454766846
 20
-109.9660101586
 10
97.8703579258
 20
-109.9427018279
 10
97.8953094485
 20
-109.9195914334
  0
LINE
  5
2E7
100
AcDbEntity
  8
0
100
AcDbLine
 62
7
  6
CONTINUOUS
 10
98.2829211217
 20
-116.4283002929
 11
96.515340845
 21
-118.0959031096
  0
LINE
  5
2E8
100
AcDbEntity
  8
0
100
AcDbLine
 62
7
  6
CONTINUOUS
 10
96.515340845
 20
-112.4148318907
 11
98.2829211217
 21
-110.7680360025
  0
LINE
  5
2E9
100
AcDbEntity
  8
0
100
AcDbLine
 62
7
  6
CONTINUOUS
 10
97.8953094485
 20
-109.9195914334
 11
97.9453676504
 21
-109.8738130248
  0
LINE
  5
2EA
100
AcDbEntity
  8
0
100
AcDbLine
 62
7
  6
CONTINUOUS
 10
98.0457148611
 20
-109.7829657306
 11
98.2829211334
 21
-109.5662154085
  0
LWPOLYLINE
  5
2EB
100
AcDbEntity
  8
0
100
AcDbPolyline
 62
7
  6
CONTINUOUS
 90
44
 70
0
 10
97.7497780803
 20
-109.6271473993
 10
97.7360786733
 20
-109.6396023839
 10
97.7223160235
 20
-109.6523092674
 10
97.7084616831
 20
-109.6653456355
 10
97.7008478924
 20
-109.6726302014
 10
97.6932059437
 20
-109.6800336287
 10
97.6855435175
 20
-109.6875533458
 10
97.6778682943
 20
-109.695186781
 10
97.6701879548
 20
-109.7029313626
 10
97.6625101793
 20
-109.7107845191
 10
97.6548426485
 20
-109.7187436787
 10
97.6471930429
 20
-109.7268062698
 10
97.639569043
 20
-109.7349697207
 10
97.6319783293
 20
-109.7432314598
 10
97.6244285825
 20
-109.7515889154
 10
97.6169274829
 20
-109.7600395159
 10
97.6094827112
 20
-109.7685806896
 10
97.602101948
 20
-109.7772098648
 10
97.5947928736
 20
-109.7859244699
 10
97.5875631687
 20
-109.7947219332
 10
97.5804205138
 20
-109.8035996831
 10
97.5733725895
 20
-109.8125551479
 10
97.5664270762
 20
-109.821585756
 10
97.5595916545
 20
-109.8306889357
 10
97.5528740049
 20
-109.8398621153
 10
97.5462818081
 20
-109.8491027232
 10
97.5398227444
 20
-109.8584081877
 10
97.5335044945
 20
-109.8677759372
 10
97.5273347388
 20
-109.8772034
 10
97.521321158
 20
-109.8866880045
 10
97.5154714325
 20
-109.8962271789
 10
97.5097932429
 20
-109.9058183517
 10
97.5042942697
 20
-109.9154589512
 10
97.4989821935
 20
-109.9251464057
 10
97.4938646947
 20
-109.9348781436
 10
97.488949454
 20
-109.9446515932
 10
97.4842441518
 20
-109.9544641828
 10
97.4797564687
 20
-109.9643133409
 10
97.4754940853
 20
-109.9741964957
 10
97.471464682
 20
-109.9841110755
 10
97.4676759394
 20
-109.9940545088
 10
97.464135538
 20
-110.0040242239
 10
97.4608511584
 20
-110.014017649
 10
97.4578304811
 20
-110.0240322127
  0
LINE
  5
2EC
100
AcDbEntity
  8
0
100
AcDbLine
 62
7
  6
CONTINUOUS
 10
97.9453676504
 20
-109.8738130248
 11
98.0457148611
 21
-109.7829657306
  0
LINE
  5
2ED
100
AcDbEntity
  8
0
100
AcDbLine
 62
7
  6
CONTINUOUS
 10
96.515340845
 20
-117.6331048955
 11
97.7320212996
 21
-116.5415648451
  0
LINE
  5
2EE
100
AcDbEntity
  8
0
100
AcDbLine
 62
7
  6
CONTINUOUS
 10
97.7771009575
 20
-109.6026827857
 11
97.7497780803
 21
-109.6271473993
  0
LINE
  5
2EF
100
AcDbEntity
  8
0
100
AcDbLine
 62
7
  6
CONTINUOUS
 10
98.2829211217
 20
-111.2170521983
 11
97.9300493821
 21
-111.5311598385
  0
LINE
  5
2F0
100
AcDbEntity
  8
0
100
AcDbLine
 62
7
  6
CONTINUOUS
 10
97.9322724877
 20
-109.4650252467
 11
97.7771009575
 21
-109.6026827857
  0
LINE
  5
2F1
100
AcDbEntity
  8
0
100
AcDbLine
 62
7
  6
CONTINUOUS
 10
98.2829211334
 20
-109.1564256304
 11
98.2198153234
 21
-109.2122994151
  0
LINE
  5
2F2
100
AcDbEntity
  8
0
100
AcDbLine
 62
7
  6
CONTINUOUS
 10
98.2198153234
 20
-109.2122994151
 11
97.9322724877
 21
-109.4650252467
  0
LINE
  5
2F3
100
AcDbEntity
  8
0
100
AcDbLine
 62
7
  6
CONTINUOUS
 10
97.6569986843
 20
-111.7739574098
 11
97.0010270371
 21
-112.3484731123
  0
LINE
  5
2F4
100
AcDbEntity
  8
0
100
AcDbLine
 62
7
  6
CONTINUOUS
 10
96.515340845
 20
-113.7248886593
 11
98.2829211217
 21
-112.5134575838
  0
LINE
  5
2F5
100
AcDbEntity
  8
0
100
AcDbLine
 62
7
  6
CONTINUOUS
 10
98.2829211217
 20
-112.9302264695
 11
97.1335360195
 21
-113.681395902
  0
LWPOLYLINE
  5
2F6
100
AcDbEntity
  8
IMPORT_IGES
100
AcDbPolyline
 62
7
  6
CONTINUOUS
 90
25
 70
0
 10
92.6814824685
 20
-131.8503367936
 10
92.8421592186
 20
-131.751399784
 10
92.9975511295
 20
-131.6431557669
 10
93.1472502021
 20
-131.5258601369
 10
93.2910961351
 20
-131.399638497
 10
93.4289348945
 20
-131.2646260087
 10
93.5606188792
 20
-131.1209672465
 10
93.6860070787
 20
-130.9688160439
 10
93.8049652241
 20
-130.8083353283
 10
93.9173659321
 20
-130.6396969463
 10
94.0230888411
 20
-130.4630814803
 10
94.1220207405
 20
-130.2786780544
 10
94.2140556915
 20
-130.0866841326
 10
94.2990951408
 20
-129.8873053066
 10
94.3770480259
 20
-129.6807550763
 10
94.447830873
 20
-129.4672546209
 10
94.5113678861
 20
-129.247032562
 10
94.567591028
 20
-129.0203247189
 10
94.6164400937
 20
-128.787373856
 10
94.6578627744
 20
-128.5484294231
 10
94.6918147136
 20
-128.3037472876
 10
94.7182595548
 20
-128.0535894615
 10
94.73716898
 20
-127.79822382
 10
94.7485227407
 20
-127.5379238149
 10
94.752308679
 20
-127.2729681822
  0
LINE
  5
2F7
100
AcDbEntity
  8
0
100
AcDbLine
 62
7
  6
CONTINUOUS
 10
98.2829211217
 20
-114.812687688
 11
96.515235486
 21
-115.8333272197
  0
LINE
  5
2F8
100
AcDbEntity
  8
0
100
AcDbLine
 62
7
  6
CONTINUOUS
 10
96.515235486
 20
-116.2593556948
 11
98.2829211217
 21
-115.2387161631
  0
LINE
  5
2F9
100
AcDbEntity
  8
IMPORT_IGES
100
AcDbLine
 62
250
  6
CONTINUOUS
 10
100.4091629285
 20
-122.7819476556
 11
100.0556095379
 21
-122.9860849522
  0
LINE
  5
2FA
100
AcDbEntity
  8
IMPORT_IGES
100
AcDbLine
 62
250
  6
CONTINUOUS
 10
100.0556095379
 20
-124.2109087322
 11
94.752308679
 21
-127.2729681822
  0
LINE
  5
2FB
100
AcDbEntity
  8
IMPORT_IGES
100
AcDbLine
 62
7
  6
CONTINUOUS
 10
97.9847833274
 20
-128.7882773436
 11
92.6814824685
 21
-131.8503367936
  0
LINE
  5
2FC
100
AcDbEntity
  8
0
100
AcDbLine
 62
7
  6
CONTINUOUS
 10
97.1287248649
 20
-114.7502545556
 11
98.2829211217
 21
-114.175773105
  0
LINE
  5
2FD
100
AcDbEntity
  8
0
100
AcDbLine
 62
7
  6
CONTINUOUS
 10
98.2829211217
 20
-114.5833436366
 11
96.515340845
 21
-115.4196351963
  0
ENDSEC
  0
SECTION
  2
OBJECTS
  0
DICTIONARY
  5
C
100
AcDbDictionary
280
0
281
1
  3
ACAD_GROUP
350
D
  3
ACAD_MLINESTYLE
350
17
  3
ACAD_LAYOUT
350
1A
  3
ACAD_PLOTSETTINGS
350
19
  3
ACAD_PLOTSTYLENAME
350
E
  0
DICTIONARY
  5
D
102
{ACAD_REACTORS
330
C
102
}
100
AcDbDictionary
280
0
281
1
  0
ACDBDICTIONARYWDFLT
  5
E
102
{ACAD_REACTORS
330
C
102
}
100
AcDbDictionary
281
1
  3
Normal
350
F
100
AcDbDictionaryWithDefault
340
F
  0
DICTIONARY
  5
17
102
{ACAD_REACTORS
330
C
102
}
100
AcDbDictionary
280
0
281
1
  3
Standard
350
18
  0
DICTIONARY
  5
19
102
{ACAD_REACTORS
330
C
102
}
100
AcDbDictionary
281
1
  0
DICTIONARY
  5
1A
102
{ACAD_REACTORS
330
C
102
}
100
AcDbDictionary
281
1
  3
Model
350
2FE
  3
Layout1
350
2FF
  0
ACDBPLACEHOLDER
  5
F
102
{ACAD_REACTORS
330
E
102
}
  0
MLINESTYLE
  5
18
102
{ACAD_REACTORS
330
17
102
}
100
AcDbMlineStyle
  2
STANDARD
 70
0
  3

 62
256
 51
90.0
 52
90.0
 71
2
 49
0.5
 62
256
  6
BYLAYER
 49
-0.5
 62
256
  6
BYLAYER
  0
LAYOUT
  5
2FE
102
{ACAD_REACTORS
330
1A
102
}
100
AcDbPlotSettings
  1

  2
none_device
  4
ISO_A3_(420.00_x_297.00_MM)
  6

 40
0.0
 41
0.0
 42
0.0
 43
0.0
 44
420.0
 45
297.0
 46
0.0
 47
0.0
 48
0.0
 49
0.0
140
0.0
141
0.0
142
1.0
143
1.0
 70
1024
 72
1
 73
0
 74
0
  7

 75
0
147
1.0
148
0.0
149
0.0
100
AcDbLayout
  1
Model
 70
0
 71
0
 10
0.0
 20
0.0
 11
420.0
 21
297.0
 12
0.0
 22
0.0
 32
0.0
 14
0.0
 24
0.0
 34
0.0
 15
0.0
 25
0.0
 35
0.0
146
0.0
 13
0.0
 23
0.0
 33
0.0
 16
1.0
 26
0.0
 36
0.0
 17
0.0
 27
1.0
 37
0.0
 76
0
330
20F
345
0
346
0
  0
LAYOUT
  5
2FF
102
{ACAD_REACTORS
330
1A
102
}
100
AcDbPlotSettings
  1

  2
none_device
  4
ISO_A3_(420.00_x_297.00_MM)
  6

 40
0.0
 41
0.0
 42
0.0
 43
0.0
 44
420.0
 45
297.0
 46
0.0
 47
0.0
 48
0.0
 49
0.0
140
0.0
141
0.0
142
1.0
143
1.0
 70
0
 72
1
 73
0
 74
0
  7

 75
0
147
1.0
148
0.0
149
0.0
100
AcDbLayout
  1
Layout1
 70
0
 71
1
 10
0.0
 20
0.0
 11
420.0
 21
297.0
 12
0.0
 22
0.0
 32
0.0
 14
0.0
 24
0.0
 34
0.0
 15
0.0
 25
0.0
 35
0.0
146
0.0
 13
0.0
 23
0.0
 33
0.0
 16
1.0
 26
0.0
 36
0.0
 17
0.0
 27
1.0
 37
0.0
 76
0
330
210
345
0
346
0
  0
ENDSEC
  0
EOF
