  0
SECTION
  2
HEADER
  9
$ACADVER
  1
AC1021
  9
$DWGCODEPAGE
  3
ANSI_1252
  9
$EXTMAX
 10
297.0
 20
210.0
 30
0.0
  9
$EXTMIN
 10
0.0
 20
0.0
 30
0.0
  9
$LIMMIN
 10
0.0
 20
0.0
  9
$LIMMAX
 10
297.0
 20
210.0
  9
$VIEWCTR
 10
148.5
 20
105.0
  9
$VIEWSIZE
 40
210.0
  9
$CLAYER
  8
0
  9
$LTSCALE
 40
16.335
  9
$CELTYPE
  6
BYLAYER
  9
$DIMSCALE
 40
1.0
  9
$DIMASZ
 40
3.0
  9
$DIMEXO
 40
0.5
  9
$DIMDLI
 40
11.286
  9
$DIMEXE
 40
1.5
  9
$DIMCEN
 40
2.673
  9
$DIMLFAC
 40
1.0
  9
$DIMBLK
  1
_FILLED
  9
$DIMALT
 70
0
  9
$DIMALTF
 40
25.4
  9
$DIMTXT
 40
3.0
  9
$DIMTOL
 70
1
  9
$DIMLIM
 70
0
  9
$DIMTFAC
 40
1.0
  9
$DIMTP
 40
0.01
  9
$DIMTM
 40
0.01
  9
$DIMGAP
 40
0.625
  9
$DIMDSEP
 70
44
  9
$AUNITS
 70
0
  9
$PDMODE
 70
3
  9
$PDSIZE
 40
3.0
  9
$HANDSEED
  5
343
  9
$TILEMODE
 70
1
  9
$MEASUREMENT
 70
1
  9
$INSUNITS
 70
4
  0
ENDSEC
  0
SECTION
  2
CLASSES
  0
CLASS
  1
ACDBDICTIONARYWDFLT
  2
AcDbDictionaryWithDefault
  3
AutoCAD 2000
 90
0
 91
1
280
0
281
0
  0
CLASS
  1
ACDBPLACEHOLDER
  2
AcDbPlaceHolder
  3
AutoCAD 2000
 90
0
 91
1
280
0
281
0
  0
CLASS
  1
LAYOUT
  2
AcDbLayout
  3
AutoCAD 2000
 90
0
 91
0
280
0
281
0
  0
ENDSEC
  0
SECTION
  2
TABLES
  0
TABLE
  2
VPORT
  5
8
100
AcDbSymbolTable
 70
2
  0
VPORT
  5
1F4
100
AcDbSymbolTableRecord
100
AcDbViewportTableRecord
  2
*ACTIVE
 70
0
 10
0.0
 20
0.0
 11
1.0
 21
1.0
 12
148.5
 22
105.0
 13
0.0
 23
0.0
 14
1.0
 24
1.0
 15
0.0
 25
0.0
 16
0.0
 26
0.0
 36
1.0
 17
0.0
 27
0.0
 37
0.0
 40
210.0
 41
1.4142857143
 42
50.0
 43
0.0
 44
0.0
 50
0.0
 51
0.0
 71
0
 72
100
 73
1
 74
1
 75
0
 76
0
 77
0
 78
0
  0
ENDTAB
  0
TABLE
  2
LTYPE
  5
5
100
AcDbSymbolTable
 70
6
  0
LTYPE
  5
14
100
AcDbSymbolTableRecord
100
AcDbLinetypeTableRecord
  2
BYBLOCK
 70
0
  3

 72
65
 73
0
 40
0.0
  0
LTYPE
  5
15
100
AcDbSymbolTableRecord
100
AcDbLinetypeTableRecord
  2
BYLAYER
 70
0
  3

 72
65
 73
0
 40
0.0
  0
LTYPE
  5
16
100
AcDbSymbolTableRecord
100
AcDbLinetypeTableRecord
  2
CONTINUOUS
 70
64
  3
Solid line
 72
65
 73
0
 40
0.0
  0
LTYPE
  5
1F5
100
AcDbSymbolTableRecord
100
AcDbLinetypeTableRecord
  2
CENTER
 70
64
  3
____ _ ____ _ ____ _ ____ _ ____ _ ____ _ ____
 72
65
 73
4
 40
0.6
 49
0.375
 74
0
 49
-0.075
 74
0
 49
0.075
 74
0
 49
-0.075
 74
0
  0
LTYPE
  5
1F6
100
AcDbSymbolTableRecord
100
AcDbLinetypeTableRecord
  2
HIDDEN
 70
64
  3
- - - - - - - - - - - - - - - - - - - -
 72
65
 73
2
 40
0.2
 49
0.1
 74
0
 49
-0.1
 74
0
  0
LTYPE
  5
1F7
100
AcDbSymbolTableRecord
100
AcDbLinetypeTableRecord
  2
PHANTOM
 70
64
  3
_____ _ _ _____ _ _ _____ _ _ _____
 72
65
 73
6
 40
0.8
 49
0.45
 74
0
 49
-0.05
 74
0
 49
0.1
 74
0
 49
-0.05
 74
0
 49
0.1
 74
0
 49
-0.05
 74
0
  0
LTYPE
  5
1F8
100
AcDbSymbolTableRecord
100
AcDbLinetypeTableRecord
  2
DOT
 70
64
  3
. . . . . . . . . . . . . . . . . . . .
 72
65
 73
2
 40
0.2
 49
0.1
 74
0
 49
-0.1
 74
0
  0
LTYPE
  5
1F9
100
AcDbSymbolTableRecord
100
AcDbLinetypeTableRecord
  2
DASHED
 70
64
  3
- - - - - - - - - - - - - - - - - - - -
 72
65
 73
2
 40
0.2
 49
0.1
 74
0
 49
-0.1
 74
0
  0
ENDTAB
  0
TABLE
  2
LAYER
  5
2
100
AcDbSymbolTable
 70
36
  0
LAYER
  5
10
100
AcDbSymbolTableRecord
100
AcDbLayerTableRecord
  2
0
 70
0
 62
7
  6
CONTINUOUS
370
-3
390
F
  0
LAYER
  5
1FA
100
AcDbSymbolTableRecord
100
AcDbLayerTableRecord
  2
DEFAULT_1
 70
0
 62
7
  6
CENTER
370
-3
390
F
  0
LAYER
  5
1FB
100
AcDbSymbolTableRecord
100
AcDbLayerTableRecord
  2
DEFAULT_2
 70
0
 62
7
  6
HIDDEN
370
-3
390
F
  0
LAYER
  5
1FC
100
AcDbSymbolTableRecord
100
AcDbLayerTableRecord
  2
DEFAULT_3
 70
0
 62
7
  6
PHANTOM
370
-3
390
F
  0
LAYER
  5
1FD
100
AcDbSymbolTableRecord
100
AcDbLayerTableRecord
  2
ASSI
 70
0
 62
7
  6
CONTINUOUS
370
-3
390
F
  0
LAYER
  5
1FE
100
AcDbSymbolTableRecord
100
AcDbLayerTableRecord
  2
COORDINATE
 70
0
 62
7
  6
CONTINUOUS
370
-3
390
F
  0
LAYER
  5
1FF
100
AcDbSymbolTableRecord
100
AcDbLayerTableRecord
  2
COPY_PUBLISH
 70
0
 62
7
  6
CONTINUOUS
370
-3
390
F
  0
LAYER
  5
200
100
AcDbSymbolTableRecord
100
AcDbLayerTableRecord
  2
COSMETICI
 70
0
 62
7
  6
CONTINUOUS
370
-3
390
F
  0
LAYER
  5
201
100
AcDbSymbolTableRecord
100
AcDbLayerTableRecord
  2
CURVE
 70
0
 62
7
  6
CONTINUOUS
370
-3
390
F
  0
LAYER
  5
202
100
AcDbSymbolTableRecord
100
AcDbLayerTableRecord
  2
DRAFT
 70
0
 62
7
  6
CONTINUOUS
370
-3
390
F
  0
LAYER
  5
203
100
AcDbSymbolTableRecord
100
AcDbLayerTableRecord
  2
IMPORT_IGES
 70
0
 62
7
  6
CONTINUOUS
370
-3
390
F
  0
LAYER
  5
204
100
AcDbSymbolTableRecord
100
AcDbLayerTableRecord
  2
INTFCLR_2
 70
0
 62
7
  6
CONTINUOUS
370
-3
390
F
  0
LAYER
  5
205
100
AcDbSymbolTableRecord
100
AcDbLayerTableRecord
  2
INTF_1
 70
0
 62
7
  6
CONTINUOUS
370
-3
390
F
  0
LAYER
  5
206
100
AcDbSymbolTableRecord
100
AcDbLayerTableRecord
  2
INTF_2
 70
0
 62
7
  6
CONTINUOUS
370
-3
390
F
  0
LAYER
  5
207
100
AcDbSymbolTableRecord
100
AcDbLayerTableRecord
  2
INTF_4
 70
0
 62
7
  6
CONTINUOUS
370
-3
390
F
  0
LAYER
  5
208
100
AcDbSymbolTableRecord
100
AcDbLayerTableRecord
  2
INTF_7
 70
0
 62
7
  6
CONTINUOUS
370
-3
390
F
  0
LAYER
  5
209
100
AcDbSymbolTableRecord
100
AcDbLayerTableRecord
  2
INTF_9
 70
0
 62
7
  6
CONTINUOUS
370
-3
390
F
  0
LAYER
  5
20A
100
AcDbSymbolTableRecord
100
AcDbLayerTableRecord
  2
NOTE
 70
0
 62
7
  6
CONTINUOUS
370
-3
390
F
  0
LAYER
  5
20B
100
AcDbSymbolTableRecord
100
AcDbLayerTableRecord
  2
PIANI
 70
0
 62
7
  6
CONTINUOUS
370
-3
390
F
  0
LAYER
  5
20C
100
AcDbSymbolTableRecord
100
AcDbLayerTableRecord
  2
PUNTI
 70
0
 62
7
  6
CONTINUOUS
370
-3
390
F
  0
LAYER
  5
20D
100
AcDbSymbolTableRecord
100
AcDbLayerTableRecord
  2
RACCORDO
 70
0
 62
7
  6
CONTINUOUS
370
-3
390
F
  0
LAYER
  5
20E
100
AcDbSymbolTableRecord
100
AcDbLayerTableRecord
  2
RGB__255__255__255__
 70
0
 62
7
  6
CONTINUOUS
370
-3
390
F
  0
LAYER
  5
20F
100
AcDbSymbolTableRecord
100
AcDbLayerTableRecord
  2
RGB____0____0____0__
 70
0
 62
7
  6
CONTINUOUS
370
-3
390
F
  0
LAYER
  5
210
100
AcDbSymbolTableRecord
100
AcDbLayerTableRecord
  2
SIMBOLI
 70
0
 62
7
  6
CONTINUOUS
370
-3
390
F
  0
LAYER
  5
211
100
AcDbSymbolTableRecord
100
AcDbLayerTableRecord
  2
SMUSSO
 70
0
 62
7
  6
CONTINUOUS
370
-3
390
F
  0
LAYER
  5
212
100
AcDbSymbolTableRecord
100
AcDbLayerTableRecord
  2
SNAPLINE
 70
0
 62
7
  6
CONTINUOUS
370
-3
390
F
  0
LAYER
  5
213
100
AcDbSymbolTableRecord
100
AcDbLayerTableRecord
  2
SUPERFICI
 70
0
 62
7
  6
CONTINUOUS
370
-3
390
F
  0
LAYER
  5
214
100
AcDbSymbolTableRecord
100
AcDbLayerTableRecord
  2
TRASH
 70
0
 62
7
  6
CONTINUOUS
370
-3
390
F
  0
ENDTAB
  0
TABLE
  2
STYLE
  5
3
100
AcDbSymbolTable
 70
1
  0
STYLE
  5
11
100
AcDbSymbolTableRecord
100
AcDbTextStyleTableRecord
  2
STANDARD
 70
0
 40
0.0
 41
0.8
 50
0.0
 71
0
 42
0.2
  3
txt
  4

  0
STYLE
  5
215
100
AcDbSymbolTableRecord
100
AcDbTextStyleTableRecord
  2
TEXTSTYLE_1
 70
0
 40
0.0
 41
0.8
 50
0.0
 71
0
 42
0.2
  3
gdt
  4

  0
ENDTAB
  0
TABLE
  2
VIEW
  5
6
100
AcDbSymbolTable
 70
0
  0
ENDTAB
  0
TABLE
  2
UCS
  5
7
100
AcDbSymbolTable
 70
0
  0
ENDTAB
  0
TABLE
  2
APPID
  5
9
100
AcDbSymbolTable
 70
1
  0
APPID
  5
216
100
AcDbSymbolTableRecord
100
AcDbRegAppTableRecord
  2
ACAD
 70
0
  0
ENDTAB
  0
TABLE
  2
BLOCK_RECORD
  5
1
100
AcDbSymbolTable
 70
0
  0
BLOCK_RECORD
  5
217
100
AcDbSymbolTableRecord
100
AcDbBlockTableRecord
  2
*Model_Space
  0
BLOCK_RECORD
  5
218
100
AcDbSymbolTableRecord
100
AcDbBlockTableRecord
  2
*Paper_Space
  0
BLOCK_RECORD
  5
219
100
AcDbSymbolTableRecord
100
AcDbBlockTableRecord
  2
_FILLED
  0
ENDTAB
  0
TABLE
  2
DIMSTYLE
  5
A
100
AcDbSymbolTable
 70
1
100
AcDbDimStyleTable
 71
0
  0
DIMSTYLE
105
21A
100
AcDbSymbolTableRecord
100
AcDbDimStyleTableRecord
  2
STANDARD
 70
0
  3

  4

 40
1.0
 41
3.0
 42
0.5
 43
0.38
 44
1.5
 45
0.0
 46
0.0
 47
0.01
 48
0.01
140
3.0
141
0.09
142
0.0
143
25.4
144
1.0
145
0.0
146
1.0
147
0.625
 71
1.0
 72
0.0
 73
0
 74
0
 75
0
 76
0
 77
1
 78
8
 79
2
170
0
171
1
172
0
173
0
174
0
175
0
176
0
177
0
178
0
270
2
179
2
271
2
272
2
273
2
274
2
275
0
280
0
281
0
282
0
283
1
284
8
285
0
286
0
287
3
288
0
340
11
278
44
341
219
342
219
343
219
344
219
  0
ENDTAB
  0
ENDSEC
  0
SECTION
  2
BLOCKS
  0
BLOCK
  5
20
100
AcDbEntity
  8
0
100
AcDbBlockBegin
  2
*Model_Space
 70
0
 10
0.0
 20
0.0
 30
0.0
  3
*Model_Space
  1

  0
ENDBLK
  5
21
100
AcDbEntity
  8
0
100
AcDbBlockEnd
  0
BLOCK
  5
1C
100
AcDbEntity
  8
0
100
AcDbBlockBegin
  2
*Paper_Space
 70
0
 10
0.0
 20
0.0
 30
0.0
  3
*Paper_Space
  1

  0
ENDBLK
  5
1D
100
AcDbEntity
  8
0
100
AcDbBlockEnd
  0
BLOCK
  5
21B
100
AcDbEntity
  8
0
100
AcDbBlockBegin
  2
_FILLED
 70
64
 10
0.0
 20
0.0
  3
_FILLED
  1

  0
SOLID
  5
21C
100
AcDbEntity
  8
0
  6
BYBLOCK
 62
0
100
AcDbTrace
 10
0.0
 20
0.0
 11
-1.0
 21
0.3166666667
 12
-1.0
 22
-0.3166666667
 13
-1.0
 23
-0.3166666667
  0
ENDBLK
  5
21D
100
AcDbEntity
  8
0
  6
BYBLOCK
 62
0
100
AcDbBlockEnd
  0
ENDSEC
  0
SECTION
  2
ENTITIES
  0
LINE
  5
21E
100
AcDbEntity
  8
0
100
AcDbLine
 62
7
  6
CONTINUOUS
 10
-14.383420091
 20
24.4134570738
 11
-14.1712880567
 21
24.519523091
  0
LINE
  5
21F
100
AcDbEntity
  8
0
100
AcDbLine
 62
250
  6
CONTINUOUS
 10
-14.1598132933
 20
24.3992561802
 11
-13.9476812589
 21
24.5053221974
  0
LINE
  5
220
100
AcDbEntity
  8
0
100
AcDbLine
 62
7
  6
CONTINUOUS
 10
-6.9553370592
 20
13.9778786081
 11
-9.3369427018
 21
13.126275696
  0
LINE
  5
221
100
AcDbEntity
  8
ASSI
100
AcDbLine
 62
7
  6
CONTINUOUS
 10
-14.1951686323
 20
-10.4326427215
 11
13.9476812589
 21
-24.5040676671
  0
LINE
  5
222
100
AcDbEntity
  8
ASSI
100
AcDbLine
 62
7
  6
CONTINUOUS
 10
-14.5487220229
 20
1.4354769249
 11
-14.5487220229
 21
-9.8228533243
  0
LINE
  5
223
100
AcDbEntity
  8
ASSI
100
AcDbLine
 62
7
  6
CONTINUOUS
 10
-14.5133666839
 20
1.4531545944
 11
-14.5133666839
 21
24.1430201736
  0
LINE
  5
224
100
AcDbEntity
  8
CURVE
100
AcDbLine
 62
7
  6
CENTER
 10
11.1899648123
 20
-21.6096649871
 11
-11.4374521857
 21
-10.2959564882
  0
LINE
  5
225
100
AcDbEntity
  8
CURVE
100
AcDbLine
 62
7
  6
CENTER
 10
-11.4374521857
 20
-10.2959564882
 11
-11.4374521857
 21
-1.6357024503
  0
LINE
  5
226
100
AcDbEntity
  8
0
100
AcDbLine
 62
7
  6
CONTINUOUS
 10
-9.4575531984
 20
12.9028181944
 11
-9.4575531984
 21
9.2211129742
  0
LINE
  5
227
100
AcDbEntity
  8
ASSI
100
AcDbLine
 62
7
  6
CONTINUOUS
 10
-14.5133666839
 20
1.4531545944
 11
-14.5487220229
 21
1.4354769249
  0
LINE
  5
228
100
AcDbEntity
  8
0
100
AcDbLine
 62
7
  6
CONTINUOUS
 10
-5.5684659018
 20
7.2765693259
 11
-5.5684659018
 21
14.2598768866
  0
LINE
  5
229
100
AcDbEntity
  8
CURVE
100
AcDbLine
 62
7
  6
CENTER
 10
-11.4374521857
 20
-1.6357024503
 11
11.1899648123
 21
-12.9494109493
  0
LINE
  5
22A
100
AcDbEntity
  8
ASSI
100
AcDbLine
 62
7
  6
CONTINUOUS
 10
14.3012346495
 20
-12.9895014113
 11
-14.5487220229
 21
1.4354769249
  0
LINE
  5
22B
100
AcDbEntity
  8
ASSI
100
AcDbLine
 62
7
  6
CONTINUOUS
 10
14.3365899886
 20
-12.9718237418
 11
-14.5133666839
 21
1.4531545944
  0
LINE
  5
22C
100
AcDbEntity
  8
0
100
AcDbLine
 62
7
  6
CONTINUOUS
 10
-2.7606264905
 20
-0.7719356619
 11
-1.5762242223
 21
3.1808712661
  0
LINE
  5
22D
100
AcDbEntity
  8
0
100
AcDbLine
 62
7
  6
CONTINUOUS
 10
-2.0464985774
 20
-0.8667880979
 11
-0.9900732817
 21
2.658690395
  0
LINE
  5
22E
100
AcDbEntity
  8
0
100
AcDbLine
 62
7
  6
CONTINUOUS
 10
-1.4411345565
 20
3.4877062682
 11
-1.1236773877
 21
3.8051634371
  0
LINE
  5
22F
100
AcDbEntity
  8
0
100
AcDbLine
 62
7
  6
CONTINUOUS
 10
-1.5925952394
 20
3.1262348713
 11
-0.8056841287
 21
3.9131459821
  0
LINE
  5
230
100
AcDbEntity
  8
0
100
AcDbLine
 62
7
  6
CONTINUOUS
 10
-1.6824437972
 20
2.8263755995
 11
-0.59109019
 21
3.9177292067
  0
LINE
  5
231
100
AcDbEntity
  8
0
100
AcDbLine
 62
7
  6
CONTINUOUS
 10
-1.772292355
 20
2.5265163277
 11
-0.4106634697
 21
3.8881452131
  0
LINE
  5
232
100
AcDbEntity
  8
0
100
AcDbLine
 62
7
  6
CONTINUOUS
 10
-1.8621409128
 20
2.226657056
 11
-0.2500625625
 21
3.8387354062
  0
LINE
  5
233
100
AcDbEntity
  8
0
100
AcDbLine
 62
7
  6
CONTINUOUS
 10
-1.9519894705
 20
1.9267977842
 11
-0.1032621909
 21
3.7755250638
  0
LINE
  5
234
100
AcDbEntity
  8
0
100
AcDbLine
 62
7
  6
CONTINUOUS
 10
-2.0418380283
 20
1.6269385124
 11
-0.9807289977
 21
2.688047543
  0
LINE
  5
235
100
AcDbEntity
  8
0
100
AcDbLine
 62
7
  6
CONTINUOUS
 10
-0.5760305146
 20
3.0927460261
 11
0.0329484442
 21
3.7017249849
  0
LINE
  5
236
100
AcDbEntity
  8
0
100
AcDbLine
 62
7
  6
CONTINUOUS
 10
-2.1316865861
 20
1.3270792406
 11
-1.0713662309
 21
2.3873995957
  0
LINE
  5
237
100
AcDbEntity
  8
0
100
AcDbLine
 62
7
  6
CONTINUOUS
 10
-0.3574426641
 20
3.1013231625
 11
0.1605116341
 21
3.6192774608
  0
LINE
  5
238
100
AcDbEntity
  8
0
100
AcDbLine
 62
7
  6
CONTINUOUS
 10
-2.2215351438
 20
1.0272199688
 11
-1.1612228641
 21
2.0875322485
  0
LINE
  5
239
100
AcDbEntity
  8
0
100
AcDbLine
 62
7
  6
CONTINUOUS
 10
-0.190022215
 20
3.0587328976
 11
0.2806964455
 21
3.5294515582
  0
LINE
  5
23A
100
AcDbEntity
  8
0
100
AcDbLine
 62
7
  6
CONTINUOUS
 10
-2.3113837016
 20
0.727360697
 11
-1.2510794973
 21
1.7876649013
  0
LINE
  5
23B
100
AcDbEntity
  8
0
100
AcDbLine
 62
7
  6
CONTINUOUS
 10
-0.0463108224
 20
2.9924335762
 11
0.3943730906
 21
3.4331174892
  0
LINE
  5
23C
100
AcDbEntity
  8
0
100
AcDbLine
 62
7
  6
CONTINUOUS
 10
-2.4012322594
 20
0.4275014253
 11
-1.3409361305
 21
1.4877975541
  0
LINE
  5
23D
100
AcDbEntity
  8
0
100
AcDbLine
 62
7
  6
CONTINUOUS
 10
0.0818562885
 20
2.9105899731
 11
0.5021551372
 21
3.3308888218
  0
LINE
  5
23E
100
AcDbEntity
  8
0
100
AcDbLine
 62
7
  6
CONTINUOUS
 10
-2.4910808171
 20
0.1276421535
 11
-1.4307927637
 21
1.1879302069
  0
LINE
  5
23F
100
AcDbEntity
  8
0
100
AcDbLine
 62
7
  6
CONTINUOUS
 10
0.1981918654
 20
2.816914836
 11
0.6044793945
 21
3.2232023651
  0
LINE
  5
240
100
AcDbEntity
  8
0
100
AcDbLine
 62
7
  6
CONTINUOUS
 10
-2.5809293749
 20
-0.1722171183
 11
-1.5206493969
 21
0.8880628597
  0
LINE
  5
241
100
AcDbEntity
  8
0
100
AcDbLine
 62
7
  6
CONTINUOUS
 10
0.3046812054
 20
2.713393462
 11
0.7016532442
 21
3.1103655008
  0
LINE
  5
242
100
AcDbEntity
  8
0
100
AcDbLine
 62
250
  6
CONTINUOUS
 10
13.983036598
 20
10.3278312346
 11
14.1951686323
 21
10.4338972518
  0
LINE
  5
243
100
AcDbEntity
  8
0
100
AcDbLine
 62
250
  6
CONTINUOUS
 10
14.3365899886
 20
9.7180418374
 11
14.5487220229
 21
9.8241078546
  0
LINE
  5
244
100
AcDbEntity
  8
0
100
AcDbLine
 62
7
  6
CONTINUOUS
 10
2.2905671826
 20
-3.7888745382
 11
-0.0845941586
 21
-2.6012938676
  0
LINE
  5
245
100
AcDbEntity
  8
0
100
AcDbLine
 62
7
  6
CONTINUOUS
 10
-1.4933663109
 20
-1.8969077914
 11
-2.4675499947
 21
-1.4098159495
  0
LINE
  5
246
100
AcDbEntity
  8
0
100
AcDbLine
 62
7
  6
CONTINUOUS
 10
1.8695157654
 20
-2.8247952693
 11
-0.3093742254
 21
-1.7353502739
  0
LINE
  5
247
100
AcDbEntity
  8
0
100
AcDbLine
 62
7
  6
CONTINUOUS
 10
-1.4933663109
 20
-1.1433542311
 11
-2.0464985774
 21
-0.8667880979
  0
LINE
  5
248
100
AcDbEntity
  8
0
100
AcDbLine
 62
7
  6
CONTINUOUS
 10
-0.6024496957
 20
-1.8510240592
 11
-0.9295703222
 21
-2.9433863465
  0
LINE
  5
249
100
AcDbEntity
  8
0
100
AcDbLine
 62
7
  6
CONTINUOUS
 10
-2.6707779327
 20
-0.4720763901
 11
-1.6105060301
 21
0.5881955125
  0
LINE
  5
24A
100
AcDbEntity
  8
0
100
AcDbLine
 62
7
  6
CONTINUOUS
 10
0.4024457886
 20
2.6011473312
 11
0.7938834533
 21
2.9925849959
  0
LINE
  5
24B
100
AcDbEntity
  8
0
100
AcDbLine
 62
7
  6
CONTINUOUS
 10
-2.7606264905
 20
-0.7719356619
 11
-1.7003626633
 21
0.2883281653
  0
LINE
  5
24C
100
AcDbEntity
  8
0
100
AcDbLine
 62
7
  6
CONTINUOUS
 10
0.4920877658
 20
2.4807785944
 11
0.8812935545
 21
2.8699843831
  0
LINE
  5
24D
100
AcDbEntity
  8
0
100
AcDbLine
 62
7
  6
CONTINUOUS
 10
-2.7640314847
 20
-0.9853513702
 11
-1.7902192965
 21
-0.0115391819
  0
LINE
  5
24E
100
AcDbEntity
  8
0
100
AcDbLine
 62
7
  6
CONTINUOUS
 10
0.5738376127
 20
2.3525177273
 11
0.9639334837
 21
2.7426135983
  0
LINE
  5
24F
100
AcDbEntity
  8
0
100
AcDbLine
 62
7
  6
CONTINUOUS
 10
-2.7107828244
 20
-1.1421134238
 11
-1.8800759297
 21
-0.3114065291
  0
LINE
  5
250
100
AcDbEntity
  8
0
100
AcDbLine
 62
7
  6
CONTINUOUS
 10
0.6476042404
 20
2.216273641
 11
1.0417833203
 21
2.6104527208
  0
LINE
  5
251
100
AcDbEntity
  8
0
100
AcDbLine
 62
7
  6
CONTINUOUS
 10
-2.6301923556
 20
-1.271533669
 11
-1.9699325629
 21
-0.6112738763
  0
LINE
  5
252
100
AcDbEntity
  8
0
100
AcDbLine
 62
7
  6
CONTINUOUS
 10
0.712955602
 20
2.0716142886
 11
1.1147518061
 21
2.4734104926
  0
LINE
  5
253
100
AcDbEntity
  8
0
100
AcDbLine
 62
7
  6
CONTINUOUS
 10
-2.5239083907
 20
-1.3752604182
 11
-2.0257902394
 21
-0.8771422669
  0
LINE
  5
254
100
AcDbEntity
  8
0
100
AcDbLine
 62
7
  6
CONTINUOUS
 10
0.7690192965
 20
1.9176672691
 11
1.1826693768
 21
2.3313173494
  0
LINE
  5
255
100
AcDbEntity
  8
0
100
AcDbLine
 62
7
  6
CONTINUOUS
 10
-2.3881521369
 20
-1.4495148784
 11
-1.8857830967
 21
-0.9471458382
  0
LINE
  5
256
100
AcDbEntity
  8
0
100
AcDbLine
 62
7
  6
CONTINUOUS
 10
0.8142459596
 20
1.7528832181
 11
1.2452744138
 21
2.1839116724
  0
LINE
  5
257
100
AcDbEntity
  8
0
100
AcDbLine
 62
7
  6
CONTINUOUS
 10
-2.2481449943
 20
-1.5195184497
 11
-1.7457759541
 21
-1.0171494095
  0
LINE
  5
258
100
AcDbEntity
  8
0
100
AcDbLine
 62
7
  6
CONTINUOUS
 10
0.8535891159
 20
1.5822156604
 11
1.3021899378
 21
2.0308164823
  0
LINE
  5
259
100
AcDbEntity
  8
0
100
AcDbLine
 62
7
  6
CONTINUOUS
 10
-2.1081378516
 20
-1.5895220211
 11
-1.6057688114
 21
-1.0871529809
  0
LINE
  5
25A
100
AcDbEntity
  8
0
100
AcDbLine
 62
7
  6
CONTINUOUS
 10
0.8929322723
 20
1.4115481028
 11
1.3528853885
 21
1.871501219
  0
LINE
  5
25B
100
AcDbEntity
  8
0
100
AcDbLine
 62
7
  6
CONTINUOUS
 10
-1.9681307089
 20
-1.6595255924
 11
-1.4667066288
 21
-1.1581015124
  0
LINE
  5
25C
100
AcDbEntity
  8
0
100
AcDbLine
 62
7
  6
CONTINUOUS
 10
0.9322754286
 20
1.2408805451
 11
1.39661308
 21
1.7052181965
  0
LINE
  5
25D
100
AcDbEntity
  8
0
100
AcDbLine
 62
7
  6
CONTINUOUS
 10
-1.8281235662
 20
-1.7295291638
 11
-1.3532996963
 21
-1.2547052938
  0
LINE
  5
25E
100
AcDbEntity
  8
0
100
AcDbLine
 62
7
  6
CONTINUOUS
 10
0.971618585
 20
1.0702129874
 11
1.4359761153
 21
1.5345705178
  0
LINE
  5
25F
100
AcDbEntity
  8
0
100
AcDbLine
 62
7
  6
CONTINUOUS
 10
-1.6881164236
 20
-1.7995327351
 11
-1.2669132582
 21
-1.3783295697
  0
LINE
  5
260
100
AcDbEntity
  8
0
100
AcDbLine
 62
7
  6
CONTINUOUS
 10
1.0109617413
 20
0.8995454298
 11
1.4753183181
 21
1.3639020066
  0
LINE
  5
261
100
AcDbEntity
  8
0
100
AcDbLine
 62
7
  6
CONTINUOUS
 10
-1.5481092809
 20
-1.8695363064
 11
-1.206401499
 21
-1.5278285245
  0
LINE
  5
262
100
AcDbEntity
  8
0
100
AcDbLine
 62
7
  6
CONTINUOUS
 10
1.0503048976
 20
0.7288778721
 11
1.5146605209
 21
1.1932334954
  0
LINE
  5
263
100
AcDbEntity
  8
0
100
AcDbLine
 62
7
  6
CONTINUOUS
 10
-0.0845941586
 20
-2.6012938676
 11
-0.3434193815
 21
-3.4655672176
  0
LINE
  5
264
100
AcDbEntity
  8
0
100
AcDbLine
 62
7
  6
CONTINUOUS
 10
-1.3948834792
 20
-1.9263212188
 11
-1.1881107113
 21
-1.7195484508
  0
LINE
  5
265
100
AcDbEntity
  8
0
100
AcDbLine
 62
7
  6
CONTINUOUS
 10
1.089648054
 20
0.5582103144
 11
1.5540027237
 21
1.0225649842
  0
LINE
  5
266
100
AcDbEntity
  8
0
100
AcDbLine
 62
7
  6
CONTINUOUS
 10
1.1289912103
 20
0.3875427568
 11
1.5933449265
 21
0.851896473
  0
LINE
  5
267
100
AcDbEntity
  8
0
100
AcDbLine
 62
7
  6
CONTINUOUS
 10
1.1683343667
 20
0.2168751991
 11
1.6326871294
 21
0.6812279618
  0
LINE
  5
268
100
AcDbEntity
  8
0
100
AcDbLine
 62
7
  6
CONTINUOUS
 10
1.207677523
 20
0.0462076414
 11
1.6720293322
 21
0.5105594506
  0
LINE
  5
269
100
AcDbEntity
  8
0
100
AcDbLine
 62
7
  6
CONTINUOUS
 10
-0.6549891385
 20
-2.0264697341
 11
-0.3476562243
 21
-1.7191368199
  0
LINE
  5
26A
100
AcDbEntity
  8
0
100
AcDbLine
 62
7
  6
CONTINUOUS
 10
1.2470206794
 20
-0.1244599162
 11
1.711371535
 21
0.3398909394
  0
LINE
  5
26B
100
AcDbEntity
  8
0
100
AcDbLine
 62
7
  6
CONTINUOUS
 10
-0.7447636415
 20
-2.3262549511
 11
-0.2056975004
 21
-1.78718881
  0
LINE
  5
26C
100
AcDbEntity
  8
0
100
AcDbLine
 62
7
  6
CONTINUOUS
 10
1.2863638357
 20
-0.2951274739
 11
1.7507137378
 21
0.1692224282
  0
LINE
  5
26D
100
AcDbEntity
  8
0
100
AcDbLine
 62
7
  6
CONTINUOUS
 10
-0.8345381445
 20
-2.6260401681
 11
-0.0656903499
 21
-1.8571923735
  0
LINE
  5
26E
100
AcDbEntity
  8
0
100
AcDbLine
 62
7
  6
CONTINUOUS
 10
1.3257069921
 20
-0.4657950316
 11
1.7900559406
 21
-0.001446083
  0
LINE
  5
26F
100
AcDbEntity
  8
0
100
AcDbLine
 62
7
  6
CONTINUOUS
 10
-0.9243126475
 20
-2.9258253851
 11
0.0743168006
 21
-1.9271959371
  0
LINE
  5
270
100
AcDbEntity
  8
0
100
AcDbLine
 62
7
  6
CONTINUOUS
 10
1.3650501484
 20
-0.6364625892
 11
1.8293981434
 21
-0.1721145942
  0
LINE
  5
271
100
AcDbEntity
  8
0
100
AcDbLine
 62
7
  6
CONTINUOUS
 10
-0.9349739585
 20
-3.1464974101
 11
0.2143239511
 21
-1.9971995006
  0
LINE
  5
272
100
AcDbEntity
  8
0
100
AcDbLine
 62
7
  6
CONTINUOUS
 10
1.4043933048
 20
-0.8071301469
 11
1.8687403462
 21
-0.3427831054
  0
LINE
  5
273
100
AcDbEntity
  8
0
100
AcDbLine
 62
7
  6
CONTINUOUS
 10
-0.883671695
 20
-3.3052058606
 11
0.3543311016
 21
-2.0672030641
  0
LINE
  5
274
100
AcDbEntity
  8
0
100
AcDbLine
 62
7
  6
CONTINUOUS
 10
1.4437364611
 20
-0.9777977045
 11
1.9080825491
 21
-0.5134516166
  0
LINE
  5
275
100
AcDbEntity
  8
0
100
AcDbLine
 62
7
  6
CONTINUOUS
 10
-0.8045270476
 20
-3.4360719273
 11
-0.1336897385
 21
-2.7652346181
  0
LINE
  5
276
100
AcDbEntity
  8
0
100
AcDbLine
 62
7
  6
CONTINUOUS
 10
-0.0080307234
 20
-2.6395756031
 11
0.494338252
 21
-2.1372066276
  0
LINE
  5
277
100
AcDbEntity
  8
0
100
AcDbLine
 62
7
  6
CONTINUOUS
 10
1.4830796175
 20
-1.1484652622
 11
1.9474247519
 21
-0.6841201278
  0
LINE
  5
278
100
AcDbEntity
  8
0
100
AcDbLine
 62
7
  6
CONTINUOUS
 10
-0.6999046902
 20
-3.5414602839
 11
-0.2234679828
 21
-3.0650235765
  0
LINE
  5
279
100
AcDbEntity
  8
0
100
AcDbLine
 62
7
  6
CONTINUOUS
 10
0.1319763974
 20
-2.7095791963
 11
0.6343454025
 21
-2.2072101912
  0
LINE
  5
27A
100
AcDbEntity
  8
0
100
AcDbLine
 62
7
  6
CONTINUOUS
 10
1.5224227738
 20
-1.3191328199
 11
1.9867669547
 21
-0.854788639
  0
LINE
  5
27B
100
AcDbEntity
  8
0
100
AcDbLine
 62
7
  6
CONTINUOUS
 10
1.8695157654
 20
-2.8247952693
 11
0.8132955609
 21
1.7570059737
  0
LINE
  5
27C
100
AcDbEntity
  8
0
100
AcDbLine
 62
7
  6
CONTINUOUS
 10
2.5836436784
 20
-3.4440707463
 11
1.3994465016
 21
1.6930359041
  0
LINE
  5
27D
100
AcDbEntity
  8
0
100
AcDbLine
 62
7
  6
CONTINUOUS
 10
3.4870299163
 20
3.8275443919
 11
3.3620403074
 21
5.3446042062
  0
LINE
  5
27E
100
AcDbEntity
  8
0
100
AcDbLine
 62
7
  6
CONTINUOUS
 10
2.9307518399
 20
5.3660240566
 11
2.8531892971
 21
2.7631117472
  0
LINE
  5
27F
100
AcDbEntity
  8
0
100
AcDbLine
 62
7
  6
CONTINUOUS
 10
2.2796210458
 20
3.0753076563
 11
2.3645940677
 21
5.8965731659
  0
LINE
  5
280
100
AcDbEntity
  8
0
100
AcDbLine
 62
7
  6
CONTINUOUS
 10
6.6794508632
 20
8.4791884575
 11
6.8237077177
 21
8.9032103142
  0
LINE
  5
281
100
AcDbEntity
  8
0
100
AcDbLine
 62
7
  6
CONTINUOUS
 10
-0.5566925314
 20
-3.6082588392
 11
-0.3132462271
 21
-3.3648125348
  0
LINE
  5
282
100
AcDbEntity
  8
0
100
AcDbLine
 62
7
  6
CONTINUOUS
 10
0.2719835183
 20
-2.7795827894
 11
0.774352553
 21
-2.2772137547
  0
LINE
  5
283
100
AcDbEntity
  8
0
100
AcDbLine
 62
7
  6
CONTINUOUS
 10
1.5617659302
 20
-1.4898003775
 11
2.0261091575
 21
-1.0254571502
  0
LINE
  5
284
100
AcDbEntity
  8
0
100
AcDbLine
 62
7
  6
CONTINUOUS
 10
0.4119906391
 20
-2.8495863826
 11
0.9143597035
 21
-2.3472173182
  0
LINE
  5
285
100
AcDbEntity
  8
0
100
AcDbLine
 62
7
  6
CONTINUOUS
 10
1.6011090865
 20
-1.6604679352
 11
2.0654513603
 21
-1.1961256614
  0
LINE
  5
286
100
AcDbEntity
  8
0
100
AcDbLine
 62
7
  6
CONTINUOUS
 10
0.5519977599
 20
-2.9195899758
 11
1.054366854
 21
-2.4172208818
  0
LINE
  5
287
100
AcDbEntity
  8
0
100
AcDbLine
 62
7
  6
CONTINUOUS
 10
1.6404522429
 20
-1.8311354929
 11
2.1047935631
 21
-1.3667941726
  0
LINE
  5
288
100
AcDbEntity
  8
0
100
AcDbLine
 62
7
  6
CONTINUOUS
 10
0.6920048808
 20
-2.989593569
 11
1.1943740045
 21
-2.4872244453
  0
LINE
  5
289
100
AcDbEntity
  8
0
100
AcDbLine
 62
7
  6
CONTINUOUS
 10
1.6797953992
 20
-2.0018030505
 11
2.1441357659
 21
-1.5374626838
  0
LINE
  5
28A
100
AcDbEntity
  8
0
100
AcDbLine
 62
7
  6
CONTINUOUS
 10
0.8320120016
 20
-3.0595971621
 11
1.3343811549
 21
-2.5572280088
  0
LINE
  5
28B
100
AcDbEntity
  8
0
100
AcDbLine
 62
7
  6
CONTINUOUS
 10
1.7191385556
 20
-2.1724706082
 11
2.1834779688
 21
-1.708131195
  0
LINE
  5
28C
100
AcDbEntity
  8
0
100
AcDbLine
 62
7
  6
CONTINUOUS
 10
0.9720191225
 20
-3.1296007553
 11
1.4743883054
 21
-2.6272315723
  0
LINE
  5
28D
100
AcDbEntity
  8
0
100
AcDbLine
 62
7
  6
CONTINUOUS
 10
1.7584817119
 20
-2.3431381659
 11
2.2228201716
 21
-1.8787997062
  0
LINE
  5
28E
100
AcDbEntity
  8
0
100
AcDbLine
 62
7
  6
CONTINUOUS
 10
1.1120262433
 20
-3.1996043485
 11
1.6143954559
 21
-2.6972351359
  0
LINE
  5
28F
100
AcDbEntity
  8
0
100
AcDbLine
 62
7
  6
CONTINUOUS
 10
1.7978248683
 20
-2.5138057235
 11
2.2621623744
 21
-2.0494682174
  0
LINE
  5
290
100
AcDbEntity
  8
0
100
AcDbLine
 62
7
  6
CONTINUOUS
 10
1.2520333641
 20
-3.2696079417
 11
1.7544026064
 21
-2.7672386994
  0
LINE
  5
291
100
AcDbEntity
  8
0
100
AcDbLine
 62
7
  6
CONTINUOUS
 10
1.8371680246
 20
-2.6844732812
 11
2.3015045772
 21
-2.2201367286
  0
LINE
  5
292
100
AcDbEntity
  8
0
100
AcDbLine
 62
7
  6
CONTINUOUS
 10
1.392040485
 20
-3.3396115349
 11
2.34084678
 21
-2.3908052398
  0
LINE
  5
293
100
AcDbEntity
  8
0
100
AcDbLine
 62
7
  6
CONTINUOUS
 10
1.5320476058
 20
-3.409615128
 11
2.3801889828
 21
-2.561473751
  0
LINE
  5
294
100
AcDbEntity
  8
0
100
AcDbLine
 62
7
  6
CONTINUOUS
 10
1.6720547266
 20
-3.4796187212
 11
2.4195311856
 21
-2.7321422622
  0
LINE
  5
295
100
AcDbEntity
  8
0
100
AcDbLine
 62
7
  6
CONTINUOUS
 10
1.8120618475
 20
-3.5496223144
 11
2.4588733884
 21
-2.9028107734
  0
LINE
  5
296
100
AcDbEntity
  8
0
100
AcDbLine
 62
7
  6
CONTINUOUS
 10
1.9520689683
 20
-3.6196259076
 11
2.4982155913
 21
-3.0734792846
  0
LINE
  5
297
100
AcDbEntity
  8
0
100
AcDbLine
 62
7
  6
CONTINUOUS
 10
-9.1747104859
 20
8.7332814564
 11
-5.8513086143
 21
7.0715805206
  0
LINE
  5
298
100
AcDbEntity
  8
0
100
AcDbLine
 62
7
  6
CONTINUOUS
 10
3.8965805071
 20
5.5704584975
 11
4.0304626908
 21
3.9442767712
  0
LINE
  5
299
100
AcDbEntity
  8
0
100
AcDbLine
 62
7
  6
CONTINUOUS
 10
7.418519578
 20
8.5598193011
 11
7.0726984001
 21
7.5371307246
  0
LINE
  5
29A
100
AcDbEntity
  8
0
100
AcDbLine
 62
7
  6
CONTINUOUS
 10
2.0920760891
 20
-3.6896295007
 11
2.5375577941
 21
-3.2441477958
  0
LINE
  5
29B
100
AcDbEntity
  8
0
100
AcDbLine
 62
7
  6
CONTINUOUS
 10
2.23208321
 20
-3.7596330939
 11
2.5768999969
 21
-3.414816307
  0
LINE
  5
29C
100
AcDbEntity
  8
0
100
AcDbLine
 62
7
  6
CONTINUOUS
 10
2.3839399525
 20
-3.8177870654
 11
2.5964474575
 21
-3.6052795604
  0
LINE
  5
29D
100
AcDbEntity
  8
0
100
AcDbLine
 62
7
  6
CONTINUOUS
 10
-8.6090257681
 20
9.4805451384
 11
-6.4169933322
 21
8.3845289204
  0
LINE
  5
29E
100
AcDbEntity
  8
0
100
AcDbLine
 62
7
  6
CONTINUOUS
 10
6.7851732265
 20
1.8638413774
 11
3.7720851659
 21
3.3703854077
  0
LINE
  5
29F
100
AcDbEntity
  8
0
100
AcDbLine
 62
7
  6
CONTINUOUS
 10
-6.4169933322
 20
9.0773492435
 11
-8.6090257681
 21
10.1733654614
  0
LINE
  5
2A0
100
AcDbEntity
  8
0
100
AcDbLine
 62
7
  6
CONTINUOUS
 10
4.0304626908
 20
3.9442767712
 11
6.5272892621
 21
2.6958634856
  0
LINE
  5
2A1
100
AcDbEntity
  8
0
100
AcDbLine
 62
7
  6
CONTINUOUS
 10
3.4850535528
 20
9.3309531483
 11
3.1382445467
 21
10.6999568168
  0
LINE
  5
2A2
100
AcDbEntity
  8
0
100
AcDbLine
 62
7
  6
CONTINUOUS
 10
7.6655346041
 20
1.7606788046
 11
7.6260129919
 21
3.0183960786
  0
LINE
  5
2A3
100
AcDbEntity
  8
0
100
AcDbLine
 62
7
  6
CONTINUOUS
 10
6.5272892621
 20
2.6958634856
 11
6.6606778853
 21
4.1890151602
  0
LINE
  5
2A4
100
AcDbEntity
  8
0
100
AcDbLine
 62
7
  6
CONTINUOUS
 10
7.1952187921
 20
3.4280175619
 11
7.0707220366
 21
2.0356983317
  0
LINE
  5
2A5
100
AcDbEntity
  8
0
100
AcDbLine
 62
7
  6
CONTINUOUS
 10
9.3452356501
 20
2.0528966894
 11
8.4055911471
 21
0.153302015
  0
LINE
  5
2A6
100
AcDbEntity
  8
0
100
AcDbLine
 62
7
  6
CONTINUOUS
 10
-8.6090257681
 20
11.0393908652
 11
-6.4169933322
 21
9.9433746473
  0
LINE
  5
2A7
100
AcDbEntity
  8
0
100
AcDbLine
 62
7
  6
CONTINUOUS
 10
-6.4169933322
 20
10.6361949703
 11
-8.6090257681
 21
11.7322111882
  0
LINE
  5
2A8
100
AcDbEntity
  8
0
100
AcDbLine
 62
7
  6
CONTINUOUS
 10
3.7335506747
 20
10.4482888357
 11
3.8773132615
 21
9.8802572583
  0
LINE
  5
2A9
100
AcDbEntity
  8
0
100
AcDbLine
 62
7
  6
CONTINUOUS
 10
8.1931578853
 20
2.9822912571
 11
8.2386085878
 21
1.502580355
  0
LINE
  5
2AA
100
AcDbEntity
  8
0
100
AcDbLine
 62
7
  6
CONTINUOUS
 10
8.9213583688
 20
-0.4113468464
 11
9.8610028719
 21
1.488247828
  0
LINE
  5
2AB
100
AcDbEntity
  8
CURVE
100
AcDbLine
 62
7
  6
CENTER
 10
11.1899648123
 20
-12.9494109493
 11
11.1899648123
 21
-21.6096649871
  0
LINE
  5
2AC
100
AcDbEntity
  8
0
100
AcDbLine
 62
7
  6
CONTINUOUS
 10
-8.9347460215
 20
15.9430169464
 11
-8.8640353434
 21
15.9076616074
  0
LINE
  5
2AD
100
AcDbEntity
  8
ASSI
100
AcDbLine
 62
7
  6
CONTINUOUS
 10
14.3012346495
 20
-24.2478316605
 11
14.3012346495
 21
-12.9895014113
  0
LINE
  5
2AE
100
AcDbEntity
  8
ASSI
100
AcDbLine
 62
7
  6
CONTINUOUS
 10
14.3365899886
 20
9.7180418374
 11
14.3365899886
 21
-12.9718237418
  0
LINE
  5
2AF
100
AcDbEntity
  8
0
100
AcDbLine
 62
7
  6
CONTINUOUS
 10
14.5487220229
 20
9.8241078546
 11
14.5487220229
 21
-24.1240879738
  0
LINE
  5
2B0
100
AcDbEntity
  8
0
100
AcDbLine
 62
7
  6
CONTINUOUS
 10
-14.1598132933
 20
24.3992561802
 11
13.983036598
 21
10.3278312346
  0
LINE
  5
2B1
100
AcDbEntity
  8
0
100
AcDbLine
 62
7
  6
CONTINUOUS
 10
14.1951686323
 20
10.4338972518
 11
-13.9476812589
 21
24.5053221974
  0
LINE
  5
2B2
100
AcDbEntity
  8
ASSI
100
AcDbLine
 62
7
  6
CONTINUOUS
 10
14.3365899886
 20
-12.9718237418
 11
14.3012346495
 21
-12.9895014113
  0
LINE
  5
2B3
100
AcDbEntity
  8
ASSI
100
AcDbLine
 62
250
  6
CONTINUOUS
 10
14.5487220229
 20
-24.1240879738
 11
14.3012346495
 21
-24.2478316605
  0
LINE
  5
2B4
100
AcDbEntity
  8
0
100
AcDbLine
 62
7
  6
CONTINUOUS
 10
14.1712880567
 20
-24.5182685607
 11
14.4187754301
 21
-24.394524874
  0
ARC
  5
2B5
100
AcDbEntity
  8
0
100
AcDbCircle
 62
7
  6
CONTINUOUS
 10
2.9334253463
 20
1.0671269038
 40
4.2988980823
100
AcDbArc
 50
84.27790668
 51
90.035630593
  0
SPLINE
  5
2B6
100
AcDbEntity
  8
0
100
AcDbSpline
 62
7
  6
CONTINUOUS
 70
0
 71
3
 72
11
 73
7
 74
0
 42
0.0000001
 43
0.0000001
 44
0.0000000001
 40
0.0
 40
0.0
 40
0.0
 40
0.0
 40
0.289560173
 40
0.5496385867
 40
0.782833915
 40
1.0
 40
1.0
 40
1.0
 40
1.0
 10
14.5487220229
 20
-24.1240879738
 30
0.0
 10
14.5487220229
 20
-24.1544776833
 30
0.0
 10
14.5437828585
 20
-24.2123766422
 30
0.0
 10
14.5190865336
 20
-24.2915764967
 30
0.0
 10
14.4777291149
 20
-24.3549905729
 30
0.0
 10
14.439149463
 20
-24.3843089105
 30
0.0
 10
14.4187707959
 20
-24.3945157074
 30
0.0
  0
SPLINE
  5
2B7
100
AcDbEntity
  8
0
100
AcDbSpline
 62
7
  6
CONTINUOUS
 70
0
 71
3
 72
11
 73
7
 74
0
 42
0.0000001
 43
0.0000001
 44
0.0000000001
 40
0.0
 40
0.0
 40
0.0
 40
0.0
 40
0.2297035147
 40
0.4882167277
 40
0.753177002
 40
1.0
 40
1.0
 40
1.0
 40
1.0
 10
14.1951686323
 20
10.4338972518
 30
0.0
 10
14.2454434889
 20
10.4087598235
 30
0.0
 10
14.3415067491
 20
10.3336163065
 30
0.0
 10
14.4523871742
 20
10.1844051947
 30
0.0
 10
14.5278896715
 20
10.0099600017
 30
0.0
 10
14.5487220229
 20
9.8845060315
 30
0.0
 10
14.5487220229
 20
9.8241078546
 30
0.0
  0
SPLINE
  5
2B8
100
AcDbEntity
  8
ASSI
100
AcDbSpline
 62
7
  6
CONTINUOUS
 70
0
 71
3
 72
10
 73
6
 74
0
 42
0.0000001
 43
0.0000001
 44
0.0000000001
 40
0.0
 40
0.0
 40
0.0
 40
0.0
 40
0.5338875701
 40
0.7723415369
 40
1.0
 40
1.0
 40
1.0
 40
1.0
 10
13.9476812589
 20
-24.5040676671
 30
0.0
 10
13.9844942532
 20
-24.5224741642
 30
0.0
 10
14.0432448504
 20
-24.5414966397
 30
0.0
 10
14.1209626858
 20
-24.5376433594
 30
0.0
 10
14.1555825732
 20
-24.5261008959
 30
0.0
 10
14.1712834549
 20
-24.5182584932
 30
0.0
  0
SPLINE
  5
2B9
100
AcDbEntity
  8
ASSI
100
AcDbSpline
 62
7
  6
CONTINUOUS
 70
0
 71
3
 72
11
 73
7
 74
0
 42
0.0000001
 43
0.0000001
 44
0.0000000001
 40
0.0
 40
0.0
 40
0.0
 40
0.0
 40
0.2467931079
 40
0.5117852234
 40
0.7703244106
 40
1.0
 40
1.0
 40
1.0
 40
1.0
 10
-14.5487220229
 20
-9.8228533243
 30
0.0
 10
-14.5487220229
 20
-9.8832443752
 30
0.0
 10
-14.5278814705
 20
-10.0086951311
 30
0.0
 10
-14.452412172
 20
-10.1831652701
 30
0.0
 10
-14.3414936817
 20
-10.3323601988
 30
0.0
 10
-14.2454375336
 20
-10.4075082708
 30
0.0
 10
-14.1951686323
 20
-10.4326427215
 30
0.0
  0
SPLINE
  5
2BA
100
AcDbEntity
  8
0
100
AcDbSpline
 62
7
  6
CONTINUOUS
 70
0
 71
3
 72
11
 73
7
 74
0
 42
0.0000001
 43
0.0000001
 44
0.0000000001
 40
0.0
 40
0.0
 40
0.0
 40
0.0
 40
0.217166085
 40
0.4503614133
 40
0.710439827
 40
1.0
 40
1.0
 40
1.0
 40
1.0
 10
-14.3834154568
 20
24.4134479072
 30
0.0
 10
-14.4037941239
 20
24.4032411103
 30
0.0
 10
-14.4423737759
 20
24.3739227727
 30
0.0
 10
-14.4837311946
 20
24.3105086965
 30
0.0
 10
-14.5084275194
 20
24.231308842
 30
0.0
 10
-14.5133666839
 20
24.1734098831
 30
0.0
 10
-14.5133666839
 20
24.1430201736
 30
0.0
  0
SPLINE
  5
2BB
100
AcDbEntity
  8
0
100
AcDbSpline
 62
7
  6
CONTINUOUS
 70
0
 71
3
 72
10
 73
6
 74
0
 42
0.0000001
 43
0.0000001
 44
0.0000000001
 40
0.0
 40
0.0
 40
0.0
 40
0.0
 40
0.2276528142
 40
0.4658670412
 40
1.0
 40
1.0
 40
1.0
 40
1.0
 10
-14.1712834225
 20
24.5195139244
 30
0.0
 10
-14.1555910036
 20
24.5273735814
 30
0.0
 10
-14.1209773743
 20
24.5388845103
 30
0.0
 10
-14.0432657816
 20
24.5428028748
 30
0.0
 10
-13.9845124012
 20
24.5237377685
 30
0.0
 10
-13.9476812589
 20
24.5053221974
 30
0.0
  0
SPLINE
  5
2BC
100
AcDbEntity
  8
0
100
AcDbSpline
 62
7
  6
CONTINUOUS
 70
0
 71
3
 72
11
 73
7
 74
0
 42
0.0000001
 43
0.0000001
 44
0.0000000001
 40
0.0
 40
0.0
 40
0.0
 40
0.0
 40
0.246822998
 40
0.5117832723
 40
0.7702964853
 40
1.0
 40
1.0
 40
1.0
 40
1.0
 10
14.3365899886
 20
9.7180418374
 30
0.0
 10
14.3365899886
 20
9.7784400143
 30
0.0
 10
14.3157576372
 20
9.9038939845
 30
0.0
 10
14.2402551399
 20
10.0783391775
 30
0.0
 10
14.1293747147
 20
10.2275502893
 30
0.0
 10
14.0333114546
 20
10.3026938063
 30
0.0
 10
13.983036598
 20
10.3278312346
 30
0.0
  0
SPLINE
  5
2BD
100
AcDbEntity
  8
ASSI
100
AcDbSpline
 62
7
  6
CONTINUOUS
 70
0
 71
3
 72
11
 73
7
 74
0
 42
0.0000001
 43
0.0000001
 44
0.0000000001
 40
0.0
 40
0.0
 40
0.0
 40
0.0
 40
0.2170297562
 40
0.4503136858
 40
0.7107483979
 40
1.0
 40
1.0
 40
1.0
 40
1.0
 10
14.1712834549
 20
-24.5182584932
 30
0.0
 10
14.1916598605
 20
-24.5080807223
 30
0.0
 10
14.2302078398
 20
-24.478728305
 30
0.0
 10
14.2716328671
 20
-24.4153250026
 30
0.0
 10
14.2962349024
 20
-24.3360772283
 30
0.0
 10
14.3012346495
 20
-24.2781880533
 30
0.0
 10
14.3012346495
 20
-24.2478316605
 30
0.0
  0
SPLINE
  5
2BE
100
AcDbEntity
  8
0
100
AcDbSpline
 62
7
  6
CONTINUOUS
 70
0
 71
3
 72
10
 73
6
 74
0
 42
0.0000001
 43
0.0000001
 44
0.0000000001
 40
0.0
 40
0.0
 40
0.0
 40
0.0
 40
0.5341329588
 40
0.7723471858
 40
1.0
 40
1.0
 40
1.0
 40
1.0
 10
-14.1598132933
 20
24.3992561802
 30
0.0
 10
-14.1966444355
 20
24.4176717513
 30
0.0
 10
-14.2553978159
 20
24.4367368577
 30
0.0
 10
-14.3331094087
 20
24.4328184932
 30
0.0
 10
-14.367723038
 20
24.4213075642
 30
0.0
 10
-14.3834154568
 20
24.4134479072
 30
0.0
  0
SPLINE
  5
2BF
100
AcDbEntity
  8
0
100
AcDbSpline
 62
7
  6
CONTINUOUS
 70
0
 71
3
 72
8
 73
4
 74
0
 42
0.0000001
 43
0.0000001
 44
0.0000000001
 40
0.0
 40
0.0
 40
0.0
 40
0.0
 40
1.0
 40
1.0
 40
1.0
 40
1.0
 10
6.6794507586
 20
8.4791887054
 30
0.0
 10
6.3291963333
 20
9.1050904384
 30
0.0
 10
5.786460006
 20
9.6608328124
 30
0.0
 10
5.2783819859
 20
9.9148718164
 30
0.0
  0
SPLINE
  5
2C0
100
AcDbEntity
  8
0
100
AcDbSpline
 62
7
  6
CONTINUOUS
 70
0
 71
3
 72
8
 73
4
 74
0
 42
0.0000001
 43
0.0000001
 44
0.0000000001
 40
0.0
 40
0.0
 40
0.0
 40
0.0
 40
1.0
 40
1.0
 40
1.0
 40
1.0
 10
5.2783819859
 20
9.9148718164
 30
0.0
 10
4.770303992
 20
10.1689108073
 30
0.0
 10
4.2280716334
 20
10.155064623
 30
0.0
 10
3.8773133011
 20
9.8802574275
 30
0.0
  0
SPLINE
  5
2C1
100
AcDbEntity
  8
0
100
AcDbSpline
 62
7
  6
CONTINUOUS
 70
0
 71
3
 72
8
 73
4
 74
0
 42
0.0000001
 43
0.0000001
 44
0.0000000001
 40
0.0
 40
0.0
 40
0.0
 40
0.0
 40
1.0
 40
1.0
 40
1.0
 40
1.0
 10
3.7335506687
 20
10.4482887054
 30
0.0
 10
3.989383277
 20
10.6677205691
 30
0.0
 10
4.3382030762
 20
10.7604387028
 30
0.0
 10
4.70530734
 20
10.7060296084
 30
0.0
  0
SPLINE
  5
2C2
100
AcDbEntity
  8
0
100
AcDbSpline
 62
7
  6
CONTINUOUS
 70
0
 71
3
 72
8
 73
4
 74
0
 42
0.0000001
 43
0.0000001
 44
0.0000000001
 40
0.0
 40
0.0
 40
0.0
 40
0.0
 40
1.0
 40
1.0
 40
1.0
 40
1.0
 10
4.70530734
 20
10.7060296084
 30
0.0
 10
5.072583709
 20
10.6512522907
 30
0.0
 10
5.4841802242
 20
10.4454540416
 30
0.0
 10
5.8514565969
 20
10.1329550044
 30
0.0
  0
SPLINE
  5
2C3
100
AcDbEntity
  8
0
100
AcDbSpline
 62
7
  6
CONTINUOUS
 70
0
 71
3
 72
8
 73
4
 74
0
 42
0.0000001
 43
0.0000001
 44
0.0000000001
 40
0.0
 40
0.0
 40
0.0
 40
0.0
 40
1.0
 40
1.0
 40
1.0
 40
1.0
 10
5.8514565969
 20
10.1329550044
 30
0.0
 10
6.2187693477
 20
9.8204250149
 30
0.0
 10
6.5680503881
 20
9.3788110346
 30
0.0
 10
6.8237075619
 20
8.9032102407
 30
0.0
  0
SPLINE
  5
2C4
100
AcDbEntity
  8
0
100
AcDbSpline
 62
7
  6
CONTINUOUS
 70
0
 71
3
 72
123
 73
119
 74
0
 42
0.0000001
 43
0.0000001
 44
0.0000000001
 40
0.0
 40
0.0
 40
0.0
 40
0.0
 40
0.03125
 40
0.046875
 40
0.0546875
 40
0.0625
 40
0.0703125
 40
0.078125
 40
0.09375
 40
0.109375
 40
0.1171875
 40
0.12109375
 40
0.125
 40
0.12890625
 40
0.1328125
 40
0.140625
 40
0.15625
 40
0.171875
 40
0.1796875
 40
0.18359375
 40
0.1875
 40
0.19140625
 40
0.1953125
 40
0.203125
 40
0.21875
 40
0.234375
 40
0.2421875
 40
0.24609375
 40
0.25
 40
0.25390625
 40
0.2578125
 40
0.265625
 40
0.28125
 40
0.296875
 40
0.3046875
 40
0.30859375
 40
0.3125
 40
0.31640625
 40
0.3203125
 40
0.328125
 40
0.34375
 40
0.359375
 40
0.3671875
 40
0.37109375
 40
0.375
 40
0.37890625
 40
0.3828125
 40
0.390625
 40
0.40625
 40
0.421875
 40
0.4296875
 40
0.43359375
 40
0.4375
 40
0.44140625
 40
0.4453125
 40
0.453125
 40
0.46875
 40
0.484375
 40
0.4921875
 40
0.49609375
 40
0.5
 40
0.50390625
 40
0.5078125
 40
0.515625
 40
0.53125
 40
0.546875
 40
0.5546875
 40
0.55859375
 40
0.5625
 40
0.56640625
 40
0.5703125
 40
0.578125
 40
0.59375
 40
0.609375
 40
0.6171875
 40
0.62109375
 40
0.625
 40
0.62890625
 40
0.6328125
 40
0.640625
 40
0.65625
 40
0.671875
 40
0.6796875
 40
0.68359375
 40
0.6875
 40
0.69140625
 40
0.6953125
 40
0.703125
 40
0.71875
 40
0.734375
 40
0.7421875
 40
0.74609375
 40
0.75
 40
0.75390625
 40
0.7578125
 40
0.765625
 40
0.78125
 40
0.796875
 40
0.8046875
 40
0.80859375
 40
0.8125
 40
0.81640625
 40
0.8203125
 40
0.828125
 40
0.84375
 40
0.859375
 40
0.8671875
 40
0.875
 40
0.8828125
 40
0.890625
 40
0.90625
 40
0.921875
 40
0.9296875
 40
0.9375
 40
0.9453125
 40
0.953125
 40
0.96875
 40
1.0
 40
1.0
 40
1.0
 40
1.0
 10
6.2413847773
 20
8.2415715012
 30
0.0
 10
6.2071691582
 20
8.2931182232
 30
0.0
 10
6.1557116474
 20
8.3703015533
 30
0.0
 10
6.0961471721
 20
8.4608274067
 30
0.0
 10
6.0614399188
 20
8.5118727017
 30
0.0
 10
6.0372866277
 20
8.5520712124
 30
0.0
 10
6.0059599459
 20
8.5849534473
 30
0.0
 10
5.966695247
 20
8.6313460966
 30
0.0
 10
5.916766273
 20
8.688505077
 30
0.0
 10
5.867099438
 20
8.7458042954
 30
0.0
 10
5.8323758319
 20
8.7862015304
 30
0.0
 10
5.8123811094
 20
8.8087502526
 30
0.0
 10
5.7978307166
 20
8.827185807
 30
0.0
 10
5.7815740586
 20
8.8397930163
 30
0.0
 10
5.760493837
 20
8.8586362034
 30
0.0
 10
5.7233244934
 20
8.8906584537
 30
0.0
 10
5.6703840207
 20
8.9369499961
 30
0.0
 10
5.6173405343
 20
8.9828755174
 30
0.0
 10
5.5803154099
 20
9.0154101972
 30
0.0
 10
5.5590085581
 20
9.033448138
 30
0.0
 10
5.5434472424
 20
9.0485259894
 30
0.0
 10
5.5262854533
 20
9.05768291
 30
0.0
 10
5.503961285
 20
9.0719581332
 30
0.0
 10
5.4646343662
 20
9.0959700771
 30
0.0
 10
5.4085850904
 20
9.130837056
 30
0.0
 10
5.3525021899
 20
9.1652942684
 30
0.0
 10
5.3132223458
 20
9.1898798854
 30
0.0
 10
5.290824203
 20
9.2032536221
 30
0.0
 10
5.2738893811
 20
9.2151764671
 30
0.0
 10
5.2574756775
 20
9.219866736
 30
0.0
 10
5.2354089055
 20
9.2286439476
 30
0.0
 10
5.1968773953
 20
9.2428211281
 30
0.0
 10
5.1417827665
 20
9.2637505274
 30
0.0
 10
5.0867240406
 20
9.2842280079
 30
0.0
 10
5.0481422662
 20
9.2990378748
 30
0.0
 10
5.0261544808
 20
9.3068208649
 30
0.0
 10
5.0094984323
 20
9.3145615859
 30
0.0
 10
4.9934737501
 20
9.3150282885
 30
0.0
 10
4.9718870222
 20
9.3181885581
 30
0.0
 10
4.9342155596
 20
9.3225291005
 30
0.0
 10
4.8803233344
 20
9.3294117713
 30
0.0
 10
4.8265339167
 20
9.3358333904
 30
0.0
 10
4.7887185238
 20
9.3408194053
 30
0.0
 10
4.7673579721
 20
9.342965361
 30
0.0
 10
4.7506393399
 20
9.3465441627
 30
0.0
 10
4.7365894596
 20
9.3425972227
 30
0.0
 10
4.7169251233
 20
9.3399604385
 30
0.0
 10
4.682949111
 20
9.3341152364
 30
0.0
 10
4.6341617285
 20
9.3264681576
 30
0.0
 10
4.5855436604
 20
9.3183526767
 30
0.0
 10
4.5513306079
 20
9.3131632375
 30
0.0
 10
4.5320387634
 20
9.3094959687
 30
0.0
 10
4.5168460107
 20
9.3087107428
 30
0.0
 10
4.5044194993
 20
9.3004155514
 30
0.0
 10
4.486885492
 20
9.2919755145
 30
0.0
 10
4.4566550526
 20
9.2759780369
 30
0.0
 10
4.4131966225
 20
9.253819362
 30
0.0
 10
4.3699616429
 20
9.2312191584
 30
0.0
 10
4.3394183728
 20
9.215839821
 30
0.0
 10
4.3223759566
 20
9.2064284208
 30
0.0
 10
4.3084411543
 20
9.2011135485
 30
0.0
 10
4.2989128719
 20
9.1891355688
 30
0.0
 10
4.2846710115
 20
9.1754897451
 30
0.0
 10
4.2604685183
 20
9.1505198639
 30
0.0
 10
4.2254811271
 20
9.115470742
 30
0.0
 10
4.1907704586
 20
9.0800086718
 30
0.0
 10
4.1661805538
 20
9.0556169184
 30
0.0
 10
4.1525474832
 20
9.0410626082
 30
0.0
 10
4.1411513228
 20
9.03187203
 30
0.0
 10
4.1342314403
 20
9.0160889165
 30
0.0
 10
4.1234430188
 20
8.9973447903
 30
0.0
 10
4.1052963803
 20
8.9634661783
 30
0.0
 10
4.0789460722
 20
8.9156692774
 30
0.0
 10
4.0529055402
 20
8.8675181805
 30
0.0
 10
4.0343252151
 20
8.8341354429
 30
0.0
 10
4.0242183011
 20
8.8146120855
 30
0.0
 10
4.0152074296
 20
8.8012197949
 30
0.0
 10
4.0116640947
 20
8.7830503486
 30
0.0
 10
4.0050319688
 20
8.7604912049
 30
0.0
 10
3.9943200032
 20
8.7202315083
 30
0.0
 10
3.9785059517
 20
8.6631631722
 30
0.0
 10
3.9630335321
 20
8.6058007619
 30
0.0
 10
3.9518432818
 20
8.5659527692
 30
0.0
 10
3.9459627463
 20
8.5427466622
 30
0.0
 10
3.9401133955
 20
8.5265622169
 30
0.0
 10
3.9397628945
 20
8.5057151449
 30
0.0
 10
3.9373769399
 20
8.4795456443
 30
0.0
 10
3.9341010552
 20
8.4329889604
 30
0.0
 10
3.9289057379
 20
8.3668944607
 30
0.0
 10
3.924058947
 20
8.3005874951
 30
0.0
 10
3.9202951252
 20
8.2543282635
 30
0.0
 10
3.9186759289
 20
8.2276913378
 30
0.0
 10
3.9159728741
 20
8.208278411
 30
0.0
 10
3.9189586703
 20
8.1867079537
 30
0.0
 10
3.920954838
 20
8.1587001136
 30
0.0
 10
3.9253785387
 20
8.1093336681
 30
0.0
 10
3.9311665448
 20
8.0390106486
 30
0.0
 10
3.9373086121
 20
7.9685575909
 30
0.0
 10
3.9412366271
 20
7.9193731989
 30
0.0
 10
3.9440117294
 20
7.8910792748
 30
0.0
 10
3.9446076128
 20
7.8703865754
 30
0.0
 10
3.9508800086
 20
7.8476771798
 30
0.0
 10
3.9572645205
 20
7.8181016516
 30
0.0
 10
3.9693457892
 20
7.7660144224
 30
0.0
 10
3.9862387511
 20
7.6917943884
 30
0.0
 10
4.0028654527
 20
7.6174418566
 30
0.0
 10
4.0170986333
 20
7.5581255913
 30
0.0
 10
4.0251378169
 20
7.5132206105
 30
0.0
 10
4.0432538984
 20
7.4699038767
 30
0.0
 10
4.0638726705
 20
7.4115912048
 30
0.0
 10
4.0909739153
 20
7.3389074482
 30
0.0
 10
4.1171840454
 20
7.2660916422
 30
0.0
 10
4.139228601
 20
7.2079902493
 30
0.0
 10
4.153067332
 20
7.1640396785
 30
0.0
 10
4.1771465797
 20
7.1215115863
 30
0.0
 10
4.2056792282
 20
7.0643111469
 30
0.0
 10
4.2572862138
 20
6.9644430264
 30
0.0
 10
4.3009465384
 20
6.878762015
 30
0.0
 10
4.3301810291
 20
6.8216590664
 30
0.0
  0
SPLINE
  5
2C5
100
AcDbEntity
  8
0
100
AcDbSpline
 62
7
  6
CONTINUOUS
 70
0
 71
3
 72
8
 73
4
 74
0
 42
0.0000001
 43
0.0000001
 44
0.0000000001
 40
0.0
 40
0.0
 40
0.0
 40
0.0
 40
1.0
 40
1.0
 40
1.0
 40
1.0
 10
6.2413847784
 20
8.241571502
 30
0.0
 10
6.4874812223
 20
7.8179877588
 30
0.0
 10
6.6409163389
 20
7.2880093473
 30
0.0
 10
6.6409163389
 20
6.8623724257
 30
0.0
  0
SPLINE
  5
2C6
100
AcDbEntity
  8
0
100
AcDbSpline
 62
7
  6
CONTINUOUS
 70
0
 71
3
 72
8
 73
4
 74
0
 42
0.0000001
 43
0.0000001
 44
0.0000000001
 40
0.0
 40
0.0
 40
0.0
 40
0.0
 40
1.0
 40
1.0
 40
1.0
 40
1.0
 10
6.6409163389
 20
6.8623724257
 30
0.0
 10
6.6409163388
 20
6.4368430584
 30
0.0
 10
6.4871779297
 20
6.0605624819
 30
0.0
 10
6.2408975795
 20
5.8835456546
 30
0.0
  0
SPLINE
  5
2C7
100
AcDbEntity
  8
0
100
AcDbSpline
 62
7
  6
CONTINUOUS
 70
0
 71
3
 72
26
 73
22
 74
0
 42
0.0000001
 43
0.0000001
 44
0.0000000001
 40
0.0
 40
0.0
 40
0.0
 40
0.0
 40
0.125
 40
0.25
 40
0.28125
 40
0.3125
 40
0.34375
 40
0.375
 40
0.4375
 40
0.46875
 40
0.5
 40
0.53125
 40
0.5625
 40
0.625
 40
0.65625
 40
0.6875
 40
0.71875
 40
0.75
 40
0.8125
 40
0.875
 40
1.0
 40
1.0
 40
1.0
 40
1.0
 10
7.6260129919
 20
3.0183960786
 30
0.0
 10
7.6106473288
 20
3.0336776117
 30
0.0
 10
7.5799250574
 20
3.0643476146
 30
0.0
 10
7.5453217559
 20
3.0983701523
 30
0.0
 10
7.5220718307
 20
3.1211332862
 30
0.0
 10
7.5107263737
 20
3.132264242
 30
0.0
 10
7.4982991055
 20
3.144381354
 30
0.0
 10
7.4766462158
 20
3.1651691902
 30
0.0
 10
7.4562155872
 20
3.1848657078
 30
0.0
 10
7.4359305744
 20
3.2043624159
 30
0.0
 10
7.4190577063
 20
3.2206756939
 30
0.0
 10
7.4087484645
 20
3.2303258892
 30
0.0
 10
7.3927912639
 20
3.2454494244
 30
0.0
 10
7.3769760801
 20
3.2603594761
 30
0.0
 10
7.3623935045
 20
3.2742175222
 30
0.0
 10
7.3476167314
 20
3.287980557
 30
0.0
 10
7.3317382587
 20
3.3027170593
 30
0.0
 10
7.3109993077
 20
3.3219648792
 30
0.0
 10
7.284587273
 20
3.3465973599
 30
0.0
 10
7.2445887397
 20
3.383145711
 30
0.0
 10
7.2150247948
 20
3.4099937914
 30
0.0
 10
7.1952188414
 20
3.4280176635
 30
0.0
  0
SPLINE
  5
2C8
100
AcDbEntity
  8
0
100
AcDbSpline
 62
7
  6
CONTINUOUS
 70
0
 71
3
 72
8
 73
4
 74
0
 42
0.0000001
 43
0.0000001
 44
0.0000000001
 40
0.0
 40
0.0
 40
0.0
 40
0.0
 40
1.0
 40
1.0
 40
1.0
 40
1.0
 10
7.6655344291
 20
1.7606790809
 30
0.0
 10
7.6684304023
 20
1.6699655037
 30
0.0
 10
7.7039373461
 20
1.5589865858
 30
0.0
 10
7.757423801
 20
1.471500257
 30
0.0
  0
SPLINE
  5
2C9
100
AcDbEntity
  8
0
100
AcDbSpline
 62
7
  6
CONTINUOUS
 70
0
 71
3
 72
8
 73
4
 74
0
 42
0.0000001
 43
0.0000001
 44
0.0000000001
 40
0.0
 40
0.0
 40
0.0
 40
0.0
 40
1.0
 40
1.0
 40
1.0
 40
1.0
 10
7.757423801
 20
1.471500257
 30
0.0
 10
7.8112217923
 20
1.3834187881
 30
0.0
 10
7.8905530508
 20
1.3081951204
 30
0.0
 10
7.9639283063
 20
1.2744636159
 30
0.0
  0
SPLINE
  5
2CA
100
AcDbEntity
  8
0
100
AcDbSpline
 62
7
  6
CONTINUOUS
 70
0
 71
3
 72
8
 73
4
 74
0
 42
0.0000001
 43
0.0000001
 44
0.0000000001
 40
0.0
 40
0.0
 40
0.0
 40
0.0
 40
1.0
 40
1.0
 40
1.0
 40
1.0
 10
7.9639283063
 20
1.2744636159
 30
0.0
 10
8.0371613741
 20
1.2419776339
 30
0.0
 10
8.113632003
 20
1.2469628357
 30
0.0
 10
8.1635163407
 20
1.2878159102
 30
0.0
  0
SPLINE
  5
2CB
100
AcDbEntity
  8
0
100
AcDbSpline
 62
7
  6
CONTINUOUS
 70
0
 71
3
 72
8
 73
4
 74
0
 42
0.0000001
 43
0.0000001
 44
0.0000000001
 40
0.0
 40
0.0
 40
0.0
 40
0.0
 40
1.0
 40
1.0
 40
1.0
 40
1.0
 10
8.1635163407
 20
1.2878159102
 30
0.0
 10
8.212970831
 20
1.3290021306
 30
0.0
 10
8.2414917619
 20
1.4116917681
 30
0.0
 10
8.238608736
 20
1.5025801205
 30
0.0
  0
SPLINE
  5
2CC
100
AcDbEntity
  8
0
100
AcDbSpline
 62
7
  6
CONTINUOUS
 70
0
 71
3
 72
8
 73
4
 74
0
 42
0.0000001
 43
0.0000001
 44
0.0000000001
 40
0.0
 40
0.0
 40
0.0
 40
0.0
 40
1.0
 40
1.0
 40
1.0
 40
1.0
 10
8.1931580111
 20
2.982291137
 30
0.0
 10
8.1912075878
 20
3.0477669213
 30
0.0
 10
8.1732144105
 20
3.1226824933
 30
0.0
 10
8.1437551593
 20
3.1909308901
 30
0.0
  0
SPLINE
  5
2CD
100
AcDbEntity
  8
0
100
AcDbSpline
 62
7
  6
CONTINUOUS
 70
0
 71
3
 72
8
 73
4
 74
0
 42
0.0000001
 43
0.0000001
 44
0.0000000001
 40
0.0
 40
0.0
 40
0.0
 40
0.0
 40
1.0
 40
1.0
 40
1.0
 40
1.0
 10
8.1437551593
 20
3.1909308901
 30
0.0
 10
8.1144139537
 20
3.2589058088
 30
0.0
 10
8.0710709809
 20
3.3249933862
 30
0.0
 10
8.0231878313
 20
3.3752696452
 30
0.0
  0
SPLINE
  5
2CE
100
AcDbEntity
  8
0
100
AcDbSpline
 62
7
  6
CONTINUOUS
 70
0
 71
3
 72
36
 73
32
 74
0
 42
0.0000001
 43
0.0000001
 44
0.0000000001
 40
0.0
 40
0.0
 40
0.0
 40
0.0
 40
0.0625
 40
0.125
 40
0.15625
 40
0.1875
 40
0.21875
 40
0.25
 40
0.28125
 40
0.3125
 40
0.328125
 40
0.34375
 40
0.375
 40
0.4375
 40
0.46875
 40
0.5
 40
0.53125
 40
0.5625
 40
0.625
 40
0.65625
 40
0.671875
 40
0.6875
 40
0.71875
 40
0.75
 40
0.78125
 40
0.8125
 40
0.828125
 40
0.84375
 40
0.875
 40
0.9375
 40
1.0
 40
1.0
 40
1.0
 40
1.0
 10
8.0231877998
 20
3.3752695744
 30
0.0
 10
8.0042946417
 20
3.3946969735
 30
0.0
 10
7.9666591001
 20
3.4334389417
 30
0.0
 10
7.9188607996
 20
3.482430551
 30
0.0
 10
7.8822052935
 20
3.5204391255
 30
0.0
 10
7.8504165851
 20
3.5521612058
 30
0.0
 10
7.8174130885
 20
3.5847963768
 30
0.0
 10
7.7847600554
 20
3.6171552015
 30
0.0
 10
7.7519199567
 20
3.649706321
 30
0.0
 10
7.7248847069
 20
3.6764215597
 30
0.0
 10
7.7025544419
 20
3.6986832693
 30
0.0
 10
7.6827672382
 20
3.7177154599
 30
0.0
 10
7.6492798931
 20
3.7495481482
 30
0.0
 10
7.6107684033
 20
3.7863922377
 30
0.0
 10
7.5716744725
 20
3.8235288705
 30
0.0
 10
7.5443415858
 20
3.8500398408
 30
0.0
 10
7.5093496739
 20
3.8817705566
 30
0.0
 10
7.4653429182
 20
3.9222880641
 30
0.0
 10
7.4207594517
 20
3.963106762
 30
0.0
 10
7.3815242948
 20
3.99920726
 30
0.0
 10
7.3597776298
 20
4.0190269997
 30
0.0
 10
7.3406522051
 20
4.0357438923
 30
0.0
 10
7.3158544724
 20
4.0576991026
 30
0.0
 10
7.2864419011
 20
4.0836159719
 30
0.0
 10
7.2570760211
 20
4.1095558226
 30
0.0
 10
7.2321615603
 20
4.1314535793
 30
0.0
 10
7.2132695919
 20
4.1482853792
 30
0.0
 10
7.1905735381
 20
4.1676378294
 30
0.0
 10
7.1490867733
 20
4.202676986
 30
0.0
 10
7.0907508459
 20
4.2521158878
 30
0.0
 10
7.0437984073
 20
4.2918550584
 30
0.0
 10
7.0203576501
 20
4.3117011375
 30
0.0
  0
SPLINE
  5
2CF
100
AcDbEntity
  8
0
100
AcDbSpline
 62
7
  6
CONTINUOUS
 70
0
 71
3
 72
8
 73
4
 74
0
 42
0.0000001
 43
0.0000001
 44
0.0000000001
 40
0.0
 40
0.0
 40
0.0
 40
0.0
 40
1.0
 40
1.0
 40
1.0
 40
1.0
 10
7.0203576291
 20
4.311701253
 30
0.0
 10
6.96772467
 20
4.3547260689
 30
0.0
 10
6.908931955
 20
4.3828521188
 30
0.0
 10
6.8573014157
 20
4.3877881596
 30
0.0
  0
SPLINE
  5
2D0
100
AcDbEntity
  8
0
100
AcDbSpline
 62
7
  6
CONTINUOUS
 70
0
 71
3
 72
8
 73
4
 74
0
 42
0.0000001
 43
0.0000001
 44
0.0000000001
 40
0.0
 40
0.0
 40
0.0
 40
0.0
 40
1.0
 40
1.0
 40
1.0
 40
1.0
 10
6.8573014157
 20
4.3877881596
 30
0.0
 10
6.8056310004
 20
4.3933250218
 30
0.0
 10
6.7571802315
 20
4.3768504259
 30
0.0
 10
6.7229253118
 20
4.3424349787
 30
0.0
  0
SPLINE
  5
2D1
100
AcDbEntity
  8
0
100
AcDbSpline
 62
7
  6
CONTINUOUS
 70
0
 71
3
 72
8
 73
4
 74
0
 42
0.0000001
 43
0.0000001
 44
0.0000000001
 40
0.0
 40
0.0
 40
0.0
 40
0.0
 40
1.0
 40
1.0
 40
1.0
 40
1.0
 10
6.7229253118
 20
4.3424349787
 30
0.0
 10
6.6888586099
 20
4.3076125889
 30
0.0
 10
6.6665184753
 20
4.2522663032
 30
0.0
 10
6.6606777089
 20
4.1890152705
 30
0.0
  0
SPLINE
  5
2D2
100
AcDbEntity
  8
0
100
AcDbSpline
 62
7
  6
CONTINUOUS
 70
0
 71
3
 72
8
 73
4
 74
0
 42
0.0000001
 43
0.0000001
 44
0.0000000001
 40
0.0
 40
0.0
 40
0.0
 40
0.0
 40
1.0
 40
1.0
 40
1.0
 40
1.0
 10
3.8965805056
 20
5.5704586665
 30
0.0
 10
3.8907327892
 20
5.6396308009
 30
0.0
 10
3.8682382739
 20
5.7175484852
 30
0.0
 10
3.8338387123
 20
5.7863731924
 30
0.0
  0
SPLINE
  5
2D3
100
AcDbEntity
  8
0
100
AcDbSpline
 62
7
  6
CONTINUOUS
 70
0
 71
3
 72
8
 73
4
 74
0
 42
0.0000001
 43
0.0000001
 44
0.0000000001
 40
0.0
 40
0.0
 40
0.0
 40
0.0
 40
1.0
 40
1.0
 40
1.0
 40
1.0
 10
3.8338387123
 20
5.7863731924
 30
0.0
 10
3.8001461422
 20
5.855249011
 30
0.0
 10
3.7513950761
 20
5.9197416663
 30
0.0
 10
3.6999566301
 20
5.9664605488
 30
0.0
  0
SPLINE
  5
2D4
100
AcDbEntity
  8
0
100
AcDbSpline
 62
7
  6
CONTINUOUS
 70
0
 71
3
 72
8
 73
4
 74
0
 42
0.0000001
 43
0.0000001
 44
0.0000000001
 40
0.0
 40
0.0
 40
0.0
 40
0.0
 40
1.0
 40
1.0
 40
1.0
 40
1.0
 10
3.6999566301
 20
5.9664605488
 30
0.0
 10
3.6481428229
 20
6.0125318991
 30
0.0
 10
3.5896607329
 20
6.0432004616
 30
0.0
 10
3.5369170376
 20
6.0534240972
 30
0.0
  0
SPLINE
  5
2D5
100
AcDbEntity
  8
0
100
AcDbSpline
 62
7
  6
CONTINUOUS
 70
0
 71
3
 72
32
 73
28
 74
0
 42
0.0000001
 43
0.0000001
 44
0.0000000001
 40
0.0
 40
0.0
 40
0.0
 40
0.0
 40
0.0625
 40
0.125
 40
0.15625
 40
0.1875
 40
0.25
 40
0.28125
 40
0.3125
 40
0.34375
 40
0.375
 40
0.4375
 40
0.46875
 40
0.5
 40
0.53125
 40
0.5625
 40
0.625
 40
0.65625
 40
0.6875
 40
0.71875
 40
0.75
 40
0.78125
 40
0.8125
 40
0.84375
 40
0.875
 40
0.9375
 40
1.0
 40
1.0
 40
1.0
 40
1.0
 10
3.5369170068
 20
6.0534242537
 30
0.0
 10
3.5171243931
 20
6.0565152199
 30
0.0
 10
3.4776784525
 20
6.0627165645
 30
0.0
 10
3.4276745921
 20
6.0703711844
 30
0.0
 10
3.3891340166
 20
6.0766987081
 30
0.0
 10
3.3453005378
 20
6.0822885692
 30
0.0
 10
3.299921625
 20
6.0876847697
 30
0.0
 10
3.2551886065
 20
6.0931112471
 30
0.0
 10
3.2212465939
 20
6.0972839351
 30
0.0
 10
3.1885506288
 20
6.101030165
 30
0.0
 10
3.1507185945
 20
6.1039611698
 30
0.0
 10
3.111474472
 20
6.1075249866
 30
0.0
 10
3.0721446749
 20
6.1107383438
 30
0.0
 10
3.0443164392
 20
6.1135669285
 30
0.0
 10
3.0098545921
 20
6.1148964759
 30
0.0
 10
2.9661315355
 20
6.1172208174
 30
0.0
 10
2.9223192648
 20
6.1192335643
 30
0.0
 10
2.8771050818
 20
6.1217673861
 30
0.0
 10
2.8474893954
 20
6.1224161225
 30
0.0
 10
2.8190865777
 20
6.1227160543
 30
0.0
 10
2.7903831922
 20
6.1231154412
 30
0.0
 10
2.761669209
 20
6.1234658121
 30
0.0
 10
2.7332981843
 20
6.1239127922
 30
0.0
 10
2.7035659234
 20
6.1240223513
 30
0.0
 10
2.6574296911
 20
6.1225759339
 30
0.0
 10
2.602002124
 20
6.121317952
 30
0.0
 10
2.5569765738
 20
6.1201439353
 30
0.0
 10
2.5345492357
 20
6.1195778809
 30
0.0
  0
SPLINE
  5
2D6
100
AcDbEntity
  8
0
100
AcDbSpline
 62
7
  6
CONTINUOUS
 70
0
 71
3
 72
8
 73
4
 74
0
 42
0.0000001
 43
0.0000001
 44
0.0000000001
 40
0.0
 40
0.0
 40
0.0
 40
0.0
 40
1.0
 40
1.0
 40
1.0
 40
1.0
 10
2.5345492552
 20
6.1195777218
 30
0.0
 10
2.4864742576
 20
6.1174449683
 30
0.0
 10
2.4429114016
 20
6.0947793722
 30
0.0
 10
2.4135028904
 20
6.056057048
 30
0.0
  0
SPLINE
  5
2D7
100
AcDbEntity
  8
0
100
AcDbSpline
 62
7
  6
CONTINUOUS
 70
0
 71
3
 72
8
 73
4
 74
0
 42
0.0000001
 43
0.0000001
 44
0.0000000001
 40
0.0
 40
0.0
 40
0.0
 40
0.0
 40
1.0
 40
1.0
 40
1.0
 40
1.0
 10
2.4135028904
 20
6.056057048
 30
0.0
 10
2.38373765
 20
6.0177514825
 30
0.0
 10
2.3665425823
 20
5.9600367429
 30
0.0
 10
2.3645939984
 20
5.8965731427
 30
0.0
  0
SPLINE
  5
2D8
100
AcDbEntity
  8
0
100
AcDbSpline
 62
7
  6
CONTINUOUS
 70
0
 71
3
 72
8
 73
4
 74
0
 42
0.0000001
 43
0.0000001
 44
0.0000000001
 40
0.0
 40
0.0
 40
0.0
 40
0.0
 40
1.0
 40
1.0
 40
1.0
 40
1.0
 10
2.2796209203
 20
3.0753079281
 30
0.0
 10
2.2767373139
 20
2.9872830231
 30
0.0
 10
2.3064687864
 20
2.8758117471
 30
0.0
 10
2.3561954312
 20
2.7853156902
 30
0.0
  0
SPLINE
  5
2D9
100
AcDbEntity
  8
0
100
AcDbSpline
 62
7
  6
CONTINUOUS
 70
0
 71
3
 72
8
 73
4
 74
0
 42
0.0000001
 43
0.0000001
 44
0.0000000001
 40
0.0
 40
0.0
 40
0.0
 40
0.0
 40
1.0
 40
1.0
 40
1.0
 40
1.0
 10
2.3561954312
 20
2.7853156902
 30
0.0
 10
2.4062254133
 20
2.6949025326
 30
0.0
 10
2.4826674422
 20
2.6136783215
 30
0.0
 10
2.5557834409
 20
2.5735855016
 30
0.0
  0
SPLINE
  5
2DA
100
AcDbEntity
  8
0
100
AcDbSpline
 62
7
  6
CONTINUOUS
 70
0
 71
3
 72
8
 73
4
 74
0
 42
0.0000001
 43
0.0000001
 44
0.0000000001
 40
0.0
 40
0.0
 40
0.0
 40
0.0
 40
1.0
 40
1.0
 40
1.0
 40
1.0
 10
2.5557834409
 20
2.5735855016
 30
0.0
 10
2.6288501506
 20
2.5341084468
 30
0.0
 10
2.7077109384
 20
2.5305036205
 30
0.0
 10
2.7612999014
 20
2.5646116515
 30
0.0
  0
SPLINE
  5
2DB
100
AcDbEntity
  8
0
100
AcDbSpline
 62
7
  6
CONTINUOUS
 70
0
 71
3
 72
8
 73
4
 74
0
 42
0.0000001
 43
0.0000001
 44
0.0000000001
 40
0.0
 40
0.0
 40
0.0
 40
0.0
 40
1.0
 40
1.0
 40
1.0
 40
1.0
 10
2.7612999014
 20
2.5646116515
 30
0.0
 10
2.8149709441
 20
2.5988142288
 30
0.0
 10
2.8503005888
 20
2.6749233293
 30
0.0
 10
2.8531893756
 20
2.7631115364
 30
0.0
  0
SPLINE
  5
2DC
100
AcDbEntity
  8
0
100
AcDbSpline
 62
7
  6
CONTINUOUS
 70
0
 71
3
 72
8
 73
4
 74
0
 42
0.0000001
 43
0.0000001
 44
0.0000000001
 40
0.0
 40
0.0
 40
0.0
 40
0.0
 40
1.0
 40
1.0
 40
1.0
 40
1.0
 10
3.4870298361
 20
3.8275443776
 30
0.0
 10
3.4937825334
 20
3.7408729402
 30
0.0
 10
3.5289868625
 20
3.6385246048
 30
0.0
 10
3.5799073745
 20
3.5572331534
 30
0.0
  0
SPLINE
  5
2DD
100
AcDbEntity
  8
0
100
AcDbSpline
 62
7
  6
CONTINUOUS
 70
0
 71
3
 72
8
 73
4
 74
0
 42
0.0000001
 43
0.0000001
 44
0.0000000001
 40
0.0
 40
0.0
 40
0.0
 40
0.0
 40
1.0
 40
1.0
 40
1.0
 40
1.0
 10
3.5799073745
 20
3.5572331534
 30
0.0
 10
3.631035347
 20
3.4755486182
 30
0.0
 10
3.7034283271
 20
3.4047136218
 30
0.0
 10
3.7720850596
 20
3.3703853477
 30
0.0
  0
SPLINE
  5
2DE
100
AcDbEntity
  8
0
100
AcDbSpline
 62
7
  6
CONTINUOUS
 70
0
 71
3
 72
8
 73
4
 74
0
 42
0.0000001
 43
0.0000001
 44
0.0000000001
 40
0.0
 40
0.0
 40
0.0
 40
0.0
 40
1.0
 40
1.0
 40
1.0
 40
1.0
 10
6.7851731438
 20
1.8638413057
 30
0.0
 10
6.8536762037
 20
1.8295896973
 30
0.0
 10
6.9262786532
 20
1.827463029
 30
0.0
 10
6.9768566392
 20
1.8587585287
 30
0.0
  0
SPLINE
  5
2DF
100
AcDbEntity
  8
0
100
AcDbSpline
 62
7
  6
CONTINUOUS
 70
0
 71
3
 72
8
 73
4
 74
0
 42
0.0000001
 43
0.0000001
 44
0.0000000001
 40
0.0
 40
0.0
 40
0.0
 40
0.0
 40
1.0
 40
1.0
 40
1.0
 40
1.0
 10
6.9768566392
 20
1.8587585287
 30
0.0
 10
7.0281032879
 20
1.888793909
 30
0.0
 10
7.0629994632
 20
1.9562063398
 30
0.0
 10
7.0707221735
 20
2.0356982061
 30
0.0
  0
SPLINE
  5
2E0
100
AcDbEntity
  8
0
100
AcDbSpline
 62
7
  6
CONTINUOUS
 70
0
 71
3
 72
8
 73
4
 74
0
 42
0.0000001
 43
0.0000001
 44
0.0000000001
 40
0.0
 40
0.0
 40
0.0
 40
0.0
 40
1.0
 40
1.0
 40
1.0
 40
1.0
 10
7.4185194544
 20
8.5598194728
 30
0.0
 10
7.4350137977
 20
8.6056411758
 30
0.0
 10
7.4391911765
 20
8.6650081023
 30
0.0
 10
7.4313641025
 20
8.7258395066
 30
0.0
  0
SPLINE
  5
2E1
100
AcDbEntity
  8
0
100
AcDbSpline
 62
7
  6
CONTINUOUS
 70
0
 71
3
 72
8
 73
4
 74
0
 42
0.0000001
 43
0.0000001
 44
0.0000000001
 40
0.0
 40
0.0
 40
0.0
 40
0.0
 40
1.0
 40
1.0
 40
1.0
 40
1.0
 10
7.4313641025
 20
8.7258395066
 30
0.0
 10
7.4245086588
 20
8.7868409546
 30
0.0
 10
7.4042442331
 20
8.8538459418
 30
0.0
 10
7.3750446896
 20
8.9143402622
 30
0.0
  0
SPLINE
  5
2E2
100
AcDbEntity
  8
0
100
AcDbSpline
 62
7
  6
CONTINUOUS
 70
0
 71
3
 72
8
 73
4
 74
0
 42
0.0000001
 43
0.0000001
 44
0.0000000001
 40
0.0
 40
0.0
 40
0.0
 40
0.0
 40
1.0
 40
1.0
 40
1.0
 40
1.0
 10
7.3750446896
 20
8.9143402622
 30
0.0
 10
7.0508578058
 20
9.5885398629
 30
0.0
 10
6.5765706808
 20
10.2290958361
 30
0.0
 10
6.0717939183
 20
10.6756466529
 30
0.0
  0
SPLINE
  5
2E3
100
AcDbEntity
  8
0
100
AcDbSpline
 62
7
  6
CONTINUOUS
 70
0
 71
3
 72
8
 73
4
 74
0
 42
0.0000001
 43
0.0000001
 44
0.0000000001
 40
0.0
 40
0.0
 40
0.0
 40
0.0
 40
1.0
 40
1.0
 40
1.0
 40
1.0
 10
6.0717939183
 20
10.6756466529
 30
0.0
 10
5.5670166561
 20
11.1216023215
 30
0.0
 10
4.9897473236
 20
11.4102369841
 30
0.0
 10
4.484970063
 20
11.4690585708
 30
0.0
  0
SPLINE
  5
2E4
100
AcDbEntity
  8
0
100
AcDbSpline
 62
7
  6
CONTINUOUS
 70
0
 71
3
 72
8
 73
4
 74
0
 42
0.0000001
 43
0.0000001
 44
0.0000000001
 40
0.0
 40
0.0
 40
0.0
 40
0.0
 40
1.0
 40
1.0
 40
1.0
 40
1.0
 10
4.484970063
 20
11.4690585708
 30
0.0
 10
3.9801933096
 20
11.527284508
 30
0.0
 10
3.5062099538
 20
11.3605751224
 30
0.0
 10
3.1817193156
 20
11.011002947
 30
0.0
  0
SPLINE
  5
2E5
100
AcDbEntity
  8
0
100
AcDbSpline
 62
7
  6
CONTINUOUS
 70
0
 71
3
 72
8
 73
4
 74
0
 42
0.0000001
 43
0.0000001
 44
0.0000000001
 40
0.0
 40
0.0
 40
0.0
 40
0.0
 40
1.0
 40
1.0
 40
1.0
 40
1.0
 10
3.1817193156
 20
11.011002947
 30
0.0
 10
3.1528648815
 20
10.9793093624
 30
0.0
 10
3.133217752
 20
10.9323194563
 30
0.0
 10
3.1258939335
 20
10.8785745852
 30
0.0
  0
SPLINE
  5
2E6
100
AcDbEntity
  8
0
100
AcDbSpline
 62
7
  6
CONTINUOUS
 70
0
 71
3
 72
8
 73
4
 74
0
 42
0.0000001
 43
0.0000001
 44
0.0000000001
 40
0.0
 40
0.0
 40
0.0
 40
0.0
 40
1.0
 40
1.0
 40
1.0
 40
1.0
 10
3.1258939335
 20
10.8785745852
 30
0.0
 10
3.1180692977
 20
10.8255867592
 30
0.0
 10
3.1221832155
 20
10.762232509
 30
0.0
 10
3.1382446119
 20
10.6999568932
 30
0.0
  0
SPLINE
  5
2E7
100
AcDbEntity
  8
0
100
AcDbSpline
 62
7
  6
CONTINUOUS
 70
0
 71
3
 72
8
 73
4
 74
0
 42
0.0000001
 43
0.0000001
 44
0.0000000001
 40
0.0
 40
0.0
 40
0.0
 40
0.0
 40
1.0
 40
1.0
 40
1.0
 40
1.0
 10
3.4850535923
 20
9.3309530145
 30
0.0
 10
3.2995686587
 20
8.8655018519
 30
0.0
 10
3.3033436109
 20
8.1697424367
 30
0.0
 10
3.4934521443
 20
7.5188327598
 30
0.0
  0
SPLINE
  5
2E8
100
AcDbEntity
  8
0
100
AcDbSpline
 62
7
  6
CONTINUOUS
 70
0
 71
3
 72
8
 73
4
 74
0
 42
0.0000001
 43
0.0000001
 44
0.0000000001
 40
0.0
 40
0.0
 40
0.0
 40
0.0
 40
1.0
 40
1.0
 40
1.0
 40
1.0
 10
3.4934521443
 20
7.5188327598
 30
0.0
 10
3.6837448546
 20
6.8678825081
 30
0.0
 10
4.0854925611
 20
6.1780767918
 30
0.0
 10
4.5403013961
 20
5.7205456045
 30
0.0
  0
SPLINE
  5
2E9
100
AcDbEntity
  8
0
100
AcDbSpline
 62
7
  6
CONTINUOUS
 70
0
 71
3
 72
8
 73
4
 74
0
 42
0.0000001
 43
0.0000001
 44
0.0000000001
 40
0.0
 40
0.0
 40
0.0
 40
0.0
 40
1.0
 40
1.0
 40
1.0
 40
1.0
 10
4.5403013961
 20
5.7205456045
 30
0.0
 10
4.9953823262
 20
5.2638166855
 30
0.0
 10
5.5615212244
 20
4.9803320895
 30
0.0
 10
6.0164626206
 20
4.9824649974
 30
0.0
  0
SPLINE
  5
2EA
100
AcDbEntity
  8
0
100
AcDbSpline
 62
7
  6
CONTINUOUS
 70
0
 71
3
 72
8
 73
4
 74
0
 42
0.0000001
 43
0.0000001
 44
0.0000000001
 40
0.0
 40
0.0
 40
0.0
 40
0.0
 40
1.0
 40
1.0
 40
1.0
 40
1.0
 10
6.0164626206
 20
4.9824649974
 30
0.0
 10
6.4715195341
 20
4.9847020465
 30
0.0
 10
6.8730584514
 20
5.2733044258
 30
0.0
 10
7.0638058988
 20
5.7336559008
 30
0.0
  0
SPLINE
  5
2EB
100
AcDbEntity
  8
0
100
AcDbSpline
 62
7
  6
CONTINUOUS
 70
0
 71
3
 72
8
 73
4
 74
0
 42
0.0000001
 43
0.0000001
 44
0.0000000001
 40
0.0
 40
0.0
 40
0.0
 40
0.0
 40
1.0
 40
1.0
 40
1.0
 40
1.0
 10
7.0638058988
 20
5.7336559008
 30
0.0
 10
7.2543240141
 20
6.1940431397
 30
0.0
 10
7.2577702137
 20
6.8861941499
 30
0.0
 10
7.0726984156
 20
7.5371306037
 30
0.0
  0
SPLINE
  5
2EC
100
AcDbEntity
  8
0
100
AcDbSpline
 62
7
  6
CONTINUOUS
 70
0
 71
3
 72
8
 73
4
 74
0
 42
0.0000001
 43
0.0000001
 44
0.0000000001
 40
0.0
 40
0.0
 40
0.0
 40
0.0
 40
1.0
 40
1.0
 40
1.0
 40
1.0
 10
9.8610028916
 20
1.4882476948
 30
0.0
 10
9.8927907833
 20
1.5531671378
 30
0.0
 10
9.8978718144
 20
1.6537205886
 30
0.0
 10
9.8738476953
 20
1.7504720809
 30
0.0
  0
SPLINE
  5
2ED
100
AcDbEntity
  8
0
100
AcDbSpline
 62
7
  6
CONTINUOUS
 70
0
 71
3
 72
8
 73
4
 74
0
 42
0.0000001
 43
0.0000001
 44
0.0000000001
 40
0.0
 40
0.0
 40
0.0
 40
0.0
 40
1.0
 40
1.0
 40
1.0
 40
1.0
 10
9.8738476953
 20
1.7504720809
 30
0.0
 10
9.8497443044
 20
1.8469524114
 30
0.0
 10
9.794112757
 20
1.9516931752
 30
0.0
 10
9.7286028986
 20
2.0239745798
 30
0.0
  0
SPLINE
  5
2EE
100
AcDbEntity
  8
0
100
AcDbSpline
 62
7
  6
CONTINUOUS
 70
0
 71
3
 72
8
 73
4
 74
0
 42
0.0000001
 43
0.0000001
 44
0.0000000001
 40
0.0
 40
0.0
 40
0.0
 40
0.0
 40
1.0
 40
1.0
 40
1.0
 40
1.0
 10
9.7286028986
 20
2.0239745798
 30
0.0
 10
9.6625290966
 20
2.0957140389
 30
0.0
 10
9.5784431747
 20
2.1442094207
 30
0.0
 10
9.5092537126
 20
2.149380752
 30
0.0
  0
SPLINE
  5
2EF
100
AcDbEntity
  8
0
100
AcDbSpline
 62
7
  6
CONTINUOUS
 70
0
 71
3
 72
8
 73
4
 74
0
 42
0.0000001
 43
0.0000001
 44
0.0000000001
 40
0.0
 40
0.0
 40
0.0
 40
0.0
 40
1.0
 40
1.0
 40
1.0
 40
1.0
 10
9.5092537126
 20
2.149380752
 30
0.0
 10
9.4400150544
 20
2.1551446479
 30
0.0
 10
9.3769783166
 20
2.1177238613
 30
0.0
 10
9.345235698
 20
2.0528967633
 30
0.0
  0
SPLINE
  5
2F0
100
AcDbEntity
  8
0
100
AcDbSpline
 62
7
  6
CONTINUOUS
 70
0
 71
3
 72
8
 73
4
 74
0
 42
0.0000001
 43
0.0000001
 44
0.0000000001
 40
0.0
 40
0.0
 40
0.0
 40
0.0
 40
1.0
 40
1.0
 40
1.0
 40
1.0
 10
8.4055910585
 20
0.1533021106
 30
0.0
 10
8.3730191048
 20
0.0892170312
 30
0.0
 10
8.3677274605
 20
-0.0116503453
 30
0.0
 10
8.3917581432
 20
-0.1084282631
 30
0.0
  0
SPLINE
  5
2F1
100
AcDbEntity
  8
0
100
AcDbSpline
 62
7
  6
CONTINUOUS
 70
0
 71
3
 72
8
 73
4
 74
0
 42
0.0000001
 43
0.0000001
 44
0.0000000001
 40
0.0
 40
0.0
 40
0.0
 40
0.0
 40
1.0
 40
1.0
 40
1.0
 40
1.0
 10
8.3917581432
 20
-0.1084282631
 30
0.0
 10
8.4159337324
 20
-0.2051975791
 30
0.0
 10
8.47209945
 20
-0.3102983931
 30
0.0
 10
8.5379909324
 20
-0.3824247106
 30
0.0
  0
SPLINE
  5
2F2
100
AcDbEntity
  8
0
100
AcDbSpline
 62
7
  6
CONTINUOUS
 70
0
 71
3
 72
8
 73
4
 74
0
 42
0.0000001
 43
0.0000001
 44
0.0000000001
 40
0.0
 40
0.0
 40
0.0
 40
0.0
 40
1.0
 40
1.0
 40
1.0
 40
1.0
 10
8.5379909324
 20
-0.3824247106
 30
0.0
 10
8.6035875021
 20
-0.4542110867
 30
0.0
 10
8.6875781429
 20
-0.5026085878
 30
0.0
 10
8.756352166
 20
-0.5073369276
 30
0.0
  0
SPLINE
  5
2F3
100
AcDbEntity
  8
0
100
AcDbSpline
 62
7
  6
CONTINUOUS
 70
0
 71
3
 72
8
 73
4
 74
0
 42
0.0000001
 43
0.0000001
 44
0.0000000001
 40
0.0
 40
0.0
 40
0.0
 40
0.0
 40
1.0
 40
1.0
 40
1.0
 40
1.0
 10
8.756352166
 20
-0.5073369276
 30
0.0
 10
8.8259225048
 20
-0.5135255928
 30
0.0
 10
8.8887319727
 20
-0.475539068
 30
0.0
 10
8.9213582554
 20
-0.4113469511
 30
0.0
  0
SPLINE
  5
2F4
100
AcDbEntity
  8
0
100
AcDbSpline
 62
7
  6
CONTINUOUS
 70
0
 71
3
 72
8
 73
4
 74
0
 42
0.0000001
 43
0.0000001
 44
0.0000000001
 40
0.0
 40
0.0
 40
0.0
 40
0.0
 40
1.0
 40
1.0
 40
1.0
 40
1.0
 10
9.7295909728
 20
2.6545586687
 30
0.0
 10
9.8745388538
 20
2.428822189
 30
0.0
 10
10.0727593072
 20
2.2335469827
 30
0.0
 10
10.2641313324
 20
2.1295326935
 30
0.0
  0
SPLINE
  5
2F5
100
AcDbEntity
  8
0
100
AcDbSpline
 62
7
  6
CONTINUOUS
 70
0
 71
3
 72
8
 73
4
 74
0
 42
0.0000001
 43
0.0000001
 44
0.0000000001
 40
0.0
 40
0.0
 40
0.0
 40
0.0
 40
1.0
 40
1.0
 40
1.0
 40
1.0
 10
10.2641313324
 20
2.1295326935
 30
0.0
 10
10.455740337
 20
2.0260243219
 30
0.0
 10
10.6596004407
 20
2.0025378598
 30
0.0
 10
10.8125044467
 20
2.0677224092
 30
0.0
  0
SPLINE
  5
2F6
100
AcDbEntity
  8
0
100
AcDbSpline
 62
7
  6
CONTINUOUS
 70
0
 71
3
 72
8
 73
4
 74
0
 42
0.0000001
 43
0.0000001
 44
0.0000000001
 40
0.0
 40
0.0
 40
0.0
 40
0.0
 40
1.0
 40
1.0
 40
1.0
 40
1.0
 10
10.8125044467
 20
2.0677224092
 30
0.0
 10
10.9654923852
 20
2.1317568469
 30
0.0
 10
11.0832133469
 20
2.2911745851
 30
0.0
 10
11.1286835271
 20
2.4959365086
 30
0.0
  0
SPLINE
  5
2F7
100
AcDbEntity
  8
0
100
AcDbSpline
 62
7
  6
CONTINUOUS
 70
0
 71
3
 72
8
 73
4
 74
0
 42
0.0000001
 43
0.0000001
 44
0.0000000001
 40
0.0
 40
0.0
 40
0.0
 40
0.0
 40
1.0
 40
1.0
 40
1.0
 40
1.0
 10
11.1286835271
 20
2.4959365086
 30
0.0
 10
11.1761265434
 20
2.6993011458
 30
0.0
 10
11.1556464172
 20
2.970311291
 30
0.0
 10
11.0743286267
 20
3.223162322
 30
0.0
  0
SPLINE
  5
2F8
100
AcDbEntity
  8
0
100
AcDbSpline
 62
7
  6
CONTINUOUS
 70
0
 71
3
 72
9
 73
5
 74
0
 42
0.0000001
 43
0.0000001
 44
0.0000000001
 40
0.0
 40
0.0
 40
0.0
 40
0.0
 40
0.5011212978
 40
1.0
 40
1.0
 40
1.0
 40
1.0
 10
11.0743286267
 20
3.223162322
 30
0.0
 10
11.0510213275
 20
3.2957376705
 30
0.0
 10
10.9612281669
 20
3.4433545989
 30
0.0
 10
10.8382950709
 20
3.4973122623
 30
0.0
 10
10.7887935664
 20
3.4935976121
 30
0.0
  0
SPLINE
  5
2F9
100
AcDbEntity
  8
0
100
AcDbSpline
 62
7
  6
CONTINUOUS
 70
0
 71
3
 72
8
 73
4
 74
0
 42
0.0000001
 43
0.0000001
 44
0.0000000001
 40
0.0
 40
0.0
 40
0.0
 40
0.0
 40
1.0
 40
1.0
 40
1.0
 40
1.0
 10
10.7887935664
 20
3.4935976121
 30
0.0
 10
10.7387338866
 20
3.4903385194
 30
0.0
 10
10.6962882
 20
3.4537256969
 30
0.0
 10
10.6771402422
 20
3.3999810011
 30
0.0
  0
SPLINE
  5
2FA
100
AcDbEntity
  8
0
100
AcDbSpline
 62
7
  6
CONTINUOUS
 70
0
 71
3
 72
8
 73
4
 74
0
 42
0.0000001
 43
0.0000001
 44
0.0000000001
 40
0.0
 40
0.0
 40
0.0
 40
0.0
 40
1.0
 40
1.0
 40
1.0
 40
1.0
 10
10.6771402422
 20
3.3999810011
 30
0.0
 10
10.6586739438
 20
3.3461260161
 30
0.0
 10
10.660942211
 20
3.2679469523
 30
0.0
 10
10.6840566564
 20
3.1956426921
 30
0.0
  0
SPLINE
  5
2FB
100
AcDbEntity
  8
0
100
AcDbSpline
 62
7
  6
CONTINUOUS
 70
0
 71
3
 72
8
 73
4
 74
0
 42
0.0000001
 43
0.0000001
 44
0.0000000001
 40
0.0
 40
0.0
 40
0.0
 40
0.0
 40
1.0
 40
1.0
 40
1.0
 40
1.0
 10
10.6840566564
 20
3.1956426921
 30
0.0
 10
10.7245659914
 20
3.0690731671
 30
0.0
 10
10.7349554679
 20
2.9336819143
 30
0.0
 10
10.71172233
 20
2.8314798106
 30
0.0
  0
SPLINE
  5
2FC
100
AcDbEntity
  8
0
100
AcDbSpline
 62
7
  6
CONTINUOUS
 70
0
 71
3
 72
8
 73
4
 74
0
 42
0.0000001
 43
0.0000001
 44
0.0000000001
 40
0.0
 40
0.0
 40
0.0
 40
0.0
 40
1.0
 40
1.0
 40
1.0
 40
1.0
 10
10.71172233
 20
2.8314798106
 30
0.0
 10
10.6884007154
 20
2.7294835669
 30
0.0
 10
10.6300654559
 20
2.6493580112
 30
0.0
 10
10.5536327526
 20
2.6170702168
 30
0.0
  0
SPLINE
  5
2FD
100
AcDbEntity
  8
0
100
AcDbSpline
 62
7
  6
CONTINUOUS
 70
0
 71
3
 72
8
 73
4
 74
0
 42
0.0000001
 43
0.0000001
 44
0.0000000001
 40
0.0
 40
0.0
 40
0.0
 40
0.0
 40
1.0
 40
1.0
 40
1.0
 40
1.0
 10
10.5536327526
 20
2.6170702168
 30
0.0
 10
10.4767648863
 20
2.5851944396
 30
0.0
 10
10.3748313329
 20
2.5970389337
 30
0.0
 10
10.2789521594
 20
2.6491300037
 30
0.0
  0
SPLINE
  5
2FE
100
AcDbEntity
  8
0
100
AcDbSpline
 62
7
  6
CONTINUOUS
 70
0
 71
3
 72
8
 73
4
 74
0
 42
0.0000001
 43
0.0000001
 44
0.0000000001
 40
0.0
 40
0.0
 40
0.0
 40
0.0
 40
1.0
 40
1.0
 40
1.0
 40
1.0
 10
10.2789521594
 20
2.6491300037
 30
0.0
 10
10.1834199036
 20
2.7010748024
 30
0.0
 10
10.0844148023
 20
2.7985990937
 30
0.0
 10
10.0121760866
 20
2.9113958998
 30
0.0
  0
SPLINE
  5
2FF
100
AcDbEntity
  8
0
100
AcDbSpline
 62
7
  6
CONTINUOUS
 70
0
 71
3
 72
8
 73
4
 74
0
 42
0.0000001
 43
0.0000001
 44
0.0000000001
 40
0.0
 40
0.0
 40
0.0
 40
0.0
 40
1.0
 40
1.0
 40
1.0
 40
1.0
 10
10.0121760866
 20
2.9113958998
 30
0.0
 10
9.9400221361
 20
3.024498221
 30
0.0
 10
9.887324341
 20
3.1644976217
 30
0.0
 10
9.8708835187
 20
3.288202845
 30
0.0
  0
SPLINE
  5
300
100
AcDbEntity
  8
0
100
AcDbSpline
 62
7
  6
CONTINUOUS
 70
0
 71
3
 72
8
 73
4
 74
0
 42
0.0000001
 43
0.0000001
 44
0.0000000001
 40
0.0
 40
0.0
 40
0.0
 40
0.0
 40
1.0
 40
1.0
 40
1.0
 40
1.0
 10
9.8708835187
 20
3.288202845
 30
0.0
 10
9.8612231383
 20
3.3592894421
 30
0.0
 10
9.8269331333
 20
3.4415248245
 30
0.0
 10
9.7819581507
 20
3.5026875313
 30
0.0
  0
SPLINE
  5
301
100
AcDbEntity
  8
0
100
AcDbSpline
 62
7
  6
CONTINUOUS
 70
0
 71
3
 72
8
 73
4
 74
0
 42
0.0000001
 43
0.0000001
 44
0.0000000001
 40
0.0
 40
0.0
 40
0.0
 40
0.0
 40
1.0
 40
1.0
 40
1.0
 40
1.0
 10
9.7819581507
 20
3.5026875313
 30
0.0
 10
9.7373187906
 20
3.5636340482
 30
0.0
 10
9.675698122
 20
3.6111494328
 30
0.0
 10
9.6218925041
 20
3.6262847241
 30
0.0
  0
SPLINE
  5
302
100
AcDbEntity
  8
0
100
AcDbSpline
 62
7
  6
CONTINUOUS
 70
0
 71
3
 72
8
 73
4
 74
0
 42
0.0000001
 43
0.0000001
 44
0.0000000001
 40
0.0
 40
0.0
 40
0.0
 40
0.0
 40
1.0
 40
1.0
 40
1.0
 40
1.0
 10
9.6218925041
 20
3.6262847241
 30
0.0
 10
9.5677157095
 20
3.6417322984
 30
0.0
 10
9.5144095783
 20
3.6266579075
 30
0.0
 10
9.4825760513
 20
3.5876371046
 30
0.0
  0
SPLINE
  5
303
100
AcDbEntity
  8
0
100
AcDbSpline
 62
7
  6
CONTINUOUS
 70
0
 71
3
 72
8
 73
4
 74
0
 42
0.0000001
 43
0.0000001
 44
0.0000000001
 40
0.0
 40
0.0
 40
0.0
 40
0.0
 40
1.0
 40
1.0
 40
1.0
 40
1.0
 10
9.4825760513
 20
3.5876371046
 30
0.0
 10
9.451499739
 20
3.5478685146
 30
0.0
 10
9.4373694969
 20
3.4796877085
 30
0.0
 10
9.4470059043
 20
3.4087775127
 30
0.0
  0
SPLINE
  5
304
100
AcDbEntity
  8
0
100
AcDbSpline
 62
7
  6
CONTINUOUS
 70
0
 71
3
 72
8
 73
4
 74
0
 42
0.0000001
 43
0.0000001
 44
0.0000000001
 40
0.0
 40
0.0
 40
0.0
 40
0.0
 40
1.0
 40
1.0
 40
1.0
 40
1.0
 10
9.4470059043
 20
3.4087775127
 30
0.0
 10
9.4799121725
 20
3.1611817966
 30
0.0
 10
9.5852366455
 20
2.8809884473
 30
0.0
 10
9.7295909728
 20
2.6545586687
 30
0.0
  0
SPLINE
  5
305
100
AcDbEntity
  8
0
100
AcDbSpline
 62
7
  6
CONTINUOUS
 70
0
 71
3
 72
10
 73
6
 74
0
 42
0.0000001
 43
0.0000001
 44
0.0000000001
 40
0.0
 40
0.0
 40
0.0
 40
0.0
 40
0.25
 40
0.5
 40
1.0
 40
1.0
 40
1.0
 40
1.0
 10
10.3589601951
 20
5.0372452253
 30
0.0
 10
10.3629966883
 20
5.051593956
 30
0.0
 10
10.3705911237
 20
5.0803125591
 30
0.0
 10
10.3751853836
 20
5.1488726007
 30
0.0
 10
10.3625856033
 20
5.2042051232
 30
0.0
 10
10.3520686122
 20
5.2421648221
 30
0.0
  0
SPLINE
  5
306
100
AcDbEntity
  8
0
100
AcDbSpline
 62
7
  6
CONTINUOUS
 70
0
 71
3
 72
8
 73
4
 74
0
 42
0.0000001
 43
0.0000001
 44
0.0000000001
 40
0.0
 40
0.0
 40
0.0
 40
0.0
 40
1.0
 40
1.0
 40
1.0
 40
1.0
 10
10.3520686712
 20
5.2421648336
 30
0.0
 10
10.3280938807
 20
5.3146397812
 30
0.0
 10
10.2820600567
 20
5.3900908549
 30
0.0
 10
10.2305368473
 20
5.4390681481
 30
0.0
  0
SPLINE
  5
307
100
AcDbEntity
  8
0
100
AcDbSpline
 62
7
  6
CONTINUOUS
 70
0
 71
3
 72
80
 73
76
 74
0
 42
0.0000001
 43
0.0000001
 44
0.0000000001
 40
0.0
 40
0.0
 40
0.0
 40
0.0
 40
0.03125
 40
0.046875
 40
0.0625
 40
0.0703125
 40
0.078125
 40
0.09375
 40
0.109375
 40
0.125
 40
0.1328125
 40
0.140625
 40
0.15625
 40
0.171875
 40
0.1875
 40
0.203125
 40
0.2109375
 40
0.21484375
 40
0.21875
 40
0.2265625
 40
0.234375
 40
0.25
 40
0.265625
 40
0.2734375
 40
0.28125
 40
0.28515625
 40
0.2890625
 40
0.296875
 40
0.3125
 40
0.328125
 40
0.34375
 40
0.359375
 40
0.3671875
 40
0.375
 40
0.390625
 40
0.40625
 40
0.421875
 40
0.4296875
 40
0.4375
 40
0.453125
 40
0.46875
 40
0.484375
 40
0.4921875
 40
0.5
 40
0.5078125
 40
0.515625
 40
0.53125
 40
0.546875
 40
0.5625
 40
0.5703125
 40
0.578125
 40
0.59375
 40
0.609375
 40
0.625
 40
0.6328125
 40
0.640625
 40
0.65625
 40
0.6875
 40
0.703125
 40
0.71875
 40
0.734375
 40
0.75
 40
0.765625
 40
0.78125
 40
0.8125
 40
0.84375
 40
0.859375
 40
0.875
 40
0.90625
 40
0.921875
 40
0.9296875
 40
0.9375
 40
0.953125
 40
0.96875
 40
1.0
 40
1.0
 40
1.0
 40
1.0
 10
10.2305368757
 20
5.4390682284
 30
0.0
 10
10.2072269807
 20
5.4579463085
 30
0.0
 10
10.1722479557
 20
5.4861499189
 30
0.0
 10
10.1256659857
 20
5.5242087712
 30
0.0
 10
10.0964340669
 20
5.5470496408
 30
0.0
 10
10.0733179996
 20
5.5674790184
 30
0.0
 10
10.0492186113
 20
5.5800383985
 30
0.0
 10
10.0192202948
 20
5.5967646006
 30
0.0
 10
9.9831712653
 20
5.61633793
 30
0.0
 10
9.953132681
 20
5.6329401125
 30
0.0
 10
9.9291218819
 20
5.6457723357
 30
0.0
 10
9.9050289906
 20
5.6601697902
 30
0.0
 10
9.8755034825
 20
5.6669892775
 30
0.0
 10
9.8399320158
 20
5.6778030881
 30
0.0
 10
9.8044074931
 20
5.6878667719
 30
0.0
 10
9.774764625
 20
5.6965615764
 30
0.0
 10
9.7540761876
 20
5.7023284772
 30
0.0
 10
9.7421604041
 20
5.7060789785
 30
0.0
 10
9.731183064
 20
5.7052986137
 30
0.0
 10
9.7171398311
 20
5.7058751982
 30
0.0
 10
9.6948517411
 20
5.7059264068
 30
0.0
 10
9.6669197398
 20
5.7063172053
 30
0.0
 10
9.6390489405
 20
5.7064900112
 30
0.0
 10
9.6166629272
 20
5.7068900078
 30
0.0
 10
9.6028645026
 20
5.7065946221
 30
0.0
 10
9.5913853055
 20
5.7076017963
 30
0.0
 10
9.5815136713
 20
5.7040713464
 30
0.0
 10
9.5639549309
 20
5.6986907394
 30
0.0
 10
9.5390395442
 20
5.6905469694
 30
0.0
 10
9.508979872
 20
5.6811456814
 30
0.0
 10
9.4792953875
 20
5.670990951
 30
0.0
 10
9.4534420315
 20
5.6647307868
 30
0.0
 10
9.4373193652
 20
5.6507395057
 30
0.0
 10
9.420397868
 20
5.6383206992
 30
0.0
 10
9.3995372046
 20
5.6222325691
 30
0.0
 10
9.3743048565
 20
5.6032782867
 30
0.0
 10
9.3535547956
 20
5.5870643015
 30
0.0
 10
9.3363899729
 20
5.5749223761
 30
0.0
 10
9.3246487087
 20
5.5548422492
 30
0.0
 10
9.3080936718
 20
5.5324853303
 30
0.0
 10
9.2891088813
 20
5.5043967793
 30
0.0
 10
9.2728553191
 20
5.481532828
 30
0.0
 10
9.2604508108
 20
5.4625681721
 30
0.0
 10
9.2496121471
 20
5.4500392603
 30
0.0
 10
9.2446154428
 20
5.4310687754
 30
0.0
 10
9.2359046691
 20
5.4080320654
 30
0.0
 10
9.2257750631
 20
5.3784105869
 30
0.0
 10
9.2130497543
 20
5.3434417445
 30
0.0
 10
9.2033327874
 20
5.3134787245
 30
0.0
 10
9.1937142077
 20
5.2911934058
 30
0.0
 10
9.1907656869
 20
5.2628255521
 30
0.0
 10
9.1862096511
 20
5.2281545835
 30
0.0
 10
9.1811616737
 20
5.1861902452
 30
0.0
 10
9.1767179871
 20
5.1513654186
 30
0.0
 10
9.173522298
 20
5.1233360525
 30
0.0
 10
9.1690791991
 20
5.0958683413
 30
0.0
 10
9.1737728744
 20
5.0421991031
 30
0.0
 10
9.1763926097
 20
4.98212046
 30
0.0
 10
9.1795799831
 20
4.9217145706
 30
0.0
 10
9.1830120641
 20
4.8761342634
 30
0.0
 10
9.1947233658
 20
4.8282058887
 30
0.0
 10
9.2040993433
 20
4.7809075454
 30
0.0
 10
9.2145373969
 20
4.733437144
 30
0.0
 10
9.2259041616
 20
4.6702208765
 30
0.0
 10
9.2565872284
 20
4.5910486806
 30
0.0
 10
9.2844818932
 20
4.5120793044
 30
0.0
 10
9.3063022753
 20
4.4485077628
 30
0.0
 10
9.3394785644
 20
4.3886880551
 30
0.0
 10
9.3693088381
 20
4.3277227272
 30
0.0
 10
9.3967413039
 20
4.2749231773
 30
0.0
 10
9.4118083327
 20
4.2443903383
 30
0.0
 10
9.4319883013
 20
4.2171529442
 30
0.0
 10
9.4554618343
 20
4.1819773532
 30
0.0
 10
9.4940027448
 20
4.1263301471
 30
0.0
 10
9.5226871946
 20
4.0844521512
 30
0.0
 10
9.5418593241
 20
4.0565651742
 30
0.0
  0
SPLINE
  5
308
100
AcDbEntity
  8
0
100
AcDbSpline
 62
7
  6
CONTINUOUS
 70
0
 71
3
 72
8
 73
4
 74
0
 42
0.0000001
 43
0.0000001
 44
0.0000000001
 40
0.0
 40
0.0
 40
0.0
 40
0.0
 40
1.0
 40
1.0
 40
1.0
 40
1.0
 10
9.5418593751
 20
4.0565652284
 30
0.0
 10
9.7018808759
 20
3.8543589786
 30
0.0
 10
9.9113784415
 20
3.6995997311
 30
0.0
 10
10.0971491711
 20
3.6464121647
 30
0.0
  0
SPLINE
  5
309
100
AcDbEntity
  8
0
100
AcDbSpline
 62
7
  6
CONTINUOUS
 70
0
 71
3
 72
8
 73
4
 74
0
 42
0.0000001
 43
0.0000001
 44
0.0000000001
 40
0.0
 40
0.0
 40
0.0
 40
0.0
 40
1.0
 40
1.0
 40
1.0
 40
1.0
 10
10.0971491711
 20
3.6464121647
 30
0.0
 10
10.1513838935
 20
3.6311561719
 30
0.0
 10
10.2048076979
 20
3.6462718428
 30
0.0
 10
10.2364656461
 20
3.6856647955
 30
0.0
  0
SPLINE
  5
30A
100
AcDbEntity
  8
0
100
AcDbSpline
 62
7
  6
CONTINUOUS
 70
0
 71
3
 72
9
 73
5
 74
0
 42
0.0000001
 43
0.0000001
 44
0.0000000001
 40
0.0
 40
0.0
 40
0.0
 40
0.0
 40
0.4989439644
 40
1.0
 40
1.0
 40
1.0
 40
1.0
 10
10.2364656461
 20
3.6856647955
 30
0.0
 10
10.2683917585
 20
3.7242057011
 30
0.0
 10
10.2957832083
 20
3.8582684052
 30
0.0
 10
10.228124029
 20
4.0177927566
 30
0.0
 10
10.1831103473
 20
4.0790090857
 30
0.0
  0
SPLINE
  5
30B
100
AcDbEntity
  8
0
100
AcDbSpline
 62
7
  6
CONTINUOUS
 70
0
 71
3
 72
8
 73
4
 74
0
 42
0.0000001
 43
0.0000001
 44
0.0000000001
 40
0.0
 40
0.0
 40
0.0
 40
0.0
 40
1.0
 40
1.0
 40
1.0
 40
1.0
 10
10.1831103473
 20
4.0790090857
 30
0.0
 10
10.1381548147
 20
4.139559709
 30
0.0
 10
10.0768503124
 20
4.1874710632
 30
0.0
 10
10.0230446906
 20
4.2026063386
 30
0.0
  0
SPLINE
  5
30C
100
AcDbEntity
  8
0
100
AcDbSpline
 62
7
  6
CONTINUOUS
 70
0
 71
3
 72
8
 73
4
 74
0
 42
0.0000001
 43
0.0000001
 44
0.0000000001
 40
0.0
 40
0.0
 40
0.0
 40
0.0
 40
1.0
 40
1.0
 40
1.0
 40
1.0
 10
10.0230446906
 20
4.2026063386
 30
0.0
 10
9.9385537665
 20
4.2260372942
 30
0.0
 10
9.8431393421
 20
4.2971405122
 30
0.0
 10
9.7701015026
 20
4.3889791483
 30
0.0
  0
SPLINE
  5
30D
100
AcDbEntity
  8
0
100
AcDbSpline
 62
7
  6
CONTINUOUS
 70
0
 71
3
 72
38
 73
34
 74
0
 42
0.0000001
 43
0.0000001
 44
0.0000000001
 40
0.0
 40
0.0
 40
0.0
 40
0.0
 40
0.0625
 40
0.09375
 40
0.125
 40
0.15625
 40
0.1875
 40
0.21875
 40
0.25
 40
0.28125
 40
0.3125
 40
0.34375
 40
0.359375
 40
0.375
 40
0.40625
 40
0.4375
 40
0.453125
 40
0.46875
 40
0.5
 40
0.53125
 40
0.546875
 40
0.5625
 40
0.59375
 40
0.625
 40
0.6875
 40
0.71875
 40
0.75
 40
0.78125
 40
0.8125
 40
0.875
 40
0.90625
 40
0.9375
 40
1.0
 40
1.0
 40
1.0
 40
1.0
 10
9.8264211076
 20
5.1407418303
 30
0.0
 10
9.8117075627
 20
5.1393636191
 30
0.0
 10
9.7898576003
 20
5.1366535895
 30
0.0
 10
9.7598428971
 20
5.1356110679
 30
0.0
 10
9.7407866744
 20
5.1247634275
 30
0.0
 10
9.7208644873
 20
5.1165071451
 30
0.0
 10
9.7009513534
 20
5.1079511796
 30
0.0
 10
9.6857166603
 20
5.0911042729
 30
0.0
 10
9.6690782516
 20
5.0766783946
 30
0.0
 10
9.6533762645
 20
5.060859344
 30
0.0
 10
9.6422290991
 20
5.0388861589
 30
0.0
 10
9.6323029105
 20
5.0215703849
 30
0.0
 10
9.6236130705
 20
5.0084063204
 30
0.0
 10
9.6184282943
 20
4.9916918662
 30
0.0
 10
9.6123589811
 20
4.9703300085
 30
0.0
 10
9.606702591
 20
4.9487222927
 30
0.0
 10
9.600857138
 20
4.9324012115
 30
0.0
 10
9.5999627102
 20
4.9124164511
 30
0.0
 10
9.59767346
 20
4.8882769174
 30
0.0
 10
9.5961676934
 20
4.8636559947
 30
0.0
 10
9.5940196919
 20
4.8444414569
 30
0.0
 10
9.5968833911
 20
4.8227771058
 30
0.0
 10
9.5990220219
 20
4.796477712
 30
0.0
 10
9.6016427863
 20
4.7542996203
 30
0.0
 10
9.6136809984
 20
4.7102165536
 30
0.0
 10
9.6226528393
 20
4.6662838713
 30
0.0
 10
9.6346267611
 20
4.6335351064
 30
0.0
 10
9.6475578452
 20
4.6009688837
 30
0.0
 10
9.6629031081
 20
4.5568363937
 30
0.0
 10
9.6877111416
 20
4.5166039778
 30
0.0
 10
9.7081684958
 20
4.4740656231
 30
0.0
 10
9.7364269391
 20
4.4367324102
 30
0.0
 10
9.7564795397
 20
4.4079801707
 30
0.0
 10
9.7701015472
 20
4.3889791954
 30
0.0
  0
SPLINE
  5
30E
100
AcDbEntity
  8
0
100
AcDbSpline
 62
7
  6
CONTINUOUS
 70
0
 71
3
 72
8
 73
4
 74
0
 42
0.0000001
 43
0.0000001
 44
0.0000000001
 40
0.0
 40
0.0
 40
0.0
 40
0.0
 40
1.0
 40
1.0
 40
1.0
 40
1.0
 10
9.8264210831
 20
5.1407419247
 30
0.0
 10
9.9058735449
 20
5.1401769334
 30
0.0
 10
10.002660774
 20
5.0933473416
 30
0.0
 10
10.0833180429
 20
5.0177447696
 30
0.0
  0
SPLINE
  5
30F
100
AcDbEntity
  8
0
100
AcDbSpline
 62
7
  6
CONTINUOUS
 70
0
 71
3
 72
9
 73
5
 74
0
 42
0.0000001
 43
0.0000001
 44
0.0000000001
 40
0.0
 40
0.0
 40
0.0
 40
0.0
 40
0.4983153993
 40
1.0
 40
1.0
 40
1.0
 40
1.0
 10
10.0833180429
 20
5.0177447696
 30
0.0
 10
10.1346468815
 20
4.9689990942
 30
0.0
 10
10.2579989759
 20
4.912025091
 30
0.0
 10
10.3395856319
 20
4.9838253967
 30
0.0
 10
10.3589602585
 20
5.0372451644
 30
0.0
  0
SPLINE
  5
310
100
AcDbEntity
  8
0
100
AcDbSpline
 62
7
  6
CONTINUOUS
 70
0
 71
3
 72
8
 73
4
 74
0
 42
0.0000001
 43
0.0000001
 44
0.0000000001
 40
0.0
 40
0.0
 40
0.0
 40
0.0
 40
1.0
 40
1.0
 40
1.0
 40
1.0
 10
11.0911291959
 20
3.8996984435
 30
0.0
 10
11.0987991159
 20
3.9621354995
 30
0.0
 10
11.0814489757
 20
4.0455454122
 30
0.0
 10
11.047662633
 20
4.1150498578
 30
0.0
  0
SPLINE
  5
311
100
AcDbEntity
  8
0
100
AcDbSpline
 62
7
  6
CONTINUOUS
 70
0
 71
3
 72
8
 73
4
 74
0
 42
0.0000001
 43
0.0000001
 44
0.0000000001
 40
0.0
 40
0.0
 40
0.0
 40
0.0
 40
1.0
 40
1.0
 40
1.0
 40
1.0
 10
11.047662633
 20
4.1150498578
 30
0.0
 10
11.0101391537
 20
4.192730428
 30
0.0
 10
10.9904685301
 20
4.2839551657
 30
0.0
 10
10.9952954641
 20
4.356029932
 30
0.0
  0
SPLINE
  5
312
100
AcDbEntity
  8
0
100
AcDbSpline
 62
7
  6
CONTINUOUS
 70
0
 71
3
 72
8
 73
4
 74
0
 42
0.0000001
 43
0.0000001
 44
0.0000000001
 40
0.0
 40
0.0
 40
0.0
 40
0.0
 40
1.0
 40
1.0
 40
1.0
 40
1.0
 10
10.9952954641
 20
4.356029932
 30
0.0
 10
11.0001466174
 20
4.4278721662
 30
0.0
 10
11.0304452959
 20
4.4890432066
 30
0.0
 10
11.0753338292
 20
4.5168835064
 30
0.0
  0
SPLINE
  5
313
100
AcDbEntity
  8
0
100
AcDbSpline
 62
7
  6
CONTINUOUS
 70
0
 71
3
 72
9
 73
5
 74
0
 42
0.0000001
 43
0.0000001
 44
0.0000000001
 40
0.0
 40
0.0
 40
0.0
 40
0.0
 40
0.4976366142
 40
1.0
 40
1.0
 40
1.0
 40
1.0
 10
11.0753338292
 20
4.5168835064
 30
0.0
 10
11.1198324638
 20
4.5448496056
 30
0.0
 10
11.2446229913
 20
4.5448187664
 30
0.0
 10
11.3699200702
 20
4.4209911386
 30
0.0
 10
11.4152210919
 20
4.3481576714
 30
0.0
  0
SPLINE
  5
314
100
AcDbEntity
  8
0
100
AcDbSpline
 62
7
  6
CONTINUOUS
 70
0
 71
3
 72
8
 73
4
 74
0
 42
0.0000001
 43
0.0000001
 44
0.0000000001
 40
0.0
 40
0.0
 40
0.0
 40
0.0
 40
1.0
 40
1.0
 40
1.0
 40
1.0
 10
11.4152210919
 20
4.3481576714
 30
0.0
 10
11.4597947084
 20
4.2754326212
 30
0.0
 10
11.48950007
 20
4.1847331603
 30
0.0
 10
11.4952536763
 20
4.1078660118
 30
0.0
  0
SPLINE
  5
315
100
AcDbEntity
  8
0
100
AcDbSpline
 62
7
  6
CONTINUOUS
 70
0
 71
3
 72
8
 73
4
 74
0
 42
0.0000001
 43
0.0000001
 44
0.0000000001
 40
0.0
 40
0.0
 40
0.0
 40
0.0
 40
1.0
 40
1.0
 40
1.0
 40
1.0
 10
11.4952536763
 20
4.1078660118
 30
0.0
 10
11.5000843167
 20
4.038596477
 30
0.0
 10
11.5291576474
 20
3.9552718482
 30
0.0
 10
11.5713400092
 20
3.8913383848
 30
0.0
  0
SPLINE
  5
316
100
AcDbEntity
  8
0
100
AcDbSpline
 62
7
  6
CONTINUOUS
 70
0
 71
3
 72
9
 73
5
 74
0
 42
0.0000001
 43
0.0000001
 44
0.0000000001
 40
0.0
 40
0.0
 40
0.0
 40
0.0
 40
0.5020663194
 40
1.0
 40
1.0
 40
1.0
 40
1.0
 10
11.5713400092
 20
3.8913383848
 30
0.0
 10
11.613503747
 20
3.8269555901
 30
0.0
 10
11.7303111594
 20
3.7208959273
 30
0.0
 10
11.83880685
 20
3.7382554609
 30
0.0
 10
11.873672262
 20
3.7722405219
 30
0.0
  0
SPLINE
  5
317
100
AcDbEntity
  8
0
100
AcDbSpline
 62
7
  6
CONTINUOUS
 70
0
 71
3
 72
8
 73
4
 74
0
 42
0.0000001
 43
0.0000001
 44
0.0000000001
 40
0.0
 40
0.0
 40
0.0
 40
0.0
 40
1.0
 40
1.0
 40
1.0
 40
1.0
 10
11.873672262
 20
3.7722405219
 30
0.0
 10
11.9090744754
 20
3.8060805826
 30
0.0
 10
11.9289193452
 20
3.869926671
 30
0.0
 10
11.9240715888
 20
3.9394416506
 30
0.0
  0
SPLINE
  5
318
100
AcDbEntity
  8
0
100
AcDbSpline
 62
7
  6
CONTINUOUS
 70
0
 71
3
 72
8
 73
4
 74
0
 42
0.0000001
 43
0.0000001
 44
0.0000000001
 40
0.0
 40
0.0
 40
0.0
 40
0.0
 40
1.0
 40
1.0
 40
1.0
 40
1.0
 10
11.9240715888
 20
3.9394416506
 30
0.0
 10
11.909614147
 20
4.1479362893
 30
0.0
 10
11.8265695063
 20
4.3953335014
 30
0.0
 10
11.704721425
 20
4.592459832
 30
0.0
  0
SPLINE
  5
319
100
AcDbEntity
  8
0
100
AcDbSpline
 62
7
  6
CONTINUOUS
 70
0
 71
3
 72
9
 73
5
 74
0
 42
0.0000001
 43
0.0000001
 44
0.0000000001
 40
0.0
 40
0.0
 40
0.0
 40
0.0
 40
0.5009376417
 40
1.0
 40
1.0
 40
1.0
 40
1.0
 10
11.704721425
 20
4.592459832
 30
0.0
 10
11.5824566699
 20
4.7897159836
 30
0.0
 10
11.2427001561
 20
5.1255390961
 30
0.0
 10
10.9035630773
 20
5.126500232
 30
0.0
 10
10.7828640196
 20
5.0497576352
 30
0.0
  0
SPLINE
  5
31A
100
AcDbEntity
  8
0
100
AcDbSpline
 62
7
  6
CONTINUOUS
 70
0
 71
3
 72
8
 73
4
 74
0
 42
0.0000001
 43
0.0000001
 44
0.0000000001
 40
0.0
 40
0.0
 40
0.0
 40
0.0
 40
1.0
 40
1.0
 40
1.0
 40
1.0
 10
10.7828640196
 20
5.0497576352
 30
0.0
 10
10.6617297246
 20
4.9731553278
 30
0.0
 10
10.5800179912
 20
4.8073950005
 30
0.0
 10
10.5664775521
 20
4.612793126
 30
0.0
  0
SPLINE
  5
31B
100
AcDbEntity
  8
0
100
AcDbSpline
 62
7
  6
CONTINUOUS
 70
0
 71
3
 72
8
 73
4
 74
0
 42
0.0000001
 43
0.0000001
 44
0.0000000001
 40
0.0
 40
0.0
 40
0.0
 40
0.0
 40
1.0
 40
1.0
 40
1.0
 40
1.0
 10
10.5664775521
 20
4.612793126
 30
0.0
 10
10.5530098323
 20
4.4180581856
 30
0.0
 10
10.606595935
 20
4.1706399479
 30
0.0
 10
10.7087670181
 20
3.9607987723
 30
0.0
  0
SPLINE
  5
31C
100
AcDbEntity
  8
0
100
AcDbSpline
 62
7
  6
CONTINUOUS
 70
0
 71
3
 72
10
 73
6
 74
0
 42
0.0000001
 43
0.0000001
 44
0.0000000001
 40
0.0
 40
0.0
 40
0.0
 40
0.0
 40
0.3336683138
 40
0.6663292209
 40
1.0
 40
1.0
 40
1.0
 40
1.0
 10
10.7087670181
 20
3.9607987723
 30
0.0
 10
10.7425259713
 20
3.8909540979
 30
0.0
 10
10.8494324938
 20
3.7625918901
 30
0.0
 10
11.0244329271
 20
3.7347319615
 30
0.0
 10
11.084310076
 20
3.8364362052
 30
0.0
 10
11.0911291959
 20
3.8996984435
 30
0.0
  0
SPLINE
  5
31D
100
AcDbEntity
  8
0
100
AcDbSpline
 62
7
  6
CONTINUOUS
 70
0
 71
3
 72
29
 73
25
 74
0
 42
0.0000001
 43
0.0000001
 44
0.0000000001
 40
0.0
 40
0.0
 40
0.0
 40
0.0
 40
0.0625
 40
0.125
 40
0.15625
 40
0.1875
 40
0.25
 40
0.28125
 40
0.3125
 40
0.375
 40
0.4375
 40
0.5
 40
0.53125
 40
0.5625
 40
0.625
 40
0.6875
 40
0.71875
 40
0.75
 40
0.8125
 40
0.84375
 40
0.859375
 40
0.875
 40
0.9375
 40
1.0
 40
1.0
 40
1.0
 40
1.0
 10
11.5871509339
 20
2.3062001198
 30
0.0
 10
11.5963042834
 20
2.3021202693
 30
0.0
 10
11.6146009252
 20
2.2941747537
 30
0.0
 10
11.6375220136
 20
2.2831719322
 30
0.0
 10
11.6557532835
 20
2.2766186218
 30
0.0
 10
11.673859732
 20
2.2736729987
 30
0.0
 10
11.6918067175
 20
2.2703257718
 30
0.0
 10
11.7103257081
 20
2.2654775909
 30
0.0
 10
11.7267692954
 20
2.2671686974
 30
0.0
 10
11.7475134406
 20
2.2686948865
 30
0.0
 10
11.7726543654
 20
2.2697490831
 30
0.0
 10
11.7908281017
 20
2.2791724522
 30
0.0
 10
11.8057964532
 20
2.2852059136
 30
0.0
 10
11.8212689824
 20
2.2904244132
 30
0.0
 10
11.8362916079
 20
2.3049412935
 30
0.0
 10
11.8519773545
 20
2.3181212324
 30
0.0
 10
11.8647910097
 20
2.3284407763
 30
0.0
 10
11.8733405778
 20
2.3440641144
 30
0.0
 10
11.8831493807
 20
2.3581186051
 30
0.0
 10
11.8912248991
 20
2.371053894
 30
0.0
 10
11.8960793222
 20
2.3781368664
 30
0.0
 10
11.9002110156
 20
2.3928389615
 30
0.0
 10
11.9077422001
 20
2.4131656855
 30
0.0
 10
11.913894661
 20
2.4319354135
 30
0.0
 10
11.9170386321
 20
2.4412325863
 30
0.0
  0
SPLINE
  5
31E
100
AcDbEntity
  8
0
100
AcDbSpline
 62
7
  6
CONTINUOUS
 70
0
 71
3
 72
8
 73
4
 74
0
 42
0.0000001
 43
0.0000001
 44
0.0000000001
 40
0.0
 40
0.0
 40
0.0
 40
0.0
 40
1.0
 40
1.0
 40
1.0
 40
1.0
 10
11.5871509468
 20
2.3062004084
 30
0.0
 10
11.5323366316
 20
2.3363828596
 30
0.0
 10
11.4733647572
 20
2.3399252822
 30
0.0
 10
11.4320222165
 20
2.3164286063
 30
0.0
  0
SPLINE
  5
31F
100
AcDbEntity
  8
0
100
AcDbSpline
 62
7
  6
CONTINUOUS
 70
0
 71
3
 72
10
 73
6
 74
0
 42
0.0000001
 43
0.0000001
 44
0.0000000001
 40
0.0
 40
0.0
 40
0.0
 40
0.0
 40
0.3333803836
 40
0.6666617632
 40
1.0
 40
1.0
 40
1.0
 40
1.0
 10
11.4320222165
 20
2.3164286063
 30
0.0
 10
11.3916593861
 20
2.2912031481
 30
0.0
 10
11.3386888986
 20
2.1820848776
 30
0.0
 10
11.3982998014
 20
1.9423529521
 30
0.0
 10
11.5096997735
 20
1.8219985508
 30
0.0
 10
11.5644180991
 20
1.7910007873
 30
0.0
  0
SPLINE
  5
320
100
AcDbEntity
  8
0
100
AcDbSpline
 62
7
  6
CONTINUOUS
 70
0
 71
3
 72
8
 73
4
 74
0
 42
0.0000001
 43
0.0000001
 44
0.0000000001
 40
0.0
 40
0.0
 40
0.0
 40
0.0
 40
1.0
 40
1.0
 40
1.0
 40
1.0
 10
11.5644180991
 20
1.7910007873
 30
0.0
 10
11.7344981466
 20
1.69530351
 30
0.0
 10
11.9169174914
 20
1.671082854
 30
0.0
 10
12.0535068547
 20
1.727365175
 30
0.0
  0
SPLINE
  5
321
100
AcDbEntity
  8
0
100
AcDbSpline
 62
7
  6
CONTINUOUS
 70
0
 71
3
 72
9
 73
5
 74
0
 42
0.0000001
 43
0.0000001
 44
0.0000000001
 40
0.0
 40
0.0
 40
0.0
 40
0.0
 40
0.499683514
 40
1.0
 40
1.0
 40
1.0
 40
1.0
 10
12.0535068547
 20
1.727365175
 30
0.0
 10
12.1896217965
 20
1.7837824529
 30
0.0
 10
12.397424908
 20
2.056969564
 30
0.0
 10
12.356059082
 20
2.5304562318
 30
0.0
 10
12.2817487263
 20
2.7549922172
 30
0.0
  0
SPLINE
  5
322
100
AcDbEntity
  8
0
100
AcDbSpline
 62
7
  6
CONTINUOUS
 70
0
 71
3
 72
8
 73
4
 74
0
 42
0.0000001
 43
0.0000001
 44
0.0000000001
 40
0.0
 40
0.0
 40
0.0
 40
0.0
 40
1.0
 40
1.0
 40
1.0
 40
1.0
 10
12.2817487263
 20
2.7549922172
 30
0.0
 10
12.2081528995
 20
2.97917984
 30
0.0
 10
12.0724410609
 20
3.2097376891
 30
0.0
 10
11.9181432508
 20
3.373648916
 30
0.0
  0
SPLINE
  5
323
100
AcDbEntity
  8
0
100
AcDbSpline
 62
7
  6
CONTINUOUS
 70
0
 71
3
 72
8
 73
4
 74
0
 42
0.0000001
 43
0.0000001
 44
0.0000000001
 40
0.0
 40
0.0
 40
0.0
 40
0.0
 40
1.0
 40
1.0
 40
1.0
 40
1.0
 10
11.9181432508
 20
3.373648916
 30
0.0
 10
11.7632919588
 20
3.5376038987
 30
0.0
 10
11.5737123258
 20
3.6517963294
 30
0.0
 10
11.4092924354
 20
3.6801095256
 30
0.0
  0
SPLINE
  5
324
100
AcDbEntity
  8
0
100
AcDbSpline
 62
7
  6
CONTINUOUS
 70
0
 71
3
 72
8
 73
4
 74
0
 42
0.0000001
 43
0.0000001
 44
0.0000000001
 40
0.0
 40
0.0
 40
0.0
 40
0.0
 40
1.0
 40
1.0
 40
1.0
 40
1.0
 10
11.4092924354
 20
3.6801095256
 30
0.0
 10
11.3562640238
 20
3.6895015148
 30
0.0
 10
11.3058689812
 20
3.6674545045
 30
0.0
 10
11.2788751873
 20
3.6224860989
 30
0.0
  0
SPLINE
  5
325
100
AcDbEntity
  8
0
100
AcDbSpline
 62
7
  6
CONTINUOUS
 70
0
 71
3
 72
9
 73
5
 74
0
 42
0.0000001
 43
0.0000001
 44
0.0000000001
 40
0.0
 40
0.0
 40
0.0
 40
0.0
 40
0.4992436448
 40
1.0
 40
1.0
 40
1.0
 40
1.0
 10
11.2788751873
 20
3.6224860989
 30
0.0
 10
11.2510257989
 20
3.5786085176
 30
0.0
 10
11.2337202204
 20
3.4374471077
 30
0.0
 10
11.3101565799
 20
3.2807721976
 30
0.0
 10
11.3579132027
 20
3.2235654935
 30
0.0
  0
SPLINE
  5
326
100
AcDbEntity
  8
0
100
AcDbSpline
 62
7
  6
CONTINUOUS
 70
0
 71
3
 72
8
 73
4
 74
0
 42
0.0000001
 43
0.0000001
 44
0.0000000001
 40
0.0
 40
0.0
 40
0.0
 40
0.0
 40
1.0
 40
1.0
 40
1.0
 40
1.0
 10
11.3579132027
 20
3.2235654935
 30
0.0
 10
11.4053044724
 20
3.1661111666
 30
0.0
 10
11.4679303469
 20
3.1248174911
 30
0.0
 10
11.5209432368
 20
3.1154282372
 30
0.0
  0
SPLINE
  5
327
100
AcDbEntity
  8
0
100
AcDbSpline
 62
7
  6
CONTINUOUS
 70
0
 71
3
 72
8
 73
4
 74
0
 42
0.0000001
 43
0.0000001
 44
0.0000000001
 40
0.0
 40
0.0
 40
0.0
 40
0.0
 40
1.0
 40
1.0
 40
1.0
 40
1.0
 10
11.5209432368
 20
3.1154282372
 30
0.0
 10
11.5915068067
 20
3.1032318774
 30
0.0
 10
11.6728625127
 20
3.0542304052
 30
0.0
 10
11.7392900558
 20
2.9838301409
 30
0.0
  0
SPLINE
  5
328
100
AcDbEntity
  8
0
100
AcDbSpline
 62
7
  6
CONTINUOUS
 70
0
 71
3
 72
8
 73
4
 74
0
 42
0.0000001
 43
0.0000001
 44
0.0000000001
 40
0.0
 40
0.0
 40
0.0
 40
0.0
 40
1.0
 40
1.0
 40
1.0
 40
1.0
 10
11.7392900558
 20
2.9838301409
 30
0.0
 10
11.8632374818
 20
2.8504760604
 30
0.0
 10
11.9485957177
 20
2.58868957
 30
0.0
 10
11.917038402
 20
2.441232793
 30
0.0
  0
SPLINE
  5
329
100
AcDbEntity
  8
0
100
AcDbSpline
 62
7
  6
CONTINUOUS
 70
0
 71
3
 72
37
 73
33
 74
0
 42
0.0000001
 43
0.0000001
 44
0.0000000001
 40
0.0
 40
0.0
 40
0.0
 40
0.0
 40
0.0625
 40
0.09375
 40
0.125
 40
0.15625
 40
0.1875
 40
0.21875
 40
0.25
 40
0.28125
 40
0.3125
 40
0.34375
 40
0.375
 40
0.40625
 40
0.4375
 40
0.46875
 40
0.5
 40
0.53125
 40
0.5625
 40
0.59375
 40
0.625
 40
0.65625
 40
0.6875
 40
0.71875
 40
0.75
 40
0.78125
 40
0.8125
 40
0.84375
 40
0.875
 40
0.90625
 40
0.9375
 40
1.0
 40
1.0
 40
1.0
 40
1.0
 10
-5.8513086143
 20
7.0715805206
 30
0.0
 10
-5.8421523192
 20
7.0681019277
 30
0.0
 10
-5.8283938221
 20
7.0627240051
 30
0.0
 10
-5.8101453769
 20
7.0561935744
 30
0.0
 10
-5.7962184991
 20
7.0496954193
 30
0.0
 10
-5.783205688
 20
7.0492785262
 30
0.0
 10
-5.7699159981
 20
7.0471213871
 30
0.0
 10
-5.7568197564
 20
7.0458439698
 30
0.0
 10
-5.7432266009
 20
7.0427879117
 30
0.0
 10
-5.7314276527
 20
7.0459666947
 30
0.0
 10
-5.719106919
 20
7.0473624188
 30
0.0
 10
-5.7070791202
 20
7.0496555374
 30
0.0
 10
-5.6944013672
 20
7.050142137
 30
0.0
 10
-5.6840304959
 20
7.056957418
 30
0.0
 10
-5.6729758843
 20
7.0619768801
 30
0.0
 10
-5.6623493521
 20
7.0678509366
 30
0.0
 10
-5.6506942427
 20
7.0721024345
 30
0.0
 10
-5.6427253629
 20
7.0819895726
 30
0.0
 10
-5.6336991398
 20
7.0902748769
 30
0.0
 10
-5.6252160599
 20
7.0993318758
 30
0.0
 10
-5.6156177505
 20
7.1069039302
 30
0.0
 10
-5.6099372161
 20
7.1196440681
 30
0.0
 10
-5.6031295919
 20
7.1309214006
 30
0.0
 10
-5.5969125521
 20
7.1428818711
 30
0.0
 10
-5.5894602647
 20
7.1535725949
 30
0.0
 10
-5.5863583832
 20
7.1686591677
 30
0.0
 10
-5.5820092824
 20
7.1824976361
 30
0.0
 10
-5.578298653
 20
7.196932673
 30
0.0
 10
-5.5732813577
 20
7.2102295402
 30
0.0
 10
-5.5728522542
 20
7.2274825178
 30
0.0
 10
-5.5706702243
 20
7.2490983791
 30
0.0
 10
-5.5693959276
 20
7.2656225995
 30
0.0
 10
-5.5684659018
 20
7.2765693411
 30
0.0
  0
SPLINE
  5
32A
100
AcDbEntity
  8
0
100
AcDbSpline
 62
7
  6
CONTINUOUS
 70
0
 71
3
 72
110
 73
106
 74
0
 42
0.0000001
 43
0.0000001
 44
0.0000000001
 40
0.0
 40
0.0
 40
0.0
 40
0.0
 40
0.03125
 40
0.046875
 40
0.0625
 40
0.06640625
 40
0.0703125
 40
0.078125
 40
0.0859375
 40
0.09375
 40
0.109375
 40
0.125
 40
0.1328125
 40
0.140625
 40
0.15625
 40
0.171875
 40
0.1875
 40
0.203125
 40
0.2109375
 40
0.21484375
 40
0.21875
 40
0.2265625
 40
0.234375
 40
0.25
 40
0.265625
 40
0.2734375
 40
0.28125
 40
0.28515625
 40
0.2890625
 40
0.296875
 40
0.3125
 40
0.328125
 40
0.34375
 40
0.359375
 40
0.3671875
 40
0.375
 40
0.390625
 40
0.40625
 40
0.4140625
 40
0.421875
 40
0.4296875
 40
0.43359375
 40
0.4375
 40
0.453125
 40
0.46875
 40
0.484375
 40
0.4921875
 40
0.49609375
 40
0.5
 40
0.50390625
 40
0.5078125
 40
0.515625
 40
0.53125
 40
0.546875
 40
0.5625
 40
0.56640625
 40
0.5703125
 40
0.578125
 40
0.5859375
 40
0.59375
 40
0.609375
 40
0.625
 40
0.6328125
 40
0.63671875
 40
0.640625
 40
0.642578125
 40
0.64453125
 40
0.6484375
 40
0.65625
 40
0.671875
 40
0.6875
 40
0.703125
 40
0.7109375
 40
0.71484375
 40
0.71875
 40
0.7265625
 40
0.734375
 40
0.75
 40
0.765625
 40
0.7734375
 40
0.78125
 40
0.78515625
 40
0.7890625
 40
0.796875
 40
0.8125
 40
0.828125
 40
0.84375
 40
0.8515625
 40
0.85546875
 40
0.857421875
 40
0.859375
 40
0.86328125
 40
0.8671875
 40
0.875
 40
0.890625
 40
0.90625
 40
0.9140625
 40
0.921875
 40
0.9296875
 40
0.93359375
 40
0.9375
 40
0.9453125
 40
0.953125
 40
0.96875
 40
1.0
 40
1.0
 40
1.0
 40
1.0
 10
-5.5684659018
 20
14.2598768866
 30
0.0
 10
-5.574060588
 20
14.3313230495
 30
0.0
 10
-5.582404001
 20
14.4384748012
 30
0.0
 10
-5.5937230165
 20
14.581413774
 30
0.0
 10
-5.5997253411
 20
14.6616857515
 30
0.0
 10
-5.6043042084
 20
14.7154081281
 30
0.0
 10
-5.6059793271
 20
14.7507274216
 30
0.0
 10
-5.618115513
 20
14.7984898576
 30
0.0
 10
-5.6303353903
 20
14.8549606296
 30
0.0
 10
-5.6474357569
 20
14.930550128
 30
0.0
 10
-5.6686161029
 20
15.0249338609
 30
0.0
 10
-5.6895679014
 20
15.1193612346
 30
0.0
 10
-5.7070339441
 20
15.1948809076
 30
0.0
 10
-5.7218644092
 20
15.2704545719
 30
0.0
 10
-5.7592885678
 20
15.3645445004
 30
0.0
 10
-5.7997566835
 20
15.4775469953
 30
0.0
 10
-5.841480396
 20
15.5905021503
 30
0.0
 10
-5.8757655625
 20
15.6847104287
 30
0.0
 10
-5.9002335026
 20
15.7505110714
 30
0.0
 10
-5.9135577205
 20
15.7883365762
 30
0.0
 10
-5.9334199226
 20
15.8239073986
 30
0.0
 10
-5.9560082502
 20
15.8691435525
 30
0.0
 10
-5.993405926
 20
15.9410859581
 30
0.0
 10
-6.0396880832
 20
16.0311892665
 30
0.0
 10
-6.0862595512
 20
16.1211356701
 30
0.0
 10
-6.1231943297
 20
16.1933291232
 30
0.0
 10
-6.1469399005
 20
16.2379376583
 30
0.0
 10
-6.164429754
 20
16.2747950993
 30
0.0
 10
-6.187416953
 20
16.3073799869
 30
0.0
 10
-6.2266793736
 20
16.3651569972
 30
0.0
 10
-6.2833122603
 20
16.4472452215
 30
0.0
 10
-6.350868016
 20
16.5461906402
 30
0.0
 10
-6.4191686622
 20
16.6440984395
 30
0.0
 10
-6.4739393224
 20
16.7287807123
 30
0.0
 10
-6.5265033914
 20
16.7838898704
 30
0.0
 10
-6.577540759
 20
16.8412028066
 30
0.0
 10
-6.6418533021
 20
16.9121114668
 30
0.0
 10
-6.7060108877
 20
16.9831954445
 30
0.0
 10
-6.7572961873
 20
17.0402278726
 30
0.0
 10
-6.7959754431
 20
17.0824012652
 30
0.0
 10
-6.8275075397
 20
17.1194800015
 30
0.0
 10
-6.8556171217
 20
17.1411876136
 30
0.0
 10
-6.8970395912
 20
17.1757962893
 30
0.0
 10
-6.9594872031
 20
17.2268331021
 30
0.0
 10
-7.042560319
 20
17.2954607418
 30
0.0
 10
-7.111864413
 20
17.3522796119
 30
0.0
 10
-7.1602999196
 20
17.3925784451
 30
0.0
 10
-7.1880870185
 20
17.4148165288
 30
0.0
 10
-7.2086204455
 20
17.4337143762
 30
0.0
 10
-7.2303266279
 20
17.4441299953
 30
0.0
 10
-7.2588591498
 20
17.4609766321
 30
0.0
 10
-7.3089814924
 20
17.4890750272
 30
0.0
 10
-7.3804865433
 20
17.5299749637
 30
0.0
 10
-7.4663291569
 20
17.5785715457
 30
0.0
 10
-7.5307194144
 20
17.6155577613
 30
0.0
 10
-7.5736210011
 20
17.6394683175
 30
0.0
 10
-7.602285709
 20
17.6571610197
 30
0.0
 10
-7.637651844
 20
17.6665078732
 30
0.0
 10
-7.6801996476
 20
17.6807064676
 30
0.0
 10
-7.7368927449
 20
17.6985991042
 30
0.0
 10
-7.8077678187
 20
17.7213001446
 30
0.0
 10
-7.8786547184
 20
17.7439587344
 30
0.0
 10
-7.9282446223
 20
17.7596742223
 30
0.0
 10
-7.9566311782
 20
17.7689167076
 30
0.0
 10
-7.9742564691
 20
17.7740723935
 30
0.0
 10
-7.9886234704
 20
17.7796214724
 30
0.0
 10
-8.0020164428
 20
17.7799691244
 30
0.0
 10
-8.0256240063
 20
17.7814843937
 30
0.0
 10
-8.0727175769
 20
17.7838681591
 30
0.0
 10
-8.1400653786
 20
17.7876351474
 30
0.0
 10
-8.2208184768
 20
17.7918981478
 30
0.0
 10
-8.2882319084
 20
17.7958264543
 30
0.0
 10
-8.3351991415
 20
17.7978996822
 30
0.0
 10
-8.3623826666
 20
17.8001315049
 30
0.0
 10
-8.3861096532
 20
17.7918779437
 30
0.0
 10
-8.4169526128
 20
17.7851526907
 30
0.0
 10
-8.4656353771
 20
17.7723761833
 30
0.0
 10
-8.5267467092
 20
17.7571595249
 30
0.0
 10
-8.5876589983
 20
17.7414470913
 30
0.0
 10
-8.6366602315
 20
17.7294638242
 30
0.0
 10
-8.666707019
 20
17.7207554704
 30
0.0
 10
-8.6920661583
 20
17.7165672658
 30
0.0
 10
-8.712601647
 20
17.7022401967
 30
0.0
 10
-8.7493818647
 20
17.678939664
 30
0.0
 10
-8.8014793712
 20
17.6447191504
 30
0.0
 10
-8.8642084407
 20
17.6040880015
 30
0.0
 10
-8.9163700085
 20
17.5700292037
 30
0.0
 10
-8.9530269083
 20
17.5464173681
 30
0.0
 10
-8.971169227
 20
17.5343198367
 30
0.0
 10
-8.9818348051
 20
17.5278741102
 30
0.0
 10
-8.9895037187
 20
17.5167396308
 30
0.0
 10
-9.000115735
 20
17.5044266861
 30
0.0
 10
-9.016522695
 20
17.4838304912
 30
0.0
 10
-9.0454987721
 20
17.4482008601
 30
0.0
 10
-9.0867771909
 20
17.3971133645
 30
0.0
 10
-9.1280168572
 20
17.3459899401
 30
0.0
 10
-9.1611943777
 20
17.3053278477
 30
0.0
 10
-9.1855434073
 20
17.2741428945
 30
0.0
 10
-9.2075372231
 20
17.2503514437
 30
0.0
 10
-9.218138142
 20
17.222298807
 30
0.0
 10
-9.229960507
 20
17.1958213195
 30
0.0
 10
-9.2443202848
 20
17.1621851866
 30
0.0
 10
-9.2675293796
 20
17.1086684263
 30
0.0
 10
-9.3080358656
 20
17.0148729774
 30
0.0
 10
-9.3427932296
 20
16.9345252618
 30
0.0
 10
-9.3659564681
 20
16.8809493662
 30
0.0
  0
SPLINE
  5
32B
100
AcDbEntity
  8
0
100
AcDbSpline
 62
7
  6
CONTINUOUS
 70
0
 71
3
 72
33
 73
29
 74
0
 42
0.0000001
 43
0.0000001
 44
0.0000000001
 40
0.0
 40
0.0
 40
0.0
 40
0.0
 40
0.0625
 40
0.125
 40
0.15625
 40
0.1875
 40
0.21875
 40
0.25
 40
0.28125
 40
0.3125
 40
0.34375
 40
0.375
 40
0.40625
 40
0.4375
 40
0.5
 40
0.5625
 40
0.59375
 40
0.625
 40
0.65625
 40
0.6875
 40
0.71875
 40
0.75
 40
0.78125
 40
0.8125
 40
0.84375
 40
0.875
 40
0.9375
 40
1.0
 40
1.0
 40
1.0
 40
1.0
 10
-9.3659567073
 20
16.8809498299
 30
0.0
 10
-9.3695107036
 20
16.8618109372
 30
0.0
 10
-9.376470457
 20
16.8234185381
 30
0.0
 10
-9.3859113453
 20
16.7760011078
 30
0.0
 10
-9.3847102944
 20
16.7316474222
 30
0.0
 10
-9.3844357025
 20
16.699040501
 30
0.0
 10
-9.3860332062
 20
16.6670100784
 30
0.0
 10
-9.3795161311
 20
16.6320153181
 30
0.0
 10
-9.3740893017
 20
16.5974422346
 30
0.0
 10
-9.3687290714
 20
16.5627893847
 30
0.0
 10
-9.3620121988
 20
16.5280339239
 30
0.0
 10
-9.3500835761
 20
16.4927258063
 30
0.0
 10
-9.3392151549
 20
16.4576451943
 30
0.0
 10
-9.3260185188
 20
16.4103945572
 30
0.0
 10
-9.2971627787
 20
16.3543361552
 30
0.0
 10
-9.273371174
 20
16.2958850583
 30
0.0
 10
-9.2463553119
 20
16.2551456501
 30
0.0
 10
-9.2269242378
 20
16.2240068765
 30
0.0
 10
-9.2081611629
 20
16.1921942382
 30
0.0
 10
-9.1858952689
 20
16.1636612761
 30
0.0
 10
-9.1626869072
 20
16.135954648
 30
0.0
 10
-9.1396083632
 20
16.1082985949
 30
0.0
 10
-9.1169530163
 20
16.0796139077
 30
0.0
 10
-9.090963461
 20
16.0583846454
 30
0.0
 10
-9.0657947255
 20
16.0354940232
 30
0.0
 10
-9.0323043171
 20
16.0038932131
 30
0.0
 10
-8.9878799652
 20
15.9766454535
 30
0.0
 10
-8.9524679463
 20
15.9541703525
 30
0.0
 10
-8.934746004
 20
15.9430174137
 30
0.0
  0
SPLINE
  5
32C
100
AcDbEntity
  8
0
100
AcDbSpline
 62
7
  6
CONTINUOUS
 70
0
 71
3
 72
29
 73
25
 74
0
 42
0.0000001
 43
0.0000001
 44
0.0000000001
 40
0.0
 40
0.0
 40
0.0
 40
0.0
 40
0.0625
 40
0.125
 40
0.15625
 40
0.1875
 40
0.25
 40
0.3125
 40
0.34375
 40
0.375
 40
0.4375
 40
0.46875
 40
0.5
 40
0.53125
 40
0.5625
 40
0.625
 40
0.65625
 40
0.6875
 40
0.75
 40
0.8125
 40
0.84375
 40
0.875
 40
0.9375
 40
1.0
 40
1.0
 40
1.0
 40
1.0
 10
-8.8640353434
 20
15.9076616074
 30
0.0
 10
-8.8524678421
 20
15.9033418983
 30
0.0
 10
-8.8293168967
 20
15.8945391349
 30
0.0
 10
-8.8004579284
 20
15.8843524074
 30
0.0
 10
-8.7772033555
 20
15.8744878991
 30
0.0
 10
-8.7545546048
 20
15.8708305145
 30
0.0
 10
-8.7265308007
 20
15.8686111543
 30
0.0
 10
-8.6981416994
 20
15.8648107041
 30
0.0
 10
-8.6760774243
 20
15.8636830635
 30
0.0
 10
-8.6563493335
 20
15.86900225
 30
0.0
 10
-8.6358530429
 20
15.8722262548
 30
0.0
 10
-8.6159092134
 20
15.8769006844
 30
0.0
 10
-8.6000621576
 20
15.8781504139
 30
0.0
 10
-8.5874956059
 20
15.8876993016
 30
0.0
 10
-8.5695296652
 20
15.8974365074
 30
0.0
 10
-8.5522659469
 20
15.9085432635
 30
0.0
 10
-8.533803465
 20
15.9177873519
 30
0.0
 10
-8.5191997412
 20
15.9326560443
 30
0.0
 10
-8.5023902221
 20
15.9533288479
 30
0.0
 10
-8.4846058349
 20
15.9726041883
 30
0.0
 10
-8.4715619
 20
15.9897088217
 30
0.0
 10
-8.4624389922
 20
16.0123846076
 30
0.0
 10
-8.4496810553
 20
16.0388050933
 30
0.0
 10
-8.4398874455
 20
16.0605279189
 30
0.0
 10
-8.4349390482
 20
16.0713160271
 30
0.0
  0
SPLINE
  5
32D
100
AcDbEntity
  8
0
100
AcDbSpline
 62
7
  6
CONTINUOUS
 70
0
 71
3
 72
105
 73
101
 74
0
 42
0.0000001
 43
0.0000001
 44
0.0000000001
 40
0.0
 40
0.0
 40
0.0
 40
0.0
 40
0.03125
 40
0.046875
 40
0.0546875
 40
0.05859375
 40
0.0625
 40
0.06640625
 40
0.0703125
 40
0.078125
 40
0.09375
 40
0.109375
 40
0.1171875
 40
0.12109375
 40
0.125
 40
0.12890625
 40
0.1328125
 40
0.140625
 40
0.15625
 40
0.171875
 40
0.1796875
 40
0.1875
 40
0.1953125
 40
0.203125
 40
0.21875
 40
0.234375
 40
0.2421875
 40
0.25
 40
0.2578125
 40
0.265625
 40
0.28125
 40
0.296875
 40
0.3046875
 40
0.3125
 40
0.3203125
 40
0.328125
 40
0.34375
 40
0.359375
 40
0.3671875
 40
0.375
 40
0.3828125
 40
0.390625
 40
0.40625
 40
0.421875
 40
0.4296875
 40
0.4375
 40
0.4453125
 40
0.453125
 40
0.46875
 40
0.484375
 40
0.4921875
 40
0.5
 40
0.5078125
 40
0.515625
 40
0.53125
 40
0.546875
 40
0.5546875
 40
0.5625
 40
0.5703125
 40
0.578125
 40
0.59375
 40
0.609375
 40
0.6171875
 40
0.625
 40
0.6328125
 40
0.640625
 40
0.65625
 40
0.671875
 40
0.6796875
 40
0.6875
 40
0.6953125
 40
0.703125
 40
0.71875
 40
0.734375
 40
0.7421875
 40
0.75
 40
0.7578125
 40
0.765625
 40
0.78125
 40
0.796875
 40
0.8046875
 40
0.8125
 40
0.8203125
 40
0.828125
 40
0.84375
 40
0.859375
 40
0.8671875
 40
0.875
 40
0.8828125
 40
0.890625
 40
0.90625
 40
0.921875
 40
0.9296875
 40
0.93359375
 40
0.9375
 40
0.94140625
 40
0.9453125
 40
0.953125
 40
0.96875
 40
1.0
 40
1.0
 40
1.0
 40
1.0
 10
-6.9553370592
 20
13.9778786081
 30
0.0
 10
-6.9313245739
 20
13.9910790847
 30
0.0
 10
-6.8952702651
 20
14.0108121524
 30
0.0
 10
-6.8533314379
 20
14.0340708296
 30
0.0
 10
-6.8322063579
 20
14.0454042121
 30
0.0
 10
-6.8203839499
 20
14.0523539605
 30
0.0
 10
-6.810814421
 20
14.0562302412
 30
0.0
 10
-6.8039312508
 20
14.0652138795
 30
0.0
 10
-6.7938163167
 20
14.0754101194
 30
0.0
 10
-6.776555352
 20
14.0940882054
 30
0.0
 10
-6.7516390964
 20
14.1202991961
 30
0.0
 10
-6.7269153604
 20
14.1468083035
 30
0.0
 10
-6.7093848684
 20
14.1650690261
 30
0.0
 10
-6.6996934773
 20
14.1759211228
 30
0.0
 10
-6.6915107999
 20
14.1828924733
 30
0.0
 10
-6.6868216424
 20
14.1943260129
 30
0.0
 10
-6.6793518901
 20
14.2080152737
 30
0.0
 10
-6.6668366981
 20
14.2326861343
 30
0.0
 10
-6.6487504255
 20
14.267637584
 30
0.0
 10
-6.6304331471
 20
14.3023983349
 30
0.0
 10
-6.6164996798
 20
14.3308987224
 30
0.0
 10
-6.6040271164
 20
14.3503130718
 30
0.0
 10
-6.5992842273
 20
14.3772252926
 30
0.0
 10
-6.5902475416
 20
14.4104800495
 30
0.0
 10
-6.57997375
 20
14.453015348
 30
0.0
 10
-6.5690027385
 20
14.4949684922
 30
0.0
 10
-6.5610816047
 20
14.5291546962
 30
0.0
 10
-6.5529920598
 20
14.5532725757
 30
0.0
 10
-6.5530694556
 20
14.5831657047
 30
0.0
 10
-6.550306886
 20
14.6209997884
 30
0.0
 10
-6.5479295519
 20
14.6690299319
 30
0.0
 10
-6.5448309113
 20
14.7166391971
 30
0.0
 10
-6.5432224321
 20
14.7551466861
 30
0.0
 10
-6.5398375566
 20
14.7830195994
 30
0.0
 10
-6.5447315291
 20
14.8147132881
 30
0.0
 10
-6.5483522944
 20
14.8556341284
 30
0.0
 10
-6.553965116
 20
14.907263825
 30
0.0
 10
-6.5588611421
 20
14.9586507008
 30
0.0
 10
-6.5636287803
 20
14.9999600545
 30
0.0
 10
-6.5650821341
 20
15.0304882029
 30
0.0
 10
-6.5745995785
 20
15.0627318925
 30
0.0
 10
-6.5844608119
 20
15.1051248493
 30
0.0
 10
-6.5978423204
 20
15.1583169125
 30
0.0
 10
-6.6105398275
 20
15.2114537934
 30
0.0
 10
-6.6214954633
 20
15.2539350419
 30
0.0
 10
-6.6277297006
 20
15.2859138563
 30
0.0
 10
-6.6414950808
 20
15.3174352866
 30
0.0
 10
-6.6572076813
 20
15.3596276333
 30
0.0
 10
-6.6778298738
 20
15.4122832293
 30
0.0
 10
-6.6978278481
 20
15.4650734588
 30
0.0
 10
-6.7145391978
 20
15.5070503918
 30
0.0
 10
-6.7253083302
 20
15.5392180634
 30
0.0
 10
-6.7427784968
 20
15.5687734727
 30
0.0
 10
-6.7637224818
 20
15.6091003986
 30
0.0
 10
-6.7907716552
 20
15.6591418611
 30
0.0
 10
-6.8172810236
 20
15.7095024609
 30
0.0
 10
-6.8390886965
 20
15.7493187672
 30
0.0
 10
-6.8539677994
 20
15.7804060352
 30
0.0
 10
-6.8744534206
 20
15.8068292366
 30
0.0
 10
-6.8998023899
 20
15.8436995358
 30
0.0
 10
-6.9322112471
 20
15.8891523464
 30
0.0
 10
-6.9641860123
 20
15.9350962054
 30
0.0
 10
-6.990229529
 20
15.9711808271
 30
0.0
 10
-7.0086315079
 20
15.999961061
 30
0.0
 10
-7.0313242691
 20
16.022209457
 30
0.0
 10
-7.0600780119
 20
16.0541683141
 30
0.0
 10
-7.0965677757
 20
16.0932390116
 30
0.0
 10
-7.1327462885
 20
16.1329532932
 30
0.0
 10
-7.161998033
 20
16.1638824158
 30
0.0
 10
-7.183196789
 20
16.1892200152
 30
0.0
 10
-7.2072012872
 20
16.2064157363
 30
0.0
 10
-7.2382252486
 20
16.23220213
 30
0.0
 10
-7.2773561163
 20
16.2633490761
 30
0.0
 10
-7.3163108655
 20
16.2952667494
 30
0.0
 10
-7.3476166166
 20
16.3198199796
 30
0.0
 10
-7.3707757458
 20
16.3407151915
 30
0.0
 10
-7.3951446356
 20
16.3521797004
 30
0.0
 10
-7.4272156003
 20
16.3707763323
 30
0.0
 10
-7.4674365675
 20
16.392769229
 30
0.0
 10
-7.5076545997
 20
16.4156354237
 30
0.0
 10
-7.5397302604
 20
16.4328347788
 30
0.0
 10
-7.5640850622
 20
16.4484911184
 30
0.0
 10
-7.5872970216
 20
16.453666965
 30
0.0
 10
-7.6186475367
 20
16.4642455282
 30
0.0
 10
-7.6576835173
 20
16.4760892071
 30
0.0
 10
-7.696826606
 20
16.4888541932
 30
0.0
 10
-7.7280057481
 20
16.4979586647
 30
0.0
 10
-7.7517318267
 20
16.507556786
 30
0.0
 10
-7.7741586813
 20
16.5066295957
 30
0.0
 10
-7.8045133648
 20
16.509064388
 30
0.0
 10
-7.8423131981
 20
16.5108883126
 30
0.0
 10
-7.8801218528
 20
16.5130016925
 30
0.0
 10
-7.9066698509
 20
16.5147268983
 30
0.0
 10
-7.9216970208
 20
16.5152044539
 30
0.0
 10
-7.9333733309
 20
16.5170172096
 30
0.0
 10
-7.9434974677
 20
16.5132657472
 30
0.0
 10
-7.9575376929
 20
16.510204518
 30
0.0
 10
-7.9818562443
 20
16.5039445632
 30
0.0
 10
-8.0306732348
 20
16.4920695135
 30
0.0
 10
-8.0724546937
 20
16.4816698046
 30
0.0
 10
-8.1003227054
 20
16.4747857976
 30
0.0
  0
SPLINE
  5
32E
100
AcDbEntity
  8
0
100
AcDbSpline
 62
7
  6
CONTINUOUS
 70
0
 71
3
 72
21
 73
17
 74
0
 42
0.0000001
 43
0.0000001
 44
0.0000000001
 40
0.0
 40
0.0
 40
0.0
 40
0.0
 40
0.125
 40
0.1875
 40
0.25
 40
0.3125
 40
0.375
 40
0.4375
 40
0.5
 40
0.5625
 40
0.625
 40
0.6875
 40
0.75
 40
0.8125
 40
0.875
 40
1.0
 40
1.0
 40
1.0
 40
1.0
 10
-9.3369427018
 20
13.126275696
 30
0.0
 10
-9.3455044916
 20
13.1219125821
 30
0.0
 10
-9.3584884953
 20
13.1156860698
 30
0.0
 10
-9.3752352241
 20
13.1061114192
 30
0.0
 10
-9.3860245796
 20
13.0951929889
 30
0.0
 10
-9.397811575
 20
13.0860225889
 30
0.0
 10
-9.4073787019
 20
13.0735975099
 30
0.0
 10
-9.4160874742
 20
13.0600650426
 30
0.0
 10
-9.4260794391
 20
13.0480277706
 30
0.0
 10
-9.4317969883
 20
13.0311171058
 30
0.0
 10
-9.4388193003
 20
13.0156596847
 30
0.0
 10
-9.4448969767
 20
12.9992626816
 30
0.0
 10
-9.4482698212
 20
12.9804715999
 30
0.0
 10
-9.4530494065
 20
12.962798089
 30
0.0
 10
-9.4555260119
 20
12.936465135
 30
0.0
 10
-9.4566438791
 20
12.9162096131
 30
0.0
 10
-9.4575534765
 20
12.9028183332
 30
0.0
  0
SPLINE
  5
32F
100
AcDbEntity
  8
0
100
AcDbSpline
 62
7
  6
CONTINUOUS
 70
0
 71
3
 72
23
 73
19
 74
0
 42
0.0000001
 43
0.0000001
 44
0.0000000001
 40
0.0
 40
0.0
 40
0.0
 40
0.0
 40
0.0625
 40
0.125
 40
0.1875
 40
0.25
 40
0.3125
 40
0.375
 40
0.4375
 40
0.5
 40
0.5625
 40
0.625
 40
0.6875
 40
0.75
 40
0.8125
 40
0.875
 40
0.9375
 40
1.0
 40
1.0
 40
1.0
 40
1.0
 10
-9.4575531984
 20
9.2211129742
 30
0.0
 10
-9.4566554158
 20
9.2094499574
 30
0.0
 10
-9.454389953
 20
9.1860117232
 30
0.0
 10
-9.4538111445
 20
9.1515275755
 30
0.0
 10
-9.443364486
 20
9.1146872154
 30
0.0
 10
-9.4378652015
 20
9.0784347469
 30
0.0
 10
-9.4224442709
 20
9.0421869247
 30
0.0
 10
-9.4118810629
 20
9.0054761588
 30
0.0
 10
-9.3918086107
 20
8.970612521
 30
0.0
 10
-9.3759045188
 20
8.9336537285
 30
0.0
 10
-9.3528362295
 20
8.9032284269
 30
0.0
 10
-9.3330459612
 20
8.8691671974
 30
0.0
 10
-9.307307806
 20
8.8431161883
 30
0.0
 10
-9.2841036069
 20
8.8125641015
 30
0.0
 10
-9.2567114705
 20
8.7920061053
 30
0.0
 10
-9.2311166359
 20
8.7663069005
 30
0.0
 10
-9.2025205312
 20
8.7511784394
 30
0.0
 10
-9.184028132
 20
8.7390793237
 30
0.0
 10
-9.1747104735
 20
8.7332814502
 30
0.0
  0
SPLINE
  5
330
100
AcDbEntity
  8
0
100
AcDbSpline
 62
7
  6
CONTINUOUS
 70
0
 71
3
 72
43
 73
39
 74
0
 42
0.0000001
 43
0.0000001
 44
0.0000000001
 40
0.0
 40
0.0
 40
0.0
 40
0.0
 40
0.03125
 40
0.046875
 40
0.0625
 40
0.09375
 40
0.125
 40
0.15625
 40
0.1875
 40
0.203125
 40
0.21875
 40
0.25
 40
0.265625
 40
0.28125
 40
0.3125
 40
0.328125
 40
0.34375
 40
0.359375
 40
0.375
 40
0.40625
 40
0.4375
 40
0.46875
 40
0.484375
 40
0.5
 40
0.53125
 40
0.5625
 40
0.59375
 40
0.625
 40
0.65625
 40
0.6875
 40
0.75
 40
0.8125
 40
0.84375
 40
0.875
 40
0.90625
 40
0.9375
 40
0.96875
 40
1.0
 40
1.0
 40
1.0
 40
1.0
 10
-8.6090257681
 20
10.1733654614
 30
0.0
 10
-8.6180632998
 20
10.1767403635
 30
0.0
 10
-8.6316303902
 20
10.1819003993
 30
0.0
 10
-8.6496766728
 20
10.1883897162
 30
0.0
 10
-8.6678668598
 20
10.1961814691
 30
0.0
 10
-8.6895792742
 20
10.1966413038
 30
0.0
 10
-8.7165845864
 20
10.2017869197
 30
0.0
 10
-8.7408510176
 20
10.1975595346
 30
0.0
 10
-8.760836672
 20
10.1933562869
 30
0.0
 10
-8.7768912452
 20
10.1901832678
 30
0.0
 10
-8.7901590815
 20
10.1808357143
 30
0.0
 10
-8.8038114756
 20
10.1725824321
 30
0.0
 10
-8.8184002489
 20
10.1656772367
 30
0.0
 10
-8.8287307616
 20
10.1519206661
 30
0.0
 10
-8.8396359188
 20
10.1392095847
 30
0.0
 10
-8.851152319
 20
10.1271179
 30
0.0
 10
-8.8573812457
 20
10.1151454571
 30
0.0
 10
-8.8629219624
 20
10.1023303846
 30
0.0
 10
-8.8705138145
 20
10.0855107857
 30
0.0
 10
-8.8801924312
 20
10.0645891277
 30
0.0
 10
-8.8839886464
 20
10.0326261255
 30
0.0
 10
-8.8909423986
 20
10.0088344427
 30
0.0
 10
-8.8901657674
 20
9.9856742911
 30
0.0
 10
-8.89020923
 20
9.9631315791
 30
0.0
 10
-8.8920373958
 20
9.9354808983
 30
0.0
 10
-8.8844866337
 20
9.8988409179
 30
0.0
 10
-8.8807929432
 20
9.8630680121
 30
0.0
 10
-8.8691095966
 20
9.8264198827
 30
0.0
 10
-8.8590457129
 20
9.7895779729
 30
0.0
 10
-8.8388155772
 20
9.7417133531
 30
0.0
 10
-8.8102838999
 20
9.683060592
 30
0.0
 10
-8.7749628854
 20
9.6283538286
 30
0.0
 10
-8.7424825516
 20
9.5903043089
 30
0.0
 10
-8.7184396781
 20
9.561527267
 30
0.0
 10
-8.6914386058
 20
9.5393086512
 30
0.0
 10
-8.6655017083
 20
9.5143523319
 30
0.0
 10
-8.6369169881
 20
9.4986621525
 30
0.0
 10
-8.6183648551
 20
9.4864370539
 30
0.0
 10
-8.6090257452
 20
9.480545127
 30
0.0
  0
SPLINE
  5
331
100
AcDbEntity
  8
0
100
AcDbSpline
 62
7
  6
CONTINUOUS
 70
0
 71
3
 72
43
 73
39
 74
0
 42
0.0000001
 43
0.0000001
 44
0.0000000001
 40
0.0
 40
0.0
 40
0.0
 40
0.0
 40
0.03125
 40
0.046875
 40
0.0625
 40
0.09375
 40
0.125
 40
0.15625
 40
0.1875
 40
0.203125
 40
0.21875
 40
0.25
 40
0.265625
 40
0.28125
 40
0.3125
 40
0.328125
 40
0.34375
 40
0.359375
 40
0.375
 40
0.40625
 40
0.4375
 40
0.46875
 40
0.484375
 40
0.5
 40
0.53125
 40
0.5625
 40
0.59375
 40
0.625
 40
0.65625
 40
0.6875
 40
0.75
 40
0.8125
 40
0.84375
 40
0.875
 40
0.90625
 40
0.9375
 40
0.96875
 40
1.0
 40
1.0
 40
1.0
 40
1.0
 10
-6.4169933322
 20
8.3845289204
 30
0.0
 10
-6.4079558004
 20
8.3811540184
 30
0.0
 10
-6.39438871
 20
8.3759939826
 30
0.0
 10
-6.3763424274
 20
8.3695046657
 30
0.0
 10
-6.3581522404
 20
8.3617129128
 30
0.0
 10
-6.336439826
 20
8.3612530781
 30
0.0
 10
-6.3094345138
 20
8.3561074621
 30
0.0
 10
-6.2851680826
 20
8.3603348472
 30
0.0
 10
-6.2651824282
 20
8.364538095
 30
0.0
 10
-6.249127855
 20
8.3677111141
 30
0.0
 10
-6.2358600187
 20
8.3770586676
 30
0.0
 10
-6.2222076246
 20
8.3853119497
 30
0.0
 10
-6.2076188514
 20
8.3922171452
 30
0.0
 10
-6.1972883386
 20
8.4059737158
 30
0.0
 10
-6.1863831814
 20
8.4186847972
 30
0.0
 10
-6.1748667813
 20
8.4307764818
 30
0.0
 10
-6.1686378545
 20
8.4427489247
 30
0.0
 10
-6.1630971378
 20
8.4555639973
 30
0.0
 10
-6.1555052857
 20
8.4723835962
 30
0.0
 10
-6.145826669
 20
8.4933052541
 30
0.0
 10
-6.1420304539
 20
8.5252682563
 30
0.0
 10
-6.1350767016
 20
8.5490599392
 30
0.0
 10
-6.1358533328
 20
8.5722200908
 30
0.0
 10
-6.1358098702
 20
8.5947628028
 30
0.0
 10
-6.1339817044
 20
8.6224134836
 30
0.0
 10
-6.1415324665
 20
8.6590534639
 30
0.0
 10
-6.145226157
 20
8.6948263697
 30
0.0
 10
-6.1569095036
 20
8.7314744992
 30
0.0
 10
-6.1669733873
 20
8.7683164089
 30
0.0
 10
-6.187203523
 20
8.8161810288
 30
0.0
 10
-6.2157352003
 20
8.8748337899
 30
0.0
 10
-6.2510562148
 20
8.9295405532
 30
0.0
 10
-6.2835365486
 20
8.967590073
 30
0.0
 10
-6.3075794221
 20
8.9963671149
 30
0.0
 10
-6.3345804944
 20
9.0185857307
 30
0.0
 10
-6.3605173919
 20
9.04354205
 30
0.0
 10
-6.3891021121
 20
9.0592322293
 30
0.0
 10
-6.4076542451
 20
9.071457328
 30
0.0
 10
-6.416993355
 20
9.0773492549
 30
0.0
  0
SPLINE
  5
332
100
AcDbEntity
  8
0
100
AcDbSpline
 62
7
  6
CONTINUOUS
 70
0
 71
3
 72
43
 73
39
 74
0
 42
0.0000001
 43
0.0000001
 44
0.0000000001
 40
0.0
 40
0.0
 40
0.0
 40
0.0
 40
0.03125
 40
0.046875
 40
0.0625
 40
0.09375
 40
0.125
 40
0.15625
 40
0.1875
 40
0.203125
 40
0.21875
 40
0.25
 40
0.265625
 40
0.28125
 40
0.3125
 40
0.328125
 40
0.34375
 40
0.359375
 40
0.375
 40
0.40625
 40
0.4375
 40
0.46875
 40
0.484375
 40
0.5
 40
0.53125
 40
0.5625
 40
0.59375
 40
0.625
 40
0.65625
 40
0.6875
 40
0.75
 40
0.8125
 40
0.84375
 40
0.875
 40
0.90625
 40
0.9375
 40
0.96875
 40
1.0
 40
1.0
 40
1.0
 40
1.0
 10
-8.6090257681
 20
11.7322111882
 30
0.0
 10
-8.6180632998
 20
11.7355860903
 30
0.0
 10
-8.6316303902
 20
11.7407461261
 30
0.0
 10
-8.6496766728
 20
11.747235443
 30
0.0
 10
-8.6678668598
 20
11.7550271959
 30
0.0
 10
-8.6895792742
 20
11.7554870306
 30
0.0
 10
-8.7165845864
 20
11.7606326465
 30
0.0
 10
-8.7408510176
 20
11.7564052614
 30
0.0
 10
-8.760836672
 20
11.7522020137
 30
0.0
 10
-8.7768912452
 20
11.7490289946
 30
0.0
 10
-8.7901590815
 20
11.7396814411
 30
0.0
 10
-8.8038114756
 20
11.731428159
 30
0.0
 10
-8.8184002489
 20
11.7245229635
 30
0.0
 10
-8.8287307616
 20
11.7107663929
 30
0.0
 10
-8.8396359188
 20
11.6980553115
 30
0.0
 10
-8.851152319
 20
11.6859636269
 30
0.0
 10
-8.8573812457
 20
11.6739911839
 30
0.0
 10
-8.8629219624
 20
11.6611761114
 30
0.0
 10
-8.8705138145
 20
11.6443565125
 30
0.0
 10
-8.8801924312
 20
11.6234348546
 30
0.0
 10
-8.8839886464
 20
11.5914718523
 30
0.0
 10
-8.8909423986
 20
11.5676801695
 30
0.0
 10
-8.8901657674
 20
11.5445200179
 30
0.0
 10
-8.89020923
 20
11.5219773059
 30
0.0
 10
-8.8920373958
 20
11.4943266251
 30
0.0
 10
-8.8844866337
 20
11.4576866448
 30
0.0
 10
-8.8807929432
 20
11.421913739
 30
0.0
 10
-8.8691095966
 20
11.3852656095
 30
0.0
 10
-8.8590457129
 20
11.3484236998
 30
0.0
 10
-8.8388155772
 20
11.3005590799
 30
0.0
 10
-8.8102838999
 20
11.2419063188
 30
0.0
 10
-8.7749628854
 20
11.1871995554
 30
0.0
 10
-8.7424825516
 20
11.1491500357
 30
0.0
 10
-8.7184396781
 20
11.1203729938
 30
0.0
 10
-8.6914386058
 20
11.098154378
 30
0.0
 10
-8.6655017083
 20
11.0731980587
 30
0.0
 10
-8.6369169881
 20
11.0575078793
 30
0.0
 10
-8.6183648551
 20
11.0452827807
 30
0.0
 10
-8.6090257452
 20
11.0393908538
 30
0.0
  0
SPLINE
  5
333
100
AcDbEntity
  8
0
100
AcDbSpline
 62
7
  6
CONTINUOUS
 70
0
 71
3
 72
43
 73
39
 74
0
 42
0.0000001
 43
0.0000001
 44
0.0000000001
 40
0.0
 40
0.0
 40
0.0
 40
0.0
 40
0.03125
 40
0.046875
 40
0.0625
 40
0.09375
 40
0.125
 40
0.15625
 40
0.1875
 40
0.203125
 40
0.21875
 40
0.25
 40
0.265625
 40
0.28125
 40
0.3125
 40
0.328125
 40
0.34375
 40
0.359375
 40
0.375
 40
0.40625
 40
0.4375
 40
0.46875
 40
0.484375
 40
0.5
 40
0.53125
 40
0.5625
 40
0.59375
 40
0.625
 40
0.65625
 40
0.6875
 40
0.75
 40
0.8125
 40
0.84375
 40
0.875
 40
0.90625
 40
0.9375
 40
0.96875
 40
1.0
 40
1.0
 40
1.0
 40
1.0
 10
-6.4169933322
 20
9.9433746473
 30
0.0
 10
-6.4079558004
 20
9.9399997452
 30
0.0
 10
-6.39438871
 20
9.9348397094
 30
0.0
 10
-6.3763424274
 20
9.9283503925
 30
0.0
 10
-6.3581522404
 20
9.9205586396
 30
0.0
 10
-6.336439826
 20
9.9200988049
 30
0.0
 10
-6.3094345138
 20
9.9149531889
 30
0.0
 10
-6.2851680826
 20
9.919180574
 30
0.0
 10
-6.2651824282
 20
9.9233838218
 30
0.0
 10
-6.249127855
 20
9.9265568409
 30
0.0
 10
-6.2358600187
 20
9.9359043944
 30
0.0
 10
-6.2222076246
 20
9.9441576765
 30
0.0
 10
-6.2076188514
 20
9.951062872
 30
0.0
 10
-6.1972883386
 20
9.9648194426
 30
0.0
 10
-6.1863831814
 20
9.977530524
 30
0.0
 10
-6.1748667813
 20
9.9896222086
 30
0.0
 10
-6.1686378545
 20
10.0015946515
 30
0.0
 10
-6.1630971378
 20
10.0144097241
 30
0.0
 10
-6.1555052857
 20
10.031229323
 30
0.0
 10
-6.145826669
 20
10.0521509809
 30
0.0
 10
-6.1420304539
 20
10.0841139831
 30
0.0
 10
-6.1350767016
 20
10.107905666
 30
0.0
 10
-6.1358533328
 20
10.1310658176
 30
0.0
 10
-6.1358098702
 20
10.1536085296
 30
0.0
 10
-6.1339817044
 20
10.1812592104
 30
0.0
 10
-6.1415324665
 20
10.2178991907
 30
0.0
 10
-6.145226157
 20
10.2536720965
 30
0.0
 10
-6.1569095036
 20
10.290320226
 30
0.0
 10
-6.1669733873
 20
10.3271621357
 30
0.0
 10
-6.187203523
 20
10.3750267556
 30
0.0
 10
-6.2157352003
 20
10.4336795167
 30
0.0
 10
-6.2510562148
 20
10.4883862801
 30
0.0
 10
-6.2835365486
 20
10.5264357998
 30
0.0
 10
-6.3075794221
 20
10.5552128417
 30
0.0
 10
-6.3345804944
 20
10.5774314575
 30
0.0
 10
-6.3605173919
 20
10.6023877768
 30
0.0
 10
-6.3891021121
 20
10.6180779562
 30
0.0
 10
-6.4076542451
 20
10.6303030548
 30
0.0
 10
-6.416993355
 20
10.6361949817
 30
0.0
  0
SPLINE
  5
334
100
AcDbEntity
  8
DEFAULT_1
100
AcDbSpline
 62
250
  6
CENTER
 70
0
 71
3
 72
29
 73
25
 74
0
 42
0.0000001
 43
0.0000001
 44
0.0000000001
 40
0.0
 40
0.0
 40
0.0
 40
0.0
 40
0.0046427346
 40
0.0253793443
 40
0.046115954
 40
0.0875891734
 40
0.1705356122
 40
0.253482051
 40
0.2949552704
 40
0.3156918801
 40
0.3364284897
 40
0.3571650994
 40
0.3779017091
 40
0.4193749285
 40
0.5023213673
 40
0.5852678061
 40
0.6267410255
 40
0.6474776352
 40
0.6682142449
 40
0.6889508546
 40
0.7096874643
 40
0.7511606837
 40
0.8341071224
 40
1.0
 40
1.0
 40
1.0
 40
1.0
 10
-8.1002834444
 20
16.474659238
 30
0.0
 10
-8.1010305418
 20
16.4744274753
 30
0.0
 10
-8.1050243846
 20
16.4729944362
 30
0.0
 10
-8.1110336439
 20
16.4680908895
 30
0.0
 10
-8.1228019539
 20
16.4610398647
 30
0.0
 10
-8.1429465538
 20
16.4478715113
 30
0.0
 10
-8.1719821094
 20
16.4295330418
 30
0.0
 10
-8.2008444757
 20
16.4108798787
 30
0.0
 10
-8.2212315406
 20
16.3981520963
 30
0.0
 10
-8.2326188341
 20
16.3904087457
 30
0.0
 10
-8.2418942756
 20
16.3859181056
 30
0.0
 10
-8.2483610603
 20
16.37639514
 30
0.0
 10
-8.2579634724
 20
16.3654536406
 30
0.0
 10
-8.2743076516
 20
16.3454833814
 30
0.0
 10
-8.2979245735
 20
16.3174213928
 30
0.0
 10
-8.3213453876
 20
16.2890585163
 30
0.0
 10
-8.3379641177
 20
16.2695095001
 30
0.0
 10
-8.3471350926
 20
16.2579060475
 30
0.0
 10
-8.3549256049
 20
16.2504140747
 30
0.0
 10
-8.3592297137
 20
16.2382959281
 30
0.0
 10
-8.3661845336
 20
16.2237519434
 30
0.0
 10
-8.3777897938
 20
16.1975493658
 30
0.0
 10
-8.4014043676
 20
16.1456803566
 30
0.0
 10
-8.4215068982
 20
16.1010373843
 30
0.0
 10
-8.4349393703
 20
16.071316252
 30
0.0
  0
SPLINE
  5
335
100
AcDbEntity
  8
DEFAULT_1
100
AcDbSpline
 62
250
  6
CENTER
 70
0
 71
3
 72
123
 73
119
 74
0
 42
0.0000001
 43
0.0000001
 44
0.0000000001
 40
0.0
 40
0.0
 40
0.0
 40
0.0
 40
0.015625
 40
0.03125
 40
0.046875
 40
0.0546875
 40
0.05859375
 40
0.0625
 40
0.06640625
 40
0.0703125
 40
0.078125
 40
0.09375
 40
0.109375
 40
0.1171875
 40
0.12109375
 40
0.125
 40
0.12890625
 40
0.1328125
 40
0.140625
 40
0.15625
 40
0.171875
 40
0.1796875
 40
0.18359375
 40
0.1875
 40
0.19140625
 40
0.1953125
 40
0.203125
 40
0.21875
 40
0.234375
 40
0.2421875
 40
0.24609375
 40
0.25
 40
0.25390625
 40
0.2578125
 40
0.265625
 40
0.28125
 40
0.296875
 40
0.3046875
 40
0.30859375
 40
0.3125
 40
0.31640625
 40
0.3203125
 40
0.328125
 40
0.34375
 40
0.359375
 40
0.3671875
 40
0.375
 40
0.3828125
 40
0.390625
 40
0.40625
 40
0.421875
 40
0.4296875
 40
0.4375
 40
0.4453125
 40
0.453125
 40
0.46875
 40
0.484375
 40
0.4921875
 40
0.5
 40
0.5078125
 40
0.515625
 40
0.53125
 40
0.546875
 40
0.5546875
 40
0.5625
 40
0.5703125
 40
0.578125
 40
0.59375
 40
0.609375
 40
0.6171875
 40
0.62109375
 40
0.625
 40
0.62890625
 40
0.6328125
 40
0.640625
 40
0.65625
 40
0.671875
 40
0.6796875
 40
0.68359375
 40
0.6875
 40
0.69140625
 40
0.6953125
 40
0.703125
 40
0.71875
 40
0.734375
 40
0.7421875
 40
0.74609375
 40
0.75
 40
0.75390625
 40
0.7578125
 40
0.765625
 40
0.78125
 40
0.796875
 40
0.8046875
 40
0.80859375
 40
0.8125
 40
0.81640625
 40
0.8203125
 40
0.828125
 40
0.84375
 40
0.859375
 40
0.8671875
 40
0.87109375
 40
0.875
 40
0.87890625
 40
0.8828125
 40
0.890625
 40
0.90625
 40
0.921875
 40
0.9296875
 40
0.93359375
 40
0.9375
 40
0.94140625
 40
0.9453125
 40
0.953125
 40
0.96875
 40
0.984375
 40
1.0
 40
1.0
 40
1.0
 40
1.0
 10
4.3306755578
 20
9.2153551404
 30
0.0
 10
4.3163566207
 20
9.201826993
 30
0.0
 10
4.2877264135
 20
9.1747590598
 30
0.0
 10
4.2447351009
 20
9.1342269901
 30
0.0
 10
4.2090431786
 20
9.1002465945
 30
0.0
 10
4.1837971986
 20
9.0768574756
 30
0.0
 10
4.169779189
 20
9.0628725237
 30
0.0
 10
4.1581156403
 20
9.0541295596
 30
0.0
 10
4.1508481254
 20
9.0387134666
 30
0.0
 10
4.1396241879
 20
9.0204868257
 30
0.0
 10
4.1207023144
 20
8.9875005828
 30
0.0
 10
4.0932516816
 20
8.9409864284
 30
0.0
 10
4.0661071274
 20
8.894111544
 30
0.0
 10
4.0467567438
 20
8.8616303233
 30
0.0
 10
4.0362061793
 20
8.8426100761
 30
0.0
 10
4.0268726335
 20
8.8296289114
 30
0.0
 10
4.0229681786
 20
8.8117414387
 30
0.0
 10
4.0158679732
 20
8.7896033226
 30
0.0
 10
4.0043305832
 20
8.7500592991
 30
0.0
 10
3.9873409274
 20
8.6940254405
 30
0.0
 10
3.9706905816
 20
8.6376893966
 30
0.0
 10
3.9586781575
 20
8.5985684325
 30
0.0
 10
3.9523244342
 20
8.5757655087
 30
0.0
 10
3.9461296368
 20
8.5599177871
 30
0.0
 10
3.9453975993
 20
8.5392762239
 30
0.0
 10
3.9425155169
 20
8.51342652
 30
0.0
 10
3.9383655533
 20
8.4674079904
 30
0.0
 10
3.931924535
 20
8.4020947887
 30
0.0
 10
3.9258312636
 20
8.33656003
 30
0.0
 10
3.9211944544
 20
8.2908516802
 30
0.0
 10
3.9190774151
 20
8.2645145509
 30
0.0
 10
3.9159980863
 20
8.2453684976
 30
0.0
 10
3.9186186717
 20
8.2239043057
 30
0.0
 10
3.9201240315
 20
8.1960941907
 30
0.0
 10
3.92369063
 20
8.1470474955
 30
0.0
 10
3.9282531504
 20
8.0771962797
 30
0.0
 10
3.9331704974
 20
8.0072049903
 30
0.0
 10
3.9362403386
 20
7.9583543982
 30
0.0
 10
3.9385263171
 20
7.9302361212
 30
0.0
 10
3.9387518222
 20
7.9097174264
 30
0.0
 10
3.9446673507
 20
7.8870205063
 30
0.0
 10
3.9505713426
 20
7.8575179102
 30
0.0
 10
3.9618137302
 20
7.8055325323
 30
0.0
 10
3.9775085125
 20
7.7314678545
 30
0.0
 10
3.9929322821
 20
7.6572803661
 30
0.0
 10
4.0062143454
 20
7.5980650025
 30
0.0
 10
4.0135093576
 20
7.5533232849
 30
0.0
 10
4.0309989871
 20
7.5098350334
 30
0.0
 10
4.0507415847
 20
7.4514104378
 30
0.0
 10
4.0767601014
 20
7.3785479806
 30
0.0
 10
4.1018886746
 20
7.3055626996
 30
0.0
 10
4.1230551819
 20
7.247334622
 30
0.0
 10
4.1362730823
 20
7.2032568164
 30
0.0
 10
4.1595870783
 20
7.1607259268
 30
0.0
 10
4.1871339938
 20
7.1034670499
 30
0.0
 10
4.2228654935
 20
7.0321588441
 30
0.0
 10
4.2578285876
 20
6.9604778573
 30
0.0
 10
4.2866049519
 20
6.9038154301
 30
0.0
 10
4.3062306013
 20
6.8594951914
 30
0.0
 10
4.3332798015
 20
6.8221274451
 30
0.0
 10
4.3667409119
 20
6.7698639203
 30
0.0
 10
4.4095420963
 20
6.7054522565
 30
0.0
 10
4.4516997073
 20
6.6404194526
 30
0.0
 10
4.486190535
 20
6.5891497521
 30
0.0
 10
4.5101505832
 20
6.5488005328
 30
0.0
 10
4.5413605525
 20
6.5156608182
 30
0.0
 10
4.580442947
 20
6.4689621202
 30
0.0
 10
4.6301528708
 20
6.4114080745
 30
0.0
 10
4.6795986944
 20
6.3537172369
 30
0.0
 10
4.71416553
 20
6.3130473848
 30
0.0
 10
4.7340747934
 20
6.2903392481
 30
0.0
 10
4.748549309
 20
6.2717945995
 30
0.0
 10
4.7647751594
 20
6.2590382458
 30
0.0
 10
4.7857985791
 20
6.2400101733
 30
0.0
 10
4.8228758905
 20
6.2076578242
 30
0.0
 10
4.8756806746
 20
6.1608984473
 30
0.0
 10
4.9285912888
 20
6.1145026253
 30
0.0
 10
4.965520438
 20
6.0816412995
 30
0.0
 10
4.9867766841
 20
6.0634130475
 30
0.0
 10
5.0022881806
 20
6.0482026987
 30
0.0
 10
5.0194454919
 20
6.0388741651
 30
0.0
 10
5.0417478695
 20
6.0243837704
 30
0.0
 10
5.0810440722
 20
5.9999888997
 30
0.0
 10
5.1370452156
 20
5.9645783678
 30
0.0
 10
5.1930828638
 20
5.9295758072
 30
0.0
 10
5.2323279596
 20
5.9046097767
 30
0.0
 10
5.2547106479
 20
5.8910169188
 30
0.0
 10
5.2716215517
 20
5.878934579
 30
0.0
 10
5.2880584454
 20
5.8740663021
 30
0.0
 10
5.310139701
 20
5.865058206
 30
0.0
 10
5.3487042623
 20
5.8504739507
 30
0.0
 10
5.4038417048
 20
5.8289647367
 30
0.0
 10
5.4589461767
 20
5.8079063241
 30
0.0
 10
5.4975568968
 20
5.7926909467
 30
0.0
 10
5.5195656171
 20
5.784674614
 30
0.0
 10
5.5362250625
 20
5.7767634266
 30
0.0
 10
5.5523001612
 20
5.7761089063
 30
0.0
 10
5.5739377062
 20
5.772704265
 30
0.0
 10
5.6117057834
 20
5.7679332575
 30
0.0
 10
5.6657316774
 20
5.7604370663
 30
0.0
 10
5.7196575345
 20
5.7534015692
 30
0.0
 10
5.7575656634
 20
5.7479855899
 30
0.0
 10
5.778983127
 20
5.7455944757
 30
0.0
 10
5.7957334753
 20
5.7418302699
 30
0.0
 10
5.8098569834
 20
5.7455976793
 30
0.0
 10
5.8296048541
 20
5.7479930308
 30
0.0
 10
5.8637340399
 20
5.7534167841
 30
0.0
 10
5.9127352265
 20
5.76046044
 30
0.0
 10
5.9615738484
 20
5.7679758949
 30
0.0
 10
5.9959306247
 20
5.7727391295
 30
0.0
 10
6.0153208532
 20
5.776172439
 30
0.0
 10
6.0305416727
 20
5.7767552044
 30
0.0
 10
6.0431710071
 20
5.784951106
 30
0.0
 10
6.0609140604
 20
5.7932234226
 30
0.0
 10
6.0915432238
 20
5.808937298
 30
0.0
 10
6.1355195071
 20
5.8307384006
 30
0.0
 10
6.1881961333
 20
5.8571785567
 30
0.0
 10
6.2233319629
 20
5.8747522164
 30
0.0
 10
6.2408976178
 20
5.8835456852
 30
0.0
  0
SPLINE
  5
336
100
AcDbEntity
  8
0
100
AcDbSpline
 62
7
  6
CONTINUOUS
 70
0
 71
3
 72
31
 73
27
 74
0
 42
0.0000001
 43
0.0000001
 44
0.0000000001
 40
0.0
 40
0.0
 40
0.0
 40
0.0
 40
0.0625
 40
0.125
 40
0.15625
 40
0.1875
 40
0.21875
 40
0.25
 40
0.3125
 40
0.34375
 40
0.375
 40
0.40625
 40
0.4375
 40
0.5
 40
0.5625
 40
0.59375
 40
0.625
 40
0.65625
 40
0.6875
 40
0.75
 40
0.78125
 40
0.8125
 40
0.84375
 40
0.875
 40
0.9375
 40
1.0
 40
1.0
 40
1.0
 40
1.0
 10
-2.7606260582
 20
-0.771936047
 30
0.0
 10
-2.7630512612
 20
-0.784940436
 30
0.0
 10
-2.7678009418
 20
-0.8110272616
 30
0.0
 10
-2.7742416703
 20
-0.8432455563
 30
0.0
 10
-2.7734444125
 20
-0.873390235
 30
0.0
 10
-2.7732710366
 20
-0.8955496644
 30
0.0
 10
-2.7743743113
 20
-0.9173203906
 30
0.0
 10
-2.7684704508
 20
-0.9490198822
 30
0.0
 10
-2.7641546222
 20
-0.9802705882
 30
0.0
 10
-2.7580991164
 20
-1.0117890678
 30
0.0
 10
-2.7499996441
 20
-1.0357901725
 30
0.0
 10
-2.7426236972
 20
-1.0596419702
 30
0.0
 10
-2.7336740898
 20
-1.0917576776
 30
0.0
 10
-2.7140408535
 20
-1.1299257508
 30
0.0
 10
-2.6980052094
 20
-1.1695031215
 30
0.0
 10
-2.6792478159
 20
-1.1977713442
 30
0.0
 10
-2.6658433902
 20
-1.2192302692
 30
0.0
 10
-2.6527489258
 20
-1.2413549992
 30
0.0
 10
-2.6327516872
 20
-1.2669600017
 30
0.0
 10
-2.6118301768
 20
-1.2911507265
 30
0.0
 10
-2.5917019298
 20
-1.3166426394
 30
0.0
 10
-2.5739578936
 20
-1.3311949449
 30
0.0
 10
-2.5568699711
 20
-1.3467444336
 30
0.0
 10
-2.5341172696
 20
-1.3682476139
 30
0.0
 10
-2.5038021448
 20
-1.3868546665
 30
0.0
 10
-2.4796416711
 20
-1.4022009504
 30
0.0
 10
-2.467549981
 20
-1.4098165121
 30
0.0
  0
SPLINE
  5
337
100
AcDbEntity
  8
0
100
AcDbSpline
 62
7
  6
CONTINUOUS
 70
0
 71
3
 72
61
 73
57
 74
0
 42
0.0000001
 43
0.0000001
 44
0.0000000001
 40
0.0
 40
0.0
 40
0.0
 40
0.0
 40
0.03125
 40
0.046875
 40
0.0625
 40
0.078125
 40
0.09375
 40
0.109375
 40
0.125
 40
0.140625
 40
0.15625
 40
0.171875
 40
0.1875
 40
0.203125
 40
0.21875
 40
0.234375
 40
0.25
 40
0.265625
 40
0.28125
 40
0.296875
 40
0.3125
 40
0.328125
 40
0.34375
 40
0.359375
 40
0.375
 40
0.390625
 40
0.40625
 40
0.421875
 40
0.4375
 40
0.453125
 40
0.46875
 40
0.484375
 40
0.5
 40
0.515625
 40
0.53125
 40
0.546875
 40
0.5625
 40
0.578125
 40
0.59375
 40
0.625
 40
0.65625
 40
0.6875
 40
0.71875
 40
0.75
 40
0.78125
 40
0.8125
 40
0.84375
 40
0.859375
 40
0.875
 40
0.890625
 40
0.90625
 40
0.921875
 40
0.9375
 40
0.953125
 40
0.96875
 40
1.0
 40
1.0
 40
1.0
 40
1.0
 10
-1.4933663109
 20
-1.8969077914
 30
0.0
 10
-1.4834073669
 20
-1.9006913209
 30
0.0
 10
-1.4684427879
 20
-1.9065406769
 30
0.0
 10
-1.448594668
 20
-1.9136435708
 30
0.0
 10
-1.4334469479
 20
-1.9207113599
 30
0.0
 10
-1.4192934223
 20
-1.9211647983
 30
0.0
 10
-1.4048387466
 20
-1.923511034
 30
0.0
 10
-1.3905944769
 20
-1.9249004309
 30
0.0
 10
-1.3758097333
 20
-1.9282243857
 30
0.0
 10
-1.362976479
 20
-1.9247669478
 30
0.0
 10
-1.349575699
 20
-1.9232488733
 30
0.0
 10
-1.3364935328
 20
-1.9207547379
 30
0.0
 10
-1.3227044369
 20
-1.9202254826
 30
0.0
 10
-1.3114244459
 20
-1.912812768
 30
0.0
 10
-1.2994007774
 20
-1.9073532955
 30
0.0
 10
-1.2878427141
 20
-1.900964314
 30
0.0
 10
-1.2751659075
 20
-1.8963401261
 30
0.0
 10
-1.2664984687
 20
-1.8855862729
 30
0.0
 10
-1.256680999
 20
-1.8765746715
 30
0.0
 10
-1.2474542849
 20
-1.8667237281
 30
0.0
 10
-1.2370145791
 20
-1.8584879008
 30
0.0
 10
-1.2308360848
 20
-1.8446309509
 30
0.0
 10
-1.2234316957
 20
-1.8323650389
 30
0.0
 10
-1.2166696745
 20
-1.8193560982
 30
0.0
 10
-1.2085640763
 20
-1.8077282341
 30
0.0
 10
-1.2051904181
 20
-1.7913190924
 30
0.0
 10
-1.2004595606
 20
-1.7762677807
 30
0.0
 10
-1.1964255599
 20
-1.7605664265
 30
0.0
 10
-1.1909613315
 20
-1.7461074125
 30
0.0
 10
-1.1905211572
 20
-1.72732908
 30
0.0
 10
-1.1886421093
 20
-1.7097443665
 30
0.0
 10
-1.1874945016
 20
-1.6917044953
 30
0.0
 10
-1.1848600069
 20
-1.6742916358
 30
0.0
 10
-1.1874416199
 20
-1.6548258874
 30
0.0
 10
-1.1885380096
 20
-1.6359330767
 30
0.0
 10
-1.1903591847
 20
-1.6168014043
 30
0.0
 10
-1.1907664413
 20
-1.598052241
 30
0.0
 10
-1.1961045869
 20
-1.5780119028
 30
0.0
 10
-1.2017985291
 20
-1.5517481088
 30
0.0
 10
-1.2072656235
 20
-1.5187213761
 30
0.0
 10
-1.2238831146
 20
-1.4793498648
 30
0.0
 10
-1.2354141529
 20
-1.4394073812
 30
0.0
 10
-1.2572340249
 20
-1.4014882186
 30
0.0
 10
-1.2745390296
 20
-1.3613005966
 30
0.0
 10
-1.2996146696
 20
-1.3281634913
 30
0.0
 10
-1.3211923674
 20
-1.2912841941
 30
0.0
 10
-1.3443580601
 20
-1.2671499888
 30
0.0
 10
-1.3619751562
 20
-1.2468768741
 30
0.0
 10
-1.3748237856
 20
-1.2306101639
 30
0.0
 10
-1.3895869146
 20
-1.2190738259
 30
0.0
 10
-1.4038108795
 20
-1.2061744674
 30
0.0
 10
-1.4182770012
 20
-1.1939968184
 30
0.0
 10
-1.4323136595
 20
-1.180295352
 30
0.0
 10
-1.4478260148
 20
-1.1719674459
 30
0.0
 10
-1.4679913667
 20
-1.1589781114
 30
0.0
 10
-1.483231883
 20
-1.1496603389
 30
0.0
 10
-1.4933663378
 20
-1.1433542177
 30
0.0
  0
SPLINE
  5
338
100
AcDbEntity
  8
0
100
AcDbSpline
 62
7
  6
CONTINUOUS
 70
0
 71
3
 72
75
 73
71
 74
0
 42
0.0000001
 43
0.0000001
 44
0.0000000001
 40
0.0
 40
0.0
 40
0.0
 40
0.0
 40
0.03125
 40
0.0625
 40
0.078125
 40
0.0859375
 40
0.09375
 40
0.125
 40
0.15625
 40
0.1640625
 40
0.171875
 40
0.1875
 40
0.21875
 40
0.234375
 40
0.2421875
 40
0.25
 40
0.2578125
 40
0.265625
 40
0.28125
 40
0.3125
 40
0.328125
 40
0.3359375
 40
0.34375
 40
0.375
 40
0.390625
 40
0.40625
 40
0.4140625
 40
0.421875
 40
0.4375
 40
0.46875
 40
0.484375
 40
0.4921875
 40
0.5
 40
0.5078125
 40
0.515625
 40
0.53125
 40
0.5625
 40
0.578125
 40
0.5859375
 40
0.59375
 40
0.609375
 40
0.625
 40
0.640625
 40
0.65625
 40
0.6640625
 40
0.671875
 40
0.6796875
 40
0.6875
 40
0.71875
 40
0.734375
 40
0.7421875
 40
0.75
 40
0.7578125
 40
0.765625
 40
0.78125
 40
0.8125
 40
0.8203125
 40
0.828125
 40
0.8359375
 40
0.84375
 40
0.859375
 40
0.875
 40
0.890625
 40
0.90625
 40
0.9140625
 40
0.921875
 40
0.9296875
 40
0.9375
 40
0.96875
 40
1.0
 40
1.0
 40
1.0
 40
1.0
 10
0.8132960262
 20
1.7570059229
 30
0.0
 10
0.8033543226
 20
1.7897145473
 30
0.0
 10
0.7835561011
 20
1.8551486187
 30
0.0
 10
0.7583823957
 20
1.936857095
 30
0.0
 10
0.7415434457
 20
1.9942075858
 30
0.0
 10
0.730707292
 20
2.0267395732
 30
0.0
 10
0.7078147406
 20
2.0742117627
 30
0.0
 10
0.6765442786
 20
2.1461373542
 30
0.0
 10
0.6429578377
 20
2.2171824044
 30
0.0
 10
0.6223812653
 20
2.2655351351
 30
0.0
 10
0.6048545058
 20
2.2955233367
 30
0.0
 10
0.5723703099
 20
2.3469371309
 30
0.0
 10
0.5359361557
 20
2.4060484394
 30
0.0
 10
0.5040557046
 20
2.4579105908
 30
0.0
 10
0.485493954
 20
2.48713018
 30
0.0
 10
0.4726058528
 20
2.5102527192
 30
0.0
 10
0.4557570798
 20
2.5287518322
 30
0.0
 10
0.4346710499
 20
2.5550255469
 30
0.0
 10
0.3971533403
 20
2.6003001164
 30
0.0
 10
0.3543708911
 20
2.6520481747
 30
0.0
 10
0.3173042058
 20
2.6980172126
 30
0.0
 10
0.2954449914
 20
2.7231004102
 30
0.0
 10
0.258920916
 20
2.7542426639
 30
0.0
 10
0.2175644373
 20
2.7926753062
 30
0.0
 10
0.1697324839
 20
2.8358808241
 30
0.0
 10
0.1398218086
 20
2.8622780126
 30
0.0
 10
0.1160728105
 20
2.8850301634
 30
0.0
 10
0.0916182073
 20
2.9017297223
 30
0.0
 10
0.0484917569
 20
2.9281638144
 30
0.0
 10
-0.0006529769
 20
2.9593888274
 30
0.0
 10
-0.043698149
 20
2.9868374667
 30
0.0
 10
-0.0682920864
 20
3.0017978017
 30
0.0
 10
-0.0867350135
 20
3.0151556433
 30
0.0
 10
-0.1051896966
 20
3.020325424
 30
0.0
 10
-0.1297907393
 20
3.0300678868
 30
0.0
 10
-0.1728560339
 20
3.0458564813
 30
0.0
 10
-0.2219967532
 20
3.0639972289
 30
0.0
 10
-0.2651829082
 20
3.0808774194
 30
0.0
 10
-0.2895767615
 20
3.0887485747
 30
0.0
 10
-0.3129023097
 20
3.0898749861
 30
0.0
 10
-0.3424296912
 20
3.0936127318
 30
0.0
 10
-0.3776868644
 20
3.0970324315
 30
0.0
 10
-0.4130540619
 20
3.1009869415
 30
0.0
 10
-0.4423063827
 20
3.1033876615
 30
0.0
 10
-0.4661820522
 20
3.1071881244
 30
0.0
 10
-0.4827995722
 20
3.1049356337
 30
0.0
 10
-0.4990547578
 20
3.1012519087
 30
0.0
 10
-0.5317599111
 20
3.094637366
 30
0.0
 10
-0.569757082
 20
3.0864853466
 30
0.0
 10
-0.6080603426
 20
3.0789796922
 30
0.0
 10
-0.6295321147
 20
3.0738810146
 30
0.0
 10
-0.6467959058
 20
3.0723015275
 30
0.0
 10
-0.6596277516
 20
3.0621488221
 30
0.0
 10
-0.6782840222
 20
3.0516043711
 30
0.0
 10
-0.7101993045
 20
3.0317367068
 30
0.0
 10
-0.7424524843
 20
3.0125030071
 30
0.0
 10
-0.769897709
 20
2.9956691083
 30
0.0
 10
-0.783827953
 20
2.9875856344
 30
0.0
 10
-0.7969677421
 20
2.9782378326
 30
0.0
 10
-0.8107290475
 20
2.9597652875
 30
0.0
 10
-0.8292299275
 20
2.9387492812
 30
0.0
 10
-0.8508322116
 20
2.9125848476
 30
0.0
 10
-0.8727507863
 20
2.8868818379
 30
0.0
 10
-0.89046094
 20
2.8647122718
 30
0.0
 10
-0.905803698
 20
2.8485468462
 30
0.0
 10
-0.9141200566
 20
2.8321623302
 30
0.0
 10
-0.9215430186
 20
2.8145850291
 30
0.0
 10
-0.9368486156
 20
2.7800441422
 30
0.0
 10
-0.9596123914
 20
2.7279729727
 30
0.0
 10
-0.9799259424
 20
2.6817930741
 30
0.0
 10
-0.9900728324
 20
2.6586899266
 30
0.0
  0
SPLINE
  5
339
100
AcDbEntity
  8
0
100
AcDbSpline
 62
7
  6
CONTINUOUS
 70
0
 71
3
 72
27
 73
23
 74
0
 42
0.0000001
 43
0.0000001
 44
0.0000000001
 40
0.0
 40
0.0
 40
0.0
 40
0.0
 40
0.125
 40
0.15625
 40
0.1875
 40
0.25
 40
0.3125
 40
0.34375
 40
0.375
 40
0.4375
 40
0.46875
 40
0.5
 40
0.53125
 40
0.5625
 40
0.625
 40
0.65625
 40
0.6875
 40
0.75
 40
0.8125
 40
0.84375
 40
0.875
 40
1.0
 40
1.0
 40
1.0
 40
1.0
 10
-0.3093742254
 20
-1.7353504562
 30
0.0
 10
-0.325364379
 20
-1.7294131978
 30
0.0
 10
-0.3452455708
 20
-1.7226614693
 30
0.0
 10
-0.3694225017
 20
-1.7125498619
 30
0.0
 10
-0.3848588542
 20
-1.7100957945
 30
0.0
 10
-0.4038658783
 20
-1.7087013696
 30
0.0
 10
-0.4231316785
 20
-1.7061958605
 30
0.0
 10
-0.4381539893
 20
-1.7055195277
 30
0.0
 10
-0.4517964684
 20
-1.709308469
 30
0.0
 10
-0.4659058815
 20
-1.7116438058
 30
0.0
 10
-0.4796493662
 20
-1.7149910006
 30
0.0
 10
-0.4905878311
 20
-1.7159194273
 30
0.0
 10
-0.4991858548
 20
-1.7226698025
 30
0.0
 10
-0.5115131081
 20
-1.7295697006
 30
0.0
 10
-0.5233419134
 20
-1.7374293148
 30
0.0
 10
-0.5360186464
 20
-1.7439852322
 30
0.0
 10
-0.545968266
 20
-1.7544763153
 30
0.0
 10
-0.5573792807
 20
-1.7690427675
 30
0.0
 10
-0.5694967429
 20
-1.7826587755
 30
0.0
 10
-0.5783160466
 20
-1.7946705694
 30
0.0
 10
-0.5873178806
 20
-1.8180364187
 30
0.0
 10
-0.5959202218
 20
-1.8361152102
 30
0.0
 10
-0.6024498346
 20
-1.8510239233
 30
0.0
  0
SPLINE
  5
33A
100
AcDbEntity
  8
0
100
AcDbSpline
 62
7
  6
CONTINUOUS
 70
0
 71
3
 72
61
 73
57
 74
0
 42
0.0000001
 43
0.0000001
 44
0.0000000001
 40
0.0
 40
0.0
 40
0.0
 40
0.0
 40
0.03125
 40
0.046875
 40
0.0625
 40
0.078125
 40
0.09375
 40
0.109375
 40
0.125
 40
0.140625
 40
0.15625
 40
0.171875
 40
0.1875
 40
0.203125
 40
0.21875
 40
0.25
 40
0.28125
 40
0.3125
 40
0.34375
 40
0.375
 40
0.40625
 40
0.4375
 40
0.46875
 40
0.484375
 40
0.5
 40
0.515625
 40
0.53125
 40
0.546875
 40
0.5625
 40
0.578125
 40
0.59375
 40
0.609375
 40
0.625
 40
0.640625
 40
0.65625
 40
0.671875
 40
0.6875
 40
0.703125
 40
0.71875
 40
0.734375
 40
0.75
 40
0.765625
 40
0.78125
 40
0.796875
 40
0.8125
 40
0.828125
 40
0.84375
 40
0.859375
 40
0.875
 40
0.890625
 40
0.90625
 40
0.921875
 40
0.9375
 40
0.953125
 40
0.96875
 40
1.0
 40
1.0
 40
1.0
 40
1.0
 10
-0.9295712528
 20
-2.9433855174
 30
0.0
 10
-0.9316688509
 20
-2.9543201553
 30
0.0
 10
-0.9349484207
 20
-2.9706371083
 30
0.0
 10
-0.9387884894
 20
-2.9927330605
 30
0.0
 10
-0.9430002687
 20
-3.0084549878
 30
0.0
 10
-0.9421514827
 20
-3.0274070549
 30
0.0
 10
-0.9427494332
 20
-3.0454574256
 30
0.0
 10
-0.942621003
 20
-3.063884442
 30
0.0
 10
-0.943951359
 20
-3.0817065722
 30
0.0
 10
-0.9401729508
 20
-3.1015716014
 30
0.0
 10
-0.9378531355
 20
-3.1208648568
 30
0.0
 10
-0.9348077128
 20
-3.1404023084
 30
0.0
 10
-0.9332061269
 20
-3.1595347491
 30
0.0
 10
-0.9265548013
 20
-3.1800430369
 30
0.0
 10
-0.9191723888
 20
-3.206826122
 30
0.0
 10
-0.9114235602
 20
-3.2410751005
 30
0.0
 10
-0.8927958356
 20
-3.2793192361
 30
0.0
 10
-0.8787678638
 20
-3.3193852198
 30
0.0
 10
-0.855670011
 20
-3.3550184494
 30
0.0
 10
-0.8367404699
 20
-3.39351473
 30
0.0
 10
-0.8102075632
 20
-3.4249915608
 30
0.0
 10
-0.787182849
 20
-3.4602155754
 30
0.0
 10
-0.7626377502
 20
-3.4829278498
 30
0.0
 10
-0.744024496
 20
-3.5019969068
 30
0.0
 10
-0.730210783
 20
-3.5175856298
 30
0.0
 10
-0.7153007468
 20
-3.5275770132
 30
0.0
 10
-0.7006946875
 20
-3.5391739173
 30
0.0
 10
-0.685969044
 20
-3.5499460783
 30
0.0
 10
-0.6714177605
 20
-3.5624116907
 30
0.0
 10
-0.656288621
 20
-3.5689282406
 30
0.0
 10
-0.6413068024
 20
-3.5771537653
 30
0.0
 10
-0.6263135564
 20
-3.5844924531
 30
0.0
 10
-0.6112186989
 20
-3.5936695138
 30
0.0
 10
-0.596541715
 20
-3.5963799201
 30
0.0
 10
-0.5817350685
 20
-3.6009437744
 30
0.0
 10
-0.567029199
 20
-3.604560491
 30
0.0
 10
-0.5520498844
 20
-3.6101123106
 30
0.0
 10
-0.538063573
 20
-3.6088708559
 30
0.0
 10
-0.5237613573
 20
-3.6095708224
 30
0.0
 10
-0.5097297555
 20
-3.6092983784
 30
0.0
 10
-0.4949316023
 20
-3.6109741553
 30
0.0
 10
-0.482929041
 20
-3.6058294591
 30
0.0
 10
-0.4701206424
 20
-3.602627899
 30
0.0
 10
-0.4577400014
 20
-3.5984742674
 30
0.0
 10
-0.4444541671
 20
-3.596185786
 30
0.0
 10
-0.4343613486
 20
-3.5873887753
 30
0.0
 10
-0.4233434685
 20
-3.5804425677
 30
0.0
 10
-0.4128328189
 20
-3.5726016771
 30
0.0
 10
-0.4012183091
 20
-3.5664887154
 30
0.0
 10
-0.3935120098
 20
-3.5543587209
 30
0.0
 10
-0.384681987
 20
-3.5439428132
 30
0.0
 10
-0.3764386474
 20
-3.5326875911
 30
0.0
 10
-0.3669722987
 20
-3.5230755397
 30
0.0
 10
-0.3618113033
 20
-3.5077301198
 30
0.0
 10
-0.3534193257
 20
-3.4892812682
 30
0.0
 10
-0.3474652389
 20
-3.4749919952
 30
0.0
 10
-0.3434203152
 20
-3.4655663986
 30
0.0
  0
SPLINE
  5
33B
100
AcDbEntity
  8
0
100
AcDbSpline
 62
7
  6
CONTINUOUS
 70
0
 71
3
 72
33
 73
29
 74
0
 42
0.0000001
 43
0.0000001
 44
0.0000000001
 40
0.0
 40
0.0
 40
0.0
 40
0.0
 40
0.0625
 40
0.125
 40
0.15625
 40
0.1875
 40
0.21875
 40
0.25
 40
0.28125
 40
0.3125
 40
0.34375
 40
0.375
 40
0.40625
 40
0.4375
 40
0.5
 40
0.5625
 40
0.59375
 40
0.625
 40
0.65625
 40
0.6875
 40
0.71875
 40
0.75
 40
0.78125
 40
0.8125
 40
0.84375
 40
0.875
 40
0.9375
 40
1.0
 40
1.0
 40
1.0
 40
1.0
 10
2.2905671826
 20
-3.7888750939
 30
0.0
 10
2.3023631152
 20
-3.7932800098
 30
0.0
 10
2.3259458324
 20
-3.8019593049
 30
0.0
 10
2.3554699681
 20
-3.8134611073
 30
0.0
 10
2.3783648155
 20
-3.8149338542
 30
0.0
 10
2.3954824593
 20
-3.816579681
 30
0.0
 10
2.4131763009
 20
-3.8199247886
 30
0.0
 10
2.428618843
 20
-3.8159315063
 30
0.0
 10
2.4443514873
 20
-3.8129228132
 30
0.0
 10
2.46015766
 20
-3.809980442
 30
0.0
 10
2.4753796169
 20
-3.8057881941
 30
0.0
 10
2.4884407926
 20
-3.7968043637
 30
0.0
 10
2.5018810773
 20
-3.7887872048
 30
0.0
 10
2.5206605838
 20
-3.7793308553
 30
0.0
 10
2.5367437431
 20
-3.7558447715
 30
0.0
 10
2.5564166012
 20
-3.7373758596
 30
0.0
 10
2.5654061283
 20
-3.7142416972
 30
0.0
 10
2.5728098129
 20
-3.697817519
 30
0.0
 10
2.58094172
 20
-3.6818670829
 30
0.0
 10
2.5854991976
 20
-3.6630952347
 30
0.0
 10
2.5891241692
 20
-3.6435688898
 30
0.0
 10
2.5928025937
 20
-3.6240987425
 30
0.0
 10
2.5971997124
 20
-3.6051583013
 30
0.0
 10
2.5962265095
 20
-3.5822435075
 30
0.0
 10
2.5964791637
 20
-3.5603017712
 30
0.0
 10
2.5974385599
 20
-3.5311556192
 30
0.0
 10
2.5909042333
 20
-3.4914690624
 30
0.0
 10
2.5860987361
 20
-3.4598838074
 30
0.0
 10
2.583643242
 20
-3.444070681
 30
0.0
  0
SPLINE
  5
33C
100
AcDbEntity
  8
0
100
AcDbSpline
 62
7
  6
CONTINUOUS
 70
0
 71
3
 72
95
 73
91
 74
0
 42
0.0000001
 43
0.0000001
 44
0.0000000001
 40
0.0
 40
0.0
 40
0.0
 40
0.0
 40
0.03125
 40
0.0625
 40
0.0703125
 40
0.078125
 40
0.08203125
 40
0.0859375
 40
0.09375
 40
0.109375
 40
0.125
 40
0.140625
 40
0.15625
 40
0.1640625
 40
0.171875
 40
0.1796875
 40
0.1875
 40
0.21875
 40
0.234375
 40
0.2421875
 40
0.25
 40
0.2578125
 40
0.265625
 40
0.28125
 40
0.3125
 40
0.3203125
 40
0.328125
 40
0.33203125
 40
0.3359375
 40
0.34375
 40
0.359375
 40
0.375
 40
0.390625
 40
0.40625
 40
0.4140625
 40
0.41796875
 40
0.421875
 40
0.4296875
 40
0.4375
 40
0.46875
 40
0.484375
 40
0.4921875
 40
0.49609375
 40
0.5
 40
0.50390625
 40
0.5078125
 40
0.515625
 40
0.53125
 40
0.5625
 40
0.5703125
 40
0.578125
 40
0.58203125
 40
0.5859375
 40
0.59375
 40
0.609375
 40
0.625
 40
0.640625
 40
0.65625
 40
0.6640625
 40
0.66796875
 40
0.671875
 40
0.6796875
 40
0.6875
 40
0.71875
 40
0.734375
 40
0.7421875
 40
0.74609375
 40
0.75
 40
0.75390625
 40
0.7578125
 40
0.765625
 40
0.78125
 40
0.8125
 40
0.8203125
 40
0.828125
 40
0.83203125
 40
0.8359375
 40
0.84375
 40
0.859375
 40
0.875
 40
0.890625
 40
0.90625
 40
0.9140625
 40
0.91796875
 40
0.921875
 40
0.9296875
 40
0.9375
 40
0.953125
 40
0.96875
 40
1.0
 40
1.0
 40
1.0
 40
1.0
 10
1.3994469669
 20
1.6930358533
 30
0.0
 10
1.3830425428
 20
1.7470071165
 30
0.0
 10
1.3502786004
 20
1.8549585596
 30
0.0
 10
1.3132170897
 20
1.9763638081
 30
0.0
 10
1.2888041092
 20
2.0573591559
 30
0.0
 10
1.2781970105
 20
2.0910208376
 30
0.0
 10
1.2707259187
 20
2.1181516431
 30
0.0
 10
1.2595444968
 20
2.1445457117
 30
0.0
 10
1.2382509337
 20
2.1903918495
 30
0.0
 10
1.2087480686
 20
2.2560741837
 30
0.0
 10
1.1728906927
 20
2.3347763989
 30
0.0
 10
1.1373826508
 20
2.4136443948
 30
0.0
 10
1.1070064509
 20
2.4789122772
 30
0.0
 10
1.0844176197
 20
2.5321367668
 30
0.0
 10
1.0628113093
 20
2.5692978517
 30
0.0
 10
1.039896537
 20
2.6056842941
 30
0.0
 10
0.9947529152
 20
2.6788702042
 30
0.0
 10
0.9417156172
 20
2.7639538855
 30
0.0
 10
0.8891873546
 20
2.8495758113
 30
0.0
 10
0.8585521079
 20
2.8977855534
 30
0.0
 10
0.8372875239
 20
2.9359402937
 30
0.0
 10
0.8094850845
 20
2.9664638356
 30
0.0
 10
0.7746946182
 20
3.0098217404
 30
0.0
 10
0.7127595399
 20
3.0844788541
 30
0.0
 10
0.6511514717
 20
3.1594691822
 30
0.0
 10
0.5983950789
 20
3.2239034466
 30
0.0
 10
0.5761733249
 20
3.2503309828
 30
0.0
 10
0.5589666862
 20
3.2724655053
 30
0.0
 10
0.5396689284
 20
3.2909661125
 30
0.0
 10
0.5049258136
 20
3.3216522261
 30
0.0
 10
0.455801999
 20
3.3663811371
 30
0.0
 10
0.3966310328
 20
3.4196388629
 30
0.0
 10
0.3375348911
 20
3.4731378888
 30
0.0
 10
0.2882240151
 20
3.5172635494
 30
0.0
 10
0.2538082578
 20
3.5490053511
 30
0.0
 10
0.233986728
 20
3.5658168574
 30
0.0
 10
0.21358101
 20
3.5776336146
 30
0.0
 10
0.1882735636
 20
3.5941129803
 30
0.0
 10
0.1273711259
 20
3.6322468809
 30
0.0
 10
0.0563743467
 20
3.6773179196
 30
0.0
 10
-0.0146466312
 20
3.7218839991
 30
0.0
 10
-0.050154461
 20
3.7445755848
 30
0.0
 10
-0.0704457511
 20
3.7569139777
 30
0.0
 10
-0.0856616734
 20
3.7679357276
 30
0.0
 10
-0.1008872261
 20
3.7721997703
 30
0.0
 10
-0.1211846566
 20
3.780242468
 30
0.0
 10
-0.1567061709
 20
3.793217437
 30
0.0
 10
-0.2277544268
 20
3.8199885341
 30
0.0
 10
-0.2987672753
 20
3.8462316839
 30
0.0
 10
-0.3597075704
 20
3.8692705858
 30
0.0
 10
-0.3849959886
 20
3.878213576
 30
0.0
 10
-0.4054676007
 20
3.8868892163
 30
0.0
 10
-0.4250583997
 20
3.8900051057
 30
0.0
 10
-0.4589326768
 20
3.8928732357
 30
0.0
 10
-0.5075410021
 20
3.8983312321
 30
0.0
 10
-0.5657680654
 20
3.9042574546
 30
0.0
 10
-0.6240604352
 20
3.9105001009
 30
0.0
 10
-0.6725054945
 20
3.915167038
 30
0.0
 10
-0.7066654869
 20
3.9194195216
 30
0.0
 10
-0.7257991414
 20
3.9203204452
 30
0.0
 10
-0.7434781081
 20
3.9154652734
 30
0.0
 10
-0.766074634
 20
3.9113650344
 30
0.0
 10
-0.8198913121
 20
3.8998929792
 30
0.0
 10
-0.8828726196
 20
3.8871680936
 30
0.0
 10
-0.9456314888
 20
3.8738932181
 30
0.0
 10
-0.977227471
 20
3.8676852579
 30
0.0
 10
-0.9949428705
 20
3.8634801747
 30
0.0
 10
-1.0091858918
 20
3.8621766866
 30
0.0
 10
-1.0197727498
 20
3.8538007402
 30
0.0
 10
-1.035163959
 20
3.8450998706
 30
0.0
 10
-1.0615034624
 20
3.8287228342
 30
0.0
 10
-1.11462798
 20
3.7968228767
 30
0.0
 10
-1.1674598832
 20
3.7644002862
 30
0.0
 10
-1.2130531804
 20
3.7371193398
 30
0.0
 10
-1.2316750465
 20
3.7251514092
 30
0.0
 10
-1.2474424772
 20
3.7169681672
 30
0.0
 10
-1.2600304293
 20
3.7037012113
 30
0.0
 10
-1.2805811646
 20
3.6781207846
 30
0.0
 10
-1.3107180133
 20
3.6428206932
 30
0.0
 10
-1.3465233853
 20
3.5998941052
 30
0.0
 10
-1.3825182945
 20
3.5572440302
 30
0.0
 10
-1.4121813003
 20
3.5212526563
 30
0.0
 10
-1.4335612606
 20
3.4968819739
 30
0.0
 10
-1.4448224528
 20
3.4816794272
 30
0.0
 10
-1.4524845694
 20
3.4616714558
 30
0.0
 10
-1.4632945343
 20
3.4383068631
 30
0.0
 10
-1.4799017866
 20
3.4000039856
 30
0.0
 10
-1.5008967619
 20
3.3524403718
 30
0.0
 10
-1.5343562817
 20
3.276161757
 30
0.0
 10
-1.5594807208
 20
3.2189925833
 30
0.0
 10
-1.5762237247
 20
3.1808709591
 30
0.0
  0
SPLINE
  5
33D
100
AcDbEntity
  8
0
100
AcDbSpline
 62
7
  6
CONTINUOUS
 70
0
 71
3
 72
53
 73
49
 74
0
 42
0.0000001
 43
0.0000001
 44
0.0000000001
 40
0.0
 40
0.0
 40
0.0
 40
0.0
 40
0.0625
 40
0.09375
 40
0.125
 40
0.140625
 40
0.15625
 40
0.1875
 40
0.21875
 40
0.25
 40
0.265625
 40
0.28125
 40
0.3125
 40
0.34375
 40
0.375
 40
0.40625
 40
0.421875
 40
0.4296875
 40
0.4375
 40
0.453125
 40
0.46875
 40
0.5
 40
0.53125
 40
0.546875
 40
0.5625
 40
0.5703125
 40
0.578125
 40
0.59375
 40
0.625
 40
0.65625
 40
0.6875
 40
0.703125
 40
0.7109375
 40
0.71484375
 40
0.71875
 40
0.7265625
 40
0.734375
 40
0.75
 40
0.78125
 40
0.8125
 40
0.828125
 40
0.84375
 40
0.859375
 40
0.8671875
 40
0.875
 40
0.90625
 40
0.9375
 40
1.0
 40
1.0
 40
1.0
 40
1.0
 10
4.330180989
 20
6.821659134
 30
0.0
 10
4.3645947544
 20
6.7717107446
 30
0.0
 10
4.4163273878
 20
6.696924329
 30
0.0
 10
4.4848562906
 20
6.5966644336
 30
0.0
 10
4.5286200669
 20
6.5351367378
 30
0.0
 10
4.5615033644
 20
6.4833273768
 30
0.0
 10
4.6021509866
 20
6.4409590421
 30
0.0
 10
4.6519553266
 20
6.3867608151
 30
0.0
 10
4.7121746279
 20
6.3223476689
 30
0.0
 10
4.7621839851
 20
6.2682380379
 30
0.0
 10
4.8023805695
 20
6.225674792
 30
0.0
 10
4.8419594746
 20
6.1805593178
 30
0.0
 10
4.8958293271
 20
6.1424011135
 30
0.0
 10
4.9594400802
 20
6.0923195586
 30
0.0
 10
5.0233395375
 20
6.04346259
 30
0.0
 10
5.0764876297
 20
6.0022429199
 30
0.0
 10
5.1137780429
 20
5.9739150065
 30
0.0
 10
5.134968575
 20
5.9569778194
 30
0.0
 10
5.1573327159
 20
5.9475054854
 30
0.0
 10
5.1848861547
 20
5.9331078312
 30
0.0
 10
5.2291955576
 20
5.9115081934
 30
0.0
 10
5.2845100042
 20
5.8839630261
 30
0.0
 10
5.3398338031
 20
5.8568045775
 30
0.0
 10
5.3841282423
 20
5.83458619
 30
0.0
 10
5.4117190903
 20
5.82173541
 30
0.0
 10
5.4340065424
 20
5.8090919839
 30
0.0
 10
5.4555094408
 20
5.8050711964
 30
0.0
 10
5.4932768023
 20
5.7965278736
 30
0.0
 10
5.54715628
 20
5.7851181992
 30
0.0
 10
5.611852549
 20
5.7710546875
 30
0.0
 10
5.6657283149
 20
5.7595146727
 30
0.0
 10
5.7035028215
 20
5.7512222553
 30
0.0
 10
5.7223077894
 20
5.7473505179
 30
0.0
 10
5.7331857646
 20
5.7446982039
 30
0.0
 10
5.7427357548
 20
5.746461211
 30
0.0
 10
5.7551278638
 20
5.7471534274
 30
0.0
 10
5.7747016326
 20
5.749104204
 30
0.0
 10
5.8090727071
 20
5.752128782
 30
0.0
 10
5.858122585
 20
5.7566241879
 30
0.0
 10
5.9071562743
 20
5.7611627606
 30
0.0
 10
5.9464634041
 20
5.7645503545
 30
0.0
 10
5.9757129294
 20
5.7677949424
 30
0.0
 10
6.0008235331
 20
5.7682538176
 30
0.0
 10
6.0178869105
 20
5.7778482623
 30
0.0
 10
6.0442599917
 20
5.7898667848
 30
0.0
 10
6.0834935336
 20
5.8088891953
 30
0.0
 10
6.1534861356
 20
5.8419622981
 30
0.0
 10
6.2059256685
 20
5.8669346412
 30
0.0
 10
6.2408975612
 20
5.8835456441
 30
0.0
  0
SPLINE
  5
33E
100
AcDbEntity
  8
0
100
AcDbSpline
 62
7
  6
CONTINUOUS
 70
0
 71
3
 72
21
 73
17
 74
0
 42
0.0000001
 43
0.0000001
 44
0.0000000001
 40
0.0
 40
0.0
 40
0.0
 40
0.0
 40
0.125
 40
0.1875
 40
0.25
 40
0.3125
 40
0.375
 40
0.4375
 40
0.5
 40
0.5625
 40
0.625
 40
0.6875
 40
0.75
 40
0.8125
 40
0.875
 40
1.0
 40
1.0
 40
1.0
 40
1.0
 10
-8.1003226505
 20
16.4747858211
 30
0.0
 10
-8.1185246663
 20
16.4652064954
 30
0.0
 10
-8.1459522387
 20
16.4513096361
 30
0.0
 10
-8.1820241407
 20
16.430891974
 30
0.0
 10
-8.2072857289
 20
16.4101889186
 30
0.0
 10
-8.2338901186
 20
16.3917671582
 30
0.0
 10
-8.2569156405
 20
16.3696100265
 30
0.0
 10
-8.2787463281
 20
16.3459869096
 30
0.0
 10
-8.301851469
 20
16.3249000173
 30
0.0
 10
-8.3210536306
 20
16.295134212
 30
0.0
 10
-8.3414995907
 20
16.2679391694
 30
0.0
 10
-8.3608733363
 20
16.2391399889
 30
0.0
 10
-8.3768288983
 20
16.206377662
 30
0.0
 10
-8.3946029228
 20
16.1754541886
 30
0.0
 10
-8.4131607335
 20
16.1296998676
 30
0.0
 10
-8.4260969463
 20
16.0945598465
 30
0.0
 10
-8.4349393427
 20
16.0713163392
 30
0.0
  0
SPLINE
  5
33F
100
AcDbEntity
  8
DEFAULT_1
100
AcDbSpline
 62
250
  6
CENTER
 70
0
 71
3
 72
21
 73
17
 74
0
 42
0.0000001
 43
0.0000001
 44
0.0000000001
 40
0.0
 40
0.0
 40
0.0
 40
0.0
 40
0.125
 40
0.1875
 40
0.25
 40
0.3125
 40
0.375
 40
0.4375
 40
0.5
 40
0.5625
 40
0.625
 40
0.6875
 40
0.75
 40
0.8125
 40
0.875
 40
1.0
 40
1.0
 40
1.0
 40
1.0
 10
-6.9553370592
 20
13.9778786081
 30
0.0
 10
-6.9365727538
 20
13.9863227336
 30
0.0
 10
-6.9083144566
 20
13.9985176862
 30
0.0
 10
-6.8710840831
 20
14.0166625655
 30
0.0
 10
-6.8448139896
 20
14.0356708006
 30
0.0
 10
-6.8172516248
 20
14.052362126
 30
0.0
 10
-6.7932056587
 20
14.0729215144
 30
0.0
 10
-6.7703269304
 20
14.0949876621
 30
0.0
 10
-6.7462331328
 20
14.1144897604
 30
0.0
 10
-6.7258323745
 20
14.1427412971
 30
0.0
 10
-6.7042487157
 20
14.1683964546
 30
0.0
 10
-6.6837036197
 20
14.1956876906
 30
0.0
 10
-6.6665048645
 20
14.2270624366
 30
0.0
 10
-6.6475175671
 20
14.2565299544
 30
0.0
 10
-6.6272782744
 20
14.3005471814
 30
0.0
 10
-6.6130699905
 20
14.3344240312
 30
0.0
 10
-6.6033819822
 20
14.3568166134
 30
0.0
  0
SPLINE
  5
340
100
AcDbEntity
  8
DEFAULT_1
100
AcDbSpline
 62
250
  6
CENTER
 70
0
 71
3
 72
53
 73
49
 74
0
 42
0.0000001
 43
0.0000001
 44
0.0000000001
 40
0.0
 40
0.0
 40
0.0
 40
0.0
 40
0.0625
 40
0.09375
 40
0.125
 40
0.140625
 40
0.15625
 40
0.1875
 40
0.21875
 40
0.25
 40
0.265625
 40
0.28125
 40
0.3125
 40
0.34375
 40
0.375
 40
0.40625
 40
0.421875
 40
0.4296875
 40
0.4375
 40
0.453125
 40
0.46875
 40
0.5
 40
0.53125
 40
0.546875
 40
0.5625
 40
0.5703125
 40
0.578125
 40
0.59375
 40
0.625
 40
0.65625
 40
0.6875
 40
0.703125
 40
0.7109375
 40
0.71484375
 40
0.71875
 40
0.7265625
 40
0.734375
 40
0.75
 40
0.78125
 40
0.8125
 40
0.828125
 40
0.84375
 40
0.859375
 40
0.8671875
 40
0.875
 40
0.90625
 40
0.9375
 40
1.0
 40
1.0
 40
1.0
 40
1.0
 10
6.2413847773
 20
8.2415715012
 30
0.0
 10
6.2073825189
 20
8.2919528157
 30
0.0
 10
6.1562647673
 20
8.3673919213
 30
0.0
 10
6.0885652216
 20
8.4685088604
 30
0.0
 10
6.0452999711
 20
8.5305997284
 30
0.0
 10
6.0128606892
 20
8.5827968822
 30
0.0
 10
5.9724921611
 20
8.6257819734
 30
0.0
 10
5.9230582334
 20
8.6807214052
 30
0.0
 10
5.8632728783
 20
8.746037848
 30
0.0
 10
5.8136315787
 20
8.8008937109
 30
0.0
 10
5.7737192688
 20
8.8440626537
 30
0.0
 10
5.7344601759
 20
8.8897541917
 30
0.0
 10
5.6807362701
 20
8.928843834
 30
0.0
 10
5.6173603773
 20
8.9799934068
 30
0.0
 10
5.5536787759
 20
9.0299324446
 30
0.0
 10
5.5007191418
 20
9.0720484245
 30
0.0
 10
5.4635535746
 20
9.1010089778
 30
0.0
 10
5.4424444376
 20
9.118300344
 30
0.0
 10
5.4200616154
 20
9.1281997414
 30
0.0
 10
5.3925191063
 20
9.1431062635
 30
0.0
 10
5.3482079431
 20
9.1655340738
 30
0.0
 10
5.2928985288
 20
9.1941094229
 30
0.0
 10
5.2375748918
 20
9.2223007086
 30
0.0
 10
5.1932864848
 20
9.2453430203
 30
0.0
 10
5.1656870853
 20
9.2587132891
 30
0.0
 10
5.1434208884
 20
9.2717620057
 30
0.0
 10
5.1218367169
 20
9.2762256569
 30
0.0
 10
5.0839450451
 20
9.2855374285
 30
0.0
 10
5.0298785367
 20
9.2980483176
 30
0.0
 10
4.9649622099
 20
9.3134318202
 30
0.0
 10
4.9109010583
 20
9.3260721426
 30
0.0
 10
4.8729990748
 20
9.3351347551
 30
0.0
 10
4.8541274548
 20
9.3393915378
 30
0.0
 10
4.84321606
 20
9.3422639702
 30
0.0
 10
4.8335858058
 20
9.3407201467
 30
0.0
 10
4.8211094036
 20
9.34030223
 30
0.0
 10
4.8013918193
 20
9.3387901545
 30
0.0
 10
4.7667731985
 20
9.3365333836
 30
0.0
 10
4.7173678256
 20
9.3331348265
 30
0.0
 10
4.6679782029
 20
9.3296930237
 30
0.0
 10
4.6283888644
 20
9.3271830499
 30
0.0
 10
4.5989203314
 20
9.3245961118
 30
0.0
 10
4.5736506677
 20
9.3246870774
 30
0.0
 10
4.5563636708
 20
9.3155251107
 30
0.0
 10
4.5296799457
 20
9.3041572071
 30
0.0
 10
4.4899700499
 20
9.2861099278
 30
0.0
 10
4.4191383724
 20
9.2547709883
 30
0.0
 10
4.3660677833
 20
9.2310991334
 30
0.0
 10
4.3306755753
 20
9.2153551524
 30
0.0
  0
ENDSEC
  0
SECTION
  2
OBJECTS
  0
DICTIONARY
  5
C
100
AcDbDictionary
280
0
281
1
  3
ACAD_GROUP
350
D
  3
ACAD_MLINESTYLE
350
17
  3
ACAD_LAYOUT
350
1A
  3
ACAD_PLOTSETTINGS
350
19
  3
ACAD_PLOTSTYLENAME
350
E
  0
DICTIONARY
  5
D
102
{ACAD_REACTORS
330
C
102
}
100
AcDbDictionary
280
0
281
1
  0
ACDBDICTIONARYWDFLT
  5
E
102
{ACAD_REACTORS
330
C
102
}
100
AcDbDictionary
281
1
  3
Normal
350
F
100
AcDbDictionaryWithDefault
340
F
  0
DICTIONARY
  5
17
102
{ACAD_REACTORS
330
C
102
}
100
AcDbDictionary
280
0
281
1
  3
Standard
350
18
  0
DICTIONARY
  5
19
102
{ACAD_REACTORS
330
C
102
}
100
AcDbDictionary
281
1
  0
DICTIONARY
  5
1A
102
{ACAD_REACTORS
330
C
102
}
100
AcDbDictionary
281
1
  3
Model
350
341
  3
Layout1
350
342
  0
ACDBPLACEHOLDER
  5
F
102
{ACAD_REACTORS
330
E
102
}
  0
MLINESTYLE
  5
18
102
{ACAD_REACTORS
330
17
102
}
100
AcDbMlineStyle
  2
STANDARD
 70
0
  3

 62
256
 51
90.0
 52
90.0
 71
2
 49
0.5
 62
256
  6
BYLAYER
 49
-0.5
 62
256
  6
BYLAYER
  0
LAYOUT
  5
341
102
{ACAD_REACTORS
330
1A
102
}
100
AcDbPlotSettings
  1

  2
none_device
  4
ISO_A4_(297.00_x_210.00_MM)
  6

 40
0.0
 41
0.0
 42
0.0
 43
0.0
 44
297.0
 45
210.0
 46
0.0
 47
0.0
 48
0.0
 49
0.0
140
0.0
141
0.0
142
1.0
143
1.0
 70
1024
 72
1
 73
0
 74
0
  7

 75
0
147
1.0
148
0.0
149
0.0
100
AcDbLayout
  1
Model
 70
0
 71
0
 10
0.0
 20
0.0
 11
297.0
 21
210.0
 12
0.0
 22
0.0
 32
0.0
 14
0.0
 24
0.0
 34
0.0
 15
0.0
 25
0.0
 35
0.0
146
0.0
 13
0.0
 23
0.0
 33
0.0
 16
1.0
 26
0.0
 36
0.0
 17
0.0
 27
1.0
 37
0.0
 76
0
330
217
345
0
346
0
  0
LAYOUT
  5
342
102
{ACAD_REACTORS
330
1A
102
}
100
AcDbPlotSettings
  1

  2
none_device
  4
ISO_A4_(297.00_x_210.00_MM)
  6

 40
0.0
 41
0.0
 42
0.0
 43
0.0
 44
297.0
 45
210.0
 46
0.0
 47
0.0
 48
0.0
 49
0.0
140
0.0
141
0.0
142
1.0
143
1.0
 70
0
 72
1
 73
0
 74
0
  7

 75
0
147
1.0
148
0.0
149
0.0
100
AcDbLayout
  1
Layout1
 70
0
 71
1
 10
0.0
 20
0.0
 11
297.0
 21
210.0
 12
0.0
 22
0.0
 32
0.0
 14
0.0
 24
0.0
 34
0.0
 15
0.0
 25
0.0
 35
0.0
146
0.0
 13
0.0
 23
0.0
 33
0.0
 16
1.0
 26
0.0
 36
0.0
 17
0.0
 27
1.0
 37
0.0
 76
0
330
218
345
0
346
0
  0
ENDSEC
  0
EOF
