  0
SECTION
  2
HEADER
  9
$ACADVER
  1
AC1024
  9
$DWGCODEPAGE
  3
ANSI_1252
  9
$EXTMAX
 10
297.0
 20
210.0
 30
0.0
  9
$EXTMIN
 10
0.0
 20
0.0
 30
0.0
  9
$LIMMIN
 10
0.0
 20
0.0
  9
$LIMMAX
 10
297.0
 20
210.0
  9
$VIEWCTR
 10
148.5
 20
105.0
  9
$VIEWSIZE
 40
210.0
  9
$CLAYER
  8
0
  9
$LTSCALE
 40
16.335
  9
$CELTYPE
  6
BYLAYER
  9
$DIMSCALE
 40
1.0
  9
$DIMASZ
 40
3.0
  9
$DIMEXO
 40
0.5
  9
$DIMDLI
 40
11.286
  9
$DIMEXE
 40
1.5
  9
$DIMCEN
 40
2.673
  9
$DIMLFAC
 40
1.0
  9
$DIMBLK
  1
_FILLED
  9
$DIMALT
 70
0
  9
$DIMALTF
 40
0.0393700787
  9
$DIMTXT
 40
3.0
  9
$DIMTOL
 70
1
  9
$DIMLIM
 70
0
  9
$DIMTFAC
 40
1.0
  9
$DIMTP
 40
0.01
  9
$DIMTM
 40
0.01
  9
$DIMGAP
 40
0.625
  9
$DIMDSEP
 70
44
  9
$AUNITS
 70
0
  9
$PDMODE
 70
3
  9
$PDSIZE
 40
3.0
  9
$HANDSEED
  5
329
  9
$TILEMODE
 70
1
  9
$MEASUREMENT
 70
1
  9
$INSUNITS
 70
4
  0
ENDSEC
  0
SECTION
  2
CLASSES
  0
CLASS
  1
ACDBDICTIONARYWDFLT
  2
AcDbDictionaryWithDefault
  3
AutoCAD 2000
 90
0
 91
1
280
0
281
0
  0
CLASS
  1
ACDBPLACEHOLDER
  2
AcDbPlaceHolder
  3
AutoCAD 2000
 90
0
 91
1
280
0
281
0
  0
CLASS
  1
LAYOUT
  2
AcDbLayout
  3
AutoCAD 2000
 90
0
 91
0
280
0
281
0
  0
ENDSEC
  0
SECTION
  2
TABLES
  0
TABLE
  2
VPORT
  5
8
100
AcDbSymbolTable
 70
2
  0
VPORT
  5
1F4
100
AcDbSymbolTableRecord
100
AcDbViewportTableRecord
  2
*ACTIVE
 70
0
 10
0.0
 20
0.0
 11
1.0
 21
1.0
 12
148.5
 22
105.0
 13
0.0
 23
0.0
 14
1.0
 24
1.0
 15
0.0
 25
0.0
 16
0.0
 26
0.0
 36
1.0
 17
0.0
 27
0.0
 37
0.0
 40
210.0
 41
1.4142857143
 42
50.0
 43
0.0
 44
0.0
 50
0.0
 51
0.0
 71
0
 72
100
 73
1
 74
1
 75
0
 76
0
 77
0
 78
0
  0
ENDTAB
  0
TABLE
  2
LTYPE
  5
5
100
AcDbSymbolTable
 70
6
  0
LTYPE
  5
14
100
AcDbSymbolTableRecord
100
AcDbLinetypeTableRecord
  2
BYBLOCK
 70
0
  3

 72
65
 73
0
 40
0.0
  0
LTYPE
  5
15
100
AcDbSymbolTableRecord
100
AcDbLinetypeTableRecord
  2
BYLAYER
 70
0
  3

 72
65
 73
0
 40
0.0
  0
LTYPE
  5
16
100
AcDbSymbolTableRecord
100
AcDbLinetypeTableRecord
  2
CONTINUOUS
 70
64
  3
Solid line
 72
65
 73
0
 40
0.0
  0
LTYPE
  5
1F5
100
AcDbSymbolTableRecord
100
AcDbLinetypeTableRecord
  2
CENTER
 70
64
  3
____ _ ____ _ ____ _ ____ _ ____ _ ____ _ ____
 72
65
 73
4
 40
0.6
 49
0.375
 74
0
 49
-0.075
 74
0
 49
0.075
 74
0
 49
-0.075
 74
0
  0
LTYPE
  5
1F6
100
AcDbSymbolTableRecord
100
AcDbLinetypeTableRecord
  2
HIDDEN
 70
64
  3
- - - - - - - - - - - - - - - - - - - -
 72
65
 73
2
 40
0.2
 49
0.1
 74
0
 49
-0.1
 74
0
  0
LTYPE
  5
1F7
100
AcDbSymbolTableRecord
100
AcDbLinetypeTableRecord
  2
PHANTOM
 70
64
  3
_____ _ _ _____ _ _ _____ _ _ _____
 72
65
 73
6
 40
0.8
 49
0.45
 74
0
 49
-0.05
 74
0
 49
0.1
 74
0
 49
-0.05
 74
0
 49
0.1
 74
0
 49
-0.05
 74
0
  0
LTYPE
  5
1F8
100
AcDbSymbolTableRecord
100
AcDbLinetypeTableRecord
  2
DOT
 70
64
  3
. . . . . . . . . . . . . . . . . . . .
 72
65
 73
2
 40
0.2
 49
0.1
 74
0
 49
-0.1
 74
0
  0
LTYPE
  5
1F9
100
AcDbSymbolTableRecord
100
AcDbLinetypeTableRecord
  2
DASHED
 70
64
  3
- - - - - - - - - - - - - - - - - - - -
 72
65
 73
2
 40
0.2
 49
0.1
 74
0
 49
-0.1
 74
0
  0
ENDTAB
  0
TABLE
  2
LAYER
  5
2
100
AcDbSymbolTable
 70
36
  0
LAYER
  5
10
100
AcDbSymbolTableRecord
100
AcDbLayerTableRecord
  2
0
 70
0
 62
7
  6
CONTINUOUS
370
-3
390
F
  0
LAYER
  5
1FA
100
AcDbSymbolTableRecord
100
AcDbLayerTableRecord
  2
DEFAULT_1
 70
0
 62
7
  6
CENTER
370
-3
390
F
  0
LAYER
  5
1FB
100
AcDbSymbolTableRecord
100
AcDbLayerTableRecord
  2
DEFAULT_2
 70
0
 62
7
  6
HIDDEN
370
-3
390
F
  0
LAYER
  5
1FC
100
AcDbSymbolTableRecord
100
AcDbLayerTableRecord
  2
DEFAULT_3
 70
0
 62
7
  6
PHANTOM
370
-3
390
F
  0
LAYER
  5
1FD
100
AcDbSymbolTableRecord
100
AcDbLayerTableRecord
  2
0805_R_REF_60000
 70
0
 62
7
  6
CONTINUOUS
370
-3
390
F
  0
LAYER
  5
1FE
100
AcDbSymbolTableRecord
100
AcDbLayerTableRecord
  2
0805_R_REF_60000_1
 70
0
 62
7
  6
CONTINUOUS
370
-3
390
F
  0
LAYER
  5
1FF
100
AcDbSymbolTableRecord
100
AcDbLayerTableRecord
  2
0805_R_REF_60000_2
 70
0
 62
7
  6
CONTINUOUS
370
-3
390
F
  0
LAYER
  5
200
100
AcDbSymbolTableRecord
100
AcDbLayerTableRecord
  2
0805_R_REF_60000_3
 70
0
 62
7
  6
CONTINUOUS
370
-3
390
F
  0
LAYER
  5
201
100
AcDbSymbolTableRecord
100
AcDbLayerTableRecord
  2
43001010B0
 70
0
 62
7
  6
CONTINUOUS
370
-3
390
F
  0
LAYER
  5
202
100
AcDbSymbolTableRecord
100
AcDbLayerTableRecord
  2
ASSI
 70
0
 62
7
  6
CONTINUOUS
370
-3
390
F
  0
LAYER
  5
203
100
AcDbSymbolTableRecord
100
AcDbLayerTableRecord
  2
COLOR2
 70
0
 62
7
  6
CONTINUOUS
370
-3
390
F
  0
LAYER
  5
204
100
AcDbSymbolTableRecord
100
AcDbLayerTableRecord
  2
COORDINATE
 70
0
 62
7
  6
CONTINUOUS
370
-3
390
F
  0
LAYER
  5
205
100
AcDbSymbolTableRecord
100
AcDbLayerTableRecord
  2
COPY_PUBLISH
 70
0
 62
7
  6
CONTINUOUS
370
-3
390
F
  0
LAYER
  5
206
100
AcDbSymbolTableRecord
100
AcDbLayerTableRecord
  2
COSMETICI
 70
0
 62
7
  6
CONTINUOUS
370
-3
390
F
  0
LAYER
  5
207
100
AcDbSymbolTableRecord
100
AcDbLayerTableRecord
  2
CURVE
 70
0
 62
7
  6
CONTINUOUS
370
-3
390
F
  0
LAYER
  5
208
100
AcDbSymbolTableRecord
100
AcDbLayerTableRecord
  2
DRAFT
 70
0
 62
7
  6
CONTINUOUS
370
-3
390
F
  0
LAYER
  5
209
100
AcDbSymbolTableRecord
100
AcDbLayerTableRecord
  2
FIDUCIAL_1MM_0
 70
0
 62
7
  6
CONTINUOUS
370
-3
390
F
  0
LAYER
  5
20A
100
AcDbSymbolTableRecord
100
AcDbLayerTableRecord
  2
IMPORT_IGES
 70
0
 62
7
  6
CONTINUOUS
370
-3
390
F
  0
LAYER
  5
20B
100
AcDbSymbolTableRecord
100
AcDbLayerTableRecord
  2
NOTE
 70
0
 62
7
  6
CONTINUOUS
370
-3
390
F
  0
LAYER
  5
20C
100
AcDbSymbolTableRecord
100
AcDbLayerTableRecord
  2
PIANI
 70
0
 62
7
  6
CONTINUOUS
370
-3
390
F
  0
LAYER
  5
20D
100
AcDbSymbolTableRecord
100
AcDbLayerTableRecord
  2
PUNTI
 70
0
 62
7
  6
CONTINUOUS
370
-3
390
F
  0
LAYER
  5
20E
100
AcDbSymbolTableRecord
100
AcDbLayerTableRecord
  2
RACCORDO
 70
0
 62
7
  6
CONTINUOUS
370
-3
390
F
  0
LAYER
  5
20F
100
AcDbSymbolTableRecord
100
AcDbLayerTableRecord
  2
SIMBOLI
 70
0
 62
7
  6
CONTINUOUS
370
-3
390
F
  0
LAYER
  5
210
100
AcDbSymbolTableRecord
100
AcDbLayerTableRecord
  2
SMUSSO
 70
0
 62
7
  6
CONTINUOUS
370
-3
390
F
  0
LAYER
  5
211
100
AcDbSymbolTableRecord
100
AcDbLayerTableRecord
  2
SOT323_H1_1_REF_110000
 70
0
 62
7
  6
CONTINUOUS
370
-3
390
F
  0
LAYER
  5
212
100
AcDbSymbolTableRecord
100
AcDbLayerTableRecord
  2
SOT323_H1_1_REF_110000_1
 70
0
 62
7
  6
CONTINUOUS
370
-3
390
F
  0
LAYER
  5
213
100
AcDbSymbolTableRecord
100
AcDbLayerTableRecord
  2
SUPERFICI
 70
0
 62
7
  6
CONTINUOUS
370
-3
390
F
  0
LAYER
  5
214
100
AcDbSymbolTableRecord
100
AcDbLayerTableRecord
  2
TRASH
 70
0
 62
7
  6
CONTINUOUS
370
-3
390
F
  0
LAYER
  5
215
100
AcDbSymbolTableRecord
100
AcDbLayerTableRecord
  2
VG_LED-SMT-1_6-0_75-1_0_100000
 70
0
 62
7
  6
CONTINUOUS
370
-3
390
F
  0
LAYER
  5
216
100
AcDbSymbolTableRecord
100
AcDbLayerTableRecord
  2
___SHELL
 70
0
 62
7
  6
CONTINUOUS
370
-3
390
F
  0
ENDTAB
  0
TABLE
  2
STYLE
  5
3
100
AcDbSymbolTable
 70
1
  0
STYLE
  5
11
100
AcDbSymbolTableRecord
100
AcDbTextStyleTableRecord
  2
STANDARD
 70
0
 40
0.0
 41
0.8
 50
0.0
 71
0
 42
0.2
  3
txt
  4

  0
STYLE
  5
217
100
AcDbSymbolTableRecord
100
AcDbTextStyleTableRecord
  2
TEXTSTYLE_1
 70
0
 40
0.0
 41
0.8
 50
0.0
 71
0
 42
0.2
  3
gdt
  4

  0
ENDTAB
  0
TABLE
  2
VIEW
  5
6
100
AcDbSymbolTable
 70
0
  0
ENDTAB
  0
TABLE
  2
UCS
  5
7
100
AcDbSymbolTable
 70
0
  0
ENDTAB
  0
TABLE
  2
APPID
  5
9
100
AcDbSymbolTable
 70
1
  0
APPID
  5
218
100
AcDbSymbolTableRecord
100
AcDbRegAppTableRecord
  2
ACAD
 70
0
  0
ENDTAB
  0
TABLE
  2
BLOCK_RECORD
  5
1
100
AcDbSymbolTable
 70
0
  0
BLOCK_RECORD
  5
219
100
AcDbSymbolTableRecord
100
AcDbBlockTableRecord
  2
*Model_Space
  0
BLOCK_RECORD
  5
21A
100
AcDbSymbolTableRecord
100
AcDbBlockTableRecord
  2
*Paper_Space
  0
BLOCK_RECORD
  5
21B
100
AcDbSymbolTableRecord
100
AcDbBlockTableRecord
  2
_FILLED
  0
ENDTAB
  0
TABLE
  2
DIMSTYLE
  5
A
100
AcDbSymbolTable
 70
1
100
AcDbDimStyleTable
 71
0
  0
DIMSTYLE
105
21C
100
AcDbSymbolTableRecord
100
AcDbDimStyleTableRecord
  2
STANDARD
 70
0
  3

  4

 40
1.0
 41
3.0
 42
0.5
 43
0.38
 44
1.5
 45
0.0
 46
0.0
 47
0.01
 48
0.01
140
3.0
141
0.09
142
0.0
143
25.4
144
1.0
145
0.0
146
1.0
147
0.625
 71
1
 72
0
 73
0
 74
0
 75
0
 76
0
 77
1
 78
8
 79
2
170
0
171
1
172
0
173
0
174
0
175
0
176
0
177
0
178
0
270
2
179
2
271
2
272
2
273
2
274
2
275
0
280
0
281
0
282
0
283
1
284
8
285
0
286
0
287
3
288
0
340
11
278
44
341
21B
342
21B
343
21B
344
21B
  0
ENDTAB
  0
ENDSEC
  0
SECTION
  2
BLOCKS
  0
BLOCK
  5
20
100
AcDbEntity
  8
0
100
AcDbBlockBegin
  2
*Model_Space
 70
0
 10
0.0
 20
0.0
 30
0.0
  3
*Model_Space
  1

  0
ENDBLK
  5
21
100
AcDbEntity
  8
0
100
AcDbBlockEnd
  0
BLOCK
  5
1C
100
AcDbEntity
  8
0
100
AcDbBlockBegin
  2
*Paper_Space
 70
0
 10
0.0
 20
0.0
 30
0.0
  3
*Paper_Space
  1

  0
ENDBLK
  5
1D
100
AcDbEntity
  8
0
100
AcDbBlockEnd
  0
BLOCK
  5
21D
100
AcDbEntity
  8
0
100
AcDbBlockBegin
  2
_FILLED
 70
64
 10
0.0
 20
0.0
  3
_FILLED
  1

  0
SOLID
  5
21E
100
AcDbEntity
  8
0
  6
BYBLOCK
 62
0
100
AcDbTrace
 10
0.0
 20
0.0
 11
-1.0
 21
0.3166666667
 12
-1.0
 22
-0.3166666667
 13
-1.0
 23
-0.3166666667
  0
ENDBLK
  5
21F
100
AcDbEntity
  8
0
  6
BYBLOCK
 62
0
100
AcDbBlockEnd
  0
ENDSEC
  0
SECTION
  2
ENTITIES
  0
LWPOLYLINE
  5
220
100
AcDbEntity
  8
RACCORDO
100
AcDbPolyline
 62
250
  6
CONTINUOUS
 90
6
 70
0
 10
-70.202012192
 20
139.0957427052
 10
-70.1958491228
 20
139.0986480729
 10
-70.1807448125
 20
139.1021258028
 10
-70.164067805
 20
139.1014289905
 10
-70.1463247708
 20
139.0965788004
 10
-70.1280547715
 20
139.0877225826
  0
LINE
  5
221
100
AcDbEntity
  8
RACCORDO
100
AcDbLine
 62
7
  6
CONTINUOUS
 10
-71.3022327007
 20
138.1276619921
 11
-70.3095698299
 21
138.7997551912
  0
LINE
  5
222
100
AcDbEntity
  8
RACCORDO
100
AcDbLine
 62
250
  6
CONTINUOUS
 10
-71.1451744934
 20
138.1164530837
 11
-70.1233427472
 21
138.8082953873
  0
LWPOLYLINE
  5
223
100
AcDbEntity
  8
RACCORDO
100
AcDbPolyline
 62
7
  6
CONTINUOUS
 90
8
 70
0
 10
-70.3095161866
 20
138.7996262016
 10
-70.2948720698
 20
138.8088475296
 10
-70.2665588189
 20
138.8218759998
 10
-70.2372114857
 20
138.8295946246
 10
-70.2080901991
 20
138.8320874692
 10
-70.1796150019
 20
138.8293825554
 10
-70.1513658513
 20
138.8214518615
 10
-70.1233427472
 20
138.8082953873
  0
LWPOLYLINE
  5
224
100
AcDbEntity
  8
0
100
AcDbPolyline
 62
7
  6
CONTINUOUS
 90
6
 70
0
 10
-70.460411097
 20
138.9514433642
 10
-70.4686237497
 20
138.9464973498
 10
-70.4865453631
 20
138.9318308662
 10
-70.5020525466
 20
138.9130759798
 10
-70.515751422
 20
138.8900931387
 10
-70.5276419894
 20
138.862882343
  0
LINE
  5
225
100
AcDbEntity
  8
RACCORDO
100
AcDbLine
 62
7
  6
CONTINUOUS
 10
-70.202012192
 20
139.0957427052
 11
-70.4604862934
 21
138.9516672597
  0
LINE
  5
226
100
AcDbEntity
  8
RACCORDO
100
AcDbLine
 62
250
  6
CONTINUOUS
 10
-70.1281133371
 20
139.0876899377
 11
-70.3718930851
 21
138.9518052374
  0
LWPOLYLINE
  5
227
100
AcDbEntity
  8
RACCORDO
100
AcDbPolyline
 62
250
  6
CONTINUOUS
 90
16
 70
0
 10
-70.1281133371
 20
139.0876899377
 10
-70.1180213908
 20
139.0931644986
 10
-70.1080011227
 20
139.0983894563
 10
-70.0980525328
 20
139.1033648109
 10
-70.0881678465
 20
139.1080823763
 10
-70.0783548383
 20
139.1125503386
 10
-70.0686368317
 20
139.1167932557
 10
-70.0590151225
 20
139.1208133276
 10
-70.0494884149
 20
139.1246083544
 10
-70.0400761455
 20
139.1281962943
 10
-70.0307802324
 20
139.1315781614
 10
-70.0215987574
 20
139.1347529416
 10
-70.0125454021
 20
139.1377355503
 10
-70.0036173335
 20
139.1405277425
 10
-69.9948173846
 20
139.1431277633
 10
-69.9861677366
 20
139.1455452633
  0
LWPOLYLINE
  5
228
100
AcDbEntity
  8
RACCORDO
100
AcDbPolyline
 62
250
  6
CONTINUOUS
 90
6
 70
0
 10
-69.2921308523
 20
139.1178222718
 10
-69.2879885785
 20
139.1198748149
 10
-69.2842005822
 20
139.1210575087
 10
-69.2807807399
 20
139.1214090427
 10
-69.2777800596
 20
139.1209854933
 10
-69.2754927507
 20
139.120023743
  0
LWPOLYLINE
  5
229
100
AcDbEntity
  8
RACCORDO
100
AcDbPolyline
 62
7
  6
CONTINUOUS
 90
6
 70
0
 10
-71.1058411695
 20
137.6410211271
 10
-71.0970734192
 20
137.6452547744
 10
-71.077200233
 20
137.6500860724
 10
-71.0557354762
 20
137.6491951081
 10
-71.0321654805
 20
137.6428783993
 10
-71.0064902461
 20
137.6311359462
  0
LWPOLYLINE
  5
22A
100
AcDbEntity
  8
RACCORDO
100
AcDbPolyline
 62
7
  6
CONTINUOUS
 90
7
 70
0
 10
-71.3022211759
 20
138.1276431695
 10
-71.3141974055
 20
138.1180092086
 10
-71.3298216531
 20
138.1000708736
 10
-71.342118518
 20
138.0786457815
 10
-71.3508326596
 20
138.0540373197
 10
-71.3562194185
 20
138.0259421009
 10
-71.3582787947
 20
137.9943601251
  0
LWPOLYLINE
  5
22B
100
AcDbEntity
  8
RACCORDO
100
AcDbPolyline
 62
7
  6
CONTINUOUS
 90
7
 70
0
 10
-71.0596905959
 20
137.5595020098
 10
-71.0758835678
 20
137.547601097
 10
-71.0888722846
 20
137.532655057
 10
-71.0990985339
 20
137.5147923894
 10
-71.1063462831
 20
137.4942616167
 10
-71.1108315646
 20
137.4708142166
 10
-71.1125543786
 20
137.444450189
  0
LINE
  5
22C
100
AcDbEntity
  8
RACCORDO
100
AcDbLine
 62
7
  6
CONTINUOUS
 10
-71.1148413666
 20
137.6349977319
 11
-71.1058411695
 21
137.6410211271
  0
LINE
  5
22D
100
AcDbEntity
  8
RACCORDO
100
AcDbLine
 62
250
  6
CONTINUOUS
 10
-71.1479097176
 20
137.5494972136
 11
-71.0058274519
 21
137.6299656577
  0
LINE
  5
22E
100
AcDbEntity
  8
RACCORDO
100
AcDbLine
 62
7
  6
CONTINUOUS
 10
-70.9694981636
 20
137.6097771814
 11
-71.0596911229
 21
137.5595029345
  0
LINE
  5
22F
100
AcDbEntity
  8
RACCORDO
100
AcDbLine
 62
250
  6
CONTINUOUS
 10
-70.897172986
 20
137.5680175303
 11
-70.9357844144
 21
137.5464952241
  0
LINE
  5
230
100
AcDbEntity
  8
0
100
AcDbLine
 62
7
  6
CONTINUOUS
 10
-69.8217508457
 20
112.6977016922
 11
-69.3930671727
 21
112.545798876
  0
LINE
  5
231
100
AcDbEntity
  8
0
100
AcDbLine
 62
7
  6
CONTINUOUS
 10
-67.2191744106
 20
111.3108409932
 11
-66.1468771115
 21
110.8362178569
  0
LINE
  5
232
100
AcDbEntity
  8
0
100
AcDbLine
 62
7
  6
CONTINUOUS
 10
-71.6075291254
 20
135.8029785566
 11
-71.3582787947
 21
135.9493825781
  0
LINE
  5
233
100
AcDbEntity
  8
0
100
AcDbLine
 62
7
  6
CONTINUOUS
 10
-69.3930671727
 20
112.545798876
 11
-68.6217508457
 21
112.1142814851
  0
LINE
  5
234
100
AcDbEntity
  8
0
100
AcDbLine
 62
7
  6
CONTINUOUS
 10
-67.3468771115
 20
111.3845028026
 11
-67.2191744106
 21
111.3108409932
  0
LINE
  5
235
100
AcDbEntity
  8
RACCORDO
100
AcDbLine
 62
250
  6
CONTINUOUS
 10
-67.220872345
 20
135.445367615
 11
-67.25881569
 21
135.4234595659
  0
LWPOLYLINE
  5
236
100
AcDbEntity
  8
RACCORDO
100
AcDbPolyline
 62
7
  6
CONTINUOUS
 90
3
 70
0
 10
-71.1389248631
 20
137.6011715943
 10
-71.1289630707
 20
137.6202044992
 10
-71.1148413666
 20
137.6349977319
  0
LWPOLYLINE
  5
237
100
AcDbEntity
  8
RACCORDO
100
AcDbPolyline
 62
250
  6
CONTINUOUS
 90
10
 70
0
 10
-65.1604449865
 20
136.5205389282
 10
-65.1653598472
 20
136.5171980935
 10
-65.1705928836
 20
136.5129425466
 10
-65.1760818494
 20
136.5078338919
 10
-65.1817484746
 20
136.5019347138
 10
-65.1875592418
 20
136.4953127347
 10
-65.1935274006
 20
136.4880302997
 10
-65.1996302998
 20
136.480142587
 10
-65.2058074216
 20
136.4717070613
 10
-65.2120224362
 20
136.462780973
  0
LWPOLYLINE
  5
238
100
AcDbEntity
  8
RACCORDO
100
AcDbPolyline
 62
250
  6
CONTINUOUS
 90
28
 70
0
 10
-65.3434703528
 20
136.3251796967
 10
-65.3339802291
 20
136.3308085641
 10
-65.3249105213
 20
136.3364018869
 10
-65.3162612294
 20
136.3419596652
 10
-65.3080441393
 20
136.3474875372
 10
-65.300247465
 20
136.3529798646
 10
-65.2928358489
 20
136.3584197327
 10
-65.2858077073
 20
136.3638052441
 10
-65.279164624
 20
136.3691382961
 10
-65.272875993
 20
136.3744076664
 10
-65.2669396848
 20
136.3796128947
 10
-65.2613578291
 20
136.3847544413
 10
-65.2561062081
 20
136.3898224652
 10
-65.2511837214
 20
136.3948164605
 10
-65.2465914696
 20
136.3997369331
 10
-65.2423085368
 20
136.4045755587
 10
-65.2383442829
 20
136.4093139819
 10
-65.234689348
 20
136.4139705581
 10
-65.231294737
 20
136.4185920294
 10
-65.2281566147
 20
136.4231548798
 10
-65.2252788163
 20
136.4276826253
 10
-65.2226238518
 20
136.4322925553
 10
-65.2201523143
 20
136.436991545
 10
-65.2179036109
 20
136.4417727191
 10
-65.2159584731
 20
136.4467327413
 10
-65.2143438115
 20
136.4519038329
 10
-65.2130327156
 20
136.4572537725
 10
-65.2120251853
 20
136.4627825602
  0
LINE
  5
239
100
AcDbEntity
  8
RACCORDO
100
AcDbLine
 62
250
  6
CONTINUOUS
 10
-65.3434703528
 20
136.3251796967
 11
-66.6931329575
 21
135.545900098
  0
LINE
  5
23A
100
AcDbEntity
  8
RACCORDO
100
AcDbLine
 62
250
  6
CONTINUOUS
 10
-67.0466903868
 20
135.1376987714
 11
-67.0820457258
 21
135.117285007
  0
LINE
  5
23B
100
AcDbEntity
  8
RACCORDO
100
AcDbLine
 62
250
  6
CONTINUOUS
 10
-65.2374223965
 20
136.1414668651
 11
-66.587070979
 21
135.3621953627
  0
LINE
  5
23C
100
AcDbEntity
  8
0
100
AcDbLine
 62
7
  6
CONTINUOUS
 10
-70.5276419894
 20
138.862882343
 11
-70.6175211071
 21
138.5912534278
  0
LWPOLYLINE
  5
23D
100
AcDbEntity
  8
RACCORDO
100
AcDbPolyline
 62
250
  6
CONTINUOUS
 90
6
 70
0
 10
-64.5183924039
 20
136.0803778061
 10
-64.5018435617
 20
136.0919575797
 10
-64.4890067679
 20
136.1050134952
 10
-64.4802677657
 20
136.1191532477
 10
-64.4758891681
 20
136.1339519654
 10
-64.4753799945
 20
136.1410339706
  0
LWPOLYLINE
  5
23E
100
AcDbEntity
  8
ASSI
100
AcDbPolyline
 62
7
  6
CONTINUOUS
 90
26
 70
0
 10
-70.0969831495
 20
132.0120369215
 10
-70.16609135
 20
131.966258641
 10
-70.2489059905
 20
131.892193836
 10
-70.3220998405
 20
131.8029482996
 10
-70.3837139568
 20
131.7009105786
 10
-70.4334356322
 20
131.5857352242
 10
-70.4715775739
 20
131.4577676853
 10
-70.4971189596
 20
131.3204328555
 10
-70.5097195155
 20
131.1734777739
 10
-70.5097195155
 20
131.0171554015
 10
-70.4971189596
 20
130.8556495139
 10
-70.4715775739
 20
130.688820132
 10
-70.4334356322
 20
130.5168072349
 10
-70.3837139568
 20
130.344214536
 10
-70.3220998405
 20
130.1710263781
 10
-70.2489059905
 20
129.9972584183
 10
-70.16609135
 20
129.8275613422
 10
-70.0733961126
 20
129.6620450828
 10
-69.9710800846
 20
129.500599707
 10
-69.8618816286
 20
129.3475461015
 10
-69.7456148868
 20
129.2031108836
 10
-69.622465717
 20
129.0670674359
 10
-69.495730055
 20
128.943056794
 10
-69.3665065462
 20
128.8322926362
 10
-69.2336965453
 20
128.7335612842
 10
-69.0973000522
 20
128.6468627378
  0
LWPOLYLINE
  5
23F
100
AcDbEntity
  8
ASSI
100
AcDbPolyline
 62
7
  6
CONTINUOUS
 90
22
 70
0
 10
-70.1000015016
 20
131.9818787541
 10
-70.1801316893
 20
131.8851965449
 10
-70.2478180201
 20
131.7708901076
 10
-70.3008757199
 20
131.6426490167
 10
-70.3388274711
 20
131.5000185985
 10
-70.3621505912
 20
131.3434535267
 10
-70.3700922583
 20
131.1780073967
 10
-70.3621505912
 20
131.0033904285
 10
-70.3388274711
 20
130.8198924022
 10
-70.3008757199
 20
130.633436253
 10
-70.2478180201
 20
130.4439254604
 10
-70.1801316893
 20
130.2514565449
 10
-70.1000015016
 20
130.0622420035
 10
-70.0070214265
 20
129.8763880232
 10
-69.9015974946
 20
129.693788417
 10
-69.7871325715
 20
129.5203371211
 10
-69.6633316587
 20
129.3563326356
 10
-69.5304897548
 20
129.2014764604
 10
-69.3928947204
 20
129.0607670312
 10
-69.2519758426
 20
128.9358704935
 10
-69.1063038345
 20
128.8251207019
 10
-68.955878696
 20
128.7285176565
  0
LWPOLYLINE
  5
240
100
AcDbEntity
  8
RACCORDO
100
AcDbPolyline
 62
250
  6
CONTINUOUS
 90
28
 70
0
 10
-65.2374237633
 20
136.1414669812
 10
-65.2256541219
 20
136.1532930251
 10
-65.2145858375
 20
136.1650987938
 10
-65.2042003387
 20
136.1768478819
 10
-65.1944829427
 20
136.1884895947
 10
-65.1854068122
 20
136.2000098856
 10
-65.1769387691
 20
136.2114329116
 10
-65.1690614569
 20
136.2227384651
 10
-65.1617577813
 20
136.2338998418
 10
-65.1550028727
 20
136.2449364363
 10
-65.1487811785
 20
136.2558340937
 10
-65.1430784745
 20
136.2665716372
 10
-65.1378774945
 20
136.2771606781
 10
-65.1331650326
 20
136.2875893084
 10
-65.1289275276
 20
136.2978422613
 10
-65.1251510199
 20
136.3079276382
 10
-65.1218335999
 20
136.3177968486
 10
-65.1189505823
 20
136.3274780743
 10
-65.1164667142
 20
136.3370925188
 10
-65.1143811384
 20
136.346570352
 10
-65.1126884041
 20
136.35595853
 10
-65.1113828697
 20
136.3655392112
 10
-65.1104645669
 20
136.3752770528
 10
-65.1099796796
 20
136.3851543564
 10
-65.1100464385
 20
136.3954476201
 10
-65.1107531275
 20
136.4062015876
 10
-65.1121248097
 20
136.4172476095
 10
-65.1142144824
 20
136.4285129186
  0
LINE
  5
241
100
AcDbEntity
  8
ASSI
100
AcDbLine
 62
7
  6
CONTINUOUS
 10
-70.0249416968
 20
132.0452354751
 11
-70.1000015016
 21
131.9818787541
  0
LWPOLYLINE
  5
242
100
AcDbEntity
  8
RACCORDO
100
AcDbPolyline
 62
250
  6
CONTINUOUS
 90
6
 70
0
 10
-64.520389221
 20
136.2344987377
 10
-64.5102843695
 20
136.2429493671
 10
-64.5029168737
 20
136.2508982836
 10
-64.4984436542
 20
136.2581768311
 10
-64.4969602697
 20
136.2646304834
 10
-64.4975337926
 20
136.2680849726
  0
LWPOLYLINE
  5
243
100
AcDbEntity
  8
RACCORDO
100
AcDbPolyline
 62
7
  6
CONTINUOUS
 90
3
 70
0
 10
-71.1479097176
 20
137.5494972136
 10
-71.145240412
 20
137.5776024991
 10
-71.1389248631
 20
137.6011715943
  0
LINE
  5
244
100
AcDbEntity
  8
RACCORDO
100
AcDbLine
 62
7
  6
CONTINUOUS
 10
-64.5183924039
 20
132.586680706
 11
-64.9971658469
 21
132.2956410737
  0
LWPOLYLINE
  5
245
100
AcDbEntity
  8
RACCORDO
100
AcDbPolyline
 62
7
  6
CONTINUOUS
 90
10
 70
0
 10
-71.6075291254
 20
123.686941208
 10
-71.6055271806
 20
123.6635507215
 10
-71.6007906764
 20
123.6404045928
 10
-71.593319613
 20
123.6175028216
 10
-71.5827288176
 20
123.5941782686
 10
-71.569403463
 20
123.5710980733
 10
-71.5544990668
 20
123.5502636542
 10
-71.5384008017
 20
123.5323421508
 10
-71.520723495
 20
123.5166664236
 10
-71.5014671469
 20
123.5032364726
  0
LWPOLYLINE
  5
246
100
AcDbEntity
  8
RACCORDO
100
AcDbPolyline
 62
7
  6
CONTINUOUS
 90
13
 70
0
 10
-71.1125543786
 20
124.4217337298
 10
-71.1108315637
 20
124.3933802333
 10
-71.1063462803
 20
124.3647533363
 10
-71.0990985285
 20
124.3358530389
 10
-71.0888722747
 20
124.3061813489
 10
-71.0758835524
 20
124.2762362584
 10
-71.060780462
 20
124.247511744
 10
-71.0434557767
 20
124.2200697068
 10
-71.0240167232
 20
124.1938482458
 10
-71.0034330821
 20
124.1701556344
 10
-70.9820281138
 20
124.1494279636
 10
-70.9594785579
 20
124.1312291425
 10
-70.9357844144
 20
124.1155591709
  0
LINE
  5
247
100
AcDbEntity
  8
RACCORDO
100
AcDbLine
 62
7
  6
CONTINUOUS
 10
-71.6075291254
 20
135.8029785566
 11
-71.6075291254
 21
123.686941208
  0
LINE
  5
248
100
AcDbEntity
  8
RACCORDO
100
AcDbLine
 62
7
  6
CONTINUOUS
 10
-71.3582787947
 20
137.9943601251
 11
-71.3582787947
 21
135.6590645395
  0
LINE
  5
249
100
AcDbEntity
  8
RACCORDO
100
AcDbLine
 62
7
  6
CONTINUOUS
 10
-71.1479097176
 20
124.3575141645
 11
-71.1479097176
 21
137.5494972136
  0
LINE
  5
24A
100
AcDbEntity
  8
RACCORDO
100
AcDbLine
 62
7
  6
CONTINUOUS
 10
-71.1125543786
 20
124.4217337298
 11
-71.1125543786
 21
137.444450189
  0
LWPOLYLINE
  5
24B
100
AcDbEntity
  8
DRAFT
100
AcDbPolyline
 62
7
  6
CONTINUOUS
 90
8
 70
0
 10
-69.5083782994
 20
128.4090838797
 10
-69.5235359671
 20
128.3857593576
 10
-69.5367676345
 20
128.3604010661
 10
-69.5480939824
 20
128.333044819
 10
-69.55749433
 20
128.3036548026
 10
-69.5648560783
 20
128.2723633839
 10
-69.5701416946
 20
128.2392146855
 10
-69.5733887116
 20
128.204164585
  0
LWPOLYLINE
  5
24C
100
AcDbEntity
  8
DRAFT
100
AcDbPolyline
 62
7
  6
CONTINUOUS
 90
6
 70
0
 10
-69.4616591462
 20
128.4047243927
 10
-69.4953691917
 20
128.3659219341
 10
-69.5219182402
 20
128.3195186496
 10
-69.5407463103
 20
128.2661447458
 10
-69.5524133836
 20
128.205170016
 10
-69.55691946
 20
128.1365944605
  0
LWPOLYLINE
  5
24D
100
AcDbEntity
  8
DRAFT
100
AcDbPolyline
 62
7
  6
CONTINUOUS
 90
3
 70
0
 10
-69.4724771597
 20
128.4489445902
 10
-69.4913451876
 20
128.4301348238
 10
-69.5083782994
 20
128.4090838797
  0
LINE
  5
24E
100
AcDbEntity
  8
DRAFT
100
AcDbLine
 62
7
  6
CONTINUOUS
 10
-69.4233385143
 20
128.433529164
 11
-69.4616591462
 21
128.4047243927
  0
LWPOLYLINE
  5
24F
100
AcDbEntity
  8
RACCORDO
100
AcDbPolyline
 62
7
  6
CONTINUOUS
 90
6
 70
0
 10
-64.5183924039
 20
130.9342711563
 10
-64.5014097924
 20
130.9461663602
 10
-64.4887011286
 20
130.9587388489
 10
-64.4802664125
 20
130.9719886224
 10
-64.4761092391
 20
130.9863457746
 10
-64.4756324626
 20
130.9934851453
  0
LWPOLYLINE
  5
250
100
AcDbEntity
  8
ASSI
100
AcDbPolyline
 62
7
  6
CONTINUOUS
 90
26
 70
0
 10
-68.0976169549
 20
128.5475696613
 10
-68.0285087544
 20
128.5933479417
 10
-67.9456941139
 20
128.6674127467
 10
-67.8725002638
 20
128.7566582832
 10
-67.8108861476
 20
128.8586960041
 10
-67.7611644722
 20
128.9738713585
 10
-67.7230225305
 20
129.1018388974
 10
-67.6974811448
 20
129.2391737273
 10
-67.6848805889
 20
129.3861288088
 10
-67.6848805889
 20
129.5424511813
 10
-67.6974811448
 20
129.7039570689
 10
-67.7230225305
 20
129.8707864508
 10
-67.7611644722
 20
130.0427993479
 10
-67.8108861476
 20
130.2153920467
 10
-67.8725002638
 20
130.3885802047
 10
-67.9456941139
 20
130.5623481645
 10
-68.0285087544
 20
130.7320452405
 10
-68.1212039918
 20
130.8975615
 10
-68.2235200198
 20
131.0590068758
 10
-68.3327184758
 20
131.2120604812
 10
-68.4489852176
 20
131.3564956992
 10
-68.5721343874
 20
131.4925391468
 10
-68.6988700493
 20
131.6165497887
 10
-68.8280935582
 20
131.7273139465
 10
-68.9609035591
 20
131.8260452986
 10
-69.0973000522
 20
131.912743845
  0
LWPOLYLINE
  5
251
100
AcDbEntity
  8
DRAFT
100
AcDbPolyline
 62
7
  6
CONTINUOUS
 90
3
 70
0
 10
-69.4390018378
 20
128.4737081212
 10
-69.4517336878
 20
128.4654807787
 10
-69.4724771597
 20
128.4489445902
  0
LINE
  5
252
100
AcDbEntity
  8
DRAFT
100
AcDbLine
 62
250
  6
CONTINUOUS
 10
-69.5745971295
 20
128.1672130823
 11
-69.5541023218
 21
128.1794669734
  0
LINE
  5
253
100
AcDbEntity
  8
DRAFT
100
AcDbLine
 62
7
  6
CONTINUOUS
 10
-69.2975743281
 20
128.5070427332
 11
-69.4233168529
 21
128.4335418275
  0
LINE
  5
254
100
AcDbEntity
  8
RACCORDO
100
AcDbLine
 62
7
  6
CONTINUOUS
 10
-64.5183924039
 20
130.9342711563
 11
-64.9971658469
 21
130.6627005201
  0
LINE
  5
255
100
AcDbEntity
  8
DRAFT
100
AcDbLine
 62
7
  6
CONTINUOUS
 10
-69.3775514052
 20
128.4534054443
 11
-69.4233385143
 21
128.433529164
  0
LINE
  5
256
100
AcDbEntity
  8
ASSI
100
AcDbLine
 62
7
  6
CONTINUOUS
 10
-68.1246248204
 20
128.5604259817
 11
-68.0252631875
 21
128.596250596
  0
LWPOLYLINE
  5
257
100
AcDbEntity
  8
RACCORDO
100
AcDbPolyline
 62
7
  6
CONTINUOUS
 90
6
 70
0
 10
-66.6931329575
 20
120.7269645743
 10
-66.6738766186
 20
120.7181577778
 10
-66.6561993182
 20
120.7134201939
 10
-66.6401010564
 20
120.7127518223
 10
-66.6251966597
 20
120.7163750136
 10
-66.6176099636
 20
120.7201380448
  0
LWPOLYLINE
  5
258
100
AcDbEntity
  8
RACCORDO
100
AcDbPolyline
 62
7
  6
CONTINUOUS
 90
10
 70
0
 10
-71.4488467424
 20
123.4728541106
 10
-71.4415990602
 20
123.4689621251
 10
-71.4344498522
 20
123.4656776176
 10
-71.4273991182
 20
123.463000588
 10
-71.4204153984
 20
123.4609243252
 10
-71.4135301527
 20
123.4594555404
 10
-71.4068377611
 20
123.458614367
 10
-71.4003696836
 20
123.4584075162
 10
-71.3940944601
 20
123.4588282768
 10
-71.3880120908
 20
123.4598766489
  0
LINE
  5
259
100
AcDbEntity
  8
RACCORDO
100
AcDbLine
 62
7
  6
CONTINUOUS
 10
-71.5014671469
 20
123.5032364726
 11
-71.4488467424
 21
123.4728541106
  0
LINE
  5
25A
100
AcDbEntity
  8
RACCORDO
100
AcDbLine
 62
7
  6
CONTINUOUS
 10
-66.745753362
 20
120.7573469363
 11
-66.6931329575
 21
120.7269645743
  0
LWPOLYLINE
  5
25B
100
AcDbEntity
  8
RACCORDO
100
AcDbPolyline
 62
7
  6
CONTINUOUS
 90
5
 70
0
 10
-70.7141726406
 20
123.6201894293
 10
-70.7071121104
 20
123.6046397273
 10
-70.6982285406
 20
123.5892529304
 10
-70.6882922765
 20
123.5753633176
 10
-70.6775600998
 20
123.5634156487
  0
LINE
  5
25C
100
AcDbEntity
  8
RACCORDO
100
AcDbLine
 62
7
  6
CONTINUOUS
 10
-70.7191533496
 20
123.6354572767
 11
-70.7141726406
 21
123.6201894293
  0
LWPOLYLINE
  5
25D
100
AcDbEntity
  8
RACCORDO
100
AcDbPolyline
 62
7
  6
CONTINUOUS
 90
3
 70
0
 10
-70.7236456489
 20
123.6664816868
 10
-70.722311019
 20
123.6508880292
 10
-70.7191533496
 20
123.6354572767
  0
LINE
  5
25E
100
AcDbEntity
  8
DRAFT
100
AcDbLine
 62
7
  6
CONTINUOUS
 10
-70.759000988
 20
123.6052514977
 11
-70.759000988
 21
123.969670575
  0
LINE
  5
25F
100
AcDbEntity
  8
RACCORDO
100
AcDbLine
 62
7
  6
CONTINUOUS
 10
-70.7236456489
 20
123.9930729064
 11
-70.7236456489
 21
123.6664816868
  0
LINE
  5
260
100
AcDbEntity
  8
RACCORDO
100
AcDbLine
 62
7
  6
CONTINUOUS
 10
-69.9458281896
 20
123.2173796342
 11
-69.9458281896
 21
123.5439708538
  0
LINE
  5
261
100
AcDbEntity
  8
DRAFT
100
AcDbLine
 62
7
  6
CONTINUOUS
 10
-69.9104728506
 20
123.1153219857
 11
-69.9104728506
 21
123.479741063
  0
LINE
  5
262
100
AcDbEntity
  8
DRAFT
100
AcDbLine
 62
250
  6
CONTINUOUS
 10
-68.6199655906
 20
127.6159770664
 11
-68.6376806444
 21
127.6058374892
  0
LWPOLYLINE
  5
263
100
AcDbEntity
  8
RACCORDO
100
AcDbPolyline
 62
7
  6
CONTINUOUS
 90
6
 70
0
 10
-67.5416624411
 20
121.7476005435
 10
-67.5288248819
 20
121.7417293458
 10
-67.517040015
 20
121.7385709565
 10
-67.5063078404
 20
121.7381253755
 10
-67.4963715759
 20
121.7405408363
 10
-67.4913137785
 20
121.7430495238
  0
LWPOLYLINE
  5
264
100
AcDbEntity
  8
RACCORDO
100
AcDbPolyline
 62
7
  6
CONTINUOUS
 90
6
 70
0
 10
-70.0165361753
 20
123.1765616201
 10
-70.003698616
 20
123.1706904225
 10
-69.9919137491
 20
123.1675320332
 10
-69.9811815746
 20
123.1670864521
 10
-69.9712453101
 20
123.169501913
 10
-69.9661875127
 20
123.1720106005
  0
LWPOLYLINE
  5
265
100
AcDbEntity
  8
RACCORDO
100
AcDbPolyline
 62
7
  6
CONTINUOUS
 90
7
 70
0
 10
-67.25881569
 20
121.9925235126
 10
-67.2351215413
 20
121.9808320794
 10
-67.2125719811
 20
121.9729912382
 10
-67.1911670092
 20
121.969000989
 10
-67.170583365
 20
121.9689241312
 10
-67.1511443093
 20
121.9726978654
 10
-67.1327282735
 20
121.9807761713
  0
LINE
  5
266
100
AcDbEntity
  8
RACCORDO
100
AcDbLine
 62
7
  6
CONTINUOUS
 10
-70.6529376632
 20
123.5440118633
 11
-70.0165361753
 21
123.1765616201
  0
LINE
  5
267
100
AcDbEntity
  8
RACCORDO
100
AcDbLine
 62
7
  6
CONTINUOUS
 10
-68.1780639291
 20
122.1150507866
 11
-67.5416624411
 21
121.7476005435
  0
LINE
  5
268
100
AcDbEntity
  8
DRAFT
100
AcDbLine
 62
7
  6
CONTINUOUS
 10
-68.2841272538
 20
122.176290421
 11
-69.9104728506
 21
123.1153219857
  0
LINE
  5
269
100
AcDbEntity
  8
RACCORDO
100
AcDbLine
 62
7
  6
CONTINUOUS
 10
-71.0064902461
 20
124.1125677709
 11
-70.759000988
 21
123.969670575
  0
LINE
  5
26A
100
AcDbEntity
  8
DRAFT
100
AcDbLine
 62
7
  6
CONTINUOUS
 10
-69.9104728506
 20
123.479741063
 11
-68.2841272538
 21
122.5407094984
  0
LINE
  5
26B
100
AcDbEntity
  8
RACCORDO
100
AcDbLine
 62
7
  6
CONTINUOUS
 10
-67.4355991164
 20
122.0507799864
 11
-67.1881098583
 21
121.9078827905
  0
LINE
  5
26C
100
AcDbEntity
  8
RACCORDO
100
AcDbLine
 62
7
  6
CONTINUOUS
 10
-67.25881569
 20
121.9925235126
 11
-67.4709544555
 21
122.1150097771
  0
LINE
  5
26D
100
AcDbEntity
  8
DRAFT
100
AcDbLine
 62
7
  6
CONTINUOUS
 10
-68.2487719148
 20
122.5641118298
 11
-69.9458281896
 21
123.5439708538
  0
LINE
  5
26E
100
AcDbEntity
  8
RACCORDO
100
AcDbLine
 62
7
  6
CONTINUOUS
 10
-70.7236456489
 20
123.9930729064
 11
-70.9357844144
 21
124.1155591709
  0
LWPOLYLINE
  5
26F
100
AcDbEntity
  8
RACCORDO
100
AcDbPolyline
 62
7
  6
CONTINUOUS
 90
10
 70
0
 10
-71.0064902461
 20
124.1125677709
 10
-71.0321654845
 20
124.1304744393
 10
-71.0557354828
 20
124.151375774
 10
-71.0772002409
 20
124.1752717751
 10
-71.0970734268
 20
124.2030521318
 10
-71.1148413725
 20
124.2338271548
 10
-71.1289630747
 20
124.2649277764
 10
-71.1389248658
 20
124.2954643072
 10
-71.1452404134
 20
124.3263264366
 10
-71.1479097176
 20
124.3575141645
  0
LWPOLYLINE
  5
270
100
AcDbEntity
  8
RACCORDO
100
AcDbPolyline
 62
7
  6
CONTINUOUS
 90
3
 70
0
 10
-70.6775600998
 20
123.5634156487
 10
-70.6657752287
 20
123.5529651639
 10
-70.6529376632
 20
123.5440118633
  0
LWPOLYLINE
  5
271
100
AcDbEntity
  8
RACCORDO
100
AcDbPolyline
 62
7
  6
CONTINUOUS
 90
3
 70
0
 10
-68.2026863656
 20
122.134454572
 10
-68.1909014945
 20
122.1240040873
 10
-68.1780639291
 20
122.1150507866
  0
LWPOLYLINE
  5
272
100
AcDbEntity
  8
RACCORDO
100
AcDbPolyline
 62
7
  6
CONTINUOUS
 90
10
 70
0
 10
-69.55691946
 20
124.7920573806
 10
-69.5542501544
 20
124.7608696479
 10
-69.5479346054
 20
124.7300075151
 10
-69.537972813
 20
124.699470982
 10
-69.523851109
 20
124.6683703594
 10
-69.5060831615
 20
124.6375953367
 10
-69.4862099753
 20
124.6098149813
 10
-69.4647452185
 20
124.5859189825
 10
-69.4411752229
 20
124.5650176511
 10
-69.4154999884
 20
124.547110987
  0
LINE
  5
273
100
AcDbEntity
  8
0
100
AcDbLine
 62
7
  6
CONTINUOUS
 10
-69.8217508457
 20
112.6977016922
 11
-69.8217508457
 21
123.064095012
  0
LINE
  5
274
100
AcDbEntity
  8
RACCORDO
100
AcDbLine
 62
7
  6
CONTINUOUS
 10
-69.5745971295
 20
128.1672130823
 11
-69.5745971295
 21
124.7584248062
  0
LINE
  5
275
100
AcDbEntity
  8
RACCORDO
100
AcDbLine
 62
7
  6
CONTINUOUS
 10
-69.55691946
 20
128.1365944605
 11
-69.55691946
 21
124.7920573806
  0
LINE
  5
276
100
AcDbEntity
  8
DRAFT
100
AcDbLine
 62
7
  6
CONTINUOUS
 10
-69.5733887116
 20
128.204164585
 11
-69.5745971295
 21
128.1672130823
  0
LINE
  5
277
100
AcDbEntity
  8
RACCORDO
100
AcDbLine
 62
250
  6
CONTINUOUS
 10
-71.1479097176
 20
124.3575141645
 11
-71.1087599003
 21
124.3801580376
  0
LINE
  5
278
100
AcDbEntity
  8
RACCORDO
100
AcDbLine
 62
7
  6
CONTINUOUS
 10
-68.7357286198
 20
124.1138854268
 11
-68.761402792
 21
124.1256274025
  0
LWPOLYLINE
  5
279
100
AcDbEntity
  8
RACCORDO
100
AcDbPolyline
 62
7
  6
CONTINUOUS
 90
5
 70
0
 10
-68.7791001159
 20
124.1796616766
 10
-68.7534248815
 20
124.1679192235
 10
-68.7298548859
 20
124.1616025148
 10
-68.7083901291
 20
124.1607115505
 10
-68.6885169428
 20
124.1655428485
  0
LINE
  5
27A
100
AcDbEntity
  8
RACCORDO
100
AcDbLine
 62
7
  6
CONTINUOUS
 10
-69.4331973124
 20
124.5135131391
 11
-68.761402792
 21
124.1256274025
  0
LINE
  5
27B
100
AcDbEntity
  8
RACCORDO
100
AcDbLine
 62
7
  6
CONTINUOUS
 10
-68.7791001159
 20
124.1796616766
 11
-69.4154999884
 21
124.547110987
  0
LINE
  5
27C
100
AcDbEntity
  8
RACCORDO
100
AcDbLine
 62
7
  6
CONTINUOUS
 10
-69.4331973124
 20
124.5135131391
 11
-69.4588715339
 21
124.5314191066
  0
LWPOLYLINE
  5
27D
100
AcDbEntity
  8
RACCORDO
100
AcDbPolyline
 62
7
  6
CONTINUOUS
 90
3
 70
0
 10
-69.4588715339
 20
124.5314191066
 10
-69.482439824
 20
124.5523182701
 10
-69.5039021827
 20
124.5762106297
  0
LWPOLYLINE
  5
27E
100
AcDbEntity
  8
RACCORDO
100
AcDbPolyline
 62
7
  6
CONTINUOUS
 90
10
 70
0
 10
-66.8065880136
 20
120.8146198055
 10
-66.8005056443
 20
120.8065476658
 10
-66.7942304209
 20
120.7988804345
 10
-66.7877623434
 20
120.7916181115
 10
-66.7810699518
 20
120.7847310788
 10
-66.7741847061
 20
120.7782489545
 10
-66.7672009863
 20
120.7722605926
 10
-66.7601502523
 20
120.7667956114
 10
-66.7530010442
 20
120.7618243926
 10
-66.745753362
 20
120.7573469363
  0
LINE
  5
27F
100
AcDbEntity
  8
RACCORDO
100
AcDbLine
 62
7
  6
CONTINUOUS
 10
-67.4355991164
 20
121.686360909
 11
-66.8065880136
 21
120.8146198055
  0
LWPOLYLINE
  5
280
100
AcDbEntity
  8
RACCORDO
100
AcDbPolyline
 62
7
  6
CONTINUOUS
 90
5
 70
0
 10
-69.5039021827
 20
124.5762106297
 10
-69.523771745
 20
124.6039849667
 10
-69.5415353759
 20
124.6347524997
 10
-69.5556536703
 20
124.6658468846
 10
-69.5656134932
 20
124.6963793399
  0
LWPOLYLINE
  5
281
100
AcDbEntity
  8
RACCORDO
100
AcDbPolyline
 62
7
  6
CONTINUOUS
 90
5
 70
0
 10
-68.2392989065
 20
122.1912283526
 10
-68.2322383762
 20
122.1756786506
 10
-68.2233548065
 20
122.1602918537
 10
-68.2134185424
 20
122.146402241
 10
-68.2026863656
 20
122.134454572
  0
LINE
  5
282
100
AcDbEntity
  8
RACCORDO
100
AcDbLine
 62
7
  6
CONTINUOUS
 10
-68.2442796154
 20
122.2064962
 11
-68.2392989065
 21
122.1912283526
  0
LWPOLYLINE
  5
283
100
AcDbEntity
  8
RACCORDO
100
AcDbPolyline
 62
7
  6
CONTINUOUS
 90
3
 70
0
 10
-69.5656134932
 20
124.6963793399
 10
-69.5719279796
 20
124.7272386471
 10
-69.5745971295
 20
124.7584248062
  0
LWPOLYLINE
  5
284
100
AcDbEntity
  8
RACCORDO
100
AcDbPolyline
 62
7
  6
CONTINUOUS
 90
3
 70
0
 10
-68.2487719148
 20
122.2375206102
 10
-68.2474372849
 20
122.2219269526
 10
-68.2442796154
 20
122.2064962
  0
LINE
  5
285
100
AcDbEntity
  8
DRAFT
100
AcDbLine
 62
7
  6
CONTINUOUS
 10
-68.6376806444
 20
127.6058374892
 11
-68.6421867208
 21
127.6796165488
  0
LWPOLYLINE
  5
286
100
AcDbEntity
  8
DRAFT
100
AcDbPolyline
 62
7
  6
CONTINUOUS
 90
31
 70
0
 10
-68.6200029749
 20
127.6160423813
 10
-68.6212113928
 20
127.6543893346
 10
-68.6244584098
 20
127.6931890091
 10
-68.629744026
 20
127.7324414046
 10
-68.6371057744
 20
127.7722339858
 10
-68.646506122
 20
127.812479288
 10
-68.6578324699
 20
127.8529149177
 10
-68.6710641372
 20
127.893552807
 10
-68.686221805
 20
127.9343810238
 10
-68.7032549168
 20
127.9751013785
 10
-68.7221229446
 20
128.0156994706
 10
-68.7428664166
 20
128.0561897005
 10
-68.7655563605
 20
128.0963170798
 10
-68.7902862774
 20
128.1362561344
 10
-68.8169626661
 20
128.1758323384
 10
-68.8453760518
 20
128.2142671251
 10
-68.8757190457
 20
128.251680253
 10
-68.9077990366
 20
128.2879519637
 10
-68.9408287153
 20
128.3219444148
 10
-68.9748272779
 20
128.3535026911
 10
-69.0097755284
 20
128.3827817078
 10
-69.0448285691
 20
128.409108369
 10
-69.0797746277
 20
128.4322986455
 10
-69.1148254767
 20
128.4525365663
 10
-69.1497715353
 20
128.4697011224
 10
-69.184824576
 20
128.4838528341
 10
-69.2197728265
 20
128.4949311809
 10
-69.2537713891
 20
128.5026335926
 10
-69.2868010678
 20
128.5067829865
 10
-69.3188810587
 20
128.5075564451
 10
-69.3492240526
 20
128.505182646
  0
LINE
  5
287
100
AcDbEntity
  8
RACCORDO
100
AcDbLine
 62
7
  6
CONTINUOUS
 10
-68.6376806444
 20
124.2613004093
 11
-68.6376806444
 21
127.6058374892
  0
LINE
  5
288
100
AcDbEntity
  8
0
100
AcDbLine
 62
7
  6
CONTINUOUS
 10
-68.6217508457
 20
112.1142814851
 11
-68.6217508457
 21
122.3712300516
  0
LINE
  5
289
100
AcDbEntity
  8
RACCORDO
100
AcDbLine
 62
7
  6
CONTINUOUS
 10
-68.6200029749
 20
124.2072541052
 11
-68.6200029749
 21
127.6160423813
  0
LINE
  5
28A
100
AcDbEntity
  8
DRAFT
100
AcDbLine
 62
7
  6
CONTINUOUS
 10
-68.2841272538
 20
122.176290421
 11
-68.2841272538
 21
122.5407094984
  0
LINE
  5
28B
100
AcDbEntity
  8
RACCORDO
100
AcDbLine
 62
7
  6
CONTINUOUS
 10
-68.2487719148
 20
122.5641118298
 11
-68.2487719148
 21
122.2375206102
  0
LINE
  5
28C
100
AcDbEntity
  8
RACCORDO
100
AcDbLine
 62
7
  6
CONTINUOUS
 10
-68.64034995
 20
124.2331951238
 11
-68.6376806444
 21
124.2613004093
  0
LWPOLYLINE
  5
28D
100
AcDbEntity
  8
RACCORDO
100
AcDbPolyline
 62
7
  6
CONTINUOUS
 90
5
 70
0
 10
-68.6200029749
 20
124.2072541052
 10
-68.6226721458
 20
124.1791501687
 10
-68.6289866515
 20
124.1555826447
 10
-68.638946492
 20
124.136551533
 10
-68.653064807
 20
124.1217606159
  0
LINE
  5
28E
100
AcDbEntity
  8
DRAFT
100
AcDbLine
 62
7
  6
CONTINUOUS
 10
-70.759000988
 20
123.6052514977
 11
-70.7173012164
 21
123.6297797543
  0
LINE
  5
28F
100
AcDbEntity
  8
DRAFT
100
AcDbLine
 62
7
  6
CONTINUOUS
 10
-70.722437841
 20
123.9910027334
 11
-70.759000988
 21
123.969670575
  0
LINE
  5
290
100
AcDbEntity
  8
RACCORDO
100
AcDbLine
 62
250
  6
CONTINUOUS
 10
-71.0064902461
 20
124.1125677709
 11
-70.9656352116
 21
124.136197925
  0
LINE
  5
291
100
AcDbEntity
  8
RACCORDO
100
AcDbLine
 62
250
  6
CONTINUOUS
 10
-69.5745971295
 20
124.7584248062
 11
-69.555008911
 21
124.7697348369
  0
LINE
  5
292
100
AcDbEntity
  8
RACCORDO
100
AcDbLine
 62
250
  6
CONTINUOUS
 10
-69.4331973124
 20
124.5135131391
 11
-69.3952540002
 21
124.5354212072
  0
LINE
  5
293
100
AcDbEntity
  8
RACCORDO
100
AcDbLine
 62
7
  6
CONTINUOUS
 10
-71.3880120908
 20
123.4598766489
 11
-70.759000988
 21
123.6052514977
  0
LINE
  5
294
100
AcDbEntity
  8
DRAFT
100
AcDbLine
 62
7
  6
CONTINUOUS
 10
-66.587070979
 20
123.1065856225
 11
-66.8363213097
 21
123.2504996396
  0
LINE
  5
295
100
AcDbEntity
  8
DRAFT
100
AcDbLine
 62
7
  6
CONTINUOUS
 10
-66.1665094067
 20
123.3622390785
 11
-66.3749389446
 21
123.4825836815
  0
LWPOLYLINE
  5
296
100
AcDbEntity
  8
DRAFT
100
AcDbPolyline
 62
7
  6
CONTINUOUS
 90
17
 70
0
 10
-68.6421867208
 20
127.6796165488
 10
-68.653853794
 20
127.7540641222
 10
-68.6726818642
 20
127.8291802096
 10
-68.6992309127
 20
127.9062416698
 10
-68.7329409581
 20
127.9839716438
 10
-68.772132056
 20
128.0585395549
 10
-68.8170486992
 20
128.1297782066
 10
-68.8674463947
 20
128.1978547953
 10
-68.9209117201
 20
128.2594403332
 10
-68.9776627443
 20
128.3142716156
 10
-69.0374813982
 20
128.3626118473
 10
-69.0973000522
 20
128.4019216548
 10
-69.1571187061
 20
128.4316889295
 10
-69.2169373601
 20
128.45242578
 10
-69.2736883843
 20
128.4631291577
 10
-69.3271537096
 20
128.4632840374
 10
-69.3775514052
 20
128.4534054443
  0
LINE
  5
297
100
AcDbEntity
  8
RACCORDO
100
AcDbLine
 62
250
  6
CONTINUOUS
 10
-69.8872473461
 20
139.1681533259
 11
-69.8864665345
 21
139.1617464108
  0
LINE
  5
298
100
AcDbEntity
  8
RACCORDO
100
AcDbLine
 62
7
  6
CONTINUOUS
 10
-67.4709544555
 20
121.7884185575
 11
-67.4709544555
 21
122.1150097771
  0
LINE
  5
299
100
AcDbEntity
  8
DRAFT
100
AcDbLine
 62
7
  6
CONTINUOUS
 10
-67.4355991164
 20
121.686360909
 11
-67.4355991164
 21
122.0507799864
  0
LINE
  5
29A
100
AcDbEntity
  8
0
100
AcDbLine
 62
7
  6
CONTINUOUS
 10
-67.3468771115
 20
111.3845028026
 11
-67.3468771115
 21
121.5634018419
  0
LINE
  5
29B
100
AcDbEntity
  8
RACCORDO
100
AcDbLine
 62
7
  6
CONTINUOUS
 10
-67.0820457258
 20
135.117285007
 11
-67.0820457258
 21
122.0945685478
  0
LINE
  5
29C
100
AcDbEntity
  8
RACCORDO
100
AcDbLine
 62
7
  6
CONTINUOUS
 10
-67.0466903868
 20
135.1815045723
 11
-67.0466903868
 21
121.9895215232
  0
LINE
  5
29D
100
AcDbEntity
  8
DRAFT
100
AcDbLine
 62
7
  6
CONTINUOUS
 10
-64.7485933479
 20
131.1864807512
 11
-64.9971658469
 21
130.6627005201
  0
LWPOLYLINE
  5
29E
100
AcDbEntity
  8
RACCORDO
100
AcDbPolyline
 62
7
  6
CONTINUOUS
 90
6
 70
0
 10
-69.9661875127
 20
123.1720106005
 10
-69.962361738
 20
123.1746301821
 10
-69.9553012052
 20
123.1820265588
 10
-69.950320494
 20
123.1915428097
 10
-69.9471628221
 20
123.2033271681
 10
-69.9458281896
 20
123.2173796342
  0
LWPOLYLINE
  5
29F
100
AcDbEntity
  8
RACCORDO
100
AcDbPolyline
 62
7
  6
CONTINUOUS
 90
5
 70
0
 10
-68.6797491926
 20
124.1697764958
 10
-68.6707489954
 20
124.175799891
 10
-68.6566272914
 20
124.1905931237
 10
-68.646665499
 20
124.2096260286
 10
-68.64034995
 20
124.2331951238
  0
LINE
  5
2A0
100
AcDbEntity
  8
RACCORDO
100
AcDbLine
 62
7
  6
CONTINUOUS
 10
-68.653064807
 20
124.1217606159
 11
-68.6633379087
 21
124.1150316511
  0
LINE
  5
2A1
100
AcDbEntity
  8
RACCORDO
100
AcDbLine
 62
7
  6
CONTINUOUS
 10
-64.5183924039
 20
125.973271464
 11
-64.9971658469
 21
125.6822318317
  0
LINE
  5
2A2
100
AcDbEntity
  8
RACCORDO
100
AcDbLine
 62
250
  6
CONTINUOUS
 10
-69.9458281896
 20
123.2173796342
 11
-69.9104728506
 21
123.2385121942
  0
LINE
  5
2A3
100
AcDbEntity
  8
RACCORDO
100
AcDbLine
 62
7
  6
CONTINUOUS
 10
-69.9661009891
 20
123.1718623081
 11
-69.9104728506
 21
123.2051123068
  0
LINE
  5
2A4
100
AcDbEntity
  8
DRAFT
100
AcDbLine
 62
7
  6
CONTINUOUS
 10
-69.8727270923
 20
123.5017631963
 11
-69.9104728506
 21
123.479741063
  0
LINE
  5
2A5
100
AcDbEntity
  8
DRAFT
100
AcDbLine
 62
7
  6
CONTINUOUS
 10
-66.587070979
 20
124.7566280261
 11
-66.1665094067
 21
124.9951796321
  0
LINE
  5
2A6
100
AcDbEntity
  8
RACCORDO
100
AcDbLine
 62
250
  6
CONTINUOUS
 10
-68.6376806444
 20
124.2613004093
 11
-68.6200029749
 21
124.2713121764
  0
LINE
  5
2A7
100
AcDbEntity
  8
RACCORDO
100
AcDbLine
 62
7
  6
CONTINUOUS
 10
-68.6795778969
 20
124.1694780978
 11
-68.6182724361
 21
124.2041985115
  0
LINE
  5
2A8
100
AcDbEntity
  8
RACCORDO
100
AcDbLine
 62
250
  6
CONTINUOUS
 10
-68.761402792
 20
124.1256274025
 11
-68.679641337
 21
124.1695960671
  0
LINE
  5
2A9
100
AcDbEntity
  8
RACCORDO
100
AcDbLine
 62
250
  6
CONTINUOUS
 10
-68.6742571456
 20
124.172491511
 11
-68.6176726696
 21
124.2029208111
  0
LINE
  5
2AA
100
AcDbEntity
  8
RACCORDO
100
AcDbLine
 62
7
  6
CONTINUOUS
 10
-68.6885169428
 20
124.1655428485
 11
-68.6797491926
 21
124.1697764958
  0
LWPOLYLINE
  5
2AB
100
AcDbEntity
  8
RACCORDO
100
AcDbPolyline
 62
7
  6
CONTINUOUS
 90
5
 70
0
 10
-68.6633379087
 20
124.1150316511
 10
-68.6708284568
 20
124.1115061113
 10
-68.6906980221
 20
124.1066766723
 10
-68.7121603632
 20
124.1075685167
 10
-68.7357286198
 20
124.1138854268
  0
LINE
  5
2AC
100
AcDbEntity
  8
DRAFT
100
AcDbLine
 62
7
  6
CONTINUOUS
 10
-66.587070979
 20
124.7566280261
 11
-66.8363213097
 21
124.9005420432
  0
LWPOLYLINE
  5
2AD
100
AcDbEntity
  8
RACCORDO
100
AcDbPolyline
 62
7
  6
CONTINUOUS
 90
4
 70
0
 10
-67.0820457258
 20
135.117285007
 10
-67.0837685407
 20
135.1456385035
 10
-67.0882538241
 20
135.1742654005
 10
-67.0955015759
 20
135.2031656979
  0
LINE
  5
2AE
100
AcDbEntity
  8
DRAFT
100
AcDbLine
 62
7
  6
CONTINUOUS
 10
-66.8363213097
 20
123.2504996396
 11
-66.8363213097
 21
124.9005420432
  0
LINE
  5
2AF
100
AcDbEntity
  8
RACCORDO
100
AcDbLine
 62
7
  6
CONTINUOUS
 10
-66.587070979
 20
135.3621953627
 11
-66.587070979
 21
124.7566280261
  0
LINE
  5
2B0
100
AcDbEntity
  8
RACCORDO
100
AcDbLine
 62
7
  6
CONTINUOUS
 10
-66.587070979
 20
120.7881915953
 11
-66.587070979
 21
123.1065856225
  0
LINE
  5
2B1
100
AcDbEntity
  8
DRAFT
100
AcDbLine
 62
7
  6
CONTINUOUS
 10
-66.3749389446
 20
123.4825836815
 11
-66.3749389446
 21
124.8769538971
  0
LINE
  5
2B2
100
AcDbEntity
  8
DRAFT
100
AcDbLine
 62
7
  6
CONTINUOUS
 10
-66.1665094067
 20
123.3622390785
 11
-66.1665094067
 21
124.9951796321
  0
LINE
  5
2B3
100
AcDbEntity
  8
0
100
AcDbLine
 62
7
  6
CONTINUOUS
 10
-66.1468771115
 20
110.8362178569
 11
-66.1468771115
 21
121.0012040292
  0
LINE
  5
2B4
100
AcDbEntity
  8
RACCORDO
100
AcDbLine
 62
7
  6
CONTINUOUS
 10
-67.0837685398
 20
122.0682045202
 11
-67.0820457258
 21
122.0945685478
  0
LWPOLYLINE
  5
2B5
100
AcDbEntity
  8
RACCORDO
100
AcDbPolyline
 62
7
  6
CONTINUOUS
 90
3
 70
0
 10
-67.0466903868
 20
121.9895215232
 10
-67.0493596923
 20
121.9614162377
 10
-67.0556752413
 20
121.9378471425
  0
LINE
  5
2B6
100
AcDbEntity
  8
RACCORDO
100
AcDbLine
 62
250
  6
CONTINUOUS
 10
-64.5149980661
 20
136.1025588312
 11
-64.5183984116
 21
136.0803783168
  0
LWPOLYLINE
  5
2B7
100
AcDbEntity
  8
RACCORDO
100
AcDbPolyline
 62
7
  6
CONTINUOUS
 90
3
 70
0
 10
-67.0955015705
 20
122.0242263473
 10
-67.0882538213
 20
122.04475712
 10
-67.0837685398
 20
122.0682045202
  0
LINE
  5
2B8
100
AcDbEntity
  8
DRAFT
100
AcDbLine
 62
7
  6
CONTINUOUS
 10
-68.2475641069
 20
122.5620416568
 11
-68.2841272538
 21
122.5407094984
  0
LINE
  5
2B9
100
AcDbEntity
  8
DRAFT
100
AcDbLine
 62
7
  6
CONTINUOUS
 10
-66.3749389446
 20
123.4825836815
 11
-66.8363213097
 21
123.2504996396
  0
LINE
  5
2BA
100
AcDbEntity
  8
RACCORDO
100
AcDbLine
 62
7
  6
CONTINUOUS
 10
-64.5193139541
 20
124.4406884607
 11
-64.7485933479
 21
124.5730715092
  0
LWPOLYLINE
  5
2BB
100
AcDbEntity
  8
RACCORDO
100
AcDbPolyline
 62
7
  6
CONTINUOUS
 90
10
 70
0
 10
-66.587070979
 20
135.3621953627
 10
-66.5890729278
 20
135.3855858621
 10
-66.5938094355
 20
135.4087320002
 10
-66.6012805023
 20
135.4316337771
 10
-66.6118713015
 20
135.4549583316
 10
-66.6251966597
 20
135.4780385249
 10
-66.6401010564
 20
135.4988729399
 10
-66.6561993182
 20
135.5167944376
 10
-66.6738766186
 20
135.532470157
 10
-66.6931329575
 20
135.545900098
  0
LINE
  5
2BC
100
AcDbEntity
  8
DRAFT
100
AcDbLine
 62
7
  6
CONTINUOUS
 10
-64.9971658469
 20
124.0492912781
 11
-64.9971658469
 21
125.6822318317
  0
LINE
  5
2BD
100
AcDbEntity
  8
DRAFT
100
AcDbLine
 62
7
  6
CONTINUOUS
 10
-64.9971658469
 20
130.6627005201
 11
-64.9971658469
 21
132.2956410737
  0
LWPOLYLINE
  5
2BE
100
AcDbEntity
  8
RACCORDO
100
AcDbPolyline
 62
7
  6
CONTINUOUS
 90
6
 70
0
 10
-64.4756324626
 20
132.6488755033
 10
-64.4761092391
 20
132.6414727135
 10
-64.4802664125
 20
132.6265202222
 10
-64.4887011286
 20
132.6126267073
 10
-64.5014097924
 20
132.5993468686
 10
-64.5183924039
 20
132.586680706
  0
LWPOLYLINE
  5
2BF
100
AcDbEntity
  8
RACCORDO
100
AcDbPolyline
 62
7
  6
CONTINUOUS
 90
4
 70
0
 10
-67.0556752413
 20
121.9378471425
 10
-67.0656370337
 20
121.9188142375
 10
-67.0797587377
 20
121.9040210048
 10
-67.0878006105
 20
121.8985509193
  0
LWPOLYLINE
  5
2C0
100
AcDbEntity
  8
RACCORDO
100
AcDbPolyline
 62
7
  6
CONTINUOUS
 90
4
 70
0
 10
-67.1327282735
 20
121.9807761713
 10
-67.1187165366
 20
121.9914176397
 10
-67.1057278198
 20
122.0063636798
 10
-67.0955015705
 20
122.0242263473
  0
LWPOLYLINE
  5
2C1
100
AcDbEntity
  8
RACCORDO
100
AcDbPolyline
 62
7
  6
CONTINUOUS
 90
6
 70
0
 10
-64.5183924039
 20
124.3208619143
 10
-64.5014097924
 20
124.3327571182
 10
-64.4887011286
 20
124.3453296069
 10
-64.4802664125
 20
124.3585793803
 10
-64.4761092391
 20
124.3729365326
 10
-64.4756324626
 20
124.3800759033
  0
LWPOLYLINE
  5
2C2
100
AcDbEntity
  8
RACCORDO
100
AcDbPolyline
 62
7
  6
CONTINUOUS
 90
6
 70
0
 10
-67.4913137785
 20
121.7430495238
 10
-67.4874880038
 20
121.7456691054
 10
-67.480427471
 20
121.7530654822
 10
-67.4754467598
 20
121.762581733
 10
-67.472289088
 20
121.7743660914
 10
-67.4709544555
 20
121.7884185575
  0
LINE
  5
2C3
100
AcDbEntity
  8
DRAFT
100
AcDbLine
 62
7
  6
CONTINUOUS
 10
-66.587070979
 20
123.1065856225
 11
-66.1665094067
 21
123.3622390785
  0
LINE
  5
2C4
100
AcDbEntity
  8
RACCORDO
100
AcDbLine
 62
250
  6
CONTINUOUS
 10
-67.0466903868
 20
122.1157011079
 11
-67.0820457258
 21
122.0945685478
  0
LINE
  5
2C5
100
AcDbEntity
  8
RACCORDO
100
AcDbLine
 62
250
  6
CONTINUOUS
 10
-67.4709544555
 20
121.7884185575
 11
-67.4355991164
 21
121.8095511176
  0
LINE
  5
2C6
100
AcDbEntity
  8
RACCORDO
100
AcDbLine
 62
7
  6
CONTINUOUS
 10
-67.0466903868
 20
122.0322013894
 11
-67.1327277245
 21
121.9807752327
  0
LINE
  5
2C7
100
AcDbEntity
  8
RACCORDO
100
AcDbLine
 62
7
  6
CONTINUOUS
 10
-67.4912272549
 20
121.7429012315
 11
-67.4355991164
 21
121.7761512302
  0
LINE
  5
2C8
100
AcDbEntity
  8
RACCORDO
100
AcDbLine
 62
250
  6
CONTINUOUS
 10
-67.1881098583
 20
121.9078827905
 11
-67.0473852072
 21
121.9907021454
  0
LINE
  5
2C9
100
AcDbEntity
  8
DRAFT
100
AcDbLine
 62
7
  6
CONTINUOUS
 10
-68.2841272538
 20
122.176290421
 11
-68.2424189576
 21
122.2007925461
  0
LINE
  5
2CA
100
AcDbEntity
  8
DRAFT
100
AcDbLine
 62
7
  6
CONTINUOUS
 10
-67.3978533581
 20
122.0728021197
 11
-67.4355991164
 21
122.0507799864
  0
LINE
  5
2CB
100
AcDbEntity
  8
RACCORDO
100
AcDbLine
 62
7
  6
CONTINUOUS
 10
-64.5183924039
 20
124.3208619143
 11
-64.9971658469
 21
124.0492912781
  0
LWPOLYLINE
  5
2CC
100
AcDbEntity
  8
ASSI
100
AcDbPolyline
 62
7
  6
CONTINUOUS
 90
7
 70
0
 10
-68.955878696
 20
128.7285176565
 10
-68.8054535574
 20
128.6514135225
 10
-68.6597815493
 20
128.5939449305
 10
-68.5188626715
 20
128.5561118804
 10
-68.3812676371
 20
128.5379300128
 10
-68.2484257332
 20
128.5393836871
 10
-68.1246248204
 20
128.5604259817
  0
LWPOLYLINE
  5
2CD
100
AcDbEntity
  8
ASSI
100
AcDbPolyline
 62
7
  6
CONTINUOUS
 90
10
 70
0
 10
-69.0973000522
 20
128.6468627378
 10
-68.9609035591
 20
128.5760540328
 10
-68.8280935582
 20
128.5214197248
 10
-68.6988700493
 20
128.4829598137
 10
-68.5721343874
 20
128.46061929
 10
-68.4489852176
 20
128.4544531631
 10
-68.3327184758
 20
128.464626462
 10
-68.2235200198
 20
128.4915804276
 10
-68.1212039918
 20
128.534873819
 10
-68.0976169549
 20
128.5475696613
  0
LWPOLYLINE
  5
2CE
100
AcDbEntity
  8
RACCORDO
100
AcDbPolyline
 62
7
  6
CONTINUOUS
 90
6
 70
0
 10
-64.4756324626
 20
124.3800759033
 10
-64.4762260133
 20
124.3879709696
 10
-64.4806059505
 20
124.4023924092
 10
-64.4892454555
 20
124.4157707572
 10
-64.5021481234
 20
124.4285361077
 10
-64.5193139541
 20
124.4406884607
  0
LWPOLYLINE
  5
2CF
100
AcDbEntity
  8
RACCORDO
100
AcDbPolyline
 62
7
  6
CONTINUOUS
 90
6
 70
0
 10
-64.4756324626
 20
130.9934851453
 10
-64.4762260133
 20
131.0013802116
 10
-64.4806059505
 20
131.0158016512
 10
-64.4892454555
 20
131.0291799992
 10
-64.5021481234
 20
131.0419453497
 10
-64.5193139541
 20
131.0540977028
  0
LWPOLYLINE
  5
2D0
100
AcDbEntity
  8
RACCORDO
100
AcDbPolyline
 62
250
  6
CONTINUOUS
 90
4
 70
0
 10
-64.5128490708
 20
136.1780779418
 10
-64.5119984506
 20
136.151515057
 10
-64.5127906976
 20
136.1262998024
 10
-64.5149980661
 20
136.1025588312
  0
LWPOLYLINE
  5
2D1
100
AcDbEntity
  8
RACCORDO
100
AcDbPolyline
 62
7
  6
CONTINUOUS
 90
6
 70
0
 10
-64.4753794267
 20
136.141034343
 10
-64.4755598082
 20
136.152249369
 10
-64.4780175694
 20
136.1841101502
 10
-64.48336917
 20
136.2166430069
 10
-64.491180221
 20
136.248048457
 10
-64.4975401627
 20
136.2681033555
  0
LINE
  5
2D2
100
AcDbEntity
  8
DRAFT
100
AcDbLine
 62
7
  6
CONTINUOUS
 10
-64.7485933479
 20
124.5730715092
 11
-64.7485933479
 21
125.8333355526
  0
LINE
  5
2D3
100
AcDbEntity
  8
DRAFT
100
AcDbLine
 62
7
  6
CONTINUOUS
 10
-64.7485933479
 20
131.1864807512
 11
-64.7485933479
 21
132.4467447946
  0
LINE
  5
2D4
100
AcDbEntity
  8
RACCORDO
100
AcDbLine
 62
250
  6
CONTINUOUS
 10
-64.5183924039
 20
136.0803778064
 11
-64.5183924039
 21
132.586680706
  0
LINE
  5
2D5
100
AcDbEntity
  8
RACCORDO
100
AcDbLine
 62
250
  6
CONTINUOUS
 10
-64.5183924039
 20
130.9342711563
 11
-64.5183924039
 21
125.973271464
  0
LINE
  5
2D6
100
AcDbEntity
  8
RACCORDO
100
AcDbLine
 62
250
  6
CONTINUOUS
 10
-64.5183924039
 20
124.3208619143
 11
-64.5183924039
 21
122.0246802101
  0
LINE
  5
2D7
100
AcDbEntity
  8
RACCORDO
100
AcDbLine
 62
7
  6
CONTINUOUS
 10
-64.4753799713
 20
136.1410821679
 11
-64.4753799713
 21
132.648878089
  0
LINE
  5
2D8
100
AcDbEntity
  8
RACCORDO
100
AcDbLine
 62
7
  6
CONTINUOUS
 10
-64.4753799713
 20
130.9934826407
 11
-64.4753799713
 21
126.035468847
  0
LINE
  5
2D9
100
AcDbEntity
  8
RACCORDO
100
AcDbLine
 62
7
  6
CONTINUOUS
 10
-64.4753799713
 20
124.3800733987
 11
-64.4753799713
 21
122.0853846438
  0
LWPOLYLINE
  5
2DA
100
AcDbEntity
  8
RACCORDO
100
AcDbPolyline
 62
7
  6
CONTINUOUS
 90
6
 70
0
 10
-64.4756324626
 20
126.0354662612
 10
-64.4761092391
 20
126.0280634714
 10
-64.4802664125
 20
126.0131109802
 10
-64.4887011286
 20
125.9992174653
 10
-64.5014097924
 20
125.9859376266
 10
-64.5183924039
 20
125.973271464
  0
LWPOLYLINE
  5
2DB
100
AcDbEntity
  8
RACCORDO
100
AcDbPolyline
 62
250
  6
CONTINUOUS
 90
6
 70
0
 10
-64.5183924039
 20
122.0246802101
 10
-64.5198583208
 20
122.0044310203
 10
-64.524530145
 20
121.9866413182
 10
-64.5322659418
 20
121.971851584
 10
-64.5428306889
 20
121.9605111548
 10
-64.5484216568
 20
121.9566313221
  0
LWPOLYLINE
  5
2DC
100
AcDbEntity
  8
RACCORDO
100
AcDbPolyline
 62
250
  6
CONTINUOUS
 90
6
 70
0
 10
-64.475379973
 20
122.0853716038
 10
-64.4760441007
 20
122.0772437312
 10
-64.480746904
 20
122.0624246815
 10
-64.4896540086
 20
122.0485110371
 10
-64.5023681132
 20
122.0358231256
 10
-64.5183924039
 20
122.0246802101
  0
LINE
  5
2DD
100
AcDbEntity
  8
DRAFT
100
AcDbLine
 62
7
  6
CONTINUOUS
 10
-64.7485933479
 20
124.5730715092
 11
-64.9971658469
 21
124.0492912781
  0
LWPOLYLINE
  5
2DE
100
AcDbEntity
  8
RACCORDO
100
AcDbPolyline
 62
7
  6
CONTINUOUS
 90
6
 70
0
 10
-67.0878006105
 20
121.8985509193
 10
-67.0975266852
 20
121.8937639624
 10
-67.1173998714
 20
121.8889326643
 10
-67.1388646282
 20
121.8898236287
 10
-67.1624346238
 20
121.8961403374
 10
-67.1881098583
 20
121.9078827905
  0
LWPOLYLINE
  5
2DF
100
AcDbEntity
  8
DRAFT
100
AcDbPolyline
 62
7
  6
CONTINUOUS
 90
5
 70
0
 10
-69.3492240526
 20
128.505182646
 10
-69.3776374383
 20
128.4995589249
 10
-69.404313827
 20
128.490787946
 10
-69.4290437438
 20
128.4794063794
 10
-69.4390018378
 20
128.4737081212
  0
LWPOLYLINE
  5
2E0
100
AcDbEntity
  8
RACCORDO
100
AcDbPolyline
 62
7
  6
CONTINUOUS
 90
6
 70
0
 10
-66.6176099636
 20
120.7201380448
 10
-66.6118713015
 20
120.7240674172
 10
-66.6012805023
 20
120.7351619824
 10
-66.5938094355
 20
120.7494363586
 10
-66.5890729278
 20
120.7671128962
 10
-66.587070979
 20
120.7881915953
  0
LINE
  5
2E1
100
AcDbEntity
  8
RACCORDO
100
AcDbLine
 62
250
  6
CONTINUOUS
 10
-66.587070979
 20
120.7881915953
 11
-64.5183924039
 21
122.0246802101
  0
LINE
  5
2E2
100
AcDbEntity
  8
RACCORDO
100
AcDbLine
 62
7
  6
CONTINUOUS
 10
-66.6174801782
 20
120.7199156063
 11
-64.5484216568
 21
121.9566313221
  0
LWPOLYLINE
  5
2E3
100
AcDbEntity
  8
RACCORDO
100
AcDbPolyline
 62
7
  6
CONTINUOUS
 90
3
 70
0
 10
-67.0955015759
 20
135.2031656979
 10
-67.1057278297
 20
135.2328373879
 10
-67.118716552
 20
135.2627824784
  0
LWPOLYLINE
  5
2E4
100
AcDbEntity
  8
ASSI
100
AcDbPolyline
 62
7
  6
CONTINUOUS
 90
10
 70
0
 10
-69.0973000522
 20
131.912743845
 10
-69.2336965453
 20
131.9835525499
 10
-69.3665065462
 20
132.0381868579
 10
-69.495730055
 20
132.076646769
 10
-69.622465717
 20
132.0989872928
 10
-69.7456148868
 20
132.1051534196
 10
-69.8618816286
 20
132.0949801207
 10
-69.9710800846
 20
132.0680261551
 10
-70.0733961126
 20
132.0247327638
 10
-70.0969831495
 20
132.0120369215
  0
LWPOLYLINE
  5
2E5
100
AcDbEntity
  8
RACCORDO
100
AcDbPolyline
 62
7
  6
CONTINUOUS
 90
4
 70
0
 10
-67.118716552
 20
135.2627824784
 10
-67.1338196424
 20
135.2915069927
 10
-67.1511443277
 20
135.3189490299
 10
-67.1705833812
 20
135.3451704909
  0
LWPOLYLINE
  5
2E6
100
AcDbEntity
  8
RACCORDO
100
AcDbPolyline
 62
250
  6
CONTINUOUS
 90
10
 70
0
 10
-65.1142144824
 20
136.4285129186
 10
-65.1172639035
 20
136.4407011549
 10
-65.1208190749
 20
136.4525561345
 10
-65.1248861255
 20
136.4640108082
 10
-65.1294493702
 20
136.474980769
 10
-65.1345237456
 20
136.4854104945
 10
-65.140161001
 20
136.4952641847
 10
-65.1463753685
 20
136.5044681623
 10
-65.1531365769
 20
136.5129208302
 10
-65.1604267399
 20
136.5205325427
  0
LINE
  5
2E7
100
AcDbEntity
  8
RACCORDO
100
AcDbLine
 62
250
  6
CONTINUOUS
 10
-64.5235766917
 20
136.248664201
 11
-64.5203926753
 21
136.2345146871
  0
LWPOLYLINE
  5
2E8
100
AcDbEntity
  8
RACCORDO
100
AcDbPolyline
 62
250
  6
CONTINUOUS
 90
3
 70
0
 10
-64.5203926753
 20
136.2345146871
 10
-64.5155718412
 20
136.2058174231
 10
-64.5128490708
 20
136.1780779418
  0
LINE
  5
2E9
100
AcDbEntity
  8
RACCORDO
100
AcDbLine
 62
7
  6
CONTINUOUS
 10
-64.5193139541
 20
131.0540977028
 11
-64.7485933479
 21
131.1864807512
  0
LINE
  5
2EA
100
AcDbEntity
  8
DRAFT
100
AcDbLine
 62
7
  6
CONTINUOUS
 10
-71.6075291254
 20
135.8029785566
 11
-71.3582787947
 21
135.6590645395
  0
LWPOLYLINE
  5
2EB
100
AcDbEntity
  8
RACCORDO
100
AcDbPolyline
 62
7
  6
CONTINUOUS
 90
4
 70
0
 10
-67.1705833812
 20
135.3451704909
 10
-67.1911670222
 20
135.3688631024
 10
-67.2125719906
 20
135.3895907731
 10
-67.2351215465
 20
135.4077895943
  0
LWPOLYLINE
  5
2EC
100
AcDbEntity
  8
RACCORDO
100
AcDbPolyline
 62
7
  6
CONTINUOUS
 90
8
 70
0
 10
-64.4975337926
 20
136.2680849726
 10
-64.5005762786
 20
136.2764951808
 10
-64.515698143
 20
136.3099781095
 10
-64.5354028449
 20
136.3424978437
 10
-64.5598978985
 20
136.3739152215
 10
-64.5893560168
 20
136.4038587953
 10
-64.6234760631
 20
136.4315070849
 10
-64.6593401741
 20
136.4547145955
  0
LINE
  5
2ED
100
AcDbEntity
  8
RACCORDO
100
AcDbLine
 62
7
  6
CONTINUOUS
 10
-70.9357844144
 20
137.5464952241
 11
-67.25881569
 21
135.4234595659
  0
LINE
  5
2EE
100
AcDbEntity
  8
RACCORDO
100
AcDbLine
 62
7
  6
CONTINUOUS
 10
-67.1881098583
 20
135.4264509659
 11
-71.0064902461
 21
137.6311359462
  0
LINE
  5
2EF
100
AcDbEntity
  8
RACCORDO
100
AcDbLine
 62
7
  6
CONTINUOUS
 10
-71.1451744934
 20
138.1164530837
 11
-66.6931329575
 21
135.545900098
  0
LINE
  5
2F0
100
AcDbEntity
  8
RACCORDO
100
AcDbLine
 62
7
  6
CONTINUOUS
 10
-67.2351215465
 20
135.4077895943
 11
-67.25881569
 21
135.4234595659
  0
LWPOLYLINE
  5
2F1
100
AcDbEntity
  8
RACCORDO
100
AcDbPolyline
 62
7
  6
CONTINUOUS
 90
10
 70
0
 10
-67.1881098583
 20
135.4264509659
 10
-67.1624346199
 20
135.4085442975
 10
-67.1388646216
 20
135.3876429628
 10
-67.1173998634
 20
135.3637469617
 10
-67.0975266776
 20
135.335966605
 10
-67.0797587319
 20
135.305191582
 10
-67.0656370296
 20
135.2740909604
 10
-67.0556752386
 20
135.2435544296
 10
-67.0493596909
 20
135.2126923002
 10
-67.0466903868
 20
135.1815045723
  0
LINE
  5
2F2
100
AcDbEntity
  8
RACCORDO
100
AcDbLine
 62
250
  6
CONTINUOUS
 10
-64.5810280491
 20
136.3674993405
 11
-64.5720476578
 21
136.3550525087
  0
LWPOLYLINE
  5
2F3
100
AcDbEntity
  8
RACCORDO
100
AcDbPolyline
 62
250
  6
CONTINUOUS
 90
9
 70
0
 10
-64.5720476578
 20
136.3550525087
 10
-64.5637436153
 20
136.3424146619
 10
-64.5561119403
 20
136.3296206686
 10
-64.5491110184
 20
136.3166111007
 10
-64.5427431299
 20
136.3034171735
 10
-64.5370127722
 20
136.290066951
 10
-64.5319016043
 20
136.2764855706
 10
-64.5274164647
 20
136.2626640303
 10
-64.5235766917
 20
136.248664201
  0
LWPOLYLINE
  5
2F4
100
AcDbEntity
  8
RACCORDO
100
AcDbPolyline
 62
7
  6
CONTINUOUS
 90
8
 70
0
 10
-71.1451744934
 20
138.1164530837
 10
-71.1737916444
 20
138.130570089
 10
-71.2010177552
 20
138.140046795
 10
-71.2268528258
 20
138.1448832015
 10
-71.2516869633
 20
138.1449981818
 10
-71.2751300606
 20
138.1404728628
 10
-71.2960117968
 20
138.1315506251
 10
-71.3022211759
 20
138.1276431695
  0
LWPOLYLINE
  5
2F5
100
AcDbEntity
  8
RACCORDO
100
AcDbPolyline
 62
7
  6
CONTINUOUS
 90
7
 70
0
 10
-70.9357844144
 20
137.5464952241
 10
-70.959478563
 20
137.5581866574
 10
-70.9820281233
 20
137.5660274986
 10
-71.0034330952
 20
137.5700177478
 10
-71.0240167394
 20
137.5700946056
 10
-71.0434557951
 20
137.5663208713
 10
-71.0596905959
 20
137.5595020098
  0
LWPOLYLINE
  5
2F6
100
AcDbEntity
  8
RACCORDO
100
AcDbPolyline
 62
250
  6
CONTINUOUS
 90
5
 70
0
 10
-64.6240955508
 20
136.4150042589
 10
-64.6122140983
 20
136.4035172401
 10
-64.60107865
 20
136.3917366705
 10
-64.5906865709
 20
136.3797152145
 10
-64.5810280491
 20
136.3674993405
  0
LWPOLYLINE
  5
2F7
100
AcDbEntity
  8
RACCORDO
100
AcDbPolyline
 62
250
  6
CONTINUOUS
 90
10
 70
0
 10
-65.212021764
 20
136.4627819816
 10
-65.2001624225
 20
136.4618899579
 10
-65.1883832401
 20
136.4602297121
 10
-65.1767583309
 20
136.4578116334
 10
-65.1653606616
 20
136.4546508222
 10
-65.1542621594
 20
136.4507671464
 10
-65.143533205
 20
136.4461852349
 10
-65.133241441
 20
136.4409340606
 10
-65.1234514027
 20
136.4350466404
 10
-65.1142246413
 20
136.4285600597
  0
LINE
  5
2F8
100
AcDbEntity
  8
RACCORDO
100
AcDbLine
 62
250
  6
CONTINUOUS
 10
-64.5183924039
 20
136.0803778064
 11
-65.2374223965
 21
136.1414668651
  0
LINE
  5
2F9
100
AcDbEntity
  8
RACCORDO
100
AcDbLine
 62
250
  6
CONTINUOUS
 10
-64.7305244032
 20
136.4840078784
 11
-65.1604351673
 21
136.5205332587
  0
LWPOLYLINE
  5
2FA
100
AcDbEntity
  8
RACCORDO
100
AcDbPolyline
 62
250
  6
CONTINUOUS
 90
8
 70
0
 10
-64.7305382928
 20
136.4840090585
 10
-64.7127640807
 20
136.4758426847
 10
-64.6958415729
 20
136.4669731295
 10
-64.6797806996
 20
136.457489708
 10
-64.6646007122
 20
136.4474951077
 10
-64.6502834366
 20
136.4370588275
 10
-64.6367812939
 20
136.4262056038
 10
-64.6240955508
 20
136.4150042589
  0
LWPOLYLINE
  5
2FB
100
AcDbEntity
  8
RACCORDO
100
AcDbPolyline
 62
250
  6
CONTINUOUS
 90
6
 70
0
 10
-64.6593417202
 20
136.4547160522
 10
-64.6679689832
 20
136.4594983675
 10
-64.6823468659
 20
136.466634542
 10
-64.6975749784
 20
136.4731503172
 10
-64.7136411619
 20
136.4789682684
 10
-64.7305405759
 20
136.4840172163
  0
LINE
  5
2FC
100
AcDbEntity
  8
RACCORDO
100
AcDbLine
 62
7
  6
CONTINUOUS
 10
-70.3718930851
 20
138.9518052374
 11
-70.1233427472
 21
138.8082953873
  0
LINE
  5
2FD
100
AcDbEntity
  8
RACCORDO
100
AcDbLine
 62
250
  6
CONTINUOUS
 10
-69.8864668235
 20
139.1617465776
 11
-65.2120251853
 21
136.4627825602
  0
LINE
  5
2FE
100
AcDbEntity
  8
RACCORDO
100
AcDbLine
 62
250
  6
CONTINUOUS
 10
-69.7296260641
 20
139.1587268171
 11
-65.1604351673
 21
136.5205332587
  0
LINE
  5
2FF
100
AcDbEntity
  8
RACCORDO
100
AcDbLine
 62
250
  6
CONTINUOUS
 10
-64.7305244032
 20
136.4840078784
 11
-69.2921456922
 21
139.1178308401
  0
LINE
  5
300
100
AcDbEntity
  8
RACCORDO
100
AcDbLine
 62
7
  6
CONTINUOUS
 10
-64.6593328575
 20
136.4547109351
 11
-69.2754549787
 21
139.1200019943
  0
LWPOLYLINE
  5
301
100
AcDbEntity
  8
RACCORDO
100
AcDbPolyline
 62
250
  6
CONTINUOUS
 90
10
 70
0
 10
-65.343484375
 20
136.3251716004
 10
-65.3249211012
 20
136.3127607528
 10
-65.3069499409
 20
136.2969900182
 10
-65.290116887
 20
136.2783385433
 10
-65.2749333513
 20
136.2573729919
 10
-65.2618606336
 20
136.2347303373
 10
-65.2512959031
 20
136.2110985119
 10
-65.2435601253
 20
136.187195492
 10
-65.2388883142
 20
136.1637474827
 10
-65.2374223965
 20
136.1414668651
  0
LWPOLYLINE
  5
302
100
AcDbEntity
  8
RACCORDO
100
AcDbPolyline
 62
250
  6
CONTINUOUS
 90
10
 70
0
 10
-69.7296199443
 20
139.158726245
 10
-69.7400846386
 20
139.1630463549
 10
-69.7511244131
 20
139.1672125493
 10
-69.7627449963
 20
139.1711740558
 10
-69.7749496399
 20
139.1748755563
 10
-69.7877394906
 20
139.1782634016
 10
-69.8011140644
 20
139.1812823152
 10
-69.8150684748
 20
139.1838675582
 10
-69.8295947493
 20
139.1859534522
 10
-69.8393398371
 20
139.1870092828
  0
LWPOLYLINE
  5
303
100
AcDbEntity
  8
0
100
AcDbPolyline
 62
7
  6
CONTINUOUS
 90
6
 70
0
 10
-70.3718930851
 20
138.9518052374
 10
-70.3909766539
 20
138.9600927009
 10
-70.4100702804
 20
138.9637335542
 10
-70.4291739645
 20
138.9627277974
 10
-70.4488938283
 20
138.9569358787
 10
-70.460411097
 20
138.9514433642
  0
LWPOLYLINE
  5
304
100
AcDbEntity
  8
RACCORDO
100
AcDbPolyline
 62
250
  6
CONTINUOUS
 90
8
 70
0
 10
-69.8922604251
 20
139.188667087
 10
-69.8917808013
 20
139.1884550672
 10
-69.8910673186
 20
139.1873519256
 10
-69.8903307138
 20
139.1853137296
 10
-69.8895756222
 20
139.1823533083
 10
-69.8888067958
 20
139.178489298
 10
-69.8880290727
 20
139.1737460203
 10
-69.8872473461
 20
139.1681533259
  0
LWPOLYLINE
  5
305
100
AcDbEntity
  8
RACCORDO
100
AcDbPolyline
 62
7
  6
CONTINUOUS
 90
4
 70
0
 10
-69.2754825137
 20
139.1200174146
 10
-69.301828924
 20
139.132115039
 10
-69.3300074648
 20
139.1391338409
 10
-69.3397331263
 20
139.1403019029
  0
LWPOLYLINE
  5
306
100
AcDbEntity
  8
RACCORDO
100
AcDbPolyline
 62
250
  6
CONTINUOUS
 90
7
 70
0
 10
-69.9861677366
 20
139.1455452633
 10
-69.9776822809
 20
139.1477779054
 10
-69.9693471262
 20
139.1498280269
 10
-69.9611427795
 20
139.1517122897
 10
-69.9531238716
 20
139.1534271936
 10
-69.9452357716
 20
139.1549762389
 10
-69.9372950951
 20
139.1563865891
  0
LWPOLYLINE
  5
307
100
AcDbEntity
  8
RACCORDO
100
AcDbPolyline
 62
250
  6
CONTINUOUS
 90
3
 70
0
 10
-69.8864665345
 20
139.1617464108
 10
-69.8704358637
 20
139.1648255689
 10
-69.8548991097
 20
139.167102681
  0
LWPOLYLINE
  5
308
100
AcDbEntity
  8
RACCORDO
100
AcDbPolyline
 62
250
  6
CONTINUOUS
 90
7
 70
0
 10
-69.9372950951
 20
139.1563865891
 10
-69.9293041704
 20
139.1576763299
 10
-69.9212606692
 20
139.1588273755
 10
-69.9129742208
 20
139.1598126324
 10
-69.9043813687
 20
139.1606230695
 10
-69.8955455696
 20
139.1612677179
 10
-69.8864668235
 20
139.1617465776
  0
LWPOLYLINE
  5
309
100
AcDbEntity
  8
RACCORDO
100
AcDbPolyline
 62
250
  6
CONTINUOUS
 90
5
 70
0
 10
-69.8548991097
 20
139.167102681
 10
-69.8398785901
 20
139.1686325399
 10
-69.8253891164
 20
139.1694615399
 10
-69.8114446028
 20
139.1696581686
 10
-69.7980595562
 20
139.1693067887
  0
LWPOLYLINE
  5
30A
100
AcDbEntity
  8
RACCORDO
100
AcDbPolyline
 62
7
  6
CONTINUOUS
 90
8
 70
0
 10
-69.8923206885
 20
139.1886617665
 10
-69.9365833663
 20
139.1851826459
 10
-69.9828602488
 20
139.1776307435
 10
-70.0300107016
 20
139.1663142321
 10
-70.0763878453
 20
139.1518604409
 10
-70.1215096441
 20
139.1346741303
 10
-70.1659377393
 20
139.1145956452
 10
-70.2020506347
 20
139.0957216631
  0
LWPOLYLINE
  5
30B
100
AcDbEntity
  8
RACCORDO
100
AcDbPolyline
 62
250
  6
CONTINUOUS
 90
6
 70
0
 10
-69.7980595562
 20
139.1693067887
 10
-69.7852398259
 20
139.1684632057
 10
-69.7729857732
 20
139.167176023
 10
-69.7613003802
 20
139.1655103054
 10
-69.7501820393
 20
139.1635178935
 10
-69.7396239948
 20
139.1612403689
  0
LWPOLYLINE
  5
30C
100
AcDbEntity
  8
RACCORDO
100
AcDbPolyline
 62
7
  6
CONTINUOUS
 90
4
 70
0
 10
-69.8393246105
 20
139.1870080514
 10
-69.8577532164
 20
139.1883420532
 10
-69.8749188282
 20
139.1888620211
 10
-69.8922604251
 20
139.188667087
  0
LINE
  5
30D
100
AcDbEntity
  8
RACCORDO
100
AcDbLine
 62
250
  6
CONTINUOUS
 10
-69.7296260641
 20
139.1587268171
 11
-69.2921456922
 21
139.1178308401
  0
LINE
  5
30E
100
AcDbEntity
  8
RACCORDO
100
AcDbLine
 62
7
  6
CONTINUOUS
 10
-69.8395736518
 20
139.1870312251
 11
-69.3389575508
 21
139.1402332752
  0
LINE
  5
30F
100
AcDbEntity
  8
RACCORDO
100
AcDbLine
 62
250
  6
CONTINUOUS
 10
-69.3389672034
 20
139.1402341775
 11
-69.3347594122
 21
139.1397045547
  0
LWPOLYLINE
  5
310
100
AcDbEntity
  8
RACCORDO
100
AcDbPolyline
 62
250
  6
CONTINUOUS
 90
7
 70
0
 10
-69.3347594122
 20
139.1397045547
 10
-69.3274093918
 20
139.1382038072
 10
-69.3201128105
 20
139.1358765709
 10
-69.3129183909
 20
139.1327138733
 10
-69.3057932167
 20
139.1286529971
 10
-69.298857948
 20
139.1236982568
 10
-69.2921586576
 20
139.1178320522
  0
LINE
  5
311
100
AcDbEntity
  8
RACCORDO
100
AcDbLine
 62
250
  6
CONTINUOUS
 10
-69.7396239948
 20
139.1612403689
 11
-69.7296190563
 21
139.1587227709
  0
LWPOLYLINE
  5
312
100
AcDbEntity
  8
0
100
AcDbPolyline
 62
7
  6
CONTINUOUS
 90
4
 70
0
 10
-68.797486777
 20
106.758551957
 10
-68.699855704
 20
106.8402068757
 10
-68.6412770603
 20
106.9218617944
 10
-68.6217508457
 20
107.003516713
  0
LINE
  5
313
100
AcDbEntity
  8
0
100
AcDbLine
 62
7
  6
CONTINUOUS
 10
-69.8217508457
 20
107.003516713
 11
-69.8217508457
 21
109.6974996922
  0
LINE
  5
314
100
AcDbEntity
  8
ASSI
100
AcDbLine
 62
7
  6
CONTINUOUS
 10
-69.4217508457
 20
106.6823681936
 11
-69.4217508457
 21
94.7564625611
  0
LWPOLYLINE
  5
315
100
AcDbEntity
  8
0
100
AcDbPolyline
 62
7
  6
CONTINUOUS
 90
4
 70
0
 10
-66.3226130428
 20
105.3295908804
 10
-66.2249819699
 20
105.4112457991
 10
-66.1664033261
 20
105.4929007177
 10
-66.1468771115
 20
105.5745556364
  0
LINE
  5
316
100
AcDbEntity
  8
ASSI
100
AcDbLine
 62
7
  6
CONTINUOUS
 10
-69.0217508457
 20
106.6823681936
 11
-69.0217508457
 21
94.7564625611
  0
LINE
  5
317
100
AcDbEntity
  8
0
100
AcDbLine
 62
7
  6
CONTINUOUS
 10
-68.6217508457
 20
107.003516713
 11
-68.6217508457
 21
109.1140794851
  0
LWPOLYLINE
  5
318
100
AcDbEntity
  8
ASSI
100
AcDbPolyline
 62
7
  6
CONTINUOUS
 90
8
 70
0
 10
-69.0217508902
 20
94.7565396293
 10
-69.0225119061
 20
94.7463980344
 10
-69.0259145471
 20
94.7331773104
 10
-69.0319873166
 20
94.7200914676
 10
-69.0404892883
 20
94.7076596636
 10
-69.0513401532
 20
94.696054951
 10
-69.0646202203
 20
94.6851042773
 10
-69.0803294894
 20
94.6748076425
  0
LWPOLYLINE
  5
319
100
AcDbEntity
  8
0
100
AcDbPolyline
 62
7
  6
CONTINUOUS
 90
10
 70
0
 10
-69.8217508457
 20
107.003516713
 10
-69.7984119005
 20
106.9165470895
 10
-69.7360205262
 20
106.8295774659
 10
-69.6460149144
 20
106.758551957
 10
-69.5230030498
 20
106.7065838448
 10
-69.3723769477
 20
106.6705598472
 10
-69.2217508457
 20
106.6570842328
 10
-69.0803294894
 20
106.6683584244
 10
-68.9389081332
 20
106.7021809991
 10
-68.797486777
 20
106.758551957
  0
LINE
  5
31A
100
AcDbEntity
  8
0
100
AcDbLine
 62
7
  6
CONTINUOUS
 10
-67.3468771115
 20
105.5745556364
 11
-67.3468771115
 21
108.3843008026
  0
LINE
  5
31B
100
AcDbEntity
  8
ASSI
100
AcDbLine
 62
7
  6
CONTINUOUS
 10
-66.9468771115
 20
105.2534071169
 11
-66.9468771115
 21
93.3275014845
  0
LINE
  5
31C
100
AcDbEntity
  8
ASSI
100
AcDbLine
 62
7
  6
CONTINUOUS
 10
-66.5468771115
 20
105.2534071169
 11
-66.5468771115
 21
93.3275014845
  0
LINE
  5
31D
100
AcDbEntity
  8
0
100
AcDbLine
 62
7
  6
CONTINUOUS
 10
-66.1468771115
 20
105.5745556364
 11
-66.1468771115
 21
107.8360158569
  0
LWPOLYLINE
  5
31E
100
AcDbEntity
  8
0
100
AcDbPolyline
 62
7
  6
CONTINUOUS
 90
10
 70
0
 10
-67.3468771115
 20
105.5745556364
 10
-67.3235381664
 20
105.4875860128
 10
-67.2611467921
 20
105.4006163893
 10
-67.1711411802
 20
105.3295908804
 10
-67.0481293157
 20
105.2776227682
 10
-66.8975032136
 20
105.2415987706
 10
-66.7468771115
 20
105.2281231562
 10
-66.6054557553
 20
105.2393973477
 10
-66.4640343991
 20
105.2732199225
 10
-66.3226130428
 20
105.3295908804
  0
LWPOLYLINE
  5
31F
100
AcDbEntity
  8
ASSI
100
AcDbPolyline
 62
7
  6
CONTINUOUS
 90
8
 70
0
 10
-66.5468771561
 20
93.3275785526
 10
-66.5476381719
 20
93.3174369578
 10
-66.5510408129
 20
93.3042162338
 10
-66.5571135825
 20
93.2911303909
 10
-66.5656155541
 20
93.278698587
 10
-66.5764664191
 20
93.2670938744
 10
-66.5897464861
 20
93.2561432007
 10
-66.6054557553
 20
93.2458465658
  0
LWPOLYLINE
  5
320
100
AcDbEntity
  8
ASSI
100
AcDbPolyline
 62
7
  6
CONTINUOUS
 90
22
 70
0
 10
-69.0803294894
 20
94.6748076425
 10
-69.0981626352
 20
94.6657373074
 10
-69.1171285365
 20
94.6580695631
 10
-69.1372271933
 20
94.6518044096
 10
-69.1587583222
 20
94.6468954778
 10
-69.1814222067
 20
94.6433891367
 10
-69.2043196971
 20
94.6414244945
 10
-69.2274601856
 20
94.6410635348
 10
-69.2508342801
 20
94.6422442738
 10
-69.2735146547
 20
94.6449198679
 10
-69.2954734184
 20
94.6491504175
 10
-69.3167384622
 20
94.6548758221
 10
-69.336466133
 20
94.6618689363
 10
-69.3545946208
 20
94.6701807285
 10
-69.3711857358
 20
94.6797602303
 10
-69.3855812545
 20
94.690227392
 10
-69.3976929034
 20
94.7016179019
 10
-69.4076089562
 20
94.7138960716
 10
-69.4149360109
 20
94.7265747866
 10
-69.4195699772
 20
94.7396701506
 10
-69.4216149455
 20
94.7531660598
 10
-69.4217508011
 20
94.756385493
  0
LINE
  5
321
100
AcDbEntity
  8
0
100
AcDbLine
 62
7
  6
CONTINUOUS
 10
-66.1468771115
 20
107.8360158569
 11
-67.2191744106
 21
108.3106389931
  0
LINE
  5
322
100
AcDbEntity
  8
0
100
AcDbLine
 62
7
  6
CONTINUOUS
 10
-68.6217508457
 20
109.1140794851
 11
-69.3930671727
 21
109.545596876
  0
LINE
  5
323
100
AcDbEntity
  8
0
100
AcDbLine
 62
7
  6
CONTINUOUS
 10
-67.2191744106
 20
108.3106389931
 11
-67.3468771115
 21
108.3843008026
  0
LINE
  5
324
100
AcDbEntity
  8
0
100
AcDbLine
 62
7
  6
CONTINUOUS
 10
-69.3930671727
 20
109.545596876
 11
-69.8217508457
 21
109.6974996922
  0
LWPOLYLINE
  5
325
100
AcDbEntity
  8
ASSI
100
AcDbPolyline
 62
7
  6
CONTINUOUS
 90
22
 70
0
 10
-66.6054557553
 20
93.2458465658
 10
-66.623288901
 20
93.2367762307
 10
-66.6422548023
 20
93.2291084864
 10
-66.6623534592
 20
93.222843333
 10
-66.6838845881
 20
93.2179344011
 10
-66.7065484725
 20
93.2144280601
 10
-66.729445963
 20
93.2124634178
 10
-66.7525864515
 20
93.2121024581
 10
-66.775960546
 20
93.2132831972
 10
-66.7986409205
 20
93.2159587913
 10
-66.8205996842
 20
93.2201893408
 10
-66.841864728
 20
93.2259147454
 10
-66.8615923988
 20
93.2329078597
 10
-66.8797208867
 20
93.2412196518
 10
-66.8963120016
 20
93.2507991537
 10
-66.9107075204
 20
93.2612663154
 10
-66.9228191693
 20
93.2726568252
 10
-66.932735222
 20
93.284934995
 10
-66.9400622768
 20
93.2976137099
 10
-66.9446962431
 20
93.3107090739
 10
-66.9467412114
 20
93.3242049832
 10
-66.946877067
 20
93.3274244164
  0
ARC
  5
326
100
AcDbEntity
  8
RACCORDO
100
AcDbCircle
 62
7
  6
CONTINUOUS
 10
-64.6253799713
 20
122.0853846438
 40
0.15
100
AcDbArc
 50
300.867565563
 51
359.9950191027
  0
ENDSEC
  0
SECTION
  2
OBJECTS
  0
DICTIONARY
  5
C
100
AcDbDictionary
280
0
281
1
  3
ACAD_GROUP
350
D
  3
ACAD_MLINESTYLE
350
17
  3
ACAD_LAYOUT
350
1A
  3
ACAD_PLOTSETTINGS
350
19
  3
ACAD_PLOTSTYLENAME
350
E
  0
DICTIONARY
  5
D
102
{ACAD_REACTORS
330
C
102
}
100
AcDbDictionary
280
0
281
1
  0
ACDBDICTIONARYWDFLT
  5
E
102
{ACAD_REACTORS
330
C
102
}
100
AcDbDictionary
281
1
  3
Normal
350
F
100
AcDbDictionaryWithDefault
340
F
  0
DICTIONARY
  5
17
102
{ACAD_REACTORS
330
C
102
}
100
AcDbDictionary
280
0
281
1
  3
Standard
350
18
  0
DICTIONARY
  5
19
102
{ACAD_REACTORS
330
C
102
}
100
AcDbDictionary
281
1
  0
DICTIONARY
  5
1A
102
{ACAD_REACTORS
330
C
102
}
100
AcDbDictionary
281
1
  3
Model
350
327
  3
Layout1
350
328
  0
ACDBPLACEHOLDER
  5
F
102
{ACAD_REACTORS
330
E
102
}
  0
MLINESTYLE
  5
18
102
{ACAD_REACTORS
330
17
102
}
100
AcDbMlineStyle
  2
STANDARD
 70
0
  3

 62
256
 51
90.0
 52
90.0
 71
2
 49
0.5
 62
256
  6
BYLAYER
 49
-0.5
 62
256
  6
BYLAYER
  0
LAYOUT
  5
327
102
{ACAD_REACTORS
330
1A
102
}
100
AcDbPlotSettings
  1

  2
none_device
  4
ISO_A4_(297.00_x_210.00_MM)
  6

 40
0.0
 41
0.0
 42
0.0
 43
0.0
 44
297.0
 45
210.0
 46
0.0
 47
0.0
 48
0.0
 49
0.0
140
0.0
141
0.0
142
1.0
143
1.0
 70
1024
 72
1
 73
0
 74
0
  7

 75
0
147
1.0
148
0.0
149
0.0
100
AcDbLayout
  1
Model
 70
0
 71
0
 10
0.0
 20
0.0
 11
297.0
 21
210.0
 12
0.0
 22
0.0
 32
0.0
 14
0.0
 24
0.0
 34
0.0
 15
0.0
 25
0.0
 35
0.0
146
0.0
 13
0.0
 23
0.0
 33
0.0
 16
1.0
 26
0.0
 36
0.0
 17
0.0
 27
1.0
 37
0.0
 76
0
330
219
345
0
346
0
  0
LAYOUT
  5
328
102
{ACAD_REACTORS
330
1A
102
}
100
AcDbPlotSettings
  1

  2
none_device
  4
ISO_A4_(297.00_x_210.00_MM)
  6

 40
0.0
 41
0.0
 42
0.0
 43
0.0
 44
297.0
 45
210.0
 46
0.0
 47
0.0
 48
0.0
 49
0.0
140
0.0
141
0.0
142
1.0
143
1.0
 70
0
 72
1
 73
0
 74
0
  7

 75
0
147
1.0
148
0.0
149
0.0
100
AcDbLayout
  1
Layout1
 70
0
 71
1
 10
0.0
 20
0.0
 11
297.0
 21
210.0
 12
0.0
 22
0.0
 32
0.0
 14
0.0
 24
0.0
 34
0.0
 15
0.0
 25
0.0
 35
0.0
146
0.0
 13
0.0
 23
0.0
 33
0.0
 16
1.0
 26
0.0
 36
0.0
 17
0.0
 27
1.0
 37
0.0
 76
0
330
21A
345
0
346
0
  0
ENDSEC
  0
EOF
