  0
SECTION
  2
HEADER
  9
$ACADVER
  1
AC1024
  9
$DWGCODEPAGE
  3
ANSI_1252
  9
$EXTMAX
 10
558.8
 20
431.8
 30
0.0
  9
$EXTMIN
 10
0.0
 20
0.0
 30
0.0
  9
$LIMMIN
 10
0.0
 20
0.0
  9
$LIMMAX
 10
558.8
 20
431.8
  9
$VIEWCTR
 10
279.4
 20
215.9
  9
$VIEWSIZE
 40
431.8
  9
$CLAYER
  8
0
  9
$LTSCALE
 40
30.734
  9
$CELTYPE
  6
BYLAYER
  9
$DIMSCALE
 40
1.0
  9
$DIMASZ
 40
3.0
  9
$DIMEXO
 40
0.5
  9
$DIMDLI
 40
21.2344
  9
$DIMEXE
 40
1.5
  9
$DIMCEN
 40
5.0292
  9
$DIMLFAC
 40
1.0
  9
$DIMBLK
  1
_FILLED
  9
$DIMALT
 70
0
  9
$DIMALTF
 40
0.0393700787
  9
$DIMTXT
 40
3.0
  9
$DIMTOL
 70
1
  9
$DIMLIM
 70
0
  9
$DIMTFAC
 40
1.0
  9
$DIMTP
 40
0.01
  9
$DIMTM
 40
0.01
  9
$DIMGAP
 40
0.625
  9
$DIMDSEP
 70
44
  9
$AUNITS
 70
0
  9
$PDMODE
 70
3
  9
$PDSIZE
 40
3.0
  9
$HANDSEED
  5
3C8
  9
$TILEMODE
 70
1
  9
$MEASUREMENT
 70
1
  9
$INSUNITS
 70
4
  0
ENDSEC
  0
SECTION
  2
CLASSES
  0
CLASS
  1
ACDBDICTIONARYWDFLT
  2
AcDbDictionaryWithDefault
  3
AutoCAD 2000
 90
0
 91
1
280
0
281
0
  0
CLASS
  1
ACDBPLACEHOLDER
  2
AcDbPlaceHolder
  3
AutoCAD 2000
 90
0
 91
1
280
0
281
0
  0
CLASS
  1
LAYOUT
  2
AcDbLayout
  3
AutoCAD 2000
 90
0
 91
0
280
0
281
0
  0
ENDSEC
  0
SECTION
  2
TABLES
  0
TABLE
  2
VPORT
  5
8
100
AcDbSymbolTable
 70
2
  0
VPORT
  5
1F4
100
AcDbSymbolTableRecord
100
AcDbViewportTableRecord
  2
*ACTIVE
 70
0
 10
0.0
 20
0.0
 11
1.0
 21
1.0
 12
279.4
 22
215.9
 13
0.0
 23
0.0
 14
1.0
 24
1.0
 15
0.0
 25
0.0
 16
0.0
 26
0.0
 36
1.0
 17
0.0
 27
0.0
 37
0.0
 40
431.8
 41
1.2941176471
 42
50.0
 43
0.0
 44
0.0
 50
0.0
 51
0.0
 71
0
 72
100
 73
1
 74
1
 75
0
 76
0
 77
0
 78
0
  0
ENDTAB
  0
TABLE
  2
LTYPE
  5
5
100
AcDbSymbolTable
 70
6
  0
LTYPE
  5
14
100
AcDbSymbolTableRecord
100
AcDbLinetypeTableRecord
  2
BYBLOCK
 70
0
  3

 72
65
 73
0
 40
0.0
  0
LTYPE
  5
15
100
AcDbSymbolTableRecord
100
AcDbLinetypeTableRecord
  2
BYLAYER
 70
0
  3

 72
65
 73
0
 40
0.0
  0
LTYPE
  5
16
100
AcDbSymbolTableRecord
100
AcDbLinetypeTableRecord
  2
CONTINUOUS
 70
64
  3
Solid line
 72
65
 73
0
 40
0.0
  0
LTYPE
  5
1F5
100
AcDbSymbolTableRecord
100
AcDbLinetypeTableRecord
  2
CENTER
 70
64
  3
____ _ ____ _ ____ _ ____ _ ____ _ ____ _ ____
 72
65
 73
4
 40
0.6
 49
0.375
 74
0
 49
-0.075
 74
0
 49
0.075
 74
0
 49
-0.075
 74
0
  0
LTYPE
  5
1F6
100
AcDbSymbolTableRecord
100
AcDbLinetypeTableRecord
  2
HIDDEN
 70
64
  3
- - - - - - - - - - - - - - - - - - - -
 72
65
 73
2
 40
0.2
 49
0.1
 74
0
 49
-0.1
 74
0
  0
LTYPE
  5
1F7
100
AcDbSymbolTableRecord
100
AcDbLinetypeTableRecord
  2
PHANTOM
 70
64
  3
_____ _ _ _____ _ _ _____ _ _ _____
 72
65
 73
6
 40
0.8
 49
0.45
 74
0
 49
-0.05
 74
0
 49
0.1
 74
0
 49
-0.05
 74
0
 49
0.1
 74
0
 49
-0.05
 74
0
  0
LTYPE
  5
1F8
100
AcDbSymbolTableRecord
100
AcDbLinetypeTableRecord
  2
DOT
 70
64
  3
. . . . . . . . . . . . . . . . . . . .
 72
65
 73
2
 40
0.2
 49
0.1
 74
0
 49
-0.1
 74
0
  0
LTYPE
  5
1F9
100
AcDbSymbolTableRecord
100
AcDbLinetypeTableRecord
  2
DASHED
 70
64
  3
- - - - - - - - - - - - - - - - - - - -
 72
65
 73
2
 40
0.2
 49
0.1
 74
0
 49
-0.1
 74
0
  0
ENDTAB
  0
TABLE
  2
LAYER
  5
2
100
AcDbSymbolTable
 70
36
  0
LAYER
  5
10
100
AcDbSymbolTableRecord
100
AcDbLayerTableRecord
  2
0
 70
0
 62
7
  6
CONTINUOUS
370
-3
390
F
  0
LAYER
  5
1FA
100
AcDbSymbolTableRecord
100
AcDbLayerTableRecord
  2
DEFAULT_1
 70
0
 62
7
  6
CENTER
370
-3
390
F
  0
LAYER
  5
1FB
100
AcDbSymbolTableRecord
100
AcDbLayerTableRecord
  2
DEFAULT_2
 70
0
 62
7
  6
HIDDEN
370
-3
390
F
  0
LAYER
  5
1FC
100
AcDbSymbolTableRecord
100
AcDbLayerTableRecord
  2
DEFAULT_3
 70
0
 62
7
  6
PHANTOM
370
-3
390
F
  0
LAYER
  5
1FD
100
AcDbSymbolTableRecord
100
AcDbLayerTableRecord
  2
ASSI
 70
0
 62
7
  6
CONTINUOUS
370
-3
390
F
  0
LAYER
  5
1FE
100
AcDbSymbolTableRecord
100
AcDbLayerTableRecord
  2
COLOR5
 70
0
 62
7
  6
CONTINUOUS
370
-3
390
F
  0
LAYER
  5
1FF
100
AcDbSymbolTableRecord
100
AcDbLayerTableRecord
  2
COORDINATE
 70
0
 62
7
  6
CONTINUOUS
370
-3
390
F
  0
LAYER
  5
200
100
AcDbSymbolTableRecord
100
AcDbLayerTableRecord
  2
COORD_ORIGINE
 70
0
 62
7
  6
CONTINUOUS
370
-3
390
F
  0
LAYER
  5
201
100
AcDbSymbolTableRecord
100
AcDbLayerTableRecord
  2
COSMETICHE
 70
0
 62
7
  6
CONTINUOUS
370
-3
390
F
  0
LAYER
  5
202
100
AcDbSymbolTableRecord
100
AcDbLayerTableRecord
  2
CURVE
 70
0
 62
7
  6
CONTINUOUS
370
-3
390
F
  0
LAYER
  5
203
100
AcDbSymbolTableRecord
100
AcDbLayerTableRecord
  2
DRAFT
 70
0
 62
7
  6
CONTINUOUS
370
-3
390
F
  0
LAYER
  5
204
100
AcDbSymbolTableRecord
100
AcDbLayerTableRecord
  2
INTF_1
 70
0
 62
7
  6
CONTINUOUS
370
-3
390
F
  0
LAYER
  5
205
100
AcDbSymbolTableRecord
100
AcDbLayerTableRecord
  2
INTF_10
 70
0
 62
7
  6
CONTINUOUS
370
-3
390
F
  0
LAYER
  5
206
100
AcDbSymbolTableRecord
100
AcDbLayerTableRecord
  2
INTF_11
 70
0
 62
7
  6
CONTINUOUS
370
-3
390
F
  0
LAYER
  5
207
100
AcDbSymbolTableRecord
100
AcDbLayerTableRecord
  2
INTF_12
 70
0
 62
7
  6
CONTINUOUS
370
-3
390
F
  0
LAYER
  5
208
100
AcDbSymbolTableRecord
100
AcDbLayerTableRecord
  2
INTF_2
 70
0
 62
7
  6
CONTINUOUS
370
-3
390
F
  0
LAYER
  5
209
100
AcDbSymbolTableRecord
100
AcDbLayerTableRecord
  2
INTF_8
 70
0
 62
7
  6
CONTINUOUS
370
-3
390
F
  0
LAYER
  5
20A
100
AcDbSymbolTableRecord
100
AcDbLayerTableRecord
  2
INTF_9
 70
0
 62
7
  6
CONTINUOUS
370
-3
390
F
  0
LAYER
  5
20B
100
AcDbSymbolTableRecord
100
AcDbLayerTableRecord
  2
INTF_YELLOW
 70
0
 62
7
  6
CONTINUOUS
370
-3
390
F
  0
LAYER
  5
20C
100
AcDbSymbolTableRecord
100
AcDbLayerTableRecord
  2
NOTE
 70
0
 62
7
  6
CONTINUOUS
370
-3
390
F
  0
LAYER
  5
20D
100
AcDbSymbolTableRecord
100
AcDbLayerTableRecord
  2
PIANI
 70
0
 62
7
  6
CONTINUOUS
370
-3
390
F
  0
LAYER
  5
20E
100
AcDbSymbolTableRecord
100
AcDbLayerTableRecord
  2
PIANI_ORIGINE
 70
0
 62
7
  6
CONTINUOUS
370
-3
390
F
  0
LAYER
  5
20F
100
AcDbSymbolTableRecord
100
AcDbLayerTableRecord
  2
PUNTI
 70
0
 62
7
  6
CONTINUOUS
370
-3
390
F
  0
LAYER
  5
210
100
AcDbSymbolTableRecord
100
AcDbLayerTableRecord
  2
RACCORDO
 70
0
 62
7
  6
CONTINUOUS
370
-3
390
F
  0
LAYER
  5
211
100
AcDbSymbolTableRecord
100
AcDbLayerTableRecord
  2
RGB__255__255__255__
 70
0
 62
7
  6
CONTINUOUS
370
-3
390
F
  0
LAYER
  5
212
100
AcDbSymbolTableRecord
100
AcDbLayerTableRecord
  2
RGB____0____0____0__
 70
0
 62
7
  6
CONTINUOUS
370
-3
390
F
  0
LAYER
  5
213
100
AcDbSymbolTableRecord
100
AcDbLayerTableRecord
  2
SMUSSO
 70
0
 62
7
  6
CONTINUOUS
370
-3
390
F
  0
LAYER
  5
214
100
AcDbSymbolTableRecord
100
AcDbLayerTableRecord
  2
SUPERFICI
 70
0
 62
7
  6
CONTINUOUS
370
-3
390
F
  0
LAYER
  5
215
100
AcDbSymbolTableRecord
100
AcDbLayerTableRecord
  2
TRASH
 70
0
 62
7
  6
CONTINUOUS
370
-3
390
F
  0
LAYER
  5
216
100
AcDbSymbolTableRecord
100
AcDbLayerTableRecord
  2
XSEC_DATUMS
 70
0
 62
7
  6
CONTINUOUS
370
-3
390
F
  0
ENDTAB
  0
TABLE
  2
STYLE
  5
3
100
AcDbSymbolTable
 70
1
  0
STYLE
  5
11
100
AcDbSymbolTableRecord
100
AcDbTextStyleTableRecord
  2
STANDARD
 70
0
 40
0.0
 41
0.8
 50
0.0
 71
0
 42
0.2
  3
txt
  4

  0
STYLE
  5
217
100
AcDbSymbolTableRecord
100
AcDbTextStyleTableRecord
  2
TEXTSTYLE_1
 70
0
 40
0.0
 41
0.8
 50
0.0
 71
0
 42
0.2
  3
gdt
  4

  0
ENDTAB
  0
TABLE
  2
VIEW
  5
6
100
AcDbSymbolTable
 70
0
  0
ENDTAB
  0
TABLE
  2
UCS
  5
7
100
AcDbSymbolTable
 70
0
  0
ENDTAB
  0
TABLE
  2
APPID
  5
9
100
AcDbSymbolTable
 70
1
  0
APPID
  5
218
100
AcDbSymbolTableRecord
100
AcDbRegAppTableRecord
  2
ACAD
 70
0
  0
ENDTAB
  0
TABLE
  2
BLOCK_RECORD
  5
1
100
AcDbSymbolTable
 70
0
  0
BLOCK_RECORD
  5
219
100
AcDbSymbolTableRecord
100
AcDbBlockTableRecord
  2
*Model_Space
  0
BLOCK_RECORD
  5
21A
100
AcDbSymbolTableRecord
100
AcDbBlockTableRecord
  2
*Paper_Space
  0
BLOCK_RECORD
  5
21B
100
AcDbSymbolTableRecord
100
AcDbBlockTableRecord
  2
_FILLED
  0
ENDTAB
  0
TABLE
  2
DIMSTYLE
  5
A
100
AcDbSymbolTable
 70
1
100
AcDbDimStyleTable
 71
0
  0
DIMSTYLE
105
21C
100
AcDbSymbolTableRecord
100
AcDbDimStyleTableRecord
  2
STANDARD
 70
0
  3

  4

 40
1.0
 41
3.0
 42
0.5
 43
0.38
 44
1.5
 45
0.0
 46
0.0
 47
0.01
 48
0.01
140
3.0
141
0.09
142
0.0
143
25.4
144
1.0
145
0.0
146
1.0
147
0.625
 71
1
 72
0
 73
0
 74
0
 75
0
 76
0
 77
1
 78
8
 79
2
170
0
171
1
172
0
173
0
174
0
175
0
176
0
177
0
178
0
270
2
179
2
271
2
272
2
273
2
274
2
275
0
280
0
281
0
282
0
283
1
284
8
285
0
286
0
287
3
288
0
340
11
278
44
341
21B
342
21B
343
21B
344
21B
  0
ENDTAB
  0
ENDSEC
  0
SECTION
  2
BLOCKS
  0
BLOCK
  5
20
100
AcDbEntity
  8
0
100
AcDbBlockBegin
  2
*Model_Space
 70
0
 10
0.0
 20
0.0
 30
0.0
  3
*Model_Space
  1

  0
ENDBLK
  5
21
100
AcDbEntity
  8
0
100
AcDbBlockEnd
  0
BLOCK
  5
1C
100
AcDbEntity
  8
0
100
AcDbBlockBegin
  2
*Paper_Space
 70
0
 10
0.0
 20
0.0
 30
0.0
  3
*Paper_Space
  1

  0
ENDBLK
  5
1D
100
AcDbEntity
  8
0
100
AcDbBlockEnd
  0
BLOCK
  5
21D
100
AcDbEntity
  8
0
100
AcDbBlockBegin
  2
_FILLED
 70
64
 10
0.0
 20
0.0
  3
_FILLED
  1

  0
SOLID
  5
21E
100
AcDbEntity
  8
0
  6
BYBLOCK
 62
0
100
AcDbTrace
 10
0.0
 20
0.0
 11
-1.0
 21
0.1333333333
 12
-1.0
 22
-0.1333333333
 13
-1.0
 23
-0.1333333333
  0
ENDBLK
  5
21F
100
AcDbEntity
  8
0
  6
BYBLOCK
 62
0
100
AcDbBlockEnd
  0
ENDSEC
  0
SECTION
  2
ENTITIES
  0
LINE
  5
220
100
AcDbEntity
  8
ASSI
100
AcDbLine
 62
7
  6
CONTINUOUS
 10
10.0232764135
 20
32.0429237959
 11
10.6260870512
 21
32.2322636156
  0
LINE
  5
221
100
AcDbEntity
  8
ASSI
100
AcDbLine
 62
7
  6
CONTINUOUS
 10
11.9956138718
 20
32.6624251705
 11
13.4071224437
 21
33.1057729846
  0
LINE
  5
222
100
AcDbEntity
  8
ASSI
100
AcDbLine
 62
7
  6
CONTINUOUS
 10
1.5601065984
 20
29.3846742162
 11
2.162894544
 21
29.5740069084
  0
LINE
  5
223
100
AcDbEntity
  8
ASSI
100
AcDbLine
 62
7
  6
CONTINUOUS
 10
3.4954651979
 20
29.9925607154
 11
4.0982531435
 21
30.1818934076
  0
LINE
  5
224
100
AcDbEntity
  8
ASSI
100
AcDbLine
 62
7
  6
CONTINUOUS
 10
4.5001042099
 20
30.3081128266
 11
5.1028850643
 21
30.4974432915
  0
LINE
  5
225
100
AcDbEntity
  8
ASSI
100
AcDbLine
 62
7
  6
CONTINUOUS
 10
5.7056432266
 20
30.6867666289
 11
6.616885925
 21
30.9729834231
  0
LINE
  5
226
100
AcDbEntity
  8
ASSI
100
AcDbLine
 62
7
  6
CONTINUOUS
 10
7.7425211923
 20
31.3265398556
 11
8.6537638908
 21
31.6127566497
  0
LINE
  5
227
100
AcDbEntity
  8
0
100
AcDbLine
 62
7
  6
CONTINUOUS
 10
12.0310323774
 20
32.6522439802
 11
13.4425411345
 21
33.0955917411
  0
LINE
  5
228
100
AcDbEntity
  8
0
100
AcDbLine
 62
7
  6
CONTINUOUS
 10
10.0586949192
 20
32.0327426056
 11
10.6615055569
 21
32.2220824253
  0
LINE
  5
229
100
AcDbEntity
  8
0
100
AcDbLine
 62
7
  6
CONTINUOUS
 10
1.5955251004
 20
29.3744930269
 11
2.198313046
 21
29.5638257191
  0
LINE
  5
22A
100
AcDbEntity
  8
0
100
AcDbLine
 62
7
  6
CONTINUOUS
 10
3.5308836999
 20
29.9823795262
 11
4.1336716455
 21
30.1717122184
  0
LINE
  5
22B
100
AcDbEntity
  8
0
100
AcDbLine
 62
7
  6
CONTINUOUS
 10
4.5355227119
 20
30.2979316374
 11
5.1383035663
 21
30.4872621022
  0
LINE
  5
22C
100
AcDbEntity
  8
0
100
AcDbLine
 62
7
  6
CONTINUOUS
 10
5.7410617286
 20
30.6765854396
 11
6.652304427
 21
30.9628022338
  0
LINE
  5
22D
100
AcDbEntity
  8
0
100
AcDbLine
 62
7
  6
CONTINUOUS
 10
7.7779396943
 20
31.3163586663
 11
8.6891823928
 21
31.6025754605
  0
LINE
  5
22E
100
AcDbEntity
  8
0
100
AcDbLine
 62
7
  6
CONTINUOUS
 10
12.6036246934
 20
32.0990456216
 11
13.3369976784
 21
32.3293944452
  0
LINE
  5
22F
100
AcDbEntity
  8
0
100
AcDbLine
 62
7
  6
CONTINUOUS
 10
-13.866810714
 20
20.8931099442
 11
-13.7836813593
 21
21.0341601136
  0
LINE
  5
230
100
AcDbEntity
  8
0
100
AcDbLine
 62
7
  6
CONTINUOUS
 10
2.9454757468
 20
25.5349618416
 11
3.5482759372
 21
25.7243104114
  0
LINE
  5
231
100
AcDbEntity
  8
0
100
AcDbLine
 62
7
  6
CONTINUOUS
 10
4.9177983133
 20
26.1544585388
 11
5.5205765208
 21
26.3438002039
  0
LINE
  5
232
100
AcDbEntity
  8
0
100
AcDbLine
 62
7
  6
CONTINUOUS
 10
7.2960155795
 20
26.9014567717
 11
7.898779136
 21
27.0907927412
  0
LINE
  5
233
100
AcDbEntity
  8
0
100
AcDbLine
 62
7
  6
CONTINUOUS
 10
9.473313505
 20
27.5853352085
 11
10.0760919531
 21
27.7746758554
  0
LINE
  5
234
100
AcDbEntity
  8
0
100
AcDbLine
 62
7
  6
CONTINUOUS
 10
14.1463221039
 20
29.0531148785
 11
14.8252584507
 21
29.2663774359
  0
LINE
  5
235
100
AcDbEntity
  8
ASSI
100
AcDbLine
 62
7
  6
CONTINUOUS
 10
12.6318243113
 20
31.1270006712
 11
13.3359276935
 21
31.3481560376
  0
LINE
  5
236
100
AcDbEntity
  8
0
100
AcDbLine
 62
7
  6
CONTINUOUS
 10
12.6379020242
 20
31.1076507532
 11
13.3712681084
 21
31.3379972948
  0
LINE
  5
237
100
AcDbEntity
  8
ASSI
100
AcDbLine
 62
7
  6
CONTINUOUS
 10
10.1485210831
 20
29.5562840439
 11
10.7032672498
 21
29.7305270525
  0
LINE
  5
238
100
AcDbEntity
  8
0
100
AcDbLine
 62
7
  6
CONTINUOUS
 10
12.720559304
 20
30.3427229615
 11
13.2466557634
 21
30.5079559974
  0
LINE
  5
239
100
AcDbEntity
  8
0
100
AcDbLine
 62
7
  6
CONTINUOUS
 10
10.1546496346
 20
29.5367722686
 11
10.7389031213
 21
29.7202833795
  0
LINE
  5
23A
100
AcDbEntity
  8
0
100
AcDbLine
 62
7
  6
CONTINUOUS
 10
10.0916092195
 20
28.6779167105
 11
11.0435976606
 21
28.9769315395
  0
LINE
  5
23B
100
AcDbEntity
  8
ASSI
100
AcDbLine
 62
250
  6
CONTINUOUS
 10
-13.5019865618
 20
20.455109711
 11
-13.4448753664
 21
20.4730480531
  0
LINE
  5
23C
100
AcDbEntity
  8
0
100
AcDbLine
 62
7
  6
CONTINUOUS
 10
11.4086696983
 20
28.1932318897
 11
12.0114607593
 21
28.3825546227
  0
LINE
  5
23D
100
AcDbEntity
  8
0
100
AcDbLine
 62
7
  6
CONTINUOUS
 10
12.4133094194
 20
28.5087842237
 11
13.0160980742
 21
28.6981171386
  0
LINE
  5
23E
100
AcDbEntity
  8
0
100
AcDbLine
 62
7
  6
CONTINUOUS
 10
6.1233417744
 20
26.5331257687
 11
6.7261226287
 21
26.7224562335
  0
LINE
  5
23F
100
AcDbEntity
  8
0
100
AcDbLine
 62
7
  6
CONTINUOUS
 10
8.4686815842
 20
27.2697853246
 11
9.0714624386
 21
27.4591157895
  0
LINE
  5
240
100
AcDbEntity
  8
ASSI
100
AcDbLine
 62
7
  6
CONTINUOUS
 10
-18.58336946
 20
30.2878919375
 11
-18.5817445747
 21
30.3161585464
  0
LWPOLYLINE
  5
241
100
AcDbEntity
  8
RACCORDO
100
AcDbPolyline
 62
7
  6
CONTINUOUS
 90
10
 70
0
 10
-18.2529660687
 20
34.7286539983
 10
-18.2860840295
 20
34.3529899003
 10
-18.3305007706
 20
33.8228207549
 10
-18.371866142
 20
33.3044762289
 10
-18.4110585578
 20
32.7936214443
 10
-18.4483114001
 20
32.2924132636
 10
-18.4836505124
 20
31.8023493761
 10
-18.5173542188
 20
31.3185342717
 10
-18.5490370701
 20
30.8433614582
 10
-18.583439442
 20
30.2872901676
  0
LINE
  5
242
100
AcDbEntity
  8
ASSI
100
AcDbLine
 62
7
  6
CONTINUOUS
 10
-18.2558002084
 20
34.6970838071
 11
-18.2529575477
 21
34.7286559818
  0
LINE
  5
243
100
AcDbEntity
  8
ASSI
100
AcDbLine
 62
7
  6
CONTINUOUS
 10
-18.2557998714
 20
34.6970828352
 11
-18.2527733175
 21
34.7286355094
  0
LINE
  5
244
100
AcDbEntity
  8
RACCORDO
100
AcDbLine
 62
250
  6
CONTINUOUS
 10
4.0927998642
 20
21.3001605233
 11
15.8114609514
 21
24.9809336192
  0
LINE
  5
245
100
AcDbEntity
  8
RACCORDO
100
AcDbLine
 62
250
  6
CONTINUOUS
 10
4.3370171502
 20
20.4631538028
 11
16.0556782374
 21
24.1439268986
  0
LINE
  5
246
100
AcDbEntity
  8
0
100
AcDbLine
 62
250
  6
CONTINUOUS
 10
-13.3494134973
 20
9.165210268
 11
-13.466700801
 21
16.2217695813
  0
LINE
  5
247
100
AcDbEntity
  8
RACCORDO
100
AcDbLine
 62
7
  6
CONTINUOUS
 10
-13.2111863907
 20
7.1799585726
 11
-13.2284966772
 21
8.2214273393
  0
LINE
  5
248
100
AcDbEntity
  8
DRAFT
100
AcDbLine
 62
7
  6
CONTINUOUS
 10
-13.3768579426
 20
7.2062527797
 11
-13.5834432555
 21
20.6074446451
  0
LINE
  5
249
100
AcDbEntity
  8
RACCORDO
100
AcDbLine
 62
7
  6
CONTINUOUS
 10
-16.9818271514
 20
6.5155494893
 11
-16.9820441214
 21
6.5346139021
  0
LINE
  5
24A
100
AcDbEntity
  8
RACCORDO
100
AcDbLine
 62
7
  6
CONTINUOUS
 10
-13.4641662111
 20
26.4733078798
 11
-13.4649671229
 21
26.4509898462
  0
LINE
  5
24B
100
AcDbEntity
  8
RACCORDO
100
AcDbLine
 62
7
  6
CONTINUOUS
 10
-13.4631468121
 20
26.4735297157
 11
-13.4640029991
 21
26.4511998479
  0
LINE
  5
24C
100
AcDbEntity
  8
0
100
AcDbLine
 62
7
  6
CONTINUOUS
 10
-9.5887599106
 20
3.9760761566
 11
-9.4262466521
 21
-5.8014906472
  0
LINE
  5
24D
100
AcDbEntity
  8
RACCORDO
100
AcDbLine
 62
7
  6
CONTINUOUS
 10
-8.9896918683
 20
21.9736591301
 11
-9.0008252191
 21
20.8468551802
  0
LINE
  5
24E
100
AcDbEntity
  8
RACCORDO
100
AcDbLine
 62
7
  6
CONTINUOUS
 10
-8.9896918683
 20
21.9736591301
 11
-9.0017973162
 21
20.8466079489
  0
LINE
  5
24F
100
AcDbEntity
  8
0
100
AcDbLine
 62
7
  6
CONTINUOUS
 10
11.5986484598
 20
16.8935519433
 11
12.6157429342
 21
17.2130162532
  0
LINE
  5
250
100
AcDbEntity
  8
0
100
AcDbLine
 62
7
  6
CONTINUOUS
 10
12.6510027076
 20
17.2028806912
 11
11.5954409445
 21
16.8713339974
  0
LINE
  5
251
100
AcDbEntity
  8
0
100
AcDbLine
 62
7
  6
CONTINUOUS
 10
12.67815268
 20
16.4693481516
 11
11.6225912402
 21
16.1378015594
  0
LINE
  5
252
100
AcDbEntity
  8
DRAFT
100
AcDbLine
 62
7
  6
CONTINUOUS
 10
-13.3414015801
 20
7.2173894466
 11
-13.3768579426
 21
7.2062527797
  0
LINE
  5
253
100
AcDbEntity
  8
0
100
AcDbLine
 62
7
  6
CONTINUOUS
 10
-13.2111863907
 20
7.1799585726
 11
-13.0211763168
 21
7.2396397906
  0
LINE
  5
254
100
AcDbEntity
  8
RACCORDO
100
AcDbLine
 62
7
  6
CONTINUOUS
 10
-14.4612974727
 20
5.1946186386
 11
-12.6484428096
 21
5.7640272614
  0
LINE
  5
255
100
AcDbEntity
  8
RACCORDO
100
AcDbLine
 62
7
  6
CONTINUOUS
 10
-13.2087110983
 20
8.0539750439
 11
-13.0211763168
 21
7.2396397906
  0
LINE
  5
256
100
AcDbEntity
  8
0
100
AcDbLine
 62
7
  6
CONTINUOUS
 10
-12.9859311989
 20
7.2295084414
 11
-12.5742117798
 21
5.4416926847
  0
LINE
  5
257
100
AcDbEntity
  8
0
100
AcDbLine
 62
7
  6
CONTINUOUS
 10
-4.779648294
 20
3.4677659013
 11
-4.6269095357
 21
-5.7217207076
  0
LINE
  5
258
100
AcDbEntity
  8
RACCORDO
100
AcDbLine
 62
7
  6
CONTINUOUS
 10
9.4564771371
 20
11.3487584651
 11
11.7540494263
 21
12.0704144806
  0
LWPOLYLINE
  5
259
100
AcDbEntity
  8
RACCORDO
100
AcDbPolyline
 62
7
  6
CONTINUOUS
 90
9
 70
0
 10
16.4739058708
 20
7.4604792209
 10
16.5129428043
 20
7.4732862115
 10
16.5891052177
 20
7.5019431652
 10
16.6592221763
 20
7.5335798475
 10
16.7238157073
 20
7.5684821663
 10
16.7832056329
 20
7.6069873573
 10
16.8378848404
 20
7.6497340005
 10
16.8875882024
 20
7.6969413105
 10
16.8953292253
 20
7.7052166243
  0
LINE
  5
25A
100
AcDbEntity
  8
RACCORDO
100
AcDbLine
 62
250
  6
CONTINUOUS
 10
16.6689308054
 20
7.8218580596
 11
13.5114285719
 21
6.8301023286
  0
LINE
  5
25B
100
AcDbEntity
  8
RACCORDO
100
AcDbLine
 62
250
  6
CONTINUOUS
 10
4.8064603174
 20
4.0959151471
 11
9.2485283359
 21
5.4911465903
  0
LINE
  5
25C
100
AcDbEntity
  8
RACCORDO
100
AcDbLine
 62
7
  6
CONTINUOUS
 10
16.4744243485
 20
7.4606270495
 11
13.5170953564
 21
6.5317447388
  0
LINE
  5
25D
100
AcDbEntity
  8
RACCORDO
100
AcDbLine
 62
7
  6
CONTINUOUS
 10
4.611953859
 20
3.7346841365
 11
9.2567027557
 21
5.193576637
  0
LINE
  5
25E
100
AcDbEntity
  8
RACCORDO
100
AcDbLine
 62
250
  6
CONTINUOUS
 10
-16.9818271514
 20
6.5155494893
 11
-16.9908863695
 21
6.5208781035
  0
LINE
  5
25F
100
AcDbEntity
  8
RACCORDO
100
AcDbLine
 62
250
  6
CONTINUOUS
 10
-16.9818271514
 20
6.5155494893
 11
-16.9905243722
 21
6.5209377789
  0
LINE
  5
260
100
AcDbEntity
  8
0
100
AcDbLine
 62
7
  6
CONTINUOUS
 10
3.7464807766
 20
3.6099477408
 11
3.9668981283
 21
-9.651403375
  0
LWPOLYLINE
  5
261
100
AcDbEntity
  8
RACCORDO
100
AcDbPolyline
 62
7
  6
CONTINUOUS
 90
7
 70
0
 10
4.1537765567
 20
3.6465395902
 10
4.2393277191
 20
3.6561722071
 10
4.3247636246
 20
3.6685023907
 10
4.4101612129
 20
3.6838242755
 10
4.4949527692
 20
3.7024074446
 10
4.5788562807
 20
3.7246845384
 10
4.6130584354
 20
3.7350477054
  0
LINE
  5
262
100
AcDbEntity
  8
RACCORDO
100
AcDbLine
 62
7
  6
CONTINUOUS
 10
4.1538931312
 20
3.6465415147
 11
4.1537774356
 21
3.6465304397
  0
LINE
  5
263
100
AcDbEntity
  8
RACCORDO
100
AcDbLine
 62
250
  6
CONTINUOUS
 10
3.0880325163
 20
3.887395303
 11
3.1290396641
 21
3.890575601
  0
LINE
  5
264
100
AcDbEntity
  8
RACCORDO
100
AcDbLine
 62
250
  6
CONTINUOUS
 10
2.6615096235
 20
3.8571355449
 11
2.6754514741
 21
3.8581716446
  0
LINE
  5
265
100
AcDbEntity
  8
RACCORDO
100
AcDbLine
 62
250
  6
CONTINUOUS
 10
3.0870844754
 20
3.888762477
 11
3.1281696658
 21
3.8918157554
  0
LINE
  5
266
100
AcDbEntity
  8
RACCORDO
100
AcDbLine
 62
250
  6
CONTINUOUS
 10
2.6621445172
 20
3.8560949983
 11
2.6761250115
 21
3.8570726498
  0
LINE
  5
267
100
AcDbEntity
  8
0
100
AcDbLine
 62
7
  6
CONTINUOUS
 10
-12.5742117798
 20
5.4416926847
 11
-12.2321876504
 21
5.3433764886
  0
LINE
  5
268
100
AcDbEntity
  8
0
100
AcDbLine
 62
7
  6
CONTINUOUS
 10
-13.3711948517
 20
7.225953641
 11
-13.2111863907
 21
7.1799585726
  0
LINE
  5
269
100
AcDbEntity
  8
0
100
AcDbLine
 62
7
  6
CONTINUOUS
 10
-13.0211763168
 20
7.2396397906
 11
-12.9859311989
 21
7.2295084414
  0
LINE
  5
26A
100
AcDbEntity
  8
RACCORDO
100
AcDbLine
 62
250
  6
CONTINUOUS
 10
-13.2087110983
 20
8.0539750439
 11
-12.2793569727
 21
7.7868285047
  0
LINE
  5
26B
100
AcDbEntity
  8
RACCORDO
100
AcDbLine
 62
250
  6
CONTINUOUS
 10
-13.2284966772
 20
8.2214273393
 11
-12.2822162259
 21
7.9494152605
  0
LINE
  5
26C
100
AcDbEntity
  8
0
100
AcDbLine
 62
7
  6
CONTINUOUS
 10
-13.866810714
 20
20.8931099442
 11
-13.4424416235
 21
20.465299624
  0
LINE
  5
26D
100
AcDbEntity
  8
0
100
AcDbLine
 62
7
  6
CONTINUOUS
 10
8.524643978
 20
4.9636406201
 11
8.7662352447
 21
-9.5716334354
  0
LINE
  5
26E
100
AcDbEntity
  8
RACCORDO
100
AcDbLine
 62
7
  6
CONTINUOUS
 10
16.894879723
 20
7.7046755312
 11
16.8953553468
 21
7.7051926195
  0
LINE
  5
26F
100
AcDbEntity
  8
0
100
AcDbLine
 62
250
  6
CONTINUOUS
 10
-13.3494134973
 20
9.165210268
 11
-13.4073127054
 21
9.1818536256
  0
LINE
  5
270
100
AcDbEntity
  8
RACCORDO
100
AcDbLine
 62
7
  6
CONTINUOUS
 10
10.6167279203
 20
4.8026231817
 11
9.2566733458
 21
5.1935762777
  0
LINE
  5
271
100
AcDbEntity
  8
RACCORDO
100
AcDbLine
 62
250
  6
CONTINUOUS
 10
10.4089547955
 20
5.1570300824
 11
9.2485384347
 21
5.49059638
  0
LWPOLYLINE
  5
272
100
AcDbEntity
  8
RACCORDO
100
AcDbPolyline
 62
7
  6
CONTINUOUS
 90
9
 70
0
 10
13.5186997451
 20
6.4472732801
 10
13.5067593321
 20
7.0759389486
 10
13.4940507812
 20
7.7048182748
 10
13.4805741352
 20
8.3339094054
 10
13.4663294349
 20
8.9632107304
 10
13.4513167202
 20
9.592720669
 10
13.4355360325
 20
10.2224376008
 10
13.4189874222
 20
10.8523596473
 10
13.4070150432
 20
11.2909537703
  0
LINE
  5
273
100
AcDbEntity
  8
RACCORDO
100
AcDbLine
 62
250
  6
CONTINUOUS
 10
13.413115179
 20
5.9919435038
 11
13.4147948735
 21
5.8990092634
  0
LINE
  5
274
100
AcDbEntity
  8
RACCORDO
100
AcDbLine
 62
7
  6
CONTINUOUS
 10
13.5186997451
 20
6.4472732801
 11
13.5268400485
 21
5.9936841249
  0
LINE
  5
275
100
AcDbEntity
  8
0
100
AcDbLine
 62
250
  6
CONTINUOUS
 10
-13.5160548294
 20
16.2359565931
 11
-13.466700801
 21
16.2217695813
  0
LINE
  5
276
100
AcDbEntity
  8
RACCORDO
100
AcDbLine
 62
250
  6
CONTINUOUS
 10
10.2892459653
 20
10.4490839897
 11
9.1289997584
 21
10.7826013759
  0
LINE
  5
277
100
AcDbEntity
  8
RACCORDO
100
AcDbLine
 62
250
  6
CONTINUOUS
 10
10.6220079918
 20
11.0137219859
 11
9.4564771371
 21
11.3487584651
  0
LINE
  5
278
100
AcDbEntity
  8
RACCORDO
100
AcDbLine
 62
250
  6
CONTINUOUS
 10
-16.8160215598
 20
24.2097680432
 11
-16.7917146247
 21
24.1957949662
  0
LINE
  5
279
100
AcDbEntity
  8
RACCORDO
100
AcDbLine
 62
250
  6
CONTINUOUS
 10
-16.8148507779
 20
24.2099645934
 11
-16.7917146247
 21
24.1957949662
  0
LINE
  5
27A
100
AcDbEntity
  8
RACCORDO
100
AcDbLine
 62
250
  6
CONTINUOUS
 10
12.9195731383
 20
11.7353800546
 11
11.7540494263
 21
12.0704144806
  0
LINE
  5
27B
100
AcDbEntity
  8
RACCORDO
100
AcDbLine
 62
7
  6
CONTINUOUS
 10
13.0598073424
 20
11.7389708953
 11
11.8947470072
 21
12.0738721218
  0
LINE
  5
27C
100
AcDbEntity
  8
0
100
AcDbLine
 62
7
  6
CONTINUOUS
 10
9.0724033334
 20
13.4758695764
 11
9.1076570315
 21
13.4657357607
  0
LINE
  5
27D
100
AcDbEntity
  8
0
100
AcDbLine
 62
250
  6
CONTINUOUS
 10
-13.4314963261
 20
20.4348470124
 11
-12.3400832872
 21
20.1211159941
  0
LINE
  5
27E
100
AcDbEntity
  8
0
100
AcDbLine
 62
7
  6
CONTINUOUS
 10
-13.4314963261
 20
20.4348470124
 11
-13.5019865618
 21
20.455109711
  0
LINE
  5
27F
100
AcDbEntity
  8
0
100
AcDbLine
 62
250
  6
CONTINUOUS
 10
-13.4424416235
 20
20.465299624
 11
-12.3399116046
 21
20.1483729857
  0
LINE
  5
280
100
AcDbEntity
  8
0
100
AcDbLine
 62
7
  6
CONTINUOUS
 10
-13.866810714
 20
20.8931099442
 11
-12.337988806
 21
20.4536440071
  0
LINE
  5
281
100
AcDbEntity
  8
0
100
AcDbLine
 62
7
  6
CONTINUOUS
 10
10.0122445017
 20
14.2908919991
 11
9.9769896821
 21
14.3010261372
  0
LINE
  5
282
100
AcDbEntity
  8
0
100
AcDbLine
 62
7
  6
CONTINUOUS
 10
12.1464699611
 20
14.4414185972
 11
12.1817236592
 21
14.4312847815
  0
LINE
  5
283
100
AcDbEntity
  8
0
100
AcDbLine
 62
7
  6
CONTINUOUS
 10
13.0863111148
 20
15.2564414509
 11
13.0510562952
 21
15.266575589
  0
LINE
  5
284
100
AcDbEntity
  8
0
100
AcDbLine
 62
7
  6
CONTINUOUS
 10
12.6510027076
 20
17.2028806912
 11
12.6157429342
 21
17.2130162532
  0
LINE
  5
285
100
AcDbEntity
  8
0
100
AcDbLine
 62
7
  6
CONTINUOUS
 10
9.856573868
 20
18.4186058111
 11
9.8213081038
 21
18.4287430952
  0
LINE
  5
286
100
AcDbEntity
  8
0
100
AcDbLine
 62
7
  6
CONTINUOUS
 10
12.9306404956
 20
19.3841548319
 11
12.8953747314
 21
19.394292116
  0
LINE
  5
287
100
AcDbEntity
  8
0
100
AcDbLine
 62
7
  6
CONTINUOUS
 10
2.9454757468
 20
25.5349618416
 11
2.9084909932
 21
25.5455932561
  0
LINE
  5
288
100
AcDbEntity
  8
0
100
AcDbLine
 62
7
  6
CONTINUOUS
 10
4.9177983133
 20
26.1544585388
 11
4.8808135598
 21
26.1650899533
  0
LINE
  5
289
100
AcDbEntity
  8
0
100
AcDbLine
 62
7
  6
CONTINUOUS
 10
6.1233417744
 20
26.5331257687
 11
6.0863570337
 21
26.5437571795
  0
LINE
  5
28A
100
AcDbEntity
  8
0
100
AcDbLine
 62
7
  6
CONTINUOUS
 10
7.2960155795
 20
26.9014567717
 11
7.2590308388
 21
26.9120881825
  0
LINE
  5
28B
100
AcDbEntity
  8
0
100
AcDbLine
 62
7
  6
CONTINUOUS
 10
8.4686815842
 20
27.2697853246
 11
8.4316968435
 21
27.2804167354
  0
LINE
  5
28C
100
AcDbEntity
  8
0
100
AcDbLine
 62
7
  6
CONTINUOUS
 10
1.5955251004
 20
29.3744930269
 11
1.5601065984
 21
29.3846742162
  0
LINE
  5
28D
100
AcDbEntity
  8
0
100
AcDbLine
 62
7
  6
CONTINUOUS
 10
2.198313046
 20
29.5638257191
 11
2.162894544
 21
29.5740069084
  0
LINE
  5
28E
100
AcDbEntity
  8
0
100
AcDbLine
 62
7
  6
CONTINUOUS
 10
9.473313505
 20
27.5853352085
 11
9.4363287643
 21
27.5959666193
  0
LINE
  5
28F
100
AcDbEntity
  8
0
100
AcDbLine
 62
7
  6
CONTINUOUS
 10
3.5308836999
 20
29.9823795262
 11
3.4954651979
 21
29.9925607154
  0
LINE
  5
290
100
AcDbEntity
  8
0
100
AcDbLine
 62
7
  6
CONTINUOUS
 10
4.1336716455
 20
30.1717122184
 11
4.0982531435
 21
30.1818934076
  0
LINE
  5
291
100
AcDbEntity
  8
0
100
AcDbLine
 62
7
  6
CONTINUOUS
 10
11.4086696983
 20
28.1932318897
 11
11.3716849693
 21
28.2038632972
  0
LINE
  5
292
100
AcDbEntity
  8
0
100
AcDbLine
 62
7
  6
CONTINUOUS
 10
4.5355227119
 20
30.2979316374
 11
4.5001042099
 21
30.3081128266
  0
LINE
  5
293
100
AcDbEntity
  8
0
100
AcDbLine
 62
7
  6
CONTINUOUS
 10
5.1383035663
 20
30.4872621022
 11
5.1028850643
 21
30.4974432915
  0
LINE
  5
294
100
AcDbEntity
  8
0
100
AcDbLine
 62
7
  6
CONTINUOUS
 10
12.4133094194
 20
28.5087842237
 11
12.3763246904
 21
28.5194156311
  0
LINE
  5
295
100
AcDbEntity
  8
0
100
AcDbLine
 62
7
  6
CONTINUOUS
 10
5.7410617286
 20
30.6765854396
 11
5.7056432266
 21
30.6867666289
  0
LINE
  5
296
100
AcDbEntity
  8
0
100
AcDbLine
 62
7
  6
CONTINUOUS
 10
10.7389031213
 20
29.7202833795
 11
10.7032672498
 21
29.7305270525
  0
LINE
  5
297
100
AcDbEntity
  8
0
100
AcDbLine
 62
7
  6
CONTINUOUS
 10
6.652304427
 20
30.9628022338
 11
6.616885925
 21
30.9729834231
  0
LINE
  5
298
100
AcDbEntity
  8
0
100
AcDbLine
 62
7
  6
CONTINUOUS
 10
14.1463221039
 20
29.0531148785
 11
14.1093373749
 21
29.063746286
  0
LINE
  5
299
100
AcDbEntity
  8
0
100
AcDbLine
 62
7
  6
CONTINUOUS
 10
7.7779396943
 20
31.3163586663
 11
7.7425211923
 21
31.3265398556
  0
LINE
  5
29A
100
AcDbEntity
  8
0
100
AcDbLine
 62
7
  6
CONTINUOUS
 10
8.6891823928
 20
31.6025754605
 11
8.6537638908
 21
31.6127566497
  0
LINE
  5
29B
100
AcDbEntity
  8
0
100
AcDbLine
 62
7
  6
CONTINUOUS
 10
10.0586949192
 20
32.0327426056
 11
10.0232764135
 21
32.0429237959
  0
LINE
  5
29C
100
AcDbEntity
  8
0
100
AcDbLine
 62
7
  6
CONTINUOUS
 10
13.3712681084
 20
31.3379972948
 11
13.3359276935
 21
31.3481560376
  0
LINE
  5
29D
100
AcDbEntity
  8
0
100
AcDbLine
 62
7
  6
CONTINUOUS
 10
10.6615055569
 20
32.2220824253
 11
10.6260870512
 21
32.2322636156
  0
LINE
  5
29E
100
AcDbEntity
  8
0
100
AcDbLine
 62
7
  6
CONTINUOUS
 10
12.0310323774
 20
32.6522439802
 11
11.9956138718
 21
32.6624251705
  0
LINE
  5
29F
100
AcDbEntity
  8
0
100
AcDbLine
 62
7
  6
CONTINUOUS
 10
13.4425411345
 20
33.0955917411
 11
13.4071224437
 21
33.1057729846
  0
LINE
  5
2A0
100
AcDbEntity
  8
ASSI
100
AcDbLine
 62
7
  6
CONTINUOUS
 10
13.8156947738
 20
33.1075427309
 11
13.7803124105
 21
33.1177135319
  0
LINE
  5
2A1
100
AcDbEntity
  8
RACCORDO
100
AcDbLine
 62
250
  6
CONTINUOUS
 10
-1.5503369553
 20
39.42469954
 11
-1.5284752532
 21
39.425026584
  0
LINE
  5
2A2
100
AcDbEntity
  8
RACCORDO
100
AcDbLine
 62
250
  6
CONTINUOUS
 10
-1.5859671274
 20
39.4244599128
 11
-1.5284882181
 21
39.4248679468
  0
LINE
  5
2A3
100
AcDbEntity
  8
RACCORDO
100
AcDbLine
 62
250
  6
CONTINUOUS
 10
-1.5859434069
 20
39.424708751
 11
-1.5503369553
 21
39.42469954
  0
ARC
  5
2A4
100
AcDbEntity
  8
RACCORDO
100
AcDbCircle
 62
7
  6
CONTINUOUS
 10
-512.5978034725
 20
-3.6497989512
 40
521.9263850283
100
AcDbArc
 50
1.0034611475
 51
1.584554967
  0
ARC
  5
2A5
100
AcDbEntity
  8
RACCORDO
100
AcDbCircle
 62
250
  6
CONTINUOUS
 10
-507.4458140667
 20
-3.2258366403
 40
520.9405320254
100
AcDbArc
 50
1.0138714425
 51
1.5865513288
  0
ARC
  5
2A6
100
AcDbEntity
  8
RACCORDO
100
AcDbCircle
 62
250
  6
CONTINUOUS
 10
-507.8519278288
 20
-3.9189019634
 40
518.3403466846
100
AcDbArc
 50
1.0032774408
 51
1.5883973116
  0
ARC
  5
2A7
100
AcDbEntity
  8
RACCORDO
100
AcDbCircle
 62
250
  6
CONTINUOUS
 10
-506.4850608483
 20
-3.9066345408
 40
517.6197705395
100
AcDbArc
 50
1.0034140542
 51
1.5900502455
  0
ARC
  5
2A8
100
AcDbEntity
  8
ASSI
100
AcDbCircle
 62
7
  6
CONTINUOUS
 10
-347.757260852
 20
2.9919422605
 40
365.5018129872
100
AcDbArc
 50
1.0245360621
 51
3.8067415043
  0
ARC
  5
2A9
100
AcDbEntity
  8
ASSI
100
AcDbCircle
 62
7
  6
CONTINUOUS
 10
-125.2096194869
 20
17.800317091
 40
142.4620393106
100
AcDbArc
 50
3.8065505685
 51
9.6808943555
  0
ARC
  5
2AA
100
AcDbEntity
  8
RACCORDO
100
AcDbCircle
 62
7
  6
CONTINUOUS
 10
-16.5948696265
 20
24.0871094173
 40
0.2710297251
100
AcDbArc
 50
174.8234896162
 51
178.6297731681
  0
ARC
  5
2AB
100
AcDbEntity
  8
RACCORDO
100
AcDbCircle
 62
7
  6
CONTINUOUS
 10
-16.7052168085
 20
6.3978377301
 40
0.2403175702
100
AcDbArc
 50
239.3405783306
 51
254.3587795449
  0
ARC
  5
2AC
100
AcDbEntity
  8
RACCORDO
100
AcDbCircle
 62
7
  6
CONTINUOUS
 10
-16.8115110698
 20
24.1702144352
 40
0.0312958999
100
AcDbArc
 50
94.9680332367
 51
107.4539850696
  0
ARC
  5
2AD
100
AcDbEntity
  8
RACCORDO
100
AcDbCircle
 62
7
  6
CONTINUOUS
 10
15.7813372645
 20
-4.9467137298
 40
52.8350620008
100
AcDbArc
 50
119.255739425
 51
120.6171482783
  0
ARC
  5
2AE
100
AcDbEntity
  8
RACCORDO
100
AcDbCircle
 62
7
  6
CONTINUOUS
 10
11.6522908459
 20
4.0753053207
 40
42.8963395079
100
AcDbArc
 50
107.4423237692
 51
109.0080619125
  0
ARC
  5
2AF
100
AcDbEntity
  8
RACCORDO
100
AcDbCircle
 62
7
  6
CONTINUOUS
 10
-12.2176725869
 20
13.9607334259
 40
9.026456722
100
AcDbArc
 50
239.7089558712
 51
240.578458548
  0
ARC
  5
2B0
100
AcDbEntity
  8
RACCORDO
100
AcDbCircle
 62
7
  6
CONTINUOUS
 10
-12.3886827238
 20
13.6670532362
 40
8.6866151503
100
AcDbArc
 50
239.314193311
 51
239.7058739075
  0
ARC
  5
2B1
100
AcDbEntity
  8
RACCORDO
100
AcDbCircle
 62
7
  6
CONTINUOUS
 10
-12.6579405984
 20
13.2246026532
 40
8.1766358642
100
AcDbArc
 50
237.1117725083
 51
239.3383117781
  0
ARC
  5
2B2
100
AcDbEntity
  8
0
100
AcDbCircle
 62
7
  6
CONTINUOUS
 10
-7.0376728389
 20
-5.0940933099
 40
2.5
100
AcDbArc
 50
198.0250524843
 51
343.8794022148
  0
ARC
  5
2B3
100
AcDbEntity
  8
0
100
AcDbCircle
 62
7
  6
CONTINUOUS
 10
6.3554719416
 20
-8.9440060378
 40
2.5
100
AcDbArc
 50
198.0250524843
 51
343.8794022148
  0
ARC
  5
2B4
100
AcDbEntity
  8
RACCORDO
100
AcDbCircle
 62
250
  6
CONTINUOUS
 10
16.1942986239
 20
9.3373624186
 40
1.5880726925
100
AcDbArc
 50
287.3888008968
 51
290.2710589504
  0
ARC
  5
2B5
100
AcDbEntity
  8
0
100
AcDbCircle
 62
7
  6
CONTINUOUS
 10
-12.9285559225
 20
11.337263168
 40
1.5653194628
100
AcDbArc
 50
252.1487075143
 51
253.9812721188
  0
ARC
  5
2B6
100
AcDbEntity
  8
0
100
AcDbCircle
 62
7
  6
CONTINUOUS
 10
-12.9291022297
 20
11.3364961833
 40
1.5644315359
100
AcDbArc
 50
251.7981214453
 51
253.9927517108
  0
ARC
  5
2B7
100
AcDbEntity
  8
0
100
AcDbCircle
 62
7
  6
CONTINUOUS
 10
-12.96349188
 20
11.2272960449
 40
1.4499372083
100
AcDbArc
 50
251.744047617
 51
252.1306813107
  0
ARC
  5
2B8
100
AcDbEntity
  8
RACCORDO
100
AcDbCircle
 62
250
  6
CONTINUOUS
 10
12.6683727506
 20
11.1858900547
 40
0.6237096882
100
AcDbArc
 50
29.3845746989
 51
35.0243960665
  0
ARC
  5
2B9
100
AcDbEntity
  8
RACCORDO
100
AcDbCircle
 62
250
  6
CONTINUOUS
 10
12.7009078126
 20
11.1799034347
 40
0.5943617298
100
AcDbArc
 50
1.6914064608
 51
7.5184238839
  0
ARC
  5
2BA
100
AcDbEntity
  8
RACCORDO
100
AcDbCircle
 62
7
  6
CONTINUOUS
 10
12.9271993891
 20
11.2776519918
 40
0.48
100
AcDbArc
 50
1.5402633952
 51
73.9624923444
  0
ARC
  5
2BB
100
AcDbEntity
  8
RACCORDO
100
AcDbCircle
 62
7
  6
CONTINUOUS
 10
10.7493358736
 20
5.2639420852
 40
0.48
100
AcDbArc
 50
253.9624923444
 51
284.7872632892
  0
ARC
  5
2BC
100
AcDbEntity
  8
RACCORDO
100
AcDbCircle
 62
7
  6
CONTINUOUS
 10
13.0469081628
 20
5.9855981008
 40
0.48
100
AcDbArc
 50
290.5123451979
 51
0.9726798815
  0
ARC
  5
2BD
100
AcDbEntity
  8
RACCORDO
100
AcDbCircle
 62
7
  6
CONTINUOUS
 10
-8.4379570981
 20
4.1916169909
 40
0.4407956754
100
AcDbArc
 50
196.3538490593
 51
202.1615306558
  0
ARC
  5
2BE
100
AcDbEntity
  8
RACCORDO
100
AcDbCircle
 62
250
  6
CONTINUOUS
 10
13.1257314227
 20
5.7746106615
 40
0.2547735471
100
AcDbArc
 50
290.5362582876
 51
296.7847276712
  0
ARC
  5
2BF
100
AcDbEntity
  8
RACCORDO
100
AcDbCircle
 62
7
  6
CONTINUOUS
 10
-8.5977524229
 20
4.0728410037
 40
0.2456494759
100
AcDbArc
 50
238.3004763435
 51
250.5920210059
  0
ARC
  5
2C0
100
AcDbEntity
  8
RACCORDO
100
AcDbCircle
 62
7
  6
CONTINUOUS
 10
-8.5985111982
 20
4.0718125016
 40
0.2444275676
100
AcDbArc
 50
250.6796651285
 51
262.3327013264
  0
ARC
  5
2C1
100
AcDbEntity
  8
RACCORDO
100
AcDbCircle
 62
7
  6
CONTINUOUS
 10
200.247842743
 20
18.6195870975
 40
213.8589698621
100
AcDbArc
 50
174.9063937205
 51
175.3479491567
  0
ARC
  5
2C2
100
AcDbEntity
  8
RACCORDO
100
AcDbCircle
 62
7
  6
CONTINUOUS
 10
192.2755985632
 20
19.0776898893
 40
205.8726449073
100
AcDbArc
 50
177.9475207308
 51
178.4826621577
  0
ARC
  5
2C3
100
AcDbEntity
  8
RACCORDO
100
AcDbCircle
 62
7
  6
CONTINUOUS
 10
191.8629432443
 20
19.0916389094
 40
205.4597547502
100
AcDbArc
 50
177.9472867282
 51
178.9363575053
  0
ARC
  5
2C4
100
AcDbEntity
  8
RACCORDO
100
AcDbCircle
 62
7
  6
CONTINUOUS
 10
190.848525266
 20
19.1157668735
 40
204.4450637446
100
AcDbArc
 50
178.4827393731
 51
178.9378409171
  0
ARC
  5
2C5
100
AcDbEntity
  8
ASSI
100
AcDbCircle
 62
7
  6
CONTINUOUS
 10
123.7295667569
 20
21.9319311854
 40
142.5580733871
100
AcDbArc
 50
176.6397126907
 51
178.0974094587
  0
ARC
  5
2C6
100
AcDbEntity
  8
ASSI
100
AcDbCircle
 62
7
  6
CONTINUOUS
 10
123.5157219642
 20
21.9486907648
 40
142.3435492093
100
AcDbArc
 50
172.2220609583
 51
174.84890317
  0
ARC
  5
2C7
100
AcDbEntity
  8
RACCORDO
100
AcDbCircle
 62
250
  6
CONTINUOUS
 10
90.6751646893
 20
24.9831781734
 40
109.36336641
100
AcDbArc
 50
175.1010686569
 51
175.2550759535
  0
ARC
  5
2C8
100
AcDbEntity
  8
RACCORDO
100
AcDbCircle
 62
250
  6
CONTINUOUS
 10
74.3358756637
 20
26.3831959501
 40
92.9642074253
100
AcDbArc
 50
174.9329127561
 51
175.1007945186
  0
ARC
  5
2C9
100
AcDbEntity
  8
RACCORDO
100
AcDbCircle
 62
250
  6
CONTINUOUS
 10
70.5307201656
 20
25.0325110399
 40
89.2690095573
100
AcDbArc
 50
176.3364990712
 51
176.5263395078
  0
ARC
  5
2CA
100
AcDbEntity
  8
RACCORDO
100
AcDbCircle
 62
7
  6
CONTINUOUS
 10
3.2596032788
 20
25.9970711166
 40
21.5566540504
100
AcDbArc
 50
73.9754672582
 51
75.1563146957
  0
ARC
  5
2CB
100
AcDbEntity
  8
RACCORDO
100
AcDbCircle
 62
250
  6
CONTINUOUS
 10
3.9710780527
 20
30.0883162215
 40
17.3552950834
100
AcDbArc
 50
72.6828611484
 51
73.9785398398
  0
ARC
  5
2CC
100
AcDbEntity
  8
RACCORDO
100
AcDbCircle
 62
250
  6
CONTINUOUS
 10
4.3313939851
 20
31.2457041086
 40
16.1431177053
100
AcDbArc
 50
71.9336912989
 51
72.680997275
  0
ARC
  5
2CD
100
AcDbEntity
  8
0
100
AcDbCircle
 62
7
  6
CONTINUOUS
 10
26.5732290269
 20
32.0857526219
 40
13.969610658
100
AcDbArc
 50
179.9454793042
 51
184.0149292663
  0
ARC
  5
2CE
100
AcDbEntity
  8
RACCORDO
100
AcDbCircle
 62
250
  6
CONTINUOUS
 10
-12.3283908487
 20
14.4708232828
 40
9.1999850585
100
AcDbArc
 50
239.6133546583
 51
241.8131501322
  0
ARC
  5
2CF
100
AcDbEntity
  8
RACCORDO
100
AcDbCircle
 62
7
  6
CONTINUOUS
 10
-12.3051811249
 20
32.0332978322
 40
9.0308047272
100
AcDbArc
 50
240.211268228
 51
242.0963942902
  0
ARC
  5
2D0
100
AcDbEntity
  8
RACCORDO
100
AcDbCircle
 62
250
  6
CONTINUOUS
 10
7.1769578376
 20
26.9872730396
 40
8.2874825625
100
AcDbArc
 50
155.8360738363
 51
156.7057235068
  0
ARC
  5
2D1
100
AcDbEntity
  8
RACCORDO
100
AcDbCircle
 62
250
  6
CONTINUOUS
 10
7.1338956663
 20
27.0058991322
 40
8.240564808
100
AcDbArc
 50
156.7062707411
 51
157.0003808273
  0
ARC
  5
2D2
100
AcDbEntity
  8
RACCORDO
100
AcDbCircle
 62
250
  6
CONTINUOUS
 10
7.0782043001
 20
27.1487079833
 40
7.2455112683
100
AcDbArc
 50
159.5263116924
 51
160.7914404657
  0
ARC
  5
2D3
100
AcDbEntity
  8
RACCORDO
100
AcDbCircle
 62
250
  6
CONTINUOUS
 10
12.0924434707
 20
35.4932381023
 40
5.2931757193
100
AcDbArc
 50
357.2843167303
 51
0.0531958381
  0
ARC
  5
2D4
100
AcDbEntity
  8
RACCORDO
100
AcDbCircle
 62
7
  6
CONTINUOUS
 10
-8.5748739425
 20
37.2323114119
 40
4.2084022877
100
AcDbArc
 50
171.8615668479
 51
174.896651136
  0
ARC
  5
2D5
100
AcDbEntity
  8
0
100
AcDbCircle
 62
7
  6
CONTINUOUS
 10
-13.0193606516
 20
17.0741490252
 40
1.5812593624
100
AcDbArc
 50
252.08024476
 51
253.9852512981
  0
ARC
  5
2D6
100
AcDbEntity
  8
0
100
AcDbCircle
 62
7
  6
CONTINUOUS
 10
-13.0238448746
 20
17.0583584307
 40
1.5648444614
100
AcDbArc
 50
252.0584135494
 51
253.983560033
  0
ARC
  5
2D7
100
AcDbEntity
  8
RACCORDO
100
AcDbCircle
 62
7
  6
CONTINUOUS
 10
-9.148718833
 20
21.8522768502
 40
0.1421750476
100
AcDbArc
 50
74.3427553676
 51
81.9183241461
  0
ARC
  5
2D8
100
AcDbEntity
  8
RACCORDO
100
AcDbCircle
 62
7
  6
CONTINUOUS
 10
480.5721696031
 20
11.9504867454
 40
497.5861838012
100
AcDbArc
 50
178.6016137622
 51
178.827439168
  0
ARC
  5
2D9
100
AcDbEntity
  8
RACCORDO
100
AcDbCircle
 62
7
  6
CONTINUOUS
 10
465.9718711002
 20
12.0213185766
 40
482.9850806764
100
AcDbArc
 50
180.5301120803
 51
180.6508933623
  0
ARC
  5
2DA
100
AcDbEntity
  8
RACCORDO
100
AcDbCircle
 62
7
  6
CONTINUOUS
 10
476.3435844207
 20
15.9489242569
 40
485.367480629
100
AcDbArc
 50
181.170211954
 51
181.3863207559
  0
ARC
  5
2DB
100
AcDbEntity
  8
ASSI
100
AcDbCircle
 62
7
  6
CONTINUOUS
 10
346.550465333
 20
14.5320537454
 40
365.5018129873
100
AcDbArc
 50
178.0977131949
 51
180.8799186371
  0
ARC
  5
2DC
100
AcDbEntity
  8
RACCORDO
100
AcDbCircle
 62
250
  6
CONTINUOUS
 10
-1.5230180484
 20
64.0999957721
 40
60.3891700506
100
AcDbArc
 50
268.0720399503
 51
273.7207328582
  0
ARC
  5
2DD
100
AcDbEntity
  8
RACCORDO
100
AcDbCircle
 62
250
  6
CONTINUOUS
 10
-1.384117351
 20
61.8248869046
 40
58.1098361513
100
AcDbArc
 50
274.006627342
 51
274.4138643023
  0
ARC
  5
2DE
100
AcDbEntity
  8
RACCORDO
100
AcDbCircle
 62
250
  6
CONTINUOUS
 10
-1.2734960399
 20
60.4209879921
 40
56.7015859189
100
AcDbArc
 50
274.453153283
 51
275.5743000262
  0
ARC
  5
2DF
100
AcDbEntity
  8
RACCORDO
100
AcDbCircle
 62
250
  6
CONTINUOUS
 10
-1.8872462563
 20
85.8201346209
 40
46.3966529044
100
AcDbArc
 50
269.5551914523
 51
270.3720558009
  0
ARC
  5
2E0
100
AcDbEntity
  8
RACCORDO
100
AcDbCircle
 62
250
  6
CONTINUOUS
 10
-1.8890143641
 20
85.5245922327
 40
46.101105699
100
AcDbArc
 50
269.3899355363
 51
269.5545373162
  0
ARC
  5
2E1
100
AcDbEntity
  8
RACCORDO
100
AcDbCircle
 62
7
  6
CONTINUOUS
 10
-2.7167369808
 20
47.6508602688
 40
44.2186068385
100
AcDbArc
 50
262.3134641397
 51
262.4835991108
  0
ARC
  5
2E2
100
AcDbEntity
  8
RACCORDO
100
AcDbCircle
 62
7
  6
CONTINUOUS
 10
-3.291821827
 20
63.3867371646
 40
41.8031997334
100
AcDbArc
 50
261.3982217451
 51
261.8917023137
  0
ARC
  5
2E3
100
AcDbEntity
  8
RACCORDO
100
AcDbCircle
 62
7
  6
CONTINUOUS
 10
-6.8748203123
 20
46.1721492489
 40
24.2083323319
100
AcDbArc
 50
253.9658511936
 51
254.9658476381
  0
ARC
  5
2E4
100
AcDbEntity
  8
RACCORDO
100
AcDbCircle
 62
7
  6
CONTINUOUS
 10
-7.1553780066
 20
45.191565135
 40
23.1884027703
100
AcDbArc
 50
253.7201091919
 51
253.96287592
  0
ARC
  5
2E5
100
AcDbEntity
  8
RACCORDO
100
AcDbCircle
 62
7
  6
CONTINUOUS
 10
-7.4113314961
 20
44.3201257037
 40
22.2801534485
100
AcDbArc
 50
252.942881364
 51
253.723710074
  0
ARC
  5
2E6
100
AcDbEntity
  8
RACCORDO
100
AcDbCircle
 62
250
  6
CONTINUOUS
 10
-7.0643507017
 20
57.4535520034
 40
20.6498116382
100
AcDbArc
 50
253.0807697475
 51
253.9700265607
  0
ARC
  5
2E7
100
AcDbEntity
  8
RACCORDO
100
AcDbCircle
 62
250
  6
CONTINUOUS
 10
11.9330489953
 20
39.5039530278
 40
5.0650909009
100
AcDbArc
 50
61.9539565151
 51
65.5197701396
  0
ARC
  5
2E8
100
AcDbEntity
  8
RACCORDO
100
AcDbCircle
 62
7
  6
CONTINUOUS
 10
12.7514947522
 20
40.6274220971
 40
3.931271747
100
AcDbArc
 50
73.9620749204
 51
74.4082945199
  0
ARC
  5
2E9
100
AcDbEntity
  8
RACCORDO
100
AcDbCircle
 62
7
  6
CONTINUOUS
 10
12.755870481
 20
40.6425971552
 40
3.9154784187
100
AcDbArc
 50
73.635662673
 51
73.962264474
  0
ARC
  5
2EA
100
AcDbEntity
  8
RACCORDO
100
AcDbCircle
 62
7
  6
CONTINUOUS
 10
-9.9078914764
 20
38.464655786
 40
2.3921890856
100
AcDbArc
 50
120.6526780653
 51
125.0762335716
  0
ARC
  5
2EB
100
AcDbEntity
  8
RACCORDO
100
AcDbCircle
 62
7
  6
CONTINUOUS
 10
8.8186101896
 20
45.3034976782
 40
1.4671338368
100
AcDbArc
 50
86.1198760831
 51
92.2467484696
  0
ARC
  5
2EC
100
AcDbEntity
  8
RACCORDO
100
AcDbCircle
 62
7
  6
CONTINUOUS
 10
8.820411258
 20
45.3371164046
 40
1.4334703737
100
AcDbArc
 50
84.1013459654
 51
86.100769959
  0
ARC
  5
2ED
100
AcDbEntity
  8
RACCORDO
100
AcDbCircle
 62
7
  6
CONTINUOUS
 10
8.8225484301
 20
45.3568928892
 40
1.4135789686
100
AcDbArc
 50
79.9356189593
 51
84.1051334519
  0
ARC
  5
2EE
100
AcDbEntity
  8
RACCORDO
100
AcDbCircle
 62
7
  6
CONTINUOUS
 10
8.8259790007
 20
45.3768213365
 40
1.3933576758
100
AcDbArc
 50
76.7084659318
 51
79.9313091883
  0
ARC
  5
2EF
100
AcDbEntity
  8
RACCORDO
100
AcDbCircle
 62
7
  6
CONTINUOUS
 10
8.828369744
 20
45.3872496002
 40
1.3826591112
100
AcDbArc
 50
73.9569766504
 51
76.7055313291
  0
ARC
  5
2F0
100
AcDbEntity
  8
RACCORDO
100
AcDbCircle
 62
7
  6
CONTINUOUS
 10
13.7332947921
 20
44.0292943824
 40
0.3909314189
100
AcDbArc
 50
87.484885552
 51
90.2915771901
  0
ARC
  5
2F1
100
AcDbEntity
  8
RACCORDO
100
AcDbCircle
 62
7
  6
CONTINUOUS
 10
13.7336049947
 20
44.0366395625
 40
0.3835797022
100
AcDbArc
 50
84.9727567247
 51
87.4830297167
  0
ARC
  5
2F2
100
AcDbEntity
  8
RACCORDO
100
AcDbCircle
 62
7
  6
CONTINUOUS
 10
13.7344683702
 20
44.0457243796
 40
0.3744541814
100
AcDbArc
 50
78.8661846082
 51
84.9825428929
  0
ARC
  5
2F3
100
AcDbEntity
  8
RACCORDO
100
AcDbCircle
 62
7
  6
CONTINUOUS
 10
13.7352753514
 20
44.0504836228
 40
0.3696287056
100
AcDbArc
 50
73.8898480442
 51
78.8464640321
  0
ARC
  5
2F4
100
AcDbEntity
  8
RACCORDO
100
AcDbCircle
 62
7
  6
CONTINUOUS
 10
13.7353869279
 20
44.0508886421
 40
0.3692111433
100
AcDbArc
 50
73.8874383727
 51
78.629753586
  0
SPLINE
  5
2F5
100
AcDbEntity
  8
0
100
AcDbSpline
 62
7
  6
CONTINUOUS
 70
0
 71
3
 72
9
 73
5
 74
0
 42
0.0000001
 43
0.0000001
 44
0.0000000001
 40
0.0
 40
0.0
 40
0.0
 40
0.0
 40
0.2548789385
 40
1.0
 40
1.0
 40
1.0
 40
1.0
 10
-9.4149695934
 20
-5.8676750521
 30
0.0
 10
-9.416739559
 20
-5.8622400924
 30
0.0
 10
-9.4229434284
 20
-5.8406842821
 30
0.0
 10
-9.4259680714
 20
-5.8181983787
 30
0.0
 10
-9.4262421193
 20
-5.8014905719
 30
0.0
  0
SPLINE
  5
2F6
100
AcDbEntity
  8
0
100
AcDbSpline
 62
7
  6
CONTINUOUS
 70
0
 71
3
 72
9
 73
5
 74
0
 42
0.0000001
 43
0.0000001
 44
0.0000000001
 40
0.0
 40
0.0
 40
0.0
 40
0.0
 40
0.2548599824
 40
1.0
 40
1.0
 40
1.0
 40
1.0
 10
-4.6359824199
 20
-5.7882433067
 30
0.0
 10
-4.6343963365
 20
-5.7827523763
 30
0.0
 10
-4.6289211434
 20
-5.7610003925
 30
0.0
 10
-4.6266400168
 20
-5.7384288288
 30
0.0
 10
-4.6269140686
 20
-5.7217207828
 30
0.0
  0
SPLINE
  5
2F7
100
AcDbEntity
  8
0
100
AcDbSpline
 62
7
  6
CONTINUOUS
 70
0
 71
3
 72
12
 73
8
 74
0
 42
0.0000001
 43
0.0000001
 44
0.0000000001
 40
0.0
 40
0.0
 40
0.0
 40
0.0
 40
0.3353744634
 40
0.6126789453
 40
0.7291099985
 40
0.8314125074
 40
1.0
 40
1.0
 40
1.0
 40
1.0
 10
-5.3348124375
 20
-6.247910443
 30
0.0
 10
-5.2429079641
 20
-6.2190437055
 30
0.0
 10
-5.077138285
 20
-6.159044442
 30
0.0
 10
-4.889791585
 20
-6.0632816551
 30
0.0
 10
-4.7742072008
 20
-5.9791710151
 30
0.0
 10
-4.693454255
 20
-5.9028327487
 30
0.0
 10
-4.6494206174
 20
-5.8347655797
 30
0.0
 10
-4.6359824199
 20
-5.7882433067
 30
0.0
  0
SPLINE
  5
2F8
100
AcDbEntity
  8
0
100
AcDbSpline
 62
7
  6
CONTINUOUS
 70
0
 71
3
 72
19
 73
15
 74
0
 42
0.0000001
 43
0.0000001
 44
0.0000000001
 40
0.0
 40
0.0
 40
0.0
 40
0.0
 40
0.1303476939
 40
0.2796308248
 40
0.4374621381
 40
0.5925213804
 40
0.6655470568
 40
0.7338364528
 40
0.7962602601
 40
0.85187803
 40
0.9000020883
 40
0.9403338363
 40
0.9731958751
 40
1.0
 40
1.0
 40
1.0
 40
1.0
 10
-5.3348124375
 20
-6.247910443
 30
0.0
 10
-5.5115657395
 20
-6.303427775
 30
0.0
 10
-5.9002887059
 20
-6.3921125323
 30
0.0
 10
-6.5180399077
 20
-6.4686669721
 30
0.0
 10
-7.1752445202
 20
-6.4933966097
 30
0.0
 10
-7.7239759672
 20
-6.4687819913
 30
0.0
 10
-8.1425557235
 20
-6.4201092093
 30
0.0
 10
-8.4281917485
 20
-6.3715368814
 30
0.0
 10
-8.6862738446
 20
-6.3112336763
 30
0.0
 10
-8.9118710176
 20
-6.2404159188
 30
0.0
 10
-9.1008616557
 20
-6.1605302859
 30
0.0
 10
-9.2501032402
 20
-6.0727342663
 30
0.0
 10
-9.3577700153
 20
-5.9782726904
 30
0.0
 10
-9.4031724604
 20
-5.9039000174
 30
0.0
 10
-9.4149695934
 20
-5.8676750521
 30
0.0
  0
SPLINE
  5
2F9
100
AcDbEntity
  8
0
100
AcDbSpline
 62
7
  6
CONTINUOUS
 70
0
 71
3
 72
9
 73
5
 74
0
 42
0.0000001
 43
0.0000001
 44
0.0000000001
 40
0.0
 40
0.0
 40
0.0
 40
0.0
 40
0.2548789385
 40
1.0
 40
1.0
 40
1.0
 40
1.0
 10
3.9781751871
 20
-9.71758778
 30
0.0
 10
3.9764052215
 20
-9.7121528203
 30
0.0
 10
3.970201352
 20
-9.6905970099
 30
0.0
 10
3.967176709
 20
-9.6681111066
 30
0.0
 10
3.9669026612
 20
-9.6514032998
 30
0.0
  0
SPLINE
  5
2FA
100
AcDbEntity
  8
0
100
AcDbSpline
 62
7
  6
CONTINUOUS
 70
0
 71
3
 72
9
 73
5
 74
0
 42
0.0000001
 43
0.0000001
 44
0.0000000001
 40
0.0
 40
0.0
 40
0.0
 40
0.0
 40
0.2548599824
 40
1.0
 40
1.0
 40
1.0
 40
1.0
 10
8.7571623605
 20
-9.6381560346
 30
0.0
 10
8.758748444
 20
-9.6326651041
 30
0.0
 10
8.7642236371
 20
-9.6109131204
 30
0.0
 10
8.7665047636
 20
-9.5883415566
 30
0.0
 10
8.7662307119
 20
-9.5716335107
 30
0.0
  0
SPLINE
  5
2FB
100
AcDbEntity
  8
0
100
AcDbSpline
 62
7
  6
CONTINUOUS
 70
0
 71
3
 72
12
 73
8
 74
0
 42
0.0000001
 43
0.0000001
 44
0.0000000001
 40
0.0
 40
0.0
 40
0.0
 40
0.0
 40
0.3353744634
 40
0.6126789453
 40
0.7291099985
 40
0.8314125074
 40
1.0
 40
1.0
 40
1.0
 40
1.0
 10
8.058332343
 20
-10.0978231709
 30
0.0
 10
8.1502368164
 20
-10.0689564334
 30
0.0
 10
8.3160064954
 20
-10.0089571699
 30
0.0
 10
8.5033531955
 20
-9.913194383
 30
0.0
 10
8.6189375797
 20
-9.8290837429
 30
0.0
 10
8.6996905254
 20
-9.7527454766
 30
0.0
 10
8.7437241631
 20
-9.6846783076
 30
0.0
 10
8.7571623605
 20
-9.6381560346
 30
0.0
  0
SPLINE
  5
2FC
100
AcDbEntity
  8
0
100
AcDbSpline
 62
7
  6
CONTINUOUS
 70
0
 71
3
 72
19
 73
15
 74
0
 42
0.0000001
 43
0.0000001
 44
0.0000000001
 40
0.0
 40
0.0
 40
0.0
 40
0.0
 40
0.1303476939
 40
0.2796308248
 40
0.4374621381
 40
0.5925213804
 40
0.6655470568
 40
0.7338364528
 40
0.7962602601
 40
0.85187803
 40
0.9000020883
 40
0.9403338363
 40
0.9731958751
 40
1.0
 40
1.0
 40
1.0
 40
1.0
 10
8.058332343
 20
-10.0978231709
 30
0.0
 10
7.881579041
 20
-10.1533405029
 30
0.0
 10
7.4928560745
 20
-10.2420252602
 30
0.0
 10
6.8751048727
 20
-10.3185797
 30
0.0
 10
6.2179002602
 20
-10.3433093375
 30
0.0
 10
5.6691688133
 20
-10.3186947191
 30
0.0
 10
5.250589057
 20
-10.2700219372
 30
0.0
 10
4.9649530319
 20
-10.2214496093
 30
0.0
 10
4.7068709359
 20
-10.1611464042
 30
0.0
 10
4.4812737628
 20
-10.0903286466
 30
0.0
 10
4.2922831248
 20
-10.0104430138
 30
0.0
 10
4.1430415403
 20
-9.9226469942
 30
0.0
 10
4.0353747652
 20
-9.8281854183
 30
0.0
 10
3.9899723201
 20
-9.7538127453
 30
0.0
 10
3.9781751871
 20
-9.71758778
 30
0.0
  0
SPLINE
  5
2FD
100
AcDbEntity
  8
RACCORDO
100
AcDbSpline
 62
7
  6
CONTINUOUS
 70
0
 71
3
 72
10
 73
6
 74
0
 42
0.0000001
 43
0.0000001
 44
0.0000000001
 40
0.0
 40
0.0
 40
0.0
 40
0.0
 40
0.1786278307
 40
0.5298444489
 40
1.0
 40
1.0
 40
1.0
 40
1.0
 10
-16.8208979546
 20
24.2000694138
 30
0.0
 10
-16.8267597475
 20
24.1982295921
 30
0.0
 10
-16.8424433863
 20
24.1874434338
 30
0.0
 10
-16.858270092
 20
24.1555999285
 30
0.0
 10
-16.8633267756
 20
24.1276667567
 30
0.0
 10
-16.8647939493
 20
24.1115628814
 30
0.0
  0
SPLINE
  5
2FE
100
AcDbEntity
  8
RACCORDO
100
AcDbSpline
 62
7
  6
CONTINUOUS
 70
0
 71
3
 72
9
 73
5
 74
0
 42
0.0000001
 43
0.0000001
 44
0.0000000001
 40
0.0
 40
0.0
 40
0.0
 40
0.0
 40
0.24416735
 40
1.0
 40
1.0
 40
1.0
 40
1.0
 10
-14.6225452068
 20
5.195188872
 30
0.0
 10
-14.6100626229
 20
5.1907309511
 30
0.0
 10
-14.5573843886
 20
5.1767780201
 30
0.0
 10
-14.5005094879
 20
5.1823023399
 30
0.0
 10
-14.4613643116
 20
5.1945976449
 30
0.0
  0
SPLINE
  5
2FF
100
AcDbEntity
  8
RACCORDO
100
AcDbSpline
 62
7
  6
CONTINUOUS
 70
0
 71
3
 72
9
 73
5
 74
0
 42
0.0000001
 43
0.0000001
 44
0.0000000001
 40
0.0
 40
0.0
 40
0.0
 40
0.0
 40
0.2381882235
 40
1.0
 40
1.0
 40
1.0
 40
1.0
 10
-16.8217236992
 20
6.1967478567
 30
0.0
 10
-16.8327811932
 20
6.2033158081
 30
0.0
 10
-16.877119463
 20
6.2344021758
 30
0.0
 10
-16.9114055168
 20
6.2786839117
 30
0.0
 10
-16.9306961061
 20
6.3150142982
 30
0.0
  0
SPLINE
  5
300
100
AcDbEntity
  8
RACCORDO
100
AcDbSpline
 62
7
  6
CONTINUOUS
 70
0
 71
3
 72
9
 73
5
 74
0
 42
0.0000001
 43
0.0000001
 44
0.0000000001
 40
0.0
 40
0.0
 40
0.0
 40
0.0
 40
0.238777737
 40
1.0
 40
1.0
 40
1.0
 40
1.0
 10
-16.9306961061
 20
6.3150142982
 30
0.0
 10
-16.9356412577
 20
6.3243276098
 30
0.0
 10
-16.9546805965
 20
6.3642133939
 30
0.0
 10
-16.9670263533
 20
6.4071518676
 30
0.0
 10
-16.9730987914
 20
6.440215558
 30
0.0
  0
SPLINE
  5
301
100
AcDbEntity
  8
RACCORDO
100
AcDbSpline
 62
7
  6
CONTINUOUS
 70
0
 71
3
 72
8
 73
4
 74
0
 42
0.0000001
 43
0.0000001
 44
0.0000000001
 40
0.0
 40
0.0
 40
0.0
 40
0.0
 40
1.0
 40
1.0
 40
1.0
 40
1.0
 10
-16.9730987914
 20
6.440215558
 30
0.0
 10
-16.978808914
 20
6.471306484
 30
0.0
 10
-16.9816851415
 20
6.5030166169
 30
0.0
 10
-16.9820442532
 20
6.5346255114
 30
0.0
  0
SPLINE
  5
302
100
AcDbEntity
  8
RACCORDO
100
AcDbSpline
 62
7
  6
CONTINUOUS
 70
0
 71
3
 72
9
 73
5
 74
0
 42
0.0000001
 43
0.0000001
 44
0.0000000001
 40
0.0
 40
0.0
 40
0.0
 40
0.0
 40
0.2306399963
 40
1.0
 40
1.0
 40
1.0
 40
1.0
 10
-16.6517503728
 20
6.0984261855
 30
0.0
 10
-16.5029117482
 20
6.0144730441
 30
0.0
 10
-15.847489189
 20
5.6683623244
 30
0.0
 10
-15.1593683842
 20
5.3868920136
 30
0.0
 10
-14.6225453841
 20
5.1951885567
 30
0.0
  0
SPLINE
  5
303
100
AcDbEntity
  8
RACCORDO
100
AcDbSpline
 62
7
  6
CONTINUOUS
 70
0
 71
3
 72
11
 73
7
 74
0
 42
0.0000001
 43
0.0000001
 44
0.0000000001
 40
0.0
 40
0.0
 40
0.0
 40
0.0
 40
0.2160410156
 40
0.4493865742
 40
0.7108434161
 40
1.0
 40
1.0
 40
1.0
 40
1.0
 10
-11.9889966449
 20
4.4380276257
 30
0.0
 10
-12.0220025961
 20
4.4456491641
 30
0.0
 10
-12.0877604725
 20
4.4773933234
 30
0.0
 10
-12.161959021
 20
4.5638006022
 30
0.0
 10
-12.2088366045
 20
4.6792192735
 30
0.0
 10
-12.2199641058
 20
4.7657722434
 30
0.0
 10
-12.2209953064
 20
4.811099267
 30
0.0
  0
SPLINE
  5
304
100
AcDbEntity
  8
RACCORDO
100
AcDbSpline
 62
7
  6
CONTINUOUS
 70
0
 71
3
 72
9
 73
5
 74
0
 42
0.0000001
 43
0.0000001
 44
0.0000000001
 40
0.0
 40
0.0
 40
0.0
 40
0.0
 40
0.2382933975
 40
1.0
 40
1.0
 40
1.0
 40
1.0
 10
-11.9889962562
 20
4.4380303414
 30
0.0
 10
-11.7286693295
 20
4.3779494463
 30
0.0
 10
-10.63286434
 20
4.1403560383
 30
0.0
 10
-9.5256134156
 20
3.9569948401
 30
0.0
 10
-8.679420352
 20
3.8417038371
 30
0.0
  0
SPLINE
  5
305
100
AcDbEntity
  8
RACCORDO
100
AcDbSpline
 62
7
  6
CONTINUOUS
 70
0
 71
3
 72
9
 73
5
 74
0
 42
0.0000001
 43
0.0000001
 44
0.0000000001
 40
0.0
 40
0.0
 40
0.0
 40
0.0
 40
0.2507970468
 40
1.0
 40
1.0
 40
1.0
 40
1.0
 10
-12.3367421912
 20
20.6515614421
 30
0.0
 10
-12.347327241
 20
19.3272920953
 30
0.0
 10
-12.3694488302
 20
14.0469093035
 30
0.0
 10
-12.3109742372
 20
8.7661758873
 30
0.0
 10
-12.2209953064
 20
4.811099267
 30
0.0
  0
SPLINE
  5
306
100
AcDbEntity
  8
DRAFT
100
AcDbSpline
 62
7
  6
CONTINUOUS
 70
0
 71
3
 72
9
 73
5
 74
0
 42
0.0000001
 43
0.0000001
 44
0.0000000001
 40
0.0
 40
0.0
 40
0.0
 40
0.0
 40
0.2347945371
 40
1.0
 40
1.0
 40
1.0
 40
1.0
 10
-14.7357268627
 20
21.341159126
 30
0.0
 10
-14.551355339
 20
21.2764018748
 30
0.0
 10
-13.7616494013
 20
21.013318302
 30
0.0
 10
-12.9567365842
 20
20.797156942
 30
0.0
 10
-12.3367421912
 20
20.6515614421
 30
0.0
  0
SPLINE
  5
307
100
AcDbEntity
  8
RACCORDO
100
AcDbSpline
 62
7
  6
CONTINUOUS
 70
0
 71
3
 72
9
 73
5
 74
0
 42
0.0000001
 43
0.0000001
 44
0.0000000001
 40
0.0
 40
0.0
 40
0.0
 40
0.0
 40
0.2490215866
 40
1.0
 40
1.0
 40
1.0
 40
1.0
 10
-16.9820442532
 20
6.5346255114
 30
0.0
 10
-16.9986030769
 20
7.9921276124
 30
0.0
 10
-17.0385673089
 20
13.8453163616
 30
0.0
 10
-16.9730904408
 20
19.6992032628
 30
0.0
 10
-16.8658218509
 20
24.0935904671
 30
0.0
  0
SPLINE
  5
308
100
AcDbEntity
  8
RACCORDO
100
AcDbSpline
 62
7
  6
CONTINUOUS
 70
0
 71
3
 72
9
 73
5
 74
0
 42
0.0000001
 43
0.0000001
 44
0.0000000001
 40
0.0
 40
0.0
 40
0.0
 40
0.0
 40
0.4667215275
 40
1.0
 40
1.0
 40
1.0
 40
1.0
 10
-16.5314661588
 20
24.052448953
 30
0.0
 10
-16.1484751039
 20
23.8493911252
 30
0.0
 10
-15.2993110064
 20
23.4679301394
 30
0.0
 10
-14.4201673877
 20
23.1653331024
 30
0.0
 10
-13.9466554431
 20
23.0200135304
 30
0.0
  0
SPLINE
  5
309
100
AcDbEntity
  8
RACCORDO
100
AcDbSpline
 62
7
  6
CONTINUOUS
 70
0
 71
3
 72
9
 73
5
 74
0
 42
0.0000001
 43
0.0000001
 44
0.0000000001
 40
0.0
 40
0.0
 40
0.0
 40
0.0
 40
0.2345794641
 40
1.0
 40
1.0
 40
1.0
 40
1.0
 10
-13.1543348583
 20
22.7924347221
 30
0.0
 10
-12.875986302
 20
22.7176226502
 30
0.0
 10
-11.6839616802
 20
22.418997412
 30
0.0
 10
-10.4740480522
 20
22.1944342307
 30
0.0
 10
-9.5441604864
 20
22.0537507103
 30
0.0
  0
LINE
  5
30A
100
AcDbEntity
  8
RACCORDO
100
AcDbLine
 62
7
  6
CONTINUOUS
 10
-9.1879377303
 20
22.0014339133
 11
-9.128731211
 21
21.9930399104
  0
SPLINE
  5
30B
100
AcDbEntity
  8
RACCORDO
100
AcDbSpline
 62
7
  6
CONTINUOUS
 70
0
 71
3
 72
9
 73
5
 74
0
 42
0.0000001
 43
0.0000001
 44
0.0000000001
 40
0.0
 40
0.0
 40
0.0
 40
0.0
 40
0.2507748243
 40
1.0
 40
1.0
 40
1.0
 40
1.0
 10
-9.0017973162
 20
20.8466079489
 30
0.0
 10
-9.0136965409
 20
19.6086158477
 30
0.0
 10
-9.0427682728
 20
14.6717895075
 30
0.0
 10
-8.9982109348
 20
9.73451841
 30
0.0
 10
-8.9226661753
 20
6.0364430005
 30
0.0
  0
SPLINE
  5
30C
100
AcDbEntity
  8
RACCORDO
100
AcDbSpline
 62
7
  6
CONTINUOUS
 70
0
 71
3
 72
9
 73
5
 74
0
 42
0.0000001
 43
0.0000001
 44
0.0000000001
 40
0.0
 40
0.0
 40
0.0
 40
0.0
 40
0.2491572394
 40
1.0
 40
1.0
 40
1.0
 40
1.0
 10
-14.822974738
 20
5.559048602
 30
0.0
 10
-14.8359639768
 20
6.8697757138
 30
0.0
 10
-14.8676622853
 20
12.1306023236
 30
0.0
 10
-14.8179620423
 20
17.3919060901
 30
0.0
 10
-14.7357268627
 20
21.341159126
 30
0.0
  0
SPLINE
  5
30D
100
AcDbEntity
  8
RACCORDO
100
AcDbSpline
 62
250
  6
CONTINUOUS
 70
0
 71
3
 72
9
 73
5
 74
0
 42
0.0000001
 43
0.0000001
 44
0.0000000001
 40
0.0
 40
0.0
 40
0.0
 40
0.0
 40
0.2614945786
 40
1.0
 40
1.0
 40
1.0
 40
1.0
 10
-8.8818264381
 20
4.2061856882
 30
0.0
 10
-9.1749281026
 20
4.2464250798
 30
0.0
 10
-10.2941780748
 20
4.4115609791
 30
0.0
 10
-11.4070401065
 20
4.6224367113
 30
0.0
 10
-12.2209953064
 20
4.811099267
 30
0.0
  0
SPLINE
  5
30E
100
AcDbEntity
  8
RACCORDO
100
AcDbSpline
 62
7
  6
CONTINUOUS
 70
0
 71
3
 72
9
 73
5
 74
0
 42
0.0000001
 43
0.0000001
 44
0.0000000001
 40
0.0
 40
0.0
 40
0.0
 40
0.0
 40
0.2580340229
 40
1.0
 40
1.0
 40
1.0
 40
1.0
 10
-8.8818264381
 20
4.2061856882
 30
0.0
 10
-8.8815341197
 20
4.1941073288
 30
0.0
 10
-8.8789745906
 20
4.1473540993
 30
0.0
 10
-8.8707262486
 20
4.1008306209
 30
0.0
 10
-8.8609186588
 20
4.0675027471
 30
0.0
  0
SPLINE
  5
30F
100
AcDbEntity
  8
RACCORDO
100
AcDbSpline
 62
7
  6
CONTINUOUS
 70
0
 71
3
 72
8
 73
4
 74
0
 42
0.0000001
 43
0.0000001
 44
0.0000000001
 40
0.0
 40
0.0
 40
0.0
 40
0.0
 40
1.0
 40
1.0
 40
1.0
 40
1.0
 10
-8.8461885807
 20
4.0253404621
 30
0.0
 10
-8.8354199382
 20
3.9989649512
 30
0.0
 10
-8.8218683493
 20
3.9734828548
 30
0.0
 10
-8.8054106984
 20
3.9502282432
 30
0.0
  0
SPLINE
  5
310
100
AcDbEntity
  8
RACCORDO
100
AcDbSpline
 62
7
  6
CONTINUOUS
 70
0
 71
3
 72
9
 73
5
 74
0
 42
0.0000001
 43
0.0000001
 44
0.0000000001
 40
0.0
 40
0.0
 40
0.0
 40
0.0
 40
0.5159376076
 40
1.0
 40
1.0
 40
1.0
 40
1.0
 10
-8.8054106984
 20
3.9502282432
 30
0.0
 10
-8.7841469107
 20
3.9201825745
 30
0.0
 10
-8.7326155975
 20
3.8680269063
 30
0.0
 10
-8.6640560113
 20
3.840957561
 30
0.0
 10
-8.6300123798
 20
3.8351541041
 30
0.0
  0
SPLINE
  5
311
100
AcDbEntity
  8
RACCORDO
100
AcDbSpline
 62
250
  6
CONTINUOUS
 70
0
 71
3
 72
9
 73
5
 74
0
 42
0.0000001
 43
0.0000001
 44
0.0000000001
 40
0.0
 40
0.0
 40
0.0
 40
0.0
 40
0.2693158114
 40
1.0
 40
1.0
 40
1.0
 40
1.0
 10
-14.822974738
 20
5.559048602
 30
0.0
 10
-14.9937058456
 20
5.6197890487
 30
0.0
 10
-15.6240885837
 20
5.8548462747
 30
0.0
 10
-16.2406933322
 20
6.1295158075
 30
0.0
 10
-16.673989823
 20
6.3618471064
 30
0.0
  0
SPLINE
  5
312
100
AcDbEntity
  8
RACCORDO
100
AcDbSpline
 62
7
  6
CONTINUOUS
 70
0
 71
3
 72
10
 73
6
 74
0
 42
0.0000001
 43
0.0000001
 44
0.0000000001
 40
0.0
 40
0.0
 40
0.0
 40
0.0
 40
0.5476455136
 40
0.7832046683
 40
1.0
 40
1.0
 40
1.0
 40
1.0
 10
-14.822974738
 20
5.559048602
 30
0.0
 10
-14.8221821625
 20
5.4790708493
 30
0.0
 10
-14.7994331458
 20
5.3603441847
 30
0.0
 10
-14.7103217729
 20
5.2416605475
 30
0.0
 10
-14.652362925
 20
5.2058377112
 30
0.0
 10
-14.6225452068
 20
5.195188872
 30
0.0
  0
SPLINE
  5
313
100
AcDbEntity
  8
RACCORDO
100
AcDbSpline
 62
7
  6
CONTINUOUS
 70
0
 71
3
 72
9
 73
5
 74
0
 42
0.0000001
 43
0.0000001
 44
0.0000000001
 40
0.0
 40
0.0
 40
0.0
 40
0.0
 40
0.5080925474
 40
1.0
 40
1.0
 40
1.0
 40
1.0
 10
-8.9913757823
 20
21.8300496302
 30
0.0
 10
-8.9909653503
 20
21.8654870606
 30
0.0
 10
-9.0157474078
 20
21.9368282875
 30
0.0
 10
-9.0773034804
 20
21.9799418973
 30
0.0
 10
-9.1103483484
 20
21.9891762661
 30
0.0
  0
SPLINE
  5
314
100
AcDbEntity
  8
RACCORDO
100
AcDbSpline
 62
7
  6
CONTINUOUS
 70
0
 71
3
 72
8
 73
4
 74
0
 42
0.0000001
 43
0.0000001
 44
0.0000000001
 40
0.0
 40
0.0
 40
0.0
 40
0.0
 40
1.0
 40
1.0
 40
1.0
 40
1.0
 10
-16.7917146247
 20
24.1957949662
 30
0.0
 10
-16.7957445177
 20
24.1981027715
 30
0.0
 10
-16.8001537554
 20
24.1999091626
 30
0.0
 10
-16.8047062803
 20
24.2008259606
 30
0.0
  0
SPLINE
  5
315
100
AcDbEntity
  8
RACCORDO
100
AcDbSpline
 62
7
  6
CONTINUOUS
 70
0
 71
3
 72
8
 73
4
 74
0
 42
0.0000001
 43
0.0000001
 44
0.0000000001
 40
0.0
 40
0.0
 40
0.0
 40
0.0
 40
1.0
 40
1.0
 40
1.0
 40
1.0
 10
-16.8047062803
 20
24.2008259606
 30
0.0
 10
-16.8078210418
 20
24.2014532184
 30
0.0
 10
-16.8110559673
 20
24.2016682753
 30
0.0
 10
-16.8142212925
 20
24.2013927617
 30
0.0
  0
SPLINE
  5
316
100
AcDbEntity
  8
RACCORDO
100
AcDbSpline
 62
7
  6
CONTINUOUS
 70
0
 71
3
 72
8
 73
4
 74
0
 42
0.0000001
 43
0.0000001
 44
0.0000000001
 40
0.0
 40
0.0
 40
0.0
 40
0.0
 40
1.0
 40
1.0
 40
1.0
 40
1.0
 10
-16.8208979482
 20
24.2000693734
 30
0.0
 10
-16.8146341198
 20
24.2020353428
 30
0.0
 10
-16.807487521
 20
24.2018423182
 30
0.0
 10
-16.801203041
 20
24.1999433991
 30
0.0
  0
SPLINE
  5
317
100
AcDbEntity
  8
RACCORDO
100
AcDbSpline
 62
7
  6
CONTINUOUS
 70
0
 71
3
 72
11
 73
7
 74
0
 42
0.0000001
 43
0.0000001
 44
0.0000000001
 40
0.0
 40
0.0
 40
0.0
 40
0.0
 40
0.2868064222
 40
0.5427964979
 40
0.775804719
 40
1.0
 40
1.0
 40
1.0
 40
1.0
 10
-17.0978695931
 20
6.3584243437
 30
0.0
 10
-17.3593257745
 20
6.5277415359
 30
0.0
 10
-17.8358617181
 20
6.8790374611
 30
0.0
 10
-18.4195104823
 20
7.4948805592
 30
0.0
 10
-18.8065252177
 20
8.1770147929
 30
0.0
 10
-18.9045064771
 20
8.6756249293
 30
0.0
 10
-18.9082463144
 20
8.9190885698
 30
0.0
  0
SPLINE
  5
318
100
AcDbEntity
  8
RACCORDO
100
AcDbSpline
 62
7
  6
CONTINUOUS
 70
0
 71
3
 72
21
 73
17
 74
0
 42
0.0000001
 43
0.0000001
 44
0.0000000001
 40
0.0
 40
0.0
 40
0.0
 40
0.0
 40
0.0269744444
 40
0.053028796
 40
0.1032437976
 40
0.1518695775
 40
0.201713343
 40
0.2549528121
 40
0.3126875732
 40
0.3750884818
 40
0.441741683
 40
0.5842605427
 40
0.7313111768
 40
0.872744778
 40
0.9385451452
 40
1.0
 40
1.0
 40
1.0
 40
1.0
 10
-17.5182697893
 20
41.2126252426
 30
0.0
 10
-17.4831092764
 20
41.4700240394
 30
0.0
 10
-17.367895069
 20
41.9711299257
 30
0.0
 10
-16.9754384072
 20
42.889049146
 30
0.0
 10
-16.2519465553
 20
43.8719676383
 30
0.0
 10
-15.1408582255
 20
44.7897705607
 30
0.0
 10
-13.8708792679
 20
45.5217411832
 30
0.0
 10
-12.4425757281
 20
46.1278335786
 30
0.0
 10
-10.8511290079
 20
46.6389332155
 30
0.0
 10
-9.1019743843
 20
47.0647928894
 30
0.0
 10
-6.5269799013
 20
47.5301438584
 30
0.0
 10
-3.1074066057
 20
47.8726895981
 30
0.0
 10
1.0477948786
 20
47.9222481448
 30
0.0
 10
4.4560312536
 20
47.6605968839
 30
0.0
 10
7.0127566983
 20
47.2538221206
 30
0.0
 10
8.2099430347
 20
46.9860119808
 30
0.0
 10
8.7820481435
 20
46.8343438883
 30
0.0
  0
SPLINE
  5
319
100
AcDbEntity
  8
RACCORDO
100
AcDbSpline
 62
7
  6
CONTINUOUS
 70
0
 71
3
 72
9
 73
5
 74
0
 42
0.0000001
 43
0.0000001
 44
0.0000000001
 40
0.0
 40
0.0
 40
0.0
 40
0.0
 40
0.5416335896
 40
1.0
 40
1.0
 40
1.0
 40
1.0
 10
-13.5614092943
 20
22.905587791
 30
0.0
 10
-14.1660121511
 20
23.0793832865
 30
0.0
 10
-15.2703617121
 20
23.4441882332
 30
0.0
 10
-16.3297315552
 20
23.9312303749
 30
0.0
 10
-16.7917146247
 20
24.1957949662
 30
0.0
  0
SPLINE
  5
31A
100
AcDbEntity
  8
RACCORDO
100
AcDbSpline
 62
7
  6
CONTINUOUS
 70
0
 71
3
 72
9
 73
5
 74
0
 42
0.0000001
 43
0.0000001
 44
0.0000000001
 40
0.0
 40
0.0
 40
0.0
 40
0.0
 40
0.2559164595
 40
1.0
 40
1.0
 40
1.0
 40
1.0
 10
-10.0396139561
 20
41.1490805978
 30
0.0
 10
-9.4087435526
 20
41.50240479
 30
0.0
 10
-6.9153312098
 20
42.8315343234
 30
0.0
 10
-4.3068372494
 20
43.9479445081
 30
0.0
 10
-2.3190980745
 20
44.632625681
 30
0.0
  0
SPLINE
  5
31B
100
AcDbEntity
  8
RACCORDO
100
AcDbSpline
 62
250
  6
CONTINUOUS
 70
0
 71
3
 72
29
 73
25
 74
0
 42
0.0000001
 43
0.0000001
 44
0.0000000001
 40
0.0
 40
0.0
 40
0.0
 40
0.0
 40
0.0707546692
 40
0.1502932058
 40
0.2360151321
 40
0.3249834429
 40
0.4140817254
 40
0.5002015965
 40
0.5803846061
 40
0.6519875881
 40
0.7128796839
 40
0.7388772096
 40
0.7618064166
 40
0.781741069
 40
0.7989382056
 40
0.8139302505
 40
0.8276096274
 40
0.8411856875
 40
0.8558958429
 40
0.8726926589
 40
0.8921593072
 40
0.9145899827
 40
0.9400827862
 40
1.0
 40
1.0
 40
1.0
 40
1.0
 10
8.7610939811
 20
46.7695036744
 30
0.0
 10
8.0642055148
 20
46.9698270353
 30
0.0
 10
6.5593068824
 20
47.3105817288
 30
0.0
 10
4.1632657581
 20
47.6541323782
 30
0.0
 10
1.5634315706
 20
47.8501667309
 30
0.0
 10
-1.1411584808
 20
47.8904682906
 30
0.0
 10
-3.8476368408
 20
47.7732133405
 30
0.0
 10
-6.4527203555
 20
47.5030286129
 30
0.0
 10
-8.8580478314
 20
47.0909684848
 30
0.0
 10
-10.9726767852
 20
46.5534723411
 30
0.0
 10
-12.5029648186
 20
45.9940162035
 30
0.0
 10
-13.5080714986
 20
45.4846923544
 30
0.0
 10
-14.104769272
 20
45.1052620874
 30
0.0
 10
-14.5801352773
 20
44.7108989893
 30
0.0
 10
-14.9301456408
 20
44.3029251867
 30
0.0
 10
-15.149759639
 20
43.8811518171
 30
0.0
 10
-15.2287172519
 20
43.4476264787
 30
0.0
 10
-15.1589936489
 20
43.0152381321
 30
0.0
 10
-14.9472502868
 20
42.5980168362
 30
0.0
 10
-14.6043281522
 20
42.1991311222
 30
0.0
 10
-14.1360695594
 20
41.8179505303
 30
0.0
 10
-13.5464365424
 20
41.4554493184
 30
0.0
 10
-12.5500769693
 20
40.9742405125
 30
0.0
 10
-11.7176538172
 20
40.6922329541
 30
0.0
 10
-11.1275073896
 20
40.5225930167
 30
0.0
  0
SPLINE
  5
31C
100
AcDbEntity
  8
RACCORDO
100
AcDbSpline
 62
7
  6
CONTINUOUS
 70
0
 71
3
 72
9
 73
5
 74
0
 42
0.0000001
 43
0.0000001
 44
0.0000000001
 40
0.0
 40
0.0
 40
0.0
 40
0.0
 40
0.4765693734
 40
1.0
 40
1.0
 40
1.0
 40
1.0
 10
-11.2826008078
 20
40.4223950116
 30
0.0
 10
-11.6772365645
 20
40.1456478806
 30
0.0
 10
-12.3421233943
 20
39.3333305047
 30
0.0
 10
-12.6660345035
 20
38.3521537021
 30
0.0
 10
-12.7408930763
 20
37.8280751159
 30
0.0
  0
SPLINE
  5
31D
100
AcDbEntity
  8
RACCORDO
100
AcDbSpline
 62
250
  6
CONTINUOUS
 70
0
 71
3
 72
11
 73
7
 74
0
 42
0.0000001
 43
0.0000001
 44
0.0000000001
 40
0.0
 40
0.0
 40
0.0
 40
0.0
 40
0.3126008074
 40
0.5764283883
 40
0.8000613241
 40
1.0
 40
1.0
 40
1.0
 40
1.0
 10
-16.9908863695
 20
6.5208781035
 30
0.0
 10
-17.277760029
 20
6.6898579801
 30
0.0
 10
-17.790103065
 20
7.0326266598
 30
0.0
 10
-18.4102271355
 20
7.625441108
 30
0.0
 10
-18.8058459047
 20
8.2534424935
 30
0.0
 10
-18.9049542376
 20
8.7061648707
 30
0.0
 10
-18.9082362969
 20
8.9190887349
 30
0.0
  0
SPLINE
  5
31E
100
AcDbEntity
  8
RACCORDO
100
AcDbSpline
 62
7
  6
CONTINUOUS
 70
0
 71
3
 72
8
 73
4
 74
0
 42
0.0000001
 43
0.0000001
 44
0.0000000001
 40
0.0
 40
0.0
 40
0.0
 40
0.0
 40
1.0
 40
1.0
 40
1.0
 40
1.0
 10
-16.9818271514
 20
6.5155494893
 30
0.0
 10
-16.9814787515
 20
6.4849898371
 30
0.0
 10
-16.9786786038
 20
6.4543305792
 30
0.0
 10
-16.9731170302
 20
6.4242792461
 30
0.0
  0
SPLINE
  5
31F
100
AcDbEntity
  8
RACCORDO
100
AcDbSpline
 62
7
  6
CONTINUOUS
 70
0
 71
3
 72
9
 73
5
 74
0
 42
0.0000001
 43
0.0000001
 44
0.0000000001
 40
0.0
 40
0.0
 40
0.0
 40
0.0
 40
0.261938174
 40
1.0
 40
1.0
 40
1.0
 40
1.0
 10
-16.9731170302
 20
6.4242792461
 30
0.0
 10
-16.9711012899
 20
6.4133874215
 30
0.0
 10
-16.9620206121
 20
6.3720887253
 30
0.0
 10
-16.9470304032
 20
6.3319776555
 30
0.0
 10
-16.9323650735
 20
6.3044267269
 30
0.0
  0
SPLINE
  5
320
100
AcDbEntity
  8
RACCORDO
100
AcDbSpline
 62
7
  6
CONTINUOUS
 70
0
 71
3
 72
9
 73
5
 74
0
 42
0.0000001
 43
0.0000001
 44
0.0000000001
 40
0.0
 40
0.0
 40
0.0
 40
0.0
 40
0.2660798776
 40
1.0
 40
1.0
 40
1.0
 40
1.0
 10
-16.9323650735
 20
6.3044267269
 30
0.0
 10
-16.9258937908
 20
6.2922694926
 30
0.0
 10
-16.8990158613
 20
6.2480458641
 30
0.0
 10
-16.8604369804
 20
6.2104902261
 30
0.0
 10
-16.8277628652
 20
6.1911132794
 30
0.0
  0
SPLINE
  5
321
100
AcDbEntity
  8
RACCORDO
100
AcDbSpline
 62
7
  6
CONTINUOUS
 70
0
 71
3
 72
8
 73
4
 74
0
 42
0.0000001
 43
0.0000001
 44
0.0000000001
 40
0.0
 40
0.0
 40
0.0
 40
0.0
 40
1.0
 40
1.0
 40
1.0
 40
1.0
 10
-16.8280133068
 20
24.196884058
 30
0.0
 10
-16.8257733226
 20
24.1982013278
 30
0.0
 10
-16.8233772989
 20
24.1992912028
 30
0.0
 10
-16.8208979482
 20
24.2000693734
 30
0.0
  0
SPLINE
  5
322
100
AcDbEntity
  8
RACCORDO
100
AcDbSpline
 62
250
  6
CONTINUOUS
 70
0
 71
3
 72
14
 73
10
 74
0
 42
0.0000001
 43
0.0000001
 44
0.0000000001
 40
0.0
 40
0.0
 40
0.0
 40
0.0
 40
0.0809386233
 40
0.1660860106
 40
0.2621221162
 40
0.3734386511
 40
0.5023935038
 40
0.6499357739
 40
1.0
 40
1.0
 40
1.0
 40
1.0
 10
-17.5182624518
 20
41.2126252628
 30
0.0
 10
-17.540385876
 20
41.0505646495
 30
0.0
 10
-17.5302667537
 20
40.7076050654
 30
0.0
 10
-17.3390387372
 20
40.2051525431
 30
0.0
 10
-16.9859827542
 20
39.7244052444
 30
0.0
 10
-16.4804206278
 20
39.2654158544
 30
0.0
 10
-15.8274046488
 20
38.828261161
 30
0.0
 10
-14.7017841822
 20
38.2445448787
 30
0.0
 10
-13.7507204593
 20
37.9034545176
 30
0.0
 10
-13.0739273126
 20
37.6975476086
 30
0.0
  0
LINE
  5
323
100
AcDbEntity
  8
RACCORDO
100
AcDbLine
 62
250
  6
CONTINUOUS
 10
-18.2558165797
 20
34.6970826273
 11
-18.2650243995
 21
34.5939918736
  0
SPLINE
  5
324
100
AcDbEntity
  8
RACCORDO
100
AcDbSpline
 62
250
  6
CONTINUOUS
 70
0
 71
3
 72
9
 73
5
 74
0
 42
0.0000001
 43
0.0000001
 44
0.0000000001
 40
0.0
 40
0.0
 40
0.0
 40
0.0
 40
0.5166824856
 40
1.0
 40
1.0
 40
1.0
 40
1.0
 10
-18.3133953906
 20
34.0297070233
 30
0.0
 10
-18.3604629398
 20
33.4629366129
 30
0.0
 10
-18.4442206633
 20
32.3653949858
 30
0.0
 10
-18.5218966505
 20
31.2674068139
 30
0.0
 10
-18.5558703791
 20
30.7364967047
 30
0.0
  0
LINE
  5
325
100
AcDbEntity
  8
RACCORDO
100
AcDbLine
 62
250
  6
CONTINUOUS
 10
-18.5742805863
 20
30.441291711
 11
-18.5771613718
 21
30.3934963108
  0
LINE
  5
326
100
AcDbEntity
  8
RACCORDO
100
AcDbLine
 62
250
  6
CONTINUOUS
 10
-18.5771613718
 20
30.3934963108
 11
-18.5817607533
 21
30.3160841823
  0
SPLINE
  5
327
100
AcDbEntity
  8
RACCORDO
100
AcDbSpline
 62
7
  6
CONTINUOUS
 70
0
 71
3
 72
9
 73
5
 74
0
 42
0.0000001
 43
0.0000001
 44
0.0000000001
 40
0.0
 40
0.0
 40
0.0
 40
0.0
 40
0.2491856978
 40
1.0
 40
1.0
 40
1.0
 40
1.0
 10
-16.9925371829
 20
7.552707186
 30
0.0
 10
-17.0037428819
 20
8.7637585135
 30
0.0
 10
-17.0304503467
 20
13.6239471141
 30
0.0
 10
-16.9844899907
 20
18.4845244172
 30
0.0
 10
-16.9098187705
 20
22.1329006843
 30
0.0
  0
SPLINE
  5
328
100
AcDbEntity
  8
RACCORDO
100
AcDbSpline
 62
250
  6
CONTINUOUS
 70
0
 71
3
 72
11
 73
7
 74
0
 42
0.0000001
 43
0.0000001
 44
0.0000000001
 40
0.0
 40
0.0
 40
0.0
 40
0.0
 40
0.1989385253
 40
0.4209567311
 40
0.6848483247
 40
1.0
 40
1.0
 40
1.0
 40
1.0
 10
-18.7499040451
 20
26.6649116887
 30
0.0
 10
-18.7571419026
 20
26.4483142456
 30
0.0
 10
-18.6741048677
 20
25.9829351808
 30
0.0
 10
-18.2787641005
 20
25.3363001368
 30
0.0
 10
-17.6426260275
 20
24.7295576808
 30
0.0
 10
-17.1133808607
 20
24.3813623214
 30
0.0
 10
-16.8160215598
 20
24.2097680432
 30
0.0
  0
SPLINE
  5
329
100
AcDbEntity
  8
0
100
AcDbSpline
 62
7
  6
CONTINUOUS
 70
0
 71
3
 72
9
 73
5
 74
0
 42
0.0000001
 43
0.0000001
 44
0.0000000001
 40
0.0
 40
0.0
 40
0.0
 40
0.0
 40
0.4843039239
 40
1.0
 40
1.0
 40
1.0
 40
1.0
 10
9.1076628884
 20
13.4657565467
 30
0.0
 10
9.2547542173
 20
13.4234572963
 30
0.0
 10
9.5783385944
 20
13.3959770735
 30
0.0
 10
9.8881496263
 20
13.4858002875
 30
0.0
 10
10.0366683747
 20
13.5529007688
 30
0.0
  0
SPLINE
  5
32A
100
AcDbEntity
  8
0
100
AcDbSpline
 62
7
  6
CONTINUOUS
 70
0
 71
3
 72
15
 73
11
 74
0
 42
0.0000001
 43
0.0000001
 44
0.0000000001
 40
0.0
 40
0.0
 40
0.0
 40
0.0
 40
0.1012752309
 40
0.2149392966
 40
0.3444322806
 40
0.4855079989
 40
0.6296497842
 40
0.7673864843
 40
0.8914126355
 40
1.0
 40
1.0
 40
1.0
 40
1.0
 10
9.3078007625
 20
14.2039240095
 30
0.0
 10
9.1649754636
 20
14.2450034294
 30
0.0
 10
8.8835720028
 20
14.4194378423
 30
0.0
 10
8.6111855162
 20
14.8600427207
 30
0.0
 10
8.4856956221
 20
15.4179891892
 30
0.0
 10
8.5139709481
 20
16.0322708356
 30
0.0
 10
8.6904380281
 20
16.6335263765
 30
0.0
 10
8.9963471992
 20
17.1526713185
 30
0.0
 10
9.3988254184
 20
17.5307816655
 30
0.0
 10
9.7285923422
 20
17.6602895239
 30
0.0
 10
9.8868434924
 20
17.6789341963
 30
0.0
  0
SPLINE
  5
32B
100
AcDbEntity
  8
0
100
AcDbSpline
 62
7
  6
CONTINUOUS
 70
0
 71
3
 72
11
 73
7
 74
0
 42
0.0000001
 43
0.0000001
 44
0.0000000001
 40
0.0
 40
0.0
 40
0.0
 40
0.0
 40
0.2234499178
 40
0.4603534128
 40
0.718495535
 40
1.0
 40
1.0
 40
1.0
 40
1.0
 10
12.3818709478
 20
15.1694860555
 30
0.0
 10
12.289591901
 20
15.1960011735
 30
0.0
 10
12.1078651044
 20
15.2846532313
 30
0.0
 10
11.8845351762
 20
15.5040713443
 30
0.0
 10
11.7160464367
 20
15.7959276923
 30
0.0
 10
11.6473661488
 20
16.0194079693
 30
0.0
 10
11.6225912402
 20
16.1378015594
 30
0.0
  0
SPLINE
  5
32C
100
AcDbEntity
  8
0
100
AcDbSpline
 62
7
  6
CONTINUOUS
 70
0
 71
3
 72
9
 73
5
 74
0
 42
0.0000001
 43
0.0000001
 44
0.0000000001
 40
0.0
 40
0.0
 40
0.0
 40
0.0
 40
0.4843039239
 40
1.0
 40
1.0
 40
1.0
 40
1.0
 10
12.181729516
 20
14.4313055675
 30
0.0
 10
12.3288208449
 20
14.3890063171
 30
0.0
 10
12.6524052221
 20
14.3615260943
 30
0.0
 10
12.962216254
 20
14.4513493084
 30
0.0
 10
13.1107350024
 20
14.5184497896
 30
0.0
  0
SPLINE
  5
32D
100
AcDbEntity
  8
RACCORDO
100
AcDbSpline
 62
7
  6
CONTINUOUS
 70
0
 71
3
 72
9
 73
5
 74
0
 42
0.0000001
 43
0.0000001
 44
0.0000000001
 40
0.0
 40
0.0
 40
0.0
 40
0.0
 40
0.4921431185
 40
1.0
 40
1.0
 40
1.0
 40
1.0
 10
8.7610939811
 20
46.7695036744
 30
0.0
 10
7.0980653099
 20
46.704731922
 30
0.0
 10
3.7247818259
 20
46.3316032022
 30
0.0
 10
0.4328078312
 20
45.5138820801
 30
0.0
 10
-1.2056980729
 20
44.9992355344
 30
0.0
  0
SPLINE
  5
32E
100
AcDbEntity
  8
RACCORDO
100
AcDbSpline
 62
7
  6
CONTINUOUS
 70
0
 71
3
 72
9
 73
5
 74
0
 42
0.0000001
 43
0.0000001
 44
0.0000000001
 40
0.0
 40
0.0
 40
0.0
 40
0.0
 40
0.2429406091
 40
1.0
 40
1.0
 40
1.0
 40
1.0
 10
-1.2056980729
 20
44.9992355344
 30
0.0
 10
-2.047721673
 20
44.7347601144
 30
0.0
 10
-5.4793065456
 20
43.5378484745
 30
0.0
 10
-8.7605662229
 20
41.9232742681
 30
0.0
 10
-11.1275073896
 20
40.5225930167
 30
0.0
  0
SPLINE
  5
32F
100
AcDbEntity
  8
RACCORDO
100
AcDbSpline
 62
7
  6
CONTINUOUS
 70
0
 71
3
 72
9
 73
5
 74
0
 42
0.0000001
 43
0.0000001
 44
0.0000000001
 40
0.0
 40
0.0
 40
0.0
 40
0.0
 40
0.2511415651
 40
1.0
 40
1.0
 40
1.0
 40
1.0
 10
-12.7665935678
 20
37.6066593754
 30
0.0
 10
-12.8495057943
 20
36.6764425018
 30
0.0
 10
-13.1554400569
 20
32.9703750682
 30
0.0
 10
-13.3641462965
 20
29.2562447192
 30
0.0
 10
-13.4641662111
 20
26.4733078798
 30
0.0
  0
SPLINE
  5
330
100
AcDbEntity
  8
RACCORDO
100
AcDbSpline
 62
7
  6
CONTINUOUS
 70
0
 71
3
 72
9
 73
5
 74
0
 42
0.0000001
 43
0.0000001
 44
0.0000000001
 40
0.0
 40
0.0
 40
0.0
 40
0.0
 40
0.2509130819
 40
1.0
 40
1.0
 40
1.0
 40
1.0
 10
-8.9942563563
 20
21.5757462797
 30
0.0
 10
-9.0103597461
 20
20.1214110218
 30
0.0
 10
-9.0492130278
 20
14.3249894914
 30
0.0
 10
-8.9865903533
 20
8.5278659263
 30
0.0
 10
-8.8813626687
 20
4.1870387605
 30
0.0
  0
SPLINE
  5
331
100
AcDbEntity
  8
0
100
AcDbSpline
 62
7
  6
CONTINUOUS
 70
0
 71
3
 72
9
 73
5
 74
0
 42
0.0000001
 43
0.0000001
 44
0.0000000001
 40
0.0
 40
0.0
 40
0.0
 40
0.0
 40
0.2432451986
 40
1.0
 40
1.0
 40
1.0
 40
1.0
 10
13.4873434064
 20
32.3334766954
 30
0.0
 10
13.4755254361
 20
32.3368760361
 30
0.0
 10
13.4258394692
 20
32.3470334999
 30
0.0
 10
13.3734970531
 20
32.3408567791
 30
0.0
 10
13.3369977447
 20
32.3293925281
 30
0.0
  0
SPLINE
  5
332
100
AcDbEntity
  8
0
100
AcDbSpline
 62
7
  6
CONTINUOUS
 70
0
 71
3
 72
14
 73
10
 74
0
 42
0.0000001
 43
0.0000001
 44
0.0000000001
 40
0.0
 40
0.0
 40
0.0
 40
0.0
 40
0.094566662
 40
0.1983369908
 40
0.3171527591
 40
0.4502509952
 40
0.5922820896
 40
0.7359113462
 40
1.0
 40
1.0
 40
1.0
 40
1.0
 10
13.8156927417
 20
33.1075435438
 30
0.0
 10
13.8950961207
 20
33.084721741
 30
0.0
 10
14.0519465589
 20
32.9964679647
 30
0.0
 10
14.2207945139
 20
32.7695718163
 30
0.0
 10
14.3251535449
 20
32.473284749
 30
0.0
 10
14.3649653586
 20
32.1292382209
 30
0.0
 10
14.3393771535
 20
31.7619228255
 30
0.0
 10
14.2239986366
 20
31.2955180124
 30
0.0
 10
14.0421920029
 20
30.9699052064
 30
0.0
 10
13.8759811933
 20
30.8098866499
 30
0.0
  0
SPLINE
  5
333
100
AcDbEntity
  8
RACCORDO
100
AcDbSpline
 62
7
  6
CONTINUOUS
 70
0
 71
3
 72
10
 73
6
 74
0
 42
0.0000001
 43
0.0000001
 44
0.0000000001
 40
0.0
 40
0.0
 40
0.0
 40
0.0
 40
0.2385633369
 40
0.4825219515
 40
1.0
 40
1.0
 40
1.0
 40
1.0
 10
16.4401668585
 20
32.977275832
 30
0.0
 10
16.6208011499
 20
33.1258237313
 30
0.0
 10
16.9481603999
 20
33.4756837734
 30
0.0
 10
17.4300450699
 20
34.3376057034
 30
0.0
 10
17.5724440641
 20
35.0932442304
 30
0.0
 10
17.5945453738
 20
35.6000603151
 30
0.0
  0
SPLINE
  5
334
100
AcDbEntity
  8
RACCORDO
100
AcDbSpline
 62
7
  6
CONTINUOUS
 70
0
 71
3
 72
11
 73
7
 74
0
 42
0.0000001
 43
0.0000001
 44
0.0000000001
 40
0.0
 40
0.0
 40
0.0
 40
0.0
 40
0.2256782931
 40
0.4726159518
 40
0.734210313
 40
1.0
 40
1.0
 40
1.0
 40
1.0
 10
17.5945453738
 20
35.6000603151
 30
0.0
 10
17.6160479081
 20
36.0931455834
 30
0.0
 10
17.5183073867
 20
37.1333620159
 30
0.0
 10
17.0492131679
 20
38.6771854722
 30
0.0
 10
16.2906249065
 20
40.1991078346
 30
0.0
 10
15.6200319274
 20
41.1442073698
 30
0.0
 10
15.247151657
 20
41.5901254183
 30
0.0
  0
SPLINE
  5
335
100
AcDbEntity
  8
RACCORDO
100
AcDbSpline
 62
7
  6
CONTINUOUS
 70
0
 71
3
 72
15
 73
11
 74
0
 42
0.0000001
 43
0.0000001
 44
0.0000000001
 40
0.0
 40
0.0
 40
0.0
 40
0.0
 40
0.1016164483
 40
0.2096159631
 40
0.327052242
 40
0.4543998839
 40
0.5895497832
 40
0.7286255918
 40
0.8669501686
 40
1.0
 40
1.0
 40
1.0
 40
1.0
 10
17.4317826505
 20
34.5523728404
 30
0.0
 10
17.6463450126
 20
34.8159502109
 30
0.0
 10
17.9836899496
 20
35.4501165064
 30
0.0
 10
18.1743686456
 20
36.5399471024
 30
0.0
 10
18.0985422247
 20
37.7261522748
 30
0.0
 10
17.7811056255
 20
38.962818507
 30
0.0
 10
17.2466232041
 20
40.2002785091
 30
0.0
 10
16.5240947241
 20
41.3810704142
 30
0.0
 10
15.6511743514
 20
42.4459663822
 30
0.0
 10
14.9771732983
 20
43.0603411707
 30
0.0
 10
14.6240910113
 20
43.3311880873
 30
0.0
  0
SPLINE
  5
336
100
AcDbEntity
  8
RACCORDO
100
AcDbSpline
 62
7
  6
CONTINUOUS
 70
0
 71
3
 72
15
 73
11
 74
0
 42
0.0000001
 43
0.0000001
 44
0.0000000001
 40
0.0
 40
0.0
 40
0.0
 40
0.0
 40
0.1040934519
 40
0.2159572316
 40
0.3386559282
 40
0.471225501
 40
0.6093634381
 40
0.7471137455
 40
0.8786235245
 40
1.0
 40
1.0
 40
1.0
 40
1.0
 10
18.0523658982
 20
35.9129464838
 30
0.0
 10
18.2605153274
 20
36.1971024164
 30
0.0
 10
18.5630976504
 20
36.8860004065
 30
0.0
 10
18.6505092822
 20
38.0428089426
 30
0.0
 10
18.4413633339
 20
39.2771218778
 30
0.0
 10
17.969084104
 20
40.529121271
 30
0.0
 10
17.2714189571
 20
41.7291094015
 30
0.0
 10
16.3946038031
 20
42.8009481102
 30
0.0
 10
15.3937203584
 20
43.6740312936
 30
0.0
 10
14.6431132769
 20
44.1030585121
 30
0.0
 10
14.262692562
 20
44.2578842517
 30
0.0
  0
SPLINE
  5
337
100
AcDbEntity
  8
RACCORDO
100
AcDbSpline
 62
7
  6
CONTINUOUS
 70
0
 71
3
 72
9
 73
5
 74
0
 42
0.0000001
 43
0.0000001
 44
0.0000000001
 40
0.0
 40
0.0
 40
0.0
 40
0.0
 40
0.2536340099
 40
1.0
 40
1.0
 40
1.0
 40
1.0
 10
14.262692562
 20
44.2578842517
 30
0.0
 10
14.2291873802
 20
44.2715203771
 30
0.0
 10
14.0964553971
 20
44.323711275
 30
0.0
 10
13.9611701751
 20
44.3694669416
 30
0.0
 10
13.8590341891
 20
44.3994576903
 30
0.0
  0
SPLINE
  5
338
100
AcDbEntity
  8
RACCORDO
100
AcDbSpline
 62
7
  6
CONTINUOUS
 70
0
 71
3
 72
10
 73
6
 74
0
 42
0.0000001
 43
0.0000001
 44
0.0000000001
 40
0.0
 40
0.0
 40
0.0
 40
0.0
 40
0.5187167339
 40
0.7613323061
 40
1.0
 40
1.0
 40
1.0
 40
1.0
 10
16.894879723
 20
7.7046755312
 30
0.0
 10
17.1327959558
 20
7.9628815592
 30
0.0
 10
17.4400744824
 20
8.3922617427
 30
0.0
 10
17.656476528
 20
9.0381455518
 30
0.0
 10
17.6890074589
 20
9.3658031374
 30
0.0
 10
17.6861192673
 20
9.52732472
 30
0.0
  0
SPLINE
  5
339
100
AcDbEntity
  8
RACCORDO
100
AcDbSpline
 62
7
  6
CONTINUOUS
 70
0
 71
3
 72
9
 73
5
 74
0
 42
0.0000001
 43
0.0000001
 44
0.0000000001
 40
0.0
 40
0.0
 40
0.0
 40
0.0
 40
0.2365023916
 40
1.0
 40
1.0
 40
1.0
 40
1.0
 10
13.2151045753
 20
5.5360316798
 30
0.0
 10
13.0337093289
 20
5.4681662249
 30
0.0
 10
12.2624579551
 20
5.1926209274
 30
0.0
 10
11.4763984338
 20
4.9594709284
 30
0.0
 10
10.8718794067
 20
4.7998482558
 30
0.0
  0
SPLINE
  5
33A
100
AcDbEntity
  8
RACCORDO
100
AcDbSpline
 62
7
  6
CONTINUOUS
 70
0
 71
3
 72
9
 73
5
 74
0
 42
0.0000001
 43
0.0000001
 44
0.0000000001
 40
0.0
 40
0.0
 40
0.0
 40
0.0
 40
0.2348322511
 40
1.0
 40
1.0
 40
1.0
 40
1.0
 10
-8.726832521
 20
3.8638386274
 30
0.0
 10
-8.7396890359
 20
3.8717739604
 30
0.0
 10
-8.7914262468
 20
3.9104908481
 30
0.0
 10
-8.828117923
 20
3.9671092404
 30
0.0
 10
-8.8468229638
 20
4.0126452721
 30
0.0
  0
SPLINE
  5
33B
100
AcDbEntity
  8
RACCORDO
100
AcDbSpline
 62
7
  6
CONTINUOUS
 70
0
 71
3
 72
9
 73
5
 74
0
 42
0.0000001
 43
0.0000001
 44
0.0000000001
 40
0.0
 40
0.0
 40
0.0
 40
0.0
 40
0.2375915666
 40
1.0
 40
1.0
 40
1.0
 40
1.0
 10
-8.8468229638
 20
4.0126452721
 30
0.0
 10
-8.8521898944
 20
4.0257106659
 30
0.0
 10
-8.8718645107
 20
4.0818884337
 30
0.0
 10
-8.8802642516
 20
4.1417271226
 30
0.0
 10
-8.8813626687
 20
4.1870387605
 30
0.0
  0
SPLINE
  5
33C
100
AcDbEntity
  8
RACCORDO
100
AcDbSpline
 62
7
  6
CONTINUOUS
 70
0
 71
3
 72
11
 73
7
 74
0
 42
0.0000001
 43
0.0000001
 44
0.0000000001
 40
0.0
 40
0.0
 40
0.0
 40
0.0
 40
0.2403601048
 40
0.4919963637
 40
0.747686623
 40
1.0
 40
1.0
 40
1.0
 40
1.0
 10
-8.5009723878
 20
3.8122036802
 30
0.0
 10
-7.4937419933
 20
3.679303012
 30
0.0
 10
-5.4224645809
 20
3.4768405138
 30
0.0
 10
-2.2631222806
 20
3.3506811008
 30
0.0
 10
0.9489066023
 20
3.3963395424
 30
0.0
 10
3.0924633898
 20
3.5428261536
 30
0.0
 10
4.1538931312
 20
3.6465415147
 30
0.0
  0
SPLINE
  5
33D
100
AcDbEntity
  8
RACCORDO
100
AcDbSpline
 62
7
  6
CONTINUOUS
 70
0
 71
3
 72
14
 73
10
 74
0
 42
0.0000001
 43
0.0000001
 44
0.0000000001
 40
0.0
 40
0.0
 40
0.0
 40
0.0
 40
0.1295734276
 40
0.254634434
 40
0.3750408839
 40
0.4930325521
 40
0.6119412964
 40
0.734779953
 40
1.0
 40
1.0
 40
1.0
 40
1.0
 10
15.2237031353
 20
41.7568306483
 30
0.0
 10
15.1640103058
 20
42.1066774661
 30
0.0
 10
14.9588599625
 20
42.782128401
 30
0.0
 10
14.4365671621
 20
43.675532319
 30
0.0
 10
13.770716482
 20
44.4229302797
 30
0.0
 10
13.0076875356
 20
45.0410071416
 30
0.0
 10
12.1678158041
 20
45.5602446736
 30
0.0
 10
10.9179559145
 20
46.1689688246
 30
0.0
 10
9.9084622949
 20
46.5154197497
 30
0.0
 10
9.2102943655
 20
46.7161108974
 30
0.0
  0
SPLINE
  5
33E
100
AcDbEntity
  8
DRAFT
100
AcDbSpline
 62
7
  6
CONTINUOUS
 70
0
 71
3
 72
9
 73
5
 74
0
 42
0.0000001
 43
0.0000001
 44
0.0000000001
 40
0.0
 40
0.0
 40
0.0
 40
0.0
 40
0.4746020264
 40
1.0
 40
1.0
 40
1.0
 40
1.0
 10
-13.5614092943
 20
22.905587791
 30
0.0
 10
-12.8515726221
 20
22.7015424167
 30
0.0
 10
-11.3358179345
 20
22.340791871
 30
0.0
 10
-9.7996762549
 20
22.0852179071
 30
0.0
 10
-8.9896918683
 20
21.9736591301
 30
0.0
  0
SPLINE
  5
33F
100
AcDbEntity
  8
0
100
AcDbSpline
 62
7
  6
CONTINUOUS
 70
0
 71
3
 72
8
 73
4
 74
0
 42
0.0000001
 43
0.0000001
 44
0.0000000001
 40
0.0
 40
0.0
 40
0.0
 40
0.0
 40
1.0
 40
1.0
 40
1.0
 40
1.0
 10
12.67815268
 20
16.4693481516
 30
0.0
 10
12.6692725949
 20
16.7138652277
 30
0.0
 10
12.6602225314
 20
16.9583761897
 30
0.0
 10
12.6510027076
 20
17.2028806912
 30
0.0
  0
SPLINE
  5
340
100
AcDbEntity
  8
0
100
AcDbSpline
 62
7
  6
CONTINUOUS
 70
0
 71
3
 72
11
 73
7
 74
0
 42
0.0000001
 43
0.0000001
 44
0.0000000001
 40
0.0
 40
0.0
 40
0.0
 40
0.0
 40
0.2789684725
 40
0.5475466947
 40
0.7894683968
 40
1.0
 40
1.0
 40
1.0
 40
1.0
 10
11.5954409445
 20
16.8713339974
 30
0.0
 10
11.6215066191
 20
17.0913597776
 30
0.0
 10
11.7288650413
 20
17.5184922691
 30
0.0
 10
12.0339092141
 20
18.0746722813
 30
0.0
 10
12.4484143237
 20
18.4838021574
 30
0.0
 10
12.7948487534
 20
18.6249183686
 30
0.0
 10
12.9609101201
 20
18.6444832171
 30
0.0
  0
SPLINE
  5
341
100
AcDbEntity
  8
0
100
AcDbSpline
 62
7
  6
CONTINUOUS
 70
0
 71
3
 72
8
 73
4
 74
0
 42
0.0000001
 43
0.0000001
 44
0.0000000001
 40
0.0
 40
0.0
 40
0.0
 40
0.0
 40
1.0
 40
1.0
 40
1.0
 40
1.0
 10
12.9609101201
 20
18.6444832171
 30
0.0
 10
12.9509924513
 20
18.891047409
 30
0.0
 10
12.9409025027
 20
19.1376047313
 30
0.0
 10
12.9306404956
 20
19.3841548319
 30
0.0
  0
SPLINE
  5
342
100
AcDbEntity
  8
0
100
AcDbSpline
 62
7
  6
CONTINUOUS
 70
0
 71
3
 72
8
 73
4
 74
0
 42
0.0000001
 43
0.0000001
 44
0.0000000001
 40
0.0
 40
0.0
 40
0.0
 40
0.0
 40
1.0
 40
1.0
 40
1.0
 40
1.0
 10
13.1107350024
 20
14.5184497896
 30
0.0
 10
13.1027662499
 20
14.7644526598
 30
0.0
 10
13.0946248792
 20
15.0104499988
 30
0.0
 10
13.0863111148
 20
15.2564414509
 30
0.0
  0
SPLINE
  5
343
100
AcDbEntity
  8
0
100
AcDbSpline
 62
7
  6
CONTINUOUS
 70
0
 71
3
 72
8
 73
4
 74
0
 42
0.0000001
 43
0.0000001
 44
0.0000000001
 40
0.0
 40
0.0
 40
0.0
 40
0.0
 40
1.0
 40
1.0
 40
1.0
 40
1.0
 10
10.0366683747
 20
13.5529007688
 30
0.0
 10
10.0286996269
 20
13.7989034953
 30
0.0
 10
10.020558261
 20
14.0449006907
 30
0.0
 10
10.0122445017
 20
14.2908919991
 30
0.0
  0
SPLINE
  5
344
100
AcDbEntity
  8
0
100
AcDbSpline
 62
7
  6
CONTINUOUS
 70
0
 71
3
 72
8
 73
4
 74
0
 42
0.0000001
 43
0.0000001
 44
0.0000000001
 40
0.0
 40
0.0
 40
0.0
 40
0.0
 40
1.0
 40
1.0
 40
1.0
 40
1.0
 10
9.8868434924
 20
17.6789341963
 30
0.0
 10
9.8769258236
 20
17.9254983882
 30
0.0
 10
9.866835875
 20
18.1720557105
 30
0.0
 10
9.856573868
 20
18.4186058111
 30
0.0
  0
SPLINE
  5
345
100
AcDbEntity
  8
RACCORDO
100
AcDbSpline
 62
7
  6
CONTINUOUS
 70
0
 71
3
 72
11
 73
7
 74
0
 42
0.0000001
 43
0.0000001
 44
0.0000000001
 40
0.0
 40
0.0
 40
0.0
 40
0.0
 40
0.2635760486
 40
0.5258780042
 40
0.7743985227
 40
1.0
 40
1.0
 40
1.0
 40
1.0
 10
-12.7665935678
 20
37.6066593754
 30
0.0
 10
-12.7396469791
 20
37.9089811495
 30
0.0
 10
-12.6200228149
 20
38.5079102951
 30
0.0
 10
-12.2690803213
 20
39.3345105097
 30
0.0
 10
-11.7749179505
 20
40.0320756279
 30
0.0
 10
-11.3510839668
 20
40.3902874384
 30
0.0
 10
-11.1275073896
 20
40.5225930167
 30
0.0
  0
SPLINE
  5
346
100
AcDbEntity
  8
RACCORDO
100
AcDbSpline
 62
7
  6
CONTINUOUS
 70
0
 71
3
 72
9
 73
5
 74
0
 42
0.0000001
 43
0.0000001
 44
0.0000000001
 40
0.0
 40
0.0
 40
0.0
 40
0.0
 40
0.2530101724
 40
1.0
 40
1.0
 40
1.0
 40
1.0
 10
8.7610939811
 20
46.7695036744
 30
0.0
 10
8.7992679985
 20
46.7709904786
 30
0.0
 10
8.9503087982
 20
46.7710993166
 30
0.0
 10
9.1014299844
 20
46.7473100438
 30
0.0
 10
9.209852314
 20
46.7162236196
 30
0.0
  0
SPLINE
  5
347
100
AcDbEntity
  8
RACCORDO
100
AcDbSpline
 62
7
  6
CONTINUOUS
 70
0
 71
3
 72
8
 73
4
 74
0
 42
0.0000001
 43
0.0000001
 44
0.0000000001
 40
0.0
 40
0.0
 40
0.0
 40
0.0
 40
1.0
 40
1.0
 40
1.0
 40
1.0
 10
13.731565794
 20
44.4202210351
 30
0.0
 10
13.757220191
 20
44.4203322289
 30
0.0
 10
13.7830249562
 20
44.4179104304
 30
0.0
 10
13.8081762627
 20
44.4128535314
 30
0.0
  0
SPLINE
  5
348
100
AcDbEntity
  8
0
100
AcDbSpline
 62
7
  6
CONTINUOUS
 70
0
 71
3
 72
9
 73
5
 74
0
 42
0.0000001
 43
0.0000001
 44
0.0000000001
 40
0.0
 40
0.0
 40
0.0
 40
0.0
 40
0.2561354744
 40
1.0
 40
1.0
 40
1.0
 40
1.0
 10
5.5205765208
 20
26.3438002039
 30
0.0
 10
5.4387136466
 20
26.690205959
 30
0.0
 10
5.1654546169
 20
28.0528577641
 30
0.0
 10
5.0782417345
 20
29.4552720125
 30
0.0
 10
5.1383035663
 20
30.4872621022
 30
0.0
  0
SPLINE
  5
349
100
AcDbEntity
  8
0
100
AcDbSpline
 62
7
  6
CONTINUOUS
 70
0
 71
3
 72
9
 73
5
 74
0
 42
0.0000001
 43
0.0000001
 44
0.0000000001
 40
0.0
 40
0.0
 40
0.0
 40
0.0
 40
0.2531426264
 40
1.0
 40
1.0
 40
1.0
 40
1.0
 10
6.7261226287
 20
26.7224562335
 30
0.0
 10
6.6717499452
 20
26.9525345246
 30
0.0
 10
6.4776444574
 20
27.8661409404
 30
0.0
 10
6.3666091199
 20
28.7977590017
 30
0.0
 10
6.3356179151
 20
29.4945775468
 30
0.0
  0
SPLINE
  5
34A
100
AcDbEntity
  8
0
100
AcDbSpline
 62
7
  6
CONTINUOUS
 70
0
 71
3
 72
9
 73
5
 74
0
 42
0.0000001
 43
0.0000001
 44
0.0000000001
 40
0.0
 40
0.0
 40
0.0
 40
0.0
 40
0.2561355247
 40
1.0
 40
1.0
 40
1.0
 40
1.0
 10
9.0714624386
 20
27.4591157895
 30
0.0
 10
8.9895990017
 20
27.8055213452
 30
0.0
 10
8.7163377641
 20
29.1681721689
 30
0.0
 10
8.6291223926
 20
30.5705857255
 30
0.0
 10
8.6891823928
 20
31.6025754605
 30
0.0
  0
SPLINE
  5
34B
100
AcDbEntity
  8
0
100
AcDbSpline
 62
7
  6
CONTINUOUS
 70
0
 71
3
 72
9
 73
5
 74
0
 42
0.0000001
 43
0.0000001
 44
0.0000000001
 40
0.0
 40
0.0
 40
0.0
 40
0.0
 40
0.2514644512
 40
1.0
 40
1.0
 40
1.0
 40
1.0
 10
13.0160980742
 20
28.6981171386
 30
0.0
 10
12.9838823844
 20
28.8344633566
 30
0.0
 10
12.8630736635
 20
29.3783676254
 30
0.0
 10
12.7715934927
 20
29.9288195408
 30
0.0
 10
12.720559304
 20
30.3427229615
 30
0.0
  0
SPLINE
  5
34C
100
AcDbEntity
  8
RACCORDO
100
AcDbSpline
 62
250
  6
CONTINUOUS
 70
0
 71
3
 72
11
 73
7
 74
0
 42
0.0000001
 43
0.0000001
 44
0.0000000001
 40
0.0
 40
0.0
 40
0.0
 40
0.0
 40
0.2900215503
 40
0.5526340817
 40
0.785873179
 40
1.0
 40
1.0
 40
1.0
 40
1.0
 10
4.8064603174
 20
4.0959151471
 30
0.0
 10
4.8071982248
 20
4.0537603686
 30
0.0
 10
4.8004726001
 20
3.9729228993
 30
0.0
 10
4.7632894587
 20
3.8634276278
 30
0.0
 10
4.7006705294
 20
3.7787901485
 30
0.0
 10
4.6427125865
 20
3.7445131564
 30
0.0
 10
4.613063606
 20
3.7350314174
 30
0.0
  0
SPLINE
  5
34D
100
AcDbEntity
  8
RACCORDO
100
AcDbSpline
 62
250
  6
CONTINUOUS
 70
0
 71
3
 72
11
 73
7
 74
0
 42
0.0000001
 43
0.0000001
 44
0.0000000001
 40
0.0
 40
0.0
 40
0.0
 40
0.0
 40
0.2158945308
 40
0.4497576283
 40
0.711667889
 40
1.0
 40
1.0
 40
1.0
 40
1.0
 10
10.616726668
 20
4.802618824
 30
0.0
 10
10.5864618741
 20
4.8113126824
 30
0.0
 10
10.5269014102
 20
4.8438007017
 30
0.0
 10
10.4606460157
 20
4.9263726669
 30
0.0
 10
10.4192481109
 20
5.0344995257
 30
0.0
 10
10.4096536772
 20
5.1149819503
 30
0.0
 10
10.4089547938
 20
5.1570300829
 30
0.0
  0
SPLINE
  5
34E
100
AcDbEntity
  8
RACCORDO
100
AcDbSpline
 62
250
  6
CONTINUOUS
 70
0
 71
3
 72
9
 73
5
 74
0
 42
0.0000001
 43
0.0000001
 44
0.0000000001
 40
0.0
 40
0.0
 40
0.0
 40
0.0
 40
0.2358072607
 40
1.0
 40
1.0
 40
1.0
 40
1.0
 10
13.4147950239
 20
5.8990093196
 30
0.0
 10
13.2326840145
 20
5.8308760769
 30
0.0
 10
12.4560972213
 20
5.5534533501
 30
0.0
 10
11.6645819594
 20
5.3187857207
 30
0.0
 10
11.0553343089
 20
5.1579144577
 30
0.0
  0
SPLINE
  5
34F
100
AcDbEntity
  8
RACCORDO
100
AcDbSpline
 62
250
  6
CONTINUOUS
 70
0
 71
3
 72
9
 73
5
 74
0
 42
0.0000001
 43
0.0000001
 44
0.0000000001
 40
0.0
 40
0.0
 40
0.0
 40
0.0
 40
0.226667128
 40
1.0
 40
1.0
 40
1.0
 40
1.0
 10
17.0038625198
 20
7.9984157966
 30
0.0
 10
16.9986773686
 20
7.9927911415
 30
0.0
 10
16.9747575923
 20
7.9689376464
 30
0.0
 10
16.9474211844
 20
7.9487127312
 30
0.0
 10
16.9254933277
 20
7.9345573094
 30
0.0
  0
SPLINE
  5
350
100
AcDbEntity
  8
RACCORDO
100
AcDbSpline
 62
250
  6
CONTINUOUS
 70
0
 71
3
 72
9
 73
5
 74
0
 42
0.0000001
 43
0.0000001
 44
0.0000000001
 40
0.0
 40
0.0
 40
0.0
 40
0.0
 40
0.2223441264
 40
1.0
 40
1.0
 40
1.0
 40
1.0
 10
16.9254933277
 20
7.9345573094
 30
0.0
 10
16.9129771301
 20
7.9264775386
 30
0.0
 10
16.8552853017
 20
7.8923034695
 30
0.0
 10
16.7933662766
 20
7.865745676
 30
0.0
 10
16.7445052492
 20
7.8476485044
 30
0.0
  0
SPLINE
  5
351
100
AcDbEntity
  8
RACCORDO
100
AcDbSpline
 62
250
  6
CONTINUOUS
 70
0
 71
3
 72
9
 73
5
 74
0
 42
0.0000001
 43
0.0000001
 44
0.0000000001
 40
0.0
 40
0.0
 40
0.0
 40
0.0
 40
0.485145311
 40
1.0
 40
1.0
 40
1.0
 40
1.0
 10
16.4399313942
 20
32.9808702462
 30
0.0
 10
16.5871072798
 20
33.1078846538
 30
0.0
 10
16.8560231864
 20
33.4117022493
 30
0.0
 10
17.0428651327
 20
33.7704145361
 30
0.0
 10
17.1195217194
 20
33.9619548458
 30
0.0
  0
SPLINE
  5
352
100
AcDbEntity
  8
RACCORDO
100
AcDbSpline
 62
250
  6
CONTINUOUS
 70
0
 71
3
 72
9
 73
5
 74
0
 42
0.0000001
 43
0.0000001
 44
0.0000000001
 40
0.0
 40
0.0
 40
0.0
 40
0.0
 40
0.2350687037
 40
1.0
 40
1.0
 40
1.0
 40
1.0
 10
17.1195217194
 20
33.9619548458
 30
0.0
 10
17.1576661905
 20
34.0572656878
 30
0.0
 10
17.299767205
 20
34.4707924342
 30
0.0
 10
17.3637324404
 20
34.90876406
 30
0.0
 10
17.3796746538
 20
35.2424481261
 30
0.0
  0
SPLINE
  5
353
100
AcDbEntity
  8
RACCORDO
100
AcDbSpline
 62
250
  6
CONTINUOUS
 70
0
 71
3
 72
11
 73
7
 74
0
 42
0.0000001
 43
0.0000001
 44
0.0000000001
 40
0.0
 40
0.0
 40
0.0
 40
0.0
 40
0.2225580911
 40
0.4685062149
 40
0.7307081047
 40
1.0
 40
1.0
 40
1.0
 40
1.0
 10
17.3856169086
 20
35.498152511
 30
0.0
 10
17.3853604002
 20
35.930678564
 30
0.0
 10
17.2792435566
 20
36.8420452719
 30
0.0
 10
16.8744069052
 20
38.2086530883
 30
0.0
 10
16.2368822666
 20
39.5837831129
 30
0.0
 10
15.6791050039
 20
40.4573805345
 30
0.0
 10
15.3688719959
 20
40.8788668599
 30
0.0
  0
SPLINE
  5
354
100
AcDbEntity
  8
0
100
AcDbSpline
 62
7
  6
CONTINUOUS
 70
0
 71
3
 72
16
 73
12
 74
0
 42
0.0000001
 43
0.0000001
 44
0.0000000001
 40
0.0
 40
0.0
 40
0.0
 40
0.0
 40
0.1098060414
 40
0.2349376949
 40
0.3730632976
 40
0.5168383237
 40
0.6570477457
 40
0.7855481013
 40
0.898428113
 40
0.9501295631
 40
1.0
 40
1.0
 40
1.0
 40
1.0
 10
12.8953747314
 20
19.394292116
 30
0.0
 10
12.6713744064
 20
19.3546415956
 30
0.0
 10
12.2119605641
 20
19.1482407502
 30
0.0
 10
11.6570965188
 20
18.5939335643
 30
0.0
 10
11.2406253414
 20
17.8499865957
 30
0.0
 10
11.0061017026
 20
16.9991547813
 30
0.0
 10
10.9784133743
 20
16.1362289695
 30
0.0
 10
11.161566154
 20
15.3564487379
 30
0.0
 10
11.4974726251
 20
14.829486899
 30
0.0
 10
11.8517189738
 20
14.5549591895
 30
0.0
 10
12.0471844489
 20
14.4699927352
 30
0.0
 10
12.1464758179
 20
14.4414393832
 30
0.0
  0
SPLINE
  5
355
100
AcDbEntity
  8
RACCORDO
100
AcDbSpline
 62
250
  6
CONTINUOUS
 70
0
 71
3
 72
9
 73
5
 74
0
 42
0.0000001
 43
0.0000001
 44
0.0000000001
 40
0.0
 40
0.0
 40
0.0
 40
0.0
 40
0.2413299403
 40
1.0
 40
1.0
 40
1.0
 40
1.0
 10
17.4506841943
 20
34.6299546464
 30
0.0
 10
17.4824653551
 20
34.6783470203
 30
0.0
 10
17.6065551729
 20
34.8838376804
 30
0.0
 10
17.6998643783
 20
35.1072894531
 30
0.0
 10
17.7548189722
 20
35.2808004309
 30
0.0
  0
SPLINE
  5
356
100
AcDbEntity
  8
RACCORDO
100
AcDbSpline
 62
250
  6
CONTINUOUS
 70
0
 71
3
 72
12
 73
8
 74
0
 42
0.0000001
 43
0.0000001
 44
0.0000000001
 40
0.0
 40
0.0
 40
0.0
 40
0.0
 40
0.2046507318
 40
0.3238302166
 40
0.4521343721
 40
0.725288692
 40
1.0
 40
1.0
 40
1.0
 40
1.0
 10
17.7548189722
 20
35.2808004309
 30
0.0
 10
17.9226535059
 20
35.8107130725
 30
0.0
 10
17.9661297065
 20
36.7190726802
 30
0.0
 10
17.7561321825
 20
37.9285927824
 30
0.0
 10
17.3308281743
 20
39.2821773414
 30
0.0
 10
16.4736600449
 20
40.9228726667
 30
0.0
 10
15.5222648745
 20
42.084241038
 30
0.0
 10
14.9855972036
 20
42.6026288947
 30
0.0
  0
SPLINE
  5
357
100
AcDbEntity
  8
ASSI
100
AcDbSpline
 62
7
  6
CONTINUOUS
 70
0
 71
3
 72
8
 73
4
 74
0
 42
0.0000001
 43
0.0000001
 44
0.0000000001
 40
0.0
 40
0.0
 40
0.0
 40
0.0
 40
1.0
 40
1.0
 40
1.0
 40
1.0
 10
13.5616853939
 20
32.2769842595
 30
0.0
 10
13.5733232418
 20
32.2651512777
 30
0.0
 10
13.5839685496
 20
32.2522824558
 30
0.0
 10
13.5935951461
 20
32.2387625593
 30
0.0
  0
SPLINE
  5
358
100
AcDbEntity
  8
ASSI
100
AcDbSpline
 62
7
  6
CONTINUOUS
 70
0
 71
3
 72
11
 73
7
 74
0
 42
0.0000001
 43
0.0000001
 44
0.0000000001
 40
0.0
 40
0.0
 40
0.0
 40
0.0
 40
0.2382710722
 40
0.3745664908
 40
0.5153534417
 40
1.0
 40
1.0
 40
1.0
 40
1.0
 10
13.5935951461
 20
32.2387625593
 30
0.0
 10
13.6404825127
 20
32.1729124591
 30
0.0
 10
13.6784470916
 20
32.0443079033
 30
0.0
 10
13.677909484
 20
31.8687749493
 30
0.0
 10
13.6332194551
 20
31.6171216547
 30
0.0
 10
13.4928062632
 20
31.3974308152
 30
0.0
 10
13.3359381991
 20
31.3481593373
 30
0.0
  0
SPLINE
  5
359
100
AcDbEntity
  8
RACCORDO
100
AcDbSpline
 62
250
  6
CONTINUOUS
 70
0
 71
3
 72
9
 73
5
 74
0
 42
0.0000001
 43
0.0000001
 44
0.0000000001
 40
0.0
 40
0.0
 40
0.0
 40
0.0
 40
0.5103122572
 40
1.0
 40
1.0
 40
1.0
 40
1.0
 10
15.2449085666
 20
41.6297425312
 30
0.0
 10
15.7139026166
 20
41.0785569443
 30
0.0
 10
16.522415529
 20
39.9007319536
 30
0.0
 10
17.0796865966
 20
38.5820844596
 30
0.0
 10
17.2671780034
 20
37.9134086352
 30
0.0
  0
SPLINE
  5
35A
100
AcDbEntity
  8
RACCORDO
100
AcDbSpline
 62
250
  6
CONTINUOUS
 70
0
 71
3
 72
14
 73
10
 74
0
 42
0.0000001
 43
0.0000001
 44
0.0000000001
 40
0.0
 40
0.0
 40
0.0
 40
0.0
 40
0.1995601828
 40
0.3227011846
 40
0.4573485698
 40
0.5983577764
 40
0.7397140166
 40
0.8753595648
 40
1.0
 40
1.0
 40
1.0
 40
1.0
 10
18.0694633142
 20
36.0208300701
 30
0.0
 10
18.3696464378
 20
36.5739555942
 30
0.0
 10
18.4665345625
 20
37.6625254105
 30
0.0
 10
18.179394795
 20
39.0705355513
 30
0.0
 10
17.7245117181
 20
40.2519937699
 30
0.0
 10
17.0720360532
 20
41.3980159776
 30
0.0
 10
16.2619374567
 20
42.4441303368
 30
0.0
 10
15.3445817844
 20
43.3239923661
 30
0.0
 10
14.661513645
 20
43.7895289794
 30
0.0
 10
14.3145582824
 20
43.9742504844
 30
0.0
  0
SPLINE
  5
35B
100
AcDbEntity
  8
ASSI
100
AcDbSpline
 62
7
  6
CONTINUOUS
 70
0
 71
3
 72
9
 73
5
 74
0
 42
0.0000001
 43
0.0000001
 44
0.0000000001
 40
0.0
 40
0.0
 40
0.0
 40
0.0
 40
0.2402607422
 40
1.0
 40
1.0
 40
1.0
 40
1.0
 10
13.7038549012
 20
33.1340302312
 30
0.0
 10
13.680108117
 20
33.1374121594
 30
0.0
 10
13.5803979184
 20
33.1453374947
 30
0.0
 10
13.479500774
 20
33.1285066577
 30
0.0
 10
13.4071378758
 20
33.1057778317
 30
0.0
  0
SPLINE
  5
35C
100
AcDbEntity
  8
RACCORDO
100
AcDbSpline
 62
250
  6
CONTINUOUS
 70
0
 71
3
 72
11
 73
7
 74
0
 42
0.0000001
 43
0.0000001
 44
0.0000000001
 40
0.0
 40
0.0
 40
0.0
 40
0.0
 40
0.225528003
 40
0.4616821073
 40
0.7176216423
 40
1.0
 40
1.0
 40
1.0
 40
1.0
 10
17.686123673
 20
9.5273247938
 30
0.0
 10
17.6884299256
 20
9.3985144362
 30
0.0
 10
17.6616850236
 20
9.1333426981
 30
0.0
 10
17.5295009255
 20
8.7422242417
 30
0.0
 10
17.3079621042
 20
8.3566164152
 30
0.0
 10
17.113216476
 20
8.117038774
 30
0.0
 10
17.0039117884
 20
7.9984124436
 30
0.0
  0
SPLINE
  5
35D
100
AcDbEntity
  8
RACCORDO
100
AcDbSpline
 62
250
  6
CONTINUOUS
 70
0
 71
3
 72
9
 73
5
 74
0
 42
0.0000001
 43
0.0000001
 44
0.0000000001
 40
0.0
 40
0.0
 40
0.0
 40
0.0
 40
0.4881427631
 40
1.0
 40
1.0
 40
1.0
 40
1.0
 10
-8.9896918683
 20
21.9736591301
 30
0.0
 10
-7.2657685531
 20
21.7362239649
 30
0.0
 10
-3.704800438
 20
21.4561401546
 30
0.0
 10
-0.1348791586
 20
21.5015580107
 30
0.0
 10
1.68666363
 20
21.6094958837
 30
0.0
  0
SPLINE
  5
35E
100
AcDbEntity
  8
RACCORDO
100
AcDbSpline
 62
250
  6
CONTINUOUS
 70
0
 71
3
 72
9
 73
5
 74
0
 42
0.0000001
 43
0.0000001
 44
0.0000000001
 40
0.0
 40
0.0
 40
0.0
 40
0.0
 40
0.3780923536
 40
1.0
 40
1.0
 40
1.0
 40
1.0
 10
13.5268311305
 20
5.9940555226
 30
0.0
 10
13.5271446995
 20
5.9748338662
 30
0.0
 10
13.4909796615
 20
5.9290679973
 30
0.0
 10
13.444803328
 20
5.9089789683
 30
0.0
 10
13.4147950239
 20
5.8990093196
 30
0.0
  0
SPLINE
  5
35F
100
AcDbEntity
  8
0
100
AcDbSpline
 62
7
  6
CONTINUOUS
 70
0
 71
3
 72
16
 73
12
 74
0
 42
0.0000001
 43
0.0000001
 44
0.0000000001
 40
0.0
 40
0.0
 40
0.0
 40
0.0
 40
0.1098060414
 40
0.2349376949
 40
0.3730632976
 40
0.5168383237
 40
0.6570477457
 40
0.7855481013
 40
0.898428113
 40
0.9501295631
 40
1.0
 40
1.0
 40
1.0
 40
1.0
 10
9.8213081038
 20
18.4287430952
 30
0.0
 10
9.5973077787
 20
18.3890925748
 30
0.0
 10
9.1378939364
 20
18.1826917294
 30
0.0
 10
8.5830298912
 20
17.6283845435
 30
0.0
 10
8.1665587137
 20
16.8844375749
 30
0.0
 10
7.9320350749
 20
16.0336057605
 30
0.0
 10
7.9043467467
 20
15.1706799487
 30
0.0
 10
8.0874995263
 20
14.3908997171
 30
0.0
 10
8.4234059974
 20
13.8639378782
 30
0.0
 10
8.7776523461
 20
13.5894101687
 30
0.0
 10
8.9731178212
 20
13.5044437144
 30
0.0
 10
9.0724091902
 20
13.4758903624
 30
0.0
  0
SPLINE
  5
360
100
AcDbEntity
  8
0
100
AcDbSpline
 62
7
  6
CONTINUOUS
 70
0
 71
3
 72
9
 73
5
 74
0
 42
0.0000001
 43
0.0000001
 44
0.0000000001
 40
0.0
 40
0.0
 40
0.0
 40
0.0
 40
0.2561354784
 40
1.0
 40
1.0
 40
1.0
 40
1.0
 10
4.9177983133
 20
26.1544585388
 30
0.0
 10
4.8359349576
 20
26.500865191
 30
0.0
 10
4.5626742921
 20
27.8635205639
 30
0.0
 10
4.4754607154
 20
29.2659387169
 30
0.0
 10
4.5355227119
 20
30.2979316374
 30
0.0
  0
SPLINE
  5
361
100
AcDbEntity
  8
RACCORDO
100
AcDbSpline
 62
250
  6
CONTINUOUS
 70
0
 71
3
 72
9
 73
5
 74
0
 42
0.0000001
 43
0.0000001
 44
0.0000000001
 40
0.0
 40
0.0
 40
0.0
 40
0.0
 40
0.5141056084
 40
1.0
 40
1.0
 40
1.0
 40
1.0
 10
16.7367783863
 20
26.3366619885
 30
0.0
 10
16.8102332348
 20
26.4823014515
 30
0.0
 10
16.9227085271
 20
26.7830310471
 30
0.0
 10
16.948373222
 20
27.1042600338
 30
0.0
 10
16.9381364877
 20
27.2580838572
 30
0.0
  0
SPLINE
  5
362
100
AcDbEntity
  8
ASSI
100
AcDbSpline
 62
7
  6
CONTINUOUS
 70
0
 71
3
 72
9
 73
5
 74
0
 42
0.0000001
 43
0.0000001
 44
0.0000000001
 40
0.0
 40
0.0
 40
0.0
 40
0.0
 40
0.256118404
 40
1.0
 40
1.0
 40
1.0
 40
1.0
 10
4.8808135598
 20
26.1650899533
 30
0.0
 10
4.7993194824
 20
26.5115007521
 30
0.0
 10
4.527265139
 20
27.8741708271
 30
0.0
 10
4.4404248484
 20
29.2762397213
 30
0.0
 10
4.5001042099
 20
30.3081128266
 30
0.0
  0
SPLINE
  5
363
100
AcDbEntity
  8
0
100
AcDbSpline
 62
7
  6
CONTINUOUS
 70
0
 71
3
 72
9
 73
5
 74
0
 42
0.0000001
 43
0.0000001
 44
0.0000000001
 40
0.0
 40
0.0
 40
0.0
 40
0.0
 40
0.2624197461
 40
1.0
 40
1.0
 40
1.0
 40
1.0
 10
9.9769896821
 20
14.3010261372
 30
0.0
 10
9.9384776582
 20
14.2812902533
 30
0.0
 10
9.7880728756
 20
14.2137550058
 30
0.0
 10
9.6213594968
 20
14.1798857436
 30
0.0
 10
9.4997346555
 20
14.1811209993
 30
0.0
  0
SPLINE
  5
364
100
AcDbEntity
  8
0
100
AcDbSpline
 62
7
  6
CONTINUOUS
 70
0
 71
3
 72
9
 73
5
 74
0
 42
0.0000001
 43
0.0000001
 44
0.0000000001
 40
0.0
 40
0.0
 40
0.0
 40
0.0
 40
0.5178133786
 40
1.0
 40
1.0
 40
1.0
 40
1.0
 10
13.0510562952
 20
15.266575589
 30
0.0
 10
12.9455398032
 20
15.2125025688
 30
0.0
 10
12.7247253735
 20
15.1360530478
 30
0.0
 10
12.489383062
 20
15.1444134543
 30
0.0
 10
12.3820456378
 20
15.1702678667
 30
0.0
  0
SPLINE
  5
365
100
AcDbEntity
  8
RACCORDO
100
AcDbSpline
 62
250
  6
CONTINUOUS
 70
0
 71
3
 72
9
 73
5
 74
0
 42
0.0000001
 43
0.0000001
 44
0.0000000001
 40
0.0
 40
0.0
 40
0.0
 40
0.0
 40
0.3741384436
 40
1.0
 40
1.0
 40
1.0
 40
1.0
 10
13.4070138888
 20
11.2909476359
 30
0.0
 10
13.4074822142
 20
11.2720673474
 30
0.0
 10
13.3707245712
 20
11.2270323553
 30
0.0
 10
13.3251792763
 20
11.2068252266
 30
0.0
 10
13.295010578
 20
11.1974468082
 30
0.0
  0
SPLINE
  5
366
100
AcDbEntity
  8
0
100
AcDbSpline
 62
7
  6
CONTINUOUS
 70
0
 71
3
 72
9
 73
5
 74
0
 42
0.0000001
 43
0.0000001
 44
0.0000000001
 40
0.0
 40
0.0
 40
0.0
 40
0.0
 40
0.2561355247
 40
1.0
 40
1.0
 40
1.0
 40
1.0
 10
6.1233417744
 20
26.5331257687
 30
0.0
 10
6.0414783375
 20
26.8795313244
 30
0.0
 10
5.7682170999
 20
28.2421821481
 30
0.0
 10
5.6810017284
 20
29.6445957047
 30
0.0
 10
5.7410617286
 20
30.6765854396
 30
0.0
  0
SPLINE
  5
367
100
AcDbEntity
  8
ASSI
100
AcDbSpline
 62
7
  6
CONTINUOUS
 70
0
 71
3
 72
9
 73
5
 74
0
 42
0.0000001
 43
0.0000001
 44
0.0000000001
 40
0.0
 40
0.0
 40
0.0
 40
0.0
 40
0.2561184501
 40
1.0
 40
1.0
 40
1.0
 40
1.0
 10
6.0863570337
 20
26.5437571795
 30
0.0
 10
6.0048628725
 20
26.8901668815
 30
0.0
 10
5.732807948
 20
28.252832408
 30
0.0
 10
5.6459658599
 20
29.6548967085
 30
0.0
 10
5.7056432266
 20
30.6867666289
 30
0.0
  0
SPLINE
  5
368
100
AcDbEntity
  8
RACCORDO
100
AcDbSpline
 62
250
  6
CONTINUOUS
 70
0
 71
3
 72
11
 73
7
 74
0
 42
0.0000001
 43
0.0000001
 44
0.0000000001
 40
0.0
 40
0.0
 40
0.0
 40
0.0
 40
0.2141202256
 40
0.4472707383
 40
0.7098693034
 40
1.0
 40
1.0
 40
1.0
 40
1.0
 10
16.4744255672
 20
7.4606231676
 30
0.0
 10
16.5042028929
 20
7.469966414
 30
0.0
 10
16.5624784197
 20
7.5040637758
 30
0.0
 10
16.6254886179
 20
7.5887611921
 30
0.0
 10
16.6629034023
 20
7.6985107453
 30
0.0
 10
16.6696709267
 20
7.7795770178
 30
0.0
 10
16.6689308054
 20
7.8218580596
 30
0.0
  0
SPLINE
  5
369
100
AcDbEntity
  8
0
100
AcDbSpline
 62
7
  6
CONTINUOUS
 70
0
 71
3
 72
9
 73
5
 74
0
 42
0.0000001
 43
0.0000001
 44
0.0000000001
 40
0.0
 40
0.0
 40
0.0
 40
0.0
 40
0.2531426799
 40
1.0
 40
1.0
 40
1.0
 40
1.0
 10
8.4686815842
 20
27.2697853246
 30
0.0
 10
8.4143082755
 20
27.4998634028
 30
0.0
 10
8.2202003108
 20
28.4134688336
 30
0.0
 10
8.1091622994
 20
29.3450861174
 30
0.0
 10
8.0781690702
 20
30.0419041878
 30
0.0
  0
SPLINE
  5
36A
100
AcDbEntity
  8
ASSI
100
AcDbSpline
 62
7
  6
CONTINUOUS
 70
0
 71
3
 72
9
 73
5
 74
0
 42
0.0000001
 43
0.0000001
 44
0.0000000001
 40
0.0
 40
0.0
 40
0.0
 40
0.0
 40
0.2528048172
 40
1.0
 40
1.0
 40
1.0
 40
1.0
 10
8.4316968435
 20
27.2804167354
 30
0.0
 10
8.381158462
 20
27.4952390848
 30
0.0
 10
8.1992188126
 20
28.3490897736
 30
0.0
 10
8.089466729
 20
29.2185814396
 30
0.0
 10
8.0521623807
 20
29.8697810269
 30
0.0
  0
SPLINE
  5
36B
100
AcDbEntity
  8
0
100
AcDbSpline
 62
7
  6
CONTINUOUS
 70
0
 71
3
 72
16
 73
12
 74
0
 42
0.0000001
 43
0.0000001
 44
0.0000000001
 40
0.0
 40
0.0
 40
0.0
 40
0.0
 40
0.1098061099
 40
0.234937906
 40
0.3730636409
 40
0.516838732
 40
0.6570481274
 40
0.7855483734
 40
0.8984282337
 40
0.9501296151
 40
1.0
 40
1.0
 40
1.0
 40
1.0
 10
12.9306404956
 20
19.3841548319
 30
0.0
 10
12.7066401362
 20
19.3445042611
 30
0.0
 10
12.2472261383
 20
19.138103389
 30
0.0
 10
11.692361126
 20
18.5837967708
 30
0.0
 10
11.2758881414
 20
17.8398504709
 30
0.0
 10
11.0413622683
 20
16.9890193175
 30
0.0
 10
11.0136716552
 20
16.1260940957
 30
0.0
 10
11.1968223853
 20
15.346314322
 30
0.0
 10
11.5327275581
 20
14.8193527077
 30
0.0
 10
11.8869731396
 20
14.5448252227
 30
0.0
 10
12.0824382938
 20
14.4598588773
 30
0.0
 10
12.181729516
 20
14.4313055675
 30
0.0
  0
SPLINE
  5
36C
100
AcDbEntity
  8
RACCORDO
100
AcDbSpline
 62
250
  6
CONTINUOUS
 70
0
 71
3
 72
9
 73
5
 74
0
 42
0.0000001
 43
0.0000001
 44
0.0000000001
 40
0.0
 40
0.0
 40
0.0
 40
0.0
 40
0.4947712563
 40
1.0
 40
1.0
 40
1.0
 40
1.0
 10
16.8953506688
 20
7.705196915
 30
0.0
 10
16.9308596158
 20
7.7438934658
 30
0.0
 10
16.9876359266
 20
7.8372162113
 30
0.0
 10
17.0048679702
 20
7.9447913141
 30
0.0
 10
17.0039117884
 20
7.9984124436
 30
0.0
  0
SPLINE
  5
36D
100
AcDbEntity
  8
0
100
AcDbSpline
 62
7
  6
CONTINUOUS
 70
0
 71
3
 72
9
 73
5
 74
0
 42
0.0000001
 43
0.0000001
 44
0.0000000001
 40
0.0
 40
0.0
 40
0.0
 40
0.0
 40
0.5179674502
 40
1.0
 40
1.0
 40
1.0
 40
1.0
 10
13.0863111148
 20
15.2564414509
 30
0.0
 10
12.975236597
 20
15.1995202005
 30
0.0
 10
12.741645161
 20
15.1205312952
 30
0.0
 10
12.493505192
 20
15.1374094871
 30
0.0
 10
12.3818709478
 20
15.1694860555
 30
0.0
  0
SPLINE
  5
36E
100
AcDbEntity
  8
0
100
AcDbSpline
 62
7
  6
CONTINUOUS
 70
0
 71
3
 72
16
 73
12
 74
0
 42
0.0000001
 43
0.0000001
 44
0.0000000001
 40
0.0
 40
0.0
 40
0.0
 40
0.0
 40
0.1098061099
 40
0.234937906
 40
0.3730636409
 40
0.516838732
 40
0.6570481274
 40
0.7855483734
 40
0.8984282337
 40
0.9501296151
 40
1.0
 40
1.0
 40
1.0
 40
1.0
 10
9.856573868
 20
18.4186058111
 30
0.0
 10
9.6325735085
 20
18.3789552403
 30
0.0
 10
9.1731595107
 20
18.1725543682
 30
0.0
 10
8.6182944983
 20
17.61824775
 30
0.0
 10
8.2018215137
 20
16.8743014501
 30
0.0
 10
7.9672956406
 20
16.0234702967
 30
0.0
 10
7.9396050275
 20
15.1605450749
 30
0.0
 10
8.1227557576
 20
14.3807653012
 30
0.0
 10
8.4586609305
 20
13.8538036869
 30
0.0
 10
8.812906512
 20
13.5792762019
 30
0.0
 10
9.0083716661
 20
13.4943098565
 30
0.0
 10
9.1076628884
 20
13.4657565467
 30
0.0
  0
SPLINE
  5
36F
100
AcDbEntity
  8
0
100
AcDbSpline
 62
7
  6
CONTINUOUS
 70
0
 71
3
 72
9
 73
5
 74
0
 42
0.0000001
 43
0.0000001
 44
0.0000000001
 40
0.0
 40
0.0
 40
0.0
 40
0.0
 40
0.5179221666
 40
1.0
 40
1.0
 40
1.0
 40
1.0
 10
10.0122445017
 20
14.2908919991
 30
0.0
 10
9.9011794204
 20
14.2339755902
 30
0.0
 10
9.6675941605
 20
14.1550102783
 30
0.0
 10
9.4194373551
 20
14.1718150869
 30
0.0
 10
9.3078007625
 20
14.2039240095
 30
0.0
  0
SPLINE
  5
370
100
AcDbEntity
  8
RACCORDO
100
AcDbSpline
 62
250
  6
CONTINUOUS
 70
0
 71
3
 72
15
 73
11
 74
0
 42
0.0000001
 43
0.0000001
 44
0.0000000001
 40
0.0
 40
0.0
 40
0.0
 40
0.0
 40
0.1064357038
 40
0.2252796463
 40
0.3533260561
 40
0.4869630732
 40
0.6223282939
 40
0.7554835339
 40
0.8825684968
 40
1.0
 40
1.0
 40
1.0
 40
1.0
 10
-12.7665935678
 20
37.6066593754
 30
0.0
 10
-12.0284132873
 20
37.3944665183
 30
0.0
 10
-10.4423077537
 20
37.0267897962
 30
0.0
 10
-7.9205889039
 20
36.6386381705
 30
0.0
 10
-5.1839436615
 20
36.3926090197
 30
0.0
 10
-2.3189047223
 20
36.2971917346
 30
0.0
 10
0.583962424
 20
36.3557524454
 30
0.0
 10
3.432472036
 20
36.5665085704
 30
0.0
 10
6.136012582
 20
36.9224368933
 30
0.0
 10
7.8687854224
 20
37.2650413665
 30
0.0
 10
8.692657669
 20
37.4634310959
 30
0.0
  0
SPLINE
  5
371
100
AcDbEntity
  8
RACCORDO
100
AcDbSpline
 62
250
  6
CONTINUOUS
 70
0
 71
3
 72
11
 73
7
 74
0
 42
0.0000001
 43
0.0000001
 44
0.0000000001
 40
0.0
 40
0.0
 40
0.0
 40
0.0
 40
0.2030414143
 40
0.4319295339
 40
0.6988749446
 40
1.0
 40
1.0
 40
1.0
 40
1.0
 10
10.8718793611
 20
4.7998484288
 30
0.0
 10
10.9000071504
 20
4.8072513821
 30
0.0
 10
10.9561517438
 20
4.8392915496
 30
0.0
 10
11.0151180518
 20
4.9228883331
 30
0.0
 10
11.0499391349
 20
5.0329476371
 30
0.0
 10
11.0560855997
 20
5.1147848539
 30
0.0
 10
11.0553343089
 20
5.1579144577
 30
0.0
  0
SPLINE
  5
372
100
AcDbEntity
  8
RACCORDO
100
AcDbSpline
 62
250
  6
CONTINUOUS
 70
0
 71
3
 72
11
 73
7
 74
0
 42
0.0000001
 43
0.0000001
 44
0.0000000001
 40
0.0
 40
0.0
 40
0.0
 40
0.0
 40
0.2187576742
 40
0.462699925
 40
0.725492639
 40
1.0
 40
1.0
 40
1.0
 40
1.0
 10
-11.1275073896
 20
40.5225930167
 30
0.0
 10
-10.5080499511
 20
40.3445275125
 30
0.0
 10
-9.1783161751
 20
40.0349434968
 30
0.0
 10
-7.0648676061
 20
39.7054045521
 30
0.0
 10
-4.7715379561
 20
39.4929193729
 30
0.0
 10
-3.1886288051
 20
39.4347117673
 30
0.0
 10
-2.3798727684
 20
39.4260997986
 30
0.0
  0
SPLINE
  5
373
100
AcDbEntity
  8
RACCORDO
100
AcDbSpline
 62
250
  6
CONTINUOUS
 70
0
 71
3
 72
9
 73
5
 74
0
 42
0.0000001
 43
0.0000001
 44
0.0000000001
 40
0.0
 40
0.0
 40
0.0
 40
0.0
 40
0.2520523883
 40
1.0
 40
1.0
 40
1.0
 40
1.0
 10
-1.5284882181
 20
39.4248679468
 30
0.0
 10
-1.2041625533
 20
39.4273702902
 30
0.0
 10
0.0824260871
 20
39.4507469296
 30
0.0
 10
1.3681439212
 20
39.5270973721
 30
0.0
 10
2.3264608317
 20
39.6161112462
 30
0.0
  0
SPLINE
  5
374
100
AcDbEntity
  8
RACCORDO
100
AcDbSpline
 62
250
  6
CONTINUOUS
 70
0
 71
3
 72
23
 73
19
 74
0
 42
0.0000001
 43
0.0000001
 44
0.0000000001
 40
0.0
 40
0.0
 40
0.0
 40
0.0
 40
0.2014559678
 40
0.2939949517
 40
0.3793442625
 40
0.4564379108
 40
0.5244627064
 40
0.582957093
 40
0.6319851226
 40
0.6724773538
 40
0.7068152854
 40
0.7230366158
 40
0.7394247981
 40
0.7749911452
 40
0.8174759342
 40
0.8688221739
 40
0.9296953548
 40
1.0
 40
1.0
 40
1.0
 40
1.0
 10
2.3264608317
 20
39.6161112462
 30
0.0
 10
3.4356633627
 20
39.7191402269
 30
0.0
 10
5.0503275241
 20
39.931081506
 30
0.0
 10
7.1052760959
 20
40.3557986601
 30
0.0
 10
8.468959118
 20
40.71747954
 30
0.0
 10
9.6775796136
 20
41.1251765846
 30
0.0
 10
10.7126160451
 20
41.5723626826
 30
0.0
 10
11.55936585
 20
42.0521616995
 30
0.0
 10
12.2067711309
 20
42.5596530556
 30
0.0
 10
12.6483372919
 20
43.0931010434
 30
0.0
 10
12.831542487
 20
43.5765770065
 30
0.0
 10
12.8447433971
 20
43.9493478524
 30
0.0
 10
12.7774164577
 20
44.3230785555
 30
0.0
 10
12.5252704504
 20
44.7943393713
 30
0.0
 10
12.0136329216
 20
45.3032847979
 30
0.0
 10
11.2991045408
 20
45.7803733602
 30
0.0
 10
10.3891862184
 20
46.2220385833
 30
0.0
 10
9.7072409628
 20
46.472353141
 30
0.0
 10
9.3376564797
 20
46.5929379012
 30
0.0
  0
SPLINE
  5
375
100
AcDbEntity
  8
0
100
AcDbSpline
 62
7
  6
CONTINUOUS
 70
0
 71
3
 72
9
 73
5
 74
0
 42
0.0000001
 43
0.0000001
 44
0.0000000001
 40
0.0
 40
0.0
 40
0.0
 40
0.0
 40
0.5171340419
 40
1.0
 40
1.0
 40
1.0
 40
1.0
 10
13.4425409076
 20
33.0955943089
 30
0.0
 10
13.5046096626
 20
33.1150897958
 30
0.0
 10
13.6299122757
 20
33.1388007681
 30
0.0
 10
13.7573090317
 20
33.1243239571
 30
0.0
 10
13.8156927417
 20
33.1075435438
 30
0.0
  0
SPLINE
  5
376
100
AcDbEntity
  8
RACCORDO
100
AcDbSpline
 62
250
  6
CONTINUOUS
 70
0
 71
3
 72
9
 73
5
 74
0
 42
0.0000001
 43
0.0000001
 44
0.0000000001
 40
0.0
 40
0.0
 40
0.0
 40
0.0
 40
0.4714173949
 40
1.0
 40
1.0
 40
1.0
 40
1.0
 10
13.240542473
 20
5.5471727953
 30
0.0
 10
13.2819119494
 20
5.5680502977
 30
0.0
 10
13.3576955096
 20
5.6379508893
 30
0.0
 10
13.3937103657
 20
5.7325339799
 30
0.0
 10
13.4042836136
 20
5.7834049908
 30
0.0
  0
SPLINE
  5
377
100
AcDbEntity
  8
RACCORDO
100
AcDbSpline
 62
250
  6
CONTINUOUS
 70
0
 71
3
 72
8
 73
4
 74
0
 42
0.0000001
 43
0.0000001
 44
0.0000000001
 40
0.0
 40
0.0
 40
0.0
 40
0.0
 40
1.0
 40
1.0
 40
1.0
 40
1.0
 10
13.4042836136
 20
5.7834049908
 30
0.0
 10
13.4121576087
 20
5.8212891012
 30
0.0
 10
13.4154752582
 20
5.860321558
 30
0.0
 10
13.4147950239
 20
5.8990093196
 30
0.0
  0
SPLINE
  5
378
100
AcDbEntity
  8
RACCORDO
100
AcDbSpline
 62
250
  6
CONTINUOUS
 70
0
 71
3
 72
15
 73
11
 74
0
 42
0.0000001
 43
0.0000001
 44
0.0000000001
 40
0.0
 40
0.0
 40
0.0
 40
0.0
 40
0.1796423875
 40
0.263006452
 40
0.3419588315
 40
0.5522770087
 40
0.7254616653
 40
0.8692317216
 40
0.9350335671
 40
1.0
 40
1.0
 40
1.0
 40
1.0
 10
11.9061560729
 20
38.4727749433
 30
0.0
 10
12.1823662223
 20
38.5862982316
 30
0.0
 10
12.5821463799
 20
38.7643645584
 30
0.0
 10
13.0876352528
 20
39.0247738221
 30
0.0
 10
13.6260394475
 20
39.3311209488
 30
0.0
 10
14.2622878345
 20
39.7688686342
 30
0.0
 10
14.8817113328
 20
40.3991931036
 30
0.0
 10
15.1823770202
 20
40.9773928193
 30
0.0
 10
15.2554119203
 20
41.4313495008
 30
0.0
 10
15.2418507703
 20
41.6503706613
 30
0.0
 10
15.2236913046
 20
41.7568302874
 30
0.0
  0
SPLINE
  5
379
100
AcDbEntity
  8
RACCORDO
100
AcDbSpline
 62
250
  6
CONTINUOUS
 70
0
 71
3
 72
9
 73
5
 74
0
 42
0.0000001
 43
0.0000001
 44
0.0000000001
 40
0.0
 40
0.0
 40
0.0
 40
0.0
 40
0.2489404472
 40
1.0
 40
1.0
 40
1.0
 40
1.0
 10
4.2342965147
 20
3.9875398704
 30
0.0
 10
4.2108053809
 20
5.3460314643
 30
0.0
 10
4.1001768941
 20
10.8028342244
 30
0.0
 10
3.9249224175
 20
16.2583153269
 30
0.0
 10
3.7579363756
 20
20.3541285633
 30
0.0
  0
SPLINE
  5
37A
100
AcDbEntity
  8
RACCORDO
100
AcDbSpline
 62
250
  6
CONTINUOUS
 70
0
 71
3
 72
9
 73
5
 74
0
 42
0.0000001
 43
0.0000001
 44
0.0000000001
 40
0.0
 40
0.0
 40
0.0
 40
0.0
 40
0.2731314022
 40
1.0
 40
1.0
 40
1.0
 40
1.0
 10
3.7578421968
 20
20.3541512476
 30
0.0
 10
3.8112366991
 20
20.3598067853
 30
0.0
 10
4.0062108685
 20
20.3844975725
 30
0.0
 10
4.2000408619
 20
20.4224696749
 30
0.0
 10
4.3370171502
 20
20.4631538028
 30
0.0
  0
SPLINE
  5
37B
100
AcDbEntity
  8
RACCORDO
100
AcDbSpline
 62
250
  6
CONTINUOUS
 70
0
 71
3
 72
9
 73
5
 74
0
 42
0.0000001
 43
0.0000001
 44
0.0000000001
 40
0.0
 40
0.0
 40
0.0
 40
0.0
 40
0.2489358729
 40
1.0
 40
1.0
 40
1.0
 40
1.0
 10
4.8064603174
 20
4.0959151471
 30
0.0
 10
4.782999761
 20
5.4544165649
 30
0.0
 10
4.6730530744
 20
10.9113703658
 30
0.0
 10
4.5004595032
 20
16.3670470621
 30
0.0
 10
4.3369364434
 20
20.4631284532
 30
0.0
  0
SPLINE
  5
37C
100
AcDbEntity
  8
RACCORDO
100
AcDbSpline
 62
250
  6
CONTINUOUS
 70
0
 71
3
 72
9
 73
5
 74
0
 42
0.0000001
 43
0.0000001
 44
0.0000000001
 40
0.0
 40
0.0
 40
0.0
 40
0.0
 40
0.7523029747
 40
1.0
 40
1.0
 40
1.0
 40
1.0
 10
15.8114609514
 20
24.9809336192
 30
0.0
 10
15.9199795915
 20
24.7898554345
 30
0.0
 10
16.0197847841
 20
24.5067689905
 30
0.0
 10
16.0521653042
 20
24.2161924549
 30
0.0
 10
16.0556782374
 20
24.1439268986
 30
0.0
  0
SPLINE
  5
37D
100
AcDbEntity
  8
RACCORDO
100
AcDbSpline
 62
250
  6
CONTINUOUS
 70
0
 71
3
 72
9
 73
5
 74
0
 42
0.0000001
 43
0.0000001
 44
0.0000000001
 40
0.0
 40
0.0
 40
0.0
 40
0.0
 40
0.7523029464
 40
1.0
 40
1.0
 40
1.0
 40
1.0
 10
4.0927998642
 20
21.3001605233
 30
0.0
 10
4.2013185001
 20
21.109082346
 30
0.0
 10
4.3011236846
 20
20.8259959013
 30
0.0
 10
4.3335042166
 20
20.5354193672
 30
0.0
 10
4.3370171502
 20
20.4631538028
 30
0.0
  0
SPLINE
  5
37E
100
AcDbEntity
  8
RACCORDO
100
AcDbSpline
 62
250
  6
CONTINUOUS
 70
0
 71
3
 72
9
 73
5
 74
0
 42
0.0000001
 43
0.0000001
 44
0.0000000001
 40
0.0
 40
0.0
 40
0.0
 40
0.0
 40
0.2480963623
 40
1.0
 40
1.0
 40
1.0
 40
1.0
 10
3.7579363756
 20
20.3541285633
 30
0.0
 10
3.574303535
 20
20.4349301415
 30
0.0
 10
2.8442897457
 20
20.7829239956
 30
0.0
 10
2.1584988147
 20
21.2259977865
 30
0.0
 10
1.68666363
 20
21.6094958837
 30
0.0
  0
SPLINE
  5
37F
100
AcDbEntity
  8
RACCORDO
100
AcDbSpline
 62
250
  6
CONTINUOUS
 70
0
 71
3
 72
9
 73
5
 74
0
 42
0.0000001
 43
0.0000001
 44
0.0000000001
 40
0.0
 40
0.0
 40
0.0
 40
0.0
 40
0.2477487564
 40
1.0
 40
1.0
 40
1.0
 40
1.0
 10
4.0929922473
 20
21.3002209499
 30
0.0
 10
3.9305332575
 20
21.3690204746
 30
0.0
 10
3.2835382698
 20
21.666626698
 30
0.0
 10
2.6752923616
 20
22.0508686732
 30
0.0
 10
2.2574408544
 20
22.3860791209
 30
0.0
  0
SPLINE
  5
380
100
AcDbEntity
  8
RACCORDO
100
AcDbSpline
 62
250
  6
CONTINUOUS
 70
0
 71
3
 72
11
 73
7
 74
0
 42
0.0000001
 43
0.0000001
 44
0.0000000001
 40
0.0
 40
0.0
 40
0.0
 40
0.0
 40
0.2666029982
 40
0.528601201
 40
0.7759747819
 40
1.0
 40
1.0
 40
1.0
 40
1.0
 10
3.7578421968
 20
20.3541512476
 30
0.0
 10
3.7979657708
 20
20.4341828388
 30
0.0
 10
3.8764148383
 20
20.5935078222
 30
0.0
 10
3.9731404569
 20
20.8358348332
 30
0.0
 10
4.0468347892
 20
21.0708914107
 30
0.0
 10
4.0827845738
 20
21.2256016686
 30
0.0
 10
4.0927998634
 20
21.3001605246
 30
0.0
  0
SPLINE
  5
381
100
AcDbEntity
  8
RACCORDO
100
AcDbSpline
 62
250
  6
CONTINUOUS
 70
0
 71
3
 72
11
 73
7
 74
0
 42
0.0000001
 43
0.0000001
 44
0.0000000001
 40
0.0
 40
0.0
 40
0.0
 40
0.0
 40
0.2485831717
 40
0.49856954
 40
0.749028175
 40
1.0
 40
1.0
 40
1.0
 40
1.0
 10
1.68666363
 20
21.6094958837
 30
0.0
 10
1.1855213681
 20
22.0192007675
 30
0.0
 10
0.2730846752
 20
22.964751817
 30
0.0
 10
-0.6814441635
 20
24.692707736
 30
0.0
 10
-1.1298824814
 20
26.6227850762
 30
0.0
 10
-1.0639612014
 20
27.9458305823
 30
0.0
 10
-0.9459058689
 20
28.5886024846
 30
0.0
  0
SPLINE
  5
382
100
AcDbEntity
  8
RACCORDO
100
AcDbSpline
 62
250
  6
CONTINUOUS
 70
0
 71
3
 72
9
 73
5
 74
0
 42
0.0000001
 43
0.0000001
 44
0.0000000001
 40
0.0
 40
0.0
 40
0.0
 40
0.0
 40
0.749146196
 40
1.0
 40
1.0
 40
1.0
 40
1.0
 10
-0.9459058689
 20
28.5886024846
 30
0.0
 10
-0.8686778428
 20
29.0090833233
 30
0.0
 10
-0.7168361299
 20
29.5629433461
 30
0.0
 10
-0.5075394585
 20
30.0939191847
 30
0.0
 10
-0.4516056358
 20
30.2256939006
 30
0.0
  0
SPLINE
  5
383
100
AcDbEntity
  8
RACCORDO
100
AcDbSpline
 62
250
  6
CONTINUOUS
 70
0
 71
3
 72
12
 73
8
 74
0
 42
0.0000001
 43
0.0000001
 44
0.0000000001
 40
0.0
 40
0.0
 40
0.0
 40
0.0
 40
0.1286901808
 40
0.2583092864
 40
0.5172717427
 40
0.7683693962
 40
1.0
 40
1.0
 40
1.0
 40
1.0
 10
-0.3843591423
 20
30.3797430475
 30
0.0
 10
-0.1772856423
 20
30.8412924883
 30
0.0
 10
0.3245131697
 20
31.7310398415
 30
0.0
 10
1.5991559331
 20
33.3239776589
 30
0.0
 10
3.5540375603
 20
34.9444666984
 30
0.0
 10
6.096884385
 20
36.3855754695
 30
0.0
 10
7.8422930656
 20
37.1379532167
 30
0.0
 10
8.692657669
 20
37.4634310959
 30
0.0
  0
SPLINE
  5
384
100
AcDbEntity
  8
0
100
AcDbSpline
 62
7
  6
CONTINUOUS
 70
0
 71
3
 72
9
 73
5
 74
0
 42
0.0000001
 43
0.0000001
 44
0.0000000001
 40
0.0
 40
0.0
 40
0.0
 40
0.0
 40
0.2561355468
 40
1.0
 40
1.0
 40
1.0
 40
1.0
 10
12.4133094194
 20
28.5087842237
 30
0.0
 10
12.3314462112
 20
28.8551898488
 30
0.0
 10
12.0581859087
 20
30.2178407964
 30
0.0
 10
11.970971546
 20
31.62025437
 30
0.0
 10
12.0310323774
 20
32.6522439802
 30
0.0
  0
SPLINE
  5
385
100
AcDbEntity
  8
RACCORDO
100
AcDbSpline
 62
250
  6
CONTINUOUS
 70
0
 71
3
 72
11
 73
7
 74
0
 42
0.0000001
 43
0.0000001
 44
0.0000000001
 40
0.0
 40
0.0
 40
0.0
 40
0.0
 40
0.2468145159
 40
0.496131641
 40
0.747061271
 40
1.0
 40
1.0
 40
1.0
 40
1.0
 10
2.2574408544
 20
22.3860791209
 30
0.0
 10
1.7502494918
 20
22.7930906668
 30
0.0
 10
0.8391898505
 20
23.76196563
 30
0.0
 10
-0.0122129543
 20
25.5741461072
 30
0.0
 10
-0.2454427021
 20
27.5784296193
 30
0.0
 10
0.0168208461
 20
28.90318967
 30
0.0
 10
0.2360707168
 20
29.532537165
 30
0.0
  0
SPLINE
  5
386
100
AcDbEntity
  8
RACCORDO
100
AcDbSpline
 62
250
  6
CONTINUOUS
 70
0
 71
3
 72
13
 73
9
 74
0
 42
0.0000001
 43
0.0000001
 44
0.0000000001
 40
0.0
 40
0.0
 40
0.0
 40
0.0
 40
0.1294636659
 40
0.2597831627
 40
0.3902729426
 40
0.5197650898
 40
0.7699203576
 40
1.0
 40
1.0
 40
1.0
 40
1.0
 10
0.2903708601
 20
29.6830226305
 30
0.0
 10
0.4571765326
 20
30.1298229861
 30
0.0
 10
0.8812506578
 20
30.995122069
 30
0.0
 10
1.7321253123
 20
32.1612242634
 30
0.0
 10
2.7447918468
 20
33.1881838199
 30
0.0
 10
4.21948293
 20
34.3587032229
 30
0.0
 10
6.1669284155
 20
35.4976559321
 30
0.0
 10
7.7899393345
 20
36.2077765429
 30
0.0
 10
8.5806959402
 20
36.5128766214
 30
0.0
  0
SPLINE
  5
387
100
AcDbEntity
  8
ASSI
100
AcDbSpline
 62
7
  6
CONTINUOUS
 70
0
 71
3
 72
9
 73
5
 74
0
 42
0.0000001
 43
0.0000001
 44
0.0000000001
 40
0.0
 40
0.0
 40
0.0
 40
0.0
 40
0.2561184719
 40
1.0
 40
1.0
 40
1.0
 40
1.0
 10
12.3763246904
 20
28.5194156311
 30
0.0
 10
12.2948307566
 20
28.8658254022
 30
0.0
 10
12.0227767623
 20
30.2284910532
 30
0.0
 10
11.935935678
 20
31.6305553724
 30
0.0
 10
11.9956138718
 20
32.6624251705
 30
0.0
  0
SPLINE
  5
388
100
AcDbEntity
  8
RACCORDO
100
AcDbSpline
 62
250
  6
CONTINUOUS
 70
0
 71
3
 72
9
 73
5
 74
0
 42
0.0000001
 43
0.0000001
 44
0.0000000001
 40
0.0
 40
0.0
 40
0.0
 40
0.0
 40
0.528978176
 40
1.0
 40
1.0
 40
1.0
 40
1.0
 10
1.6866622021
 20
21.609498356
 30
0.0
 10
1.8021378183
 20
21.7345991668
 30
0.0
 10
2.0079295336
 20
21.9827715465
 30
0.0
 10
2.1858564952
 20
22.2524536438
 30
0.0
 10
2.2574453371
 20
22.3860817923
 30
0.0
  0
SPLINE
  5
389
100
AcDbEntity
  8
RACCORDO
100
AcDbSpline
 62
250
  6
CONTINUOUS
 70
0
 71
3
 72
9
 73
5
 74
0
 42
0.0000001
 43
0.0000001
 44
0.0000000001
 40
0.0
 40
0.0
 40
0.0
 40
0.0
 40
0.5628904829
 40
1.0
 40
1.0
 40
1.0
 40
1.0
 10
8.6927448916
 20
37.4634176584
 30
0.0
 10
8.730097315
 20
37.2840248702
 30
0.0
 10
8.7603864422
 20
36.9570579347
 30
0.0
 10
8.6669923546
 20
36.6260286481
 30
0.0
 10
8.5806815327
 20
36.512900064
 30
0.0
  0
SPLINE
  5
38A
100
AcDbEntity
  8
RACCORDO
100
AcDbSpline
 62
250
  6
CONTINUOUS
 70
0
 71
3
 72
10
 73
6
 74
0
 42
0.0000001
 43
0.0000001
 44
0.0000000001
 40
0.0
 40
0.0
 40
0.0
 40
0.0
 40
0.5379080258
 40
0.779196153
 40
1.0
 40
1.0
 40
1.0
 40
1.0
 10
8.692657669
 20
37.4634310959
 30
0.0
 10
9.2368754075
 20
37.731254598
 30
0.0
 10
10.0537861238
 20
38.0673121886
 30
0.0
 10
11.1428641607
 20
38.3631214717
 30
0.0
 10
11.6582667975
 20
38.4494924506
 30
0.0
 10
11.9061560729
 20
38.4727749433
 30
0.0
  0
SPLINE
  5
38B
100
AcDbEntity
  8
RACCORDO
100
AcDbSpline
 62
250
  6
CONTINUOUS
 70
0
 71
3
 72
9
 73
5
 74
0
 42
0.0000001
 43
0.0000001
 44
0.0000000001
 40
0.0
 40
0.0
 40
0.0
 40
0.0
 40
0.5308766634
 40
1.0
 40
1.0
 40
1.0
 40
1.0
 10
8.5806959402
 20
36.5128766214
 30
0.0
 10
9.0934468033
 20
36.7107070309
 30
0.0
 10
10.0712870695
 20
37.0522536373
 30
0.0
 10
11.068235396
 20
37.3362020094
 30
0.0
 10
11.5420060167
 20
37.443009371
 30
0.0
  0
SPLINE
  5
38C
100
AcDbEntity
  8
RACCORDO
100
AcDbSpline
 62
250
  6
CONTINUOUS
 70
0
 71
3
 72
21
 73
17
 74
0
 42
0.0000001
 43
0.0000001
 44
0.0000000001
 40
0.0
 40
0.0
 40
0.0
 40
0.0
 40
0.0536104065
 40
0.1006262326
 40
0.1414227124
 40
0.1775196668
 40
0.2120659903
 40
0.2494684705
 40
0.2937666636
 40
0.3473982839
 40
0.4111558255
 40
0.4845085888
 40
0.5658895383
 40
0.652944905
 40
0.8323531836
 40
1.0
 40
1.0
 40
1.0
 40
1.0
 10
11.9061560729
 20
38.4727749433
 30
0.0
 10
12.1747709311
 20
38.5336800876
 30
0.0
 10
12.6825407031
 20
38.6336353371
 30
0.0
 10
13.4067946086
 20
38.7081047078
 30
0.0
 10
14.0460956189
 20
38.6821685961
 30
0.0
 10
14.6055585887
 20
38.5298174197
 30
0.0
 10
15.0768373287
 20
38.2170054065
 30
0.0
 10
15.4450718763
 20
37.7359857354
 30
0.0
 10
15.7259554952
 20
37.0957228014
 30
0.0
 10
15.9471294112
 20
36.2934200738
 30
0.0
 10
16.1291207313
 20
35.3299284175
 30
0.0
 10
16.2879496603
 20
34.2184996396
 30
0.0
 10
16.4338334596
 20
32.9848042049
 30
0.0
 10
16.6152072338
 20
31.2067789767
 30
0.0
 10
16.7913904263
 20
28.9837052821
 30
0.0
 10
16.8053286434
 20
27.1952453469
 30
0.0
 10
16.7367783863
 20
26.3366619885
 30
0.0
  0
SPLINE
  5
38D
100
AcDbEntity
  8
RACCORDO
100
AcDbSpline
 62
250
  6
CONTINUOUS
 70
0
 71
3
 72
21
 73
17
 74
0
 42
0.0000001
 43
0.0000001
 44
0.0000000001
 40
0.0
 40
0.0
 40
0.0
 40
0.0
 40
0.054403262
 40
0.1031167127
 40
0.1463554371
 40
0.1851998415
 40
0.2220447409
 40
0.2606040887
 40
0.3048240439
 40
0.3574940728
 40
0.4198036962
 40
0.4915175876
 40
0.5712776034
 40
0.656880823
 40
0.8340851278
 40
1.0
 40
1.0
 40
1.0
 40
1.0
 10
11.5420060167
 20
37.443009371
 30
0.0
 10
11.7887529983
 20
37.4986339641
 30
0.0
 10
12.2596592695
 20
37.5909750624
 30
0.0
 10
12.9373208112
 20
37.6643558149
 30
0.0
 10
13.5477049118
 20
37.652187748
 30
0.0
 10
14.0930139504
 20
37.5340736553
 30
0.0
 10
14.5694182694
 20
37.2814686534
 30
0.0
 10
14.9629803414
 20
36.8772958969
 30
0.0
 10
15.2750168912
 20
36.324855875
 30
0.0
 10
15.5246184733
 20
35.6258132551
 30
0.0
 10
15.7289608328
 20
34.7812570778
 30
0.0
 10
15.9010426271
 20
33.8019320074
 30
0.0
 10
16.0490326293
 20
32.7094760501
 30
0.0
 10
16.217347936
 20
31.1254554341
 30
0.0
 10
16.3499966714
 20
29.1361531665
 30
0.0
 10
16.3084969226
 20
27.5347412025
 30
0.0
 10
16.2126137352
 20
26.7693294348
 30
0.0
  0
SPLINE
  5
38E
100
AcDbEntity
  8
0
100
AcDbSpline
 62
7
  6
CONTINUOUS
 70
0
 71
3
 72
14
 73
10
 74
0
 42
0.0000001
 43
0.0000001
 44
0.0000000001
 40
0.0
 40
0.0
 40
0.0
 40
0.0
 40
0.238749637
 40
0.3789119569
 40
0.5234602024
 40
0.6632505743
 40
0.7902645572
 40
0.9010319805
 40
1.0
 40
1.0
 40
1.0
 40
1.0
 10
13.371268
 20
31.3379944788
 30
0.0
 10
13.4631818866
 20
31.3668641729
 30
0.0
 10
13.58527113
 20
31.4826784006
 30
0.0
 10
13.6753636347
 20
31.6733532418
 30
0.0
 10
13.7138968557
 20
31.8421286289
 30
0.0
 10
13.7142003142
 20
32.0095062936
 30
0.0
 10
13.6764284253
 20
32.159135426
 30
0.0
 10
13.6014669196
 20
32.2763451941
 30
0.0
 10
13.5257231844
 20
32.322437072
 30
0.0
 10
13.4873434064
 20
32.3334766954
 30
0.0
  0
SPLINE
  5
38F
100
AcDbEntity
  8
RACCORDO
100
AcDbSpline
 62
250
  6
CONTINUOUS
 70
0
 71
3
 72
9
 73
5
 74
0
 42
0.0000001
 43
0.0000001
 44
0.0000000001
 40
0.0
 40
0.0
 40
0.0
 40
0.0
 40
0.5262101677
 40
1.0
 40
1.0
 40
1.0
 40
1.0
 10
11.9061563133
 20
38.4727749341
 30
0.0
 10
11.9175897656
 20
38.2768766022
 30
0.0
 10
11.8741366503
 20
37.8963298633
 30
0.0
 10
11.6722364336
 20
37.5624123058
 30
0.0
 10
11.5420059387
 20
37.4430094977
 30
0.0
  0
SPLINE
  5
390
100
AcDbEntity
  8
RACCORDO
100
AcDbSpline
 62
250
  6
CONTINUOUS
 70
0
 71
3
 72
9
 73
5
 74
0
 42
0.0000001
 43
0.0000001
 44
0.0000000001
 40
0.0
 40
0.0
 40
0.0
 40
0.0
 40
0.2645561564
 40
1.0
 40
1.0
 40
1.0
 40
1.0
 10
16.2126137352
 20
26.7693294348
 30
0.0
 10
16.1924796175
 20
26.6087887281
 30
0.0
 10
16.1039833688
 20
26.0037597302
 30
0.0
 10
15.959451156
 20
25.4055473999
 30
0.0
 10
15.8112668642
 20
24.9808726574
 30
0.0
  0
SPLINE
  5
391
100
AcDbEntity
  8
RACCORDO
100
AcDbSpline
 62
250
  6
CONTINUOUS
 70
0
 71
3
 72
10
 73
6
 74
0
 42
0.0000001
 43
0.0000001
 44
0.0000000001
 40
0.0
 40
0.0
 40
0.0
 40
0.0
 40
0.4233337934
 40
0.6933926529
 40
1.0
 40
1.0
 40
1.0
 40
1.0
 10
16.7367707471
 20
26.3366618739
 30
0.0
 10
16.7069719437
 20
26.4301857181
 30
0.0
 10
16.5936813456
 20
26.5599010833
 30
0.0
 10
16.4007912458
 20
26.6864317798
 30
0.0
 10
16.2787262043
 20
26.743186707
 30
0.0
 10
16.2126165721
 20
26.7693311256
 30
0.0
  0
SPLINE
  5
392
100
AcDbEntity
  8
RACCORDO
100
AcDbSpline
 62
250
  6
CONTINUOUS
 70
0
 71
3
 72
9
 73
5
 74
0
 42
0.0000001
 43
0.0000001
 44
0.0000000001
 40
0.0
 40
0.0
 40
0.0
 40
0.0
 40
0.2648995655
 40
1.0
 40
1.0
 40
1.0
 40
1.0
 10
16.7367783863
 20
26.3366619885
 30
0.0
 10
16.7222891396
 20
26.156662095
 30
0.0
 10
16.6550609882
 20
25.4784485339
 30
0.0
 10
16.5306346662
 20
24.8042336207
 30
0.0
 10
16.3924106294
 20
24.3225557669
 30
0.0
  0
SPLINE
  5
393
100
AcDbEntity
  8
RACCORDO
100
AcDbSpline
 62
250
  6
CONTINUOUS
 70
0
 71
3
 72
9
 73
5
 74
0
 42
0.0000001
 43
0.0000001
 44
0.0000000001
 40
0.0
 40
0.0
 40
0.0
 40
0.0
 40
0.2207396885
 40
1.0
 40
1.0
 40
1.0
 40
1.0
 10
16.3924343221
 20
24.3226137217
 30
0.0
 10
16.3752793225
 20
24.3859183235
 30
0.0
 10
16.2562347003
 20
24.661693454
 30
0.0
 10
16.0126263809
 20
24.8662901548
 30
0.0
 10
15.8114609506
 20
24.9809336205
 30
0.0
  0
SPLINE
  5
394
100
AcDbEntity
  8
RACCORDO
100
AcDbSpline
 62
250
  6
CONTINUOUS
 70
0
 71
3
 72
9
 73
5
 74
0
 42
0.0000001
 43
0.0000001
 44
0.0000000001
 40
0.0
 40
0.0
 40
0.0
 40
0.0
 40
0.2506458641
 40
1.0
 40
1.0
 40
1.0
 40
1.0
 10
16.0557587727
 20
24.1439521944
 30
0.0
 10
16.1338932318
 20
22.7814904836
 30
0.0
 10
16.4186614093
 20
17.3441756189
 30
0.0
 10
16.5965623258
 20
11.9012508644
 30
0.0
 10
16.6689308054
 20
7.8218580596
 30
0.0
  0
SPLINE
  5
395
100
AcDbEntity
  8
RACCORDO
100
AcDbSpline
 62
250
  6
CONTINUOUS
 70
0
 71
3
 72
9
 73
5
 74
0
 42
0.0000001
 43
0.0000001
 44
0.0000000001
 40
0.0
 40
0.0
 40
0.0
 40
0.0
 40
0.4188979581
 40
1.0
 40
1.0
 40
1.0
 40
1.0
 10
16.3924343221
 20
24.3226137217
 30
0.0
 10
16.3552602325
 20
24.2840375649
 30
0.0
 10
16.2455787737
 20
24.2135534465
 30
0.0
 10
16.1264530133
 20
24.1665969849
 30
0.0
 10
16.0556782374
 20
24.1439268986
 30
0.0
  0
SPLINE
  5
396
100
AcDbEntity
  8
RACCORDO
100
AcDbSpline
 62
250
  6
CONTINUOUS
 70
0
 71
3
 72
9
 73
5
 74
0
 42
0.0000001
 43
0.0000001
 44
0.0000000001
 40
0.0
 40
0.0
 40
0.0
 40
0.0
 40
0.2506654335
 40
1.0
 40
1.0
 40
1.0
 40
1.0
 10
16.3924106294
 20
24.3225557669
 30
0.0
 10
16.4702517619
 20
22.9598048665
 30
0.0
 10
16.7541891207
 20
17.5217863331
 30
0.0
 10
16.9315602913
 20
12.0781935218
 30
0.0
 10
17.0039117877
 20
7.9984124429
 30
0.0
  0
SPLINE
  5
397
100
AcDbEntity
  8
RACCORDO
100
AcDbSpline
 62
250
  6
CONTINUOUS
 70
0
 71
3
 72
10
 73
6
 74
0
 42
0.0000001
 43
0.0000001
 44
0.0000000001
 40
0.0
 40
0.0
 40
0.0
 40
0.0
 40
0.2684540526
 40
0.538590236
 40
1.0
 40
1.0
 40
1.0
 40
1.0
 10
10.28924602
 20
10.449083974
 30
0.0
 10
10.2882226477
 20
10.5106548962
 30
0.0
 10
10.3049834874
 20
10.6353985626
 30
0.0
 10
10.3907597647
 20
10.8474007173
 30
0.0
 10
10.5210424635
 20
10.9820024289
 30
0.0
 10
10.6220192748
 20
11.0137187425
 30
0.0
  0
SPLINE
  5
398
100
AcDbEntity
  8
RACCORDO
100
AcDbSpline
 62
7
  6
CONTINUOUS
 70
0
 71
3
 72
10
 73
6
 74
0
 42
0.0000001
 43
0.0000001
 44
0.0000000001
 40
0.0
 40
0.0
 40
0.0
 40
0.0
 40
0.269244379
 40
0.5393501948
 40
1.0
 40
1.0
 40
1.0
 40
1.0
 10
9.1289997584
 20
10.7826013759
 30
0.0
 10
9.1272940725
 20
10.8442698994
 30
0.0
 10
9.1426450687
 20
10.9692440509
 30
0.0
 10
9.2261562188
 20
11.1818781431
 30
0.0
 10
9.3557786253
 20
11.3171295639
 30
0.0
 10
9.4564771371
 20
11.3487584651
 30
0.0
  0
SPLINE
  5
399
100
AcDbEntity
  8
RACCORDO
100
AcDbSpline
 62
250
  6
CONTINUOUS
 70
0
 71
3
 72
9
 73
5
 74
0
 42
0.0000001
 43
0.0000001
 44
0.0000000001
 40
0.0
 40
0.0
 40
0.0
 40
0.0
 40
0.2604143794
 40
1.0
 40
1.0
 40
1.0
 40
1.0
 10
12.919591564
 20
11.7353747581
 30
0.0
 10
12.9312994242
 20
11.7390521387
 30
0.0
 10
12.9770717167
 20
11.7503055026
 30
0.0
 10
13.0263109534
 20
11.7485977786
 30
0.0
 10
13.0598085947
 20
11.7389752531
 30
0.0
  0
SPLINE
  5
39A
100
AcDbEntity
  8
RACCORDO
100
AcDbSpline
 62
7
  6
CONTINUOUS
 70
0
 71
3
 72
9
 73
5
 74
0
 42
0.0000001
 43
0.0000001
 44
0.0000000001
 40
0.0
 40
0.0
 40
0.0
 40
0.0
 40
0.2601776994
 40
1.0
 40
1.0
 40
1.0
 40
1.0
 10
11.7540494263
 20
12.0704144806
 30
0.0
 10
11.7657871955
 20
12.0741012555
 30
0.0
 10
11.8117217583
 20
12.0854045458
 30
0.0
 10
11.8611259931
 20
12.083543335
 30
0.0
 10
11.8947476211
 20
12.0738742931
 30
0.0
  0
SPLINE
  5
39B
100
AcDbEntity
  8
RACCORDO
100
AcDbSpline
 62
7
  6
CONTINUOUS
 70
0
 71
3
 72
14
 73
10
 74
0
 42
0.0000001
 43
0.0000001
 44
0.0000000001
 40
0.0
 40
0.0
 40
0.0
 40
0.0
 40
0.0135627613
 40
0.0542071213
 40
0.1245785208
 40
0.2275927486
 40
0.3661824785
 40
0.5427090999
 40
1.0
 40
1.0
 40
1.0
 40
1.0
 10
9.256673414
 20
5.1935758087
 30
0.0
 10
9.2553854591
 20
5.1939583108
 30
0.0
 10
9.2569960404
 20
5.2015369785
 30
0.0
 10
9.2542317224
 20
5.2116728497
 30
0.0
 10
9.254627821
 20
5.2341604155
 30
0.0
 10
9.2530756724
 20
5.2644402763
 30
0.0
 10
9.2522168475
 20
5.3060982761
 30
0.0
 10
9.2503773677
 20
5.3824654476
 30
0.0
 10
9.2493308088
 20
5.445303333
 30
0.0
 10
9.2485379655
 20
5.4905965148
 30
0.0
  0
SPLINE
  5
39C
100
AcDbEntity
  8
RACCORDO
100
AcDbSpline
 62
250
  6
CONTINUOUS
 70
0
 71
3
 72
9
 73
5
 74
0
 42
0.0000001
 43
0.0000001
 44
0.0000000001
 40
0.0
 40
0.0
 40
0.0
 40
0.0
 40
0.2639367989
 40
1.0
 40
1.0
 40
1.0
 40
1.0
 10
10.6220079918
 20
11.0137219859
 30
0.0
 10
10.8269126277
 20
11.0678028269
 30
0.0
 10
11.60099728
 20
11.280973525
 30
0.0
 10
12.3660721846
 20
11.5282051216
 30
0.0
 10
12.9195731383
 20
11.7353800546
 30
0.0
  0
SPLINE
  5
39D
100
AcDbEntity
  8
RACCORDO
100
AcDbSpline
 62
250
  6
CONTINUOUS
 70
0
 71
3
 72
9
 73
5
 74
0
 42
0.0000001
 43
0.0000001
 44
0.0000000001
 40
0.0
 40
0.0
 40
0.0
 40
0.0
 40
0.2352283342
 40
1.0
 40
1.0
 40
1.0
 40
1.0
 10
12.919591564
 20
11.7353747581
 30
0.0
 10
12.9355923334
 20
11.7315867608
 30
0.0
 10
13.0023496603
 20
11.710186058
 30
0.0
 10
13.0621857623
 20
11.6698747623
 30
0.0
 10
13.1013674496
 20
11.6335057494
 30
0.0
  0
SPLINE
  5
39E
100
AcDbEntity
  8
RACCORDO
100
AcDbSpline
 62
250
  6
CONTINUOUS
 70
0
 71
3
 72
8
 73
4
 74
0
 42
0.0000001
 43
0.0000001
 44
0.0000000001
 40
0.0
 40
0.0
 40
0.0
 40
0.0
 40
1.0
 40
1.0
 40
1.0
 40
1.0
 10
13.1013674496
 20
11.6335057494
 30
0.0
 10
13.1303621957
 20
11.6065924037
 30
0.0
 10
13.1564111059
 20
11.5762366726
 30
0.0
 10
13.1791334456
 20
11.5438527451
 30
0.0
  0
SPLINE
  5
39F
100
AcDbEntity
  8
RACCORDO
100
AcDbSpline
 62
250
  6
CONTINUOUS
 70
0
 71
3
 72
8
 73
4
 74
0
 42
0.0000001
 43
0.0000001
 44
0.0000000001
 40
0.0
 40
0.0
 40
0.0
 40
0.0
 40
1.0
 40
1.0
 40
1.0
 40
1.0
 10
13.2118396563
 20
11.4919251795
 30
0.0
 10
13.2522726315
 20
11.4202044004
 30
0.0
 10
13.2794529165
 20
11.3393063846
 30
0.0
 10
13.2901597186
 20
11.2576726904
 30
0.0
  0
SPLINE
  5
3A0
100
AcDbEntity
  8
RACCORDO
100
AcDbSpline
 62
250
  6
CONTINUOUS
 70
0
 71
3
 72
9
 73
5
 74
0
 42
0.0000001
 43
0.0000001
 44
0.0000000001
 40
0.0
 40
0.0
 40
0.0
 40
0.0
 40
0.2639333341
 40
1.0
 40
1.0
 40
1.0
 40
1.0
 10
10.9353999388
 20
10.4563048558
 30
0.0
 10
11.145835104
 20
10.5118453777
 30
0.0
 10
11.9408200511
 20
10.730784137
 30
0.0
 10
12.7265600843
 20
10.9846762694
 30
0.0
 10
13.295010578
 20
11.1974468082
 30
0.0
  0
SPLINE
  5
3A1
100
AcDbEntity
  8
RACCORDO
100
AcDbSpline
 62
250
  6
CONTINUOUS
 70
0
 71
3
 72
10
 73
6
 74
0
 42
0.0000001
 43
0.0000001
 44
0.0000000001
 40
0.0
 40
0.0
 40
0.0
 40
0.0
 40
0.4495582621
 40
0.724203859
 40
1.0
 40
1.0
 40
1.0
 40
1.0
 10
10.6220192748
 20
11.0137187425
 30
0.0
 10
10.7162617493
 20
10.9808794489
 30
0.0
 10
10.8329525758
 20
10.8448495242
 30
0.0
 10
10.9143355675
 20
10.6401684548
 30
0.0
 10
10.9337719326
 20
10.5175088354
 30
0.0
 10
10.9353999388
 20
10.4563048558
 30
0.0
  0
SPLINE
  5
3A2
100
AcDbEntity
  8
RACCORDO
100
AcDbSpline
 62
250
  6
CONTINUOUS
 70
0
 71
3
 72
11
 73
7
 74
0
 42
0.0000001
 43
0.0000001
 44
0.0000000001
 40
0.0
 40
0.0
 40
0.0
 40
0.0
 40
0.2268891659
 40
0.4906791124
 40
0.7593429366
 40
1.0
 40
1.0
 40
1.0
 40
1.0
 10
10.4089547938
 20
5.1570300829
 30
0.0
 10
10.4558814998
 20
5.1418611842
 30
0.0
 10
10.5622996616
 20
5.1260277592
 30
0.0
 10
10.7269364986
 20
5.1167660674
 30
0.0
 10
10.8955029898
 20
5.1247633909
 30
0.0
 10
11.0041710036
 20
5.1470212441
 30
0.0
 10
11.0553343089
 20
5.1579144577
 30
0.0
  0
SPLINE
  5
3A3
100
AcDbEntity
  8
RACCORDO
100
AcDbSpline
 62
250
  6
CONTINUOUS
 70
0
 71
3
 72
11
 73
7
 74
0
 42
0.0000001
 43
0.0000001
 44
0.0000000001
 40
0.0
 40
0.0
 40
0.0
 40
0.0
 40
0.2263372681
 40
0.4900699839
 40
0.758998607
 40
1.0
 40
1.0
 40
1.0
 40
1.0
 10
10.28924602
 20
10.449083974
 30
0.0
 10
10.3371687238
 20
10.4381359727
 30
0.0
 10
10.44212531
 20
10.4188326174
 30
0.0
 10
10.6075082
 20
10.4131406059
 30
0.0
 10
10.774926955
 20
10.4249293333
 30
0.0
 10
10.8855017528
 20
10.4404973986
 30
0.0
 10
10.9353999388
 20
10.4563048558
 30
0.0
  0
SPLINE
  5
3A4
100
AcDbEntity
  8
RACCORDO
100
AcDbSpline
 62
250
  6
CONTINUOUS
 70
0
 71
3
 72
9
 73
5
 74
0
 42
0.0000001
 43
0.0000001
 44
0.0000000001
 40
0.0
 40
0.0
 40
0.0
 40
0.0
 40
0.2407050772
 40
1.0
 40
1.0
 40
1.0
 40
1.0
 10
-8.8813626687
 20
4.1870387605
 30
0.0
 10
-8.4563869268
 20
4.1286961643
 30
0.0
 10
-6.6873602413
 20
3.9119957564
 30
0.0
 10
-4.9070518575
 20
3.7908499359
 30
0.0
 10
-3.5546849212
 20
3.7450109811
 30
0.0
  0
LINE
  5
3A5
100
AcDbEntity
  8
RACCORDO
100
AcDbLine
 62
250
  6
CONTINUOUS
 10
2.3958409065
 20
3.8381139239
 11
2.4805674036
 21
3.8437027662
  0
LINE
  5
3A6
100
AcDbEntity
  8
RACCORDO
100
AcDbLine
 62
250
  6
CONTINUOUS
 10
2.4805674036
 20
3.8437027662
 11
2.596282709
 21
3.85153458
  0
LINE
  5
3A7
100
AcDbEntity
  8
RACCORDO
100
AcDbLine
 62
250
  6
CONTINUOUS
 10
2.596282709
 20
3.85153458
 11
2.6621445172
 21
3.8560949983
  0
SPLINE
  5
3A8
100
AcDbEntity
  8
RACCORDO
100
AcDbSpline
 62
250
  6
CONTINUOUS
 70
0
 71
3
 72
9
 73
5
 74
0
 42
0.0000001
 43
0.0000001
 44
0.0000000001
 40
0.0
 40
0.0
 40
0.0
 40
0.0
 40
0.2725703457
 40
1.0
 40
1.0
 40
1.0
 40
1.0
 10
4.2342863034
 20
3.9875508507
 30
0.0
 10
4.2869893577
 20
3.9927062094
 30
0.0
 10
4.479836626
 20
4.0156284429
 30
0.0
 10
4.671596812
 20
4.0535946538
 30
0.0
 10
4.8064330189
 20
4.0959229616
 30
0.0
  0
SPLINE
  5
3A9
100
AcDbEntity
  8
RACCORDO
100
AcDbSpline
 62
250
  6
CONTINUOUS
 70
0
 71
3
 72
12
 73
8
 74
0
 42
0.0000001
 43
0.0000001
 44
0.0000000001
 40
0.0
 40
0.0
 40
0.0
 40
0.0
 40
0.3703361431
 40
0.6711843757
 40
0.7877842102
 40
0.8800128717
 40
1.0
 40
1.0
 40
1.0
 40
1.0
 10
4.2342965142
 20
3.9875398703
 30
0.0
 10
4.235057633
 20
3.9426327789
 30
0.0
 10
4.2331200693
 20
3.8610976693
 30
0.0
 10
4.2214170534
 20
3.7661582221
 30
0.0
 10
4.2042329112
 20
3.7061446308
 30
0.0
 10
4.1889611456
 20
3.6704095453
 30
0.0
 10
4.1683783841
 20
3.6479303357
 30
0.0
 10
4.1538898635
 20
3.6465750448
 30
0.0
  0
SPLINE
  5
3AA
100
AcDbEntity
  8
0
100
AcDbSpline
 62
7
  6
CONTINUOUS
 70
0
 71
3
 72
9
 73
5
 74
0
 42
0.0000001
 43
0.0000001
 44
0.0000000001
 40
0.0
 40
0.0
 40
0.0
 40
0.0
 40
0.2251000403
 40
1.0
 40
1.0
 40
1.0
 40
1.0
 10
-13.4424416235
 20
20.465299624
 30
0.0
 10
-13.440707074
 20
20.463551009
 30
0.0
 10
-13.4340177222
 20
20.4547632264
 30
0.0
 10
-13.4316372325
 20
20.4433246062
 30
0.0
 10
-13.4314963261
 20
20.4348470124
 30
0.0
  0
SPLINE
  5
3AB
100
AcDbEntity
  8
ASSI
100
AcDbSpline
 62
7
  6
CONTINUOUS
 70
0
 71
3
 72
9
 73
5
 74
0
 42
0.0000001
 43
0.0000001
 44
0.0000000001
 40
0.0
 40
0.0
 40
0.0
 40
0.0
 40
0.2731215123
 40
1.0
 40
1.0
 40
1.0
 40
1.0
 10
-13.5820458895
 20
20.5111799006
 30
0.0
 10
-13.576286156
 20
20.5043079212
 30
0.0
 10
-13.5538591976
 20
20.4804282033
 30
0.0
 10
-13.524921113
 20
20.461702339
 30
0.0
 10
-13.5019865618
 20
20.455109711
 30
0.0
  0
SPLINE
  5
3AC
100
AcDbEntity
  8
RACCORDO
100
AcDbSpline
 62
7
  6
CONTINUOUS
 70
0
 71
3
 72
9
 73
5
 74
0
 42
0.0000001
 43
0.0000001
 44
0.0000000001
 40
0.0
 40
0.0
 40
0.0
 40
0.0
 40
0.5067714969
 40
1.0
 40
1.0
 40
1.0
 40
1.0
 10
-13.2150849639
 20
8.0816523811
 30
0.0
 10
-13.2171740293
 20
8.0926741707
 30
0.0
 10
-13.2183846339
 20
8.1149266917
 30
0.0
 10
-13.2261464255
 20
8.1360309872
 30
0.0
 10
-13.2272578313
 20
8.1468925048
 30
0.0
  0
SPLINE
  5
3AD
100
AcDbEntity
  8
RACCORDO
100
AcDbSpline
 62
7
  6
CONTINUOUS
 70
0
 71
3
 72
8
 73
4
 74
0
 42
0.0000001
 43
0.0000001
 44
0.0000000001
 40
0.0
 40
0.0
 40
0.0
 40
0.0
 40
1.0
 40
1.0
 40
1.0
 40
1.0
 10
-13.2087110983
 20
8.0539750439
 30
0.0
 10
-13.2108357202
 20
8.063200823
 30
0.0
 10
-13.2133219325
 20
8.0723507287
 30
0.0
 10
-13.2150849639
 20
8.0816523811
 30
0.0
  0
ELLIPSE
  5
3AE
100
AcDbEntity
  8
0
100
AcDbEllipse
 62
7
  6
CONTINUOUS
 10
9.8529593453
 20
26.5147796454
 30
0.0
 11
-6.2413647047
 21
8.9439051036
 31
0.0
 40
0.5356396215
 41
0.8880676339
 42
1.1665814176
  0
ELLIPSE
  5
3AF
100
AcDbEntity
  8
0
100
AcDbEllipse
 62
7
  6
CONTINUOUS
 10
11.3124347474
 20
26.9731936019
 30
0.0
 11
1.4567610101
 21
10.97750863
 31
0.0
 40
0.6948189498
 41
1.3683691791
 42
1.776272337
  0
ELLIPSE
  5
3B0
100
AcDbEntity
  8
0
100
AcDbEllipse
 62
7
  6
CONTINUOUS
 10
14.2815174401
 20
27.9057676915
 30
0.0
 11
-5.9785837234
 21
9.0438985913
 31
0.0
 40
0.5518488436
 41
0.8978462854
 42
1.1611015345
  0
ELLIPSE
  5
3B1
100
AcDbEntity
  8
0
100
AcDbEllipse
 62
7
  6
CONTINUOUS
 10
15.5849206712
 20
28.3151601563
 30
0.0
 11
0.9547124947
 21
10.9245941462
 31
0.0
 40
0.6989569171
 41
1.4733750426
 42
1.7439037039
  0
ELLIPSE
  5
3B2
100
AcDbEntity
  8
0
100
AcDbEllipse
 62
7
  6
CONTINUOUS
 10
17.8402469874
 20
29.0235469221
 30
0.0
 11
1.4567362031
 21
10.9775062089
 31
0.0
 40
0.6948191915
 41
-4.5890876419
 42
-4.5069155411
  0
ELLIPSE
  5
3B3
100
AcDbEntity
  8
0
100
AcDbEllipse
 62
7
  6
CONTINUOUS
 10
18.3161560526
 20
29.1730275897
 30
0.0
 11
-6.2413878867
 21
8.9438963278
 31
0.0
 40
0.5356381561
 41
0.8880657732
 42
1.2959699789
  0
ELLIPSE
  5
3B4
100
AcDbEntity
  8
0
100
AcDbEllipse
 62
7
  6
CONTINUOUS
 10
17.8402338878
 20
29.0235428076
 30
0.0
 11
1.4564647058
 21
10.9774797113
 31
0.0
 40
0.6948218369
 41
1.4939858253
 42
1.6161513653
  0
ELLIPSE
  5
3B5
100
AcDbEntity
  8
0
100
AcDbEllipse
 62
7
  6
CONTINUOUS
 10
20.6815804867
 20
29.9159956262
 30
0.0
 11
-7.5957874756
 21
8.4545177664
 31
0.0
 40
0.4421185679
 41
1.0942751606
 42
1.2641658792
  0
ELLIPSE
  5
3B6
100
AcDbEntity
  8
0
100
AcDbEllipse
 62
7
  6
CONTINUOUS
 10
9.2501717711
 20
26.3254470699
 30
0.0
 11
-6.2413684655
 21
8.9439036799
 31
0.0
 40
0.5356393838
 41
0.888067502
 42
1.2959717543
  0
ELLIPSE
  5
3B7
100
AcDbEntity
  8
ASSI
100
AcDbEllipse
 62
7
  6
CONTINUOUS
 10
9.2501717711
 20
26.3254470699
 30
0.0
 11
-6.2709484108
 21
8.986291849
 31
0.0
 40
0.5356393838
 41
0.8885370657
 42
1.294467991
  0
ELLIPSE
  5
3B8
100
AcDbEntity
  8
0
100
AcDbEllipse
 62
7
  6
CONTINUOUS
 10
10.7096522394
 20
26.7838626177
 30
0.0
 11
1.4566550799
 21
10.9774982917
 31
0.0
 40
0.694819982
 41
1.3683624494
 42
1.646876233
  0
ELLIPSE
  5
3B9
100
AcDbEntity
  8
ASSI
100
AcDbEllipse
 62
7
  6
CONTINUOUS
 10
10.7096522394
 20
26.7838626177
 30
0.0
 11
1.4635586584
 21
11.0295243499
 31
0.0
 40
0.694819982
 41
1.3688320131
 42
1.6400764443
  0
ELLIPSE
  5
3BA
100
AcDbEntity
  8
0
100
AcDbEllipse
 62
7
  6
CONTINUOUS
 10
13.6787281464
 20
27.7164345759
 30
0.0
 11
-5.9785476314
 21
9.0439123853
 31
0.0
 40
0.551851013
 41
1.0352212063
 42
1.3057508625
  0
ELLIPSE
  5
3BB
100
AcDbEntity
  8
ASSI
100
AcDbEllipse
 62
7
  6
CONTINUOUS
 10
13.6787281464
 20
27.7164345759
 30
0.0
 11
-6.0068819804
 21
9.0867745293
 31
0.0
 40
0.551851013
 41
1.0508510211
 42
1.3042471049
  0
ELLIPSE
  5
3BC
100
AcDbEntity
  8
0
100
AcDbEllipse
 62
7
  6
CONTINUOUS
 10
14.9821392555
 20
28.1258295151
 30
0.0
 11
0.9547656031
 21
10.9246001864
 31
0.0
 40
0.6989565595
 41
1.3360050119
 42
1.599260261
  0
ELLIPSE
  5
3BD
100
AcDbEntity
  8
ASSI
100
AcDbEllipse
 62
7
  6
CONTINUOUS
 10
14.9821392555
 20
28.1258295151
 30
0.0
 11
0.9592905585
 21
10.9763755427
 31
0.0
 40
0.6989565595
 41
1.3364745756
 42
1.5916955823
  0
ELLIPSE
  5
3BE
100
AcDbEntity
  8
0
100
AcDbEllipse
 62
7
  6
CONTINUOUS
 10
17.2374591966
 20
28.8342142785
 30
0.0
 11
1.45667768
 21
10.9775004974
 31
0.0
 40
0.6948197618
 41
1.3683628373
 42
1.776267043
  0
ELLIPSE
  5
3BF
100
AcDbEntity
  8
ASSI
100
AcDbEllipse
 62
7
  6
CONTINUOUS
 10
17.2374591966
 20
28.8342142785
 30
0.0
 11
1.4635813656
 21
11.0295265661
 31
0.0
 40
0.6948197618
 41
1.3688324061
 42
1.7747632854
  0
ELLIPSE
  5
3C0
100
AcDbEntity
  8
0
100
AcDbEllipse
 62
7
  6
CONTINUOUS
 10
17.713401603
 20
28.9837054185
 30
0.0
 11
-6.2412824702
 21
8.9439362344
 31
0.0
 40
0.5356448198
 41
1.2138005798
 42
1.2959726806
  0
ELLIPSE
  5
3C1
100
AcDbEntity
  8
ASSI
100
AcDbEllipse
 62
7
  6
CONTINUOUS
 10
17.713401603
 20
28.9837054185
 30
0.0
 11
-6.2708620079
 21
8.9863245578
 31
0.0
 40
0.5356448198
 41
1.214705086
 42
1.2944689281
  0
ELLIPSE
  5
3C2
100
AcDbEntity
  8
0
100
AcDbEllipse
 62
7
  6
CONTINUOUS
 10
17.7133673748
 20
28.9836946675
 30
0.0
 11
-6.241362927
 21
8.9439057766
 31
0.0
 40
0.5356397339
 41
1.0137031666
 42
1.1358687066
  0
ELLIPSE
  5
3C3
100
AcDbEntity
  8
ASSI
100
AcDbEllipse
 62
7
  6
CONTINUOUS
 10
17.7133673748
 20
28.9836946675
 30
0.0
 11
-6.270942846
 21
8.9862939556
 31
0.0
 40
0.5356397339
 41
1.0217300822
 42
1.1351627007
  0
ELLIPSE
  5
3C4
100
AcDbEntity
  8
0
100
AcDbEllipse
 62
7
  6
CONTINUOUS
 10
20.0026292224
 20
29.7027404148
 30
0.0
 11
-7.5958106249
 21
8.4545098908
 31
0.0
 40
0.4421168821
 41
1.1040655441
 42
1.2641666968
  0
ELLIPSE
  5
3C5
100
AcDbEntity
  8
ASSI
100
AcDbEllipse
 62
7
  6
CONTINUOUS
 10
20.0026292224
 20
29.7027404148
 30
0.0
 11
-7.6318097274
 21
8.494578658
 31
0.0
 40
0.4421168821
 41
1.1053524786
 42
1.2626629443
  0
ENDSEC
  0
SECTION
  2
OBJECTS
  0
DICTIONARY
  5
C
100
AcDbDictionary
280
0
281
1
  3
ACAD_GROUP
350
D
  3
ACAD_MLINESTYLE
350
17
  3
ACAD_LAYOUT
350
1A
  3
ACAD_PLOTSETTINGS
350
19
  3
ACAD_PLOTSTYLENAME
350
E
  0
DICTIONARY
  5
D
102
{ACAD_REACTORS
330
C
102
}
100
AcDbDictionary
280
0
281
1
  0
ACDBDICTIONARYWDFLT
  5
E
102
{ACAD_REACTORS
330
C
102
}
100
AcDbDictionary
281
1
  3
Normal
350
F
100
AcDbDictionaryWithDefault
340
F
  0
DICTIONARY
  5
17
102
{ACAD_REACTORS
330
C
102
}
100
AcDbDictionary
280
0
281
1
  3
Standard
350
18
  0
DICTIONARY
  5
19
102
{ACAD_REACTORS
330
C
102
}
100
AcDbDictionary
281
1
  0
DICTIONARY
  5
1A
102
{ACAD_REACTORS
330
C
102
}
100
AcDbDictionary
281
1
  3
Model
350
3C6
  3
Layout1
350
3C7
  0
ACDBPLACEHOLDER
  5
F
102
{ACAD_REACTORS
330
E
102
}
  0
MLINESTYLE
  5
18
102
{ACAD_REACTORS
330
17
102
}
100
AcDbMlineStyle
  2
STANDARD
 70
0
  3

 62
256
 51
90.0
 52
90.0
 71
2
 49
0.5
 62
256
  6
BYLAYER
 49
-0.5
 62
256
  6
BYLAYER
  0
LAYOUT
  5
3C6
102
{ACAD_REACTORS
330
1A
102
}
100
AcDbPlotSettings
  1

  2
none_device
  4
ANSI_C_(22.00_x_17.00_Inches)
  6

 40
0.0
 41
0.0
 42
0.0
 43
0.0
 44
558.8
 45
431.8
 46
0.0
 47
0.0
 48
0.0
 49
0.0
140
0.0
141
0.0
142
1.0
143
1.0
 70
1024
 72
1
 73
0
 74
0
  7

 75
0
147
1.0
148
0.0
149
0.0
100
AcDbLayout
  1
Model
 70
0
 71
0
 10
0.0
 20
0.0
 11
558.8
 21
431.8
 12
0.0
 22
0.0
 32
0.0
 14
0.0
 24
0.0
 34
0.0
 15
0.0
 25
0.0
 35
0.0
146
0.0
 13
0.0
 23
0.0
 33
0.0
 16
1.0
 26
0.0
 36
0.0
 17
0.0
 27
1.0
 37
0.0
 76
0
330
219
345
0
346
0
  0
LAYOUT
  5
3C7
102
{ACAD_REACTORS
330
1A
102
}
100
AcDbPlotSettings
  1

  2
none_device
  4
ANSI_C_(22.00_x_17.00_Inches)
  6

 40
0.0
 41
0.0
 42
0.0
 43
0.0
 44
558.8
 45
431.8
 46
0.0
 47
0.0
 48
0.0
 49
0.0
140
0.0
141
0.0
142
1.0
143
1.0
 70
0
 72
1
 73
0
 74
0
  7

 75
0
147
1.0
148
0.0
149
0.0
100
AcDbLayout
  1
Layout1
 70
0
 71
1
 10
0.0
 20
0.0
 11
558.8
 21
431.8
 12
0.0
 22
0.0
 32
0.0
 14
0.0
 24
0.0
 34
0.0
 15
0.0
 25
0.0
 35
0.0
146
0.0
 13
0.0
 23
0.0
 33
0.0
 16
1.0
 26
0.0
 36
0.0
 17
0.0
 27
1.0
 37
0.0
 76
0
330
21A
345
0
346
0
  0
ENDSEC
  0
EOF
