  0
SECTION
  2
HEADER
  9
$ACADVER
  1
AC1015
  9
$DWGCODEPAGE
  3
ANSI_1252
  9
$EXTMAX
 10
297.0
 20
210.0
 30
0.0
  9
$EXTMIN
 10
0.0
 20
0.0
 30
0.0
  9
$LIMMIN
 10
0.0
 20
0.0
  9
$LIMMAX
 10
297.0
 20
210.0
  9
$VIEWCTR
 10
148.5
 20
105.0
  9
$VIEWSIZE
 40
210.0
  9
$CLAYER
  8
0
  9
$LTSCALE
 40
16.335
  9
$CELTYPE
  6
BYLAYER
  9
$DIMSCALE
 40
1.0
  9
$DIMASZ
 40
3.0
  9
$DIMEXO
 40
1.85625
  9
$DIMDLI
 40
11.286
  9
$DIMEXE
 40
5.346
  9
$DIMCEN
 40
2.673
  9
$DIMLFAC
 40
1.0
  9
$DIMBLK
  1
_FILLED
  9
$DIMTXT
 40
3.0
  9
$DIMTOL
 70
1
  9
$DIMLIM
 70
0
  9
$DIMTFAC
 40
1.0
  9
$DIMTP
 40
0.01
  9
$DIMTM
 40
0.01
  9
$PDMODE
 70
3
  9
$PDSIZE
 40
3.0
  9
$HANDSEED
  5
4F3
  9
$TILEMODE
 70
1
  9
$MEASUREMENT
 70
1
  9
$INSUNITS
 70
4
  0
ENDSEC
  0
SECTION
  2
CLASSES
  0
CLASS
  1
ACDBDICTIONARYWDFLT
  2
AcDbDictionaryWithDefault
  3
AutoCAD 2000
 90
0
280
0
281
0
  0
CLASS
  1
ACDBPLACEHOLDER
  2
AcDbPlaceHolder
  3
AutoCAD 2000
 90
0
280
0
281
0
  0
CLASS
  1
LAYOUT
  2
AcDbLayout
  3
AutoCAD 2000
 90
0
280
0
281
0
  0
ENDSEC
  0
SECTION
  2
TABLES
  0
TABLE
  2
VPORT
  5
8
100
AcDbSymbolTable
 70
2
  0
VPORT
  5
1F4
100
AcDbSymbolTableRecord
100
AcDbViewportTableRecord
  2
*ACTIVE
 70
0
 10
0.0
 20
0.0
 11
1.0
 21
1.0
 12
148.5
 22
105.0
 13
0.0
 23
0.0
 14
1.0
 24
1.0
 15
0.0
 25
0.0
 16
0.0
 26
0.0
 36
1.0
 17
0.0
 27
0.0
 37
0.0
 40
210.0
 41
1.4142857143
 42
50.0
 43
0.0
 44
0.0
 50
0.0
 51
0.0
 71
0
 72
100
 73
1
 74
1
 75
0
 76
0
 77
0
 78
0
  0
ENDTAB
  0
TABLE
  2
LTYPE
  5
5
100
AcDbSymbolTable
 70
6
  0
LTYPE
  5
14
100
AcDbSymbolTableRecord
100
AcDbLinetypeTableRecord
  2
BYBLOCK
 70
0
  3

 72
65
 73
0
 40
0.0
  0
LTYPE
  5
15
100
AcDbSymbolTableRecord
100
AcDbLinetypeTableRecord
  2
BYLAYER
 70
0
  3

 72
65
 73
0
 40
0.0
  0
LTYPE
  5
16
100
AcDbSymbolTableRecord
100
AcDbLinetypeTableRecord
  2
CONTINUOUS
 70
64
  3
Solid line
 72
65
 73
0
 40
0.0
  0
LTYPE
  5
1F5
100
AcDbSymbolTableRecord
100
AcDbLinetypeTableRecord
  2
CENTER
 70
64
  3
____ _ ____ _ ____ _ ____ _ ____ _ ____ _ ____
 72
65
 73
4
 40
0.6
 49
0.375
 74
0
 49
-0.075
 74
0
 49
0.075
 74
0
 49
-0.075
 74
0
  0
LTYPE
  5
1F6
100
AcDbSymbolTableRecord
100
AcDbLinetypeTableRecord
  2
HIDDEN
 70
64
  3
- - - - - - - - - - - - - - - - - - - -
 72
65
 73
2
 40
0.2
 49
0.1
 74
0
 49
-0.1
 74
0
  0
LTYPE
  5
1F7
100
AcDbSymbolTableRecord
100
AcDbLinetypeTableRecord
  2
PHANTOM
 70
64
  3
_____ _ _ _____ _ _ _____ _ _ _____
 72
65
 73
6
 40
0.8
 49
0.45
 74
0
 49
-0.05
 74
0
 49
0.1
 74
0
 49
-0.05
 74
0
 49
0.1
 74
0
 49
-0.05
 74
0
  0
LTYPE
  5
1F8
100
AcDbSymbolTableRecord
100
AcDbLinetypeTableRecord
  2
DOT
 70
64
  3
. . . . . . . . . . . . . . . . . . . .
 72
65
 73
2
 40
0.2
 49
0.1
 74
0
 49
-0.1
 74
0
  0
LTYPE
  5
1F9
100
AcDbSymbolTableRecord
100
AcDbLinetypeTableRecord
  2
DASHED
 70
64
  3
- - - - - - - - - - - - - - - - - - - -
 72
65
 73
2
 40
0.2
 49
0.1
 74
0
 49
-0.1
 74
0
  0
ENDTAB
  0
TABLE
  2
LAYER
  5
2
100
AcDbSymbolTable
 70
36
  0
LAYER
  5
10
100
AcDbSymbolTableRecord
100
AcDbLayerTableRecord
  2
0
 70
0
 62
7
  6
CONTINUOUS
370
-3
390
F
  0
LAYER
  5
1FA
100
AcDbSymbolTableRecord
100
AcDbLayerTableRecord
  2
DEFAULT_1
 70
0
 62
7
  6
CENTER
370
-3
390
F
  0
LAYER
  5
1FB
100
AcDbSymbolTableRecord
100
AcDbLayerTableRecord
  2
DEFAULT_2
 70
0
 62
7
  6
HIDDEN
370
-3
390
F
  0
LAYER
  5
1FC
100
AcDbSymbolTableRecord
100
AcDbLayerTableRecord
  2
DEFAULT_3
 70
0
 62
7
  6
PHANTOM
370
-3
390
F
  0
LAYER
  5
1FD
100
AcDbSymbolTableRecord
100
AcDbLayerTableRecord
  2
320200000
 70
0
 62
7
  6
CONTINUOUS
370
-3
390
F
  0
LAYER
  5
1FE
100
AcDbSymbolTableRecord
100
AcDbLayerTableRecord
  2
361200000
 70
0
 62
7
  6
CONTINUOUS
370
-3
390
F
  0
LAYER
  5
1FF
100
AcDbSymbolTableRecord
100
AcDbLayerTableRecord
  2
ASSI
 70
0
 62
7
  6
CONTINUOUS
370
-3
390
F
  0
LAYER
  5
200
100
AcDbSymbolTableRecord
100
AcDbLayerTableRecord
  2
COLOR5
 70
0
 62
7
  6
CONTINUOUS
370
-3
390
F
  0
LAYER
  5
201
100
AcDbSymbolTableRecord
100
AcDbLayerTableRecord
  2
COLOR7
 70
0
 62
7
  6
CONTINUOUS
370
-3
390
F
  0
LAYER
  5
202
100
AcDbSymbolTableRecord
100
AcDbLayerTableRecord
  2
COORDINATE
 70
0
 62
7
  6
CONTINUOUS
370
-3
390
F
  0
LAYER
  5
203
100
AcDbSymbolTableRecord
100
AcDbLayerTableRecord
  2
COORD_ORIGINE
 70
0
 62
7
  6
CONTINUOUS
370
-3
390
F
  0
LAYER
  5
204
100
AcDbSymbolTableRecord
100
AcDbLayerTableRecord
  2
COPY_PUBLISH
 70
0
 62
7
  6
CONTINUOUS
370
-3
390
F
  0
LAYER
  5
205
100
AcDbSymbolTableRecord
100
AcDbLayerTableRecord
  2
COSMETIC
 70
0
 62
7
  6
CONTINUOUS
370
-3
390
F
  0
LAYER
  5
206
100
AcDbSymbolTableRecord
100
AcDbLayerTableRecord
  2
CURVE
 70
0
 62
7
  6
CONTINUOUS
370
-3
390
F
  0
LAYER
  5
207
100
AcDbSymbolTableRecord
100
AcDbLayerTableRecord
  2
DRAFT
 70
0
 62
7
  6
CONTINUOUS
370
-3
390
F
  0
LAYER
  5
208
100
AcDbSymbolTableRecord
100
AcDbLayerTableRecord
  2
IMPORT_FEATURES
 70
0
 62
7
  6
CONTINUOUS
370
-3
390
F
  0
LAYER
  5
209
100
AcDbSymbolTableRecord
100
AcDbLayerTableRecord
  2
IMPORT_IGES
 70
0
 62
7
  6
CONTINUOUS
370
-3
390
F
  0
LAYER
  5
20A
100
AcDbSymbolTableRecord
100
AcDbLayerTableRecord
  2
INTF_1
 70
0
 62
7
  6
CONTINUOUS
370
-3
390
F
  0
LAYER
  5
20B
100
AcDbSymbolTableRecord
100
AcDbLayerTableRecord
  2
INTF_YELLOW
 70
0
 62
7
  6
CONTINUOUS
370
-3
390
F
  0
LAYER
  5
20C
100
AcDbSymbolTableRecord
100
AcDbLayerTableRecord
  2
NOTE
 70
0
 62
7
  6
CONTINUOUS
370
-3
390
F
  0
LAYER
  5
20D
100
AcDbSymbolTableRecord
100
AcDbLayerTableRecord
  2
PIANI
 70
0
 62
7
  6
CONTINUOUS
370
-3
390
F
  0
LAYER
  5
20E
100
AcDbSymbolTableRecord
100
AcDbLayerTableRecord
  2
PIANI_ORIGINE
 70
0
 62
7
  6
CONTINUOUS
370
-3
390
F
  0
LAYER
  5
20F
100
AcDbSymbolTableRecord
100
AcDbLayerTableRecord
  2
PRECARICO_MOLLA
 70
0
 62
7
  6
CONTINUOUS
370
-3
390
F
  0
LAYER
  5
210
100
AcDbSymbolTableRecord
100
AcDbLayerTableRecord
  2
PUNTI
 70
0
 62
7
  6
CONTINUOUS
370
-3
390
F
  0
LAYER
  5
211
100
AcDbSymbolTableRecord
100
AcDbLayerTableRecord
  2
RACCORDO
 70
0
 62
7
  6
CONTINUOUS
370
-3
390
F
  0
LAYER
  5
212
100
AcDbSymbolTableRecord
100
AcDbLayerTableRecord
  2
RGB____0____0____0__
 70
0
 62
7
  6
CONTINUOUS
370
-3
390
F
  0
LAYER
  5
213
100
AcDbSymbolTableRecord
100
AcDbLayerTableRecord
  2
SMUSSO
 70
0
 62
7
  6
CONTINUOUS
370
-3
390
F
  0
LAYER
  5
214
100
AcDbSymbolTableRecord
100
AcDbLayerTableRecord
  2
SUPERFICI
 70
0
 62
7
  6
CONTINUOUS
370
-3
390
F
  0
LAYER
  5
215
100
AcDbSymbolTableRecord
100
AcDbLayerTableRecord
  2
TRASH
 70
0
 62
7
  6
CONTINUOUS
370
-3
390
F
  0
LAYER
  5
216
100
AcDbSymbolTableRecord
100
AcDbLayerTableRecord
  2
TRECCE
 70
0
 62
7
  6
CONTINUOUS
370
-3
390
F
  0
LAYER
  5
217
100
AcDbSymbolTableRecord
100
AcDbLayerTableRecord
  2
VARIE
 70
0
 62
7
  6
CONTINUOUS
370
-3
390
F
  0
LAYER
  5
218
100
AcDbSymbolTableRecord
100
AcDbLayerTableRecord
  2
XSEC_DATUMS
 70
0
 62
7
  6
CONTINUOUS
370
-3
390
F
  0
LAYER
  5
219
100
AcDbSymbolTableRecord
100
AcDbLayerTableRecord
  2
___SHELL
 70
0
 62
7
  6
CONTINUOUS
370
-3
390
F
  0
ENDTAB
  0
TABLE
  2
STYLE
  5
3
100
AcDbSymbolTable
 70
1
  0
STYLE
  5
11
100
AcDbSymbolTableRecord
100
AcDbTextStyleTableRecord
  2
STANDARD
 70
0
 40
0.0
 41
0.8
 50
0.0
 71
0
 42
0.2
  3
txt
  4

  0
STYLE
  5
21A
100
AcDbSymbolTableRecord
100
AcDbTextStyleTableRecord
  2
TEXTSTYLE_1
 70
0
 40
0.0
 41
0.8
 50
0.0
 71
0
 42
0.2
  3
gdt
  4

  0
ENDTAB
  0
TABLE
  2
VIEW
  5
6
100
AcDbSymbolTable
 70
0
  0
ENDTAB
  0
TABLE
  2
UCS
  5
7
100
AcDbSymbolTable
 70
0
  0
ENDTAB
  0
TABLE
  2
APPID
  5
9
100
AcDbSymbolTable
 70
1
  0
APPID
  5
21B
100
AcDbSymbolTableRecord
100
AcDbRegAppTableRecord
  2
ACAD
 70
0
  0
ENDTAB
  0
TABLE
  2
BLOCK_RECORD
  5
1
100
AcDbSymbolTable
 70
0
  0
BLOCK_RECORD
  5
21C
100
AcDbSymbolTableRecord
100
AcDbBlockTableRecord
  2
*Model_Space
  0
BLOCK_RECORD
  5
21D
100
AcDbSymbolTableRecord
100
AcDbBlockTableRecord
  2
*Paper_Space
  0
ENDTAB
  0
TABLE
  2
DIMSTYLE
  5
A
100
AcDbSymbolTable
 70
1
100
AcDbDimStyleTable
 71
0
  0
DIMSTYLE
105
21E
100
AcDbSymbolTableRecord
100
AcDbDimStyleTableRecord
  2
STANDARD
 70
0
  3

  4

 40
1.0
 41
3.0
 42
0.0625
 43
0.38
 44
0.18
 45
0.0
 46
0.0
 47
0.01
 48
0.01
140
3.0
141
0.09
142
0.0
143
25.4
144
1.0
145
0.0
146
1.0
147
0.09
 71
1.0
 72
0.0
 73
0
 74
0
 75
0
 76
0
 77
1
 78
8
170
0
171
2
172
0
173
0
174
0
175
0
176
0
177
0
178
0
270
2
271
2
272
2
273
2
274
2
275
0
280
0
281
0
282
0
283
1
284
8
285
0
286
0
287
3
288
0
340
11
  0
ENDTAB
  0
ENDSEC
  0
SECTION
  2
BLOCKS
  0
BLOCK
  5
20
100
AcDbEntity
  8
0
100
AcDbBlockBegin
  2
*Model_Space
 70
0
 10
0.0
 20
0.0
 30
0.0
  3
*Model_Space
  1

  0
ENDBLK
  5
21
100
AcDbEntity
  8
0
100
AcDbBlockEnd
  0
BLOCK
  5
1C
100
AcDbEntity
  8
0
100
AcDbBlockBegin
  2
*Paper_Space
 70
0
 10
0.0
 20
0.0
 30
0.0
  3
*Paper_Space
  1

  0
ENDBLK
  5
1D
100
AcDbEntity
  8
0
100
AcDbBlockEnd
  0
ENDSEC
  0
SECTION
  2
ENTITIES
  0
LINE
  5
21F
100
AcDbEntity
  8
0
100
AcDbLine
 62
7
  6
CONTINUOUS
 10
-6.0926701237
 20
-25.0759954697
 11
5.9073298763
 21
-25.0759954697
  0
LINE
  5
220
100
AcDbEntity
  8
0
100
AcDbLine
 62
253
  6
CONTINUOUS
 10
5.9073298763
 20
-24.1096383886
 11
-6.0926701237
 21
-24.1096383886
  0
LINE
  5
221
100
AcDbEntity
  8
SMUSSO
100
AcDbLine
 62
7
  6
CONTINUOUS
 10
5.6073298763
 20
-23.580915988
 11
-5.7926701237
 21
-23.580915988
  0
LINE
  5
222
100
AcDbEntity
  8
0
100
AcDbLine
 62
253
  6
CONTINUOUS
 10
2.4073298763
 20
-23.3672455809
 11
-2.5926701237
 21
-23.3672455809
  0
LINE
  5
223
100
AcDbEntity
  8
RACCORDO
100
AcDbLine
 62
7
  6
CONTINUOUS
 10
2.1073298763
 20
-23.3508409006
 11
-2.2926701237
 21
-23.3508409006
  0
LINE
  5
224
100
AcDbEntity
  8
RACCORDO
100
AcDbLine
 62
7
  6
CONTINUOUS
 10
2.1073298763
 20
-23.1371639674
 11
-2.2926701237
 21
-23.1371639674
  0
LINE
  5
225
100
AcDbEntity
  8
DRAFT
100
AcDbLine
 62
7
  6
CONTINUOUS
 10
5.9242015827
 20
-22.4619494227
 11
5.9073298763
 21
-22.4619494227
  0
LINE
  5
226
100
AcDbEntity
  8
DRAFT
100
AcDbLine
 62
7
  6
CONTINUOUS
 10
-6.0926701237
 20
-22.4619494227
 11
-6.1095418302
 21
-22.4619494227
  0
LINE
  5
227
100
AcDbEntity
  8
RACCORDO
100
AcDbLine
 62
7
  6
CONTINUOUS
 10
-5.5926701237
 20
-21.911675656
 11
-3.1426701237
 21
-21.911675656
  0
LINE
  5
228
100
AcDbEntity
  8
RACCORDO
100
AcDbLine
 62
7
  6
CONTINUOUS
 10
5.4073298763
 20
-21.911675656
 11
2.9573298763
 21
-21.911675656
  0
LINE
  5
229
100
AcDbEntity
  8
0
100
AcDbLine
 62
253
  6
CONTINUOUS
 10
2.8073298763
 20
-21.8426601878
 11
-2.9926701237
 21
-21.8426601878
  0
LINE
  5
22A
100
AcDbEntity
  8
0
100
AcDbLine
 62
253
  6
CONTINUOUS
 10
2.8073298763
 20
-21.8276693528
 11
-2.9926701237
 21
-21.8276693528
  0
LINE
  5
22B
100
AcDbEntity
  8
RACCORDO
100
AcDbLine
 62
253
  6
CONTINUOUS
 10
-6.1095418302
 20
-21.7846558824
 11
-3.0926701237
 21
-21.7846558824
  0
LINE
  5
22C
100
AcDbEntity
  8
ASSI
100
AcDbLine
 62
253
  6
CONTINUOUS
 10
-6.1095418302
 20
-21.7846558824
 11
-3.0926701237
 21
-21.7846558824
  0
LINE
  5
22D
100
AcDbEntity
  8
RACCORDO
100
AcDbLine
 62
253
  6
CONTINUOUS
 10
2.9073298763
 20
-21.7846558824
 11
5.9242015827
 21
-21.7846558824
  0
LINE
  5
22E
100
AcDbEntity
  8
ASSI
100
AcDbLine
 62
253
  6
CONTINUOUS
 10
2.9073298763
 20
-21.7846558824
 11
5.9242015827
 21
-21.7846558824
  0
LINE
  5
22F
100
AcDbEntity
  8
ASSI
100
AcDbLine
 62
7
  6
CONTINUOUS
 10
-5.5426701237
 20
-21.7206762905
 11
5.3573298763
 21
-21.7206762905
  0
LINE
  5
230
100
AcDbEntity
  8
ASSI
100
AcDbLine
 62
7
  6
CONTINUOUS
 10
-5.5426701237
 20
-21.6643879932
 11
-7.8426705519
 21
-21.6443161936
  0
LINE
  5
231
100
AcDbEntity
  8
RACCORDO
100
AcDbLine
 62
7
  6
CONTINUOUS
 10
-10.9426701237
 20
19.0380505773
 11
-8.4682008435
 21
21.5125198575
  0
LINE
  5
232
100
AcDbEntity
  8
RACCORDO
100
AcDbLine
 62
7
  6
CONTINUOUS
 10
5.3573298763
 20
-21.5619494227
 11
8.2828605961
 21
-21.5364187029
  0
LINE
  5
233
100
AcDbEntity
  8
ASSI
100
AcDbLine
 62
7
  6
CONTINUOUS
 10
5.3573298763
 20
-21.5619494227
 11
8.2828605961
 21
-21.5364187029
  0
LINE
  5
234
100
AcDbEntity
  8
RACCORDO
100
AcDbLine
 62
253
  6
CONTINUOUS
 10
5.3573298763
 20
-20.5619874996
 11
9.2916258804
 21
-20.5276534185
  0
LINE
  5
235
100
AcDbEntity
  8
ASSI
100
AcDbLine
 62
253
  6
CONTINUOUS
 10
5.3573298763
 20
-20.5619874996
 11
9.2916258804
 21
-20.5276534185
  0
LINE
  5
236
100
AcDbEntity
  8
ASSI
100
AcDbLine
 62
253
  6
CONTINUOUS
 10
5.3573298763
 20
-20.7206382121
 11
-5.5426701237
 21
-20.7206382121
  0
LINE
  5
237
100
AcDbEntity
  8
ASSI
100
AcDbLine
 62
7
  6
CONTINUOUS
 10
-10.8584166775
 20
-20.0276908995
 11
-9.8769286468
 21
-20.0276908995
  0
LINE
  5
238
100
AcDbEntity
  8
RACCORDO
100
AcDbLine
 62
7
  6
CONTINUOUS
 10
10.6730764301
 20
-20.0276908995
 11
9.7915883994
 21
-20.0276908995
  0
LINE
  5
239
100
AcDbEntity
  8
ASSI
100
AcDbLine
 62
7
  6
CONTINUOUS
 10
9.7915883994
 20
-20.0276908995
 11
10.6730764301
 21
-20.0276908995
  0
LINE
  5
23A
100
AcDbEntity
  8
RACCORDO
100
AcDbLine
 62
7
  6
CONTINUOUS
 10
-9.8769286468
 20
-20.0276908995
 11
-10.8584166775
 21
-20.0276908995
  0
LINE
  5
23B
100
AcDbEntity
  8
RACCORDO
100
AcDbLine
 62
7
  6
CONTINUOUS
 10
-5.5426701237
 20
-21.4619494227
 11
-8.4682008435
 21
-21.4364187029
  0
LINE
  5
23C
100
AcDbEntity
  8
RACCORDO
100
AcDbLine
 62
253
  6
CONTINUOUS
 10
-5.5426701237
 20
-20.4619874996
 11
-9.4769661279
 21
-20.4276534185
  0
LINE
  5
23D
100
AcDbEntity
  8
RACCORDO
100
AcDbLine
 62
7
  6
CONTINUOUS
 10
-8.4682008435
 20
-21.4364187029
 11
-10.9426701237
 21
-18.9619494227
  0
LINE
  5
23E
100
AcDbEntity
  8
SMUSSO
100
AcDbLine
 62
7
  6
CONTINUOUS
 10
5.9073298763
 20
22.1533085196
 11
5.4073298763
 21
21.9877768107
  0
LINE
  5
23F
100
AcDbEntity
  8
ASSI
100
AcDbLine
 62
7
  6
CONTINUOUS
 10
10.2744934757
 20
-19.5447858233
 11
10.7576789414
 21
-19.543099181
  0
LINE
  5
240
100
AcDbEntity
  8
DRAFT
100
AcDbLine
 62
7
  6
CONTINUOUS
 10
10.7573298763
 20
-19.4430997902
 11
10.3748443771
 21
-19.4444349219
  0
LINE
  5
241
100
AcDbEntity
  8
ASSI
100
AcDbLine
 62
7
  6
CONTINUOUS
 10
10.7573298763
 20
-19.4430997902
 11
10.3748443771
 21
-19.4444349219
  0
LINE
  5
242
100
AcDbEntity
  8
RACCORDO
100
AcDbLine
 62
7
  6
CONTINUOUS
 10
8.2573298763
 20
-18.6319494227
 11
5.3573298763
 21
-18.6319494227
  0
LINE
  5
243
100
AcDbEntity
  8
ASSI
100
AcDbLine
 62
7
  6
CONTINUOUS
 10
8.2573298763
 20
-18.6319494227
 11
5.3573298763
 21
-18.6319494227
  0
LINE
  5
244
100
AcDbEntity
  8
ASSI
100
AcDbLine
 62
7
  6
CONTINUOUS
 10
-5.5426701237
 20
-18.6119494227
 11
5.3573298763
 21
-18.6119494227
  0
LINE
  5
245
100
AcDbEntity
  8
RACCORDO
100
AcDbLine
 62
7
  6
CONTINUOUS
 10
-5.5426701237
 20
-18.6119494227
 11
-8.4426701237
 21
-18.6119494227
  0
LINE
  5
246
100
AcDbEntity
  8
ASSI
100
AcDbLine
 62
7
  6
CONTINUOUS
 10
5.3573298763
 20
-18.5944956871
 11
-5.5426701237
 21
-18.5944956871
  0
LINE
  5
247
100
AcDbEntity
  8
SMUSSO
100
AcDbLine
 62
7
  6
CONTINUOUS
 10
5.4073298763
 20
-21.911675656
 11
5.9073298763
 21
-22.077207365
  0
LINE
  5
248
100
AcDbEntity
  8
DRAFT
100
AcDbLine
 62
7
  6
CONTINUOUS
 10
5.3573298763
 20
-17.1119494227
 11
8.5073298763
 21
-17.1050770143
  0
LINE
  5
249
100
AcDbEntity
  8
ASSI
100
AcDbLine
 62
7
  6
CONTINUOUS
 10
5.3573298763
 20
-17.1119494227
 11
8.5073298763
 21
-17.1050770143
  0
LINE
  5
24A
100
AcDbEntity
  8
RACCORDO
100
AcDbLine
 62
7
  6
CONTINUOUS
 10
5.3573298763
 20
-17.6369494227
 11
8.5573298763
 21
-17.6369494227
  0
LINE
  5
24B
100
AcDbEntity
  8
ASSI
100
AcDbLine
 62
7
  6
CONTINUOUS
 10
5.3573298763
 20
-17.6369494227
 11
8.5573298763
 21
-17.6369494227
  0
LINE
  5
24C
100
AcDbEntity
  8
ASSI
100
AcDbLine
 62
7
  6
CONTINUOUS
 10
-5.5426701237
 20
-17.6294031583
 11
-2.3251592727
 21
-17.6294031583
  0
LINE
  5
24D
100
AcDbEntity
  8
ASSI
100
AcDbLine
 62
7
  6
CONTINUOUS
 10
5.3573298763
 20
-17.6294031583
 11
2.1398190253
 21
-17.6294031583
  0
LINE
  5
24E
100
AcDbEntity
  8
RACCORDO
100
AcDbLine
 62
7
  6
CONTINUOUS
 10
-8.7426701237
 20
-17.6119494227
 11
-5.5426701237
 21
-17.6119494227
  0
LINE
  5
24F
100
AcDbEntity
  8
ASSI
100
AcDbLine
 62
7
  6
CONTINUOUS
 10
-5.5426701237
 20
-17.6119494227
 11
-2.3426130083
 21
-17.6119494227
  0
LINE
  5
250
100
AcDbEntity
  8
ASSI
100
AcDbLine
 62
7
  6
CONTINUOUS
 10
5.3573298763
 20
-17.6119494227
 11
2.1572727609
 21
-17.6119494227
  0
LINE
  5
251
100
AcDbEntity
  8
ASSI
100
AcDbLine
 62
7
  6
CONTINUOUS
 10
5.3573298763
 20
-17.1119494227
 11
2.1573298763
 21
-17.1119494227
  0
LINE
  5
252
100
AcDbEntity
  8
DRAFT
100
AcDbLine
 62
7
  6
CONTINUOUS
 10
-8.5426701237
 20
-17.0119494227
 11
-5.5426701237
 21
-17.0119494227
  0
LINE
  5
253
100
AcDbEntity
  8
0
100
AcDbLine
 62
7
  6
CONTINUOUS
 10
5.3573298763
 20
-16.8619494227
 11
8.5073298763
 21
-16.8619494227
  0
LINE
  5
254
100
AcDbEntity
  8
ASSI
100
AcDbLine
 62
7
  6
CONTINUOUS
 10
2.1573298763
 20
-16.8619494227
 11
8.5073298763
 21
-16.8619494227
  0
LINE
  5
255
100
AcDbEntity
  8
DRAFT
100
AcDbLine
 62
253
  6
CONTINUOUS
 10
-9.7244233201
 20
-16.3619494227
 11
-9.6086955275
 21
-16.3619494227
  0
LINE
  5
256
100
AcDbEntity
  8
DRAFT
100
AcDbLine
 62
7
  6
CONTINUOUS
 10
-5.5426701237
 20
-17.3619494227
 11
-8.7426701237
 21
-17.3479864342
  0
LINE
  5
257
100
AcDbEntity
  8
ASSI
100
AcDbLine
 62
7
  6
CONTINUOUS
 10
-0.0884590005
 20
21.7922617006
 11
-0.0840194112
 21
21.7967012898
  0
LINE
  5
258
100
AcDbEntity
  8
DRAFT
100
AcDbLine
 62
253
  6
CONTINUOUS
 10
9.4982954615
 20
-16.1119494227
 11
9.4755757128
 21
-16.1119494227
  0
LINE
  5
259
100
AcDbEntity
  8
ASSI
100
AcDbLine
 62
253
  6
CONTINUOUS
 10
9.4982954615
 20
-16.1119494227
 11
9.4755757128
 21
-16.1119494227
  0
LINE
  5
25A
100
AcDbEntity
  8
DRAFT
100
AcDbLine
 62
7
  6
CONTINUOUS
 10
-9.7426701237
 20
-15.125296578
 11
-9.5426701237
 21
-15.1270419515
  0
LINE
  5
25B
100
AcDbEntity
  8
DRAFT
100
AcDbLine
 62
7
  6
CONTINUOUS
 10
-9.7426701237
 20
-14.6362051627
 11
-9.5426701237
 21
-14.6379505363
  0
LINE
  5
25C
100
AcDbEntity
  8
SMUSSO
100
AcDbLine
 62
7
  6
CONTINUOUS
 10
5.6073298763
 20
23.6570171426
 11
5.9073298763
 21
23.956022609
  0
LINE
  5
25D
100
AcDbEntity
  8
DRAFT
100
AcDbLine
 62
7
  6
CONTINUOUS
 10
-5.5426701237
 20
-12.8619494227
 11
-8.7426701237
 21
-12.8759124111
  0
LINE
  5
25E
100
AcDbEntity
  8
DRAFT
100
AcDbLine
 62
253
  6
CONTINUOUS
 10
9.4982954615
 20
-14.1119494227
 11
9.4755757128
 21
-14.1119494227
  0
LINE
  5
25F
100
AcDbEntity
  8
ASSI
100
AcDbLine
 62
253
  6
CONTINUOUS
 10
9.4982954615
 20
-14.1119494227
 11
9.4755757128
 21
-14.1119494227
  0
LINE
  5
260
100
AcDbEntity
  8
0
100
AcDbLine
 62
7
  6
CONTINUOUS
 10
1.2205961377
 20
-14.0119494227
 11
2.6073298763
 21
-14.0119494227
  0
LINE
  5
261
100
AcDbEntity
  8
0
100
AcDbLine
 62
7
  6
CONTINUOUS
 10
8.1073298763
 20
-14.0119494227
 11
9.4438385573
 21
-14.0119494227
  0
LINE
  5
262
100
AcDbEntity
  8
DRAFT
100
AcDbLine
 62
253
  6
CONTINUOUS
 10
-9.7244233201
 20
-13.8619494227
 11
-9.6086955275
 21
-13.8619494227
  0
LINE
  5
263
100
AcDbEntity
  8
0
100
AcDbLine
 62
7
  6
CONTINUOUS
 10
1.6306443986
 20
-13.5119494227
 11
4.8573298763
 21
-13.5119494227
  0
LINE
  5
264
100
AcDbEntity
  8
0
100
AcDbLine
 62
7
  6
CONTINUOUS
 10
5.8573298763
 20
-13.5119494227
 11
9.0339912378
 21
-13.5119494227
  0
LINE
  5
265
100
AcDbEntity
  8
0
100
AcDbLine
 62
7
  6
CONTINUOUS
 10
8.5073298763
 20
-13.3619494227
 11
5.3573298763
 21
-13.3619494227
  0
LINE
  5
266
100
AcDbEntity
  8
ASSI
100
AcDbLine
 62
7
  6
CONTINUOUS
 10
2.1573298763
 20
-13.3619494227
 11
8.5073298763
 21
-13.3619494227
  0
LINE
  5
267
100
AcDbEntity
  8
DRAFT
100
AcDbLine
 62
7
  6
CONTINUOUS
 10
-5.5426701237
 20
-13.2119494227
 11
-8.5426701237
 21
-13.2119494227
  0
LINE
  5
268
100
AcDbEntity
  8
ASSI
100
AcDbLine
 62
7
  6
CONTINUOUS
 10
2.1573298763
 20
-13.1119494227
 11
5.3573298763
 21
-13.1119494227
  0
LINE
  5
269
100
AcDbEntity
  8
ASSI
100
AcDbLine
 62
7
  6
CONTINUOUS
 10
-5.5426701237
 20
-12.6119494227
 11
-2.3426130083
 21
-12.6119494227
  0
LINE
  5
26A
100
AcDbEntity
  8
ASSI
100
AcDbLine
 62
7
  6
CONTINUOUS
 10
5.3573298763
 20
-12.6119494227
 11
2.1572727609
 21
-12.6119494227
  0
LINE
  5
26B
100
AcDbEntity
  8
RACCORDO
100
AcDbLine
 62
7
  6
CONTINUOUS
 10
-5.5426701237
 20
-12.6119494227
 11
-8.7426701237
 21
-12.6119494227
  0
LINE
  5
26C
100
AcDbEntity
  8
ASSI
100
AcDbLine
 62
7
  6
CONTINUOUS
 10
-5.5426701237
 20
-12.5944956871
 11
-2.3251592727
 21
-12.5944956871
  0
LINE
  5
26D
100
AcDbEntity
  8
ASSI
100
AcDbLine
 62
7
  6
CONTINUOUS
 10
5.3573298763
 20
-12.5944956871
 11
2.1398190253
 21
-12.5944956871
  0
LINE
  5
26E
100
AcDbEntity
  8
RACCORDO
100
AcDbLine
 62
7
  6
CONTINUOUS
 10
8.5573298763
 20
-12.5869494227
 11
5.3573298763
 21
-12.5869494227
  0
LINE
  5
26F
100
AcDbEntity
  8
ASSI
100
AcDbLine
 62
7
  6
CONTINUOUS
 10
8.5573298763
 20
-12.5869494227
 11
5.3573298763
 21
-12.5869494227
  0
LINE
  5
270
100
AcDbEntity
  8
DRAFT
100
AcDbLine
 62
7
  6
CONTINUOUS
 10
5.3573298763
 20
-13.1119494227
 11
8.5073298763
 21
-13.1188218311
  0
LINE
  5
271
100
AcDbEntity
  8
ASSI
100
AcDbLine
 62
7
  6
CONTINUOUS
 10
5.3573298763
 20
-13.1119494227
 11
8.5073298763
 21
-13.1188218311
  0
LINE
  5
272
100
AcDbEntity
  8
SMUSSO
100
AcDbLine
 62
7
  6
CONTINUOUS
 10
5.9073298763
 20
-23.8799214544
 11
5.6073298763
 21
-23.580915988
  0
LINE
  5
273
100
AcDbEntity
  8
ASSI
100
AcDbLine
 62
253
  6
CONTINUOUS
 10
-2.3426130083
 20
-17.6119494227
 11
-2.3251592727
 21
-17.6294031583
  0
LINE
  5
274
100
AcDbEntity
  8
DRAFT
100
AcDbLine
 62
7
  6
CONTINUOUS
 10
-11.1584116006
 20
11.5880505773
 11
-11.1171050089
 21
4.2357853494
  0
LINE
  5
275
100
AcDbEntity
  8
ASSI
100
AcDbLine
 62
7
  6
CONTINUOUS
 10
-11.1171038345
 20
4.2355763145
 11
-11.1584116006
 21
11.5880505773
  0
LINE
  5
276
100
AcDbEntity
  8
RACCORDO
100
AcDbLine
 62
7
  6
CONTINUOUS
 10
-11.1584116006
 20
19.8037971311
 11
-11.1584116006
 21
11.5880505773
  0
LINE
  5
277
100
AcDbEntity
  8
RACCORDO
100
AcDbLine
 62
7
  6
CONTINUOUS
 10
-11.1584116006
 20
-11.5119494227
 11
-11.1584116006
 21
-19.7276959765
  0
LINE
  5
278
100
AcDbEntity
  8
ASSI
100
AcDbLine
 62
7
  6
CONTINUOUS
 10
-11.1584116006
 20
-19.7276959765
 11
-11.1584116006
 21
-11.5119494227
  0
LINE
  5
279
100
AcDbEntity
  8
ASSI
100
AcDbLine
 62
7
  6
CONTINUOUS
 10
-11.1584116006
 20
11.5880505773
 11
-11.1584116006
 21
19.8037971311
  0
LINE
  5
27A
100
AcDbEntity
  8
DRAFT
100
AcDbLine
 62
7
  6
CONTINUOUS
 10
-11.1171050089
 20
4.2357853494
 11
-11.1171050089
 21
-4.1596841948
  0
LINE
  5
27B
100
AcDbEntity
  8
ASSI
100
AcDbLine
 62
7
  6
CONTINUOUS
 10
-11.1171038345
 20
-4.1594751599
 11
-11.1171038345
 21
4.2355763145
  0
LINE
  5
27C
100
AcDbEntity
  8
RACCORDO
100
AcDbLine
 62
253
  6
CONTINUOUS
 10
-11.100294106
 20
-4.1596841948
 11
-11.100294106
 21
4.2357853494
  0
LINE
  5
27D
100
AcDbEntity
  8
RACCORDO
100
AcDbLine
 62
7
  6
CONTINUOUS
 10
-10.9426701237
 20
-18.9619494227
 11
-10.9426701237
 21
19.0380505773
  0
LINE
  5
27E
100
AcDbEntity
  8
DRAFT
100
AcDbLine
 62
7
  6
CONTINUOUS
 10
-11.1171050089
 20
-4.1596841948
 11
-11.1584116006
 21
-11.5119494227
  0
LINE
  5
27F
100
AcDbEntity
  8
ASSI
100
AcDbLine
 62
7
  6
CONTINUOUS
 10
-11.1584116006
 20
-11.5119494227
 11
-11.1171038345
 21
-4.1594751599
  0
LINE
  5
280
100
AcDbEntity
  8
ASSI
100
AcDbLine
 62
7
  6
CONTINUOUS
 10
5.3573298763
 20
-11.6294031583
 11
-5.5426701237
 21
-11.6294031583
  0
LINE
  5
281
100
AcDbEntity
  8
ASSI
100
AcDbLine
 62
7
  6
CONTINUOUS
 10
-1.279579822
 20
-11.6250397244
 11
-0.1057604254
 21
-11.6250397244
  0
LINE
  5
282
100
AcDbEntity
  8
RACCORDO
100
AcDbLine
 62
7
  6
CONTINUOUS
 10
-8.4426701237
 20
-11.6119494227
 11
-5.5426701237
 21
-11.6119494227
  0
LINE
  5
283
100
AcDbEntity
  8
ASSI
100
AcDbLine
 62
7
  6
CONTINUOUS
 10
-5.5426701237
 20
-11.6119494227
 11
-1.2926701237
 21
-11.6119494227
  0
LINE
  5
284
100
AcDbEntity
  8
ASSI
100
AcDbLine
 62
7
  6
CONTINUOUS
 10
-0.0926701237
 20
-11.6119494227
 11
5.3573298763
 21
-11.6119494227
  0
LINE
  5
285
100
AcDbEntity
  8
RACCORDO
100
AcDbLine
 62
7
  6
CONTINUOUS
 10
5.3573298763
 20
-11.5919494227
 11
8.2573298763
 21
-11.5919494227
  0
LINE
  5
286
100
AcDbEntity
  8
ASSI
100
AcDbLine
 62
7
  6
CONTINUOUS
 10
5.3573298763
 20
-11.5919494227
 11
8.2573298763
 21
-11.5919494227
  0
LINE
  5
287
100
AcDbEntity
  8
ASSI
100
AcDbLine
 62
7
  6
CONTINUOUS
 10
-11.1584116006
 20
-11.5119494227
 11
-10.9426701237
 21
-11.5119494227
  0
LINE
  5
288
100
AcDbEntity
  8
DRAFT
100
AcDbLine
 62
7
  6
CONTINUOUS
 10
10.9730713532
 20
-11.5119494227
 11
10.7573298763
 21
-11.5119494227
  0
LINE
  5
289
100
AcDbEntity
  8
ASSI
100
AcDbLine
 62
7
  6
CONTINUOUS
 10
10.7573298763
 20
-11.5119494227
 11
10.9730713532
 21
-11.5119494227
  0
LINE
  5
28A
100
AcDbEntity
  8
DRAFT
100
AcDbLine
 62
7
  6
CONTINUOUS
 10
-10.9426701237
 20
-11.5119494227
 11
-11.1584116006
 21
-11.5119494227
  0
LINE
  5
28B
100
AcDbEntity
  8
ASSI
100
AcDbLine
 62
7
  6
CONTINUOUS
 10
-5.5426701237
 20
-11.4619494227
 11
-1.5426701237
 21
-11.4619494227
  0
LINE
  5
28C
100
AcDbEntity
  8
ASSI
100
AcDbLine
 62
7
  6
CONTINUOUS
 10
-5.5426701237
 20
-11.4567129032
 11
-1.5479066432
 21
-11.4567129032
  0
LINE
  5
28D
100
AcDbEntity
  8
ASSI
100
AcDbLine
 62
253
  6
CONTINUOUS
 10
-0.8426701237
 20
-16.1120065381
 11
-0.8252163881
 21
-16.1294602737
  0
LINE
  5
28E
100
AcDbEntity
  8
RACCORDO
100
AcDbLine
 62
7
  6
CONTINUOUS
 10
-10.2426701237
 20
-14.1119494227
 11
-10.2426701237
 21
-16.1119494227
  0
LINE
  5
28F
100
AcDbEntity
  8
DRAFT
100
AcDbLine
 62
7
  6
CONTINUOUS
 10
-9.7426701237
 20
15.9380505773
 11
-9.7426701237
 21
14.4380505773
  0
LINE
  5
290
100
AcDbEntity
  8
DRAFT
100
AcDbLine
 62
7
  6
CONTINUOUS
 10
-9.7426701237
 20
-14.3619494227
 11
-9.7426701237
 21
-15.8619494227
  0
LINE
  5
291
100
AcDbEntity
  8
DRAFT
100
AcDbLine
 62
7
  6
CONTINUOUS
 10
-9.7244233201
 20
-13.8619494227
 11
-9.7244233201
 21
-14.1717898543
  0
LINE
  5
292
100
AcDbEntity
  8
DRAFT
100
AcDbLine
 62
7
  6
CONTINUOUS
 10
-9.7244233201
 20
-16.052108991
 11
-9.7244233201
 21
-16.3619494227
  0
LINE
  5
293
100
AcDbEntity
  8
DRAFT
100
AcDbLine
 62
7
  6
CONTINUOUS
 10
-9.7244233201
 20
13.9380505773
 11
-9.7244233201
 21
14.247891009
  0
LINE
  5
294
100
AcDbEntity
  8
DRAFT
100
AcDbLine
 62
7
  6
CONTINUOUS
 10
-9.7244233201
 20
16.1282101457
 11
-9.7244233201
 21
16.4380505773
  0
LINE
  5
295
100
AcDbEntity
  8
DRAFT
100
AcDbLine
 62
7
  6
CONTINUOUS
 10
-9.5426701237
 20
16.0880505773
 11
-9.5426701237
 21
14.2880505773
  0
LINE
  5
296
100
AcDbEntity
  8
DRAFT
100
AcDbLine
 62
7
  6
CONTINUOUS
 10
-9.5426701237
 20
-14.2119494227
 11
-9.5426701237
 21
-16.0119494227
  0
LINE
  5
297
100
AcDbEntity
  8
ASSI
100
AcDbLine
 62
7
  6
CONTINUOUS
 10
-1.5426701237
 20
11.5380505773
 11
-1.5479066432
 21
11.5328140578
  0
LINE
  5
298
100
AcDbEntity
  8
ASSI
100
AcDbLine
 62
253
  6
CONTINUOUS
 10
-0.1057604254
 20
-9.966350935
 11
-1.279579822
 21
-9.966350935
  0
LINE
  5
299
100
AcDbEntity
  8
ASSI
100
AcDbLine
 62
7
  6
CONTINUOUS
 10
-5.2426701237
 20
-9.7119494227
 11
-4.7426701237
 21
-9.7119494227
  0
LINE
  5
29A
100
AcDbEntity
  8
ASSI
100
AcDbLine
 62
7
  6
CONTINUOUS
 10
-2.6593368699
 20
-9.7119494227
 11
-1.9093368699
 21
-9.7119494227
  0
LINE
  5
29B
100
AcDbEntity
  8
ASSI
100
AcDbLine
 62
253
  6
CONTINUOUS
 10
-0.0971097129
 20
-8.9663890119
 11
-1.2882305345
 21
-8.9663890119
  0
LINE
  5
29C
100
AcDbEntity
  8
ASSI
100
AcDbLine
 62
7
  6
CONTINUOUS
 10
-0.0926701237
 20
-8.9619494227
 11
-1.2926701237
 21
-8.9619494227
  0
LINE
  5
29D
100
AcDbEntity
  8
ASSI
100
AcDbLine
 62
253
  6
CONTINUOUS
 10
0.6573298763
 20
-14.1118923073
 11
0.6398761407
 21
-14.0944385717
  0
LINE
  5
29E
100
AcDbEntity
  8
ASSI
100
AcDbLine
 62
7
  6
CONTINUOUS
 10
-1.5426701237
 20
-11.4619494227
 11
-1.5479066432
 21
-11.4567129032
  0
LINE
  5
29F
100
AcDbEntity
  8
ASSI
100
AcDbLine
 62
7
  6
CONTINUOUS
 10
-1.2926701237
 20
-11.6119494227
 11
-1.279579822
 21
-11.6250397244
  0
LINE
  5
2A0
100
AcDbEntity
  8
DRAFT
100
AcDbLine
 62
253
  6
CONTINUOUS
 10
-8.7426701237
 20
17.4240875889
 11
-8.7426701237
 21
17.0676758603
  0
LINE
  5
2A1
100
AcDbEntity
  8
DRAFT
100
AcDbLine
 62
253
  6
CONTINUOUS
 10
-8.7426701237
 20
-12.8759124111
 11
-8.7426701237
 21
-13.2323241397
  0
LINE
  5
2A2
100
AcDbEntity
  8
DRAFT
100
AcDbLine
 62
253
  6
CONTINUOUS
 10
-8.7426701237
 20
-17.3479864342
 11
-8.7426701237
 21
-16.9915747056
  0
LINE
  5
2A3
100
AcDbEntity
  8
DRAFT
100
AcDbLine
 62
253
  6
CONTINUOUS
 10
-8.7426701237
 20
12.9520135658
 11
-8.7426701237
 21
13.3084252944
  0
LINE
  5
2A4
100
AcDbEntity
  8
0
100
AcDbLine
 62
7
  6
CONTINUOUS
 10
-7.8426701237
 20
21.7204400569
 11
-7.8426701237
 21
21.5179787814
  0
LINE
  5
2A5
100
AcDbEntity
  8
ASSI
100
AcDbLine
 62
7
  6
CONTINUOUS
 10
-7.8426701237
 20
-21.4418776268
 11
-7.8426701237
 21
-21.6443389022
  0
LINE
  5
2A6
100
AcDbEntity
  8
ASSI
100
AcDbLine
 62
253
  6
CONTINUOUS
 10
2.1572727609
 20
-12.6119494227
 11
2.1398190253
 21
-12.5944956871
  0
LINE
  5
2A7
100
AcDbEntity
  8
ASSI
100
AcDbLine
 62
7
  6
CONTINUOUS
 10
-1.2926701237
 20
-8.9619494227
 11
-1.2882305345
 21
-8.9663890119
  0
LINE
  5
2A8
100
AcDbEntity
  8
ASSI
100
AcDbLine
 62
7
  6
CONTINUOUS
 10
-4.7426701237
 20
-6.2225876597
 11
-2.6593368699
 21
-9.7119494227
  0
LINE
  5
2A9
100
AcDbEntity
  8
RACCORDO
100
AcDbLine
 62
7
  6
CONTINUOUS
 10
-6.1095418302
 20
22.5380505773
 11
-6.1095418302
 21
21.860757037
  0
LINE
  5
2AA
100
AcDbEntity
  8
ASSI
100
AcDbLine
 62
7
  6
CONTINUOUS
 10
-6.1095418302
 20
22.5380505773
 11
-6.1095418302
 21
21.860757037
  0
LINE
  5
2AB
100
AcDbEntity
  8
RACCORDO
100
AcDbLine
 62
7
  6
CONTINUOUS
 10
-6.1095418302
 20
-22.4619494227
 11
-6.1095418302
 21
-21.7846558824
  0
LINE
  5
2AC
100
AcDbEntity
  8
ASSI
100
AcDbLine
 62
7
  6
CONTINUOUS
 10
-6.1095418302
 20
-22.4619494227
 11
-6.1095418302
 21
-21.7846558824
  0
LINE
  5
2AD
100
AcDbEntity
  8
SMUSSO
100
AcDbLine
 62
7
  6
CONTINUOUS
 10
-6.0926701237
 20
23.956022609
 11
-6.0926701237
 21
22.1533085196
  0
LINE
  5
2AE
100
AcDbEntity
  8
SMUSSO
100
AcDbLine
 62
7
  6
CONTINUOUS
 10
-6.0926701237
 20
-23.8799214544
 11
-6.0926701237
 21
-22.077207365
  0
LINE
  5
2AF
100
AcDbEntity
  8
SMUSSO
100
AcDbLine
 62
7
  6
CONTINUOUS
 10
-6.0926701237
 20
-23.8799214544
 11
-6.0926701237
 21
-24.1096383886
  0
LINE
  5
2B0
100
AcDbEntity
  8
0
100
AcDbLine
 62
7
  6
CONTINUOUS
 10
-6.0926701237
 20
-24.1096383886
 11
-6.0926701237
 21
-25.0759283132
  0
LINE
  5
2B1
100
AcDbEntity
  8
SMUSSO
100
AcDbLine
 62
7
  6
CONTINUOUS
 10
-6.0926701237
 20
23.956022609
 11
-6.0926701237
 21
24.1857395432
  0
LINE
  5
2B2
100
AcDbEntity
  8
0
100
AcDbLine
 62
7
  6
CONTINUOUS
 10
-6.0926701237
 20
24.1857395432
 11
-6.0926701237
 21
25.1520294679
  0
LINE
  5
2B3
100
AcDbEntity
  8
RACCORDO
100
AcDbLine
 62
7
  6
CONTINUOUS
 10
-5.5426701237
 20
20.7436223974
 11
-5.5426701237
 21
17.4380505773
  0
LINE
  5
2B4
100
AcDbEntity
  8
DRAFT
100
AcDbLine
 62
7
  6
CONTINUOUS
 10
-5.5426701237
 20
20.7967393667
 11
-5.5426701237
 21
17.0880505773
  0
LINE
  5
2B5
100
AcDbEntity
  8
DRAFT
100
AcDbLine
 62
7
  6
CONTINUOUS
 10
-5.5426701237
 20
13.2880505773
 11
-5.5426701237
 21
1.9380505773
  0
LINE
  5
2B6
100
AcDbEntity
  8
DRAFT
100
AcDbLine
 62
7
  6
CONTINUOUS
 10
-5.5426701237
 20
1.1380505773
 11
-5.5426701237
 21
-11.6119494227
  0
LINE
  5
2B7
100
AcDbEntity
  8
DRAFT
100
AcDbLine
 62
7
  6
CONTINUOUS
 10
-5.5426701237
 20
-12.6119494227
 11
-5.5426701237
 21
-13.2119494227
  0
LINE
  5
2B8
100
AcDbEntity
  8
DRAFT
100
AcDbLine
 62
7
  6
CONTINUOUS
 10
-5.5426701237
 20
-17.0119494227
 11
-5.5426701237
 21
-17.6119494227
  0
LINE
  5
2B9
100
AcDbEntity
  8
RACCORDO
100
AcDbLine
 62
7
  6
CONTINUOUS
 10
-5.5426701237
 20
-18.6119494227
 11
-5.5426701237
 21
-20.6674277104
  0
LINE
  5
2BA
100
AcDbEntity
  8
ASSI
100
AcDbLine
 62
7
  6
CONTINUOUS
 10
-5.5426701237
 20
-21.7206762905
 11
-5.5426701237
 21
-17.6119494227
  0
LINE
  5
2BB
100
AcDbEntity
  8
ASSI
100
AcDbLine
 62
7
  6
CONTINUOUS
 10
-5.5426701237
 20
-12.6119494227
 11
-5.5426701237
 21
-11.4619494227
  0
LINE
  5
2BC
100
AcDbEntity
  8
ASSI
100
AcDbLine
 62
7
  6
CONTINUOUS
 10
-5.5426701237
 20
-3.9619494227
 11
-5.5426701237
 21
0.1380505773
  0
LINE
  5
2BD
100
AcDbEntity
  8
ASSI
100
AcDbLine
 62
7
  6
CONTINUOUS
 10
-5.5426701237
 20
0.9380505773
 11
-5.5426701237
 21
4.0380505773
  0
LINE
  5
2BE
100
AcDbEntity
  8
ASSI
100
AcDbLine
 62
7
  6
CONTINUOUS
 10
-5.5426701237
 20
20.7967393667
 11
-5.5426701237
 21
21.7967012898
  0
LINE
  5
2BF
100
AcDbEntity
  8
0
100
AcDbLine
 62
7
  6
CONTINUOUS
 10
5.3573298763
 20
13.6380505773
 11
5.1573298763
 21
13.4380505773
  0
LINE
  5
2C0
100
AcDbEntity
  8
ASSI
100
AcDbLine
 62
7
  6
CONTINUOUS
 10
-1.9093368699
 20
-5.7119494227
 11
-2.4093368699
 21
-5.7119494227
  0
LINE
  5
2C1
100
AcDbEntity
  8
ASSI
100
AcDbLine
 62
7
  6
CONTINUOUS
 10
-4.4926701237
 20
-5.7119494227
 11
-5.2426701237
 21
-5.7119494227
  0
LINE
  5
2C2
100
AcDbEntity
  8
0
100
AcDbLine
 62
7
  6
CONTINUOUS
 10
4.8573298763
 20
-13.5119494227
 11
5.3573298763
 21
-14.0119494227
  0
LINE
  5
2C3
100
AcDbEntity
  8
ASSI
100
AcDbLine
 62
7
  6
CONTINUOUS
 10
-2.4093368699
 20
-9.1162047532
 11
-4.4926701237
 21
-5.7119494227
  0
LINE
  5
2C4
100
AcDbEntity
  8
ASSI
100
AcDbLine
 62
7
  6
CONTINUOUS
 10
-5.2426701237
 20
9.7880505773
 11
-5.2426701237
 21
5.7880505773
  0
LINE
  5
2C5
100
AcDbEntity
  8
ASSI
100
AcDbLine
 62
7
  6
CONTINUOUS
 10
-5.2426701237
 20
-5.7119494227
 11
-5.2426701237
 21
-9.7119494227
  0
LINE
  5
2C6
100
AcDbEntity
  8
ASSI
100
AcDbLine
 62
7
  6
CONTINUOUS
 10
-4.7426701237
 20
-9.7119494227
 11
-4.7426701237
 21
-6.2225876597
  0
LINE
  5
2C7
100
AcDbEntity
  8
ASSI
100
AcDbLine
 62
7
  6
CONTINUOUS
 10
-4.7426701237
 20
5.7880505773
 11
-4.7426701237
 21
9.2774123403
  0
LINE
  5
2C8
100
AcDbEntity
  8
0
100
AcDbLine
 62
7
  6
CONTINUOUS
 10
6.2906631957
 20
6.2944334957
 11
6.1156631957
 21
6.2348590347
  0
LINE
  5
2C9
100
AcDbEntity
  8
ASSI
100
AcDbLine
 62
7
  6
CONTINUOUS
 10
6.2906631957
 20
6.2944334957
 11
6.1156631957
 21
6.2348590347
  0
LINE
  5
2CA
100
AcDbEntity
  8
0
100
AcDbLine
 62
7
  6
CONTINUOUS
 10
6.1156631957
 20
5.9965611908
 11
6.2906631957
 21
6.0561356517
  0
LINE
  5
2CB
100
AcDbEntity
  8
ASSI
100
AcDbLine
 62
7
  6
CONTINUOUS
 10
6.1156631957
 20
5.9965611908
 11
6.2906631957
 21
6.0561356517
  0
LINE
  5
2CC
100
AcDbEntity
  8
0
100
AcDbLine
 62
7
  6
CONTINUOUS
 10
7.2239965986
 20
6.2944334957
 11
7.0489965151
 21
6.2348590347
  0
LINE
  5
2CD
100
AcDbEntity
  8
ASSI
100
AcDbLine
 62
7
  6
CONTINUOUS
 10
7.2239965986
 20
6.2944334957
 11
7.0489965151
 21
6.2348590347
  0
LINE
  5
2CE
100
AcDbEntity
  8
RACCORDO
100
AcDbLine
 62
7
  6
CONTINUOUS
 10
-11.1171050089
 20
-4.1596841948
 11
-11.100294106
 21
-4.1596841948
  0
LINE
  5
2CF
100
AcDbEntity
  8
RACCORDO
100
AcDbLine
 62
7
  6
CONTINUOUS
 10
10.9149538586
 20
-4.1596841948
 11
10.9317647615
 21
-4.1596841948
  0
LINE
  5
2D0
100
AcDbEntity
  8
ASSI
100
AcDbLine
 62
7
  6
CONTINUOUS
 10
-1.5479066432
 20
-3.9671859422
 11
-5.5426701237
 21
-3.9671859422
  0
LINE
  5
2D1
100
AcDbEntity
  8
ASSI
100
AcDbLine
 62
7
  6
CONTINUOUS
 10
-5.5426701237
 20
-3.9619494227
 11
-1.5426701237
 21
-3.9619494227
  0
LINE
  5
2D2
100
AcDbEntity
  8
RACCORDO
100
AcDbLine
 62
7
  6
CONTINUOUS
 10
-3.0926701237
 20
-21.7206762905
 11
-3.0926701237
 21
-21.911675656
  0
LINE
  5
2D3
100
AcDbEntity
  8
ASSI
100
AcDbLine
 62
7
  6
CONTINUOUS
 10
-3.0926701237
 20
-21.7206762905
 11
-3.0926701237
 21
-21.911675656
  0
LINE
  5
2D4
100
AcDbEntity
  8
RACCORDO
100
AcDbLine
 62
7
  6
CONTINUOUS
 10
-3.0926701237
 20
21.7967774451
 11
-3.0926701237
 21
21.9877768107
  0
LINE
  5
2D5
100
AcDbEntity
  8
ASSI
100
AcDbLine
 62
7
  6
CONTINUOUS
 10
-3.0926701237
 20
21.7967774451
 11
-3.0926701237
 21
21.9877768107
  0
LINE
  5
2D6
100
AcDbEntity
  8
0
100
AcDbLine
 62
7
  6
CONTINUOUS
 10
-2.9926701237
 20
-21.7206762905
 11
-2.9926701237
 21
-21.8426601878
  0
LINE
  5
2D7
100
AcDbEntity
  8
RACCORDO
100
AcDbLine
 62
7
  6
CONTINUOUS
 10
-2.9926701237
 20
-21.8426601878
 11
-2.9926701237
 21
-21.8620161433
  0
LINE
  5
2D8
100
AcDbEntity
  8
0
100
AcDbLine
 62
7
  6
CONTINUOUS
 10
-2.9926701237
 20
21.7967774451
 11
-2.9926701237
 21
21.9187613425
  0
LINE
  5
2D9
100
AcDbEntity
  8
RACCORDO
100
AcDbLine
 62
7
  6
CONTINUOUS
 10
-2.9926701237
 20
21.9187613425
 11
-2.9926701237
 21
21.938117298
  0
LINE
  5
2DA
100
AcDbEntity
  8
RACCORDO
100
AcDbLine
 62
7
  6
CONTINUOUS
 10
-2.5926701237
 20
-23.2364829928
 11
-2.5926701237
 21
-23.3672455809
  0
LINE
  5
2DB
100
AcDbEntity
  8
0
100
AcDbLine
 62
7
  6
CONTINUOUS
 10
-2.5926701237
 20
-23.3672455809
 11
-2.5926701237
 21
-23.580915988
  0
LINE
  5
2DC
100
AcDbEntity
  8
RACCORDO
100
AcDbLine
 62
7
  6
CONTINUOUS
 10
-2.5926701237
 20
23.3125841474
 11
-2.5926701237
 21
23.4433467355
  0
LINE
  5
2DD
100
AcDbEntity
  8
0
100
AcDbLine
 62
7
  6
CONTINUOUS
 10
-2.5926701237
 20
23.4433467355
 11
-2.5926701237
 21
23.6570171426
  0
LINE
  5
2DE
100
AcDbEntity
  8
ASSI
100
AcDbLine
 62
7
  6
CONTINUOUS
 10
-2.4093368699
 20
9.7880505773
 11
-2.4093368699
 21
6.3837952468
  0
LINE
  5
2DF
100
AcDbEntity
  8
ASSI
100
AcDbLine
 62
7
  6
CONTINUOUS
 10
-2.4093368699
 20
-5.7119494227
 11
-2.4093368699
 21
-9.1162047532
  0
LINE
  5
2E0
100
AcDbEntity
  8
RACCORDO
100
AcDbLine
 62
253
  6
CONTINUOUS
 10
-2.2926701237
 20
23.4269420553
 11
-2.2926701237
 21
23.213265122
  0
LINE
  5
2E1
100
AcDbEntity
  8
RACCORDO
100
AcDbLine
 62
253
  6
CONTINUOUS
 10
-2.2926701237
 20
-23.3508409006
 11
-2.2926701237
 21
-23.1371639674
  0
LINE
  5
2E2
100
AcDbEntity
  8
ASSI
100
AcDbLine
 62
7
  6
CONTINUOUS
 10
-1.9093368699
 20
-9.7119494227
 11
-1.9093368699
 21
-5.7119494227
  0
LINE
  5
2E3
100
AcDbEntity
  8
ASSI
100
AcDbLine
 62
7
  6
CONTINUOUS
 10
-1.9093368699
 20
5.7880505773
 11
-1.9093368699
 21
9.7880505773
  0
LINE
  5
2E4
100
AcDbEntity
  8
ASSI
100
AcDbLine
 62
7
  6
CONTINUOUS
 10
-0.0926701237
 20
4.0380505773
 11
-0.0874336042
 21
4.0432870968
  0
LINE
  5
2E5
100
AcDbEntity
  8
ASSI
100
AcDbLine
 62
7
  6
CONTINUOUS
 10
3.6273298763
 20
6.1880505773
 11
3.3573298763
 21
5.9199655029
  0
LINE
  5
2E6
100
AcDbEntity
  8
0
100
AcDbLine
 62
7
  6
CONTINUOUS
 10
7.0489965151
 20
5.9965611908
 11
7.165663154
 21
6.0561356517
  0
LINE
  5
2E7
100
AcDbEntity
  8
ASSI
100
AcDbLine
 62
7
  6
CONTINUOUS
 10
7.0489965151
 20
5.9965611908
 11
7.165663154
 21
6.0561356517
  0
LINE
  5
2E8
100
AcDbEntity
  8
0
100
AcDbLine
 62
7
  6
CONTINUOUS
 10
8.9156633209
 20
6.2944334957
 11
8.7406633209
 21
6.2348590347
  0
LINE
  5
2E9
100
AcDbEntity
  8
ASSI
100
AcDbLine
 62
7
  6
CONTINUOUS
 10
8.9156633209
 20
6.2944334957
 11
8.7406633209
 21
6.2348590347
  0
LINE
  5
2EA
100
AcDbEntity
  8
0
100
AcDbLine
 62
7
  6
CONTINUOUS
 10
8.7406633209
 20
5.9965611908
 11
8.9156633209
 21
6.0561356517
  0
LINE
  5
2EB
100
AcDbEntity
  8
ASSI
100
AcDbLine
 62
7
  6
CONTINUOUS
 10
8.7406633209
 20
5.9965611908
 11
8.9156633209
 21
6.0561356517
  0
LINE
  5
2EC
100
AcDbEntity
  8
0
100
AcDbLine
 62
7
  6
CONTINUOUS
 10
9.8489964317
 20
6.2944334957
 11
9.6739964317
 21
6.2348590347
  0
LINE
  5
2ED
100
AcDbEntity
  8
ASSI
100
AcDbLine
 62
7
  6
CONTINUOUS
 10
9.8489964317
 20
6.2944334957
 11
9.6739964317
 21
6.2348590347
  0
LINE
  5
2EE
100
AcDbEntity
  8
ASSI
100
AcDbLine
 62
7
  6
CONTINUOUS
 10
-0.1057604254
 20
14.2361267887
 11
-0.0926701237
 21
11.6380505773
  0
LINE
  5
2EF
100
AcDbEntity
  8
ASSI
100
AcDbLine
 62
7
  6
CONTINUOUS
 10
-1.5479066432
 20
-11.4567129032
 11
-1.5479066432
 21
-3.9671859422
  0
LINE
  5
2F0
100
AcDbEntity
  8
ASSI
100
AcDbLine
 62
7
  6
CONTINUOUS
 10
-1.5479066432
 20
4.0432870968
 11
-1.5479066432
 21
11.5328140578
  0
LINE
  5
2F1
100
AcDbEntity
  8
ASSI
100
AcDbLine
 62
7
  6
CONTINUOUS
 10
-1.5426701237
 20
-11.4619494227
 11
-1.5426701237
 21
-3.9619494227
  0
LINE
  5
2F2
100
AcDbEntity
  8
ASSI
100
AcDbLine
 62
7
  6
CONTINUOUS
 10
-1.5426701237
 20
4.0380505773
 11
-1.5426701237
 21
11.5380505773
  0
LINE
  5
2F3
100
AcDbEntity
  8
ASSI
100
AcDbLine
 62
7
  6
CONTINUOUS
 10
-1.2926701237
 20
20.7967393667
 11
-1.2926701237
 21
11.6380505773
  0
LINE
  5
2F4
100
AcDbEntity
  8
ASSI
100
AcDbLine
 62
7
  6
CONTINUOUS
 10
-1.2926701237
 20
-8.9619494227
 11
-1.2926701237
 21
-11.6119494227
  0
LINE
  5
2F5
100
AcDbEntity
  8
ASSI
100
AcDbLine
 62
7
  6
CONTINUOUS
 10
-1.279579822
 20
19.7923378544
 11
-1.279579822
 21
14.2361267887
  0
LINE
  5
2F6
100
AcDbEntity
  8
ASSI
100
AcDbLine
 62
7
  6
CONTINUOUS
 10
-1.279579822
 20
-11.6250397244
 11
-1.279579822
 21
-9.966350935
  0
LINE
  5
2F7
100
AcDbEntity
  8
ASSI
100
AcDbLine
 62
7
  6
CONTINUOUS
 10
-0.8426701237
 20
-14.1118923073
 11
-0.8426701237
 21
-16.1120065381
  0
LINE
  5
2F8
100
AcDbEntity
  8
ASSI
100
AcDbLine
 62
7
  6
CONTINUOUS
 10
-0.8252163881
 20
-14.0944385717
 11
-0.8252163881
 21
-16.1294602737
  0
LINE
  5
2F9
100
AcDbEntity
  8
ASSI
100
AcDbLine
 62
7
  6
CONTINUOUS
 10
-0.1057604254
 20
19.7923378544
 11
-0.1057604254
 21
14.2361267887
  0
LINE
  5
2FA
100
AcDbEntity
  8
ASSI
100
AcDbLine
 62
7
  6
CONTINUOUS
 10
-0.1057604254
 20
-9.966350935
 11
-0.1057604254
 21
-11.6250397244
  0
LINE
  5
2FB
100
AcDbEntity
  8
ASSI
100
AcDbLine
 62
7
  6
CONTINUOUS
 10
-0.0926701237
 20
20.7967393667
 11
-0.0926701237
 21
11.6380505773
  0
LINE
  5
2FC
100
AcDbEntity
  8
ASSI
100
AcDbLine
 62
7
  6
CONTINUOUS
 10
-0.0926701237
 20
6.5380505773
 11
-0.0926701237
 21
4.0380505773
  0
LINE
  5
2FD
100
AcDbEntity
  8
ASSI
100
AcDbLine
 62
7
  6
CONTINUOUS
 10
-0.0926701237
 20
-8.9619494227
 11
-0.0926701237
 21
-11.6119494227
  0
LINE
  5
2FE
100
AcDbEntity
  8
ASSI
100
AcDbLine
 62
7
  6
CONTINUOUS
 10
-0.0874336042
 20
6.5328140578
 11
-0.0874336042
 21
4.0432870968
  0
LINE
  5
2FF
100
AcDbEntity
  8
ASSI
100
AcDbLine
 62
7
  6
CONTINUOUS
 10
-1.279579822
 20
14.2361267887
 11
-1.2926701237
 21
11.6380505773
  0
LINE
  5
300
100
AcDbEntity
  8
0
100
AcDbLine
 62
7
  6
CONTINUOUS
 10
6.1156631957
 20
6.2348590347
 11
5.998996536
 21
6.1157101127
  0
LINE
  5
301
100
AcDbEntity
  8
ASSI
100
AcDbLine
 62
7
  6
CONTINUOUS
 10
6.1156631957
 20
6.2348590347
 11
5.998996536
 21
6.1157101127
  0
LINE
  5
302
100
AcDbEntity
  8
ASSI
100
AcDbLine
 62
7
  6
CONTINUOUS
 10
3.3573298763
 20
5.6135824534
 11
3.6273298763
 21
5.8816676351
  0
LINE
  5
303
100
AcDbEntity
  8
ASSI
100
AcDbLine
 62
7
  6
CONTINUOUS
 10
4.5273299192
 20
6.1880505773
 11
4.2573298548
 21
5.9199655029
  0
LINE
  5
304
100
AcDbEntity
  8
ASSI
100
AcDbLine
 62
7
  6
CONTINUOUS
 10
4.2573298548
 20
5.6135824534
 11
4.5273299192
 21
5.8816676351
  0
LINE
  5
305
100
AcDbEntity
  8
0
100
AcDbLine
 62
7
  6
CONTINUOUS
 10
9.6739964317
 20
5.9965611908
 11
9.7906633209
 21
6.0561356517
  0
LINE
  5
306
100
AcDbEntity
  8
ASSI
100
AcDbLine
 62
7
  6
CONTINUOUS
 10
9.6739964317
 20
5.9965611908
 11
9.7906633209
 21
6.0561356517
  0
LINE
  5
307
100
AcDbEntity
  8
ASSI
100
AcDbLine
 62
7
  6
CONTINUOUS
 10
0.6398761407
 20
-16.1294602737
 11
0.6398761407
 21
-14.0944385717
  0
LINE
  5
308
100
AcDbEntity
  8
ASSI
100
AcDbLine
 62
7
  6
CONTINUOUS
 10
0.6573298763
 20
-16.1120065381
 11
0.6573298763
 21
-14.1118923073
  0
LINE
  5
309
100
AcDbEntity
  8
ASSI
100
AcDbLine
 62
7
  6
CONTINUOUS
 10
1.1573298763
 20
-16.0811730163
 11
1.1573298763
 21
-14.1427258291
  0
LINE
  5
30A
100
AcDbEntity
  8
ASSI
100
AcDbLine
 62
7
  6
CONTINUOUS
 10
1.1573298763
 20
14.2188269837
 11
1.1573298763
 21
16.1572741709
  0
LINE
  5
30B
100
AcDbEntity
  8
0
100
AcDbLine
 62
7
  6
CONTINUOUS
 10
5.998996536
 20
5.8774122688
 11
6.1156631957
 21
5.9965611908
  0
LINE
  5
30C
100
AcDbEntity
  8
ASSI
100
AcDbLine
 62
7
  6
CONTINUOUS
 10
5.998996536
 20
5.8774122688
 11
6.1156631957
 21
5.9965611908
  0
LINE
  5
30D
100
AcDbEntity
  8
0
100
AcDbLine
 62
7
  6
CONTINUOUS
 10
7.0489965151
 20
6.2348590347
 11
6.8739965151
 21
6.0561356517
  0
LINE
  5
30E
100
AcDbEntity
  8
ASSI
100
AcDbLine
 62
7
  6
CONTINUOUS
 10
7.0489965151
 20
6.2348590347
 11
6.8739965151
 21
6.0561356517
  0
LINE
  5
30F
100
AcDbEntity
  8
0
100
AcDbLine
 62
7
  6
CONTINUOUS
 10
6.9906632374
 20
5.9369867298
 11
7.0489965151
 21
5.9965611908
  0
LINE
  5
310
100
AcDbEntity
  8
ASSI
100
AcDbLine
 62
7
  6
CONTINUOUS
 10
6.9906632374
 20
5.9369867298
 11
7.0489965151
 21
5.9965611908
  0
LINE
  5
311
100
AcDbEntity
  8
0
100
AcDbLine
 62
7
  6
CONTINUOUS
 10
8.7406633209
 20
6.2348590347
 11
8.6239964317
 21
6.1157101127
  0
LINE
  5
312
100
AcDbEntity
  8
ASSI
100
AcDbLine
 62
7
  6
CONTINUOUS
 10
8.7406633209
 20
6.2348590347
 11
8.6239964317
 21
6.1157101127
  0
LINE
  5
313
100
AcDbEntity
  8
ASSI
100
AcDbLine
 62
7
  6
CONTINUOUS
 10
-1.5426701237
 20
-3.9619494227
 11
-1.5479066432
 21
-3.9671859422
  0
LINE
  5
314
100
AcDbEntity
  8
DRAFT
100
AcDbLine
 62
7
  6
CONTINUOUS
 10
5.3573298763
 20
1.1380505773
 11
5.9573298763
 21
1.1380505773
  0
LINE
  5
315
100
AcDbEntity
  8
ASSI
100
AcDbLine
 62
7
  6
CONTINUOUS
 10
5.3573298763
 20
1.1380505773
 11
5.9573298763
 21
1.1380505773
  0
LINE
  5
316
100
AcDbEntity
  8
DRAFT
100
AcDbLine
 62
7
  6
CONTINUOUS
 10
-5.5426701237
 20
1.1380505773
 11
-6.1426701237
 21
1.1380505773
  0
LINE
  5
317
100
AcDbEntity
  8
DRAFT
100
AcDbLine
 62
7
  6
CONTINUOUS
 10
5.3573298763
 20
1.9380505773
 11
5.9573298763
 21
1.9380505773
  0
LINE
  5
318
100
AcDbEntity
  8
ASSI
100
AcDbLine
 62
7
  6
CONTINUOUS
 10
5.3573298763
 20
1.9380505773
 11
5.9573298763
 21
1.9380505773
  0
LINE
  5
319
100
AcDbEntity
  8
DRAFT
100
AcDbLine
 62
7
  6
CONTINUOUS
 10
-5.5426701237
 20
1.9380505773
 11
-6.1426701237
 21
1.9380505773
  0
LINE
  5
31A
100
AcDbEntity
  8
ASSI
100
AcDbLine
 62
7
  6
CONTINUOUS
 10
-1.5426701237
 20
4.0380505773
 11
-1.5479066432
 21
4.0432870968
  0
LINE
  5
31B
100
AcDbEntity
  8
ASSI
100
AcDbLine
 62
7
  6
CONTINUOUS
 10
-2.4093368699
 20
6.3837952468
 11
-4.4926701237
 21
9.7880505773
  0
LINE
  5
31C
100
AcDbEntity
  8
ASSI
100
AcDbLine
 62
7
  6
CONTINUOUS
 10
-4.7426701237
 20
9.2774123403
 11
-2.6593368699
 21
5.7880505773
  0
LINE
  5
31D
100
AcDbEntity
  8
RACCORDO
100
AcDbLine
 62
253
  6
CONTINUOUS
 10
2.1073298763
 20
23.4269420553
 11
2.1073298763
 21
23.213265122
  0
LINE
  5
31E
100
AcDbEntity
  8
RACCORDO
100
AcDbLine
 62
253
  6
CONTINUOUS
 10
2.1073298763
 20
-23.3508409006
 11
2.1073298763
 21
-23.1371639674
  0
LINE
  5
31F
100
AcDbEntity
  8
ASSI
100
AcDbLine
 62
253
  6
CONTINUOUS
 10
2.1573298763
 20
-17.1119494227
 11
2.1573298763
 21
-16.8619494227
  0
LINE
  5
320
100
AcDbEntity
  8
ASSI
100
AcDbLine
 62
253
  6
CONTINUOUS
 10
2.1573298763
 20
-13.3619494227
 11
2.1573298763
 21
-13.1119494227
  0
LINE
  5
321
100
AcDbEntity
  8
ASSI
100
AcDbLine
 62
253
  6
CONTINUOUS
 10
2.1573298763
 20
13.1880505773
 11
2.1573298763
 21
13.4380505773
  0
LINE
  5
322
100
AcDbEntity
  8
ASSI
100
AcDbLine
 62
253
  6
CONTINUOUS
 10
2.1573298763
 20
16.9380505773
 11
2.1573298763
 21
17.1880505773
  0
LINE
  5
323
100
AcDbEntity
  8
RACCORDO
100
AcDbLine
 62
7
  6
CONTINUOUS
 10
2.4073298763
 20
-23.2364829928
 11
2.4073298763
 21
-23.3672455809
  0
LINE
  5
324
100
AcDbEntity
  8
0
100
AcDbLine
 62
7
  6
CONTINUOUS
 10
2.4073298763
 20
-23.3672455809
 11
2.4073298763
 21
-23.580915988
  0
LINE
  5
325
100
AcDbEntity
  8
0
100
AcDbLine
 62
7
  6
CONTINUOUS
 10
2.4073298763
 20
23.4433467355
 11
2.4073298763
 21
23.6570171426
  0
LINE
  5
326
100
AcDbEntity
  8
RACCORDO
100
AcDbLine
 62
7
  6
CONTINUOUS
 10
2.4073298763
 20
23.3125841474
 11
2.4073298763
 21
23.4433467355
  0
LINE
  5
327
100
AcDbEntity
  8
0
100
AcDbLine
 62
7
  6
CONTINUOUS
 10
2.8073298763
 20
-21.7206762905
 11
2.8073298763
 21
-21.8426601878
  0
LINE
  5
328
100
AcDbEntity
  8
RACCORDO
100
AcDbLine
 62
7
  6
CONTINUOUS
 10
2.8073298763
 20
-21.8426601878
 11
2.8073298763
 21
-21.8620161433
  0
LINE
  5
329
100
AcDbEntity
  8
0
100
AcDbLine
 62
7
  6
CONTINUOUS
 10
2.8073298763
 20
21.7967774451
 11
2.8073298763
 21
21.9187613425
  0
LINE
  5
32A
100
AcDbEntity
  8
RACCORDO
100
AcDbLine
 62
7
  6
CONTINUOUS
 10
2.8073298763
 20
21.9187613425
 11
2.8073298763
 21
21.938117298
  0
LINE
  5
32B
100
AcDbEntity
  8
RACCORDO
100
AcDbLine
 62
7
  6
CONTINUOUS
 10
2.9073298763
 20
-21.7206762905
 11
2.9073298763
 21
-21.911675656
  0
LINE
  5
32C
100
AcDbEntity
  8
ASSI
100
AcDbLine
 62
7
  6
CONTINUOUS
 10
2.9073298763
 20
-21.7206762905
 11
2.9073298763
 21
-21.911675656
  0
LINE
  5
32D
100
AcDbEntity
  8
RACCORDO
100
AcDbLine
 62
7
  6
CONTINUOUS
 10
2.9073298763
 20
21.7967774451
 11
2.9073298763
 21
21.9877768107
  0
LINE
  5
32E
100
AcDbEntity
  8
ASSI
100
AcDbLine
 62
7
  6
CONTINUOUS
 10
2.9073298763
 20
21.7967774451
 11
2.9073298763
 21
21.9877768107
  0
LINE
  5
32F
100
AcDbEntity
  8
ASSI
100
AcDbLine
 62
7
  6
CONTINUOUS
 10
3.3573298763
 20
5.9199655029
 11
3.3573298763
 21
5.6135824534
  0
LINE
  5
330
100
AcDbEntity
  8
ASSI
100
AcDbLine
 62
7
  6
CONTINUOUS
 10
3.6273298763
 20
5.8816676351
 11
3.6273298763
 21
4.3880505773
  0
LINE
  5
331
100
AcDbEntity
  8
0
100
AcDbLine
 62
7
  6
CONTINUOUS
 10
6.9323298763
 20
5.8178378078
 11
6.9906632374
 21
5.9369867298
  0
LINE
  5
332
100
AcDbEntity
  8
ASSI
100
AcDbLine
 62
7
  6
CONTINUOUS
 10
6.9323298763
 20
5.8178378078
 11
6.9906632374
 21
5.9369867298
  0
LINE
  5
333
100
AcDbEntity
  8
0
100
AcDbLine
 62
7
  6
CONTINUOUS
 10
8.6239964317
 20
5.8774122688
 11
8.7406633209
 21
5.9965611908
  0
LINE
  5
334
100
AcDbEntity
  8
ASSI
100
AcDbLine
 62
7
  6
CONTINUOUS
 10
8.6239964317
 20
5.8774122688
 11
8.7406633209
 21
5.9965611908
  0
LINE
  5
335
100
AcDbEntity
  8
0
100
AcDbLine
 62
7
  6
CONTINUOUS
 10
9.6739964317
 20
6.2348590347
 11
9.4989964317
 21
6.0561356517
  0
LINE
  5
336
100
AcDbEntity
  8
ASSI
100
AcDbLine
 62
7
  6
CONTINUOUS
 10
9.6739964317
 20
6.2348590347
 11
9.4989964317
 21
6.0561356517
  0
LINE
  5
337
100
AcDbEntity
  8
0
100
AcDbLine
 62
7
  6
CONTINUOUS
 10
9.6156633209
 20
5.9369867298
 11
9.6739964317
 21
5.9965611908
  0
LINE
  5
338
100
AcDbEntity
  8
ASSI
100
AcDbLine
 62
7
  6
CONTINUOUS
 10
9.6156633209
 20
5.9369867298
 11
9.6739964317
 21
5.9965611908
  0
LINE
  5
339
100
AcDbEntity
  8
0
100
AcDbLine
 62
7
  6
CONTINUOUS
 10
3.8573298763
 20
16.9380505773
 11
3.8573298763
 21
13.4380505773
  0
LINE
  5
33A
100
AcDbEntity
  8
0
100
AcDbLine
 62
7
  6
CONTINUOUS
 10
3.8573298763
 20
-16.8619494227
 11
3.8573298763
 21
-13.5119494227
  0
LINE
  5
33B
100
AcDbEntity
  8
ASSI
100
AcDbLine
 62
7
  6
CONTINUOUS
 10
3.8973298763
 20
4.3880505773
 11
3.8973298763
 21
6.1880505773
  0
LINE
  5
33C
100
AcDbEntity
  8
0
100
AcDbLine
 62
7
  6
CONTINUOUS
 10
4.1638298763
 20
-13.5119494227
 11
4.1638298763
 21
-16.8619494227
  0
LINE
  5
33D
100
AcDbEntity
  8
0
100
AcDbLine
 62
7
  6
CONTINUOUS
 10
4.1638298763
 20
13.4380505773
 11
4.1638298763
 21
16.9380505773
  0
LINE
  5
33E
100
AcDbEntity
  8
ASSI
100
AcDbLine
 62
7
  6
CONTINUOUS
 10
4.2573298548
 20
5.9199655029
 11
4.2573298548
 21
5.6135824534
  0
LINE
  5
33F
100
AcDbEntity
  8
ASSI
100
AcDbLine
 62
7
  6
CONTINUOUS
 10
4.5273299192
 20
5.8816676351
 11
4.5273299192
 21
4.3880505773
  0
LINE
  5
340
100
AcDbEntity
  8
ASSI
100
AcDbLine
 62
7
  6
CONTINUOUS
 10
4.7973299192
 20
4.3880505773
 11
4.7973299192
 21
6.1880505773
  0
LINE
  5
341
100
AcDbEntity
  8
ASSI
100
AcDbLine
 62
7
  6
CONTINUOUS
 10
5.3573298763
 20
21.7967774451
 11
5.3573298763
 21
16.9380505773
  0
LINE
  5
342
100
AcDbEntity
  8
DRAFT
100
AcDbLine
 62
7
  6
CONTINUOUS
 10
5.3573298763
 20
17.1880505773
 11
5.3573298763
 21
16.9380505773
  0
LINE
  5
343
100
AcDbEntity
  8
DRAFT
100
AcDbLine
 62
7
  6
CONTINUOUS
 10
5.3573298763
 20
6.5328140578
 11
5.3573298763
 21
4.0432870968
  0
LINE
  5
344
100
AcDbEntity
  8
ASSI
100
AcDbLine
 62
7
  6
CONTINUOUS
 10
5.3573298763
 20
13.4380505773
 11
5.3573298763
 21
1.9380505773
  0
LINE
  5
345
100
AcDbEntity
  8
RACCORDO
100
AcDbLine
 62
7
  6
CONTINUOUS
 10
5.3573298763
 20
-20.5619874996
 11
5.3573298763
 21
-18.6319494227
  0
LINE
  5
346
100
AcDbEntity
  8
ASSI
100
AcDbLine
 62
7
  6
CONTINUOUS
 10
5.3573298763
 20
-21.7206001351
 11
5.3573298763
 21
-16.8619494227
  0
LINE
  5
347
100
AcDbEntity
  8
0
100
AcDbLine
 62
7
  6
CONTINUOUS
 10
5.3573298763
 20
-18.6319494227
 11
5.3573298763
 21
-17.6369494227
  0
LINE
  5
348
100
AcDbEntity
  8
DRAFT
100
AcDbLine
 62
7
  6
CONTINUOUS
 10
5.3573298763
 20
-17.6119494227
 11
5.3573298763
 21
-16.8619494227
  0
LINE
  5
349
100
AcDbEntity
  8
DRAFT
100
AcDbLine
 62
7
  6
CONTINUOUS
 10
5.3573298763
 20
-13.3619494227
 11
5.3573298763
 21
-12.6119494227
  0
LINE
  5
34A
100
AcDbEntity
  8
0
100
AcDbLine
 62
7
  6
CONTINUOUS
 10
5.3573298763
 20
-12.5869494227
 11
5.3573298763
 21
-11.5919494227
  0
LINE
  5
34B
100
AcDbEntity
  8
ASSI
100
AcDbLine
 62
7
  6
CONTINUOUS
 10
5.3573298763
 20
-13.3619494227
 11
5.3573298763
 21
1.1380505773
  0
LINE
  5
34C
100
AcDbEntity
  8
DRAFT
100
AcDbLine
 62
7
  6
CONTINUOUS
 10
5.3573298763
 20
-11.5919494227
 11
5.3573298763
 21
1.1380505773
  0
LINE
  5
34D
100
AcDbEntity
  8
DRAFT
100
AcDbLine
 62
7
  6
CONTINUOUS
 10
5.3573298763
 20
1.9380505773
 11
5.3573298763
 21
4.0380505773
  0
LINE
  5
34E
100
AcDbEntity
  8
DRAFT
100
AcDbLine
 62
7
  6
CONTINUOUS
 10
5.3573298763
 20
6.5380505773
 11
5.3573298763
 21
13.4380505773
  0
LINE
  5
34F
100
AcDbEntity
  8
RACCORDO
100
AcDbLine
 62
7
  6
CONTINUOUS
 10
5.3573298763
 20
17.1880505773
 11
5.3573298763
 21
20.6380886543
  0
LINE
  5
350
100
AcDbEntity
  8
ASSI
100
AcDbLine
 62
7
  6
CONTINUOUS
 10
-5.5426701237
 20
4.0380505773
 11
-1.5426701237
 21
4.0380505773
  0
LINE
  5
351
100
AcDbEntity
  8
ASSI
100
AcDbLine
 62
7
  6
CONTINUOUS
 10
5.3573298763
 20
4.0380505773
 11
-0.0926701237
 21
4.0380505773
  0
LINE
  5
352
100
AcDbEntity
  8
ASSI
100
AcDbLine
 62
7
  6
CONTINUOUS
 10
-5.5426701237
 20
4.0432870968
 11
-1.5479066432
 21
4.0432870968
  0
LINE
  5
353
100
AcDbEntity
  8
ASSI
100
AcDbLine
 62
7
  6
CONTINUOUS
 10
-0.0874336042
 20
4.0432870968
 11
5.3573298763
 21
4.0432870968
  0
LINE
  5
354
100
AcDbEntity
  8
RACCORDO
100
AcDbLine
 62
7
  6
CONTINUOUS
 10
-11.1171050089
 20
4.2357853494
 11
-11.100294106
 21
4.2357853494
  0
LINE
  5
355
100
AcDbEntity
  8
RACCORDO
100
AcDbLine
 62
7
  6
CONTINUOUS
 10
10.9149538586
 20
4.2357853494
 11
10.9317647615
 21
4.2357853494
  0
LINE
  5
356
100
AcDbEntity
  8
ASSI
100
AcDbLine
 62
7
  6
CONTINUOUS
 10
3.6273298763
 20
4.3880505773
 11
3.8973298763
 21
4.3880505773
  0
LINE
  5
357
100
AcDbEntity
  8
ASSI
100
AcDbLine
 62
7
  6
CONTINUOUS
 10
4.5273299192
 20
4.3880505773
 11
4.7973299192
 21
4.3880505773
  0
LINE
  5
358
100
AcDbEntity
  8
0
100
AcDbLine
 62
7
  6
CONTINUOUS
 10
5.7073298763
 20
4.3880505773
 11
5.998996536
 21
4.3880505773
  0
LINE
  5
359
100
AcDbEntity
  8
ASSI
100
AcDbLine
 62
7
  6
CONTINUOUS
 10
5.7073298763
 20
4.3880505773
 11
5.998996536
 21
4.3880505773
  0
LINE
  5
35A
100
AcDbEntity
  8
0
100
AcDbLine
 62
7
  6
CONTINUOUS
 10
6.6406632374
 20
4.3880505773
 11
6.9323298763
 21
4.3880505773
  0
LINE
  5
35B
100
AcDbEntity
  8
ASSI
100
AcDbLine
 62
7
  6
CONTINUOUS
 10
6.6406632374
 20
4.3880505773
 11
6.9323298763
 21
4.3880505773
  0
LINE
  5
35C
100
AcDbEntity
  8
0
100
AcDbLine
 62
7
  6
CONTINUOUS
 10
7.5739965986
 20
4.3880505773
 11
7.865663154
 21
4.3880505773
  0
LINE
  5
35D
100
AcDbEntity
  8
ASSI
100
AcDbLine
 62
7
  6
CONTINUOUS
 10
7.5739965986
 20
4.3880505773
 11
7.865663154
 21
4.3880505773
  0
LINE
  5
35E
100
AcDbEntity
  8
0
100
AcDbLine
 62
7
  6
CONTINUOUS
 10
8.3323298763
 20
4.3880505773
 11
8.6239964317
 21
4.3880505773
  0
LINE
  5
35F
100
AcDbEntity
  8
ASSI
100
AcDbLine
 62
7
  6
CONTINUOUS
 10
8.3323298763
 20
4.3880505773
 11
8.6239964317
 21
4.3880505773
  0
LINE
  5
360
100
AcDbEntity
  8
0
100
AcDbLine
 62
7
  6
CONTINUOUS
 10
9.2656633209
 20
4.3880505773
 11
9.5573298763
 21
4.3880505773
  0
LINE
  5
361
100
AcDbEntity
  8
ASSI
100
AcDbLine
 62
7
  6
CONTINUOUS
 10
9.2656633209
 20
4.3880505773
 11
9.5573298763
 21
4.3880505773
  0
LINE
  5
362
100
AcDbEntity
  8
0
100
AcDbLine
 62
7
  6
CONTINUOUS
 10
10.1989964317
 20
4.3880505773
 11
10.4906633209
 21
4.3880505773
  0
LINE
  5
363
100
AcDbEntity
  8
ASSI
100
AcDbLine
 62
7
  6
CONTINUOUS
 10
10.1989964317
 20
4.3880505773
 11
10.4906633209
 21
4.3880505773
  0
LINE
  5
364
100
AcDbEntity
  8
DRAFT
100
AcDbLine
 62
7
  6
CONTINUOUS
 10
10.7573298763
 20
3.9909254912
 11
5.3573298763
 21
4.0380505773
  0
LINE
  5
365
100
AcDbEntity
  8
ASSI
100
AcDbLine
 62
7
  6
CONTINUOUS
 10
10.7573298763
 20
3.9909254912
 11
5.3573298763
 21
4.0380505773
  0
LINE
  5
366
100
AcDbEntity
  8
ASSI
100
AcDbLine
 62
7
  6
CONTINUOUS
 10
-0.0926701237
 20
6.5380505773
 11
-0.0874336042
 21
6.5328140578
  0
LINE
  5
367
100
AcDbEntity
  8
0
100
AcDbLine
 62
7
  6
CONTINUOUS
 10
5.7073298763
 20
6.2944334957
 11
5.7073298763
 21
4.3880505773
  0
LINE
  5
368
100
AcDbEntity
  8
ASSI
100
AcDbLine
 62
7
  6
CONTINUOUS
 10
5.7073298763
 20
6.2944334957
 11
5.7073298763
 21
4.3880505773
  0
LINE
  5
369
100
AcDbEntity
  8
SMUSSO
100
AcDbLine
 62
7
  6
CONTINUOUS
 10
5.9073298763
 20
23.956022609
 11
5.9073298763
 21
22.1533085196
  0
LINE
  5
36A
100
AcDbEntity
  8
SMUSSO
100
AcDbLine
 62
7
  6
CONTINUOUS
 10
5.9073298763
 20
-23.8799214544
 11
5.9073298763
 21
-22.077207365
  0
LINE
  5
36B
100
AcDbEntity
  8
SMUSSO
100
AcDbLine
 62
7
  6
CONTINUOUS
 10
5.9073298763
 20
-23.8799214544
 11
5.9073298763
 21
-24.1096383886
  0
LINE
  5
36C
100
AcDbEntity
  8
0
100
AcDbLine
 62
7
  6
CONTINUOUS
 10
5.9073298763
 20
-24.1096383886
 11
5.9073298763
 21
-25.0759283132
  0
LINE
  5
36D
100
AcDbEntity
  8
SMUSSO
100
AcDbLine
 62
7
  6
CONTINUOUS
 10
5.9073298763
 20
23.956022609
 11
5.9073298763
 21
24.1857395432
  0
LINE
  5
36E
100
AcDbEntity
  8
0
100
AcDbLine
 62
7
  6
CONTINUOUS
 10
5.9073298763
 20
24.1857395432
 11
5.9073298763
 21
25.1520294679
  0
LINE
  5
36F
100
AcDbEntity
  8
RACCORDO
100
AcDbLine
 62
7
  6
CONTINUOUS
 10
5.9242015827
 20
22.5380505773
 11
5.9242015827
 21
21.860757037
  0
LINE
  5
370
100
AcDbEntity
  8
ASSI
100
AcDbLine
 62
7
  6
CONTINUOUS
 10
5.9242015827
 20
22.5380505773
 11
5.9242015827
 21
21.860757037
  0
LINE
  5
371
100
AcDbEntity
  8
RACCORDO
100
AcDbLine
 62
7
  6
CONTINUOUS
 10
5.9242015827
 20
-22.4619494227
 11
5.9242015827
 21
-21.7846558824
  0
LINE
  5
372
100
AcDbEntity
  8
ASSI
100
AcDbLine
 62
7
  6
CONTINUOUS
 10
5.9242015827
 20
-22.4619494227
 11
5.9242015827
 21
-21.7846558824
  0
LINE
  5
373
100
AcDbEntity
  8
0
100
AcDbLine
 62
7
  6
CONTINUOUS
 10
5.998996536
 20
4.3880505773
 11
5.998996536
 21
5.8774122688
  0
LINE
  5
374
100
AcDbEntity
  8
ASSI
100
AcDbLine
 62
7
  6
CONTINUOUS
 10
5.998996536
 20
4.3880505773
 11
5.998996536
 21
5.8774122688
  0
LINE
  5
375
100
AcDbEntity
  8
0
100
AcDbLine
 62
7
  6
CONTINUOUS
 10
5.998996536
 20
6.1157101127
 11
5.998996536
 21
6.2944334957
  0
LINE
  5
376
100
AcDbEntity
  8
ASSI
100
AcDbLine
 62
7
  6
CONTINUOUS
 10
5.998996536
 20
6.1157101127
 11
5.998996536
 21
6.2944334957
  0
LINE
  5
377
100
AcDbEntity
  8
0
100
AcDbLine
 62
7
  6
CONTINUOUS
 10
6.5508298763
 20
-13.5119494227
 11
6.5508298763
 21
-16.8619494227
  0
LINE
  5
378
100
AcDbEntity
  8
0
100
AcDbLine
 62
7
  6
CONTINUOUS
 10
6.5508298763
 20
13.4380505773
 11
6.5508298763
 21
16.9380505773
  0
LINE
  5
379
100
AcDbEntity
  8
0
100
AcDbLine
 62
7
  6
CONTINUOUS
 10
6.6406632374
 20
5.8178378078
 11
6.6406632374
 21
4.3880505773
  0
LINE
  5
37A
100
AcDbEntity
  8
ASSI
100
AcDbLine
 62
7
  6
CONTINUOUS
 10
6.6406632374
 20
5.8178378078
 11
6.6406632374
 21
4.3880505773
  0
LINE
  5
37B
100
AcDbEntity
  8
0
100
AcDbLine
 62
7
  6
CONTINUOUS
 10
6.8573298763
 20
16.9380505773
 11
6.8573298763
 21
13.4380505773
  0
LINE
  5
37C
100
AcDbEntity
  8
0
100
AcDbLine
 62
7
  6
CONTINUOUS
 10
6.8573298763
 20
-16.8619494227
 11
6.8573298763
 21
-13.5119494227
  0
LINE
  5
37D
100
AcDbEntity
  8
0
100
AcDbLine
 62
7
  6
CONTINUOUS
 10
6.9323298763
 20
4.3880505773
 11
6.9323298763
 21
5.8178378078
  0
LINE
  5
37E
100
AcDbEntity
  8
ASSI
100
AcDbLine
 62
7
  6
CONTINUOUS
 10
6.9323298763
 20
4.3880505773
 11
6.9323298763
 21
5.8178378078
  0
LINE
  5
37F
100
AcDbEntity
  8
0
100
AcDbLine
 62
7
  6
CONTINUOUS
 10
9.5573298763
 20
5.8178378078
 11
9.6156633209
 21
5.9369867298
  0
LINE
  5
380
100
AcDbEntity
  8
ASSI
100
AcDbLine
 62
7
  6
CONTINUOUS
 10
9.5573298763
 20
5.8178378078
 11
9.6156633209
 21
5.9369867298
  0
LINE
  5
381
100
AcDbEntity
  8
ASSI
100
AcDbLine
 62
7
  6
CONTINUOUS
 10
-0.0926701237
 20
-8.9619494227
 11
-0.0971097129
 21
-8.9663890119
  0
LINE
  5
382
100
AcDbEntity
  8
ASSI
100
AcDbLine
 62
253
  6
CONTINUOUS
 10
-2.3426130083
 20
-12.6119494227
 11
-2.3251592727
 21
-12.5944956871
  0
LINE
  5
383
100
AcDbEntity
  8
DRAFT
100
AcDbLine
 62
7
  6
CONTINUOUS
 10
10.7573298763
 20
6.5851756634
 11
5.3573298763
 21
6.5380505773
  0
LINE
  5
384
100
AcDbEntity
  8
ASSI
100
AcDbLine
 62
7
  6
CONTINUOUS
 10
10.7573298763
 20
6.5851756634
 11
5.3573298763
 21
6.5380505773
  0
LINE
  5
385
100
AcDbEntity
  8
ASSI
100
AcDbLine
 62
7
  6
CONTINUOUS
 10
-5.2426701237
 20
5.7880505773
 11
-4.7426701237
 21
5.7880505773
  0
LINE
  5
386
100
AcDbEntity
  8
ASSI
100
AcDbLine
 62
7
  6
CONTINUOUS
 10
-2.6593368699
 20
5.7880505773
 11
-1.9093368699
 21
5.7880505773
  0
LINE
  5
387
100
AcDbEntity
  8
0
100
AcDbLine
 62
7
  6
CONTINUOUS
 10
6.2906631957
 20
6.0561356517
 11
6.4073298763
 21
6.0561356517
  0
LINE
  5
388
100
AcDbEntity
  8
ASSI
100
AcDbLine
 62
7
  6
CONTINUOUS
 10
6.2906631957
 20
6.0561356517
 11
6.4073298763
 21
6.0561356517
  0
LINE
  5
389
100
AcDbEntity
  8
0
100
AcDbLine
 62
7
  6
CONTINUOUS
 10
7.165663154
 20
6.0561356517
 11
7.340663154
 21
6.0561356517
  0
LINE
  5
38A
100
AcDbEntity
  8
ASSI
100
AcDbLine
 62
7
  6
CONTINUOUS
 10
7.165663154
 20
6.0561356517
 11
7.340663154
 21
6.0561356517
  0
LINE
  5
38B
100
AcDbEntity
  8
0
100
AcDbLine
 62
7
  6
CONTINUOUS
 10
8.9156633209
 20
6.0561356517
 11
9.0323298763
 21
6.0561356517
  0
LINE
  5
38C
100
AcDbEntity
  8
ASSI
100
AcDbLine
 62
7
  6
CONTINUOUS
 10
8.9156633209
 20
6.0561356517
 11
9.0323298763
 21
6.0561356517
  0
LINE
  5
38D
100
AcDbEntity
  8
0
100
AcDbLine
 62
7
  6
CONTINUOUS
 10
9.7906633209
 20
6.0561356517
 11
9.9656633209
 21
6.0561356517
  0
LINE
  5
38E
100
AcDbEntity
  8
ASSI
100
AcDbLine
 62
7
  6
CONTINUOUS
 10
9.7906633209
 20
6.0561356517
 11
9.9656633209
 21
6.0561356517
  0
LINE
  5
38F
100
AcDbEntity
  8
ASSI
100
AcDbLine
 62
7
  6
CONTINUOUS
 10
4.7973299192
 20
6.1880505773
 11
4.5273299192
 21
6.1880505773
  0
LINE
  5
390
100
AcDbEntity
  8
ASSI
100
AcDbLine
 62
7
  6
CONTINUOUS
 10
3.8973298763
 20
6.1880505773
 11
3.6273298763
 21
6.1880505773
  0
LINE
  5
391
100
AcDbEntity
  8
0
100
AcDbLine
 62
7
  6
CONTINUOUS
 10
10.0823298763
 20
6.2944334957
 11
9.8489964317
 21
6.2944334957
  0
LINE
  5
392
100
AcDbEntity
  8
ASSI
100
AcDbLine
 62
7
  6
CONTINUOUS
 10
10.0823298763
 20
6.2944334957
 11
9.8489964317
 21
6.2944334957
  0
LINE
  5
393
100
AcDbEntity
  8
0
100
AcDbLine
 62
7
  6
CONTINUOUS
 10
9.1489964317
 20
6.2944334957
 11
8.9156633209
 21
6.2944334957
  0
LINE
  5
394
100
AcDbEntity
  8
ASSI
100
AcDbLine
 62
7
  6
CONTINUOUS
 10
9.1489964317
 20
6.2944334957
 11
8.9156633209
 21
6.2944334957
  0
LINE
  5
395
100
AcDbEntity
  8
0
100
AcDbLine
 62
7
  6
CONTINUOUS
 10
8.6239964317
 20
6.2944334957
 11
8.3323298763
 21
6.2944334957
  0
LINE
  5
396
100
AcDbEntity
  8
ASSI
100
AcDbLine
 62
7
  6
CONTINUOUS
 10
8.6239964317
 20
6.2944334957
 11
8.3323298763
 21
6.2944334957
  0
LINE
  5
397
100
AcDbEntity
  8
0
100
AcDbLine
 62
7
  6
CONTINUOUS
 10
7.4573298763
 20
6.2944334957
 11
7.2239965986
 21
6.2944334957
  0
LINE
  5
398
100
AcDbEntity
  8
ASSI
100
AcDbLine
 62
7
  6
CONTINUOUS
 10
7.4573298763
 20
6.2944334957
 11
7.2239965986
 21
6.2944334957
  0
LINE
  5
399
100
AcDbEntity
  8
0
100
AcDbLine
 62
7
  6
CONTINUOUS
 10
6.5239965151
 20
6.2944334957
 11
6.2906631957
 21
6.2944334957
  0
LINE
  5
39A
100
AcDbEntity
  8
ASSI
100
AcDbLine
 62
7
  6
CONTINUOUS
 10
6.5239965151
 20
6.2944334957
 11
6.2906631957
 21
6.2944334957
  0
LINE
  5
39B
100
AcDbEntity
  8
0
100
AcDbLine
 62
7
  6
CONTINUOUS
 10
5.998996536
 20
6.2944334957
 11
5.7073298763
 21
6.2944334957
  0
LINE
  5
39C
100
AcDbEntity
  8
ASSI
100
AcDbLine
 62
7
  6
CONTINUOUS
 10
5.998996536
 20
6.2944334957
 11
5.7073298763
 21
6.2944334957
  0
LINE
  5
39D
100
AcDbEntity
  8
ASSI
100
AcDbLine
 62
7
  6
CONTINUOUS
 10
5.3573298763
 20
6.5328140578
 11
-0.0874336042
 21
6.5328140578
  0
LINE
  5
39E
100
AcDbEntity
  8
ASSI
100
AcDbLine
 62
7
  6
CONTINUOUS
 10
5.3573298763
 20
6.5380505773
 11
-0.0926701237
 21
6.5380505773
  0
LINE
  5
39F
100
AcDbEntity
  8
0
100
AcDbLine
 62
7
  6
CONTINUOUS
 10
7.5739965986
 20
5.8178378078
 11
7.5739965986
 21
4.3880505773
  0
LINE
  5
3A0
100
AcDbEntity
  8
ASSI
100
AcDbLine
 62
7
  6
CONTINUOUS
 10
7.5739965986
 20
5.8178378078
 11
7.5739965986
 21
4.3880505773
  0
LINE
  5
3A1
100
AcDbEntity
  8
0
100
AcDbLine
 62
7
  6
CONTINUOUS
 10
7.865663154
 20
4.3880505773
 11
7.865663154
 21
5.8178378078
  0
LINE
  5
3A2
100
AcDbEntity
  8
ASSI
100
AcDbLine
 62
7
  6
CONTINUOUS
 10
7.865663154
 20
4.3880505773
 11
7.865663154
 21
5.8178378078
  0
LINE
  5
3A3
100
AcDbEntity
  8
0
100
AcDbLine
 62
7
  6
CONTINUOUS
 10
8.3323298763
 20
6.2944334957
 11
8.3323298763
 21
4.3880505773
  0
LINE
  5
3A4
100
AcDbEntity
  8
ASSI
100
AcDbLine
 62
7
  6
CONTINUOUS
 10
8.3323298763
 20
6.2944334957
 11
8.3323298763
 21
4.3880505773
  0
LINE
  5
3A5
100
AcDbEntity
  8
DRAFT
100
AcDbLine
 62
253
  6
CONTINUOUS
 10
8.5073298763
 20
17.1811781689
 11
8.5073298763
 21
16.9380505773
  0
LINE
  5
3A6
100
AcDbEntity
  8
ASSI
100
AcDbLine
 62
253
  6
CONTINUOUS
 10
8.5073298763
 20
17.1811781689
 11
8.5073298763
 21
16.9380505773
  0
LINE
  5
3A7
100
AcDbEntity
  8
DRAFT
100
AcDbLine
 62
253
  6
CONTINUOUS
 10
8.5073298763
 20
-13.1188218311
 11
8.5073298763
 21
-13.3619494227
  0
LINE
  5
3A8
100
AcDbEntity
  8
ASSI
100
AcDbLine
 62
253
  6
CONTINUOUS
 10
8.5073298763
 20
-13.1188218311
 11
8.5073298763
 21
-13.3619494227
  0
LINE
  5
3A9
100
AcDbEntity
  8
DRAFT
100
AcDbLine
 62
253
  6
CONTINUOUS
 10
8.5073298763
 20
-17.1050770143
 11
8.5073298763
 21
-16.8619494227
  0
LINE
  5
3AA
100
AcDbEntity
  8
ASSI
100
AcDbLine
 62
253
  6
CONTINUOUS
 10
8.5073298763
 20
-17.1050770143
 11
8.5073298763
 21
-16.8619494227
  0
LINE
  5
3AB
100
AcDbEntity
  8
DRAFT
100
AcDbLine
 62
253
  6
CONTINUOUS
 10
8.5073298763
 20
13.1949229857
 11
8.5073298763
 21
13.4380505773
  0
LINE
  5
3AC
100
AcDbEntity
  8
ASSI
100
AcDbLine
 62
253
  6
CONTINUOUS
 10
8.5073298763
 20
13.1949229857
 11
8.5073298763
 21
13.4380505773
  0
LINE
  5
3AD
100
AcDbEntity
  8
0
100
AcDbLine
 62
7
  6
CONTINUOUS
 10
8.6239964317
 20
4.3880505773
 11
8.6239964317
 21
5.8774122688
  0
LINE
  5
3AE
100
AcDbEntity
  8
ASSI
100
AcDbLine
 62
7
  6
CONTINUOUS
 10
8.6239964317
 20
4.3880505773
 11
8.6239964317
 21
5.8774122688
  0
LINE
  5
3AF
100
AcDbEntity
  8
0
100
AcDbLine
 62
7
  6
CONTINUOUS
 10
8.6239964317
 20
6.1157101127
 11
8.6239964317
 21
6.2944334957
  0
LINE
  5
3B0
100
AcDbEntity
  8
ASSI
100
AcDbLine
 62
7
  6
CONTINUOUS
 10
8.6239964317
 20
6.1157101127
 11
8.6239964317
 21
6.2944334957
  0
LINE
  5
3B1
100
AcDbEntity
  8
0
100
AcDbLine
 62
7
  6
CONTINUOUS
 10
9.2656633209
 20
5.8178378078
 11
9.2656633209
 21
4.3880505773
  0
LINE
  5
3B2
100
AcDbEntity
  8
ASSI
100
AcDbLine
 62
7
  6
CONTINUOUS
 10
9.2656633209
 20
5.8178378078
 11
9.2656633209
 21
4.3880505773
  0
LINE
  5
3B3
100
AcDbEntity
  8
ASSI
100
AcDbLine
 62
7
  6
CONTINUOUS
 10
-0.0926701237
 20
-11.6119494227
 11
-0.1057604254
 21
-11.6250397244
  0
LINE
  5
3B4
100
AcDbEntity
  8
DRAFT
100
AcDbLine
 62
7
  6
CONTINUOUS
 10
10.7573298763
 20
8.9564275339
 11
9.5573298763
 21
8.974565988
  0
LINE
  5
3B5
100
AcDbEntity
  8
ASSI
100
AcDbLine
 62
7
  6
CONTINUOUS
 10
10.7573298763
 20
8.9564275339
 11
9.5573298763
 21
8.974565988
  0
LINE
  5
3B6
100
AcDbEntity
  8
0
100
AcDbLine
 62
7
  6
CONTINUOUS
 10
6.6989965151
 20
6.2348590347
 11
6.5239965151
 21
6.2944334957
  0
LINE
  5
3B7
100
AcDbEntity
  8
ASSI
100
AcDbLine
 62
7
  6
CONTINUOUS
 10
6.6989965151
 20
6.2348590347
 11
6.5239965151
 21
6.2944334957
  0
LINE
  5
3B8
100
AcDbEntity
  8
0
100
AcDbLine
 62
7
  6
CONTINUOUS
 10
7.6323298763
 20
6.2348590347
 11
7.4573298763
 21
6.2944334957
  0
LINE
  5
3B9
100
AcDbEntity
  8
ASSI
100
AcDbLine
 62
7
  6
CONTINUOUS
 10
7.6323298763
 20
6.2348590347
 11
7.4573298763
 21
6.2944334957
  0
LINE
  5
3BA
100
AcDbEntity
  8
0
100
AcDbLine
 62
7
  6
CONTINUOUS
 10
9.3239964317
 20
6.2348590347
 11
9.1489964317
 21
6.2944334957
  0
LINE
  5
3BB
100
AcDbEntity
  8
ASSI
100
AcDbLine
 62
7
  6
CONTINUOUS
 10
9.3239964317
 20
6.2348590347
 11
9.1489964317
 21
6.2944334957
  0
LINE
  5
3BC
100
AcDbEntity
  8
0
100
AcDbLine
 62
7
  6
CONTINUOUS
 10
10.2573298763
 20
6.2348590347
 11
10.0823298763
 21
6.2944334957
  0
LINE
  5
3BD
100
AcDbEntity
  8
ASSI
100
AcDbLine
 62
7
  6
CONTINUOUS
 10
10.2573298763
 20
6.2348590347
 11
10.0823298763
 21
6.2944334957
  0
LINE
  5
3BE
100
AcDbEntity
  8
0
100
AcDbLine
 62
7
  6
CONTINUOUS
 10
6.4073298763
 20
6.0561356517
 11
6.5239965151
 21
5.9965611908
  0
LINE
  5
3BF
100
AcDbEntity
  8
ASSI
100
AcDbLine
 62
7
  6
CONTINUOUS
 10
6.4073298763
 20
6.0561356517
 11
6.5239965151
 21
5.9965611908
  0
LINE
  5
3C0
100
AcDbEntity
  8
0
100
AcDbLine
 62
7
  6
CONTINUOUS
 10
7.340663154
 20
6.0561356517
 11
7.4573298763
 21
5.9965611908
  0
LINE
  5
3C1
100
AcDbEntity
  8
ASSI
100
AcDbLine
 62
7
  6
CONTINUOUS
 10
7.340663154
 20
6.0561356517
 11
7.4573298763
 21
5.9965611908
  0
LINE
  5
3C2
100
AcDbEntity
  8
0
100
AcDbLine
 62
7
  6
CONTINUOUS
 10
6.5239965151
 20
5.9965611908
 11
6.5823298763
 21
5.9369867298
  0
LINE
  5
3C3
100
AcDbEntity
  8
ASSI
100
AcDbLine
 62
7
  6
CONTINUOUS
 10
6.5239965151
 20
5.9965611908
 11
6.5823298763
 21
5.9369867298
  0
LINE
  5
3C4
100
AcDbEntity
  8
0
100
AcDbLine
 62
7
  6
CONTINUOUS
 10
6.8739965151
 20
6.0561356517
 11
6.6989965151
 21
6.2348590347
  0
LINE
  5
3C5
100
AcDbEntity
  8
ASSI
100
AcDbLine
 62
7
  6
CONTINUOUS
 10
6.8739965151
 20
6.0561356517
 11
6.6989965151
 21
6.2348590347
  0
LINE
  5
3C6
100
AcDbEntity
  8
0
100
AcDbLine
 62
7
  6
CONTINUOUS
 10
6.5823298763
 20
5.9369867298
 11
6.6406632374
 21
5.8178378078
  0
LINE
  5
3C7
100
AcDbEntity
  8
ASSI
100
AcDbLine
 62
7
  6
CONTINUOUS
 10
6.5823298763
 20
5.9369867298
 11
6.6406632374
 21
5.8178378078
  0
LINE
  5
3C8
100
AcDbEntity
  8
CURVE
100
AcDbLine
 62
253
  6
CONTINUOUS
 10
10.9316747489
 20
4.2355753174
 11
10.9323471057
 21
4.1756695773
  0
LINE
  5
3C9
100
AcDbEntity
  8
IMPORT_IGES
100
AcDbLine
 62
253
  6
CONTINUOUS
 10
10.9316747489
 20
4.2355753174
 11
10.9323471057
 21
4.1756695773
  0
LINE
  5
3CA
100
AcDbEntity
  8
DRAFT
100
AcDbLine
 62
7
  6
CONTINUOUS
 10
10.9317647615
 20
-4.1596841948
 11
10.9730713532
 21
-11.5119494227
  0
LINE
  5
3CB
100
AcDbEntity
  8
ASSI
100
AcDbLine
 62
7
  6
CONTINUOUS
 10
10.9730713532
 20
-11.5119494227
 11
10.9317635871
 21
-4.1594751599
  0
LINE
  5
3CC
100
AcDbEntity
  8
ASSI
100
AcDbLine
 62
7
  6
CONTINUOUS
 10
10.7573298763
 20
-19.4430997902
 11
10.7576789414
 21
-19.543099181
  0
LINE
  5
3CD
100
AcDbEntity
  8
DRAFT
100
AcDbLine
 62
7
  6
CONTINUOUS
 10
9.4982954615
 20
-14.1119494227
 11
9.4982954615
 21
-14.227833022
  0
LINE
  5
3CE
100
AcDbEntity
  8
ASSI
100
AcDbLine
 62
7
  6
CONTINUOUS
 10
9.4982954615
 20
-14.1119494227
 11
9.4982954615
 21
-14.227833022
  0
LINE
  5
3CF
100
AcDbEntity
  8
DRAFT
100
AcDbLine
 62
7
  6
CONTINUOUS
 10
9.4982954615
 20
-15.9960658234
 11
9.4982954615
 21
-16.1119494227
  0
LINE
  5
3D0
100
AcDbEntity
  8
ASSI
100
AcDbLine
 62
7
  6
CONTINUOUS
 10
9.4982954615
 20
-15.9960658234
 11
9.4982954615
 21
-16.1119494227
  0
LINE
  5
3D1
100
AcDbEntity
  8
DRAFT
100
AcDbLine
 62
7
  6
CONTINUOUS
 10
9.4982954615
 20
14.1880505773
 11
9.4982954615
 21
14.3039341766
  0
LINE
  5
3D2
100
AcDbEntity
  8
ASSI
100
AcDbLine
 62
7
  6
CONTINUOUS
 10
9.4982954615
 20
14.1880505773
 11
9.4982954615
 21
14.3039341766
  0
LINE
  5
3D3
100
AcDbEntity
  8
DRAFT
100
AcDbLine
 62
7
  6
CONTINUOUS
 10
9.4982954615
 20
16.072166978
 11
9.4982954615
 21
16.1880505773
  0
LINE
  5
3D4
100
AcDbEntity
  8
ASSI
100
AcDbLine
 62
7
  6
CONTINUOUS
 10
9.4982954615
 20
16.072166978
 11
9.4982954615
 21
16.1880505773
  0
LINE
  5
3D5
100
AcDbEntity
  8
DRAFT
100
AcDbLine
 62
7
  6
CONTINUOUS
 10
9.5073298763
 20
-15.8619494227
 11
9.5073298763
 21
-14.3619494227
  0
LINE
  5
3D6
100
AcDbEntity
  8
ASSI
100
AcDbLine
 62
7
  6
CONTINUOUS
 10
9.5073298763
 20
-15.8619494227
 11
9.5073298763
 21
-14.3619494227
  0
LINE
  5
3D7
100
AcDbEntity
  8
DRAFT
100
AcDbLine
 62
7
  6
CONTINUOUS
 10
9.5073298763
 20
14.4380505773
 11
9.5073298763
 21
15.9380505773
  0
LINE
  5
3D8
100
AcDbEntity
  8
ASSI
100
AcDbLine
 62
7
  6
CONTINUOUS
 10
9.5073298763
 20
14.4380505773
 11
9.5073298763
 21
15.9380505773
  0
LINE
  5
3D9
100
AcDbEntity
  8
0
100
AcDbLine
 62
7
  6
CONTINUOUS
 10
9.5573298763
 20
4.3880505773
 11
9.5573298763
 21
5.8178378078
  0
LINE
  5
3DA
100
AcDbEntity
  8
ASSI
100
AcDbLine
 62
7
  6
CONTINUOUS
 10
9.5573298763
 20
4.3880505773
 11
9.5573298763
 21
5.8178378078
  0
LINE
  5
3DB
100
AcDbEntity
  8
DRAFT
100
AcDbLine
 62
7
  6
CONTINUOUS
 10
9.5573298763
 20
8.974565988
 11
9.5573298763
 21
11.6361267887
  0
LINE
  5
3DC
100
AcDbEntity
  8
0
100
AcDbLine
 62
7
  6
CONTINUOUS
 10
9.5573298763
 20
11.6361267887
 11
9.5573298763
 21
20.3380505773
  0
LINE
  5
3DD
100
AcDbEntity
  8
ASSI
100
AcDbLine
 62
7
  6
CONTINUOUS
 10
9.5573298763
 20
8.974565988
 11
9.5573298763
 21
20.3380505773
  0
LINE
  5
3DE
100
AcDbEntity
  8
RACCORDO
100
AcDbLine
 62
7
  6
CONTINUOUS
 10
10.0573298763
 20
-16.1369494227
 11
10.0573298763
 21
-14.0869494227
  0
LINE
  5
3DF
100
AcDbEntity
  8
ASSI
100
AcDbLine
 62
7
  6
CONTINUOUS
 10
10.0573298763
 20
-16.1369494227
 11
10.0573298763
 21
-14.0869494227
  0
LINE
  5
3E0
100
AcDbEntity
  8
0
100
AcDbLine
 62
7
  6
CONTINUOUS
 10
10.1989964317
 20
5.8178378078
 11
10.1989964317
 21
4.3880505773
  0
LINE
  5
3E1
100
AcDbEntity
  8
ASSI
100
AcDbLine
 62
7
  6
CONTINUOUS
 10
10.1989964317
 20
5.8178378078
 11
10.1989964317
 21
4.3880505773
  0
LINE
  5
3E2
100
AcDbEntity
  8
0
100
AcDbLine
 62
7
  6
CONTINUOUS
 10
10.4906633209
 20
4.3880505773
 11
10.4906633209
 21
5.8178378078
  0
LINE
  5
3E3
100
AcDbEntity
  8
ASSI
100
AcDbLine
 62
7
  6
CONTINUOUS
 10
10.4906633209
 20
4.3880505773
 11
10.4906633209
 21
5.8178378078
  0
LINE
  5
3E4
100
AcDbEntity
  8
RACCORDO
100
AcDbLine
 62
7
  6
CONTINUOUS
 10
10.7573298763
 20
-14.0919494227
 11
10.7573298763
 21
-16.1319494227
  0
LINE
  5
3E5
100
AcDbEntity
  8
DRAFT
100
AcDbLine
 62
7
  6
CONTINUOUS
 10
10.7573298763
 20
-19.4430997902
 11
10.7573298763
 21
-16.1319494227
  0
LINE
  5
3E6
100
AcDbEntity
  8
DRAFT
100
AcDbLine
 62
7
  6
CONTINUOUS
 10
10.7573298763
 20
-14.0919494227
 11
10.7573298763
 21
11.6361267887
  0
LINE
  5
3E7
100
AcDbEntity
  8
0
100
AcDbLine
 62
7
  6
CONTINUOUS
 10
10.7573298763
 20
11.6361267887
 11
10.7573298763
 21
19.1380505773
  0
LINE
  5
3E8
100
AcDbEntity
  8
DRAFT
100
AcDbLine
 62
7
  6
CONTINUOUS
 10
10.7573298763
 20
19.1380505773
 11
10.7573298763
 21
19.5192009448
  0
LINE
  5
3E9
100
AcDbEntity
  8
ASSI
100
AcDbLine
 62
7
  6
CONTINUOUS
 10
10.7573298763
 20
-19.4430997902
 11
10.7573298763
 21
19.5192009448
  0
LINE
  5
3EA
100
AcDbEntity
  8
RACCORDO
100
AcDbLine
 62
253
  6
CONTINUOUS
 10
10.9149538586
 20
4.2357853494
 11
10.9149538586
 21
-4.1596841948
  0
LINE
  5
3EB
100
AcDbEntity
  8
ASSI
100
AcDbLine
 62
7
  6
CONTINUOUS
 10
10.9317635871
 20
4.2355763145
 11
10.9317635871
 21
-4.1594751599
  0
LINE
  5
3EC
100
AcDbEntity
  8
DRAFT
100
AcDbLine
 62
7
  6
CONTINUOUS
 10
10.9317647615
 20
4.2357853494
 11
10.9317647615
 21
-4.1596841948
  0
LINE
  5
3ED
100
AcDbEntity
  8
CURVE
100
AcDbLine
 62
253
  6
CONTINUOUS
 10
10.9323471057
 20
4.1756695773
 11
10.9323471159
 21
4.3394400876
  0
LINE
  5
3EE
100
AcDbEntity
  8
IMPORT_IGES
100
AcDbLine
 62
253
  6
CONTINUOUS
 10
10.9323471057
 20
4.1756695773
 11
10.9323471159
 21
4.3394400876
  0
LINE
  5
3EF
100
AcDbEntity
  8
RACCORDO
100
AcDbLine
 62
7
  6
CONTINUOUS
 10
10.9730713532
 20
19.8037971311
 11
10.9730713532
 21
11.5880505773
  0
LINE
  5
3F0
100
AcDbEntity
  8
RACCORDO
100
AcDbLine
 62
7
  6
CONTINUOUS
 10
10.9730713532
 20
-11.5119494227
 11
10.9730713532
 21
-19.7276959765
  0
LINE
  5
3F1
100
AcDbEntity
  8
ASSI
100
AcDbLine
 62
7
  6
CONTINUOUS
 10
10.9730713532
 20
-19.7276959765
 11
10.9730713532
 21
-11.5119494227
  0
LINE
  5
3F2
100
AcDbEntity
  8
ASSI
100
AcDbLine
 62
7
  6
CONTINUOUS
 10
10.9730713532
 20
11.5880505773
 11
10.9730713532
 21
19.8037971311
  0
LINE
  5
3F3
100
AcDbEntity
  8
DRAFT
100
AcDbLine
 62
7
  6
CONTINUOUS
 10
10.9730713532
 20
11.5880505773
 11
10.9317647615
 21
4.2357853494
  0
LINE
  5
3F4
100
AcDbEntity
  8
ASSI
100
AcDbLine
 62
7
  6
CONTINUOUS
 10
10.9317635871
 20
4.2355763145
 11
10.9730713532
 21
11.5880505773
  0
LINE
  5
3F5
100
AcDbEntity
  8
ASSI
100
AcDbLine
 62
253
  6
CONTINUOUS
 10
-0.8426701237
 20
-14.1118923073
 11
-0.8252163881
 21
-14.0944385717
  0
LINE
  5
3F6
100
AcDbEntity
  8
ASSI
100
AcDbLine
 62
7
  6
CONTINUOUS
 10
-1.9093368699
 20
9.7880505773
 11
-2.4093368699
 21
9.7880505773
  0
LINE
  5
3F7
100
AcDbEntity
  8
ASSI
100
AcDbLine
 62
7
  6
CONTINUOUS
 10
-4.4926701237
 20
9.7880505773
 11
-5.2426701237
 21
9.7880505773
  0
LINE
  5
3F8
100
AcDbEntity
  8
0
100
AcDbLine
 62
7
  6
CONTINUOUS
 10
9.0323298763
 20
6.0561356517
 11
9.1489964317
 21
5.9965611908
  0
LINE
  5
3F9
100
AcDbEntity
  8
ASSI
100
AcDbLine
 62
7
  6
CONTINUOUS
 10
9.0323298763
 20
6.0561356517
 11
9.1489964317
 21
5.9965611908
  0
LINE
  5
3FA
100
AcDbEntity
  8
0
100
AcDbLine
 62
7
  6
CONTINUOUS
 10
9.9656633209
 20
6.0561356517
 11
10.0823298763
 21
5.9965611908
  0
LINE
  5
3FB
100
AcDbEntity
  8
ASSI
100
AcDbLine
 62
7
  6
CONTINUOUS
 10
9.9656633209
 20
6.0561356517
 11
10.0823298763
 21
5.9965611908
  0
LINE
  5
3FC
100
AcDbEntity
  8
0
100
AcDbLine
 62
7
  6
CONTINUOUS
 10
7.4573298763
 20
5.9965611908
 11
7.515663154
 21
5.9369867298
  0
LINE
  5
3FD
100
AcDbEntity
  8
ASSI
100
AcDbLine
 62
7
  6
CONTINUOUS
 10
7.4573298763
 20
5.9965611908
 11
7.515663154
 21
5.9369867298
  0
LINE
  5
3FE
100
AcDbEntity
  8
0
100
AcDbLine
 62
7
  6
CONTINUOUS
 10
7.7489965986
 20
6.1157101127
 11
7.6323298763
 21
6.2348590347
  0
LINE
  5
3FF
100
AcDbEntity
  8
ASSI
100
AcDbLine
 62
7
  6
CONTINUOUS
 10
7.7489965986
 20
6.1157101127
 11
7.6323298763
 21
6.2348590347
  0
LINE
  5
400
100
AcDbEntity
  8
0
100
AcDbLine
 62
7
  6
CONTINUOUS
 10
9.1489964317
 20
5.9965611908
 11
9.2073298763
 21
5.9369867298
  0
LINE
  5
401
100
AcDbEntity
  8
ASSI
100
AcDbLine
 62
7
  6
CONTINUOUS
 10
9.1489964317
 20
5.9965611908
 11
9.2073298763
 21
5.9369867298
  0
LINE
  5
402
100
AcDbEntity
  8
0
100
AcDbLine
 62
7
  6
CONTINUOUS
 10
9.4989964317
 20
6.0561356517
 11
9.3239964317
 21
6.2348590347
  0
LINE
  5
403
100
AcDbEntity
  8
ASSI
100
AcDbLine
 62
7
  6
CONTINUOUS
 10
9.4989964317
 20
6.0561356517
 11
9.3239964317
 21
6.2348590347
  0
LINE
  5
404
100
AcDbEntity
  8
0
100
AcDbLine
 62
7
  6
CONTINUOUS
 10
7.515663154
 20
5.9369867298
 11
7.5739965986
 21
5.8178378078
  0
LINE
  5
405
100
AcDbEntity
  8
ASSI
100
AcDbLine
 62
7
  6
CONTINUOUS
 10
7.515663154
 20
5.9369867298
 11
7.5739965986
 21
5.8178378078
  0
LINE
  5
406
100
AcDbEntity
  8
0
100
AcDbLine
 62
7
  6
CONTINUOUS
 10
9.2073298763
 20
5.9369867298
 11
9.2656633209
 21
5.8178378078
  0
LINE
  5
407
100
AcDbEntity
  8
ASSI
100
AcDbLine
 62
7
  6
CONTINUOUS
 10
9.2073298763
 20
5.9369867298
 11
9.2656633209
 21
5.8178378078
  0
LINE
  5
408
100
AcDbEntity
  8
0
100
AcDbLine
 62
7
  6
CONTINUOUS
 10
7.865663154
 20
5.8178378078
 11
7.7489965986
 21
6.1157101127
  0
LINE
  5
409
100
AcDbEntity
  8
ASSI
100
AcDbLine
 62
7
  6
CONTINUOUS
 10
7.865663154
 20
5.8178378078
 11
7.7489965986
 21
6.1157101127
  0
LINE
  5
40A
100
AcDbEntity
  8
ASSI
100
AcDbLine
 62
253
  6
CONTINUOUS
 10
0.6573298763
 20
-16.1120065381
 11
0.6398761407
 21
-16.1294602737
  0
LINE
  5
40B
100
AcDbEntity
  8
SMUSSO
100
AcDbLine
 62
7
  6
CONTINUOUS
 10
-5.7926701237
 20
-23.580915988
 11
-6.0926701237
 21
-23.8799214544
  0
LINE
  5
40C
100
AcDbEntity
  8
ASSI
100
AcDbLine
 62
7
  6
CONTINUOUS
 10
-1.5479066432
 20
11.5328140578
 11
-5.5426701237
 21
11.5328140578
  0
LINE
  5
40D
100
AcDbEntity
  8
ASSI
100
AcDbLine
 62
7
  6
CONTINUOUS
 10
-5.5426701237
 20
11.5380505773
 11
-1.5426701237
 21
11.5380505773
  0
LINE
  5
40E
100
AcDbEntity
  8
ASSI
100
AcDbLine
 62
7
  6
CONTINUOUS
 10
-11.1584116006
 20
11.5880505773
 11
-10.9426701237
 21
11.5880505773
  0
LINE
  5
40F
100
AcDbEntity
  8
DRAFT
100
AcDbLine
 62
7
  6
CONTINUOUS
 10
10.9730713532
 20
11.5880505773
 11
10.7573298763
 21
11.5880505773
  0
LINE
  5
410
100
AcDbEntity
  8
ASSI
100
AcDbLine
 62
7
  6
CONTINUOUS
 10
10.7573298763
 20
11.5880505773
 11
10.9730713532
 21
11.5880505773
  0
LINE
  5
411
100
AcDbEntity
  8
DRAFT
100
AcDbLine
 62
7
  6
CONTINUOUS
 10
-10.9426701237
 20
11.5880505773
 11
-11.1584116006
 21
11.5880505773
  0
LINE
  5
412
100
AcDbEntity
  8
0
100
AcDbLine
 62
7
  6
CONTINUOUS
 10
10.7573298763
 20
11.6361267887
 11
9.5573298763
 21
11.6361267887
  0
LINE
  5
413
100
AcDbEntity
  8
ASSI
100
AcDbLine
 62
7
  6
CONTINUOUS
 10
10.7573298763
 20
11.6361267887
 11
9.5573298763
 21
11.6361267887
  0
LINE
  5
414
100
AcDbEntity
  8
ASSI
100
AcDbLine
 62
7
  6
CONTINUOUS
 10
-1.2926701237
 20
11.6380505773
 11
-0.0926701237
 21
11.6380505773
  0
LINE
  5
415
100
AcDbEntity
  8
DRAFT
100
AcDbLine
 62
7
  6
CONTINUOUS
 10
-5.5426701237
 20
12.9380505773
 11
-8.7426701237
 21
12.9520135658
  0
LINE
  5
416
100
AcDbEntity
  8
SMUSSO
100
AcDbLine
 62
7
  6
CONTINUOUS
 10
-6.0926701237
 20
23.956022609
 11
-5.7926701237
 21
23.6570171426
  0
LINE
  5
417
100
AcDbEntity
  8
0
100
AcDbLine
 62
7
  6
CONTINUOUS
 10
10.0823298763
 20
5.9965611908
 11
10.1406633209
 21
5.9369867298
  0
LINE
  5
418
100
AcDbEntity
  8
ASSI
100
AcDbLine
 62
7
  6
CONTINUOUS
 10
10.0823298763
 20
5.9965611908
 11
10.1406633209
 21
5.9369867298
  0
LINE
  5
419
100
AcDbEntity
  8
0
100
AcDbLine
 62
7
  6
CONTINUOUS
 10
10.3739964317
 20
6.1157101127
 11
10.2573298763
 21
6.2348590347
  0
LINE
  5
41A
100
AcDbEntity
  8
ASSI
100
AcDbLine
 62
7
  6
CONTINUOUS
 10
10.3739964317
 20
6.1157101127
 11
10.2573298763
 21
6.2348590347
  0
LINE
  5
41B
100
AcDbEntity
  8
0
100
AcDbLine
 62
7
  6
CONTINUOUS
 10
10.1406633209
 20
5.9369867298
 11
10.1989964317
 21
5.8178378078
  0
LINE
  5
41C
100
AcDbEntity
  8
ASSI
100
AcDbLine
 62
7
  6
CONTINUOUS
 10
10.1406633209
 20
5.9369867298
 11
10.1989964317
 21
5.8178378078
  0
LINE
  5
41D
100
AcDbEntity
  8
0
100
AcDbLine
 62
7
  6
CONTINUOUS
 10
10.4906633209
 20
5.8178378078
 11
10.3739964317
 21
6.1157101127
  0
LINE
  5
41E
100
AcDbEntity
  8
ASSI
100
AcDbLine
 62
7
  6
CONTINUOUS
 10
10.4906633209
 20
5.8178378078
 11
10.3739964317
 21
6.1157101127
  0
LINE
  5
41F
100
AcDbEntity
  8
0
100
AcDbLine
 62
7
  6
CONTINUOUS
 10
5.3573298763
 20
-14.0119494227
 11
5.8573298763
 21
-13.5119494227
  0
LINE
  5
420
100
AcDbEntity
  8
ASSI
100
AcDbLine
 62
253
  6
CONTINUOUS
 10
2.1572727609
 20
-17.6119494227
 11
2.1398190253
 21
-17.6294031583
  0
LINE
  5
421
100
AcDbEntity
  8
DRAFT
100
AcDbLine
 62
7
  6
CONTINUOUS
 10
5.3573298763
 20
13.1880505773
 11
8.5073298763
 21
13.1949229857
  0
LINE
  5
422
100
AcDbEntity
  8
ASSI
100
AcDbLine
 62
7
  6
CONTINUOUS
 10
5.3573298763
 20
13.1880505773
 11
8.5073298763
 21
13.1949229857
  0
LINE
  5
423
100
AcDbEntity
  8
ASSI
100
AcDbLine
 62
7
  6
CONTINUOUS
 10
5.3573298763
 20
13.1880505773
 11
2.1573298763
 21
13.1880505773
  0
LINE
  5
424
100
AcDbEntity
  8
DRAFT
100
AcDbLine
 62
7
  6
CONTINUOUS
 10
-8.5426701237
 20
13.2880505773
 11
-5.5426701237
 21
13.2880505773
  0
LINE
  5
425
100
AcDbEntity
  8
0
100
AcDbLine
 62
7
  6
CONTINUOUS
 10
5.3573298763
 20
13.4380505773
 11
8.5073298763
 21
13.4380505773
  0
LINE
  5
426
100
AcDbEntity
  8
ASSI
100
AcDbLine
 62
7
  6
CONTINUOUS
 10
2.1573298763
 20
13.4380505773
 11
8.5073298763
 21
13.4380505773
  0
LINE
  5
427
100
AcDbEntity
  8
0
100
AcDbLine
 62
7
  6
CONTINUOUS
 10
1.5575450694
 20
13.6380505773
 11
2.6073298763
 21
13.6380505773
  0
LINE
  5
428
100
AcDbEntity
  8
0
100
AcDbLine
 62
7
  6
CONTINUOUS
 10
8.1073298763
 20
13.6380505773
 11
9.1070175013
 21
13.6380505773
  0
LINE
  5
429
100
AcDbEntity
  8
DRAFT
100
AcDbLine
 62
253
  6
CONTINUOUS
 10
-9.7244233201
 20
13.9380505773
 11
-9.6086955275
 21
13.9380505773
  0
LINE
  5
42A
100
AcDbEntity
  8
DRAFT
100
AcDbLine
 62
253
  6
CONTINUOUS
 10
9.4982954615
 20
14.1880505773
 11
9.4755757128
 21
14.1880505773
  0
LINE
  5
42B
100
AcDbEntity
  8
ASSI
100
AcDbLine
 62
253
  6
CONTINUOUS
 10
9.4982954615
 20
14.1880505773
 11
9.4755757128
 21
14.1880505773
  0
LINE
  5
42C
100
AcDbEntity
  8
ASSI
100
AcDbLine
 62
7
  6
CONTINUOUS
 10
-0.1057604254
 20
14.2361267887
 11
-1.279579822
 21
14.2361267887
  0
LINE
  5
42D
100
AcDbEntity
  8
0
100
AcDbLine
 62
7
  6
CONTINUOUS
 10
5.5573298763
 20
13.4380505773
 11
5.3573298763
 21
13.6380505773
  0
LINE
  5
42E
100
AcDbEntity
  8
ASSI
100
AcDbLine
 62
7
  6
CONTINUOUS
 10
-1.3013208362
 20
21.7967012898
 11
-1.296881247
 21
21.7922617006
  0
LINE
  5
42F
100
AcDbEntity
  8
RACCORDO
100
AcDbLine
 62
7
  6
CONTINUOUS
 10
-9.5426701237
 20
15.5031431062
 11
-9.7426701237
 21
15.5013977326
  0
LINE
  5
430
100
AcDbEntity
  8
DRAFT
100
AcDbLine
 62
253
  6
CONTINUOUS
 10
9.4982954615
 20
16.1880505773
 11
9.4755757128
 21
16.1880505773
  0
LINE
  5
431
100
AcDbEntity
  8
ASSI
100
AcDbLine
 62
253
  6
CONTINUOUS
 10
9.4982954615
 20
16.1880505773
 11
9.4755757128
 21
16.1880505773
  0
LINE
  5
432
100
AcDbEntity
  8
DRAFT
100
AcDbLine
 62
253
  6
CONTINUOUS
 10
-9.7244233201
 20
16.4380505773
 11
-9.6086955275
 21
16.4380505773
  0
LINE
  5
433
100
AcDbEntity
  8
RACCORDO
100
AcDbLine
 62
7
  6
CONTINUOUS
 10
-9.4176362113
 20
16.5718668941
 11
-9.5150316273
 21
16.572716851
  0
LINE
  5
434
100
AcDbEntity
  8
DRAFT
100
AcDbLine
 62
7
  6
CONTINUOUS
 10
-5.5426701237
 20
17.4380505773
 11
-8.7426701237
 21
17.4240875889
  0
LINE
  5
435
100
AcDbEntity
  8
0
100
AcDbLine
 62
7
  6
CONTINUOUS
 10
8.5073298763
 20
16.9380505773
 11
5.3573298763
 21
16.9380505773
  0
LINE
  5
436
100
AcDbEntity
  8
ASSI
100
AcDbLine
 62
7
  6
CONTINUOUS
 10
2.1573298763
 20
16.9380505773
 11
8.5073298763
 21
16.9380505773
  0
LINE
  5
437
100
AcDbEntity
  8
DRAFT
100
AcDbLine
 62
7
  6
CONTINUOUS
 10
-5.5426701237
 20
17.0880505773
 11
-8.5426701237
 21
17.0880505773
  0
LINE
  5
438
100
AcDbEntity
  8
ASSI
100
AcDbLine
 62
7
  6
CONTINUOUS
 10
2.1573298763
 20
17.1880505773
 11
5.3573298763
 21
17.1880505773
  0
LINE
  5
439
100
AcDbEntity
  8
DRAFT
100
AcDbLine
 62
7
  6
CONTINUOUS
 10
5.3573298763
 20
17.1880505773
 11
8.5073298763
 21
17.1811781689
  0
LINE
  5
43A
100
AcDbEntity
  8
ASSI
100
AcDbLine
 62
7
  6
CONTINUOUS
 10
5.3573298763
 20
17.1880505773
 11
8.5073298763
 21
17.1811781689
  0
LINE
  5
43B
100
AcDbEntity
  8
SMUSSO
100
AcDbLine
 62
7
  6
CONTINUOUS
 10
-6.0926701237
 20
-22.077207365
 11
-5.5926701237
 21
-21.911675656
  0
LINE
  5
43C
100
AcDbEntity
  8
ASSI
100
AcDbLine
 62
253
  6
CONTINUOUS
 10
-0.1057604254
 20
19.7923378544
 11
-1.279579822
 21
19.7923378544
  0
LINE
  5
43D
100
AcDbEntity
  8
ASSI
100
AcDbLine
 62
7
  6
CONTINUOUS
 10
-10.8584166775
 20
20.1037920542
 11
-9.8769286468
 21
20.1037920542
  0
LINE
  5
43E
100
AcDbEntity
  8
RACCORDO
100
AcDbLine
 62
7
  6
CONTINUOUS
 10
10.6730764301
 20
20.1037920542
 11
9.7915883994
 21
20.1037920542
  0
LINE
  5
43F
100
AcDbEntity
  8
ASSI
100
AcDbLine
 62
7
  6
CONTINUOUS
 10
9.7915883994
 20
20.1037920542
 11
10.6730764301
 21
20.1037920542
  0
LINE
  5
440
100
AcDbEntity
  8
RACCORDO
100
AcDbLine
 62
7
  6
CONTINUOUS
 10
-9.8769286468
 20
20.1037920542
 11
-10.8584166775
 21
20.1037920542
  0
LINE
  5
441
100
AcDbEntity
  8
DRAFT
100
AcDbLine
 62
7
  6
CONTINUOUS
 10
10.7573298763
 20
19.5192009448
 11
10.3748443771
 21
19.5205360765
  0
LINE
  5
442
100
AcDbEntity
  8
ASSI
100
AcDbLine
 62
7
  6
CONTINUOUS
 10
10.7573298763
 20
19.5192009448
 11
10.3748443771
 21
19.5205360765
  0
LINE
  5
443
100
AcDbEntity
  8
SMUSSO
100
AcDbLine
 62
7
  6
CONTINUOUS
 10
-5.5926701237
 20
21.9877768107
 11
-6.0926701237
 21
22.1533085196
  0
LINE
  5
444
100
AcDbEntity
  8
RACCORDO
100
AcDbLine
 62
7
  6
CONTINUOUS
 10
10.7573298763
 20
-19.0619494227
 11
8.2828605961
 21
-21.5364187029
  0
LINE
  5
445
100
AcDbEntity
  8
ASSI
100
AcDbLine
 62
7
  6
CONTINUOUS
 10
10.7573298763
 20
-19.0619494227
 11
8.2828605961
 21
-21.5364187029
  0
LINE
  5
446
100
AcDbEntity
  8
RACCORDO
100
AcDbLine
 62
253
  6
CONTINUOUS
 10
-5.5426701237
 20
20.5380886543
 11
-9.4769661279
 21
20.5037545732
  0
LINE
  5
447
100
AcDbEntity
  8
RACCORDO
100
AcDbLine
 62
7
  6
CONTINUOUS
 10
-5.5426701237
 20
21.5380505773
 11
-8.4682008435
 21
21.5125198575
  0
LINE
  5
448
100
AcDbEntity
  8
0
100
AcDbLine
 62
7
  6
CONTINUOUS
 10
-5.5426701237
 20
21.7404891479
 11
-7.8426705519
 21
21.7204173482
  0
LINE
  5
449
100
AcDbEntity
  8
ASSI
100
AcDbLine
 62
253
  6
CONTINUOUS
 10
5.3573298763
 20
20.7967393667
 11
-0.0926701237
 21
20.7967393667
  0
LINE
  5
44A
100
AcDbEntity
  8
ASSI
100
AcDbLine
 62
253
  6
CONTINUOUS
 10
-1.2926701237
 20
20.7967393667
 11
-5.5426701237
 21
20.7967393667
  0
LINE
  5
44B
100
AcDbEntity
  8
ASSI
100
AcDbLine
 62
253
  6
CONTINUOUS
 10
-0.0884590005
 20
21.7922617006
 11
-1.296881247
 21
21.7922617006
  0
LINE
  5
44C
100
AcDbEntity
  8
ASSI
100
AcDbLine
 62
7
  6
CONTINUOUS
 10
5.3573298763
 20
21.7967774451
 11
-5.5426701237
 21
21.7967774451
  0
LINE
  5
44D
100
AcDbEntity
  8
RACCORDO
100
AcDbLine
 62
253
  6
CONTINUOUS
 10
5.9242015827
 20
21.860757037
 11
2.9073298763
 21
21.860757037
  0
LINE
  5
44E
100
AcDbEntity
  8
ASSI
100
AcDbLine
 62
253
  6
CONTINUOUS
 10
5.9242015827
 20
21.860757037
 11
2.9073298763
 21
21.860757037
  0
LINE
  5
44F
100
AcDbEntity
  8
RACCORDO
100
AcDbLine
 62
253
  6
CONTINUOUS
 10
-3.0926701237
 20
21.860757037
 11
-6.1095418302
 21
21.860757037
  0
LINE
  5
450
100
AcDbEntity
  8
ASSI
100
AcDbLine
 62
253
  6
CONTINUOUS
 10
-3.0926701237
 20
21.860757037
 11
-6.1095418302
 21
21.860757037
  0
LINE
  5
451
100
AcDbEntity
  8
0
100
AcDbLine
 62
253
  6
CONTINUOUS
 10
-2.9926701237
 20
21.9037705075
 11
2.8073298763
 21
21.9037705075
  0
LINE
  5
452
100
AcDbEntity
  8
0
100
AcDbLine
 62
253
  6
CONTINUOUS
 10
-2.9926701237
 20
21.9187613425
 11
2.8073298763
 21
21.9187613425
  0
LINE
  5
453
100
AcDbEntity
  8
RACCORDO
100
AcDbLine
 62
7
  6
CONTINUOUS
 10
-5.5926701237
 20
21.9877768107
 11
-3.1426701237
 21
21.9877768107
  0
LINE
  5
454
100
AcDbEntity
  8
RACCORDO
100
AcDbLine
 62
7
  6
CONTINUOUS
 10
5.4073298763
 20
21.9877768107
 11
2.9573298763
 21
21.9877768107
  0
LINE
  5
455
100
AcDbEntity
  8
RACCORDO
100
AcDbLine
 62
253
  6
CONTINUOUS
 10
5.3573298763
 20
20.6380886543
 11
9.2916258804
 21
20.6037545732
  0
LINE
  5
456
100
AcDbEntity
  8
ASSI
100
AcDbLine
 62
253
  6
CONTINUOUS
 10
5.3573298763
 20
20.6380886543
 11
9.2916258804
 21
20.6037545732
  0
LINE
  5
457
100
AcDbEntity
  8
RACCORDO
100
AcDbLine
 62
7
  6
CONTINUOUS
 10
5.3573298763
 20
21.6380505773
 11
8.2828605961
 21
21.6125198575
  0
LINE
  5
458
100
AcDbEntity
  8
ASSI
100
AcDbLine
 62
7
  6
CONTINUOUS
 10
5.3573298763
 20
21.6380505773
 11
8.2828605961
 21
21.6125198575
  0
LINE
  5
459
100
AcDbEntity
  8
RACCORDO
100
AcDbLine
 62
7
  6
CONTINUOUS
 10
8.2828605961
 20
21.6125198575
 11
9.5573298763
 21
20.3380505773
  0
LINE
  5
45A
100
AcDbEntity
  8
0
100
AcDbLine
 62
7
  6
CONTINUOUS
 10
9.5573298763
 20
20.3380505773
 11
10.7573298763
 21
19.1380505773
  0
LINE
  5
45B
100
AcDbEntity
  8
ASSI
100
AcDbLine
 62
7
  6
CONTINUOUS
 10
8.2828605961
 20
21.6125198575
 11
10.7573298763
 21
19.1380505773
  0
LINE
  5
45C
100
AcDbEntity
  8
DRAFT
100
AcDbLine
 62
7
  6
CONTINUOUS
 10
5.9242015827
 20
22.5380505773
 11
5.9073298763
 21
22.5380505773
  0
LINE
  5
45D
100
AcDbEntity
  8
DRAFT
100
AcDbLine
 62
7
  6
CONTINUOUS
 10
-6.0926701237
 20
22.5380505773
 11
-6.1095418302
 21
22.5380505773
  0
LINE
  5
45E
100
AcDbEntity
  8
RACCORDO
100
AcDbLine
 62
7
  6
CONTINUOUS
 10
-2.2926701237
 20
23.213265122
 11
2.1073298763
 21
23.213265122
  0
LINE
  5
45F
100
AcDbEntity
  8
RACCORDO
100
AcDbLine
 62
7
  6
CONTINUOUS
 10
-2.2926701237
 20
23.4269420553
 11
2.1073298763
 21
23.4269420553
  0
LINE
  5
460
100
AcDbEntity
  8
0
100
AcDbLine
 62
253
  6
CONTINUOUS
 10
-2.5926701237
 20
23.4433467355
 11
2.4073298763
 21
23.4433467355
  0
LINE
  5
461
100
AcDbEntity
  8
SMUSSO
100
AcDbLine
 62
7
  6
CONTINUOUS
 10
-5.7926701237
 20
23.6570171426
 11
5.6073298763
 21
23.6570171426
  0
LINE
  5
462
100
AcDbEntity
  8
0
100
AcDbLine
 62
253
  6
CONTINUOUS
 10
-6.0926701237
 20
24.1857395432
 11
5.9073298763
 21
24.1857395432
  0
LINE
  5
463
100
AcDbEntity
  8
0
100
AcDbLine
 62
7
  6
CONTINUOUS
 10
5.9073298763
 20
25.1520966243
 11
-6.0926701237
 21
25.1520966243
  0
ARC
  5
464
100
AcDbEntity
  8
RACCORDO
100
AcDbCircle
 62
7
  6
CONTINUOUS
 10
-8.4426701237
 20
-14.1119494227
 40
2.5
100
AcDbArc
 50
90.0
 51
180.0
  0
ARC
  5
465
100
AcDbEntity
  8
RACCORDO
100
AcDbCircle
 62
7
  6
CONTINUOUS
 10
-8.4426701237
 20
-16.1119494227
 40
2.5
100
AcDbArc
 50
180.0
 51
270.0
  0
ARC
  5
466
100
AcDbEntity
  8
RACCORDO
100
AcDbCircle
 62
7
  6
CONTINUOUS
 10
-8.7426701237
 20
-16.1119494227
 40
1.5
100
AcDbArc
 50
180.0
 51
270.0
  0
ARC
  5
467
100
AcDbEntity
  8
RACCORDO
100
AcDbCircle
 62
7
  6
CONTINUOUS
 10
-8.7426701237
 20
-14.1119494227
 40
1.5
100
AcDbArc
 50
90.0
 51
180.0
  0
ARC
  5
468
100
AcDbEntity
  8
0
100
AcDbCircle
 62
7
  6
CONTINUOUS
 10
-8.7426701237
 20
-15.8619494227
 40
1.0
100
AcDbArc
 50
210.0
 51
240.2462861003
  0
ARC
  5
469
100
AcDbEntity
  8
DRAFT
100
AcDbCircle
 62
7
  6
CONTINUOUS
 10
-8.7426701237
 20
-15.8619494227
 40
1.0
100
AcDbArc
 50
180.0
 51
210.0
  0
ARC
  5
46A
100
AcDbEntity
  8
0
100
AcDbCircle
 62
7
  6
CONTINUOUS
 10
-8.7426701237
 20
-14.3619494227
 40
1.0
100
AcDbArc
 50
119.7501332207
 51
150.0
  0
ARC
  5
46B
100
AcDbEntity
  8
DRAFT
100
AcDbCircle
 62
7
  6
CONTINUOUS
 10
-8.7426701237
 20
-14.3619494227
 40
1.0
100
AcDbArc
 50
150.0
 51
180.0
  0
ARC
  5
46C
100
AcDbEntity
  8
DRAFT
100
AcDbCircle
 62
7
  6
CONTINUOUS
 10
-8.5426701237
 20
-16.0119494227
 40
1.0
100
AcDbArc
 50
180.0
 51
270.0
  0
ARC
  5
46D
100
AcDbEntity
  8
DRAFT
100
AcDbCircle
 62
7
  6
CONTINUOUS
 10
-8.5426701237
 20
-14.2119494227
 40
1.0
100
AcDbArc
 50
90.0
 51
180.0
  0
ARC
  5
46E
100
AcDbEntity
  8
DRAFT
100
AcDbCircle
 62
7
  6
CONTINUOUS
 10
-8.7426701237
 20
14.4380505773
 40
1.0
100
AcDbArc
 50
180.0
 51
210.0
  0
ARC
  5
46F
100
AcDbEntity
  8
0
100
AcDbCircle
 62
7
  6
CONTINUOUS
 10
-8.7426701237
 20
14.4380505773
 40
1.0
100
AcDbArc
 50
210.0
 51
240.2462861003
  0
ARC
  5
470
100
AcDbEntity
  8
0
100
AcDbCircle
 62
7
  6
CONTINUOUS
 10
-8.7426701237
 20
15.9380505773
 40
1.0
100
AcDbArc
 50
119.7501332207
 51
150.0
  0
ARC
  5
471
100
AcDbEntity
  8
DRAFT
100
AcDbCircle
 62
7
  6
CONTINUOUS
 10
-8.7426701237
 20
15.9380505773
 40
1.0
100
AcDbArc
 50
150.0
 51
180.0
  0
ARC
  5
472
100
AcDbEntity
  8
DRAFT
100
AcDbCircle
 62
7
  6
CONTINUOUS
 10
-8.5426701237
 20
14.2880505773
 40
1.0
100
AcDbArc
 50
180.0
 51
270.0
  0
ARC
  5
473
100
AcDbEntity
  8
DRAFT
100
AcDbCircle
 62
7
  6
CONTINUOUS
 10
-8.5426701237
 20
16.0880505773
 40
1.0
100
AcDbArc
 50
90.0
 51
180.0
  0
ARC
  5
474
100
AcDbEntity
  8
DRAFT
100
AcDbCircle
 62
7
  6
CONTINUOUS
 10
-6.1426701237
 20
1.5380505773
 40
0.4
100
AcDbArc
 50
90.0
 51
270.0
  0
ARC
  5
475
100
AcDbEntity
  8
ASSI
100
AcDbCircle
 62
7
  6
CONTINUOUS
 10
-5.5426701237
 20
0.5380505773
 40
0.4
100
AcDbArc
 50
270.0
 51
90.0
  0
ARC
  5
476
100
AcDbEntity
  8
0
100
AcDbCircle
 62
7
  6
CONTINUOUS
 10
2.8830072685
 20
-19.2330793844
 40
7.3860506895
100
AcDbArc
 50
44.9824875814
 51
47.0253769796
  0
ARC
  5
477
100
AcDbEntity
  8
0
100
AcDbCircle
 62
7
  6
CONTINUOUS
 10
3.1794070209
 20
-18.9179696844
 40
6.9534510743
100
AcDbArc
 50
47.0423541618
 51
47.4280750152
  0
ARC
  5
478
100
AcDbEntity
  8
0
100
AcDbCircle
 62
7
  6
CONTINUOUS
 10
3.2614717227
 20
-18.8286759646
 40
6.832174601
100
AcDbArc
 50
47.4282950716
 51
47.7448800082
  0
ARC
  5
479
100
AcDbEntity
  8
0
100
AcDbCircle
 62
7
  6
CONTINUOUS
 10
3.3397114828
 20
-18.7425207856
 40
6.7157951597
100
AcDbArc
 50
47.7446770128
 51
48.1380189471
  0
ARC
  5
47A
100
AcDbEntity
  8
0
100
AcDbCircle
 62
7
  6
CONTINUOUS
 10
3.4142345244
 20
-18.6593902936
 40
6.6041512535
100
AcDbArc
 50
48.138237518
 51
48.459161383
  0
ARC
  5
47B
100
AcDbEntity
  8
0
100
AcDbCircle
 62
7
  6
CONTINUOUS
 10
3.4809163463
 20
-18.5841159913
 40
6.5035894025
100
AcDbArc
 50
48.4590890784
 51
48.8133551289
  0
ARC
  5
47C
100
AcDbEntity
  8
0
100
AcDbCircle
 62
7
  6
CONTINUOUS
 10
3.6958408504
 20
-18.3373882059
 40
6.176379097
100
AcDbArc
 50
48.8065987908
 51
51.3772865786
  0
ARC
  5
47D
100
AcDbEntity
  8
ASSI
100
AcDbCircle
 62
7
  6
CONTINUOUS
 10
2.1573298763
 20
-15.8619494227
 40
1.0
100
AcDbArc
 50
180.0
 51
270.0
  0
ARC
  5
47E
100
AcDbEntity
  8
ASSI
100
AcDbCircle
 62
7
  6
CONTINUOUS
 10
2.1573298763
 20
-14.3619494227
 40
1.0
100
AcDbArc
 50
90.0
 51
180.0
  0
ARC
  5
47F
100
AcDbEntity
  8
0
100
AcDbCircle
 62
7
  6
CONTINUOUS
 10
7.8316584544
 20
-19.2330855614
 40
7.3860592789
100
AcDbArc
 50
132.974624242
 51
135.0175112642
  0
ARC
  5
480
100
AcDbEntity
  8
0
100
AcDbCircle
 62
7
  6
CONTINUOUS
 10
7.5352265986
 20
-18.9179411958
 40
6.9534124163
100
AcDbArc
 50
132.571925214
 51
132.9576482122
  0
ARC
  5
481
100
AcDbEntity
  8
0
100
AcDbCircle
 62
7
  6
CONTINUOUS
 10
7.4531724328
 20
-18.8286589414
 40
6.8321515141
100
AcDbArc
 50
132.2551191751
 51
132.5717051814
  0
ARC
  5
482
100
AcDbEntity
  8
0
100
AcDbCircle
 62
7
  6
CONTINUOUS
 10
7.3749426737
 20
-18.7425147729
 40
6.7157869474
100
AcDbArc
 50
131.8619797288
 51
132.2553221442
  0
ARC
  5
483
100
AcDbEntity
  8
0
100
AcDbCircle
 62
7
  6
CONTINUOUS
 10
7.3004290901
 20
-18.6593948277
 40
6.6041572077
100
AcDbArc
 50
131.5408376087
 51
131.8617611843
  0
ARC
  5
484
100
AcDbEntity
  8
0
100
AcDbCircle
 62
7
  6
CONTINUOUS
 10
7.233755689
 20
-18.5841300287
 40
6.503608054
100
AcDbArc
 50
131.1866448682
 51
131.5409099028
  0
ARC
  5
485
100
AcDbEntity
  8
0
100
AcDbCircle
 62
7
  6
CONTINUOUS
 10
7.0189369784
 20
-18.3375293505
 40
6.1765630714
100
AcDbArc
 50
128.6227519079
 51
131.1933631123
  0
ARC
  5
486
100
AcDbEntity
  8
RACCORDO
100
AcDbCircle
 62
7
  6
CONTINUOUS
 10
8.2573298763
 20
-16.1319494227
 40
2.5
100
AcDbArc
 50
270.0
 51
360.0
  0
ARC
  5
487
100
AcDbEntity
  8
RACCORDO
100
AcDbCircle
 62
7
  6
CONTINUOUS
 10
8.2573298763
 20
-14.0919494227
 40
2.5
100
AcDbArc
 50
0.0
 51
90.0
  0
ARC
  5
488
100
AcDbEntity
  8
ASSI
100
AcDbCircle
 62
7
  6
CONTINUOUS
 10
8.2573298763
 20
-16.1319494227
 40
2.5
100
AcDbArc
 50
270.0
 51
360.0
  0
ARC
  5
489
100
AcDbEntity
  8
ASSI
100
AcDbCircle
 62
7
  6
CONTINUOUS
 10
8.2573298763
 20
-14.0919494227
 40
2.5
100
AcDbArc
 50
0.0
 51
90.0
  0
ARC
  5
48A
100
AcDbEntity
  8
RACCORDO
100
AcDbCircle
 62
7
  6
CONTINUOUS
 10
8.5573298763
 20
-14.0869494227
 40
1.5
100
AcDbArc
 50
0.0
 51
90.0
  0
ARC
  5
48B
100
AcDbEntity
  8
RACCORDO
100
AcDbCircle
 62
7
  6
CONTINUOUS
 10
8.5573298763
 20
-16.1369494227
 40
1.5
100
AcDbArc
 50
270.0
 51
360.0
  0
ARC
  5
48C
100
AcDbEntity
  8
ASSI
100
AcDbCircle
 62
7
  6
CONTINUOUS
 10
8.5573298763
 20
-14.0869494227
 40
1.5
100
AcDbArc
 50
0.0
 51
90.0
  0
ARC
  5
48D
100
AcDbEntity
  8
ASSI
100
AcDbCircle
 62
7
  6
CONTINUOUS
 10
8.5573298763
 20
-16.1369494227
 40
1.5
100
AcDbArc
 50
270.0
 51
360.0
  0
ARC
  5
48E
100
AcDbEntity
  8
0
100
AcDbCircle
 62
7
  6
CONTINUOUS
 10
8.5073298763
 20
-15.8619494227
 40
1.0
100
AcDbArc
 50
270.0
 51
345.5224878141
  0
ARC
  5
48F
100
AcDbEntity
  8
0
100
AcDbCircle
 62
7
  6
CONTINUOUS
 10
8.5073298763
 20
-14.3619494227
 40
1.0
100
AcDbArc
 50
14.4775121859
 51
90.0
  0
ARC
  5
490
100
AcDbEntity
  8
DRAFT
100
AcDbCircle
 62
7
  6
CONTINUOUS
 10
8.5073298763
 20
-14.3619494227
 40
1.0
100
AcDbArc
 50
0.0
 51
14.4775121859
  0
ARC
  5
491
100
AcDbEntity
  8
DRAFT
100
AcDbCircle
 62
7
  6
CONTINUOUS
 10
8.5073298763
 20
-15.8619494227
 40
1.0
100
AcDbArc
 50
345.5224878141
 51
360.0
  0
ARC
  5
492
100
AcDbEntity
  8
ASSI
100
AcDbCircle
 62
7
  6
CONTINUOUS
 10
8.5073298763
 20
-14.3619494227
 40
1.0
100
AcDbArc
 50
0.0
 51
90.0
  0
ARC
  5
493
100
AcDbEntity
  8
ASSI
100
AcDbCircle
 62
7
  6
CONTINUOUS
 10
8.5073298763
 20
-15.8619494227
 40
1.0
100
AcDbArc
 50
270.0
 51
360.0
  0
ARC
  5
494
100
AcDbEntity
  8
RACCORDO
100
AcDbCircle
 62
7
  6
CONTINUOUS
 10
7.769647021
 20
-6.6908824628
 40
6.812110459
100
AcDbArc
 50
276.3079979251
 51
276.7794541684
  0
ARC
  5
495
100
AcDbEntity
  8
RACCORDO
100
AcDbCircle
 62
7
  6
CONTINUOUS
 10
7.8328164862
 20
-7.1997296445
 40
6.2993647254
100
AcDbArc
 50
276.7552652558
 51
279.179130085
  0
ARC
  5
496
100
AcDbEntity
  8
0
100
AcDbCircle
 62
7
  6
CONTINUOUS
 10
2.8830012982
 20
18.8591867161
 40
7.3860592789
100
AcDbArc
 50
312.974624242
 51
315.0175112642
  0
ARC
  5
497
100
AcDbEntity
  8
0
100
AcDbCircle
 62
7
  6
CONTINUOUS
 10
7.8316524841
 20
18.8591805391
 40
7.3860506895
100
AcDbArc
 50
224.9824875814
 51
227.0253769796
  0
ARC
  5
498
100
AcDbEntity
  8
0
100
AcDbCircle
 62
7
  6
CONTINUOUS
 10
7.5567481346
 20
18.5672361056
 40
6.9850529564
100
AcDbArc
 50
227.0428017842
 51
227.2497784927
  0
ARC
  5
499
100
AcDbEntity
  8
0
100
AcDbCircle
 62
7
  6
CONTINUOUS
 10
3.1579412417
 20
18.5672038545
 40
6.9850091661
100
AcDbArc
 50
312.7502166652
 51
312.9572006532
  0
ARC
  5
49A
100
AcDbEntity
  8
ASSI
100
AcDbCircle
 62
7
  6
CONTINUOUS
 10
2.1573298763
 20
15.9380505773
 40
1.0
100
AcDbArc
 50
90.0
 51
180.0
  0
ARC
  5
49B
100
AcDbEntity
  8
ASSI
100
AcDbCircle
 62
7
  6
CONTINUOUS
 10
2.1573298763
 20
14.4380505773
 40
1.0
100
AcDbArc
 50
180.0
 51
270.0
  0
ARC
  5
49C
100
AcDbEntity
  8
DRAFT
100
AcDbCircle
 62
7
  6
CONTINUOUS
 10
8.5073298763
 20
15.9380505773
 40
1.0
100
AcDbArc
 50
0.0
 51
14.4775121859
  0
ARC
  5
49D
100
AcDbEntity
  8
0
100
AcDbCircle
 62
7
  6
CONTINUOUS
 10
8.5073298763
 20
15.9380505773
 40
1.0
100
AcDbArc
 50
14.4775121859
 51
90.0
  0
ARC
  5
49E
100
AcDbEntity
  8
0
100
AcDbCircle
 62
7
  6
CONTINUOUS
 10
8.5073298763
 20
14.4380505773
 40
1.0
100
AcDbArc
 50
270.0
 51
345.5224878141
  0
ARC
  5
49F
100
AcDbEntity
  8
DRAFT
100
AcDbCircle
 62
7
  6
CONTINUOUS
 10
8.5073298763
 20
14.4380505773
 40
1.0
100
AcDbArc
 50
345.5224878141
 51
360.0
  0
ARC
  5
4A0
100
AcDbEntity
  8
ASSI
100
AcDbCircle
 62
7
  6
CONTINUOUS
 10
8.5073298763
 20
15.9380505773
 40
1.0
100
AcDbArc
 50
0.0
 51
90.0
  0
ARC
  5
4A1
100
AcDbEntity
  8
ASSI
100
AcDbCircle
 62
7
  6
CONTINUOUS
 10
8.5073298763
 20
14.4380505773
 40
1.0
100
AcDbArc
 50
270.0
 51
360.0
  0
ARC
  5
4A2
100
AcDbEntity
  8
SMUSSO
100
AcDbCircle
 62
7
  6
CONTINUOUS
 10
5.3573298763
 20
1.5380505773
 40
0.85
100
AcDbArc
 50
334.7161175744
 51
25.2838824256
  0
ARC
  5
4A3
100
AcDbEntity
  8
ASSI
100
AcDbCircle
 62
7
  6
CONTINUOUS
 10
5.3573298763
 20
1.5380505773
 40
0.4
100
AcDbArc
 50
90.0
 51
270.0
  0
ARC
  5
4A4
100
AcDbEntity
  8
DRAFT
100
AcDbCircle
 62
7
  6
CONTINUOUS
 10
5.9573298763
 20
1.5380505773
 40
0.4
100
AcDbArc
 50
270.0
 51
90.0
  0
ARC
  5
4A5
100
AcDbEntity
  8
ASSI
100
AcDbCircle
 62
7
  6
CONTINUOUS
 10
5.9573298763
 20
1.5380505773
 40
0.4
100
AcDbArc
 50
270.0
 51
90.0
  0
CIRCLE
  5
4A6
100
AcDbEntity
  8
0
100
AcDbCircle
 62
7
  6
CONTINUOUS
 10
5.3573298763
 20
1.5380505773
 40
0.2
  0
SPLINE
  5
4A7
100
AcDbEntity
  8
RACCORDO
100
AcDbSpline
 62
7
  6
CONTINUOUS
 70
0
 71
3
 72
11
 73
7
 74
5
 42
0.0000001
 43
0.0000001
 44
0.0000000001
 12
1.3782155794
 22
-0.2313369386
 32
0.0
 13
1.3971035782
 23
0.0
 33
0.0
 40
0.0
 40
0.0
 40
0.0
 40
0.0
 40
0.1208118073
 40
0.4141711544
 40
0.7073655372
 40
1.0
 40
1.0
 40
1.0
 40
1.0
 10
1.8438892226
 20
-13.4129733559
 30
0.0
 10
1.8993907943
 20
-13.4222894338
 30
0.0
 10
2.09013298
 20
-13.4514877905
 30
0.0
 10
2.4178772409
 20
-13.4863598515
 30
0.0
 10
2.8268781177
 20
-13.5082430018
 30
0.0
 10
3.0997293144
 20
-13.5119494227
 30
0.0
 10
3.2360095327
 20
-13.5119494227
 30
0.0
 11
1.8438892226
 21
-13.4129733559
 31
0.0
 11
2.0107663847
 21
-13.438576399
 31
0.0
 11
2.4182283425
 21
-13.4827867721
 31
0.0
 11
2.8272192311
 21
-13.505532998
 31
0.0
 11
3.2360095327
 21
-13.5119494227
 31
0.0
  0
SPLINE
  5
4A8
100
AcDbEntity
  8
RACCORDO
100
AcDbSpline
 62
7
  6
CONTINUOUS
 70
0
 71
3
 72
10
 73
6
 74
4
 42
0.0000001
 43
0.0000001
 44
0.0000000001
 12
1.041123761
 22
0.0
 32
0.0
 13
1.034955264
 23
0.1144267036
 33
0.0
 40
0.0
 40
0.0
 40
0.0
 40
0.0
 40
0.3980398952
 40
0.7925411267
 40
1.0
 40
1.0
 40
1.0
 40
1.0
 10
7.4786502198
 20
-13.5119494227
 30
0.0
 10
7.6167864841
 20
-13.5119494227
 30
0.0
 10
7.8918625975
 20
-13.5081618855
 30
0.0
 10
8.2385214916
 20
-13.4893764945
 30
0.0
 10
8.4465442052
 20
-13.4696628156
 30
0.0
 10
8.5181144229
 20
-13.4617498706
 30
0.0
 11
7.4786502198
 21
-13.5119494227
 31
0.0
 11
7.8930063815
 21
-13.5053449726
 31
0.0
 11
8.3030813083
 21
-13.4822526311
 31
0.0
 11
8.5181144229
 21
-13.4617498706
 31
0.0
  0
SPLINE
  5
4A9
100
AcDbEntity
  8
RACCORDO
100
AcDbSpline
 62
7
  6
CONTINUOUS
 70
0
 71
3
 72
14
 73
10
 74
8
 42
0.0000001
 43
0.0000001
 44
0.0000000001
 12
0.0
 22
-0.1165115971
 32
0.0
 13
-0.115741935
 23
-0.0135566344
 33
0.0
 40
0.0
 40
0.0
 40
0.0
 40
0.0
 40
0.0867529996
 40
0.1951976565
 40
0.3351403319
 40
0.5077848236
 40
0.709949399
 40
0.9359863069
 40
1.0
 40
1.0
 40
1.0
 40
1.0
 10
-2.9926701237
 20
-21.8620161433
 30
0.0
 10
-2.9926701237
 20
-21.8653853868
 30
0.0
 10
-2.995265926
 20
-21.8729799374
 30
0.0
 10
-3.0047196326
 20
-21.882266381
 30
0.0
 10
-3.0188821449
 20
-21.8906106874
 30
0.0
 10
-3.0375737778
 20
-21.8978785002
 30
0.0
 10
-3.060164294
 20
-21.9038611162
 30
0.0
 10
-3.0790203894
 20
-21.9071278556
 30
0.0
 10
-3.0901982418
 20
-21.9085463349
 30
0.0
 10
-3.0926679313
 20
-21.9088356049
 30
0.0
 11
-2.9926701237
 21
-21.8620161433
 31
0.0
 11
-2.9955523317
 21
-21.8717042337
 31
0.0
 11
-3.0040881938
 21
-21.8810200161
 31
0.0
 11
-3.0179496819
 21
-21.8896054904
 31
0.0
 11
-3.0366041065
 21
-21.8971307215
 31
0.0
 11
-3.0593345888
 21
-21.9033065191
 31
0.0
 11
-3.0852676089
 21
-21.9078955507
 31
0.0
 11
-3.0926679313
 21
-21.9088356049
 31
0.0
  0
SPLINE
  5
4AA
100
AcDbEntity
  8
RACCORDO
100
AcDbSpline
 62
7
  6
CONTINUOUS
 70
0
 71
3
 72
9
 73
5
 74
3
 42
0.0000001
 43
0.0000001
 44
0.0000000001
 12
-0.0497703094
 22
-0.0058295024
 32
0.0
 13
-0.0501012727
 23
0.0
 33
0.0
 40
0.0
 40
0.0
 40
0.0
 40
0.0
 40
0.4156016551
 40
1.0
 40
1.0
 40
1.0
 40
1.0
 10
-3.0926679313
 20
-21.9088356049
 30
0.0
 10
-3.0995628057
 20
-21.9096431885
 30
0.0
 10
-3.1162045913
 20
-21.911140277
 30
0.0
 10
-3.1329104234
 20
-21.911675656
 30
0.0
 10
-3.1426701237
 20
-21.911675656
 30
0.0
 11
-3.0926679313
 21
-21.9088356049
 31
0.0
 11
-3.1134065754
 21
-21.9107214624
 31
0.0
 11
-3.1426701237
 21
-21.911675656
 31
0.0
  0
SPLINE
  5
4AB
100
AcDbEntity
  8
RACCORDO
100
AcDbSpline
 62
7
  6
CONTINUOUS
 70
0
 71
3
 72
9
 73
5
 74
3
 42
0.0000001
 43
0.0000001
 44
0.0000000001
 12
-0.0501012727
 22
0.0
 32
0.0
 13
-0.0497703094
 23
0.0058295024
 33
0.0
 40
0.0
 40
0.0
 40
0.0
 40
0.0
 40
0.5843983449
 40
1.0
 40
1.0
 40
1.0
 40
1.0
 10
2.9573298763
 20
-21.911675656
 30
0.0
 10
2.947570176
 20
-21.911675656
 30
0.0
 10
2.9308643439
 20
-21.911140277
 30
0.0
 10
2.9142225582
 20
-21.9096431885
 30
0.0
 10
2.9073276839
 20
-21.9088356049
 30
0.0
 11
2.9573298763
 21
-21.911675656
 31
0.0
 11
2.928066328
 21
-21.9107214624
 31
0.0
 11
2.9073276839
 21
-21.9088356049
 31
0.0
  0
SPLINE
  5
4AC
100
AcDbEntity
  8
RACCORDO
100
AcDbSpline
 62
7
  6
CONTINUOUS
 70
0
 71
3
 72
14
 73
10
 74
8
 42
0.0000001
 43
0.0000001
 44
0.0000000001
 12
-0.115741935
 22
0.0135566344
 32
0.0
 13
-0.0
 23
0.1165115971
 33
0.0
 40
0.0
 40
0.0
 40
0.0
 40
0.0
 40
0.0640136931
 40
0.290050601
 40
0.4922151764
 40
0.6648596681
 40
0.8048023435
 40
0.9132470004
 40
1.0
 40
1.0
 40
1.0
 40
1.0
 10
2.9073276839
 20
-21.9088356049
 30
0.0
 10
2.9048579943
 20
-21.9085463349
 30
0.0
 10
2.893680142
 20
-21.9071278556
 30
0.0
 10
2.8748240466
 20
-21.9038611162
 30
0.0
 10
2.8522335303
 20
-21.8978785002
 30
0.0
 10
2.8335418975
 20
-21.8906106874
 30
0.0
 10
2.8193793852
 20
-21.882266381
 30
0.0
 10
2.8099256786
 20
-21.8729799374
 30
0.0
 10
2.8073298763
 20
-21.8653853868
 30
0.0
 10
2.8073298763
 20
-21.8620161433
 30
0.0
 11
2.9073276839
 21
-21.9088356049
 31
0.0
 11
2.8999273614
 21
-21.9078955507
 31
0.0
 11
2.8739943413
 21
-21.9033065191
 31
0.0
 11
2.8512638591
 21
-21.8971307215
 31
0.0
 11
2.8326094344
 21
-21.8896054904
 31
0.0
 11
2.8187479464
 21
-21.8810200161
 31
0.0
 11
2.8102120842
 21
-21.8717042337
 31
0.0
 11
2.8073298763
 21
-21.8620161433
 31
0.0
  0
SPLINE
  5
4AD
100
AcDbEntity
  8
RACCORDO
100
AcDbSpline
 62
7
  6
CONTINUOUS
 70
0
 71
3
 72
15
 73
11
 74
9
 42
0.0000001
 43
0.0000001
 44
0.0000000001
 12
-0.3000166325
 22
0.0
 32
0.0
 13
0.0
 23
-0.3000166325
 33
0.0
 40
0.0
 40
0.0
 40
0.0
 40
0.0
 40
0.1950795385
 40
0.3826625411
 40
0.555540593
 40
0.7070704673
 40
0.8314295285
 40
0.9238397989
 40
0.9807528559
 40
1.0
 40
1.0
 40
1.0
 40
1.0
 10
-2.2926701237
 20
-23.3508409006
 30
0.0
 10
-2.3121791591
 20
-23.3508409006
 30
0.0
 10
-2.3504387195
 20
-23.3508702233
 30
0.0
 10
-2.4060332148
 20
-23.3509331194
 30
0.0
 10
-2.4571141855
 20
-23.3511954817
 30
0.0
 10
-2.5023604146
 20
-23.3510777359
 30
0.0
 10
-2.5381761568
 20
-23.3522267506
 30
0.0
 10
-2.5679668534
 20
-23.3503575205
 30
0.0
 10
-2.580430238
 20
-23.3545214229
 30
0.0
 10
-2.5926701237
 20
-23.3506613989
 30
0.0
 10
-2.5926701237
 20
-23.35258622
 30
0.0
 11
-2.2926701237
 21
-23.3508409006
 31
0.0
 11
-2.3511972203
 21
-23.3508744364
 31
0.0
 11
-2.4074751534
 21
-23.3509737551
 31
0.0
 11
-2.4593411936
 21
-23.35113504
 31
0.0
 11
-2.5048021581
 21
-23.3513520928
 31
0.0
 11
-2.5421110074
 21
-23.3516165725
 31
0.0
 11
-2.5698339835
 21
-23.3519183152
 31
0.0
 11
-2.5869057078
 21
-23.3522457251
 31
0.0
 11
-2.5926701237
 21
-23.35258622
 31
0.0
  0
SPLINE
  5
4AE
100
AcDbEntity
  8
RACCORDO
100
AcDbSpline
 62
7
  6
CONTINUOUS
 70
0
 71
3
 72
9
 73
5
 74
3
 42
0.0000001
 43
0.0000001
 44
0.0000000001
 12
0.0
 22
0.0149967667
 32
0.0
 13
-0.0137262032
 23
0.0013917787
 33
0.0
 40
0.0
 40
0.0
 40
0.0
 40
0.0
 40
0.3850472238
 40
1.0
 40
1.0
 40
1.0
 40
1.0
 10
2.4073298763
 20
-23.35258622
 30
0.0
 10
2.4073298763
 20
-23.3506613989
 30
0.0
 10
2.3992964358
 20
-23.3531948599
 30
0.0
 10
2.394109941
 20
-23.3532551341
 30
0.0
 10
2.3912962854
 20
-23.3529698414
 30
0.0
 11
2.4073298763
 21
-23.35258622
 31
0.0
 11
2.4015654604
 21
-23.3522457251
 31
0.0
 11
2.3912962854
 21
-23.3529698414
 31
0.0
  0
SPLINE
  5
4AF
100
AcDbEntity
  8
RACCORDO
100
AcDbSpline
 62
7
  6
CONTINUOUS
 70
0
 71
3
 72
14
 73
10
 74
8
 42
0.0000001
 43
0.0000001
 44
0.0000000001
 12
-0.2608722717
 22
0.0264513395
 32
0.0
 13
-0.2850198658
 23
0.0
 33
0.0
 40
0.0
 40
0.0
 40
0.0
 40
0.0
 40
0.0275509231
 40
0.1248235046
 40
0.2557259126
 40
0.4152287685
 40
0.5972030699
 40
0.794656046
 40
1.0
 40
1.0
 40
1.0
 40
1.0
 10
2.3912962854
 20
-23.3529698414
 30
0.0
 10
2.3889005281
 20
-23.3527269218
 30
0.0
 10
2.379280591
 20
-23.3505674676
 30
0.0
 10
2.3528359094
 20
-23.3522267506
 30
0.0
 10
2.3170201671
 20
-23.3510777359
 30
0.0
 10
2.2717739381
 20
-23.3511954817
 30
0.0
 10
2.2206929674
 20
-23.3509331194
 30
0.0
 10
2.1650984721
 20
-23.3508702233
 30
0.0
 10
2.1268389117
 20
-23.3508409006
 30
0.0
 10
2.1073298763
 20
-23.3508409006
 30
0.0
 11
2.3912962854
 21
-23.3529698414
 31
0.0
 11
2.384493736
 21
-23.3519183152
 31
0.0
 11
2.35677076
 21
-23.3516165725
 31
0.0
 11
2.3194619106
 21
-23.3513520928
 31
0.0
 11
2.2740009462
 21
-23.35113504
 31
0.0
 11
2.222134906
 21
-23.3509737551
 31
0.0
 11
2.1658569729
 21
-23.3508744364
 31
0.0
 11
2.1073298763
 21
-23.3508409006
 31
0.0
  0
SPLINE
  5
4B0
100
AcDbEntity
  8
RACCORDO
100
AcDbSpline
 62
7
  6
CONTINUOUS
 70
0
 71
3
 72
15
 73
11
 74
9
 42
0.0000001
 43
0.0000001
 44
0.0000000001
 12
0.0
 22
0.3332257396
 32
0.0
 13
0.3332257396
 23
0.0
 33
0.0
 40
0.0
 40
0.0
 40
0.0
 40
0.0
 40
0.0606659651
 40
0.1365008042
 40
0.2343620597
 40
0.3550915417
 40
0.4964642796
 40
0.6545308273
 40
0.8242686723
 40
1.0
 40
1.0
 40
1.0
 40
1.0
 10
-2.5926701237
 20
-23.2364829928
 30
0.0
 10
-2.5926701237
 20
-23.2297445057
 30
0.0
 10
-2.5874785191
 20
-23.2145554046
 30
0.0
 10
-2.5685711058
 20
-23.1959825174
 30
0.0
 10
-2.5402460814
 20
-23.1792939047
 30
0.0
 10
-2.5028628156
 20
-23.1647582789
 30
0.0
 10
-2.4576817831
 20
-23.152793047
 30
0.0
 10
-2.4062770646
 20
-23.1438873954
 30
0.0
 10
-2.3505750236
 20
-23.1383941241
 30
0.0
 10
-2.3121895243
 20
-23.1371639674
 30
0.0
 10
-2.2926701237
 20
-23.1371639674
 30
0.0
 11
-2.5926701237
 21
-23.2364829928
 31
0.0
 11
-2.5869057078
 21
-23.2171068121
 31
0.0
 11
-2.5698339835
 21
-23.1984752472
 31
0.0
 11
-2.5421110074
 21
-23.1813042987
 31
0.0
 11
-2.5048021581
 21
-23.1662538364
 31
0.0
 11
-2.4593411936
 21
-23.1539022413
 31
0.0
 11
-2.4074751534
 21
-23.144724178
 31
0.0
 11
-2.3511972203
 21
-23.1390723546
 31
0.0
 11
-2.2926701237
 21
-23.1371639674
 31
0.0
  0
SPLINE
  5
4B1
100
AcDbEntity
  8
RACCORDO
100
AcDbSpline
 62
7
  6
CONTINUOUS
 70
0
 71
3
 72
15
 73
11
 74
9
 42
0.0000001
 43
0.0000001
 44
0.0000000001
 12
0.3332257396
 22
0.0
 32
0.0
 13
0.0
 23
-0.3332257396
 33
0.0
 40
0.0
 40
0.0
 40
0.0
 40
0.0
 40
0.1757313277
 40
0.3454691727
 40
0.5035357204
 40
0.6449084583
 40
0.7656379403
 40
0.8634991958
 40
0.9393340349
 40
1.0
 40
1.0
 40
1.0
 40
1.0
 10
2.1073298763
 20
-23.1371639674
 30
0.0
 10
2.1268492768
 20
-23.1371639674
 30
0.0
 10
2.1652347762
 20
-23.1383941241
 30
0.0
 10
2.2209368171
 20
-23.1438873954
 30
0.0
 10
2.2723415356
 20
-23.152793047
 30
0.0
 10
2.3175225682
 20
-23.1647582789
 30
0.0
 10
2.3549058339
 20
-23.1792939047
 30
0.0
 10
2.3832308584
 20
-23.1959825174
 30
0.0
 10
2.4021382717
 20
-23.2145554046
 30
0.0
 10
2.4073298763
 20
-23.2297445057
 30
0.0
 10
2.4073298763
 20
-23.2364829928
 30
0.0
 11
2.1073298763
 21
-23.1371639674
 31
0.0
 11
2.1658569729
 21
-23.1390723546
 31
0.0
 11
2.222134906
 21
-23.144724178
 31
0.0
 11
2.2740009462
 21
-23.1539022413
 31
0.0
 11
2.3194619106
 21
-23.1662538364
 31
0.0
 11
2.35677076
 21
-23.1813042987
 31
0.0
 11
2.384493736
 21
-23.1984752472
 31
0.0
 11
2.4015654604
 21
-23.2171068121
 31
0.0
 11
2.4073298763
 21
-23.2364829928
 31
0.0
  0
SPLINE
  5
4B2
100
AcDbEntity
  8
RACCORDO
100
AcDbSpline
 62
7
  6
CONTINUOUS
 70
0
 71
3
 72
14
 73
10
 74
8
 42
0.0000001
 43
0.0000001
 44
0.0000000001
 12
0.0
 22
0.1165115971
 32
0.0
 13
0.115741935
 23
0.0135566344
 33
0.0
 40
0.0
 40
0.0
 40
0.0
 40
0.0
 40
0.0867529996
 40
0.1951976565
 40
0.3351403319
 40
0.5077848236
 40
0.709949399
 40
0.9359863069
 40
1.0
 40
1.0
 40
1.0
 40
1.0
 10
2.8073298763
 20
21.938117298
 30
0.0
 10
2.8073298763
 20
21.9414865415
 30
0.0
 10
2.8099256786
 20
21.949081092
 30
0.0
 10
2.8193793852
 20
21.9583675357
 30
0.0
 10
2.8335418975
 20
21.966711842
 30
0.0
 10
2.8522335303
 20
21.9739796549
 30
0.0
 10
2.8748240466
 20
21.9799622709
 30
0.0
 10
2.893680142
 20
21.9832290102
 30
0.0
 10
2.9048579943
 20
21.9846474895
 30
0.0
 10
2.9073276839
 20
21.9849367596
 30
0.0
 11
2.8073298763
 21
21.938117298
 31
0.0
 11
2.8102120842
 21
21.9478053883
 31
0.0
 11
2.8187479464
 21
21.9571211707
 31
0.0
 11
2.8326094344
 21
21.965706645
 31
0.0
 11
2.8512638591
 21
21.9732318761
 31
0.0
 11
2.8739943413
 21
21.9794076737
 31
0.0
 11
2.8999273614
 21
21.9839967053
 31
0.0
 11
2.9073276839
 21
21.9849367596
 31
0.0
  0
SPLINE
  5
4B3
100
AcDbEntity
  8
RACCORDO
100
AcDbSpline
 62
7
  6
CONTINUOUS
 70
0
 71
3
 72
9
 73
5
 74
3
 42
0.0000001
 43
0.0000001
 44
0.0000000001
 12
0.0497703094
 22
0.0058295024
 32
0.0
 13
0.0501012727
 23
0.0
 33
0.0
 40
0.0
 40
0.0
 40
0.0
 40
0.0
 40
0.4156016551
 40
1.0
 40
1.0
 40
1.0
 40
1.0
 10
2.9073276839
 20
21.9849367596
 30
0.0
 10
2.9142225582
 20
21.9857443432
 30
0.0
 10
2.9308643439
 20
21.9872414316
 30
0.0
 10
2.947570176
 20
21.9877768107
 30
0.0
 10
2.9573298763
 20
21.9877768107
 30
0.0
 11
2.9073276839
 21
21.9849367596
 31
0.0
 11
2.928066328
 21
21.986822617
 31
0.0
 11
2.9573298763
 21
21.9877768107
 31
0.0
  0
SPLINE
  5
4B4
100
AcDbEntity
  8
RACCORDO
100
AcDbSpline
 62
7
  6
CONTINUOUS
 70
0
 71
3
 72
9
 73
5
 74
3
 42
0.0000001
 43
0.0000001
 44
0.0000000001
 12
0.0501012727
 22
0.0
 32
0.0
 13
0.0497703094
 23
-0.0058295024
 33
0.0
 40
0.0
 40
0.0
 40
0.0
 40
0.0
 40
0.5843983449
 40
1.0
 40
1.0
 40
1.0
 40
1.0
 10
-3.1426701237
 20
21.9877768107
 30
0.0
 10
-3.1329104234
 20
21.9877768107
 30
0.0
 10
-3.1162045913
 20
21.9872414316
 30
0.0
 10
-3.0995628057
 20
21.9857443432
 30
0.0
 10
-3.0926679313
 20
21.9849367596
 30
0.0
 11
-3.1426701237
 21
21.9877768107
 31
0.0
 11
-3.1134065754
 21
21.986822617
 31
0.0
 11
-3.0926679313
 21
21.9849367596
 31
0.0
  0
SPLINE
  5
4B5
100
AcDbEntity
  8
RACCORDO
100
AcDbSpline
 62
7
  6
CONTINUOUS
 70
0
 71
3
 72
14
 73
10
 74
8
 42
0.0000001
 43
0.0000001
 44
0.0000000001
 12
0.115741935
 22
-0.0135566344
 32
0.0
 13
0.0
 23
-0.1165115971
 33
0.0
 40
0.0
 40
0.0
 40
0.0
 40
0.0
 40
0.0640136931
 40
0.290050601
 40
0.4922151764
 40
0.6648596681
 40
0.8048023435
 40
0.9132470004
 40
1.0
 40
1.0
 40
1.0
 40
1.0
 10
-3.0926679313
 20
21.9849367596
 30
0.0
 10
-3.0901982418
 20
21.9846474895
 30
0.0
 10
-3.0790203894
 20
21.9832290102
 30
0.0
 10
-3.060164294
 20
21.9799622709
 30
0.0
 10
-3.0375737778
 20
21.9739796549
 30
0.0
 10
-3.0188821449
 20
21.966711842
 30
0.0
 10
-3.0047196326
 20
21.9583675357
 30
0.0
 10
-2.995265926
 20
21.949081092
 30
0.0
 10
-2.9926701237
 20
21.9414865415
 30
0.0
 10
-2.9926701237
 20
21.938117298
 30
0.0
 11
-3.0926679313
 21
21.9849367596
 31
0.0
 11
-3.0852676089
 21
21.9839967053
 31
0.0
 11
-3.0593345888
 21
21.9794076737
 31
0.0
 11
-3.0366041065
 21
21.9732318761
 31
0.0
 11
-3.0179496819
 21
21.965706645
 31
0.0
 11
-3.0040881938
 21
21.9571211707
 31
0.0
 11
-2.9955523317
 21
21.9478053883
 31
0.0
 11
-2.9926701237
 21
21.938117298
 31
0.0
  0
SPLINE
  5
4B6
100
AcDbEntity
  8
RACCORDO
100
AcDbSpline
 62
7
  6
CONTINUOUS
 70
0
 71
3
 72
15
 73
11
 74
9
 42
0.0000001
 43
0.0000001
 44
0.0000000001
 12
0.3000166325
 22
0.0
 32
0.0
 13
0.0
 23
0.3000166325
 33
0.0
 40
0.0
 40
0.0
 40
0.0
 40
0.0
 40
0.1950795385
 40
0.3826625411
 40
0.555540593
 40
0.7070704673
 40
0.8314295285
 40
0.9238397989
 40
0.9807528559
 40
1.0
 40
1.0
 40
1.0
 40
1.0
 10
2.1073298763
 20
23.4269420553
 30
0.0
 10
2.1268389117
 20
23.4269420553
 30
0.0
 10
2.1650984721
 20
23.4269713779
 30
0.0
 10
2.2206929674
 20
23.4270342741
 30
0.0
 10
2.2717739381
 20
23.4272966363
 30
0.0
 10
2.3170201671
 20
23.4271788905
 30
0.0
 10
2.3528359094
 20
23.4283279052
 30
0.0
 10
2.382626606
 20
23.4264586751
 30
0.0
 10
2.3950899906
 20
23.4306225775
 30
0.0
 10
2.4073298763
 20
23.4267625535
 30
0.0
 10
2.4073298763
 20
23.4286873747
 30
0.0
 11
2.1073298763
 21
23.4269420553
 31
0.0
 11
2.1658569729
 21
23.4269755911
 31
0.0
 11
2.222134906
 21
23.4270749098
 31
0.0
 11
2.2740009462
 21
23.4272361946
 31
0.0
 11
2.3194619106
 21
23.4274532475
 31
0.0
 11
2.35677076
 21
23.4277177272
 31
0.0
 11
2.384493736
 21
23.4280194698
 31
0.0
 11
2.4015654604
 21
23.4283468797
 31
0.0
 11
2.4073298763
 21
23.4286873747
 31
0.0
  0
SPLINE
  5
4B7
100
AcDbEntity
  8
RACCORDO
100
AcDbSpline
 62
7
  6
CONTINUOUS
 70
0
 71
3
 72
9
 73
5
 74
3
 42
0.0000001
 43
0.0000001
 44
0.0000000001
 12
0.0
 22
-0.0149967667
 32
0.0
 13
0.0137262032
 23
-0.0013917787
 33
0.0
 40
0.0
 40
0.0
 40
0.0
 40
0.0
 40
0.3850472238
 40
1.0
 40
1.0
 40
1.0
 40
1.0
 10
-2.5926701237
 20
23.4286873747
 30
0.0
 10
-2.5926701237
 20
23.4267625535
 30
0.0
 10
-2.5846366832
 20
23.4292960145
 30
0.0
 10
-2.5794501884
 20
23.4293562888
 30
0.0
 10
-2.5766365328
 20
23.429070996
 30
0.0
 11
-2.5926701237
 21
23.4286873747
 31
0.0
 11
-2.5869057078
 21
23.4283468797
 31
0.0
 11
-2.5766365328
 21
23.429070996
 31
0.0
  0
SPLINE
  5
4B8
100
AcDbEntity
  8
RACCORDO
100
AcDbSpline
 62
7
  6
CONTINUOUS
 70
0
 71
3
 72
14
 73
10
 74
8
 42
0.0000001
 43
0.0000001
 44
0.0000000001
 12
0.2608722717
 22
-0.0264513395
 32
0.0
 13
0.2850198658
 23
0.0
 33
0.0
 40
0.0
 40
0.0
 40
0.0
 40
0.0
 40
0.0275509231
 40
0.1248235046
 40
0.2557259126
 40
0.4152287685
 40
0.5972030699
 40
0.794656046
 40
1.0
 40
1.0
 40
1.0
 40
1.0
 10
-2.5766365328
 20
23.429070996
 30
0.0
 10
-2.5742407755
 20
23.4288280764
 30
0.0
 10
-2.5646208384
 20
23.4266686222
 30
0.0
 10
-2.5381761568
 20
23.4283279052
 30
0.0
 10
-2.5023604146
 20
23.4271788905
 30
0.0
 10
-2.4571141855
 20
23.4272966363
 30
0.0
 10
-2.4060332148
 20
23.4270342741
 30
0.0
 10
-2.3504387195
 20
23.4269713779
 30
0.0
 10
-2.3121791591
 20
23.4269420553
 30
0.0
 10
-2.2926701237
 20
23.4269420553
 30
0.0
 11
-2.5766365328
 21
23.429070996
 31
0.0
 11
-2.5698339835
 21
23.4280194698
 31
0.0
 11
-2.5421110074
 21
23.4277177272
 31
0.0
 11
-2.5048021581
 21
23.4274532475
 31
0.0
 11
-2.4593411936
 21
23.4272361946
 31
0.0
 11
-2.4074751534
 21
23.4270749098
 31
0.0
 11
-2.3511972203
 21
23.4269755911
 31
0.0
 11
-2.2926701237
 21
23.4269420553
 31
0.0
  0
SPLINE
  5
4B9
100
AcDbEntity
  8
RACCORDO
100
AcDbSpline
 62
7
  6
CONTINUOUS
 70
0
 71
3
 72
15
 73
11
 74
9
 42
0.0000001
 43
0.0000001
 44
0.0000000001
 12
0.0
 22
-0.3332257396
 32
0.0
 13
-0.3332257396
 23
0.0
 33
0.0
 40
0.0
 40
0.0
 40
0.0
 40
0.0
 40
0.0606659651
 40
0.1365008042
 40
0.2343620597
 40
0.3550915417
 40
0.4964642796
 40
0.6545308273
 40
0.8242686723
 40
1.0
 40
1.0
 40
1.0
 40
1.0
 10
2.4073298763
 20
23.3125841474
 30
0.0
 10
2.4073298763
 20
23.3058456604
 30
0.0
 10
2.4021382717
 20
23.2906565593
 30
0.0
 10
2.3832308584
 20
23.272083672
 30
0.0
 10
2.3549058339
 20
23.2553950593
 30
0.0
 10
2.3175225682
 20
23.2408594336
 30
0.0
 10
2.2723415356
 20
23.2288942016
 30
0.0
 10
2.2209368171
 20
23.21998855
 30
0.0
 10
2.1652347762
 20
23.2144952788
 30
0.0
 10
2.1268492768
 20
23.213265122
 30
0.0
 10
2.1073298763
 20
23.213265122
 30
0.0
 11
2.4073298763
 21
23.3125841474
 31
0.0
 11
2.4015654604
 21
23.2932079668
 31
0.0
 11
2.384493736
 21
23.2745764019
 31
0.0
 11
2.35677076
 21
23.2574054533
 31
0.0
 11
2.3194619106
 21
23.2423549911
 31
0.0
 11
2.2740009462
 21
23.2300033959
 31
0.0
 11
2.222134906
 21
23.2208253327
 31
0.0
 11
2.1658569729
 21
23.2151735093
 31
0.0
 11
2.1073298763
 21
23.213265122
 31
0.0
  0
SPLINE
  5
4BA
100
AcDbEntity
  8
RACCORDO
100
AcDbSpline
 62
7
  6
CONTINUOUS
 70
0
 71
3
 72
15
 73
11
 74
9
 42
0.0000001
 43
0.0000001
 44
0.0000000001
 12
-0.3332257396
 22
0.0
 32
0.0
 13
0.0
 23
0.3332257396
 33
0.0
 40
0.0
 40
0.0
 40
0.0
 40
0.0
 40
0.1757313277
 40
0.3454691727
 40
0.5035357204
 40
0.6449084583
 40
0.7656379403
 40
0.8634991958
 40
0.9393340349
 40
1.0
 40
1.0
 40
1.0
 40
1.0
 10
-2.2926701237
 20
23.213265122
 30
0.0
 10
-2.3121895243
 20
23.213265122
 30
0.0
 10
-2.3505750236
 20
23.2144952788
 30
0.0
 10
-2.4062770646
 20
23.21998855
 30
0.0
 10
-2.4576817831
 20
23.2288942016
 30
0.0
 10
-2.5028628156
 20
23.2408594336
 30
0.0
 10
-2.5402460814
 20
23.2553950593
 30
0.0
 10
-2.5685711058
 20
23.272083672
 30
0.0
 10
-2.5874785191
 20
23.2906565593
 30
0.0
 10
-2.5926701237
 20
23.3058456604
 30
0.0
 10
-2.5926701237
 20
23.3125841474
 30
0.0
 11
-2.2926701237
 21
23.213265122
 31
0.0
 11
-2.3511972203
 21
23.2151735093
 31
0.0
 11
-2.4074751534
 21
23.2208253327
 31
0.0
 11
-2.4593411936
 21
23.2300033959
 31
0.0
 11
-2.5048021581
 21
23.2423549911
 31
0.0
 11
-2.5421110074
 21
23.2574054533
 31
0.0
 11
-2.5698339835
 21
23.2745764019
 31
0.0
 11
-2.5869057078
 21
23.2932079668
 31
0.0
 11
-2.5926701237
 21
23.3125841474
 31
0.0
  0
SPLINE
  5
4BB
100
AcDbEntity
  8
ASSI
100
AcDbSpline
 62
7
  6
CONTINUOUS
 70
0
 71
3
 72
9
 73
5
 74
3
 42
0.0000001
 43
0.0000001
 44
0.0000000001
 12
-0.1757158836
 22
-0.0043708083
 32
0.0
 13
-0.1712434886
 23
0.0420666548
 33
0.0
 40
0.0
 40
0.0
 40
0.0
 40
0.0
 40
0.8993779715
 40
1.0
 40
1.0
 40
1.0
 40
1.0
 10
10.9317746763
 20
-4.1614489508
 30
0.0
 10
10.8790963446
 20
-4.162759287
 30
0.0
 10
10.8202726683
 20
-4.1557022547
 30
0.0
 10
10.7630151078
 20
-4.1423262506
 30
0.0
 10
10.7572714854
 20
-4.1409153066
 30
0.0
 11
10.9317746763
 21
-4.1614489508
 31
0.0
 11
10.7745537082
 21
-4.1449541137
 31
0.0
 11
10.7572714854
 21
-4.1409153066
 31
0.0
  0
SPLINE
  5
4BC
100
AcDbEntity
  8
ASSI
100
AcDbSpline
 62
7
  6
CONTINUOUS
 70
0
 71
3
 72
8
 73
4
 74
2
 42
0.0000001
 43
0.0000001
 44
0.0000000001
 12
0.1552761861
 22
0.0345453122
 32
0.0
 13
0.1584237334
 23
-0.0039406783
 33
0.0
 40
0.0
 40
0.0
 40
0.0
 40
0.0
 40
1.0
 40
1.0
 40
1.0
 40
1.0
 10
10.7741717711
 20
4.2209741805
 30
0.0
 10
10.8259304999
 20
4.2324892846
 30
0.0
 10
10.8789667927
 20
4.2388685685
 30
0.0
 10
10.9317747038
 20
4.2375550091
 30
0.0
 11
10.7741717711
 21
4.2209741805
 31
0.0
 11
10.9317747038
 21
4.2375550091
 31
0.0
  0
SPLINE
  5
4BD
100
AcDbEntity
  8
ASSI
100
AcDbSpline
 62
7
  6
CONTINUOUS
 70
0
 71
3
 72
9
 73
5
 74
3
 42
0.0000001
 43
0.0000001
 44
0.0000000001
 12
0.1757158836
 22
0.0043708083
 32
0.0
 13
0.1712434886
 23
-0.0420666548
 33
0.0
 40
0.0
 40
0.0
 40
0.0
 40
0.0
 40
0.8993779715
 40
1.0
 40
1.0
 40
1.0
 40
1.0
 10
-11.1171149237
 20
4.2375501054
 30
0.0
 10
-11.064436592
 20
4.2388604416
 30
0.0
 10
-11.0056129157
 20
4.2318034093
 30
0.0
 10
-10.9483553553
 20
4.2184274052
 30
0.0
 10
-10.9426117329
 20
4.2170164612
 30
0.0
 11
-11.1171149237
 21
4.2375501054
 31
0.0
 11
-10.9598939556
 21
4.2210552683
 31
0.0
 11
-10.9426117329
 21
4.2170164612
 31
0.0
  0
SPLINE
  5
4BE
100
AcDbEntity
  8
ASSI
100
AcDbSpline
 62
7
  6
CONTINUOUS
 70
0
 71
3
 72
9
 73
5
 74
3
 42
0.0000001
 43
0.0000001
 44
0.0000000001
 12
-0.1712402004
 22
-0.0420750908
 32
0.0
 13
-0.1757129506
 23
0.0043707353
 33
0.0
 40
0.0
 40
0.0
 40
0.0
 40
0.0
 40
0.0983946664
 40
1.0
 40
1.0
 40
1.0
 40
1.0
 10
-10.9426137157
 20
-4.1409185204
 30
0.0
 10
-10.9482300898
 20
-4.1422985086
 30
0.0
 10
-11.005482751
 20
-4.1556919412
 30
0.0
 10
-11.0643070401
 20
-4.1627674138
 30
0.0
 10
-11.1171149512
 20
-4.1614538544
 30
0.0
 11
-10.9426137157
 21
-4.1409185204
 31
0.0
 11
-10.9595120186
 21
-4.1448730259
 31
0.0
 11
-11.1171149512
 21
-4.1614538544
 31
0.0
  0
ELLIPSE
  5
4BF
100
AcDbEntity
  8
RACCORDO
100
AcDbEllipse
 62
7
  6
CONTINUOUS
 10
5.9300194126
 20
-21.7846558824
 30
0.0
 11
0.0
 21
1.0
 31
0.0
 40
0.0058178298
 41
1.3409474659
 42
1.5707963268
  0
ELLIPSE
  5
4C0
100
AcDbEntity
  8
RACCORDO
100
AcDbEllipse
 62
7
  6
CONTINUOUS
 10
-6.11535966
 20
21.860757037
 30
0.0
 11
0.0
 21
1.0
 31
0.0
 40
0.0058178298
 41
-1.6964331285
 42
-1.5707963268
  0
ELLIPSE
  5
4C1
100
AcDbEntity
  8
RACCORDO
100
AcDbEllipse
 62
7
  6
CONTINUOUS
 10
-6.11535966
 20
-21.7846558824
 30
0.0
 11
0.0
 21
1.0
 31
0.0
 40
0.0058178298
 41
-1.5707963268
 42
-1.4451595251
  0
ELLIPSE
  5
4C2
100
AcDbEntity
  8
RACCORDO
100
AcDbEllipse
 62
7
  6
CONTINUOUS
 10
5.9300194126
 20
21.860757037
 30
0.0
 11
0.0
 21
1.0
 31
0.0
 40
0.0058178298
 41
-4.7123889804
 42
-4.4825401194
  0
ELLIPSE
  5
4C3
100
AcDbEntity
  8
RACCORDO
100
AcDbEllipse
 62
7
  6
CONTINUOUS
 10
-10.8584065235
 20
19.8037869772
 30
0.0
 11
-0.2121392143
 21
0.2121392143
 31
-0.0
 40
0.9999661546
 41
-0.7853812404
 42
0.7853812404
  0
ELLIPSE
  5
4C4
100
AcDbEntity
  8
RACCORDO
100
AcDbEllipse
 62
7
  6
CONTINUOUS
 10
10.6730662761
 20
19.8037869772
 30
0.0
 11
-0.2121392143
 21
-0.2121392143
 31
-0.0
 40
0.9999661546
 41
2.3562114132
 42
3.926973894
  0
ELLIPSE
  5
4C5
100
AcDbEntity
  8
RACCORDO
100
AcDbEllipse
 62
7
  6
CONTINUOUS
 10
10.6730662761
 20
-19.7276858225
 30
0.0
 11
0.2121392143
 21
-0.2121392143
 31
0.0
 40
0.9999661546
 41
-0.7853812404
 42
0.7853812404
  0
ELLIPSE
  5
4C6
100
AcDbEntity
  8
RACCORDO
100
AcDbEllipse
 62
7
  6
CONTINUOUS
 10
-10.8584065235
 20
-19.7276858225
 30
0.0
 11
0.2121392143
 21
0.2121392143
 31
0.0
 40
0.9999661546
 41
2.3562114132
 42
3.926973894
  0
ELLIPSE
  5
4C7
100
AcDbEntity
  8
RACCORDO
100
AcDbEllipse
 62
7
  6
CONTINUOUS
 10
-11.100294106
 20
3.5109141298
 30
0.0
 11
0.0
 21
0.7248712197
 31
0.0
 40
0.9656887748
 41
-0.2274032876
 42
-0.0
  0
ELLIPSE
  5
4C8
100
AcDbEntity
  8
RACCORDO
100
AcDbEllipse
 62
7
  6
CONTINUOUS
 10
-11.100294106
 20
-3.4348129751
 30
0.0
 11
0.0
 21
0.7248712197
 31
0.0
 40
0.9656887748
 41
-3.1415926536
 42
-2.9141971896
  0
ELLIPSE
  5
4C9
100
AcDbEntity
  8
RACCORDO
100
AcDbEllipse
 62
7
  6
CONTINUOUS
 10
10.9149538586
 20
-3.4348129751
 30
0.0
 11
0.0
 21
0.7248712197
 31
0.0
 40
0.9656887748
 41
-3.3689959412
 42
-3.1415926536
  0
ELLIPSE
  5
4CA
100
AcDbEntity
  8
RACCORDO
100
AcDbEllipse
 62
7
  6
CONTINUOUS
 10
10.9149538586
 20
3.5109141298
 30
0.0
 11
0.0
 21
0.7248712197
 31
0.0
 40
0.9656887748
 41
0.0
 42
0.227395464
  0
ELLIPSE
  5
4CB
100
AcDbEntity
  8
ASSI
100
AcDbEllipse
 62
7
  6
CONTINUOUS
 10
10.6730662761
 20
-19.7276858225
 30
0.0
 11
0.2121392143
 21
-0.2121392143
 31
0.0
 40
0.9999661546
 41
-0.7853812404
 42
0.7853812404
  0
ELLIPSE
  5
4CC
100
AcDbEntity
  8
ASSI
100
AcDbEllipse
 62
7
  6
CONTINUOUS
 10
-10.8584065235
 20
-19.7276858225
 30
0.0
 11
0.2121392143
 21
0.2121392143
 31
0.0
 40
0.9999661546
 41
2.3562114132
 42
3.926973894
  0
ELLIPSE
  5
4CD
100
AcDbEntity
  8
ASSI
100
AcDbEllipse
 62
7
  6
CONTINUOUS
 10
-10.8584065235
 20
19.8037869772
 30
0.0
 11
-0.2121392143
 21
0.2121392143
 31
-0.0
 40
0.9999661546
 41
-0.7853812404
 42
0.7853812404
  0
ELLIPSE
  5
4CE
100
AcDbEntity
  8
ASSI
100
AcDbEllipse
 62
7
  6
CONTINUOUS
 10
10.6730662761
 20
19.8037869772
 30
0.0
 11
-0.2121392143
 21
-0.2121392143
 31
-0.0
 40
0.9999661546
 41
2.3562114132
 42
3.926973894
  0
ELLIPSE
  5
4CF
100
AcDbEntity
  8
ASSI
100
AcDbEllipse
 62
7
  6
CONTINUOUS
 10
-6.11535966
 20
21.860757037
 30
0.0
 11
0.0
 21
1.0
 31
0.0
 40
0.0058178298
 41
-1.6964331285
 42
-1.5707963268
  0
ELLIPSE
  5
4D0
100
AcDbEntity
  8
ASSI
100
AcDbEllipse
 62
7
  6
CONTINUOUS
 10
5.9300194126
 20
-21.7846558824
 30
0.0
 11
0.0
 21
1.0
 31
0.0
 40
0.0058178298
 41
1.3409474659
 42
1.5707963268
  0
ELLIPSE
  5
4D1
100
AcDbEntity
  8
ASSI
100
AcDbEllipse
 62
7
  6
CONTINUOUS
 10
5.9300194126
 20
21.860757037
 30
0.0
 11
0.0
 21
1.0
 31
0.0
 40
0.0058178298
 41
-4.7123889804
 42
-4.4825401194
  0
ELLIPSE
  5
4D2
100
AcDbEntity
  8
ASSI
100
AcDbEllipse
 62
7
  6
CONTINUOUS
 10
-6.11535966
 20
-21.7846558824
 30
0.0
 11
0.0
 21
1.0
 31
0.0
 40
0.0058178298
 41
-1.5707963268
 42
-1.4451595251
  0
ELLIPSE
  5
4D3
100
AcDbEntity
  8
DRAFT
100
AcDbEllipse
 62
7
  6
CONTINUOUS
 10
-8.7383675345
 20
-13.8619494227
 30
0.0
 11
0.9860557856
 21
0.0
 31
0.0
 40
0.9999904802
 41
1.5751597745
 42
3.1415926536
  0
ELLIPSE
  5
4D4
100
AcDbEntity
  8
DRAFT
100
AcDbEllipse
 62
7
  6
CONTINUOUS
 10
-8.7383675345
 20
13.9380505773
 30
0.0
 11
0.9860557856
 21
-0.0
 31
0.0
 40
0.9999904802
 41
-3.1415926536
 42
-1.5751597745
  0
ELLIPSE
  5
4D5
100
AcDbEntity
  8
DRAFT
100
AcDbEllipse
 62
7
  6
CONTINUOUS
 10
-8.7383675345
 20
16.4380505773
 30
0.0
 11
0.9860557856
 21
-0.0
 31
0.0
 40
0.9999904802
 41
1.5751597745
 42
3.1415926538
  0
ELLIPSE
  5
4D6
100
AcDbEntity
  8
DRAFT
100
AcDbEllipse
 62
7
  6
CONTINUOUS
 10
-8.7383675345
 20
-16.3619494227
 30
0.0
 11
0.9860557856
 21
-0.0
 31
0.0
 40
0.9999904802
 41
3.1415926536
 42
4.7080255327
  0
ELLIPSE
  5
4D7
100
AcDbEntity
  8
ASSI
100
AcDbEllipse
 62
7
  6
CONTINUOUS
 10
-0.0839432559
 20
20.7967393667
 30
0.0
 11
0.0
 21
1.0
 31
0.0
 40
0.0087268678
 41
0.0087266463
 42
1.5707963268
  0
ELLIPSE
  5
4D8
100
AcDbEntity
  8
ASSI
100
AcDbEllipse
 62
7
  6
CONTINUOUS
 10
-1.3013969915
 20
20.7967393667
 30
0.0
 11
0.0
 21
1.0
 31
0.0
 40
0.0087268678
 41
-1.5707963268
 42
-0.0087266463
  0
ELLIPSE
  5
4D9
100
AcDbEntity
  8
ASSI
100
AcDbEllipse
 62
7
  6
CONTINUOUS
 10
-2.3252735057
 20
-16.1293460407
 30
0.0
 11
-1.0607409467
 21
1.0607409467
 31
0.0
 40
0.9999238505
 41
-3.9269527408
 42
-2.3562325664
  0
ELLIPSE
  5
4DA
100
AcDbEntity
  8
ASSI
100
AcDbEllipse
 62
7
  6
CONTINUOUS
 10
-2.3252735057
 20
-14.0945528047
 30
0.0
 11
1.0607409467
 21
1.0607409467
 31
0.0
 40
0.9999238505
 41
-0.7853600872
 42
0.7853600872
  0
ELLIPSE
  5
4DB
100
AcDbEntity
  8
ASSI
100
AcDbEllipse
 62
7
  6
CONTINUOUS
 10
2.1399332583
 20
-14.0945528047
 30
0.0
 11
-1.0607409467
 21
1.0607409467
 31
0.0
 40
0.9999238505
 41
-0.7853600872
 42
0.7853600872
  0
ELLIPSE
  5
4DC
100
AcDbEntity
  8
ASSI
100
AcDbEllipse
 62
7
  6
CONTINUOUS
 10
2.1399332583
 20
-16.1293460407
 30
0.0
 11
1.0607409467
 21
1.0607409467
 31
0.0
 40
0.9999238505
 41
-3.9269527408
 42
-2.3562325664
  0
ELLIPSE
  5
4DD
100
AcDbEntity
  8
ASSI
100
AcDbEllipse
 62
7
  6
CONTINUOUS
 10
2.1573869939
 20
-16.1118923051
 30
0.0
 11
-1.0607409467
 21
-1.0607409467
 31
0.0
 40
0.9999238505
 41
-0.7853600872
 42
0.7853600872
  0
ELLIPSE
  5
4DE
100
AcDbEntity
  8
ASSI
100
AcDbEllipse
 62
7
  6
CONTINUOUS
 10
2.1573869939
 20
-14.1120065403
 30
0.0
 11
-1.0607409467
 21
1.0607409467
 31
0.0
 40
0.9999238505
 41
-0.7853600872
 42
0.7853600872
  0
ELLIPSE
  5
4DF
100
AcDbEntity
  8
ASSI
100
AcDbEllipse
 62
7
  6
CONTINUOUS
 10
-1.2970335576
 20
19.7923378544
 30
0.0
 11
0.0
 21
2.0
 31
0.0
 40
0.0087268678
 41
-1.5707963268
 42
-0.0087266463
  0
ELLIPSE
  5
4E0
100
AcDbEntity
  8
ASSI
100
AcDbEllipse
 62
7
  6
CONTINUOUS
 10
-1.2883066898
 20
-9.966350935
 30
0.0
 11
0.0
 21
1.0
 31
0.0
 40
0.0087268678
 41
-1.5707963268
 42
-0.0087266463
  0
ELLIPSE
  5
4E1
100
AcDbEntity
  8
ASSI
100
AcDbEllipse
 62
7
  6
CONTINUOUS
 10
-0.0883066898
 20
19.7923378544
 30
0.0
 11
0.0
 21
2.0
 31
0.0
 40
0.0087268678
 41
0.0087266463
 42
1.5707963268
  0
ELLIPSE
  5
4E2
100
AcDbEntity
  8
ASSI
100
AcDbEllipse
 62
7
  6
CONTINUOUS
 10
-0.0970335576
 20
-9.966350935
 30
0.0
 11
0.0
 21
1.0
 31
0.0
 40
0.0087268678
 41
0.0087266463
 42
1.5707963268
  0
ELLIPSE
  5
4E3
100
AcDbEntity
  8
ASSI
100
AcDbEllipse
 62
7
  6
CONTINUOUS
 10
-2.3427272413
 20
-14.1120065403
 30
0.0
 11
1.0607409467
 21
1.0607409467
 31
0.0
 40
0.9999238505
 41
-0.7853600872
 42
0.7853600872
  0
ELLIPSE
  5
4E4
100
AcDbEntity
  8
ASSI
100
AcDbEllipse
 62
7
  6
CONTINUOUS
 10
-2.3427272413
 20
-16.1118923051
 30
0.0
 11
1.0607409467
 21
-1.0607409467
 31
0.0
 40
0.9999238505
 41
-0.7853600872
 42
0.7853600872
  0
ELLIPSE
  5
4E5
100
AcDbEntity
  8
ASSI
100
AcDbEllipse
 62
7
  6
CONTINUOUS
 10
2.1573298763
 20
-16.0811730163
 30
0.0
 11
-0.0
 21
1.0307764064
 31
0.0
 40
0.9701425001
 41
1.5707963268
 42
3.1415926536
  0
ELLIPSE
  5
4E6
100
AcDbEntity
  8
ASSI
100
AcDbEllipse
 62
7
  6
CONTINUOUS
 10
2.1573298763
 20
-14.1427258291
 30
0.0
 11
0.0
 21
1.0307764064
 31
0.0
 40
0.9701425001
 41
0.0
 42
1.5707963268
  0
ELLIPSE
  5
4E7
100
AcDbEntity
  8
ASSI
100
AcDbEllipse
 62
7
  6
CONTINUOUS
 10
2.1573298763
 20
16.1572741709
 30
0.0
 11
-0.0
 21
1.0307764064
 31
0.0
 40
0.9701425001
 41
-0.0
 42
1.5707963268
  0
ELLIPSE
  5
4E8
100
AcDbEntity
  8
ASSI
100
AcDbEllipse
 62
7
  6
CONTINUOUS
 10
2.1573298763
 20
14.2188269837
 30
0.0
 11
-0.0
 21
1.0307764064
 31
0.0
 40
0.9701425001
 41
1.5707963268
 42
3.1415926536
  0
ELLIPSE
  5
4E9
100
AcDbEntity
  8
DRAFT
100
AcDbEllipse
 62
7
  6
CONTINUOUS
 10
8.5051631427
 20
16.1880505773
 30
0.0
 11
0.9931323188
 21
-0.000000001
 31
0.0
 40
0.9999976201
 41
6.2831853076
 42
7.8517999163
  0
ELLIPSE
  5
4EA
100
AcDbEntity
  8
DRAFT
100
AcDbEllipse
 62
7
  6
CONTINUOUS
 10
8.5051631427
 20
14.1880505773
 30
0.0
 11
0.9931323188
 21
0.0
 31
0.0
 40
0.9999976201
 41
-1.5686146081
 42
-0.0
  0
ELLIPSE
  5
4EB
100
AcDbEntity
  8
DRAFT
100
AcDbEllipse
 62
7
  6
CONTINUOUS
 10
8.5051631427
 20
-14.1119494227
 30
0.0
 11
0.9931323188
 21
0.0
 31
0.0
 40
0.9999976201
 41
-0.0
 42
1.5686146081
  0
ELLIPSE
  5
4EC
100
AcDbEntity
  8
DRAFT
100
AcDbEllipse
 62
7
  6
CONTINUOUS
 10
8.5051631427
 20
-16.1119494227
 30
0.0
 11
0.9931323188
 21
-0.0000000003
 31
0.0
 40
0.9999976201
 41
-1.5686146078
 42
0.0000000001
  0
ELLIPSE
  5
4ED
100
AcDbEntity
  8
ASSI
100
AcDbEllipse
 62
7
  6
CONTINUOUS
 10
8.5051631427
 20
16.1880505773
 30
0.0
 11
0.9931323188
 21
-0.0000000007
 31
0.0
 40
0.9999976201
 41
6.2831853076
 42
7.851799916
  0
ELLIPSE
  5
4EE
100
AcDbEntity
  8
ASSI
100
AcDbEllipse
 62
7
  6
CONTINUOUS
 10
8.5051631427
 20
-16.1119494227
 30
0.0
 11
0.9931323188
 21
-0.0000000001
 31
0.0
 40
0.9999976201
 41
-1.568614608
 42
0.0000000001
  0
ELLIPSE
  5
4EF
100
AcDbEntity
  8
ASSI
100
AcDbEllipse
 62
7
  6
CONTINUOUS
 10
8.5051631427
 20
-14.1119494227
 30
0.0
 11
0.9931323188
 21
0.0
 31
0.0
 40
0.9999976201
 41
-0.0
 42
1.5686146081
  0
ELLIPSE
  5
4F0
100
AcDbEntity
  8
ASSI
100
AcDbEllipse
 62
7
  6
CONTINUOUS
 10
8.5051631427
 20
14.1880505773
 30
0.0
 11
0.9931323188
 21
-0.0000000003
 31
0.0
 40
0.9999976201
 41
4.714570699
 42
6.2831853075
  0
ENDSEC
  0
SECTION
  2
OBJECTS
  0
DICTIONARY
  5
C
100
AcDbDictionary
280
0
281
1
  3
ACAD_GROUP
350
D
  3
ACAD_MLINESTYLE
350
17
  3
ACAD_LAYOUT
350
1A
  3
ACAD_PLOTSETTINGS
350
19
  3
ACAD_PLOTSTYLENAME
350
E
  0
DICTIONARY
  5
D
102
{ACAD_REACTORS
330
C
102
}
100
AcDbDictionary
280
0
281
1
  0
ACDBDICTIONARYWDFLT
  5
E
102
{ACAD_REACTORS
330
C
102
}
100
AcDbDictionary
281
1
  3
Normal
350
F
100
AcDbDictionaryWithDefault
340
F
  0
DICTIONARY
  5
17
102
{ACAD_REACTORS
330
C
102
}
100
AcDbDictionary
280
0
281
1
  3
Standard
350
18
  0
DICTIONARY
  5
19
102
{ACAD_REACTORS
330
C
102
}
100
AcDbDictionary
281
1
  0
DICTIONARY
  5
1A
102
{ACAD_REACTORS
330
C
102
}
100
AcDbDictionary
281
1
  3
Model
350
4F1
  3
Layout1
350
4F2
  0
ACDBPLACEHOLDER
  5
F
102
{ACAD_REACTORS
330
E
102
}
  0
MLINESTYLE
  5
18
102
{ACAD_REACTORS
330
17
102
}
100
AcDbMlineStyle
  2
STANDARD
 70
0
  3

 62
256
 51
90.0
 52
90.0
 71
2
 49
0.5
 62
256
  6
BYLAYER
 49
-0.5
 62
256
  6
BYLAYER
  0
LAYOUT
  5
4F1
102
{ACAD_REACTORS
330
1A
102
}
100
AcDbPlotSettings
  1

  2
none_device
  4
ISO_A4_(297.00_x_210.00_MM)
  6

 40
0.0
 41
0.0
 42
0.0
 43
0.0
 44
297.0
 45
210.0
 46
0.0
 47
0.0
 48
0.0
 49
0.0
140
0.0
141
0.0
142
1.0
143
1.0
 70
1024
 72
1
 73
0
 74
0
  7

 75
0
147
1.0
148
0.0
149
0.0
100
AcDbLayout
  1
Model
 70
0
 71
0
 10
0.0
 20
0.0
 11
297.0
 21
210.0
 12
0.0
 22
0.0
 32
0.0
 14
0.0
 24
0.0
 34
0.0
 15
0.0
 25
0.0
 35
0.0
146
0.0
 13
0.0
 23
0.0
 33
0.0
 16
1.0
 26
0.0
 36
0.0
 17
0.0
 27
1.0
 37
0.0
 76
0
330
21C
345
0
346
0
  0
LAYOUT
  5
4F2
102
{ACAD_REACTORS
330
1A
102
}
100
AcDbPlotSettings
  1

  2
none_device
  4
ISO_A4_(297.00_x_210.00_MM)
  6

 40
0.0
 41
0.0
 42
0.0
 43
0.0
 44
297.0
 45
210.0
 46
0.0
 47
0.0
 48
0.0
 49
0.0
140
0.0
141
0.0
142
1.0
143
1.0
 70
0
 72
1
 73
0
 74
0
  7

 75
0
147
1.0
148
0.0
149
0.0
100
AcDbLayout
  1
Layout1
 70
0
 71
1
 10
0.0
 20
0.0
 11
297.0
 21
210.0
 12
0.0
 22
0.0
 32
0.0
 14
0.0
 24
0.0
 34
0.0
 15
0.0
 25
0.0
 35
0.0
146
0.0
 13
0.0
 23
0.0
 33
0.0
 16
1.0
 26
0.0
 36
0.0
 17
0.0
 27
1.0
 37
0.0
 76
0
330
21D
345
0
346
0
  0
ENDSEC
  0
EOF
