  0
SECTION
  2
HEADER
  9
$ACADVER
  1
AC1015
  9
$DWGCODEPAGE
  3
ANSI_1252
  9
$EXTMAX
 10
297.0
 20
210.0
 30
0.0
  9
$EXTMIN
 10
0.0
 20
0.0
 30
0.0
  9
$LIMMIN
 10
0.0
 20
0.0
  9
$LIMMAX
 10
297.0
 20
210.0
  9
$VIEWCTR
 10
148.5
 20
105.0
  9
$VIEWSIZE
 40
210.0
  9
$CLAYER
  8
0
  9
$LTSCALE
 40
16.335
  9
$CELTYPE
  6
BYLAYER
  9
$DIMSCALE
 40
1.0
  9
$DIMASZ
 40
3.0
  9
$DIMEXO
 40
1.85625
  9
$DIMDLI
 40
11.286
  9
$DIMEXE
 40
5.346
  9
$DIMCEN
 40
2.673
  9
$DIMLFAC
 40
1.0
  9
$DIMBLK
  1
_FILLED
  9
$DIMTXT
 40
3.0
  9
$DIMTOL
 70
1
  9
$DIMLIM
 70
0
  9
$DIMTFAC
 40
1.0
  9
$DIMTP
 40
0.01
  9
$DIMTM
 40
0.01
  9
$PDMODE
 70
3
  9
$PDSIZE
 40
3.0
  9
$HANDSEED
  5
44B
  9
$TILEMODE
 70
1
  9
$MEASUREMENT
 70
1
  9
$INSUNITS
 70
4
  0
ENDSEC
  0
SECTION
  2
CLASSES
  0
CLASS
  1
ACDBDICTIONARYWDFLT
  2
AcDbDictionaryWithDefault
  3
AutoCAD 2000
 90
0
280
0
281
0
  0
CLASS
  1
ACDBPLACEHOLDER
  2
AcDbPlaceHolder
  3
AutoCAD 2000
 90
0
280
0
281
0
  0
CLASS
  1
LAYOUT
  2
AcDbLayout
  3
AutoCAD 2000
 90
0
280
0
281
0
  0
ENDSEC
  0
SECTION
  2
TABLES
  0
TABLE
  2
VPORT
  5
8
100
AcDbSymbolTable
 70
2
  0
VPORT
  5
1F4
100
AcDbSymbolTableRecord
100
AcDbViewportTableRecord
  2
*ACTIVE
 70
0
 10
0.0
 20
0.0
 11
1.0
 21
1.0
 12
148.5
 22
105.0
 13
0.0
 23
0.0
 14
1.0
 24
1.0
 15
0.0
 25
0.0
 16
0.0
 26
0.0
 36
1.0
 17
0.0
 27
0.0
 37
0.0
 40
210.0
 41
1.4142857143
 42
50.0
 43
0.0
 44
0.0
 50
0.0
 51
0.0
 71
0
 72
100
 73
1
 74
1
 75
0
 76
0
 77
0
 78
0
  0
ENDTAB
  0
TABLE
  2
LTYPE
  5
5
100
AcDbSymbolTable
 70
6
  0
LTYPE
  5
14
100
AcDbSymbolTableRecord
100
AcDbLinetypeTableRecord
  2
BYBLOCK
 70
0
  3

 72
65
 73
0
 40
0.0
  0
LTYPE
  5
15
100
AcDbSymbolTableRecord
100
AcDbLinetypeTableRecord
  2
BYLAYER
 70
0
  3

 72
65
 73
0
 40
0.0
  0
LTYPE
  5
16
100
AcDbSymbolTableRecord
100
AcDbLinetypeTableRecord
  2
CONTINUOUS
 70
64
  3
Solid line
 72
65
 73
0
 40
0.0
  0
LTYPE
  5
1F5
100
AcDbSymbolTableRecord
100
AcDbLinetypeTableRecord
  2
CENTER
 70
64
  3
____ _ ____ _ ____ _ ____ _ ____ _ ____ _ ____
 72
65
 73
4
 40
0.6
 49
0.375
 74
0
 49
-0.075
 74
0
 49
0.075
 74
0
 49
-0.075
 74
0
  0
LTYPE
  5
1F6
100
AcDbSymbolTableRecord
100
AcDbLinetypeTableRecord
  2
HIDDEN
 70
64
  3
- - - - - - - - - - - - - - - - - - - -
 72
65
 73
2
 40
0.2
 49
0.1
 74
0
 49
-0.1
 74
0
  0
LTYPE
  5
1F7
100
AcDbSymbolTableRecord
100
AcDbLinetypeTableRecord
  2
PHANTOM
 70
64
  3
_____ _ _ _____ _ _ _____ _ _ _____
 72
65
 73
6
 40
0.8
 49
0.45
 74
0
 49
-0.05
 74
0
 49
0.1
 74
0
 49
-0.05
 74
0
 49
0.1
 74
0
 49
-0.05
 74
0
  0
LTYPE
  5
1F8
100
AcDbSymbolTableRecord
100
AcDbLinetypeTableRecord
  2
DOT
 70
64
  3
. . . . . . . . . . . . . . . . . . . .
 72
65
 73
2
 40
0.2
 49
0.1
 74
0
 49
-0.1
 74
0
  0
LTYPE
  5
1F9
100
AcDbSymbolTableRecord
100
AcDbLinetypeTableRecord
  2
DASHED
 70
64
  3
- - - - - - - - - - - - - - - - - - - -
 72
65
 73
2
 40
0.2
 49
0.1
 74
0
 49
-0.1
 74
0
  0
ENDTAB
  0
TABLE
  2
LAYER
  5
2
100
AcDbSymbolTable
 70
36
  0
LAYER
  5
10
100
AcDbSymbolTableRecord
100
AcDbLayerTableRecord
  2
0
 70
0
 62
7
  6
CONTINUOUS
370
-3
390
F
  0
LAYER
  5
1FA
100
AcDbSymbolTableRecord
100
AcDbLayerTableRecord
  2
DEFAULT_1
 70
0
 62
7
  6
CENTER
370
-3
390
F
  0
LAYER
  5
1FB
100
AcDbSymbolTableRecord
100
AcDbLayerTableRecord
  2
DEFAULT_2
 70
0
 62
7
  6
HIDDEN
370
-3
390
F
  0
LAYER
  5
1FC
100
AcDbSymbolTableRecord
100
AcDbLayerTableRecord
  2
DEFAULT_3
 70
0
 62
7
  6
PHANTOM
370
-3
390
F
  0
LAYER
  5
1FD
100
AcDbSymbolTableRecord
100
AcDbLayerTableRecord
  2
ASSI
 70
0
 62
7
  6
CONTINUOUS
370
-3
390
F
  0
LAYER
  5
1FE
100
AcDbSymbolTableRecord
100
AcDbLayerTableRecord
  2
COORDINATE
 70
0
 62
7
  6
CONTINUOUS
370
-3
390
F
  0
LAYER
  5
1FF
100
AcDbSymbolTableRecord
100
AcDbLayerTableRecord
  2
COORD_ORIGINE
 70
0
 62
7
  6
CONTINUOUS
370
-3
390
F
  0
LAYER
  5
200
100
AcDbSymbolTableRecord
100
AcDbLayerTableRecord
  2
CURVE
 70
0
 62
7
  6
CONTINUOUS
370
-3
390
F
  0
LAYER
  5
201
100
AcDbSymbolTableRecord
100
AcDbLayerTableRecord
  2
IMPORT
 70
0
 62
7
  6
CONTINUOUS
370
-3
390
F
  0
LAYER
  5
202
100
AcDbSymbolTableRecord
100
AcDbLayerTableRecord
  2
PIANI
 70
0
 62
7
  6
CONTINUOUS
370
-3
390
F
  0
LAYER
  5
203
100
AcDbSymbolTableRecord
100
AcDbLayerTableRecord
  2
PIANI_ORIGINE
 70
0
 62
7
  6
CONTINUOUS
370
-3
390
F
  0
LAYER
  5
204
100
AcDbSymbolTableRecord
100
AcDbLayerTableRecord
  2
PUNTI
 70
0
 62
7
  6
CONTINUOUS
370
-3
390
F
  0
LAYER
  5
205
100
AcDbSymbolTableRecord
100
AcDbLayerTableRecord
  2
RACCORDO
 70
0
 62
7
  6
CONTINUOUS
370
-3
390
F
  0
LAYER
  5
206
100
AcDbSymbolTableRecord
100
AcDbLayerTableRecord
  2
SNAPLINE
 70
0
 62
7
  6
CONTINUOUS
370
-3
390
F
  0
LAYER
  5
207
100
AcDbSymbolTableRecord
100
AcDbLayerTableRecord
  2
SUPERFICI
 70
0
 62
7
  6
CONTINUOUS
370
-3
390
F
  0
LAYER
  5
208
100
AcDbSymbolTableRecord
100
AcDbLayerTableRecord
  2
TRASH
 70
0
 62
7
  6
CONTINUOUS
370
-3
390
F
  0
ENDTAB
  0
TABLE
  2
STYLE
  5
3
100
AcDbSymbolTable
 70
1
  0
STYLE
  5
11
100
AcDbSymbolTableRecord
100
AcDbTextStyleTableRecord
  2
STANDARD
 70
0
 40
0.0
 41
0.8
 50
0.0
 71
0
 42
0.2
  3
txt
  4

  0
STYLE
  5
209
100
AcDbSymbolTableRecord
100
AcDbTextStyleTableRecord
  2
TEXTSTYLE_1
 70
0
 40
0.0
 41
0.8
 50
0.0
 71
0
 42
0.2
  3
gdt
  4

  0
ENDTAB
  0
TABLE
  2
VIEW
  5
6
100
AcDbSymbolTable
 70
0
  0
ENDTAB
  0
TABLE
  2
UCS
  5
7
100
AcDbSymbolTable
 70
0
  0
ENDTAB
  0
TABLE
  2
APPID
  5
9
100
AcDbSymbolTable
 70
1
  0
APPID
  5
20A
100
AcDbSymbolTableRecord
100
AcDbRegAppTableRecord
  2
ACAD
 70
0
  0
ENDTAB
  0
TABLE
  2
BLOCK_RECORD
  5
1
100
AcDbSymbolTable
 70
0
  0
BLOCK_RECORD
  5
20B
100
AcDbSymbolTableRecord
100
AcDbBlockTableRecord
  2
*Model_Space
  0
BLOCK_RECORD
  5
20C
100
AcDbSymbolTableRecord
100
AcDbBlockTableRecord
  2
*Paper_Space
  0
ENDTAB
  0
TABLE
  2
DIMSTYLE
  5
A
100
AcDbSymbolTable
 70
1
100
AcDbDimStyleTable
 71
0
  0
DIMSTYLE
105
20D
100
AcDbSymbolTableRecord
100
AcDbDimStyleTableRecord
  2
STANDARD
 70
0
  3

  4

 40
1.0
 41
3.0
 42
0.0625
 43
0.38
 44
0.18
 45
0.0
 46
0.0
 47
0.01
 48
0.01
140
3.0
141
0.09
142
0.0
143
25.4
144
1.0
145
0.0
146
1.0
147
0.09
 71
1.0
 72
0.0
 73
0
 74
0
 75
0
 76
0
 77
1
 78
8
170
0
171
2
172
0
173
0
174
0
175
0
176
0
177
0
178
0
270
2
271
2
272
2
273
2
274
2
275
0
280
0
281
0
282
0
283
1
284
8
285
0
286
0
287
3
288
0
340
11
  0
ENDTAB
  0
ENDSEC
  0
SECTION
  2
BLOCKS
  0
BLOCK
  5
20
100
AcDbEntity
  8
0
100
AcDbBlockBegin
  2
*Model_Space
 70
0
 10
0.0
 20
0.0
 30
0.0
  3
*Model_Space
  1

  0
ENDBLK
  5
21
100
AcDbEntity
  8
0
100
AcDbBlockEnd
  0
BLOCK
  5
1C
100
AcDbEntity
  8
0
100
AcDbBlockBegin
  2
*Paper_Space
 70
0
 10
0.0
 20
0.0
 30
0.0
  3
*Paper_Space
  1

  0
ENDBLK
  5
1D
100
AcDbEntity
  8
0
100
AcDbBlockEnd
  0
ENDSEC
  0
SECTION
  2
ENTITIES
  0
LINE
  5
20E
100
AcDbEntity
  8
0
100
AcDbLine
 62
7
  6
CONTINUOUS
 10
-29.666144
 20
4.720923
 11
-29.666144
 21
2.471536
  0
LINE
  5
20F
100
AcDbEntity
  8
0
100
AcDbLine
 62
7
  6
CONTINUOUS
 10
-29.371504
 20
2.471536
 11
-29.371504
 21
4.356945
  0
LINE
  5
210
100
AcDbEntity
  8
0
100
AcDbLine
 62
7
  6
CONTINUOUS
 10
-8.450172
 20
-31.123067
 11
-8.146205
 21
-31.123067
  0
LINE
  5
211
100
AcDbEntity
  8
0
100
AcDbLine
 62
7
  6
CONTINUOUS
 10
-6.585684
 20
-31.123067
 11
-6.2723
 21
-31.123067
  0
LINE
  5
212
100
AcDbEntity
  8
0
100
AcDbLine
 62
7
  6
CONTINUOUS
 10
-4.912174
 20
-31.123067
 11
-4.580137
 21
-31.123067
  0
LINE
  5
213
100
AcDbEntity
  8
0
100
AcDbLine
 62
7
  6
CONTINUOUS
 10
-3.734144
 20
-31.123067
 11
-3.430176
 21
-31.123067
  0
LINE
  5
214
100
AcDbEntity
  8
0
100
AcDbLine
 62
7
  6
CONTINUOUS
 10
-2.352166
 20
-31.123067
 11
-2.026347
 21
-31.123067
  0
LINE
  5
215
100
AcDbEntity
  8
0
100
AcDbLine
 62
7
  6
CONTINUOUS
 10
-0.613102
 20
-31.123067
 11
-0.309134
 21
-31.123067
  0
LINE
  5
216
100
AcDbEntity
  8
0
100
AcDbLine
 62
7
  6
CONTINUOUS
 10
1.477009
 20
-31.123067
 11
3.137905
 21
-31.123067
  0
LINE
  5
217
100
AcDbEntity
  8
0
100
AcDbLine
 62
7
  6
CONTINUOUS
 10
3.535852
 20
-31.123067
 11
3.830404
 21
-31.123067
  0
LINE
  5
218
100
AcDbEntity
  8
0
100
AcDbLine
 62
7
  6
CONTINUOUS
 10
4.980542
 20
-31.123067
 11
5.321995
 21
-31.123067
  0
LINE
  5
219
100
AcDbEntity
  8
0
100
AcDbLine
 62
7
  6
CONTINUOUS
 10
5.813922
 20
-31.123067
 11
6.7258272948
 21
-31.123067
  0
LINE
  5
21A
100
AcDbEntity
  8
0
100
AcDbLine
 62
7
  6
CONTINUOUS
 10
8.095189
 20
-31.123067
 11
8.421186
 21
-31.123067
  0
LINE
  5
21B
100
AcDbEntity
  8
0
100
AcDbLine
 62
7
  6
CONTINUOUS
 10
6.6851470761
 20
-30.86298
 11
6.117889
 21
-30.86298
  0
LINE
  5
21C
100
AcDbEntity
  8
0
100
AcDbLine
 62
7
  6
CONTINUOUS
 10
3.137905
 20
-30.853565
 11
1.780977
 21
-30.853565
  0
LINE
  5
21D
100
AcDbEntity
  8
0
100
AcDbLine
 62
7
  6
CONTINUOUS
 10
8.421186
 20
-30.790852
 11
8.095189
 21
-30.790852
  0
LINE
  5
21E
100
AcDbEntity
  8
0
100
AcDbLine
 62
7
  6
CONTINUOUS
 10
-2.026347
 20
-30.790852
 11
-2.352166
 21
-30.790852
  0
LINE
  5
21F
100
AcDbEntity
  8
0
100
AcDbLine
 62
7
  6
CONTINUOUS
 10
-6.037263
 20
-30.468053
 11
-5.134776
 21
-30.468053
  0
LINE
  5
220
100
AcDbEntity
  8
0
100
AcDbLine
 62
7
  6
CONTINUOUS
 10
-5.244566
 20
-30.198551
 11
-5.943283
 21
-30.198551
  0
LINE
  5
221
100
AcDbEntity
  8
0
100
AcDbLine
 62
7
  6
CONTINUOUS
 10
-8.146205
 20
-30.173501
 11
-7.4380652977
 21
-30.173501
  0
LINE
  5
222
100
AcDbEntity
  8
0
100
AcDbLine
 62
7
  6
CONTINUOUS
 10
-0.309134
 20
-30.173501
 11
0.3990053695
 21
-30.173501
  0
LINE
  5
223
100
AcDbEntity
  8
0
100
AcDbLine
 62
7
  6
CONTINUOUS
 10
1.780977
 20
-30.101551
 11
3.012658
 21
-30.101551
  0
LINE
  5
224
100
AcDbEntity
  8
0
100
AcDbLine
 62
7
  6
CONTINUOUS
 10
0.3082073463
 20
-29.913415
 11
-0.309134
 21
-29.913415
  0
LINE
  5
225
100
AcDbEntity
  8
0
100
AcDbLine
 62
7
  6
CONTINUOUS
 10
-7.5288633344
 20
-29.913415
 11
-8.146205
 21
-29.913415
  0
LINE
  5
226
100
AcDbEntity
  8
0
100
AcDbLine
 62
7
  6
CONTINUOUS
 10
3.012658
 20
-29.832049
 11
1.780977
 21
-29.832049
  0
LINE
  5
227
100
AcDbEntity
  8
0
100
AcDbLine
 62
7
  6
CONTINUOUS
 10
-29.202436
 20
-1.748793
 11
-29.202436
 21
-4.0
  0
LINE
  5
228
100
AcDbEntity
  8
0
100
AcDbLine
 62
7
  6
CONTINUOUS
 10
-28.898332
 20
-4.0
 11
-28.898332
 21
-1.748793
  0
LINE
  5
229
100
AcDbEntity
  8
0
100
AcDbLine
 62
7
  6
CONTINUOUS
 10
-28.572207
 20
-1.748793
 11
-28.572207
 21
-2.018137
  0
LINE
  5
22A
100
AcDbEntity
  8
0
100
AcDbLine
 62
7
  6
CONTINUOUS
 10
-27.810582
 20
-2.018137
 11
-27.810582
 21
-4.0
  0
LINE
  5
22B
100
AcDbEntity
  8
0
100
AcDbLine
 62
7
  6
CONTINUOUS
 10
-27.804395
 20
4.360584
 11
-27.804395
 21
2.471536
  0
LINE
  5
22C
100
AcDbEntity
  8
0
100
AcDbLine
 62
7
  6
CONTINUOUS
 10
-27.509754
 20
2.471536
 11
-27.509754
 21
4.720923
  0
LINE
  5
22D
100
AcDbEntity
  8
0
100
AcDbLine
 62
7
  6
CONTINUOUS
 10
-27.50666
 20
-4.0
 11
-27.50666
 21
-2.018137
  0
LINE
  5
22E
100
AcDbEntity
  8
0
100
AcDbLine
 62
7
  6
CONTINUOUS
 10
-26.745035
 20
-2.018137
 11
-26.745035
 21
-1.748793
  0
LINE
  5
22F
100
AcDbEntity
  8
0
100
AcDbLine
 62
7
  6
CONTINUOUS
 10
-26.649491
 20
1.485155
 11
-26.649491
 21
-0.764232
  0
LINE
  5
230
100
AcDbEntity
  8
0
100
AcDbLine
 62
7
  6
CONTINUOUS
 10
-26.345387
 20
-0.764232
 11
-26.345387
 21
1.485155
  0
LINE
  5
231
100
AcDbEntity
  8
0
100
AcDbLine
 62
7
  6
CONTINUOUS
 10
-28.437535
 20
2.471536
 11
-27.804395
 21
4.360584
  0
LINE
  5
232
100
AcDbEntity
  8
0
100
AcDbLine
 62
7
  6
CONTINUOUS
 10
-27.942343
 20
4.720923
 11
-28.584848
 21
2.809685
  0
LINE
  5
233
100
AcDbEntity
  8
0
100
AcDbLine
 62
7
  6
CONTINUOUS
 10
-26.926843
 20
2.471536
 11
-26.691713
 21
3.126698
  0
LINE
  5
234
100
AcDbEntity
  8
0
100
AcDbLine
 62
7
  6
CONTINUOUS
 10
-26.597624
 20
3.396042
 11
-26.234067
 21
4.394907
  0
LINE
  5
235
100
AcDbEntity
  8
0
100
AcDbLine
 62
7
  6
CONTINUOUS
 10
-26.393978
 20
4.720923
 11
-27.240228
 21
2.471536
  0
LINE
  5
236
100
AcDbEntity
  8
0
100
AcDbLine
 62
7
  6
CONTINUOUS
 10
-4.495573
 20
-29.14257
 11
-3.734144
 21
-29.14257
  0
LINE
  5
237
100
AcDbEntity
  8
0
100
AcDbLine
 62
7
  6
CONTINUOUS
 10
-3.430176
 20
-29.14257
 11
-2.668747
 21
-29.14257
  0
LINE
  5
238
100
AcDbEntity
  8
0
100
AcDbLine
 62
7
  6
CONTINUOUS
 10
1.780977
 20
-29.14257
 11
3.116054
 21
-29.14257
  0
LINE
  5
239
100
AcDbEntity
  8
0
100
AcDbLine
 62
7
  6
CONTINUOUS
 10
-8.146205
 20
-29.133154
 11
-7.5288537419
 21
-29.133154
  0
LINE
  5
23A
100
AcDbEntity
  8
0
100
AcDbLine
 62
7
  6
CONTINUOUS
 10
-0.309134
 20
-29.133154
 11
0.3082169253
 21
-29.133154
  0
LINE
  5
23B
100
AcDbEntity
  8
0
100
AcDbLine
 62
7
  6
CONTINUOUS
 10
6.117889
 20
-29.133154
 11
6.6851415267
 21
-29.133154
  0
LINE
  5
23C
100
AcDbEntity
  8
0
100
AcDbLine
 62
7
  6
CONTINUOUS
 10
6.7258217949
 20
-28.873067
 11
5.813922
 21
-28.873067
  0
LINE
  5
23D
100
AcDbEntity
  8
0
100
AcDbLine
 62
7
  6
CONTINUOUS
 10
5.321995
 20
-28.873067
 11
5.027443
 21
-28.873067
  0
LINE
  5
23E
100
AcDbEntity
  8
0
100
AcDbLine
 62
7
  6
CONTINUOUS
 10
3.896314
 20
-28.873067
 11
3.535852
 21
-28.873067
  0
LINE
  5
23F
100
AcDbEntity
  8
0
100
AcDbLine
 62
7
  6
CONTINUOUS
 10
3.116054
 20
-28.873067
 11
1.477009
 21
-28.873067
  0
LINE
  5
240
100
AcDbEntity
  8
0
100
AcDbLine
 62
7
  6
CONTINUOUS
 10
0.3989962507
 20
-28.873067
 11
-0.613102
 21
-28.873067
  0
LINE
  5
241
100
AcDbEntity
  8
0
100
AcDbLine
 62
7
  6
CONTINUOUS
 10
-2.668747
 20
-28.873067
 11
-4.495573
 21
-28.873067
  0
LINE
  5
242
100
AcDbEntity
  8
0
100
AcDbLine
 62
7
  6
CONTINUOUS
 10
-5.394862
 20
-28.873067
 11
-5.739513
 21
-28.873067
  0
LINE
  5
243
100
AcDbEntity
  8
0
100
AcDbLine
 62
7
  6
CONTINUOUS
 10
-7.4380744165
 20
-28.873067
 11
-8.450172
 21
-28.873067
  0
LINE
  5
244
100
AcDbEntity
  8
0
100
AcDbLine
 62
7
  6
CONTINUOUS
 10
-7.5
 20
-27.0
 11
7.5
 21
-27.0
  0
LINE
  5
245
100
AcDbEntity
  8
0
100
AcDbLine
 62
7
  6
CONTINUOUS
 10
-2.667387
 20
-26.6
 11
-2.406009
 21
-26.6
  0
LINE
  5
246
100
AcDbEntity
  8
0
100
AcDbLine
 62
7
  6
CONTINUOUS
 10
-4.407924
 20
-25.961407
 11
-3.600029
 21
-25.961407
  0
LINE
  5
247
100
AcDbEntity
  8
0
100
AcDbLine
 62
7
  6
CONTINUOUS
 10
-28.584848
 20
2.809685
 11
-29.230462
 21
4.720923
  0
LINE
  5
248
100
AcDbEntity
  8
0
100
AcDbLine
 62
7
  6
CONTINUOUS
 10
-29.371504
 20
4.356945
 11
-28.738363
 21
2.471536
  0
LINE
  5
249
100
AcDbEntity
  8
0
100
AcDbLine
 62
7
  6
CONTINUOUS
 10
-25.825262
 20
1.485155
 11
-25.825262
 21
-0.764232
  0
LINE
  5
24A
100
AcDbEntity
  8
0
100
AcDbLine
 62
7
  6
CONTINUOUS
 10
-25.530439
 20
-0.764232
 11
-25.530439
 21
1.063674
  0
LINE
  5
24B
100
AcDbEntity
  8
0
100
AcDbLine
 62
7
  6
CONTINUOUS
 10
-24.939702
 20
4.720923
 11
-24.939702
 21
2.471536
  0
LINE
  5
24C
100
AcDbEntity
  8
0
100
AcDbLine
 62
7
  6
CONTINUOUS
 10
-24.63578
 20
2.731781
 11
-24.63578
 21
4.460679
  0
LINE
  5
24D
100
AcDbEntity
  8
0
100
AcDbLine
 62
7
  6
CONTINUOUS
 10
-24.372442
 20
-1.748793
 11
-24.372442
 21
-4.0
  0
LINE
  5
24E
100
AcDbEntity
  8
0
100
AcDbLine
 62
7
  6
CONTINUOUS
 10
-24.333132
 20
1.485155
 11
-24.333132
 21
-0.341379
  0
LINE
  5
24F
100
AcDbEntity
  8
0
100
AcDbLine
 62
7
  6
CONTINUOUS
 10
-24.06852
 20
-3.730656
 11
-24.06852
 21
-1.748793
  0
LINE
  5
250
100
AcDbEntity
  8
0
100
AcDbLine
 62
7
  6
CONTINUOUS
 10
-24.038674
 20
-0.764232
 11
-24.038674
 21
1.485155
  0
LINE
  5
251
100
AcDbEntity
  8
0
100
AcDbLine
 62
7
  6
CONTINUOUS
 10
-22.92763
 20
-4.0
 11
-22.92763
 21
-3.730656
  0
LINE
  5
252
100
AcDbEntity
  8
0
100
AcDbLine
 62
7
  6
CONTINUOUS
 10
-22.661198
 20
4.720923
 11
-22.661198
 21
2.471536
  0
LINE
  5
253
100
AcDbEntity
  8
0
100
AcDbLine
 62
7
  6
CONTINUOUS
 10
-26.343931
 20
-4.0
 11
-26.108801
 21
-3.344839
  0
LINE
  5
254
100
AcDbEntity
  8
0
100
AcDbLine
 62
7
  6
CONTINUOUS
 10
-26.014895
 20
-3.075495
 11
-25.651154
 21
-2.076632
  0
LINE
  5
255
100
AcDbEntity
  8
0
100
AcDbLine
 62
7
  6
CONTINUOUS
 10
-25.811067
 20
-1.748793
 11
-26.657317
 21
-4.0
  0
LINE
  5
256
100
AcDbEntity
  8
0
100
AcDbLine
 62
7
  6
CONTINUOUS
 10
2.6938243012
 20
-25.1219539289
 11
2.9700531221
 21
-25.0567029711
  0
LINE
  5
257
100
AcDbEntity
  8
0
100
AcDbLine
 62
7
  6
CONTINUOUS
 10
-1.4614853939
 20
-26.02081103
 11
-1.7347438617
 21
-26.0416019895
  0
LINE
  5
258
100
AcDbEntity
  8
0
100
AcDbLine
 62
7
  6
CONTINUOUS
 10
-3.600029
 20
-25.700029
 11
-4.407924
 21
-25.700029
  0
LINE
  5
259
100
AcDbEntity
  8
0
100
AcDbLine
 62
7
  6
CONTINUOUS
 10
-1.273992
 20
-24.749565
 11
-0.427856
 21
-24.749565
  0
LINE
  5
25A
100
AcDbEntity
  8
0
100
AcDbLine
 62
7
  6
CONTINUOUS
 10
-0.427856
 20
-24.500069
 11
-1.482277
 21
-24.500069
  0
LINE
  5
25B
100
AcDbEntity
  8
0
100
AcDbLine
 62
7
  6
CONTINUOUS
 10
-2.406009
 20
-24.464426
 11
-2.5744749058
 21
-24.464426
  0
LINE
  5
25C
100
AcDbEntity
  8
0
100
AcDbLine
 62
7
  6
CONTINUOUS
 10
-4.206668
 20
-23.6
 11
-3.913908
 21
-23.6
  0
LINE
  5
25D
100
AcDbEntity
  8
0
100
AcDbLine
 62
7
  6
CONTINUOUS
 10
-2.62327094
 20
-23.6
 11
-2.35594484
 21
-23.6
  0
LINE
  5
25E
100
AcDbEntity
  8
0
100
AcDbLine
 62
7
  6
CONTINUOUS
 10
-0.56486
 20
-23.6
 11
-0.303474
 21
-23.6
  0
LINE
  5
25F
100
AcDbEntity
  8
0
100
AcDbLine
 62
7
  6
CONTINUOUS
 10
4.389584
 20
-23.6
 11
4.650969
 21
-23.6
  0
LINE
  5
260
100
AcDbEntity
  8
0
100
AcDbLine
 62
7
  6
CONTINUOUS
 10
-1.687221
 20
-25.593102
 11
-1.4406942601
 21
-25.6287449624
  0
LINE
  5
261
100
AcDbEntity
  8
0
100
AcDbLine
 62
7
  6
CONTINUOUS
 10
3.0056953967
 20
-25.9252540999
 11
2.7235264596
 21
-25.8542011157
  0
LINE
  5
262
100
AcDbEntity
  8
0
100
AcDbLine
 62
7
  6
CONTINUOUS
 10
-25.234343
 20
2.471536
 11
-26.049291
 21
4.720923
  0
LINE
  5
263
100
AcDbEntity
  8
0
100
AcDbLine
 62
7
  6
CONTINUOUS
 10
-24.651432
 20
-4.0
 11
-25.466379
 21
-1.748793
  0
LINE
  5
264
100
AcDbEntity
  8
0
100
AcDbLine
 62
7
  6
CONTINUOUS
 10
-25.206135
 20
-3.344839
 11
-24.983562
 21
-4.0
  0
LINE
  5
265
100
AcDbEntity
  8
0
100
AcDbLine
 62
7
  6
CONTINUOUS
 10
-25.789046
 20
3.126698
 11
-25.566473
 21
2.471536
  0
LINE
  5
266
100
AcDbEntity
  8
0
100
AcDbLine
 62
7
  6
CONTINUOUS
 10
-25.651154
 20
-2.076632
 11
-25.315874
 21
-3.075495
  0
LINE
  5
267
100
AcDbEntity
  8
0
100
AcDbLine
 62
7
  6
CONTINUOUS
 10
-26.234067
 20
4.394907
 11
-25.898786
 21
3.396042
  0
LINE
  5
268
100
AcDbEntity
  8
0
100
AcDbLine
 62
7
  6
CONTINUOUS
 10
-22.444812
 20
-3.093694
 11
-22.444812
 21
-4.0
  0
LINE
  5
269
100
AcDbEntity
  8
0
100
AcDbLine
 62
7
  6
CONTINUOUS
 10
-22.357094
 20
2.74088
 11
-22.357094
 21
3.492496
  0
LINE
  5
26A
100
AcDbEntity
  8
0
100
AcDbLine
 62
7
  6
CONTINUOUS
 10
-22.357094
 20
3.76184
 11
-22.357094
 21
4.451579
  0
LINE
  5
26B
100
AcDbEntity
  8
0
100
AcDbLine
 62
7
  6
CONTINUOUS
 10
-22.14089
 20
-4.0
 11
-22.14089
 21
-3.093694
  0
LINE
  5
26C
100
AcDbEntity
  8
0
100
AcDbLine
 62
7
  6
CONTINUOUS
 10
-21.125391
 20
3.492496
 11
-21.125391
 21
3.76184
  0
LINE
  5
26D
100
AcDbEntity
  8
0
100
AcDbLine
 62
7
  6
CONTINUOUS
 10
-21.022021
 20
4.451579
 11
-21.022021
 21
4.720923
  0
LINE
  5
26E
100
AcDbEntity
  8
0
100
AcDbLine
 62
7
  6
CONTINUOUS
 10
-21.0
 20
2.471536
 11
-21.0
 21
2.74088
  0
LINE
  5
26F
100
AcDbEntity
  8
ASSI
100
AcDbLine
 62
7
  6
CONTINUOUS
 10
-19.867554
 20
15.451963
 11
-19.867554
 21
16.20278
  0
LINE
  5
270
100
AcDbEntity
  8
ASSI
100
AcDbLine
 62
7
  6
CONTINUOUS
 10
-19.867554
 20
19.79722
 11
-19.867554
 21
20.548037
  0
LINE
  5
271
100
AcDbEntity
  8
0
100
AcDbLine
 62
7
  6
CONTINUOUS
 10
-2.9203
 20
-21.749509
 11
-1.8806981743
 21
-21.749509
  0
LINE
  5
272
100
AcDbEntity
  8
0
100
AcDbLine
 62
7
  6
CONTINUOUS
 10
-1.545056
 20
-21.500005
 11
-2.9203
 21
-21.500005
  0
LINE
  5
273
100
AcDbEntity
  8
0
100
AcDbLine
 62
7
  6
CONTINUOUS
 10
-3.084455
 20
-21.473272
 11
-3.3717838865
 21
-21.473272
  0
LINE
  5
274
100
AcDbEntity
  8
0
100
AcDbLine
 62
7
  6
CONTINUOUS
 10
-4.7232660986
 20
-21.473272
 11
-5.028046
 21
-21.473272
  0
LINE
  5
275
100
AcDbEntity
  8
0
100
AcDbLine
 62
7
  6
CONTINUOUS
 10
4.650969
 20
-21.464361
 11
4.482498423
 21
-21.464361
  0
LINE
  5
276
100
AcDbEntity
  8
0
100
AcDbLine
 62
7
  6
CONTINUOUS
 10
-0.303474
 20
-21.464361
 11
-0.471945297
 21
-21.464361
  0
LINE
  5
277
100
AcDbEntity
  8
0
100
AcDbLine
 62
7
  6
CONTINUOUS
 10
7.5
 20
-21.0
 11
-7.5
 21
-21.0
  0
LINE
  5
278
100
AcDbEntity
  8
0
100
AcDbLine
 62
7
  6
CONTINUOUS
 10
-23.294338
 20
-1.748793
 11
-22.444812
 21
-3.093694
  0
LINE
  5
279
100
AcDbEntity
  8
0
100
AcDbLine
 62
7
  6
CONTINUOUS
 10
-25.530439
 20
1.063674
 11
-24.380268
 21
-0.764232
  0
LINE
  5
27A
100
AcDbEntity
  8
0
100
AcDbLine
 62
7
  6
CONTINUOUS
 10
-24.333132
 20
-0.341379
 11
-25.464741
 21
1.485155
  0
LINE
  5
27B
100
AcDbEntity
  8
0
100
AcDbLine
 62
7
  6
CONTINUOUS
 10
-22.294489
 20
-2.829809
 11
-22.940187
 21
-1.748793
  0
LINE
  5
27C
100
AcDbEntity
  8
RACCORDO
100
AcDbLine
 62
7
  6
CONTINUOUS
 10
-17.8965993706
 20
-10.3168006123
 11
-17.9812954434
 21
-10.9194444843
  0
LINE
  5
27D
100
AcDbEntity
  8
ASSI
100
AcDbLine
 62
7
  6
CONTINUOUS
 10
-13.5
 20
32.2916397849
 11
-13.7
 21
31.157383421
  0
LINE
  5
27E
100
AcDbEntity
  8
ASSI
100
AcDbLine
 62
7
  6
CONTINUOUS
 10
-10.5
 20
33.3878720496
 11
-10.657051564
 21
32.4971883701
  0
LINE
  5
27F
100
AcDbEntity
  8
0
100
AcDbLine
 62
7
  6
CONTINUOUS
 10
-21.648792
 20
-1.748793
 11
-22.294489
 21
-2.829809
  0
LINE
  5
280
100
AcDbEntity
  8
0
100
AcDbLine
 62
7
  6
CONTINUOUS
 10
-22.14089
 20
-3.093694
 11
-21.291547
 21
-1.748793
  0
LINE
  5
281
100
AcDbEntity
  8
0
100
AcDbLine
 62
7
  6
CONTINUOUS
 10
31.157383421
 20
-13.7
 11
32.2916397849
 21
-13.5
  0
LINE
  5
282
100
AcDbEntity
  8
0
100
AcDbLine
 62
7
  6
CONTINUOUS
 10
32.4971883701
 20
-10.657051564
 11
33.3878720496
 21
-10.5
  0
LINE
  5
283
100
AcDbEntity
  8
RACCORDO
100
AcDbLine
 62
7
  6
CONTINUOUS
 10
-10.9194444843
 20
-17.9812954434
 11
-10.3168006123
 21
-17.8965993706
  0
LINE
  5
284
100
AcDbEntity
  8
0
100
AcDbLine
 62
7
  6
CONTINUOUS
 10
-32.2916397849
 20
-13.5
 11
-31.157383421
 21
-13.7
  0
LINE
  5
285
100
AcDbEntity
  8
0
100
AcDbLine
 62
7
  6
CONTINUOUS
 10
-33.3878720496
 20
-10.5
 11
-32.4971883701
 21
-10.657051564
  0
LINE
  5
286
100
AcDbEntity
  8
ASSI
100
AcDbLine
 62
7
  6
CONTINUOUS
 10
-13.7
 20
-31.157383421
 11
-13.5
 21
-32.2916397849
  0
LINE
  5
287
100
AcDbEntity
  8
ASSI
100
AcDbLine
 62
7
  6
CONTINUOUS
 10
-10.657051564
 20
-32.4971883701
 11
-10.5
 21
-33.3878720496
  0
LINE
  5
288
100
AcDbEntity
  8
ASSI
100
AcDbLine
 62
7
  6
CONTINUOUS
 10
-15.882444
 20
17.625
 11
-15.882444
 21
18.375
  0
LINE
  5
289
100
AcDbEntity
  8
ASSI
100
AcDbLine
 62
7
  6
CONTINUOUS
 10
-15.482444
 20
15.4519628823
 11
-15.482444
 21
16.20278
  0
LINE
  5
28A
100
AcDbEntity
  8
ASSI
100
AcDbLine
 62
7
  6
CONTINUOUS
 10
-15.482444
 20
19.7972169516
 11
-15.482444
 21
20.5480371177
  0
LINE
  5
28B
100
AcDbEntity
  8
ASSI
100
AcDbLine
 62
7
  6
CONTINUOUS
 10
-13.5
 20
-31.2445601928
 11
-13.5
 21
-32.2916397849
  0
LINE
  5
28C
100
AcDbEntity
  8
ASSI
100
AcDbLine
 62
7
  6
CONTINUOUS
 10
-13.5
 20
31.2445601928
 11
-13.5
 21
32.2916397849
  0
LINE
  5
28D
100
AcDbEntity
  8
RACCORDO
100
AcDbLine
 62
253
  6
CONTINUOUS
 10
-17.6161049543
 20
-10.4765680954
 11
-17.6842150228
 21
-10.9611964146
  0
LINE
  5
28E
100
AcDbEntity
  8
ASSI
100
AcDbLine
 62
7
  6
CONTINUOUS
 10
-7.744243
 20
26.200104
 11
-8.893846
 21
22.619462
  0
LINE
  5
28F
100
AcDbEntity
  8
ASSI
100
AcDbLine
 62
7
  6
CONTINUOUS
 10
-8.37382
 20
20.99987
 11
-6.704191
 21
26.200104
  0
LINE
  5
290
100
AcDbEntity
  8
RACCORDO
100
AcDbLine
 62
253
  6
CONTINUOUS
 10
-17.1750468575
 20
-10.6198765583
 11
-17.0823417592
 21
-10.3345596034
  0
LINE
  5
291
100
AcDbEntity
  8
RACCORDO
100
AcDbLine
 62
253
  6
CONTINUOUS
 10
10.6198765583
 20
17.1750468575
 11
10.3345596034
 21
17.0823417592
  0
LINE
  5
292
100
AcDbEntity
  8
RACCORDO
100
AcDbLine
 62
253
  6
CONTINUOUS
 10
-10.9611964146
 20
-17.6842150228
 11
-10.4765680954
 21
-17.6161049543
  0
LINE
  5
293
100
AcDbEntity
  8
0
100
AcDbLine
 62
7
  6
CONTINUOUS
 10
-32.2916397849
 20
-13.5
 11
-31.2445601928
 21
-13.5
  0
LINE
  5
294
100
AcDbEntity
  8
0
100
AcDbLine
 62
7
  6
CONTINUOUS
 10
31.2445601928
 20
-13.5
 11
32.2916397849
 21
-13.5
  0
LINE
  5
295
100
AcDbEntity
  8
RACCORDO
100
AcDbLine
 62
253
  6
CONTINUOUS
 10
-17.6842150228
 20
-10.9611964146
 11
-17.9812954434
 21
-10.9194444843
  0
LINE
  5
296
100
AcDbEntity
  8
RACCORDO
100
AcDbLine
 62
253
  6
CONTINUOUS
 10
-17.1750468575
 20
-10.6198765583
 11
-17.6161049543
 21
-10.4765680954
  0
LINE
  5
297
100
AcDbEntity
  8
RACCORDO
100
AcDbLine
 62
7
  6
CONTINUOUS
 10
-17.0823417592
 20
-10.3345596034
 11
-17.636742358
 21
-10.1544239292
  0
LINE
  5
298
100
AcDbEntity
  8
0
100
AcDbLine
 62
7
  6
CONTINUOUS
 10
-4.580137
 20
-31.123067
 11
-5.394862
 21
-28.873067
  0
LINE
  5
299
100
AcDbEntity
  8
0
100
AcDbLine
 62
7
  6
CONTINUOUS
 10
-5.134776
 20
-30.468053
 11
-4.912174
 21
-31.123067
  0
LINE
  5
29A
100
AcDbEntity
  8
0
100
AcDbLine
 62
7
  6
CONTINUOUS
 10
-5.579764
 20
-29.199411
 11
-5.244566
 21
-30.198551
  0
LINE
  5
29B
100
AcDbEntity
  8
RACCORDO
100
AcDbLine
 62
253
  6
CONTINUOUS
 10
-10.4765680954
 20
-17.6161049543
 11
-10.6198765583
 21
-17.1750468575
  0
LINE
  5
29C
100
AcDbEntity
  8
RACCORDO
100
AcDbLine
 62
7
  6
CONTINUOUS
 10
-10.1544239292
 20
-17.636742358
 11
-10.3345596034
 21
-17.0823417592
  0
LINE
  5
29D
100
AcDbEntity
  8
RACCORDO
100
AcDbLine
 62
253
  6
CONTINUOUS
 10
-10.9611964146
 20
-17.6842150228
 11
-10.9194444843
 21
-17.9812954434
  0
LINE
  5
29E
100
AcDbEntity
  8
ASSI
100
AcDbLine
 62
7
  6
CONTINUOUS
 10
-12.5
 20
-31.6578985665
 11
-12.5
 21
-32.6917420766
  0
LINE
  5
29F
100
AcDbEntity
  8
ASSI
100
AcDbLine
 62
7
  6
CONTINUOUS
 10
-12.5
 20
31.6578985665
 11
-12.5
 21
32.6917420766
  0
LINE
  5
2A0
100
AcDbEntity
  8
ASSI
100
AcDbLine
 62
7
  6
CONTINUOUS
 10
-10.5
 20
-32.5482718435
 11
-10.5
 21
-33.3878720496
  0
LINE
  5
2A1
100
AcDbEntity
  8
ASSI
100
AcDbLine
 62
7
  6
CONTINUOUS
 10
-10.5
 20
32.5482718435
 11
-10.5
 21
33.3878720496
  0
LINE
  5
2A2
100
AcDbEntity
  8
0
100
AcDbLine
 62
7
  6
CONTINUOUS
 10
-9.5
 20
33.6860505254
 11
-9.5
 21
32.854071285
  0
LINE
  5
2A3
100
AcDbEntity
  8
0
100
AcDbLine
 62
7
  6
CONTINUOUS
 10
-9.5
 20
-32.854071285
 11
-9.5
 21
-33.6860505254
  0
LINE
  5
2A4
100
AcDbEntity
  8
0
100
AcDbLine
 62
7
  6
CONTINUOUS
 10
-32.6917420766
 20
-12.5
 11
-31.6578985665
 21
-12.5
  0
LINE
  5
2A5
100
AcDbEntity
  8
0
100
AcDbLine
 62
7
  6
CONTINUOUS
 10
31.6578985665
 20
-12.5
 11
32.6917420766
 21
-12.5
  0
LINE
  5
2A6
100
AcDbEntity
  8
0
100
AcDbLine
 62
7
  6
CONTINUOUS
 10
-33.3878720496
 20
-10.5
 11
-32.5482718435
 21
-10.5
  0
LINE
  5
2A7
100
AcDbEntity
  8
0
100
AcDbLine
 62
7
  6
CONTINUOUS
 10
32.5482718435
 20
-10.5
 11
33.3878720496
 21
-10.5
  0
LINE
  5
2A8
100
AcDbEntity
  8
0
100
AcDbLine
 62
7
  6
CONTINUOUS
 10
33.6860505254
 20
-9.5
 11
32.854071285
 21
-9.5
  0
LINE
  5
2A9
100
AcDbEntity
  8
0
100
AcDbLine
 62
7
  6
CONTINUOUS
 10
-32.854071285
 20
-9.5
 11
-33.6860505254
 21
-9.5
  0
LINE
  5
2AA
100
AcDbEntity
  8
0
100
AcDbLine
 62
7
  6
CONTINUOUS
 10
3.830404
 20
-29.2956
 11
4.980542
 21
-31.123067
  0
LINE
  5
2AB
100
AcDbEntity
  8
0
100
AcDbLine
 62
7
  6
CONTINUOUS
 10
5.027443
 20
-30.700702
 11
3.896314
 21
-28.873067
  0
LINE
  5
2AC
100
AcDbEntity
  8
0
100
AcDbLine
 62
7
  6
CONTINUOUS
 10
-5.028046
 20
-21.473272
 11
-4.206668
 21
-23.6
  0
LINE
  5
2AD
100
AcDbEntity
  8
0
100
AcDbLine
 62
7
  6
CONTINUOUS
 10
-8.450172
 20
-28.873067
 11
-8.450172
 21
-31.123067
  0
LINE
  5
2AE
100
AcDbEntity
  8
0
100
AcDbLine
 62
7
  6
CONTINUOUS
 10
-8.146205
 20
-31.123067
 11
-8.146205
 21
-30.173501
  0
LINE
  5
2AF
100
AcDbEntity
  8
0
100
AcDbLine
 62
7
  6
CONTINUOUS
 10
-8.146205
 20
-29.913415
 11
-8.146205
 21
-29.133154
  0
LINE
  5
2B0
100
AcDbEntity
  8
0
100
AcDbLine
 62
7
  6
CONTINUOUS
 10
-7.5
 20
-21.0
 11
-7.5
 21
-27.0
  0
LINE
  5
2B1
100
AcDbEntity
  8
ASSI
100
AcDbLine
 62
7
  6
CONTINUOUS
 10
-12.5
 20
-32.6917420766
 11
-12.325
 21
-31.726438764
  0
LINE
  5
2B2
100
AcDbEntity
  8
ASSI
100
AcDbLine
 62
7
  6
CONTINUOUS
 10
-0.416364
 20
26.200104
 11
-1.387451
 21
22.813526
  0
LINE
  5
2B3
100
AcDbEntity
  8
ASSI
100
AcDbLine
 62
7
  6
CONTINUOUS
 10
-0.867451
 20
20.999883
 11
0.115843
 21
24.429075
  0
LINE
  5
2B4
100
AcDbEntity
  8
0
100
AcDbLine
 62
7
  6
CONTINUOUS
 10
-31.726438764
 20
-12.325
 11
-32.6917420766
 21
-12.5
  0
LINE
  5
2B5
100
AcDbEntity
  8
0
100
AcDbLine
 62
7
  6
CONTINUOUS
 10
32.6917420766
 20
-12.5
 11
31.726438764
 21
-12.325
  0
LINE
  5
2B6
100
AcDbEntity
  8
ASSI
100
AcDbLine
 62
7
  6
CONTINUOUS
 10
-12.325
 20
31.726438764
 11
-12.5
 21
32.6917420766
  0
LINE
  5
2B7
100
AcDbEntity
  8
ASSI
100
AcDbLine
 62
7
  6
CONTINUOUS
 10
-6.010836
 20
26.200104
 11
-6.010849
 21
20.999857
  0
LINE
  5
2B8
100
AcDbEntity
  8
ASSI
100
AcDbLine
 62
7
  6
CONTINUOUS
 10
-4.97081
 20
20.99987
 11
-4.970797
 21
26.200104
  0
LINE
  5
2B9
100
AcDbEntity
  8
0
100
AcDbLine
 62
7
  6
CONTINUOUS
 10
-4.495573
 20
-28.873067
 11
-4.495573
 21
-29.14257
  0
LINE
  5
2BA
100
AcDbEntity
  8
0
100
AcDbLine
 62
7
  6
CONTINUOUS
 10
-4.407924
 20
-25.700029
 11
-4.407924
 21
-25.961407
  0
LINE
  5
2BB
100
AcDbEntity
  8
ASSI
100
AcDbLine
 62
7
  6
CONTINUOUS
 10
-3.930797
 20
26.200104
 11
-3.930797
 21
20.99987
  0
LINE
  5
2BC
100
AcDbEntity
  8
0
100
AcDbLine
 62
7
  6
CONTINUOUS
 10
-3.734144
 20
-29.14257
 11
-3.734144
 21
-31.123067
  0
LINE
  5
2BD
100
AcDbEntity
  8
0
100
AcDbLine
 62
7
  6
CONTINUOUS
 10
-3.600029
 20
-25.961407
 11
-3.600029
 21
-25.700029
  0
LINE
  5
2BE
100
AcDbEntity
  8
0
100
AcDbLine
 62
7
  6
CONTINUOUS
 10
-3.430176
 20
-31.123067
 11
-3.430176
 21
-29.14257
  0
LINE
  5
2BF
100
AcDbEntity
  8
0
100
AcDbLine
 62
7
  6
CONTINUOUS
 10
-3.190142
 20
-24.9983197426
 11
-3.190142
 21
-25.2507403119
  0
LINE
  5
2C0
100
AcDbEntity
  8
0
100
AcDbLine
 62
7
  6
CONTINUOUS
 10
-2.9203
 20
-21.500005
 11
-2.9203
 21
-21.749509
  0
LINE
  5
2C1
100
AcDbEntity
  8
ASSI
100
AcDbLine
 62
7
  6
CONTINUOUS
 10
-2.890758
 20
20.99987
 11
-2.890758
 21
24.429075
  0
LINE
  5
2C2
100
AcDbEntity
  8
0
100
AcDbLine
 62
7
  6
CONTINUOUS
 10
-1.2732954666
 20
16.9522481888
 11
-1.0
 21
17.9722007556
  0
LINE
  5
2C3
100
AcDbEntity
  8
0
100
AcDbLine
 62
7
  6
CONTINUOUS
 10
-1.0236115728
 20
12.4580182753
 11
-0.75
 21
13.4791505667
  0
LINE
  5
2C4
100
AcDbEntity
  8
0
100
AcDbLine
 62
7
  6
CONTINUOUS
 10
-0.7732026444
 20
9.468482332
 11
-0.5
 21
10.4880884817
  0
LINE
  5
2C5
100
AcDbEntity
  8
ASSI
100
AcDbLine
 62
7
  6
CONTINUOUS
 10
3.518853
 20
26.200117
 11
1.84925
 21
20.99987
  0
LINE
  5
2C6
100
AcDbEntity
  8
ASSI
100
AcDbLine
 62
7
  6
CONTINUOUS
 10
2.889289
 20
20.999883
 11
3.21763
 21
22.022541
  0
LINE
  5
2C7
100
AcDbEntity
  8
ASSI
100
AcDbLine
 62
7
  6
CONTINUOUS
 10
3.534869
 20
23.01058
 11
4.038892
 21
24.580512
  0
LINE
  5
2C8
100
AcDbEntity
  8
0
100
AcDbLine
 62
7
  6
CONTINUOUS
 10
17.9722007556
 20
-1.0
 11
16.9522481888
 21
-1.2732954666
  0
LINE
  5
2C9
100
AcDbEntity
  8
0
100
AcDbLine
 62
7
  6
CONTINUOUS
 10
13.4791505667
 20
-0.75
 11
12.4580182753
 21
-1.0236115728
  0
LINE
  5
2CA
100
AcDbEntity
  8
0
100
AcDbLine
 62
7
  6
CONTINUOUS
 10
-29.202436
 20
-4.0
 11
-28.898332
 21
-4.0
  0
LINE
  5
2CB
100
AcDbEntity
  8
0
100
AcDbLine
 62
7
  6
CONTINUOUS
 10
-27.810582
 20
-4.0
 11
-27.50666
 21
-4.0
  0
LINE
  5
2CC
100
AcDbEntity
  8
0
100
AcDbLine
 62
7
  6
CONTINUOUS
 10
-26.657317
 20
-4.0
 11
-26.343931
 21
-4.0
  0
LINE
  5
2CD
100
AcDbEntity
  8
0
100
AcDbLine
 62
7
  6
CONTINUOUS
 10
-24.983562
 20
-4.0
 11
-24.651432
 21
-4.0
  0
LINE
  5
2CE
100
AcDbEntity
  8
0
100
AcDbLine
 62
7
  6
CONTINUOUS
 10
-24.372442
 20
-4.0
 11
-22.92763
 21
-4.0
  0
LINE
  5
2CF
100
AcDbEntity
  8
0
100
AcDbLine
 62
7
  6
CONTINUOUS
 10
-22.444812
 20
-4.0
 11
-22.14089
 21
-4.0
  0
LINE
  5
2D0
100
AcDbEntity
  8
0
100
AcDbLine
 62
7
  6
CONTINUOUS
 10
-22.92763
 20
-3.730656
 11
-24.06852
 21
-3.730656
  0
LINE
  5
2D1
100
AcDbEntity
  8
0
100
AcDbLine
 62
7
  6
CONTINUOUS
 10
-26.108801
 20
-3.344839
 11
-25.206135
 21
-3.344839
  0
LINE
  5
2D2
100
AcDbEntity
  8
0
100
AcDbLine
 62
7
  6
CONTINUOUS
 10
-25.315874
 20
-3.075495
 11
-26.014895
 21
-3.075495
  0
LINE
  5
2D3
100
AcDbEntity
  8
0
100
AcDbLine
 62
7
  6
CONTINUOUS
 10
-16.9522481888
 20
-1.2732954666
 11
-17.9722007556
 21
-1.0
  0
LINE
  5
2D4
100
AcDbEntity
  8
0
100
AcDbLine
 62
7
  6
CONTINUOUS
 10
-12.4580182753
 20
-1.0236115728
 11
-13.4791505667
 21
-0.75
  0
LINE
  5
2D5
100
AcDbEntity
  8
0
100
AcDbLine
 62
7
  6
CONTINUOUS
 10
-1.0
 20
-17.9722007556
 11
-1.2732954666
 21
-16.9522481888
  0
LINE
  5
2D6
100
AcDbEntity
  8
0
100
AcDbLine
 62
7
  6
CONTINUOUS
 10
-0.75
 20
-13.4791505667
 11
-1.0236115728
 21
-12.4580182753
  0
LINE
  5
2D7
100
AcDbEntity
  8
0
100
AcDbLine
 62
7
  6
CONTINUOUS
 10
-0.5
 20
-10.4880884817
 11
-0.7732026444
 21
-9.468482332
  0
LINE
  5
2D8
100
AcDbEntity
  8
0
100
AcDbLine
 62
7
  6
CONTINUOUS
 10
-2.668747
 20
-29.14257
 11
-2.668747
 21
-28.873067
  0
LINE
  5
2D9
100
AcDbEntity
  8
0
100
AcDbLine
 62
7
  6
CONTINUOUS
 10
-2.667387
 20
-24.9359457868
 11
-2.667387
 21
-26.6
  0
LINE
  5
2DA
100
AcDbEntity
  8
0
100
AcDbLine
 62
7
  6
CONTINUOUS
 10
-2.406009
 20
-26.6
 11
-2.406009
 21
-24.464426
  0
LINE
  5
2DB
100
AcDbEntity
  8
0
100
AcDbLine
 62
7
  6
CONTINUOUS
 10
-2.352166
 20
-30.790852
 11
-2.352166
 21
-31.123067
  0
LINE
  5
2DC
100
AcDbEntity
  8
0
100
AcDbLine
 62
7
  6
CONTINUOUS
 10
-2.026347
 20
-31.123067
 11
-2.026347
 21
-30.790852
  0
LINE
  5
2DD
100
AcDbEntity
  8
0
100
AcDbLine
 62
7
  6
CONTINUOUS
 10
-1.545056
 20
-21.7019386601
 11
-1.545056
 21
-21.500005
  0
LINE
  5
2DE
100
AcDbEntity
  8
0
100
AcDbLine
 62
7
  6
CONTINUOUS
 10
-1.087631
 20
-21.998271101
 11
-1.087631
 21
-22.2506993405
  0
LINE
  5
2DF
100
AcDbEntity
  8
0
100
AcDbLine
 62
7
  6
CONTINUOUS
 10
-1.0256413671
 20
34.9849690551
 11
-1.0256413671
 21
34.1846172976
  0
LINE
  5
2E0
100
AcDbEntity
  8
0
100
AcDbLine
 62
7
  6
CONTINUOUS
 10
-1.0256413671
 20
-34.1846172976
 11
-1.0256413671
 21
-34.9849690551
  0
LINE
  5
2E1
100
AcDbEntity
  8
ASSI
100
AcDbLine
 62
7
  6
CONTINUOUS
 10
-0.75
 20
-34.991963363
 11
-0.75
 21
-34.1917753268
  0
LINE
  5
2E2
100
AcDbEntity
  8
ASSI
100
AcDbLine
 62
7
  6
CONTINUOUS
 10
-0.75
 20
34.1917753268
 11
-0.75
 21
34.991963363
  0
LINE
  5
2E3
100
AcDbEntity
  8
0
100
AcDbLine
 62
7
  6
CONTINUOUS
 10
-0.613102
 20
-28.873067
 11
-0.613102
 21
-31.123067
  0
LINE
  5
2E4
100
AcDbEntity
  8
0
100
AcDbLine
 62
7
  6
CONTINUOUS
 10
-0.56486
 20
-21.9358950423
 11
-0.56486
 21
-23.6
  0
LINE
  5
2E5
100
AcDbEntity
  8
0
100
AcDbLine
 62
7
  6
CONTINUOUS
 10
-0.427856
 20
-24.749565
 11
-0.427856
 21
-24.500069
  0
LINE
  5
2E6
100
AcDbEntity
  8
0
100
AcDbLine
 62
7
  6
CONTINUOUS
 10
-0.309134
 20
-31.123067
 11
-0.309134
 21
-30.173501
  0
LINE
  5
2E7
100
AcDbEntity
  8
0
100
AcDbLine
 62
7
  6
CONTINUOUS
 10
-0.309134
 20
-29.913415
 11
-0.309134
 21
-29.133154
  0
LINE
  5
2E8
100
AcDbEntity
  8
0
100
AcDbLine
 62
7
  6
CONTINUOUS
 10
-0.303474
 20
-23.6
 11
-0.303474
 21
-21.464361
  0
LINE
  5
2E9
100
AcDbEntity
  8
ASSI
100
AcDbLine
 62
7
  6
CONTINUOUS
 10
0.115843
 20
24.429075
 11
0.115856
 21
20.99987
  0
LINE
  5
2EA
100
AcDbEntity
  8
RACCORDO
100
AcDbLine
 62
253
  6
CONTINUOUS
 10
10.7856591811
 20
16.9611189498
 11
10.6246791933
 21
16.7079679207
  0
LINE
  5
2EB
100
AcDbEntity
  8
RACCORDO
100
AcDbLine
 62
253
  6
CONTINUOUS
 10
-10.7856591811
 20
-16.9611189498
 11
-10.6246791933
 21
-16.7079679207
  0
LINE
  5
2EC
100
AcDbEntity
  8
RACCORDO
100
AcDbLine
 62
253
  6
CONTINUOUS
 10
11.2318288873
 20
17.6254367278
 11
11.3930513115
 21
17.8784334273
  0
LINE
  5
2ED
100
AcDbEntity
  8
RACCORDO
100
AcDbLine
 62
253
  6
CONTINUOUS
 10
-11.2318288873
 20
-17.6254367278
 11
-11.3930513115
 21
-17.8784334273
  0
LINE
  5
2EE
100
AcDbEntity
  8
RACCORDO
100
AcDbLine
 62
253
  6
CONTINUOUS
 10
-17.6254367278
 20
-11.2318288873
 11
-17.8784334273
 21
-11.3930513115
  0
LINE
  5
2EF
100
AcDbEntity
  8
RACCORDO
100
AcDbLine
 62
253
  6
CONTINUOUS
 10
17.6254367278
 20
11.2318288873
 11
17.8784334273
 21
11.3930513115
  0
LINE
  5
2F0
100
AcDbEntity
  8
RACCORDO
100
AcDbLine
 62
253
  6
CONTINUOUS
 10
16.9611189498
 20
10.7856591811
 11
16.7079679207
 21
10.6246791933
  0
LINE
  5
2F1
100
AcDbEntity
  8
RACCORDO
100
AcDbLine
 62
253
  6
CONTINUOUS
 10
-16.9611189498
 20
-10.7856591811
 11
-16.7079679207
 21
-10.6246791933
  0
LINE
  5
2F2
100
AcDbEntity
  8
0
100
AcDbLine
 62
7
  6
CONTINUOUS
 10
9.497106148
 20
0.234467084
 11
10.4880884817
 21
0.5
  0
LINE
  5
2F3
100
AcDbEntity
  8
ASSI
100
AcDbLine
 62
7
  6
CONTINUOUS
 10
26.333113
 20
-2.160266
 11
27.672991
 21
-2.160266
  0
LINE
  5
2F4
100
AcDbEntity
  8
0
100
AcDbLine
 62
7
  6
CONTINUOUS
 10
-28.572207
 20
-2.018137
 11
-27.810582
 21
-2.018137
  0
LINE
  5
2F5
100
AcDbEntity
  8
0
100
AcDbLine
 62
7
  6
CONTINUOUS
 10
-27.50666
 20
-2.018137
 11
-26.745035
 21
-2.018137
  0
LINE
  5
2F6
100
AcDbEntity
  8
0
100
AcDbLine
 62
7
  6
CONTINUOUS
 10
-21.291547
 20
-1.748793
 11
-21.648792
 21
-1.748793
  0
LINE
  5
2F7
100
AcDbEntity
  8
0
100
AcDbLine
 62
7
  6
CONTINUOUS
 10
-22.940187
 20
-1.748793
 11
-23.294338
 21
-1.748793
  0
LINE
  5
2F8
100
AcDbEntity
  8
0
100
AcDbLine
 62
7
  6
CONTINUOUS
 10
-24.06852
 20
-1.748793
 11
-24.372442
 21
-1.748793
  0
LINE
  5
2F9
100
AcDbEntity
  8
0
100
AcDbLine
 62
7
  6
CONTINUOUS
 10
-25.466379
 20
-1.748793
 11
-25.811067
 21
-1.748793
  0
LINE
  5
2FA
100
AcDbEntity
  8
0
100
AcDbLine
 62
7
  6
CONTINUOUS
 10
-26.745035
 20
-1.748793
 11
-28.572207
 21
-1.748793
  0
LINE
  5
2FB
100
AcDbEntity
  8
0
100
AcDbLine
 62
7
  6
CONTINUOUS
 10
-28.898332
 20
-1.748793
 11
-29.202436
 21
-1.748793
  0
LINE
  5
2FC
100
AcDbEntity
  8
ASSI
100
AcDbLine
 62
7
  6
CONTINUOUS
 10
27.672991
 20
-1.688045
 11
27.254665
 21
-1.688045
  0
LINE
  5
2FD
100
AcDbEntity
  8
ASSI
100
AcDbLine
 62
7
  6
CONTINUOUS
 10
26.751602
 20
-1.688045
 11
26.333113
 21
-1.688045
  0
LINE
  5
2FE
100
AcDbEntity
  8
0
100
AcDbLine
 62
7
  6
CONTINUOUS
 10
34.9849690551
 20
-1.0256413671
 11
34.1846172976
 21
-1.0256413671
  0
LINE
  5
2FF
100
AcDbEntity
  8
0
100
AcDbLine
 62
7
  6
CONTINUOUS
 10
-34.1846172976
 20
-1.0256413671
 11
-34.9849690551
 21
-1.0256413671
  0
LINE
  5
300
100
AcDbEntity
  8
0
100
AcDbLine
 62
7
  6
CONTINUOUS
 10
-26.649491
 20
-0.764232
 11
-26.345387
 21
-0.764232
  0
LINE
  5
301
100
AcDbEntity
  8
0
100
AcDbLine
 62
7
  6
CONTINUOUS
 10
-25.825262
 20
-0.764232
 11
-25.530439
 21
-0.764232
  0
LINE
  5
302
100
AcDbEntity
  8
0
100
AcDbLine
 62
7
  6
CONTINUOUS
 10
-24.380268
 20
-0.764232
 11
-24.038674
 21
-0.764232
  0
LINE
  5
303
100
AcDbEntity
  8
0
100
AcDbLine
 62
7
  6
CONTINUOUS
 10
34.991963363
 20
-0.75
 11
34.1917753268
 21
-0.75
  0
LINE
  5
304
100
AcDbEntity
  8
0
100
AcDbLine
 62
7
  6
CONTINUOUS
 10
-34.1917753268
 20
-0.75
 11
-34.991963363
 21
-0.75
  0
LINE
  5
305
100
AcDbEntity
  8
0
100
AcDbLine
 62
7
  6
CONTINUOUS
 10
-10.4880884817
 20
0.5
 11
-9.497106148
 21
0.234467084
  0
LINE
  5
306
100
AcDbEntity
  8
ASSI
100
AcDbLine
 62
7
  6
CONTINUOUS
 10
-11.083514
 20
26.200104
 11
-9.413898
 21
20.999857
  0
LINE
  5
307
100
AcDbEntity
  8
ASSI
100
AcDbLine
 62
7
  6
CONTINUOUS
 10
-8.893846
 20
22.619462
 11
-10.043462
 21
26.200104
  0
LINE
  5
308
100
AcDbEntity
  8
ASSI
100
AcDbLine
 62
7
  6
CONTINUOUS
 10
0.75
 20
34.991963363
 11
0.75
 21
34.1917753268
  0
LINE
  5
309
100
AcDbEntity
  8
ASSI
100
AcDbLine
 62
7
  6
CONTINUOUS
 10
0.75
 20
-34.1917753268
 11
0.75
 21
-34.991963363
  0
LINE
  5
30A
100
AcDbEntity
  8
0
100
AcDbLine
 62
7
  6
CONTINUOUS
 10
1.0256413671
 20
34.9849690551
 11
1.0256413671
 21
34.1846172976
  0
LINE
  5
30B
100
AcDbEntity
  8
0
100
AcDbLine
 62
7
  6
CONTINUOUS
 10
1.0256413671
 20
-34.1846172976
 11
1.0256413671
 21
-34.9849690551
  0
LINE
  5
30C
100
AcDbEntity
  8
ASSI
100
AcDbLine
 62
7
  6
CONTINUOUS
 10
1.155895
 20
20.99987
 11
1.155895
 21
26.200104
  0
LINE
  5
30D
100
AcDbEntity
  8
0
100
AcDbLine
 62
7
  6
CONTINUOUS
 10
1.477009
 20
-28.873067
 11
1.477009
 21
-31.123067
  0
LINE
  5
30E
100
AcDbEntity
  8
0
100
AcDbLine
 62
7
  6
CONTINUOUS
 10
1.780977
 20
-30.853565
 11
1.780977
 21
-30.101551
  0
LINE
  5
30F
100
AcDbEntity
  8
0
100
AcDbLine
 62
7
  6
CONTINUOUS
 10
1.780977
 20
-29.832049
 11
1.780977
 21
-29.14257
  0
LINE
  5
310
100
AcDbEntity
  8
0
100
AcDbLine
 62
7
  6
CONTINUOUS
 10
3.012658
 20
-30.101551
 11
3.012658
 21
-29.832049
  0
LINE
  5
311
100
AcDbEntity
  8
0
100
AcDbLine
 62
7
  6
CONTINUOUS
 10
3.116054
 20
-29.14257
 11
3.116054
 21
-28.873067
  0
LINE
  5
312
100
AcDbEntity
  8
0
100
AcDbLine
 62
7
  6
CONTINUOUS
 10
3.137905
 20
-31.123067
 11
3.137905
 21
-30.853565
  0
LINE
  5
313
100
AcDbEntity
  8
0
100
AcDbLine
 62
7
  6
CONTINUOUS
 10
3.535852
 20
-28.873067
 11
3.535852
 21
-31.123067
  0
LINE
  5
314
100
AcDbEntity
  8
0
100
AcDbLine
 62
7
  6
CONTINUOUS
 10
-1.482277
 20
-24.500069
 11
-1.687221
 21
-25.593102
  0
LINE
  5
315
100
AcDbEntity
  8
0
100
AcDbLine
 62
7
  6
CONTINUOUS
 10
-1.3874160538
 20
-25.3231852722
 11
-1.273992
 21
-24.749565
  0
LINE
  5
316
100
AcDbEntity
  8
0
100
AcDbLine
 62
7
  6
CONTINUOUS
 10
0.7732026444
 20
-9.468482332
 11
0.5
 21
-10.4880884817
  0
LINE
  5
317
100
AcDbEntity
  8
0
100
AcDbLine
 62
7
  6
CONTINUOUS
 10
-9.497106148
 20
-0.234467084
 11
-10.4880884817
 21
-0.5
  0
LINE
  5
318
100
AcDbEntity
  8
0
100
AcDbLine
 62
7
  6
CONTINUOUS
 10
-34.991963363
 20
0.75
 11
-34.1917753268
 21
0.75
  0
LINE
  5
319
100
AcDbEntity
  8
0
100
AcDbLine
 62
7
  6
CONTINUOUS
 10
34.1917753268
 20
0.75
 11
34.991963363
 21
0.75
  0
LINE
  5
31A
100
AcDbEntity
  8
0
100
AcDbLine
 62
7
  6
CONTINUOUS
 10
34.9849690551
 20
1.0256413671
 11
34.1846172976
 21
1.0256413671
  0
LINE
  5
31B
100
AcDbEntity
  8
0
100
AcDbLine
 62
7
  6
CONTINUOUS
 10
-34.1846172976
 20
1.0256413671
 11
-34.9849690551
 21
1.0256413671
  0
LINE
  5
31C
100
AcDbEntity
  8
0
100
AcDbLine
 62
7
  6
CONTINUOUS
 10
-24.038674
 20
1.485155
 11
-24.333132
 21
1.485155
  0
LINE
  5
31D
100
AcDbEntity
  8
0
100
AcDbLine
 62
7
  6
CONTINUOUS
 10
-25.464741
 20
1.485155
 11
-25.825262
 21
1.485155
  0
LINE
  5
31E
100
AcDbEntity
  8
0
100
AcDbLine
 62
7
  6
CONTINUOUS
 10
-26.345387
 20
1.485155
 11
-26.649491
 21
1.485155
  0
LINE
  5
31F
100
AcDbEntity
  8
ASSI
100
AcDbLine
 62
7
  6
CONTINUOUS
 10
26.348534
 20
1.666846
 11
26.751602
 21
1.666846
  0
LINE
  5
320
100
AcDbEntity
  8
ASSI
100
AcDbLine
 62
7
  6
CONTINUOUS
 10
27.254665
 20
1.666846
 11
27.65757
 21
1.666846
  0
LINE
  5
321
100
AcDbEntity
  8
ASSI
100
AcDbLine
 62
7
  6
CONTINUOUS
 10
27.65757
 20
2.141663
 11
26.348534
 21
2.141663
  0
LINE
  5
322
100
AcDbEntity
  8
0
100
AcDbLine
 62
7
  6
CONTINUOUS
 10
-29.666144
 20
2.471536
 11
-29.371504
 21
2.471536
  0
LINE
  5
323
100
AcDbEntity
  8
0
100
AcDbLine
 62
7
  6
CONTINUOUS
 10
-28.738363
 20
2.471536
 11
-28.437535
 21
2.471536
  0
LINE
  5
324
100
AcDbEntity
  8
0
100
AcDbLine
 62
7
  6
CONTINUOUS
 10
-27.804395
 20
2.471536
 11
-27.509754
 21
2.471536
  0
LINE
  5
325
100
AcDbEntity
  8
0
100
AcDbLine
 62
7
  6
CONTINUOUS
 10
-27.240228
 20
2.471536
 11
-26.926843
 21
2.471536
  0
LINE
  5
326
100
AcDbEntity
  8
0
100
AcDbLine
 62
7
  6
CONTINUOUS
 10
-25.566473
 20
2.471536
 11
-25.234343
 21
2.471536
  0
LINE
  5
327
100
AcDbEntity
  8
0
100
AcDbLine
 62
7
  6
CONTINUOUS
 10
-24.939702
 20
2.471536
 11
-24.0277626345
 21
2.471536
  0
LINE
  5
328
100
AcDbEntity
  8
0
100
AcDbLine
 62
7
  6
CONTINUOUS
 10
-22.661198
 20
2.471536
 11
-21.0
 21
2.471536
  0
LINE
  5
329
100
AcDbEntity
  8
0
100
AcDbLine
 62
7
  6
CONTINUOUS
 10
-24.0685195825
 20
2.731781
 11
-24.63578
 21
2.731781
  0
LINE
  5
32A
100
AcDbEntity
  8
0
100
AcDbLine
 62
7
  6
CONTINUOUS
 10
-21.0
 20
2.74088
 11
-22.357094
 21
2.74088
  0
LINE
  5
32B
100
AcDbEntity
  8
0
100
AcDbLine
 62
7
  6
CONTINUOUS
 10
-26.691713
 20
3.126698
 11
-25.789046
 21
3.126698
  0
LINE
  5
32C
100
AcDbEntity
  8
0
100
AcDbLine
 62
7
  6
CONTINUOUS
 10
-25.898786
 20
3.396042
 11
-26.597624
 21
3.396042
  0
LINE
  5
32D
100
AcDbEntity
  8
0
100
AcDbLine
 62
7
  6
CONTINUOUS
 10
-22.357094
 20
3.492496
 11
-21.125391
 21
3.492496
  0
LINE
  5
32E
100
AcDbEntity
  8
0
100
AcDbLine
 62
7
  6
CONTINUOUS
 10
10.4880884817
 20
-0.5
 11
9.497106148
 21
-0.234467084
  0
LINE
  5
32F
100
AcDbEntity
  8
0
100
AcDbLine
 62
7
  6
CONTINUOUS
 10
0.5
 20
10.4880884817
 11
0.7732026444
 21
9.468482332
  0
LINE
  5
330
100
AcDbEntity
  8
0
100
AcDbLine
 62
7
  6
CONTINUOUS
 10
3.830404
 20
-31.123067
 11
3.830404
 21
-29.2956
  0
LINE
  5
331
100
AcDbEntity
  8
0
100
AcDbLine
 62
7
  6
CONTINUOUS
 10
3.866813
 20
-21.9982709555
 11
3.866813
 21
-22.2506992239
  0
LINE
  5
332
100
AcDbEntity
  8
0
100
AcDbLine
 62
7
  6
CONTINUOUS
 10
4.389584
 20
-21.9358947986
 11
4.389584
 21
-23.6
  0
LINE
  5
333
100
AcDbEntity
  8
0
100
AcDbLine
 62
7
  6
CONTINUOUS
 10
4.650969
 20
-23.6
 11
4.650969
 21
-21.464361
  0
LINE
  5
334
100
AcDbEntity
  8
0
100
AcDbLine
 62
7
  6
CONTINUOUS
 10
5.027443
 20
-28.873067
 11
5.027443
 21
-30.700702
  0
LINE
  5
335
100
AcDbEntity
  8
0
100
AcDbLine
 62
7
  6
CONTINUOUS
 10
5.321995
 20
-31.123067
 11
5.321995
 21
-28.873067
  0
LINE
  5
336
100
AcDbEntity
  8
0
100
AcDbLine
 62
7
  6
CONTINUOUS
 10
5.813922
 20
-28.873067
 11
5.813922
 21
-31.123067
  0
LINE
  5
337
100
AcDbEntity
  8
0
100
AcDbLine
 62
7
  6
CONTINUOUS
 10
6.117889
 20
-30.86298
 11
6.117889
 21
-29.133154
  0
LINE
  5
338
100
AcDbEntity
  8
ASSI
100
AcDbLine
 62
7
  6
CONTINUOUS
 10
6.921928
 20
26.200117
 11
6.921928
 21
20.999883
  0
LINE
  5
339
100
AcDbEntity
  8
ASSI
100
AcDbLine
 62
7
  6
CONTINUOUS
 10
12.5
 20
32.6917420766
 11
12.325
 21
31.726438764
  0
LINE
  5
33A
100
AcDbEntity
  8
0
100
AcDbLine
 62
7
  6
CONTINUOUS
 10
1.0236115728
 20
-12.4580182753
 11
0.75
 21
-13.4791505667
  0
LINE
  5
33B
100
AcDbEntity
  8
0
100
AcDbLine
 62
7
  6
CONTINUOUS
 10
1.2732954666
 20
-16.9522481888
 11
1.0
 21
-17.9722007556
  0
LINE
  5
33C
100
AcDbEntity
  8
0
100
AcDbLine
 62
7
  6
CONTINUOUS
 10
-6.2723
 20
-31.123067
 11
-6.037263
 21
-30.468053
  0
LINE
  5
33D
100
AcDbEntity
  8
0
100
AcDbLine
 62
7
  6
CONTINUOUS
 10
-5.943283
 20
-30.198551
 11
-5.579764
 21
-29.199411
  0
LINE
  5
33E
100
AcDbEntity
  8
0
100
AcDbLine
 62
7
  6
CONTINUOUS
 10
-5.739513
 20
-28.873067
 11
-6.585684
 21
-31.123067
  0
LINE
  5
33F
100
AcDbEntity
  8
0
100
AcDbLine
 62
7
  6
CONTINUOUS
 10
-3.913908
 20
-23.6
 11
-3.084455
 21
-21.473272
  0
LINE
  5
340
100
AcDbEntity
  8
0
100
AcDbLine
 62
7
  6
CONTINUOUS
 10
-13.4791505667
 20
0.75
 11
-12.4580182753
 21
1.0236115728
  0
LINE
  5
341
100
AcDbEntity
  8
0
100
AcDbLine
 62
7
  6
CONTINUOUS
 10
-17.9722007556
 20
1.0
 11
-16.9522481888
 21
1.2732954666
  0
LINE
  5
342
100
AcDbEntity
  8
0
100
AcDbLine
 62
7
  6
CONTINUOUS
 10
31.726438764
 20
12.325
 11
32.6917420766
 21
12.5
  0
LINE
  5
343
100
AcDbEntity
  8
0
100
AcDbLine
 62
7
  6
CONTINUOUS
 10
-21.125391
 20
3.76184
 11
-22.357094
 21
3.76184
  0
LINE
  5
344
100
AcDbEntity
  8
0
100
AcDbLine
 62
7
  6
CONTINUOUS
 10
-22.357094
 20
4.451579
 11
-21.022021
 21
4.451579
  0
LINE
  5
345
100
AcDbEntity
  8
0
100
AcDbLine
 62
7
  6
CONTINUOUS
 10
-24.63578
 20
4.460679
 11
-24.0685304096
 21
4.460679
  0
LINE
  5
346
100
AcDbEntity
  8
0
100
AcDbLine
 62
7
  6
CONTINUOUS
 10
-21.022021
 20
4.720923
 11
-22.661198
 21
4.720923
  0
LINE
  5
347
100
AcDbEntity
  8
0
100
AcDbLine
 62
7
  6
CONTINUOUS
 10
-24.0277531572
 20
4.720923
 11
-24.939702
 21
4.720923
  0
LINE
  5
348
100
AcDbEntity
  8
0
100
AcDbLine
 62
7
  6
CONTINUOUS
 10
-26.049291
 20
4.720923
 11
-26.393978
 21
4.720923
  0
LINE
  5
349
100
AcDbEntity
  8
0
100
AcDbLine
 62
7
  6
CONTINUOUS
 10
-27.509754
 20
4.720923
 11
-27.942343
 21
4.720923
  0
LINE
  5
34A
100
AcDbEntity
  8
0
100
AcDbLine
 62
7
  6
CONTINUOUS
 10
-29.230462
 20
4.720923
 11
-29.666144
 21
4.720923
  0
LINE
  5
34B
100
AcDbEntity
  8
0
100
AcDbLine
 62
7
  6
CONTINUOUS
 10
-32.6917420766
 20
12.5
 11
-31.726438764
 21
12.325
  0
LINE
  5
34C
100
AcDbEntity
  8
0
100
AcDbLine
 62
7
  6
CONTINUOUS
 10
12.4580182753
 20
1.0236115728
 11
13.4791505667
 21
0.75
  0
LINE
  5
34D
100
AcDbEntity
  8
0
100
AcDbLine
 62
7
  6
CONTINUOUS
 10
16.9522481888
 20
1.2732954666
 11
17.9722007556
 21
1.0
  0
LINE
  5
34E
100
AcDbEntity
  8
ASSI
100
AcDbLine
 62
7
  6
CONTINUOUS
 10
-2.890758
 20
24.429075
 11
-1.907464
 21
20.99987
  0
LINE
  5
34F
100
AcDbEntity
  8
ASSI
100
AcDbLine
 62
7
  6
CONTINUOUS
 10
-1.387451
 20
22.813526
 11
-2.358538
 21
26.200104
  0
LINE
  5
350
100
AcDbEntity
  8
0
100
AcDbLine
 62
7
  6
CONTINUOUS
 10
0.75
 20
13.4791505667
 11
1.0236115728
 21
12.4580182753
  0
LINE
  5
351
100
AcDbEntity
  8
0
100
AcDbLine
 62
7
  6
CONTINUOUS
 10
1.0
 20
17.9722007556
 11
1.2732954666
 21
16.9522481888
  0
LINE
  5
352
100
AcDbEntity
  8
ASSI
100
AcDbLine
 62
7
  6
CONTINUOUS
 10
12.325
 20
-31.726438764
 11
12.5
 21
-32.6917420766
  0
LINE
  5
353
100
AcDbEntity
  8
0
100
AcDbLine
 62
7
  6
CONTINUOUS
 10
7.5
 20
-27.0
 11
7.5
 21
-21.0
  0
LINE
  5
354
100
AcDbEntity
  8
ASSI
100
AcDbLine
 62
7
  6
CONTINUOUS
 10
7.947641
 20
23.972632
 11
7.947628
 21
25.238078
  0
LINE
  5
355
100
AcDbEntity
  8
0
100
AcDbLine
 62
7
  6
CONTINUOUS
 10
8.095189
 20
-30.790852
 11
8.095189
 21
-31.123067
  0
LINE
  5
356
100
AcDbEntity
  8
0
100
AcDbLine
 62
7
  6
CONTINUOUS
 10
8.421186
 20
-31.123067
 11
8.421186
 21
-30.790852
  0
LINE
  5
357
100
AcDbEntity
  8
0
100
AcDbLine
 62
7
  6
CONTINUOUS
 10
9.5
 20
33.6860505254
 11
9.5
 21
32.854071285
  0
LINE
  5
358
100
AcDbEntity
  8
0
100
AcDbLine
 62
7
  6
CONTINUOUS
 10
9.5
 20
-32.854071285
 11
9.5
 21
-33.6860505254
  0
LINE
  5
359
100
AcDbEntity
  8
ASSI
100
AcDbLine
 62
7
  6
CONTINUOUS
 10
7.96198
 20
20.999883
 11
7.962097
 21
23.010593
  0
LINE
  5
35A
100
AcDbEntity
  8
0
100
AcDbLine
 62
7
  6
CONTINUOUS
 10
33.6860505254
 20
9.5
 11
32.854071285
 21
9.5
  0
LINE
  5
35B
100
AcDbEntity
  8
0
100
AcDbLine
 62
7
  6
CONTINUOUS
 10
-32.854071285
 20
9.5
 11
-33.6860505254
 21
9.5
  0
LINE
  5
35C
100
AcDbEntity
  8
ASSI
100
AcDbLine
 62
7
  6
CONTINUOUS
 10
10.5
 20
-32.5482718435
 11
10.5
 21
-33.3878720496
  0
LINE
  5
35D
100
AcDbEntity
  8
ASSI
100
AcDbLine
 62
7
  6
CONTINUOUS
 10
10.5
 20
32.5482718435
 11
10.5
 21
33.3878720496
  0
LINE
  5
35E
100
AcDbEntity
  8
ASSI
100
AcDbLine
 62
7
  6
CONTINUOUS
 10
12.5
 20
-31.6578985665
 11
12.5
 21
-32.6917420766
  0
LINE
  5
35F
100
AcDbEntity
  8
ASSI
100
AcDbLine
 62
7
  6
CONTINUOUS
 10
12.5
 20
31.6578985665
 11
12.5
 21
32.6917420766
  0
LINE
  5
360
100
AcDbEntity
  8
ASSI
100
AcDbLine
 62
7
  6
CONTINUOUS
 10
13.5
 20
-31.2445601928
 11
13.5
 21
-32.2916397849
  0
LINE
  5
361
100
AcDbEntity
  8
ASSI
100
AcDbLine
 62
7
  6
CONTINUOUS
 10
13.5
 20
31.2445601928
 11
13.5
 21
32.2916397849
  0
LINE
  5
362
100
AcDbEntity
  8
RACCORDO
100
AcDbLine
 62
253
  6
CONTINUOUS
 10
17.1750468575
 20
10.6198765583
 11
17.0823417592
 21
10.3345596034
  0
LINE
  5
363
100
AcDbEntity
  8
RACCORDO
100
AcDbLine
 62
253
  6
CONTINUOUS
 10
-10.6198765583
 20
-17.1750468575
 11
-10.3345596034
 21
-17.0823417592
  0
LINE
  5
364
100
AcDbEntity
  8
0
100
AcDbLine
 62
7
  6
CONTINUOUS
 10
-33.3878720496
 20
10.5
 11
-32.5482718435
 21
10.5
  0
LINE
  5
365
100
AcDbEntity
  8
0
100
AcDbLine
 62
7
  6
CONTINUOUS
 10
32.5482718435
 20
10.5
 11
33.3878720496
 21
10.5
  0
LINE
  5
366
100
AcDbEntity
  8
0
100
AcDbLine
 62
7
  6
CONTINUOUS
 10
-32.6917420766
 20
12.5
 11
-31.6578985665
 21
12.5
  0
LINE
  5
367
100
AcDbEntity
  8
0
100
AcDbLine
 62
7
  6
CONTINUOUS
 10
31.6578985665
 20
12.5
 11
32.6917420766
 21
12.5
  0
LINE
  5
368
100
AcDbEntity
  8
0
100
AcDbLine
 62
7
  6
CONTINUOUS
 10
-32.2916397849
 20
13.5
 11
-31.2445601928
 21
13.5
  0
LINE
  5
369
100
AcDbEntity
  8
0
100
AcDbLine
 62
7
  6
CONTINUOUS
 10
31.2445601928
 20
13.5
 11
32.2916397849
 21
13.5
  0
LINE
  5
36A
100
AcDbEntity
  8
RACCORDO
100
AcDbLine
 62
253
  6
CONTINUOUS
 10
17.6842150228
 20
10.9611964146
 11
17.9812954434
 21
10.9194444843
  0
LINE
  5
36B
100
AcDbEntity
  8
ASSI
100
AcDbLine
 62
7
  6
CONTINUOUS
 10
4.860193
 20
22.022541
 11
5.188521
 21
20.999883
  0
LINE
  5
36C
100
AcDbEntity
  8
ASSI
100
AcDbLine
 62
7
  6
CONTINUOUS
 10
4.038892
 20
24.580512
 11
4.542941
 21
23.01058
  0
LINE
  5
36D
100
AcDbEntity
  8
ASSI
100
AcDbLine
 62
7
  6
CONTINUOUS
 10
6.228573
 20
20.99987
 11
4.558944
 21
26.200117
  0
LINE
  5
36E
100
AcDbEntity
  8
RACCORDO
100
AcDbLine
 62
253
  6
CONTINUOUS
 10
10.9611964146
 20
17.6842150228
 11
10.9194444843
 21
17.9812954434
  0
LINE
  5
36F
100
AcDbEntity
  8
RACCORDO
100
AcDbLine
 62
253
  6
CONTINUOUS
 10
17.6161049543
 20
10.4765680954
 11
17.6842150228
 21
10.9611964146
  0
LINE
  5
370
100
AcDbEntity
  8
RACCORDO
100
AcDbLine
 62
7
  6
CONTINUOUS
 10
17.8965993706
 20
10.3168006123
 11
17.9812954434
 21
10.9194444843
  0
LINE
  5
371
100
AcDbEntity
  8
ASSI
100
AcDbLine
 62
7
  6
CONTINUOUS
 10
10.5
 20
-33.3878720496
 11
10.657051564
 21
-32.4971883701
  0
LINE
  5
372
100
AcDbEntity
  8
0
100
AcDbLine
 62
7
  6
CONTINUOUS
 10
-32.4971883701
 20
10.657051564
 11
-33.3878720496
 21
10.5
  0
LINE
  5
373
100
AcDbEntity
  8
RACCORDO
100
AcDbLine
 62
253
  6
CONTINUOUS
 10
10.9611964146
 20
17.6842150228
 11
10.4765680954
 21
17.6161049543
  0
LINE
  5
374
100
AcDbEntity
  8
RACCORDO
100
AcDbLine
 62
7
  6
CONTINUOUS
 10
10.9194444843
 20
17.9812954434
 11
10.3168006123
 21
17.8965993706
  0
LINE
  5
375
100
AcDbEntity
  8
0
100
AcDbLine
 62
7
  6
CONTINUOUS
 10
33.3878720496
 20
10.5
 11
32.4971883701
 21
10.657051564
  0
LINE
  5
376
100
AcDbEntity
  8
RACCORDO
100
AcDbLine
 62
7
  6
CONTINUOUS
 10
17.0823417592
 20
10.3345596034
 11
17.636742358
 21
10.1544239292
  0
LINE
  5
377
100
AcDbEntity
  8
RACCORDO
100
AcDbLine
 62
253
  6
CONTINUOUS
 10
17.1750468575
 20
10.6198765583
 11
17.6161049543
 21
10.4765680954
  0
LINE
  5
378
100
AcDbEntity
  8
RACCORDO
100
AcDbLine
 62
7
  6
CONTINUOUS
 10
10.1544239292
 20
17.636742358
 11
10.3345596034
 21
17.0823417592
  0
LINE
  5
379
100
AcDbEntity
  8
RACCORDO
100
AcDbLine
 62
253
  6
CONTINUOUS
 10
10.4765680954
 20
17.6161049543
 11
10.6198765583
 21
17.1750468575
  0
LINE
  5
37A
100
AcDbEntity
  8
ASSI
100
AcDbLine
 62
7
  6
CONTINUOUS
 10
10.657051564
 20
32.4971883701
 11
10.5
 21
33.3878720496
  0
LINE
  5
37B
100
AcDbEntity
  8
ASSI
100
AcDbLine
 62
7
  6
CONTINUOUS
 10
13.5
 20
-32.2916397849
 11
13.7
 21
-31.157383421
  0
LINE
  5
37C
100
AcDbEntity
  8
ASSI
100
AcDbLine
 62
7
  6
CONTINUOUS
 10
28.5796169933
 20
1.5793829943
 11
27.254665
 21
0.462838
  0
LINE
  5
37D
100
AcDbEntity
  8
ASSI
100
AcDbLine
 62
7
  6
CONTINUOUS
 10
27.254665
 20
-0.117084
 11
28.5181413584
 21
0.947655302
  0
LINE
  5
37E
100
AcDbEntity
  8
0
100
AcDbLine
 62
7
  6
CONTINUOUS
 10
-31.157383421
 20
13.7
 11
-32.2916397849
 21
13.5
  0
LINE
  5
37F
100
AcDbEntity
  8
ASSI
100
AcDbLine
 62
7
  6
CONTINUOUS
 10
-17.342948112
 20
17.625
 11
-15.882444
 21
17.625
  0
LINE
  5
380
100
AcDbEntity
  8
ASSI
100
AcDbLine
 62
7
  6
CONTINUOUS
 10
-15.882444
 20
18.375
 11
-17.342945
 21
18.375
  0
LINE
  5
381
100
AcDbEntity
  8
0
100
AcDbLine
 62
7
  6
CONTINUOUS
 10
32.2916397849
 20
13.5
 11
31.157383421
 21
13.7
  0
LINE
  5
382
100
AcDbEntity
  8
ASSI
100
AcDbLine
 62
7
  6
CONTINUOUS
 10
25.481859
 20
0.947655
 11
26.751602
 21
-0.122365
  0
LINE
  5
383
100
AcDbEntity
  8
ASSI
100
AcDbLine
 62
7
  6
CONTINUOUS
 10
26.751602
 20
0.462838
 11
25.423252
 21
1.582247
  0
LINE
  5
384
100
AcDbEntity
  8
ASSI
100
AcDbLine
 62
7
  6
CONTINUOUS
 10
8.869822
 20
23.01058
 11
9.912071
 21
20.999883
  0
LINE
  5
385
100
AcDbEntity
  8
ASSI
100
AcDbLine
 62
7
  6
CONTINUOUS
 10
11.083514
 20
20.999896
 11
9.9764450068
 21
23.1356568453
  0
LINE
  5
386
100
AcDbEntity
  8
ASSI
100
AcDbLine
 62
7
  6
CONTINUOUS
 10
13.7
 20
31.157383421
 11
13.5
 21
32.2916397849
  0
LINE
  5
387
100
AcDbEntity
  8
ASSI
100
AcDbLine
 62
7
  6
CONTINUOUS
 10
9.912071
 20
20.999883
 11
11.083514
 21
20.999896
  0
LINE
  5
388
100
AcDbEntity
  8
ASSI
100
AcDbLine
 62
7
  6
CONTINUOUS
 10
1.84925
 20
20.99987
 11
2.889289
 21
20.999883
  0
LINE
  5
389
100
AcDbEntity
  8
ASSI
100
AcDbLine
 62
7
  6
CONTINUOUS
 10
-3.930797
 20
20.99987
 11
-2.890758
 21
20.99987
  0
LINE
  5
38A
100
AcDbEntity
  8
ASSI
100
AcDbLine
 62
7
  6
CONTINUOUS
 10
0.115856
 20
20.99987
 11
1.155895
 21
20.99987
  0
LINE
  5
38B
100
AcDbEntity
  8
ASSI
100
AcDbLine
 62
7
  6
CONTINUOUS
 10
6.921928
 20
20.999883
 11
7.96198
 21
20.999883
  0
LINE
  5
38C
100
AcDbEntity
  8
ASSI
100
AcDbLine
 62
7
  6
CONTINUOUS
 10
-1.907464
 20
20.99987
 11
-0.867451
 21
20.999883
  0
LINE
  5
38D
100
AcDbEntity
  8
ASSI
100
AcDbLine
 62
7
  6
CONTINUOUS
 10
-6.010849
 20
20.999857
 11
-4.97081
 21
20.99987
  0
LINE
  5
38E
100
AcDbEntity
  8
ASSI
100
AcDbLine
 62
7
  6
CONTINUOUS
 10
5.188521
 20
20.999883
 11
6.228573
 21
20.99987
  0
LINE
  5
38F
100
AcDbEntity
  8
ASSI
100
AcDbLine
 62
7
  6
CONTINUOUS
 10
-9.413898
 20
20.999857
 11
-8.37382
 21
20.99987
  0
LINE
  5
390
100
AcDbEntity
  8
ASSI
100
AcDbLine
 62
7
  6
CONTINUOUS
 10
3.21763
 20
22.022541
 11
4.860193
 21
22.022541
  0
LINE
  5
391
100
AcDbEntity
  8
ASSI
100
AcDbLine
 62
7
  6
CONTINUOUS
 10
4.542941
 20
23.01058
 11
3.534869
 21
23.01058
  0
LINE
  5
392
100
AcDbEntity
  8
ASSI
100
AcDbLine
 62
7
  6
CONTINUOUS
 10
7.962097
 20
23.010593
 11
8.869822
 21
23.01058
  0
LINE
  5
393
100
AcDbEntity
  8
ASSI
100
AcDbLine
 62
7
  6
CONTINUOUS
 10
26.333113
 20
-1.688045
 11
26.333113
 21
-2.160266
  0
LINE
  5
394
100
AcDbEntity
  8
ASSI
100
AcDbLine
 62
7
  6
CONTINUOUS
 10
26.348534
 20
2.141663
 11
26.348534
 21
1.666846
  0
LINE
  5
395
100
AcDbEntity
  8
ASSI
100
AcDbLine
 62
7
  6
CONTINUOUS
 10
26.751602
 20
1.666846
 11
26.751602
 21
0.462838
  0
LINE
  5
396
100
AcDbEntity
  8
ASSI
100
AcDbLine
 62
7
  6
CONTINUOUS
 10
26.751602
 20
-0.122365
 11
26.751602
 21
-1.688045
  0
LINE
  5
397
100
AcDbEntity
  8
ASSI
100
AcDbLine
 62
7
  6
CONTINUOUS
 10
25.9067010727
 20
-1.9479058704
 11
26.1240702271
 21
-1.5606245954
  0
LINE
  5
398
100
AcDbEntity
  8
ASSI
100
AcDbLine
 62
7
  6
CONTINUOUS
 10
28.710123
 20
-3.659553
 11
28.956541
 21
-3.310217
  0
LINE
  5
399
100
AcDbEntity
  8
ASSI
100
AcDbLine
 62
7
  6
CONTINUOUS
 10
9.2130632266
 20
23.972632
 11
7.947641
 21
23.972632
  0
LINE
  5
39A
100
AcDbEntity
  8
ASSI
100
AcDbLine
 62
7
  6
CONTINUOUS
 10
7.947628
 20
25.238078
 11
9.212992
 21
25.238078
  0
LINE
  5
39B
100
AcDbEntity
  8
ASSI
100
AcDbLine
 62
7
  6
CONTINUOUS
 10
1.155895
 20
26.200104
 11
-0.416364
 21
26.200104
  0
LINE
  5
39C
100
AcDbEntity
  8
ASSI
100
AcDbLine
 62
7
  6
CONTINUOUS
 10
-2.358538
 20
26.200104
 11
-3.930797
 21
26.200104
  0
LINE
  5
39D
100
AcDbEntity
  8
ASSI
100
AcDbLine
 62
7
  6
CONTINUOUS
 10
-4.970797
 20
26.200104
 11
-6.010836
 21
26.200104
  0
LINE
  5
39E
100
AcDbEntity
  8
ASSI
100
AcDbLine
 62
7
  6
CONTINUOUS
 10
-6.704191
 20
26.200104
 11
-7.744243
 21
26.200104
  0
LINE
  5
39F
100
AcDbEntity
  8
ASSI
100
AcDbLine
 62
7
  6
CONTINUOUS
 10
-10.043462
 20
26.200104
 11
-11.083514
 21
26.200104
  0
LINE
  5
3A0
100
AcDbEntity
  8
ASSI
100
AcDbLine
 62
7
  6
CONTINUOUS
 10
9.3573475
 20
26.2001196514
 11
6.921928
 21
26.200117
  0
LINE
  5
3A1
100
AcDbEntity
  8
ASSI
100
AcDbLine
 62
7
  6
CONTINUOUS
 10
4.558944
 20
26.200117
 11
3.518853
 21
26.200117
  0
LINE
  5
3A2
100
AcDbEntity
  8
ASSI
100
AcDbLine
 62
7
  6
CONTINUOUS
 10
27.87593
 20
-1.560625
 11
28.093299
 21
-1.947906
  0
LINE
  5
3A3
100
AcDbEntity
  8
ASSI
100
AcDbLine
 62
7
  6
CONTINUOUS
 10
27.254665
 20
-1.688045
 11
27.254665
 21
-0.117084
  0
LINE
  5
3A4
100
AcDbEntity
  8
ASSI
100
AcDbLine
 62
7
  6
CONTINUOUS
 10
27.254665
 20
0.462838
 11
27.254665
 21
1.666846
  0
LINE
  5
3A5
100
AcDbEntity
  8
ASSI
100
AcDbLine
 62
7
  6
CONTINUOUS
 10
27.65757
 20
1.666846
 11
27.65757
 21
2.141663
  0
LINE
  5
3A6
100
AcDbEntity
  8
ASSI
100
AcDbLine
 62
7
  6
CONTINUOUS
 10
27.672991
 20
-2.160266
 11
27.672991
 21
-1.688045
  0
ARC
  5
3A7
100
AcDbEntity
  8
RACCORDO
100
AcDbCircle
 62
7
  6
CONTINUOUS
 10
-17.2986536553
 20
-11.0002991648
 40
0.7
100
AcDbArc
 50
32.452481902
 51
72.0
  0
ARC
  5
3A8
100
AcDbEntity
  8
RACCORDO
100
AcDbCircle
 62
7
  6
CONTINUOUS
 10
-11.0002991648
 20
-17.2986536553
 40
0.7
100
AcDbArc
 50
18.0
 51
57.547518098
  0
ARC
  5
3A9
100
AcDbEntity
  8
RACCORDO
100
AcDbCircle
 62
7
  6
CONTINUOUS
 10
-11.016865655
 20
-17.2881077953
 40
0.7
100
AcDbArc
 50
237.4926306291
 51
278.0
  0
ARC
  5
3AA
100
AcDbEntity
  8
RACCORDO
100
AcDbCircle
 62
7
  6
CONTINUOUS
 10
-17.2881077953
 20
-11.016865655
 40
0.7
100
AcDbArc
 50
172.0
 51
212.5073693709
  0
ARC
  5
3AB
100
AcDbEntity
  8
RACCORDO
100
AcDbCircle
 62
253
  6
CONTINUOUS
 10
-11.0002991648
 20
-17.2986536553
 40
0.3999999936
100
AcDbArc
 50
18.0
 51
57.547518098
  0
ARC
  5
3AC
100
AcDbEntity
  8
RACCORDO
100
AcDbCircle
 62
253
  6
CONTINUOUS
 10
-11.016865655
 20
-17.2881077953
 40
0.3999999936
100
AcDbArc
 50
237.4926306291
 51
278.0
  0
ARC
  5
3AD
100
AcDbEntity
  8
RACCORDO
100
AcDbCircle
 62
253
  6
CONTINUOUS
 10
-17.2881077953
 20
-11.016865655
 40
0.3999999936
100
AcDbArc
 50
172.0
 51
212.5073693709
  0
ARC
  5
3AE
100
AcDbEntity
  8
RACCORDO
100
AcDbCircle
 62
253
  6
CONTINUOUS
 10
-17.2986536553
 20
-11.0002991648
 40
0.3999999936
100
AcDbArc
 50
32.452481902
 51
72.0
  0
ARC
  5
3AF
100
AcDbEntity
  8
RACCORDO
100
AcDbCircle
 62
7
  6
CONTINUOUS
 10
-17.6985457568
 20
-10.3446352325
 40
0.2
100
AcDbArc
 50
72.0
 51
172.0
  0
ARC
  5
3B0
100
AcDbEntity
  8
RACCORDO
100
AcDbCircle
 62
7
  6
CONTINUOUS
 10
-10.3446352325
 20
-17.6985457568
 40
0.2
100
AcDbArc
 50
278.0
 51
18.0
  0
ARC
  5
3B1
100
AcDbEntity
  8
0
100
AcDbCircle
 62
7
  6
CONTINUOUS
 10
-0.0
 20
0.0
 40
35.0
100
AcDbArc
 50
17.4576031237
 51
20.9248324276
  0
ARC
  5
3B2
100
AcDbEntity
  8
0
100
AcDbCircle
 62
7
  6
CONTINUOUS
 10
-0.0
 20
0.0
 40
35.0
100
AcDbArc
 50
22.6880911509
 51
67.3119088491
  0
ARC
  5
3B3
100
AcDbEntity
  8
ASSI
100
AcDbCircle
 62
7
  6
CONTINUOUS
 10
-0.0
 20
-0.0
 40
35.0
100
AcDbArc
 50
20.9251918336
 51
22.6880911509
  0
ARC
  5
3B4
100
AcDbEntity
  8
0
100
AcDbCircle
 62
7
  6
CONTINUOUS
 10
-0.0
 20
0.0
 40
35.0
100
AcDbArc
 50
339.0751675724
 51
342.5423968763
  0
ARC
  5
3B5
100
AcDbEntity
  8
ASSI
100
AcDbCircle
 62
7
  6
CONTINUOUS
 10
-0.0
 20
-0.0
 40
35.0
100
AcDbArc
 50
337.3119088491
 51
339.0748080678
  0
ARC
  5
3B6
100
AcDbEntity
  8
0
100
AcDbCircle
 62
7
  6
CONTINUOUS
 10
-0.0
 20
0.0
 40
35.0
100
AcDbArc
 50
292.6880911509
 51
337.3119088491
  0
ARC
  5
3B7
100
AcDbEntity
  8
ASSI
100
AcDbCircle
 62
7
  6
CONTINUOUS
 10
-0.0
 20
-0.0
 40
35.0
100
AcDbArc
 50
200.9251918198
 51
202.6880911509
  0
ARC
  5
3B8
100
AcDbEntity
  8
0
100
AcDbCircle
 62
7
  6
CONTINUOUS
 10
-0.0
 20
0.0
 40
35.0
100
AcDbArc
 50
202.6880911509
 51
247.3119088491
  0
ARC
  5
3B9
100
AcDbEntity
  8
0
100
AcDbCircle
 62
7
  6
CONTINUOUS
 10
-0.0
 20
0.0
 40
35.0
100
AcDbArc
 50
197.4576031237
 51
200.9248324276
  0
ARC
  5
3BA
100
AcDbEntity
  8
0
100
AcDbCircle
 62
7
  6
CONTINUOUS
 10
-0.0
 20
0.0
 40
35.0
100
AcDbArc
 50
159.0751675724
 51
162.5423968763
  0
ARC
  5
3BB
100
AcDbEntity
  8
ASSI
100
AcDbCircle
 62
7
  6
CONTINUOUS
 10
-0.0
 20
-0.0
 40
35.0
100
AcDbArc
 50
157.3119088491
 51
159.0748080526
  0
ARC
  5
3BC
100
AcDbEntity
  8
0
100
AcDbCircle
 62
7
  6
CONTINUOUS
 10
-0.0
 20
0.0
 40
35.0
100
AcDbArc
 50
112.6880911509
 51
157.3119088491
  0
ARC
  5
3BD
100
AcDbEntity
  8
ASSI
100
AcDbCircle
 62
7
  6
CONTINUOUS
 10
-0.0
 20
-0.0
 40
35.0
100
AcDbArc
 50
247.3119088491
 51
292.6880911509
  0
ARC
  5
3BE
100
AcDbEntity
  8
ASSI
100
AcDbCircle
 62
7
  6
CONTINUOUS
 10
-0.0
 20
-0.0
 40
35.0
100
AcDbArc
 50
67.3119088491
 51
112.6880911509
  0
ARC
  5
3BF
100
AcDbEntity
  8
ASSI
100
AcDbCircle
 62
7
  6
CONTINUOUS
 10
-0.0
 20
0.0
 40
35.0
100
AcDbArc
 50
181.6792381538
 51
197.4576031237
  0
ARC
  5
3C0
100
AcDbEntity
  8
ASSI
100
AcDbCircle
 62
7
  6
CONTINUOUS
 10
-0.0
 20
0.0
 40
35.0
100
AcDbArc
 50
342.5423968763
 51
358.3207618462
  0
ARC
  5
3C1
100
AcDbEntity
  8
0
100
AcDbCircle
 62
7
  6
CONTINUOUS
 10
-0.0
 20
-0.0
 40
35.0
100
AcDbArc
 50
358.3207618462
 51
1.6792381538
  0
ARC
  5
3C2
100
AcDbEntity
  8
0
100
AcDbCircle
 62
7
  6
CONTINUOUS
 10
-0.0
 20
-0.0
 40
35.0
100
AcDbArc
 50
178.3207618462
 51
181.6792381538
  0
ARC
  5
3C3
100
AcDbEntity
  8
ASSI
100
AcDbCircle
 62
7
  6
CONTINUOUS
 10
-0.0
 20
0.0
 40
35.0
100
AcDbArc
 50
1.6792381538
 51
17.4576031237
  0
ARC
  5
3C4
100
AcDbEntity
  8
ASSI
100
AcDbCircle
 62
7
  6
CONTINUOUS
 10
-0.0
 20
0.0
 40
35.0
100
AcDbArc
 50
162.5423968763
 51
178.3207618462
  0
ARC
  5
3C5
100
AcDbEntity
  8
0
100
AcDbCircle
 62
7
  6
CONTINUOUS
 10
-0.0
 20
0.0
 40
34.2
100
AcDbArc
 50
1.2565871256
 51
18.1562649813
  0
ARC
  5
3C6
100
AcDbEntity
  8
0
100
AcDbCircle
 62
7
  6
CONTINUOUS
 10
-0.0
 20
0.0
 40
34.2
100
AcDbArc
 50
341.8437350187
 51
358.7434128744
  0
ARC
  5
3C7
100
AcDbEntity
  8
ASSI
100
AcDbCircle
 62
7
  6
CONTINUOUS
 10
-0.0
 20
0.0
 40
34.2
100
AcDbArc
 50
271.2565871256
 51
288.1562649813
  0
ARC
  5
3C8
100
AcDbEntity
  8
ASSI
100
AcDbCircle
 62
7
  6
CONTINUOUS
 10
-0.0
 20
0.0
 40
34.2
100
AcDbArc
 50
251.8437350187
 51
268.7434128744
  0
ARC
  5
3C9
100
AcDbEntity
  8
0
100
AcDbCircle
 62
7
  6
CONTINUOUS
 10
-0.0
 20
0.0
 40
34.2
100
AcDbArc
 50
181.2565871256
 51
198.1562649813
  0
ARC
  5
3CA
100
AcDbEntity
  8
0
100
AcDbCircle
 62
7
  6
CONTINUOUS
 10
-0.0
 20
0.0
 40
34.2
100
AcDbArc
 50
161.8437350187
 51
178.7434128744
  0
ARC
  5
3CB
100
AcDbEntity
  8
ASSI
100
AcDbCircle
 62
7
  6
CONTINUOUS
 10
-0.0
 20
0.0
 40
34.2
100
AcDbArc
 50
91.2565871256
 51
108.1562649813
  0
ARC
  5
3CC
100
AcDbEntity
  8
ASSI
100
AcDbCircle
 62
7
  6
CONTINUOUS
 10
-0.0
 20
0.0
 40
34.2
100
AcDbArc
 50
71.8437350187
 51
88.7434128744
  0
ARC
  5
3CD
100
AcDbEntity
  8
0
100
AcDbCircle
 62
7
  6
CONTINUOUS
 10
-0.0
 20
0.0
 40
34.0363414844
100
AcDbArc
 50
336.2647560464
 51
338.7699836952
  0
ARC
  5
3CE
100
AcDbEntity
  8
ASSI
100
AcDbCircle
 62
7
  6
CONTINUOUS
 10
-0.0
 20
0.0
 40
34.0363414844
100
AcDbArc
 50
291.2300163048
 51
293.7352439536
  0
ARC
  5
3CF
100
AcDbEntity
  8
ASSI
100
AcDbCircle
 62
7
  6
CONTINUOUS
 10
-0.0
 20
0.0
 40
34.0363414844
100
AcDbArc
 50
246.2647560464
 51
248.7699836952
  0
ARC
  5
3D0
100
AcDbEntity
  8
0
100
AcDbCircle
 62
7
  6
CONTINUOUS
 10
-0.0
 20
0.0
 40
34.0363414844
100
AcDbArc
 50
201.2300163048
 51
203.7352439536
  0
ARC
  5
3D1
100
AcDbEntity
  8
0
100
AcDbCircle
 62
7
  6
CONTINUOUS
 10
-0.0
 20
0.0
 40
34.0363414844
100
AcDbArc
 50
156.2647560464
 51
158.7699836952
  0
ARC
  5
3D2
100
AcDbEntity
  8
ASSI
100
AcDbCircle
 62
7
  6
CONTINUOUS
 10
-0.0
 20
0.0
 40
34.0363414844
100
AcDbArc
 50
111.2300163048
 51
113.7352439536
  0
ARC
  5
3D3
100
AcDbEntity
  8
ASSI
100
AcDbCircle
 62
7
  6
CONTINUOUS
 10
-0.0
 20
0.0
 40
34.0363414844
100
AcDbArc
 50
66.2647560464
 51
68.7699836952
  0
ARC
  5
3D4
100
AcDbEntity
  8
0
100
AcDbCircle
 62
7
  6
CONTINUOUS
 10
-0.0
 20
0.0
 40
34.0363414844
100
AcDbArc
 50
21.2300163048
 51
23.7352439536
  0
ARC
  5
3D5
100
AcDbEntity
  8
ASSI
100
AcDbCircle
 62
7
  6
CONTINUOUS
 10
-0.0
 20
0.0
 40
21.3
100
AcDbArc
 50
302.4497572827
 51
327.5502427173
  0
ARC
  5
3D6
100
AcDbEntity
  8
ASSI
100
AcDbCircle
 62
7
  6
CONTINUOUS
 10
-0.0
 20
0.0
 40
21.3
100
AcDbArc
 50
122.4497572827
 51
147.5502427173
  0
ARC
  5
3D7
100
AcDbEntity
  8
RACCORDO
100
AcDbCircle
 62
7
  6
CONTINUOUS
 10
-0.0
 20
0.0
 40
21.2
100
AcDbArc
 50
32.5073693709
 51
57.4926306291
  0
ARC
  5
3D8
100
AcDbEntity
  8
RACCORDO
100
AcDbCircle
 62
7
  6
CONTINUOUS
 10
-0.0
 20
0.0
 40
21.2
100
AcDbArc
 50
212.5073693709
 51
237.4926306291
  0
ARC
  5
3D9
100
AcDbEntity
  8
RACCORDO
100
AcDbCircle
 62
253
  6
CONTINUOUS
 10
-0.0
 20
0.0
 40
20.9000000015
100
AcDbArc
 50
212.5073693709
 51
237.4926306291
  0
ARC
  5
3DA
100
AcDbEntity
  8
RACCORDO
100
AcDbCircle
 62
253
  6
CONTINUOUS
 10
-0.0
 20
0.0
 40
20.9000000015
100
AcDbArc
 50
32.5073693709
 51
57.4926306291
  0
ARC
  5
3DB
100
AcDbEntity
  8
RACCORDO
100
AcDbCircle
 62
253
  6
CONTINUOUS
 10
-0.0
 20
0.0
 40
20.1000000015
100
AcDbArc
 50
212.452481902
 51
237.547518098
  0
ARC
  5
3DC
100
AcDbEntity
  8
RACCORDO
100
AcDbCircle
 62
253
  6
CONTINUOUS
 10
-0.0
 20
0.0
 40
20.1000000015
100
AcDbArc
 50
32.452481902
 51
57.547518098
  0
ARC
  5
3DD
100
AcDbEntity
  8
RACCORDO
100
AcDbCircle
 62
7
  6
CONTINUOUS
 10
-0.0
 20
0.0
 40
19.8
100
AcDbArc
 50
32.452481902
 51
57.547518098
  0
ARC
  5
3DE
100
AcDbEntity
  8
RACCORDO
100
AcDbCircle
 62
7
  6
CONTINUOUS
 10
-0.0
 20
0.0
 40
19.8
100
AcDbArc
 50
212.452481902
 51
237.547518098
  0
ARC
  5
3DF
100
AcDbEntity
  8
ASSI
100
AcDbCircle
 62
7
  6
CONTINUOUS
 10
-0.0
 20
0.0
 40
19.7019511731
100
AcDbArc
 50
302.4497572827
 51
327.5502427173
  0
ARC
  5
3E0
100
AcDbEntity
  8
ASSI
100
AcDbCircle
 62
7
  6
CONTINUOUS
 10
-0.0
 20
0.0
 40
19.7019511731
100
AcDbArc
 50
122.4497572827
 51
147.5502427173
  0
ARC
  5
3E1
100
AcDbEntity
  8
0
100
AcDbCircle
 62
7
  6
CONTINUOUS
 10
-0.0
 20
0.0
 40
18.0
100
AcDbArc
 50
93.1847385367
 51
176.8152614633
  0
ARC
  5
3E2
100
AcDbEntity
  8
0
100
AcDbCircle
 62
7
  6
CONTINUOUS
 10
-0.0
 20
0.0
 40
18.0
100
AcDbArc
 50
3.1847385367
 51
86.8152614633
  0
ARC
  5
3E3
100
AcDbEntity
  8
0
100
AcDbCircle
 62
7
  6
CONTINUOUS
 10
-0.0
 20
0.0
 40
18.0
100
AcDbArc
 50
273.1847385367
 51
356.8152614633
  0
ARC
  5
3E4
100
AcDbEntity
  8
0
100
AcDbCircle
 62
7
  6
CONTINUOUS
 10
-0.0
 20
0.0
 40
18.0
100
AcDbArc
 50
183.1847385367
 51
266.8152614633
  0
ARC
  5
3E5
100
AcDbEntity
  8
0
100
AcDbCircle
 62
7
  6
CONTINUOUS
 10
-0.0
 20
0.0
 40
17.0
100
AcDbArc
 50
94.2954612435
 51
175.7045387565
  0
ARC
  5
3E6
100
AcDbEntity
  8
0
100
AcDbCircle
 62
7
  6
CONTINUOUS
 10
-0.0
 20
0.0
 40
17.0
100
AcDbArc
 50
4.2954612435
 51
85.7045387565
  0
ARC
  5
3E7
100
AcDbEntity
  8
0
100
AcDbCircle
 62
7
  6
CONTINUOUS
 10
-0.0
 20
0.0
 40
17.0
100
AcDbArc
 50
274.2954612435
 51
355.7045387565
  0
ARC
  5
3E8
100
AcDbEntity
  8
0
100
AcDbCircle
 62
7
  6
CONTINUOUS
 10
-0.0
 20
0.0
 40
17.0
100
AcDbArc
 50
184.2954612435
 51
265.7045387565
  0
ARC
  5
3E9
100
AcDbEntity
  8
0
100
AcDbCircle
 62
7
  6
CONTINUOUS
 10
-0.0
 20
0.0
 40
13.5
100
AcDbArc
 50
93.1847385367
 51
176.8152614633
  0
ARC
  5
3EA
100
AcDbEntity
  8
0
100
AcDbCircle
 62
7
  6
CONTINUOUS
 10
-0.0
 20
0.0
 40
13.5
100
AcDbArc
 50
3.1847385367
 51
86.8152614633
  0
ARC
  5
3EB
100
AcDbEntity
  8
0
100
AcDbCircle
 62
7
  6
CONTINUOUS
 10
-0.0
 20
0.0
 40
13.5
100
AcDbArc
 50
273.1847385367
 51
356.8152614633
  0
ARC
  5
3EC
100
AcDbEntity
  8
0
100
AcDbCircle
 62
7
  6
CONTINUOUS
 10
-0.0
 20
0.0
 40
13.5
100
AcDbArc
 50
183.1847385367
 51
266.8152614633
  0
ARC
  5
3ED
100
AcDbEntity
  8
0
100
AcDbCircle
 62
7
  6
CONTINUOUS
 10
-0.0
 20
0.0
 40
12.5
100
AcDbArc
 50
94.6971495355
 51
175.3028504645
  0
ARC
  5
3EE
100
AcDbEntity
  8
0
100
AcDbCircle
 62
7
  6
CONTINUOUS
 10
-0.0
 20
0.0
 40
12.5
100
AcDbArc
 50
4.6971495355
 51
85.3028504645
  0
ARC
  5
3EF
100
AcDbEntity
  8
0
100
AcDbCircle
 62
7
  6
CONTINUOUS
 10
-0.0
 20
0.0
 40
12.5
100
AcDbArc
 50
274.6971495355
 51
355.3028504645
  0
ARC
  5
3F0
100
AcDbEntity
  8
0
100
AcDbCircle
 62
7
  6
CONTINUOUS
 10
-0.0
 20
0.0
 40
12.5
100
AcDbArc
 50
184.6971495355
 51
265.3028504645
  0
ARC
  5
3F1
100
AcDbEntity
  8
0
100
AcDbCircle
 62
7
  6
CONTINUOUS
 10
-0.0
 20
0.0
 40
10.5
100
AcDbArc
 50
92.7294026368
 51
177.2705973632
  0
ARC
  5
3F2
100
AcDbEntity
  8
0
100
AcDbCircle
 62
7
  6
CONTINUOUS
 10
-0.0
 20
0.0
 40
10.5
100
AcDbArc
 50
2.7294026368
 51
87.2705973632
  0
ARC
  5
3F3
100
AcDbEntity
  8
0
100
AcDbCircle
 62
7
  6
CONTINUOUS
 10
-0.0
 20
0.0
 40
10.5
100
AcDbArc
 50
182.7294026368
 51
267.2705973632
  0
ARC
  5
3F4
100
AcDbEntity
  8
0
100
AcDbCircle
 62
7
  6
CONTINUOUS
 10
-0.0
 20
0.0
 40
10.5
100
AcDbArc
 50
272.7294026368
 51
357.2705973632
  0
ARC
  5
3F5
100
AcDbEntity
  8
0
100
AcDbCircle
 62
7
  6
CONTINUOUS
 10
-0.0
 20
0.0
 40
9.5
100
AcDbArc
 50
94.668453194
 51
178.5857538336
  0
ARC
  5
3F6
100
AcDbEntity
  8
0
100
AcDbCircle
 62
7
  6
CONTINUOUS
 10
-0.0
 20
0.0
 40
9.5
100
AcDbArc
 50
1.4142461664
 51
85.331546806
  0
ARC
  5
3F7
100
AcDbEntity
  8
0
100
AcDbCircle
 62
7
  6
CONTINUOUS
 10
-0.0
 20
0.0
 40
9.5
100
AcDbArc
 50
181.4142461664
 51
265.331546806
  0
ARC
  5
3F8
100
AcDbEntity
  8
0
100
AcDbCircle
 62
7
  6
CONTINUOUS
 10
-0.0
 20
0.0
 40
9.5
100
AcDbArc
 50
274.668453194
 51
358.5857538336
  0
CIRCLE
  5
3F9
100
AcDbEntity
  8
0
100
AcDbCircle
 62
7
  6
CONTINUOUS
 10
-0.0
 20
0.0
 40
2.55
  0
ARC
  5
3FA
100
AcDbEntity
  8
ASSI
100
AcDbCircle
 62
7
  6
CONTINUOUS
 10
-15.582444
 20
18.0
 40
2.5499986575
100
AcDbArc
 50
87.752529198
 51
272.247470802
  0
ARC
  5
3FB
100
AcDbEntity
  8
ASSI
100
AcDbCircle
 62
7
  6
CONTINUOUS
 10
-19.967554
 20
18.0
 40
2.5499985399
100
AcDbArc
 50
87.7525290943
 51
272.2474709057
  0
ARC
  5
3FC
100
AcDbEntity
  8
ASSI
100
AcDbCircle
 62
7
  6
CONTINUOUS
 10
-15.582444
 20
18.0
 40
1.7999999246
100
AcDbArc
 50
192.0246996921
 51
273.1847386703
  0
ARC
  5
3FD
100
AcDbEntity
  8
ASSI
100
AcDbCircle
 62
7
  6
CONTINUOUS
 10
-19.967554
 20
18.0
 40
1.7999999246
100
AcDbArc
 50
86.8152613297
 51
273.1847386703
  0
ARC
  5
3FE
100
AcDbEntity
  8
ASSI
100
AcDbCircle
 62
7
  6
CONTINUOUS
 10
-15.582444
 20
18.0
 40
1.7999968808
100
AcDbArc
 50
86.8152559388
 51
167.9752796707
  0
ARC
  5
3FF
100
AcDbEntity
  8
ASSI
100
AcDbCircle
 62
7
  6
CONTINUOUS
 10
-11.0
 20
17.3
 40
0.7990244135
100
AcDbArc
 50
302.4497572827
 51
122.4497572827
  0
ARC
  5
400
100
AcDbEntity
  8
ASSI
100
AcDbCircle
 62
7
  6
CONTINUOUS
 10
-17.3
 20
11.0
 40
0.7990244135
100
AcDbArc
 50
147.5502427173
 51
327.5502427173
  0
ARC
  5
401
100
AcDbEntity
  8
ASSI
100
AcDbCircle
 62
7
  6
CONTINUOUS
 10
27.0
 20
0.0
 40
2.9735749324
100
AcDbArc
 50
292.0885434728
 51
273.429822954
  0
ARC
  5
402
100
AcDbEntity
  8
ASSI
100
AcDbCircle
 62
7
  6
CONTINUOUS
 10
26.910062
 20
-5.605572
 40
2.6508884458
100
AcDbArc
 50
47.2312789315
 51
84.201173464
  0
ARC
  5
403
100
AcDbEntity
  8
ASSI
100
AcDbCircle
 62
7
  6
CONTINUOUS
 10
27.118685
 20
-5.176187
 40
2.6190759282
100
AcDbArc
 50
45.4348969444
 51
67.5658550007
  0
CIRCLE
  5
404
100
AcDbEntity
  8
ASSI
100
AcDbCircle
 62
7
  6
CONTINUOUS
 10
27.0
 20
0.0
 40
2.497595
  0
ARC
  5
405
100
AcDbEntity
  8
ASSI
100
AcDbCircle
 62
7
  6
CONTINUOUS
 10
27.0
 20
0.0
 40
2.2337503191
100
AcDbArc
 50
299.3041411838
 51
44.9957558874
  0
ARC
  5
406
100
AcDbEntity
  8
ASSI
100
AcDbCircle
 62
7
  6
CONTINUOUS
 10
27.0
 20
0.0
 40
2.2337501706
100
AcDbArc
 50
134.9002628452
 51
240.6958588162
  0
ARC
  5
407
100
AcDbEntity
  8
ASSI
100
AcDbCircle
 62
7
  6
CONTINUOUS
 10
27.0
 20
0.0
 40
1.7896378839
100
AcDbArc
 50
299.3041347443
 51
31.9732647666
  0
ARC
  5
408
100
AcDbEntity
  8
ASSI
100
AcDbCircle
 62
7
  6
CONTINUOUS
 10
27.0
 20
0.0
 40
1.78963742
100
AcDbArc
 50
148.02673736
 51
240.6958652557
  0
ARC
  5
409
100
AcDbEntity
  8
ASSI
100
AcDbCircle
 62
7
  6
CONTINUOUS
 10
11.0
 20
-17.3
 40
0.7990244135
100
AcDbArc
 50
122.4497572827
 51
302.4497572827
  0
ARC
  5
40A
100
AcDbEntity
  8
ASSI
100
AcDbCircle
 62
7
  6
CONTINUOUS
 10
17.3
 20
-11.0
 40
0.7990244135
100
AcDbArc
 50
327.5502427173
 51
147.5502427173
  0
ARC
  5
40B
100
AcDbEntity
  8
ASSI
100
AcDbCircle
 62
7
  6
CONTINUOUS
 10
9.357347
 20
24.605353
 40
1.5947693028
100
AcDbArc
 50
292.8428782627
 51
89.9999820363
  0
ARC
  5
40C
100
AcDbEntity
  8
RACCORDO
100
AcDbCircle
 62
7
  6
CONTINUOUS
 10
17.2881077953
 20
11.016865655
 40
0.7
100
AcDbArc
 50
352.0
 51
32.5073693709
  0
ARC
  5
40D
100
AcDbEntity
  8
RACCORDO
100
AcDbCircle
 62
7
  6
CONTINUOUS
 10
17.2986536553
 20
11.0002991648
 40
0.7
100
AcDbArc
 50
212.452481902
 51
252.0
  0
ARC
  5
40E
100
AcDbEntity
  8
RACCORDO
100
AcDbCircle
 62
7
  6
CONTINUOUS
 10
11.0002991648
 20
17.2986536553
 40
0.7
100
AcDbArc
 50
198.0
 51
237.547518098
  0
ARC
  5
40F
100
AcDbEntity
  8
RACCORDO
100
AcDbCircle
 62
7
  6
CONTINUOUS
 10
11.016865655
 20
17.2881077953
 40
0.7
100
AcDbArc
 50
57.4926306291
 51
98.0
  0
ARC
  5
410
100
AcDbEntity
  8
ASSI
100
AcDbCircle
 62
7
  6
CONTINUOUS
 10
9.212992
 20
24.605353
 40
0.632725
100
AcDbArc
 50
270.0064498942
 51
90.0
  0
ARC
  5
411
100
AcDbEntity
  8
RACCORDO
100
AcDbCircle
 62
253
  6
CONTINUOUS
 10
17.2881077953
 20
11.016865655
 40
0.3999999936
100
AcDbArc
 50
352.0
 51
32.5073693709
  0
ARC
  5
412
100
AcDbEntity
  8
RACCORDO
100
AcDbCircle
 62
253
  6
CONTINUOUS
 10
17.2986536553
 20
11.0002991648
 40
0.3999999936
100
AcDbArc
 50
212.452481902
 51
252.0
  0
ARC
  5
413
100
AcDbEntity
  8
RACCORDO
100
AcDbCircle
 62
253
  6
CONTINUOUS
 10
11.0002991648
 20
17.2986536553
 40
0.3999999936
100
AcDbArc
 50
198.0
 51
237.547518098
  0
ARC
  5
414
100
AcDbEntity
  8
RACCORDO
100
AcDbCircle
 62
253
  6
CONTINUOUS
 10
11.016865655
 20
17.2881077953
 40
0.3999999936
100
AcDbArc
 50
57.4926306291
 51
98.0
  0
ARC
  5
415
100
AcDbEntity
  8
RACCORDO
100
AcDbCircle
 62
7
  6
CONTINUOUS
 10
17.6985457568
 20
10.3446352325
 40
0.2
100
AcDbArc
 50
252.0
 51
352.0
  0
ARC
  5
416
100
AcDbEntity
  8
RACCORDO
100
AcDbCircle
 62
7
  6
CONTINUOUS
 10
10.3446352325
 20
17.6985457568
 40
0.2
100
AcDbArc
 50
98.0
 51
198.0
  0
SPLINE
  5
417
100
AcDbEntity
  8
0
100
AcDbSpline
 62
7
  6
CONTINUOUS
 70
0
 71
3
 72
13
 73
9
 74
7
 42
0.0000001
 43
0.0000001
 44
0.0000000001
 12
1.6523398151
 22
-0.0000124345
 32
0.0
 13
-0.0
 23
1.6523412231
 33
0.0
 40
0.0
 40
0.0
 40
0.0
 40
0.0
 40
0.2440887357
 40
0.3951706383
 40
0.5865970597
 40
0.7510191052
 40
0.8853901638
 40
1.0
 40
1.0
 40
1.0
 40
1.0
 10
-24.0277626345
 20
2.4715364
 30
0.0
 10
-23.8933234557
 20
2.4715353883
 30
0.0
 10
-23.6710562553
 20
2.5122888301
 30
0.0
 10
-23.3945398959
 20
2.6884591644
 30
0.0
 10
-23.2218963827
 20
2.9163215258
 30
0.0
 10
-23.1260627465
 20
3.1707054626
 30
0.0
 10
-23.0834330754
 20
3.3956197741
 30
0.0
 10
-23.082179593
 20
3.5331048815
 30
0.0
 10
-23.082179593
 20
3.5962297338
 30
0.0
 11
-24.0277626345
 21
2.4715364
 31
0.0
 11
-23.6324739602
 21
2.5516116535
 31
0.0
 11
-23.4222764197
 21
2.6862836708
 31
0.0
 11
-23.2276389568
 21
2.9356088921
 31
0.0
 11
-23.1285458305
 21
3.1885738976
 31
0.0
 11
-23.0885082038
 21
3.4069609527
 31
0.0
 11
-23.082179593
 21
3.5962297338
 31
0.0
  0
SPLINE
  5
418
100
AcDbEntity
  8
0
100
AcDbSpline
 62
7
  6
CONTINUOUS
 70
0
 71
3
 72
13
 73
9
 74
7
 42
0.0000001
 43
0.0000001
 44
0.0000000001
 12
0.0
 22
1.6523317458
 32
0.0
 13
-1.6523319843
 23
0.0000021061
 33
0.0
 40
0.0
 40
0.0
 40
0.0
 40
0.0
 40
0.1146104936
 40
0.2489823229
 40
0.4134053115
 40
0.6048328308
 40
0.7559156
 40
1.0
 40
1.0
 40
1.0
 40
1.0
 10
-23.082179593
 20
3.5962297338
 30
0.0
 10
-23.082179593
 20
3.6593545861
 30
0.0
 10
-23.0834330754
 20
3.7968396934
 30
0.0
 10
-23.1260627465
 20
4.0217540049
 30
0.0
 10
-23.2218963827
 20
4.2761379417
 30
0.0
 10
-23.3945398959
 20
4.5040003032
 30
0.0
 10
-23.6710535516
 20
4.6801689149
 30
0.0
 10
-23.8933170036
 20
4.7209228963
 30
0.0
 10
-24.0277531572
 20
4.7209230676
 30
0.0
 11
-23.082179593
 21
3.5962297338
 31
0.0
 11
-23.0885082038
 21
3.7854985149
 31
0.0
 11
-23.1285458305
 21
4.00388557
 31
0.0
 11
-23.2276389568
 21
4.2568505755
 31
0.0
 11
-23.4222764197
 21
4.5061757968
 31
0.0
 11
-23.6324739602
 21
4.6408478141
 31
0.0
 11
-24.0277531572
 21
4.7209230676
 31
0.0
  0
SPLINE
  5
419
100
AcDbEntity
  8
0
100
AcDbSpline
 62
7
  6
CONTINUOUS
 70
0
 71
3
 72
13
 73
9
 74
7
 42
0.0000001
 43
0.0000001
 44
0.0000000001
 12
1.2400831518
 22
0.0000142721
 32
0.0
 13
0.0
 23
-1.240083924
 33
0.0
 40
0.0
 40
0.0
 40
0.0
 40
0.0
 40
0.1573173956
 40
0.3022082481
 40
0.4829407013
 40
0.6858868364
 40
0.8294061412
 40
1.0
 40
1.0
 40
1.0
 40
1.0
 10
-24.0685304096
 20
4.4606784936
 30
0.0
 10
-24.0035015257
 20
4.460679242
 30
0.0
 10
-23.8778433113
 20
4.4470600233
 30
0.0
 10
-23.6900530735
 20
4.3693897312
 30
0.0
 10
-23.5323125934
 20
4.2096929052
 30
0.0
 10
-23.439718769
 20
4.0078618167
 30
0.0
 10
-23.403134515
 20
3.7965847171
 30
0.0
 10
-23.3941214752
 20
3.6667466344
 30
0.0
 10
-23.3941214752
 20
3.5962297338
 30
0.0
 11
-24.0685304096
 21
4.4606784936
 31
0.0
 11
-23.8748835914
 21
4.437019896
 31
0.0
 11
-23.7098193756
 21
4.3660441031
 31
0.0
 11
-23.5493958847
 21
4.2095333802
 31
0.0
 11
-23.4417492654
 21
3.9820468645
 31
0.0
 11
-23.4078082773
 21
3.8073372204
 31
0.0
 11
-23.3941214752
 21
3.5962297338
 31
0.0
  0
SPLINE
  5
41A
100
AcDbEntity
  8
0
100
AcDbSpline
 62
7
  6
CONTINUOUS
 70
0
 71
3
 72
13
 73
9
 74
7
 42
0.0000001
 43
0.0000001
 44
0.0000000001
 12
0.0
 22
-1.2400730969
 32
0.0
 13
-1.2400731367
 23
-0.0000007362
 33
0.0
 40
0.0
 40
0.0
 40
0.0
 40
0.0
 40
0.1705953483
 40
0.3141159062
 40
0.5170638132
 40
0.6977978444
 40
0.8426899619
 40
1.0
 40
1.0
 40
1.0
 40
1.0
 10
-23.3941214752
 20
3.5962297338
 30
0.0
 10
-23.3941214752
 20
3.5257128332
 30
0.0
 10
-23.403134515
 20
3.3958747505
 30
0.0
 10
-23.439718769
 20
3.1845976509
 30
0.0
 10
-23.5323125934
 20
2.9827665623
 30
0.0
 10
-23.6900530735
 20
2.8230697363
 30
0.0
 10
-23.8778399163
 20
2.7454008485
 30
0.0
 10
-24.003494265
 20
2.7317810126
 30
0.0
 10
-24.0685195825
 20
2.7317809739
 30
0.0
 11
-23.3941214752
 21
3.5962297338
 31
0.0
 11
-23.4078082773
 21
3.3851222472
 31
0.0
 11
-23.4417492654
 21
3.2104126031
 31
0.0
 11
-23.5493958847
 21
2.9829260873
 31
0.0
 11
-23.7098193756
 21
2.8264153645
 31
0.0
 11
-23.8748835914
 21
2.7554395716
 31
0.0
 11
-24.0685195825
 21
2.7317809739
 31
0.0
  0
SPLINE
  5
41B
100
AcDbEntity
  8
0
100
AcDbSpline
 62
7
  6
CONTINUOUS
 70
0
 71
3
 72
14
 73
10
 74
8
 42
0.0000001
 43
0.0000001
 44
0.0000000001
 12
1.0487850529
 22
0.0099095675
 32
0.0
 13
-0.0248671058
 23
1.0485368798
 33
0.0
 40
0.0
 40
0.0
 40
0.0
 40
0.0
 40
0.1411779169
 40
0.3123011288
 40
0.4320130832
 40
0.5853284089
 40
0.7001903278
 40
0.8582731588
 40
1.0
 40
1.0
 40
1.0
 40
1.0
 10
-7.4380652943
 20
-30.1735013525
 30
0.0
 10
-7.388710198
 20
-30.1730350151
 30
0.0
 10
-7.2794351805
 20
-30.163363024
 30
0.0
 10
-7.1330468416
 20
-30.1203370481
 30
0.0
 10
-6.9966616994
 20
-30.0440324309
 30
0.0
 10
-6.8979905657
 20
-29.9475533682
 30
0.0
 10
-6.8224926144
 20
-29.8179210588
 30
0.0
 10
-6.7786720248
 20
-29.6781502677
 30
0.0
 10
-6.7702607968
 20
-29.5728195554
 30
0.0
 10
-6.7714355755
 20
-29.5232842821
 30
0.0
 11
-7.4380652943
 21
-30.1735013525
 31
0.0
 11
-7.2906184071
 21
-30.159910812
 31
0.0
 11
-7.118826066
 21
-30.1079467377
 31
0.0
 11
-7.0097459239
 21
-30.0457675036
 31
0.0
 11
-6.8949808232
 21
-29.9331342624
 31
0.0
 11
-6.8336010364
 21
-29.8294725964
 31
0.0
 11
-6.7834135117
 21
-29.6714485143
 31
0.0
 11
-6.7714355755
 21
-29.5232842821
 31
0.0
  0
SPLINE
  5
41C
100
AcDbEntity
  8
0
100
AcDbSpline
 62
7
  6
CONTINUOUS
 70
0
 71
3
 72
14
 73
10
 74
8
 42
0.0000001
 43
0.0000001
 44
0.0000000001
 12
0.0248673221
 22
1.048546001
 32
0.0
 13
-1.0487940624
 23
0.0098994251
 33
0.0
 40
0.0
 40
0.0
 40
0.0
 40
0.0
 40
0.1417256083
 40
0.2998070642
 40
0.4146679839
 40
0.5679819759
 40
0.687692889
 40
0.8588146123
 40
1.0
 40
1.0
 40
1.0
 40
1.0
 10
-6.7714355755
 20
-29.5232842821
 30
0.0
 10
-6.7702607968
 20
-29.4737490089
 30
0.0
 10
-6.7786720248
 20
-29.3684182966
 30
0.0
 10
-6.8224926144
 20
-29.2286475055
 30
0.0
 10
-6.8979905657
 20
-29.0990151961
 30
0.0
 10
-6.9966616994
 20
-29.0025361334
 30
0.0
 10
-7.1330468416
 20
-28.9262315162
 30
0.0
 10
-7.2794381282
 20
-28.8832046739
 30
0.0
 10
-7.3887162856
 20
-28.8735330104
 30
0.0
 10
-7.4380744177
 20
-28.8730671257
 30
0.0
 11
-6.7714355755
 21
-29.5232842821
 31
0.0
 11
-6.7834135117
 21
-29.37512005
 31
0.0
 11
-6.8336010364
 21
-29.2170959679
 31
0.0
 11
-6.8949808232
 21
-29.1134343019
 31
0.0
 11
-7.0097459239
 21
-29.0008010607
 31
0.0
 11
-7.118826066
 21
-28.9386218266
 31
0.0
 11
-7.2906184071
 21
-28.8866577523
 31
0.0
 11
-7.4380744177
 21
-28.8730671257
 31
0.0
  0
SPLINE
  5
41D
100
AcDbEntity
  8
0
100
AcDbSpline
 62
7
  6
CONTINUOUS
 70
0
 71
3
 72
14
 73
10
 74
8
 42
0.0000001
 43
0.0000001
 44
0.0000000001
 12
0.6779326019
 22
0.0000000371
 32
0.0
 13
0.0
 23
-0.6779326009
 33
0.0
 40
0.0
 40
0.0
 40
0.0
 40
0.0
 40
0.1339869437
 40
0.3391138921
 40
0.5241322333
 40
0.6710836763
 40
0.7907116176
 40
0.9296132198
 40
1.0
 40
1.0
 40
1.0
 40
1.0
 10
-7.5288537419
 20
-29.1331540018
 30
0.0
 10
-7.4985757027
 20
-29.1331540002
 30
0.0
 10
-7.422059134
 20
-29.1378476333
 30
0.0
 10
-7.3042897692
 20
-29.1585092234
 30
0.0
 10
-7.195532048
 20
-29.219332204
 30
0.0
 10
-7.130244156
 20
-29.3001527131
 30
0.0
 10
-7.0942673959
 20
-29.3855765103
 30
0.0
 10
-7.0857869451
 20
-29.4601456657
 30
0.0
 10
-7.0845923081
 20
-29.5073784512
 30
0.0
 10
-7.0845923081
 20
-29.5232842821
 30
0.0
 11
-7.5288537419
 21
-29.1331540018
 31
0.0
 11
-7.4381608469
 21
-29.1382171681
 31
0.0
 11
-7.3021659792
 21
-29.1672637531
 31
0.0
 11
-7.1937964569
 21
-29.2304200895
 31
0.0
 11
-7.1308177754
 21
-29.3076111673
 31
0.0
 11
-7.099461676
 21
-29.3824039032
 31
0.0
 11
-7.0858710719
 21
-29.4755839268
 31
0.0
 11
-7.0845923081
 21
-29.5232842821
 31
0.0
  0
SPLINE
  5
41E
100
AcDbEntity
  8
0
100
AcDbSpline
 62
7
  6
CONTINUOUS
 70
0
 71
3
 72
14
 73
10
 74
8
 42
0.0000001
 43
0.0000001
 44
0.0000000001
 12
0.0
 22
-0.6779421935
 32
0.0
 13
-0.6779424104
 23
0.0000088074
 33
0.0
 40
0.0
 40
0.0
 40
0.0
 40
0.0
 40
0.0703857842
 40
0.2092854211
 40
0.3289116696
 40
0.4758610334
 40
0.6608767567
 40
0.8660008026
 40
1.0
 40
1.0
 40
1.0
 40
1.0
 10
-7.0845923081
 20
-29.5232842821
 30
0.0
 10
-7.0845923081
 20
-29.5391901131
 30
0.0
 10
-7.0857869451
 20
-29.5864228986
 30
0.0
 10
-7.0942673959
 20
-29.660992054
 30
0.0
 10
-7.130244156
 20
-29.7464158512
 30
0.0
 10
-7.195532048
 20
-29.8272363603
 30
0.0
 10
-7.3042897692
 20
-29.8880593409
 30
0.0
 10
-7.4220623134
 20
-29.9087214888
 30
0.0
 10
-7.4985820881
 20
-29.9134149558
 30
0.0
 10
-7.5288633344
 20
-29.9134145624
 30
0.0
 11
-7.0845923081
 21
-29.5232842821
 31
0.0
 11
-7.0858710719
 21
-29.5709846375
 31
0.0
 11
-7.099461676
 21
-29.6641646611
 31
0.0
 11
-7.1308177754
 21
-29.738957397
 31
0.0
 11
-7.1937964569
 21
-29.8161484748
 31
0.0
 11
-7.3021659792
 21
-29.8793048112
 31
0.0
 11
-7.4381608469
 21
-29.9083513962
 31
0.0
 11
-7.5288633344
 21
-29.9134145624
 31
0.0
  0
SPLINE
  5
41F
100
AcDbEntity
  8
0
100
AcDbSpline
 62
7
  6
CONTINUOUS
 70
0
 71
3
 72
14
 73
10
 74
8
 42
0.0000001
 43
0.0000001
 44
0.0000000001
 12
1.0487850529
 22
0.0099095675
 32
0.0
 13
-0.0248671058
 23
1.0485368798
 33
0.0
 40
0.0
 40
0.0
 40
0.0
 40
0.0
 40
0.1411779169
 40
0.3123011288
 40
0.4320130832
 40
0.5853284089
 40
0.7001903278
 40
0.8582731588
 40
1.0
 40
1.0
 40
1.0
 40
1.0
 10
0.3990053729
 20
-30.1735013525
 30
0.0
 10
0.4483604692
 20
-30.1730350151
 30
0.0
 10
0.5576354867
 20
-30.163363024
 30
0.0
 10
0.7040238256
 20
-30.1203370481
 30
0.0
 10
0.8404089678
 20
-30.0440324309
 30
0.0
 10
0.9390801015
 20
-29.9475533682
 30
0.0
 10
1.0145780528
 20
-29.8179210588
 30
0.0
 10
1.0583986424
 20
-29.6781502677
 30
0.0
 10
1.0668098704
 20
-29.5728195554
 30
0.0
 10
1.0656350917
 20
-29.5232842821
 30
0.0
 11
0.3990053729
 21
-30.1735013525
 31
0.0
 11
0.5464522601
 21
-30.159910812
 31
0.0
 11
0.7182446012
 21
-30.1079467377
 31
0.0
 11
0.8273247433
 21
-30.0457675036
 31
0.0
 11
0.942089844
 21
-29.9331342624
 31
0.0
 11
1.0034696308
 21
-29.8294725964
 31
0.0
 11
1.0536571555
 21
-29.6714485143
 31
0.0
 11
1.0656350917
 21
-29.5232842821
 31
0.0
  0
SPLINE
  5
420
100
AcDbEntity
  8
0
100
AcDbSpline
 62
7
  6
CONTINUOUS
 70
0
 71
3
 72
14
 73
10
 74
8
 42
0.0000001
 43
0.0000001
 44
0.0000000001
 12
0.0248673221
 22
1.048546001
 32
0.0
 13
-1.0487940624
 23
0.0098994251
 33
0.0
 40
0.0
 40
0.0
 40
0.0
 40
0.0
 40
0.1417256083
 40
0.2998070642
 40
0.4146679839
 40
0.5679819759
 40
0.687692889
 40
0.8588146123
 40
1.0
 40
1.0
 40
1.0
 40
1.0
 10
1.0656350917
 20
-29.5232842821
 30
0.0
 10
1.0668098704
 20
-29.4737490089
 30
0.0
 10
1.0583986424
 20
-29.3684182966
 30
0.0
 10
1.0145780528
 20
-29.2286475055
 30
0.0
 10
0.9390801015
 20
-29.0990151961
 30
0.0
 10
0.8404089678
 20
-29.0025361334
 30
0.0
 10
0.7040238256
 20
-28.9262315162
 30
0.0
 10
0.557632539
 20
-28.8832046739
 30
0.0
 10
0.4483543816
 20
-28.8735330104
 30
0.0
 10
0.3989962495
 20
-28.8730671257
 30
0.0
 11
1.0656350917
 21
-29.5232842821
 31
0.0
 11
1.0536571555
 21
-29.37512005
 31
0.0
 11
1.0034696308
 21
-29.2170959679
 31
0.0
 11
0.942089844
 21
-29.1134343019
 31
0.0
 11
0.8273247433
 21
-29.0008010607
 31
0.0
 11
0.7182446012
 21
-28.9386218266
 31
0.0
 11
0.5464522601
 21
-28.8866577523
 31
0.0
 11
0.3989962495
 21
-28.8730671257
 31
0.0
  0
SPLINE
  5
421
100
AcDbEntity
  8
0
100
AcDbSpline
 62
7
  6
CONTINUOUS
 70
0
 71
3
 72
14
 73
10
 74
8
 42
0.0000001
 43
0.0000001
 44
0.0000000001
 12
0.0
 22
0.677932601
 32
0.0
 13
-0.6779326019
 23
-0.0000000372
 33
0.0
 40
0.0
 40
0.0
 40
0.0
 40
0.0
 40
0.0703867802
 40
0.2092883824
 40
0.3289163236
 40
0.4758677667
 40
0.6608861079
 40
0.8660130562
 40
1.0
 40
1.0
 40
1.0
 40
1.0
 10
0.7524783591
 20
-29.5232842821
 30
0.0
 10
0.7524783591
 20
-29.5073784512
 30
0.0
 10
0.7512837221
 20
-29.4601456657
 30
0.0
 10
0.7428032713
 20
-29.3855765103
 30
0.0
 10
0.7068265112
 20
-29.3001527131
 30
0.0
 10
0.6415386192
 20
-29.219332204
 30
0.0
 10
0.532780898
 20
-29.1585092234
 30
0.0
 10
0.4150115332
 20
-29.1378476333
 30
0.0
 10
0.3384949644
 20
-29.1331540002
 30
0.0
 10
0.3082169253
 20
-29.1331540018
 30
0.0
 11
0.7524783591
 21
-29.5232842821
 31
0.0
 11
0.7511995953
 21
-29.4755839268
 31
0.0
 11
0.7376089912
 21
-29.3824039032
 31
0.0
 11
0.7062528917
 21
-29.3076111673
 31
0.0
 11
0.6432742103
 21
-29.2304200895
 31
0.0
 11
0.534904688
 21
-29.1672637531
 31
0.0
 11
0.3989098203
 21
-29.1382171681
 31
0.0
 11
0.3082169253
 21
-29.1331540018
 31
0.0
  0
SPLINE
  5
422
100
AcDbEntity
  8
0
100
AcDbSpline
 62
7
  6
CONTINUOUS
 70
0
 71
3
 72
14
 73
10
 74
8
 42
0.0000001
 43
0.0000001
 44
0.0000000001
 12
0.6779423965
 22
-0.0000087951
 32
0.0
 13
0.0
 23
0.67794218
 33
0.0
 40
0.0
 40
0.0
 40
0.0
 40
0.0
 40
0.1339991802
 40
0.3391232302
 40
0.5241389571
 40
0.6710883238
 40
0.7907145748
 40
0.9296142144
 40
1.0
 40
1.0
 40
1.0
 40
1.0
 10
0.3082073463
 20
-29.9134145624
 30
0.0
 10
0.338488588
 20
-29.9134149552
 30
0.0
 10
0.4150083583
 20
-29.908721488
 30
0.0
 10
0.532780898
 20
-29.8880593409
 30
0.0
 10
0.6415386192
 20
-29.8272363603
 30
0.0
 10
0.7068265112
 20
-29.7464158512
 30
0.0
 10
0.7428032713
 20
-29.660992054
 30
0.0
 10
0.7512837221
 20
-29.5864228986
 30
0.0
 10
0.7524783591
 20
-29.5391901131
 30
0.0
 10
0.7524783591
 20
-29.5232842821
 30
0.0
 11
0.3082073463
 21
-29.9134145624
 31
0.0
 11
0.3989098203
 21
-29.9083513962
 31
0.0
 11
0.534904688
 21
-29.8793048112
 31
0.0
 11
0.6432742103
 21
-29.8161484748
 31
0.0
 11
0.7062528917
 21
-29.738957397
 31
0.0
 11
0.7376089912
 21
-29.6641646611
 31
0.0
 11
0.7511995953
 21
-29.5709846375
 31
0.0
 11
0.7524783591
 21
-29.5232842821
 31
0.0
  0
SPLINE
  5
423
100
AcDbEntity
  8
0
100
AcDbSpline
 62
7
  6
CONTINUOUS
 70
0
 71
3
 72
15
 73
11
 74
9
 42
0.0000001
 43
0.0000001
 44
0.0000000001
 12
1.655439026
 22
0.0000048487
 32
0.0
 13
-0.0
 23
1.655438958
 33
0.0
 40
0.0
 40
0.0
 40
0.0
 40
0.0
 40
0.1261830271
 40
0.2819731547
 40
0.3948857466
 40
0.5471504357
 40
0.6676180529
 40
0.7950161642
 40
0.8856981165
 40
1.0
 40
1.0
 40
1.0
 40
1.0
 10
6.7258272948
 20
-31.1230671483
 30
0.0
 10
6.7954567306
 20
-31.1230669444
 30
0.0
 10
6.9512959569
 20
-31.1057506515
 30
0.0
 10
7.1595408605
 20
-31.0327221168
 30
0.0
 10
7.3541178445
 20
-30.9024401499
 30
0.0
 10
7.4935955565
 20
-30.7365376198
 30
0.0
 10
7.5877791775
 20
-30.5357456412
 30
0.0
 10
7.6431582803
 20
-30.3564998957
 30
0.0
 10
7.6694601852
 20
-30.1744449521
 30
0.0
 10
7.6710664413
 20
-30.061140412
 30
0.0
 10
7.6710664413
 20
-29.9980671483
 30
0.0
 11
6.7258272948
 21
-31.1230671483
 31
0.0
 11
6.9335031878
 21
-31.1005937966
 31
0.0
 11
7.1762686833
 21
-31.0135428688
 31
0.0
 11
7.3310949762
 21
-30.9088152731
 31
0.0
 11
7.4943598795
 21
-30.7167702671
 31
0.0
 11
7.5819437721
 21
-30.5376052454
 31
0.0
 11
7.6428794216
 21
-30.3357003895
 31
0.0
 11
7.664730981
 21
-30.1871808475
 31
0.0
 11
7.6710664413
 21
-29.9980671483
 31
0.0
  0
SPLINE
  5
424
100
AcDbEntity
  8
0
100
AcDbSpline
 62
7
  6
CONTINUOUS
 70
0
 71
3
 72
15
 73
11
 74
9
 42
0.0000001
 43
0.0000001
 44
0.0000000001
 12
0.0
 22
1.6554444579
 32
0.0
 13
-1.6554443898
 23
-0.0000048525
 33
0.0
 40
0.0
 40
0.0
 40
0.0
 40
0.0
 40
0.1143015037
 40
0.2049831548
 40
0.3323808428
 40
0.4528480598
 40
0.605112243
 40
0.7180244598
 40
0.8738140698
 40
1.0
 40
1.0
 40
1.0
 40
1.0
 10
7.6710664413
 20
-29.9980671483
 30
0.0
 10
7.6710664413
 20
-29.9349938847
 30
0.0
 10
7.6694601852
 20
-29.8216893446
 30
0.0
 10
7.6431582803
 20
-29.6396344009
 30
0.0
 10
7.5877791775
 20
-29.4603886555
 30
0.0
 10
7.4935955565
 20
-29.2595966768
 30
0.0
 10
7.3541178445
 20
-29.0936941468
 30
0.0
 10
7.1595408605
 20
-28.9634121798
 30
0.0
 10
6.9512942048
 20
-28.8903830307
 30
0.0
 10
6.7954530583
 20
-28.8730669442
 30
0.0
 10
6.7258217949
 20
-28.8730671483
 30
0.0
 11
7.6710664413
 21
-29.9980671483
 31
0.0
 11
7.664730981
 21
-29.8089534491
 31
0.0
 11
7.6428794216
 21
-29.6604339071
 31
0.0
 11
7.5819437721
 21
-29.4585290512
 31
0.0
 11
7.4943598795
 21
-29.2793640295
 31
0.0
 11
7.3310949762
 21
-29.0873190236
 31
0.0
 11
7.1762686833
 21
-28.9825914278
 31
0.0
 11
6.9335031878
 21
-28.8955405001
 31
0.0
 11
6.7258217949
 21
-28.8730671483
 31
0.0
  0
SPLINE
  5
425
100
AcDbEntity
  8
0
100
AcDbSpline
 62
7
  6
CONTINUOUS
 70
0
 71
3
 72
15
 73
11
 74
9
 42
0.0000001
 43
0.0000001
 44
0.0000000001
 12
0.0
 22
1.2404778465
 32
0.0
 13
-1.2404778466
 23
-0.0000000615
 33
0.0
 40
0.0
 40
0.0
 40
0.0
 40
0.0
 40
0.0649004103
 40
0.1700794957
 40
0.3134087068
 40
0.4793448262
 40
0.5912425558
 40
0.7340999025
 40
0.8810230709
 40
1.0
 40
1.0
 40
1.0
 40
1.0
 10
7.3583355956
 20
-29.9980671483
 30
0.0
 10
7.3583355956
 20
-29.9712313079
 30
0.0
 10
7.3560309369
 20
-29.9009185186
 30
0.0
 10
7.346311907
 20
-29.771595738
 30
0.0
 10
7.3155741603
 20
-29.6025214396
 30
0.0
 10
7.2493379469
 20
-29.438669788
 30
0.0
 10
7.141728363
 20
-29.300358429
 30
0.0
 10
7.0075444202
 20
-29.1973800632
 30
0.0
 10
6.8442741201
 20
-29.1447728939
 30
0.0
 10
6.7343376083
 20
-29.1331539994
 30
0.0
 10
6.6851415267
 20
-29.1331540018
 30
0.0
 11
7.3583355956
 21
-29.9980671483
 31
0.0
 11
7.3561443248
 21
-29.9175894539
 31
0.0
 11
7.345573855
 21
-29.7875460271
 31
0.0
 11
7.3117305862
 21
-29.6130000342
 31
0.0
 11
7.2310752368
 21
-29.4236198526
 31
0.0
 11
7.1458008586
 21
-29.3140955731
 31
0.0
 11
7.0042986872
 21
-29.2074137729
 31
0.0
 11
6.8319733813
 21
-29.148077018
 31
0.0
 11
6.6851415267
 21
-29.1331540018
 31
0.0
  0
SPLINE
  5
426
100
AcDbEntity
  8
0
100
AcDbSpline
 62
7
  6
CONTINUOUS
 70
0
 71
3
 72
15
 73
11
 74
9
 42
0.0000001
 43
0.0000001
 44
0.0000000001
 12
1.2404722876
 22
0.0000097965
 32
0.0
 13
0.0
 23
1.2404722971
 33
0.0
 40
0.0
 40
0.0
 40
0.0
 40
0.0
 40
0.1189729877
 40
0.2658968134
 40
0.4087547992
 40
0.5206530294
 40
0.6865898912
 40
0.8299197435
 40
0.9350992994
 40
1.0
 40
1.0
 40
1.0
 40
1.0
 10
6.6851470761
 20
-30.8629802948
 30
0.0
 10
6.7343413075
 20
-30.8629799063
 30
0.0
 10
6.844275907
 20
-30.851360827
 30
0.0
 10
7.0075444202
 20
-30.7987542334
 30
0.0
 10
7.141728363
 20
-30.6957758676
 30
0.0
 10
7.2493379469
 20
-30.5574645086
 30
0.0
 10
7.3155741603
 20
-30.393612857
 30
0.0
 10
7.346311907
 20
-30.2245385586
 30
0.0
 10
7.3560309369
 20
-30.095215778
 30
0.0
 10
7.3583355956
 20
-30.0249029887
 30
0.0
 10
7.3583355956
 20
-29.9980671483
 30
0.0
 11
6.6851470761
 21
-30.8629802948
 31
0.0
 11
6.8319733813
 21
-30.8480572786
 31
0.0
 11
7.0042986872
 21
-30.7887205238
 31
0.0
 11
7.1458008586
 21
-30.6820387235
 31
0.0
 11
7.2310752368
 21
-30.572514444
 31
0.0
 11
7.3117305862
 21
-30.3831342624
 31
0.0
 11
7.345573855
 21
-30.2085882695
 31
0.0
 11
7.3561443248
 21
-30.0785448427
 31
0.0
 11
7.3583355956
 21
-29.9980671483
 31
0.0
  0
SPLINE
  5
427
100
AcDbEntity
  8
0
100
AcDbSpline
 62
7
  6
CONTINUOUS
 70
0
 71
3
 72
98
 73
94
 74
92
 42
0.0000001
 43
0.0000001
 44
0.0000000001
 12
-0.5132961344
 22
-2.3811038594
 32
0.0
 13
0.52614693
 23
2.3785960105
 33
0.0
 40
0.0
 40
0.0
 40
0.0
 40
0.0
 40
0.0663389585
 40
0.1260270296
 40
0.1542002661
 40
0.1817281714
 40
0.195380786
 40
0.2089272412
 40
0.2357282237
 40
0.2624499776
 40
0.2894488581
 40
0.3170704971
 40
0.3312216384
 40
0.3383983636
 40
0.3456481846
 40
0.3529754723
 40
0.356669559
 40
0.3603845882
 40
0.3622501229
 40
0.3641210829
 40
0.3659975301
 40
0.3678795261
 40
0.3696997694
 40
0.3704759211
 40
0.3712515418
 40
0.3728012092
 40
0.3743488125
 40
0.3774379771
 40
0.3805193671
 40
0.3866600395
 40
0.3927735301
 40
0.3988624937
 40
0.4049296174
 40
0.4109776172
 40
0.4230265417
 40
0.4350321358
 40
0.4470168262
 40
0.4710080408
 40
0.4951854251
 40
0.5074017057
 40
0.5197297583
 40
0.5321450859
 40
0.5444905846
 40
0.5690485223
 40
0.5936874753
 40
0.6186995601
 40
0.644364155
 40
0.6709400682
 40
0.6846470671
 40
0.6986219785
 40
0.7271667475
 40
0.7566099801
 40
0.7717076405
 40
0.7870732785
 40
0.8027198957
 40
0.8186598063
 40
0.8349046577
 40
0.8431450638
 40
0.851465778
 40
0.8598680796
 40
0.8641002342
 40
0.8683532485
 40
0.872627272
 40
0.8769224523
 40
0.879078024
 40
0.8812389392
 40
0.8823214065
 40
0.8834052163
 40
0.8844903709
 40
0.8850334532
 40
0.8853051207
 40
0.8855768725
 40
0.8857875832
 40
0.8859982789
 40
0.8864196253
 40
0.8872621393
 40
0.8881044165
 40
0.8889464591
 40
0.8906298477
 40
0.8923123218
 40
0.8956745873
 40
0.8990333899
 40
0.90238886
 40
0.9057411286
 40
0.9124365536
 40
0.9191207524
 40
0.9257947849
 40
0.9391163465
 40
0.9524100722
 40
0.9656845839
 40
0.978948541
 40
0.9922106237
 40
1.0
 40
1.0
 40
1.0
 40
1.0
 10
2.7235264487
 20
-25.8542011134
 30
0.0
 10
2.7121759384
 20
-25.9068544301
 30
0.0
 10
2.683614552
 20
-26.005651119
 30
0.0
 10
2.6264642146
 20
-26.1181669766
 30
0.0
 10
2.5701389959
 20
-26.193276429
 30
0.0
 10
2.5311056253
 20
-26.2340818393
 30
0.0
 10
2.4974815508
 20
-26.2631669712
 30
0.0
 10
2.4627308351
 20
-26.2899327817
 30
0.0
 10
2.4168198984
 20
-26.3194591792
 30
0.0
 10
2.3579621709
 20
-26.3482535321
 30
0.0
 10
2.2955559212
 20
-26.3702985924
 30
0.0
 10
2.2410479389
 20
-26.3829430702
 30
0.0
 10
2.2017343518
 20
-26.3888731045
 30
0.0
 10
2.1786740658
 20
-26.3914655733
 30
0.0
 10
2.1610766608
 20
-26.3930028608
 30
0.0
 10
2.1462693912
 20
-26.3939345491
 30
0.0
 10
2.1343163317
 20
-26.394473458
 30
0.0
 10
2.1267899074
 20
-26.3947241774
 30
0.0
 10
2.1207415671
 20
-26.394872972
 30
0.0
 10
2.11618501
 20
-26.3949587234
 30
0.0
 10
2.1116146731
 20
-26.3950185008
 30
0.0
 10
2.1070852477
 20
-26.3950517847
 30
0.0
 10
2.1034490765
 20
-26.3950585038
 30
0.0
 10
2.1007112274
 20
-26.3950523274
 30
0.0
 10
2.0981930904
 20
-26.3950402377
 30
0.0
 10
2.0950486594
 20
-26.395013225
 30
0.0
 10
2.0900261362
 20
-26.3949445794
 30
0.0
 10
2.0837607987
 20
-26.394811149
 30
0.0
 10
2.0737697252
 20
-26.3944961063
 30
0.0
 10
2.061331012
 20
-26.3939120123
 30
0.0
 10
2.0464706469
 20
-26.3929047776
 30
0.0
 10
2.0316940702
 20
-26.3915920576
 30
0.0
 10
2.0170012459
 20
-26.3899738274
 30
0.0
 10
1.9975483489
 20
-26.3874122919
 30
0.0
 10
1.9734228078
 20
-26.3834464095
 30
0.0
 10
1.9447712945
 20
-26.3774573348
 30
0.0
 10
1.9070089024
 20
-26.3678389331
 30
0.0
 10
1.860503773
 20
-26.3527035924
 30
0.0
 10
1.8153078687
 20
-26.3335385404
 30
0.0
 10
1.7799234732
 20
-26.3158291419
 30
0.0
 10
1.7536618778
 20
-26.301292633
 30
0.0
 10
1.727910317
 20
-26.2856580837
 30
0.0
 10
1.6948740404
 20
-26.2629975334
 30
0.0
 10
1.6560220716
 20
-26.2314028694
 30
0.0
 10
1.6136691074
 20
-26.1883807584
 30
0.0
 10
1.5756510249
 20
-26.1403358517
 30
0.0
 10
1.5419797165
 20
-26.0872924555
 30
0.0
 10
1.5177743051
 20
-26.0394361921
 30
0.0
 10
1.5005751194
 20
-25.9988664074
 30
0.0
 10
1.4845055601
 20
-25.9561252178
 30
0.0
 10
1.4667452901
 20
-25.9004123799
 30
0.0
 10
1.4524789986
 20
-25.8427683631
 30
0.0
 10
1.4429498565
 20
-25.7950650461
 30
0.0
 10
1.4367060785
 20
-25.7581454581
 30
0.0
 10
1.431424512
 20
-25.7203860754
 30
0.0
 10
1.4271052358
 20
-25.6817864131
 30
0.0
 10
1.4243210706
 20
-25.6490781343
 30
0.0
 10
1.4225679183
 20
-25.622499049
 30
0.0
 10
1.4214871782
 20
-25.6022586969
 30
0.0
 10
1.4207886423
 20
-25.5852583827
 30
0.0
 10
1.4203491478
 20
-25.5715538531
 30
0.0
 10
1.4200788248
 20
-25.5611976966
 30
0.0
 10
1.419868607
 20
-25.5507889692
 30
0.0
 10
1.4197436677
 20
-25.5420820039
 30
0.0
 10
1.4196736572
 20
-25.535090243
 30
0.0
 10
1.4196423877
 20
-25.5307067542
 30
0.0
 10
1.4196248713
 20
-25.5271934033
 30
0.0
 10
1.419615482
 20
-25.5245534717
 30
0.0
 10
1.4196107908
 20
-25.5223514735
 30
0.0
 10
1.4196091466
 20
-25.5208088777
 30
0.0
 10
1.41960868
 20
-25.5199267104
 30
0.0
 10
1.4196085634
 20
-25.5193144068
 30
0.0
 10
1.4196086647
 20
-25.5187516082
 30
0.0
 10
1.4196090639
 20
-25.5180673488
 30
0.0
 10
1.4196104516
 20
-25.5168701076
 30
0.0
 10
1.4196144213
 20
-25.5151600671
 30
0.0
 10
1.4196223596
 20
-25.5131084598
 30
0.0
 10
1.4196371766
 20
-25.5103741427
 30
0.0
 10
1.4196636336
 20
-25.5069576984
 30
0.0
 10
1.4197228917
 20
-25.501495218
 30
0.0
 10
1.4198286972
 20
-25.4946728701
 30
0.0
 10
1.4200065093
 20
-25.4864932695
 30
0.0
 10
1.4202351333
 20
-25.4783230465
 30
0.0
 10
1.4206075444
 20
-25.4674468803
 30
0.0
 10
1.4211999555
 20
-25.4538742298
 30
0.0
 10
1.4221144442
 20
-25.4376172471
 30
0.0
 10
1.4236037812
 20
-25.4160058063
 30
0.0
 10
1.4259733081
 20
-25.3890779803
 30
0.0
 10
1.4296320785
 20
-25.3568939684
 30
0.0
 10
1.4341043274
 20
-25.3248600646
 30
0.0
 10
1.4393901536
 20
-25.2929760712
 30
0.0
 10
1.4446493686
 20
-25.2656127784
 30
0.0
 10
1.4482161832
 20
-25.2488943847
 30
0.0
 10
1.449582302
 20
-25.2427184582
 30
0.0
 11
2.7235264487
 21
-25.8542011134
 31
0.0
 11
2.6770789675
 21
-26.0089702454
 31
0.0
 11
2.6100192415
 21
-26.1379692676
 31
0.0
 11
2.5687597684
 21
-26.1928050724
 31
0.0
 11
2.522347222
 21
-26.2411984062
 31
0.0
 11
2.4972166701
 21
-26.2629780815
 31
0.0
 11
2.4710740628
 21
-26.2831109265
 31
0.0
 11
2.4161426296
 21
-26.318385002
 31
0.0
 11
2.3576829048
 21
-26.3470035915
 31
0.0
 11
2.2956948883
 21
-26.3689666951
 31
0.0
 11
2.2301785803
 21
-26.3842743128
 31
0.0
 11
2.196097317
 21
-26.3894323144
 31
0.0
 11
2.1787259079
 21
-26.3913873634
 31
0.0
 11
2.1611339807
 21
-26.3929264445
 31
0.0
 11
2.1433215352
 21
-26.3940495578
 31
0.0
 11
2.1343326182
 21
-26.3944551264
 31
0.0
 11
2.1252885716
 21
-26.3947567031
 31
0.0
 11
2.1207458747
 21
-26.3948684945
 31
0.0
 11
2.1161893954
 21
-26.3949542879
 31
0.0
 11
2.1116191337
 21
-26.3950140833
 31
0.0
 11
2.1070350897
 21
-26.3950478806
 31
0.0
 11
2.1026013457
 21
-26.3950558183
 31
0.0
 11
2.1007107992
 21
-26.3950515243
 31
0.0
 11
2.0988215628
 21
-26.395042459
 31
0.0
 11
2.0950470202
 21
-26.3950100151
 31
0.0
 11
2.091277718
 21
-26.3949584865
 31
0.0
 11
2.0837548343
 21
-26.3947981753
 31
0.0
 11
2.0762529119
 21
-26.3945615254
 31
0.0
 11
2.0613119508
 21
-26.3938592097
 31
0.0
 11
2.0464548346
 21
-26.3928515392
 31
0.0
 11
2.0316815633
 21
-26.3915385141
 31
0.0
 11
2.0169921368
 21
-26.3899201343
 31
0.0
 11
2.0023865553
 21
-26.3879963998
 31
0.0
 11
1.9734269268
 21
-26.3832328669
 31
0.0
 11
1.9448026779
 21
-26.3772479152
 31
0.0
 11
1.9165138086
 21
-26.3700415448
 31
0.0
 11
1.8609422086
 21
-26.3519645478
 31
0.0
 11
1.8067121268
 21
-26.329001876
 31
0.0
 11
1.7801001553
 21
-26.315688412
 31
0.0
 11
1.7538235633
 21
-26.3011535293
 31
0.0
 11
1.728014152
 21
-26.2853925372
 31
0.0
 11
1.703213771
 21
-26.2683861513
 31
0.0
 11
1.6568158343
 21
-26.2306309439
 31
0.0
 11
1.6146883317
 21
-26.1878858226
 31
0.0
 11
1.5768312629
 21
-26.1401507872
 31
0.0
 11
1.5432446281
 21
-26.0874258378
 31
0.0
 11
1.5139284273
 21
-26.0297109743
 31
0.0
 11
1.5008717396
 21
-25.9989823248
 31
0.0
 11
1.4888487598
 21
-25.9671361793
 31
0.0
 11
1.4676920443
 21
-25.9009037904
 31
0.0
 11
1.4503820043
 21
-25.8313062681
 31
0.0
 11
1.4431694877
 21
-25.7952455819
 31
0.0
 11
1.4369186399
 21
-25.7583436124
 31
0.0
 11
1.4316294611
 21
-25.7206003596
 31
0.0
 11
1.4273019511
 21
-25.6820158235
 31
0.0
 11
1.42393611
 21
-25.642590004
 31
0.0
 11
1.4226138153
 21
-25.622561613
 31
0.0
 11
1.4215319378
 21
-25.6023229011
 31
0.0
 11
1.4206904775
 21
-25.5818738684
 31
0.0
 11
1.4203599038
 21
-25.5715704818
 31
0.0
 11
1.4200894344
 21
-25.5612145149
 31
0.0
 11
1.4198790694
 21
-25.5508059679
 31
0.0
 11
1.4197288086
 21
-25.5403448406
 31
0.0
 11
1.4196762173
 21
-25.5350945594
 31
0.0
 11
1.4196386522
 21
-25.5298311331
 31
0.0
 11
1.4196255043
 21
-25.5271944906
 31
0.0
 11
1.419616113
 21
-25.5245545618
 31
0.0
 11
1.4196104783
 21
-25.5219113467
 31
0.0
 11
1.4196090696
 21
-25.5205885069
 31
0.0
 11
1.4196087174
 21
-25.5199267788
 31
0.0
 11
1.4196086
 21
-25.5192648454
 31
0.0
 11
1.4196086992
 21
-25.518751596
 31
0.0
 11
1.419608997
 21
-25.5182383833
 31
0.0
 11
1.4196101878
 21
-25.5172120678
 31
0.0
 11
1.4196149512
 21
-25.5151598765
 31
0.0
 11
1.4196228903
 21
-25.5131082717
 31
0.0
 11
1.4196340049
 21
-25.5110572534
 31
0.0
 11
1.4196657611
 21
-25.506956976
 31
0.0
 11
1.4197102197
 21
-25.5028590443
 31
0.0
 11
1.4198372443
 21
-25.4946702182
 31
0.0
 11
1.4200150787
 21
-25.4864907751
 31
0.0
 11
1.420243723
 21
-25.478320715
 31
0.0
 11
1.4205231771
 21
-25.4701600379
 31
0.0
 11
1.4212345148
 21
-25.4538668326
 31
0.0
 11
1.422149092
 21
-25.4376111593
 31
0.0
 11
1.4232669084
 21
-25.4213930179
 31
0.0
 11
1.4261122594
 21
-25.3890693309
 31
0.0
 11
1.4297705678
 21
-25.3568957718
 31
0.0
 11
1.4342418336
 21
-25.3248723404
 31
0.0
 11
1.4395260569
 21
-25.2929990368
 31
0.0
 11
1.4456232376
 21
-25.261275861
 31
0.0
 11
1.449582302
 21
-25.2427184582
 31
0.0
  0
SPLINE
  5
428
100
AcDbEntity
  8
0
100
AcDbSpline
 62
7
  6
CONTINUOUS
 70
0
 71
3
 72
90
 73
86
 74
84
 42
0.0000001
 43
0.0000001
 44
0.0000000001
 12
-0.9060730061
 22
3.119118735
 32
0.0
 13
0.9862747746
 23
-3.0949865393
 33
0.0
 40
0.0
 40
0.0
 40
0.0
 40
0.0
 40
0.0564785998
 40
0.0832962616
 40
0.1095005022
 40
0.1353821655
 40
0.1612429812
 40
0.1742617816
 40
0.1872799591
 40
0.2133091517
 40
0.2396058073
 40
0.2664772071
 40
0.2802236612
 40
0.294219742
 40
0.3084973726
 40
0.3157516888
 40
0.3230875088
 40
0.3305082975
 40
0.3342516567
 40
0.3380175033
 40
0.3418062374
 40
0.3437093165
 40
0.3456182641
 40
0.3474876891
 40
0.34833223
 40
0.3491760852
 40
0.3508617546
 40
0.3525447321
 40
0.3559027391
 40
0.3592503888
 40
0.3659156555
 40
0.3725428445
 40
0.3791342378
 40
0.392218358
 40
0.4051875666
 40
0.418061347
 40
0.4308596182
 40
0.4563058302
 40
0.4816961068
 40
0.4944247563
 40
0.5072015361
 40
0.520008165
 40
0.5327096558
 40
0.5578494592
 40
0.5828377065
 40
0.6079056561
 40
0.6332823874
 40
0.6591887901
 40
0.6724092093
 40
0.6857913892
 40
0.7128359514
 40
0.7404093251
 40
0.7686880825
 40
0.7831460924
 40
0.7978406555
 40
0.8127900193
 40
0.8203659633
 40
0.8280120282
 40
0.8357302378
 40
0.84352256
 40
0.8474471422
 40
0.8513909648
 40
0.8533701671
 40
0.8553542655
 40
0.8573432885
 40
0.8583396559
 40
0.8588383051
 40
0.8593372651
 40
0.8597949368
 40
0.8602524651
 40
0.8611670929
 40
0.8629946436
 40
0.8648199417
 40
0.8666430114
 40
0.8702825553
 40
0.8739134748
 40
0.8811501717
 40
0.8883547253
 40
0.8955287315
 40
0.9026738064
 40
0.9168833095
 40
0.9309969514
 40
0.9450283151
 40
0.9728961754
 40
1.0
 40
1.0
 40
1.0
 40
1.0
 10
2.9700531044
 20
-25.0567029763
 30
0.0
 10
2.9529951929
 20
-24.9979818234
 30
0.0
 10
2.920763577
 20
-24.9130398039
 30
0.0
 10
2.8625571596
 20
-24.8095717208
 30
0.0
 10
2.8130991768
 20
-24.7397113032
 30
0.0
 10
2.7571158575
 20
-24.676346544
 30
0.0
 10
2.7051294713
 20
-24.6290750909
 30
0.0
 10
2.6606421478
 20
-24.594714121
 30
0.0
 10
2.6142009318
 20
-24.5627184985
 30
0.0
 10
2.5526638423
 20
-24.5274940773
 30
0.0
 10
2.4738651295
 20
-24.4932759711
 30
0.0
 10
2.4045832624
 20
-24.4716162252
 30
0.0
 10
2.3469646244
 20
-24.4582512173
 30
0.0
 10
2.3021812611
 20
-24.4501357281
 30
0.0
 10
2.2640380349
 20
-24.4450559187
 30
0.0
 10
2.2329339152
 20
-24.4419704376
 30
0.0
 10
2.2091714916
 20
-24.4401395999
 30
0.0
 10
2.1891709785
 20
-24.4390302604
 30
0.0
 10
2.173018996
 20
-24.4383884809
 30
0.0
 10
2.1607919231
 20
-24.4380296077
 30
0.0
 10
2.1505539294
 20
-24.4378340856
 30
0.0
 10
2.142325213
 20
-24.4377393177
 30
0.0
 10
2.1361740907
 20
-24.4376994436
 30
0.0
 10
2.1311689141
 20
-24.4376916534
 30
0.0
 10
2.1273169179
 20
-24.4376993707
 30
0.0
 10
2.1236638965
 20
-24.437714862
 30
0.0
 10
2.1191031957
 20
-24.4377494981
 30
0.0
 10
2.1118208586
 20
-24.4378374996
 30
0.0
 10
2.1027400755
 20
-24.4380085409
 30
0.0
 10
2.0882690449
 20
-24.4384123368
 30
0.0
 10
2.0702675121
 20
-24.4391608122
 30
0.0
 10
2.0487770368
 20
-24.4404520049
 30
0.0
 10
2.0203862197
 20
-24.4426901347
 30
0.0
 10
1.9852347186
 20
-24.4464619868
 30
0.0
 10
1.9435232462
 20
-24.4525679015
 30
0.0
 10
1.9023853432
 20
-24.4602428108
 30
0.0
 10
1.8484118551
 20
-24.4725417538
 30
0.0
 10
1.7821991743
 20
-24.4918695816
 30
0.0
 10
1.7178406725
 20
-24.5164735797
 30
0.0
 10
1.6676431638
 20
-24.539234584
 30
0.0
 10
1.6305746323
 20
-24.5578730094
 30
0.0
 10
1.5942929087
 20
-24.577945623
 30
0.0
 10
1.5475925538
 20
-24.6067184653
 30
0.0
 10
1.4922322465
 20
-24.6464391394
 30
0.0
 10
1.430866142
 20
-24.7001294086
 30
0.0
 10
1.3747855493
 20
-24.7596751308
 30
0.0
 10
1.3240068619
 20
-24.8250549447
 30
0.0
 10
1.2863598917
 20
-24.8839958005
 30
0.0
 10
1.2589328904
 20
-24.9338092576
 30
0.0
 10
1.2330873876
 20
-24.9858423013
 30
0.0
 10
1.2045639654
 20
-25.053816732
 30
0.0
 10
1.1766990742
 20
-25.1392292669
 30
0.0
 10
1.1588047941
 20
-25.2133022306
 30
0.0
 10
1.1475514379
 20
-25.2744662725
 30
0.0
 10
1.1405973387
 20
-25.3217161446
 30
0.0
 10
1.1361136382
 20
-25.3617716622
 30
0.0
 10
1.1332913976
 20
-25.3943168307
 30
0.0
 10
1.1315521543
 20
-25.4190940652
 30
0.0
 10
1.1301998585
 20
-25.4441299052
 30
0.0
 10
1.1293973357
 20
-25.4651576532
 30
0.0
 10
1.128947392
 20
-25.4821074546
 30
0.0
 10
1.1287463428
 20
-25.4927675391
 30
0.0
 10
1.1286336858
 20
-25.5013277413
 30
0.0
 10
1.1285732679
 20
-25.5077719683
 30
0.0
 10
1.1285430888
 20
-25.5131522905
 30
0.0
 10
1.1285325231
 20
-25.5169243967
 30
0.0
 10
1.1285295049
 20
-25.5190832443
 30
0.0
 10
1.128528763
 20
-25.5206588558
 30
0.0
 10
1.1285294444
 20
-25.5221899463
 30
0.0
 10
1.1285321227
 20
-25.5241710727
 30
0.0
 10
1.1285414829
 20
-25.5276353378
 30
0.0
 10
1.1285682304
 20
-25.5325804176
 30
0.0
 10
1.1286217491
 20
-25.5385088868
 30
0.0
 10
1.1287215981
 20
-25.5463987847
 30
0.0
 10
1.1288998488
 20
-25.556242707
 30
0.0
 10
1.1292989651
 20
-25.5719444372
 30
0.0
 10
1.1300113208
 20
-25.5914987193
 30
0.0
 10
1.1312098065
 20
-25.6148713676
 30
0.0
 10
1.1327509786
 20
-25.6381246018
 30
0.0
 10
1.1352580042
 20
-25.6689111373
 30
0.0
 10
1.1392451935
 20
-25.7071109811
 30
0.0
 10
1.145410683
 20
-25.7525588446
 30
0.0
 10
1.1554362162
 20
-25.8123770974
 30
0.0
 10
1.1712638354
 20
-25.8854446411
 30
0.0
 10
1.1875428884
 20
-25.9427366561
 30
0.0
 10
1.1964534946
 20
-25.9706986469
 30
0.0
 11
2.9700531044
 21
-25.0567029763
 31
0.0
 11
2.9037483314
 21
-24.8856591427
 31
0.0
 11
2.8609390858
 21
-24.8097994173
 31
0.0
 11
2.8116918993
 21
-24.7403810332
 31
0.0
 11
2.7560067719
 21
-24.6774039902
 31
0.0
 11
2.6938837037
 21
-24.6208682884
 31
0.0
 11
2.6604153744
 21
-24.5950233732
 31
0.0
 11
2.6255902733
 21
-24.5710415065
 31
0.0
 11
2.5522265267
 21
-24.5290236906
 31
0.0
 11
2.4739113879
 21
-24.4949337644
 31
0.0
 11
2.3906448568
 21
-24.468771728
 31
0.0
 11
2.3471548192
 21
-24.4586636685
 31
0.0
 11
2.3024269335
 21
-24.4505375815
 31
0.0
 11
2.2564611997
 21
-24.4443934669
 31
0.0
 11
2.2330141398
 21
-24.4420646493
 31
0.0
 11
2.2092576179
 21
-24.4402313247
 31
0.0
 11
2.185191634
 21
-24.4388934933
 31
0.0
 11
2.1730425937
 21
-24.4384103875
 31
0.0
 11
2.160816188
 21
-24.438051155
 31
0.0
 11
2.1485124168
 21
-24.4378157958
 31
0.0
 11
2.1423315191
 21
-24.4377445687
 31
0.0
 11
2.13613128
 21
-24.4377043099
 31
0.0
 11
2.1300592897
 21
-24.4376948894
 31
0.0
 11
2.1273161787
 21
-24.4377003954
 31
0.0
 11
2.1245753139
 21
-24.4377120191
 31
0.0
 11
2.1191003229
 21
-24.4377536199
 31
0.0
 11
2.1136343164
 21
-24.4378196917
 31
0.0
 11
2.1027292576
 21
-24.4380252484
 31
0.0
 11
2.0918601373
 21
-24.4383286892
 31
0.0
 11
2.0702297128
 21
-24.4392292234
 31
0.0
 11
2.0487430427
 21
-24.440521294
 31
0.0
 11
2.0274001272
 21
-24.4422049013
 31
0.0
 11
1.9851455598
 21
-24.4467467255
 31
0.0
 11
1.9434660106
 21
-24.452854696
 31
0.0
 11
1.9023614795
 21
-24.4605288128
 31
0.0
 11
1.8618319666
 21
-24.4697690758
 31
0.0
 11
1.7824979951
 21
-24.4929480408
 31
0.0
 11
1.7054640962
 21
-24.5223915909
 31
0.0
 11
1.667809674
 21
-24.5394625854
 31
0.0
 11
1.63073027
 21
-24.5580997261
 31
0.0
 11
1.5943579911
 21
-24.5782823636
 31
0.0
 11
1.5592359441
 21
-24.5999256049
 31
0.0
 11
1.4929186884
 21
-24.6475663665
 31
0.0
 11
1.4318372171
 21
-24.7010128333
 31
0.0
 11
1.3759915304
 21
-24.7602650053
 31
0.0
 11
1.325381628
 21
-24.8253228825
 31
0.0
 11
1.2800075101
 21
-24.896186465
 31
0.0
 11
1.2592838704
 21
-24.9337953957
 31
0.0
 11
1.2399454984
 21
-24.9727225975
 31
0.0
 11
1.2059015683
 21
-25.0536995944
 31
0.0
 11
1.1780474437
 21
-25.1388178566
 31
0.0
 11
1.1563831246
 21
-25.228077384
 31
0.0
 11
1.1478721421
 21
-25.2742601222
 31
0.0
 11
1.1409086109
 21
-25.3214781768
 31
0.0
 11
1.1354925311
 21
-25.3697315476
 31
0.0
 11
1.1333647855
 21
-25.3942464766
 31
0.0
 11
1.1316239027
 21
-25.4190202348
 31
0.0
 11
1.1302698828
 21
-25.4440528219
 31
0.0
 11
1.1293027257
 21
-25.4693442382
 31
0.0
 11
1.1289642207
 21
-25.4820870073
 31
0.0
 11
1.1287224314
 21
-25.4948944836
 31
0.0
 11
1.1286378052
 21
-25.501322487
 31
0.0
 11
1.1285773579
 21
-25.5077666672
 31
0.0
 11
1.1285410895
 21
-25.5142270242
 31
0.0
 11
1.1285320224
 21
-25.517463269
 31
0.0
 11
1.1285297556
 21
-25.519082908
 31
0.0
 11
1.128529
 21
-25.520703558
 31
0.0
 11
1.1285296691
 21
-25.5221901013
 31
0.0
 11
1.1285316766
 21
-25.5236761777
 31
0.0
 11
1.1285397064
 21
-25.5266469297
 31
0.0
 11
1.1285718254
 21
-25.5325828304
 31
0.0
 11
1.1286253572
 21
-25.5385112601
 31
0.0
 11
1.1287003017
 21
-25.5444322188
 31
0.0
 11
1.1289144289
 21
-25.5562517233
 31
0.0
 11
1.1292142069
 21
-25.5680413439
 31
0.0
 11
1.1300707154
 21
-25.5915309332
 31
0.0
 11
1.1312698274
 21
-25.6149009868
 31
0.0
 11
1.1328115429
 21
-25.6381515046
 31
0.0
 11
1.1346958617
 21
-25.6612824867
 31
0.0
 11
1.1394923097
 21
-25.7071858435
 31
0.0
 11
1.1456591714
 21
-25.7526110574
 31
0.0
 11
1.1531964469
 21
-25.7975581282
 31
0.0
 11
1.1723822389
 21
-25.8860178408
 31
0.0
 11
1.1964534946
 21
-25.9706986469
 31
0.0
  0
SPLINE
  5
429
100
AcDbEntity
  8
0
100
AcDbSpline
 62
7
  6
CONTINUOUS
 70
0
 71
3
 72
94
 73
90
 74
88
 42
0.0000001
 43
0.0000001
 44
0.0000000001
 12
0.8132424588
 22
1.2985776499
 32
0.0
 13
-0.8210007386
 23
-1.2946358471
 33
0.0
 40
0.0
 40
0.0
 40
0.0
 40
0.0
 40
0.0353250332
 40
0.0706731932
 40
0.0885401545
 40
0.1066209468
 40
0.1249810964
 40
0.1342865564
 40
0.1436850447
 40
0.1531197211
 40
0.1625366039
 40
0.1813589779
 40
0.2002445801
 40
0.2192821387
 40
0.2288864054
 40
0.2385608942
 40
0.2483159279
 40
0.2581615759
 40
0.2681076325
 40
0.2731214398
 40
0.2781638858
 40
0.2832361099
 40
0.2857837566
 40
0.2883392659
 40
0.2909027744
 40
0.2934744179
 40
0.2947633342
 40
0.2960543345
 40
0.2967006215
 40
0.2973474357
 40
0.2979947792
 40
0.2983186501
 40
0.2984806354
 40
0.2986426541
 40
0.2989031973
 40
0.2991636402
 40
0.2996842256
 40
0.3007241972
 40
0.3017625754
 40
0.3027993668
 40
0.304868213
 40
0.3069307894
 40
0.3110373295
 40
0.315119425
 40
0.3191775086
 40
0.3232120207
 40
0.3312120159
 40
0.3391232003
 40
0.3469493782
 40
0.3623615274
 40
0.3774823537
 40
0.3923467167
 40
0.4069913074
 40
0.4214544896
 40
0.4499867271
 40
0.478284463
 40
0.5066871526
 40
0.5210383453
 40
0.5355405918
 40
0.5500937106
 40
0.5645999819
 40
0.5936345159
 40
0.6230000806
 40
0.6530303545
 40
0.6840375643
 40
0.7163055904
 40
0.7329960215
 40
0.7500934099
 40
0.7588034579
 40
0.7676250127
 40
0.7765610873
 40
0.7810730236
 40
0.7833401157
 40
0.785614678
 40
0.7880071448
 40
0.7903922633
 40
0.7951406238
 40
0.7998601355
 40
0.8045511699
 40
0.8138492295
 40
0.8230380052
 40
0.8410998556
 40
0.8587646598
 40
0.8760614344
 40
0.8930210856
 40
0.9260531006
 40
0.9581523642
 40
0.9896278045
 40
1.0
 40
1.0
 40
1.0
 40
1.0
 10
-1.4406942363
 20
-25.6287449773
 30
0.0
 10
-1.4311182973
 20
-25.6134542111
 30
0.0
 10
-1.4100283869
 20
-25.5840237658
 30
0.0
 10
-1.3791389237
 20
-25.5508262118
 30
0.0
 10
-1.3519420536
 20
-25.526584009
 30
0.0
 10
-1.3301356657
 20
-25.5094149184
 30
0.0
 10
-1.3109414511
 20
-25.4960678093
 30
0.0
 10
-1.2949468177
 20
-25.4859391276
 30
0.0
 10
-1.282598313
 20
-25.4785832622
 30
0.0
 10
-1.2699783832
 20
-25.4715834975
 30
0.0
 10
-1.2528300764
 20
-25.4628488085
 30
0.0
 10
-1.2308296909
 20
-25.4530367896
 30
0.0
 10
-1.2035881495
 20
-25.4430807345
 30
0.0
 10
-1.1802547496
 20
-25.4363162376
 30
0.0
 10
-1.1612076648
 20
-25.4318120537
 30
0.0
 10
-1.1466698215
 20
-25.4288757946
 30
0.0
 10
-1.1319230975
 20
-25.4263918957
 30
0.0
 10
-1.1169674021
 20
-25.4243602263
 30
0.0
 10
-1.1043643035
 20
-25.4230475775
 30
0.0
 10
-1.0941814903
 20
-25.4222219372
 30
0.0
 10
-1.0864712366
 20
-25.4217139766
 30
0.0
 10
-1.0800122288
 20
-25.4213853124
 30
0.0
 10
-1.0748193629
 20
-25.4211786189
 30
0.0
 10
-1.0709057402
 20
-25.4210516006
 30
0.0
 10
-1.0669790466
 20
-25.4209528191
 30
0.0
 10
-1.0636985341
 20
-25.4208940787
 30
0.0
 10
-1.0610676449
 20
-25.4208611712
 30
0.0
 10
-1.059419966
 20
-25.420846476
 30
0.0
 10
-1.0581001958
 20
-25.4208382449
 30
0.0
 10
-1.0571091488
 20
-25.4208338339
 30
0.0
 10
-1.0562827648
 20
-25.4208316289
 30
0.0
 10
-1.0557039986
 20
-25.4208308575
 30
0.0
 10
-1.0553731052
 20
-25.4208306363
 30
0.0
 10
-1.0550745556
 20
-25.4208305724
 30
0.0
 10
-1.05472572
 20
-25.4208306827
 30
0.0
 10
-1.0541937515
 20
-25.420831174
 30
0.0
 10
-1.0532637015
 20
-25.420832897
 30
0.0
 10
-1.0519363377
 20
-25.4208378175
 30
0.0
 10
-1.0503453497
 20
-25.420847665
 30
0.0
 10
-1.0482289269
 20
-25.4208660343
 30
0.0
 10
-1.0455895216
 20
-25.4208988242
 30
0.0
 10
-1.0413827186
 20
-25.4209722318
 30
0.0
 10
-1.0361485889
 20
-25.4211032191
 30
0.0
 10
-1.029897521
 20
-25.4213236881
 30
0.0
 10
-1.0236858079
 20
-25.4216072051
 30
0.0
 10
-1.0154795339
 20
-25.4220679704
 30
0.0
 10
-1.0053180589
 20
-25.422800291
 30
0.0
 10
-0.9932466209
 20
-25.4239338814
 30
0.0
 10
-0.977442926
 20
-25.4257721833
 30
0.0
 10
-0.9580628631
 20
-25.4286932182
 30
0.0
 10
-0.9353155267
 20
-25.4332275905
 30
0.0
 10
-0.9131967942
 20
-25.4387732455
 30
0.0
 10
-0.8917065198
 20
-25.4453310531
 30
0.0
 10
-0.8640228379
 20
-25.4553754516
 30
0.0
 10
-0.8308170789
 20
-25.4705034303
 30
0.0
 10
-0.7933438443
 20
-25.4928217554
 30
0.0
 10
-0.7643335155
 20
-25.5147532496
 30
0.0
 10
-0.7424958095
 20
-25.5342186138
 30
0.0
 10
-0.7267356655
 20
-25.5498250546
 30
0.0
 10
-0.7117645006
 20
-25.5662979875
 30
0.0
 10
-0.6930355987
 20
-25.5893265505
 30
0.0
 10
-0.671949574
 20
-25.6201152035
 30
0.0
 10
-0.6505890316
 20
-25.6600051087
 30
0.0
 10
-0.6331493694
 20
-25.7028449753
 30
0.0
 10
-0.6196273657
 20
-25.7486155836
 30
0.0
 10
-0.6117039195
 20
-25.7887392251
 30
0.0
 10
-0.6072537229
 20
-25.8221886022
 30
0.0
 10
-0.6052601995
 20
-25.8438086105
 30
0.0
 10
-0.6041407502
 20
-25.8614602122
 30
0.0
 10
-0.6035377673
 20
-25.8749655857
 30
0.0
 10
-0.6032377864
 20
-25.8863361613
 30
0.0
 10
-0.6031327644
 20
-25.8943618446
 30
0.0
 10
-0.603102594
 20
-25.898985761
 30
0.0
 10
-0.603095032
 20
-25.9025272737
 30
0.0
 10
-0.6031028601
 20
-25.9061290672
 30
0.0
 10
-0.6031343382
 20
-25.9109942273
 30
0.0
 10
-0.6032130458
 20
-25.9170475553
 30
0.0
 10
-0.6033707986
 20
-25.9242774061
 30
0.0
 10
-0.6036645044
 20
-25.933828159
 30
0.0
 10
-0.6041882119
 20
-25.9456551175
 30
0.0
 10
-0.6053589244
 20
-25.96428595
 30
0.0
 10
-0.6074442058
 20
-25.9871372128
 30
0.0
 10
-0.6109732248
 20
-26.0139944729
 30
0.0
 10
-0.615515044
 20
-26.0401293102
 30
0.0
 10
-0.6228552985
 20
-26.0737116082
 30
0.0
 10
-0.6345347634
 20
-26.1140461756
 30
0.0
 10
-0.6527628258
 20
-26.1599811193
 30
0.0
 10
-0.6701819092
 20
-26.1935648469
 30
0.0
 10
-0.681323047
 20
-26.2118217259
 30
0.0
 10
-0.6841615737
 20
-26.2162977979
 30
0.0
 11
-1.4406942363
 21
-25.6287449773
 31
0.0
 11
-1.4091443184
 21
-25.5847659149
 31
0.0
 11
-1.372274966
 21
-25.5450916998
 31
0.0
 11
-1.3518454132
 21
-25.5268687685
 31
0.0
 11
-1.3300859428
 21
-25.5097219548
 31
0.0
 11
-1.3069965546
 21
-25.4936512585
 31
0.0
 11
-1.2949531414
 21
-25.4860194545
 31
0.0
 11
-1.2825772488
 21
-25.4786566798
 31
0.0
 11
-1.2699305138
 21
-25.471654303
 31
0.0
 11
-1.2570745738
 21
-25.4651036924
 31
0.0
 11
-1.2307350784
 21
-25.4533577699
 31
0.0
 11
-1.2035587625
 21
-25.4434189124
 31
0.0
 11
-1.1755456261
 21
-25.43528712
 31
0.0
 11
-1.1612252502
 21
-25.4318988731
 31
0.0
 11
-1.1466956692
 21
-25.4289623925
 31
0.0
 11
-1.1319568831
 21
-25.4264776781
 31
0.0
 11
-1.1170088918
 21
-25.42444473
 31
0.0
 11
-1.1018516955
 21
-25.4228635481
 31
0.0
 11
-1.0941946454
 21
-25.4222423695
 31
0.0
 11
-1.086485294
 21
-25.4217341325
 31
0.0
 11
-1.0787236413
 21
-25.421338837
 31
0.0
 11
-1.074823202
 21
-25.4211835424
 31
0.0
 11
-1.0709096874
 21
-25.4210564831
 31
0.0
 11
-1.0669830974
 21
-25.4209576593
 31
0.0
 11
-1.0630434322
 21
-25.4208870708
 31
0.0
 11
-1.0610686963
 21
-25.4208623648
 31
0.0
 11
-1.0590906916
 21
-25.4208447177
 31
0.0
 11
-1.0581004634
 21
-25.4208385412
 31
0.0
 11
-1.057109418
 21
-25.4208341294
 31
0.0
 11
-1.0561175555
 21
-25.4208314824
 31
0.0
 11
-1.0556213177
 21
-25.4208308206
 31
0.0
 11
-1.0553731222
 21
-25.4208306551
 31
0.0
 11
-1.0551248757
 21
-25.4208306
 31
0.0
 11
-1.0547256688
 21
-25.4208307231
 31
0.0
 11
-1.0543266157
 21
-25.4208310925
 31
0.0
 11
-1.053528971
 21
-25.4208325701
 31
0.0
 11
-1.0519355272
 21
-25.4208384803
 31
0.0
 11
-1.0503445442
 21
-25.4208483307
 31
0.0
 11
-1.048756022
 21
-25.4208621212
 31
0.0
 11
-1.0455863601
 21
-25.4209015227
 31
0.0
 11
-1.0424265415
 21
-25.4209566848
 31
0.0
 11
-1.0361364342
 21
-25.4211142909
 31
0.0
 11
-1.0298857001
 21
-25.4213349394
 31
0.0
 11
-1.0236743391
 21
-25.4216186303
 31
0.0
 11
-1.0175023514
 21
-25.4219653636
 31
0.0
 11
-1.0052764955
 21
-25.4228479575
 31
0.0
 11
-0.9932081324
 21
-25.4239827211
 31
0.0
 11
-0.981297262
 21
-25.4253696544
 31
0.0
 11
-0.9579479996
 21
-25.42890003
 31
0.0
 11
-0.9352287083
 21
-25.4334390844
 31
0.0
 11
-0.913139388
 21
-25.4389868175
 31
0.0
 11
-0.8916800387
 21
-25.4455432293
 31
0.0
 11
-0.8708506605
 21
-25.45310832
 31
0.0
 11
-0.8310818174
 21
-25.4712645374
 31
0.0
 11
-0.7938328584
 21
-25.4934554699
 31
0.0
 11
-0.7591037837
 21
-25.5196811174
 31
0.0
 11
-0.742684203
 21
-25.5343069592
 31
0.0
 11
-0.7268945933
 21
-25.5499414798
 31
0.0
 11
-0.7119035511
 21
-25.5664487141
 31
0.0
 11
-0.697879673
 21
-25.5836926969
 31
0.0
 11
-0.6727334087
 21
-25.6203909083
 31
0.0
 11
-0.6514558005
 21
-25.6600361138
 31
0.0
 11
-0.6340468483
 21
-25.7026283137
 31
0.0
 11
-0.6205065522
 21
-25.7481675078
 31
0.0
 11
-0.6108349121
 21
-25.7966536961
 31
0.0
 11
-0.607449838
 21
-25.8220019131
 31
0.0
 11
-0.605031928
 21
-25.8480868787
 31
0.0
 11
-0.6041856595
 21
-25.8614056422
 31
0.0
 11
-0.603581182
 21
-25.8749085928
 31
0.0
 11
-0.6032184955
 21
-25.8885957306
 31
0.0
 11
-0.6031278239
 21
-25.8955083697
 31
0.0
 11
-0.603105156
 21
-25.8989819567
 31
0.0
 11
-0.6030976
 21
-25.9024670555
 31
0.0
 11
-0.6031054973
 21
-25.9061328084
 31
0.0
 11
-0.6031291892
 21
-25.9097872338
 31
0.0
 11
-0.6032239568
 21
-25.9170621018
 31
0.0
 11
-0.6033819027
 21
-25.9242916594
 31
0.0
 11
-0.603603027
 21
-25.9314759068
 31
0.0
 11
-0.6042348108
 21
-25.9457084705
 31
0.0
 11
-0.6051193081
 21
-25.9597597929
 31
0.0
 11
-0.6076464432
 21
-25.987318714
 31
0.0
 11
-0.6111844324
 21
-26.0141526699
 31
0.0
 11
-0.6157332756
 21
-26.0402616608
 31
0.0
 11
-0.6212929728
 21
-26.0656456865
 31
0.0
 11
-0.6354449294
 21
-26.1142388427
 31
0.0
 11
-0.6536403022
 21
-26.1599321384
 31
0.0
 11
-0.6758790912
 21
-26.2027255737
 31
0.0
 11
-0.6841615737
 21
-26.2162977979
 31
0.0
  0
SPLINE
  5
42A
100
AcDbEntity
  8
0
100
AcDbSpline
 62
7
  6
CONTINUOUS
 70
0
 71
3
 72
103
 73
99
 74
97
 42
0.0000001
 43
0.0000001
 44
0.0000000001
 12
0.220906292
 22
-2.2758930591
 32
0.0
 13
-0.2848015842
 23
2.2689310205
 33
0.0
 40
0.0
 40
0.0
 40
0.0
 40
0.0
 40
0.0498858799
 40
0.0970425677
 40
0.1427025921
 40
0.1654142773
 40
0.1882630225
 40
0.1997946421
 40
0.2114236736
 40
0.2231199422
 40
0.2347655633
 40
0.2579633568
 40
0.2811923588
 40
0.3046297493
 40
0.3284480586
 40
0.3528117257
 40
0.3652488335
 40
0.377878874
 40
0.3907191012
 40
0.4037859365
 40
0.4104094682
 40
0.4170954235
 40
0.4238456199
 40
0.4272453895
 40
0.4306618773
 40
0.4323764604
 40
0.4340953027
 40
0.4358184301
 40
0.4366816093
 40
0.4375458695
 40
0.437978406
 40
0.438411214
 40
0.4394399689
 40
0.4404944457
 40
0.4415474106
 40
0.4436488298
 40
0.4457442819
 40
0.4499174875
 40
0.454067479
 40
0.4622994953
 40
0.4704440945
 40
0.478505049
 40
0.4864862496
 40
0.4943917048
 40
0.5253292525
 40
0.55540358
 40
0.5849209678
 40
0.6142051763
 40
0.628868597
 40
0.6435979573
 40
0.6584340473
 40
0.673416785
 40
0.6885849308
 40
0.6962508326
 40
0.7039769624
 40
0.7078640656
 40
0.7117678736
 40
0.7137262176
 40
0.715688938
 40
0.7166719608
 40
0.7171638914
 40
0.7174035494
 40
0.7176047483
 40
0.7180070629
 40
0.7184092668
 40
0.7192133449
 40
0.7208201958
 40
0.7224253362
 40
0.7256306128
 40
0.7288294563
 40
0.7320221415
 40
0.7383900739
 40
0.7447367076
 40
0.7510642938
 40
0.757375104
 40
0.7699549932
 40
0.7824954411
 40
0.7950151185
 40
0.8075327888
 40
0.8326324647
 40
0.8579480333
 40
0.8836246079
 40
0.8966441182
 40
0.909805406
 40
0.9231246253
 40
0.9298485898
 40
0.9366178317
 40
0.9434342065
 40
0.946860666
 40
0.9502995869
 40
0.952023793
 40
0.9538225746
 40
0.9574316279
 40
0.9645970451
 40
0.9716941652
 40
0.9787252825
 40
0.9925983979
 40
1.0
 40
1.0
 40
1.0
 40
1.0
 10
-1.7347438401
 20
-26.0416019874
 30
0.0
 10
-1.7310704718
 20
-26.0794469633
 30
0.0
 10
-1.7190987056
 20
-26.152745198
 30
0.0
 10
-1.6850859007
 20
-26.2565364415
 30
0.0
 10
-1.6436375512
 20
-26.3347821952
 30
0.0
 10
-1.6032256787
 20
-26.3914486541
 30
0.0
 10
-1.5749345873
 20
-26.4245928196
 30
0.0
 10
-1.5505041521
 20
-26.4497623484
 30
0.0
 10
-1.5312101878
 20
-26.468038325
 30
0.0
 10
-1.51111413
 20
-26.4855615281
 30
0.0
 10
-1.4833824925
 20
-26.5076953069
 30
0.0
 10
-1.4470056766
 20
-26.5330208026
 30
0.0
 10
-1.4007398496
 20
-26.5595192213
 30
0.0
 10
-1.3519157121
 20
-26.5820934483
 30
0.0
 10
-1.300545692
 20
-26.6007410888
 30
0.0
 10
-1.2559238769
 20
-26.6129284845
 30
0.0
 10
-1.2190604956
 20
-26.6207453905
 30
0.0
 10
-1.1905841125
 20
-26.6256748535
 30
0.0
 10
-1.1614726851
 20
-26.6296298483
 30
0.0
 10
-1.1367962147
 20
-26.6321026673
 30
0.0
 10
-1.1167473851
 20
-26.6336002465
 30
0.0
 10
-1.1014828852
 20
-26.6344852769
 30
0.0
 10
-1.0886611025
 20
-26.6350187573
 30
0.0
 10
-1.0783252437
 20
-26.6353247715
 30
0.0
 10
-1.0718245176
 20
-26.635465643
 30
0.0
 10
-1.066604179
 20
-26.6355480453
 30
0.0
 10
-1.0626741402
 20
-26.6355947205
 30
0.0
 10
-1.0593928675
 20
-26.6356209313
 30
0.0
 10
-1.0567628909
 20
-26.6356343123
 30
0.0
 10
-1.0551165723
 20
-26.6356395129
 30
0.0
 10
-1.0537982757
 20
-26.6356417722
 30
0.0
 10
-1.0523546004
 20
-26.6356428691
 30
0.0
 10
-1.050436883
 20
-26.6356411307
 30
0.0
 10
-1.0480464967
 20
-26.6356330052
 30
0.0
 10
-1.0448385717
 20
-26.6356140626
 30
0.0
 10
-1.0408373338
 20
-26.6355753241
 30
0.0
 10
-1.0344583652
 20
-26.6354812501
 30
0.0
 10
-1.0265191378
 20
-26.6353035601
 30
0.0
 10
-1.013907377
 20
-26.6348912422
 30
0.0
 10
-0.9982790409
 20
-26.6341363239
 30
0.0
 10
-0.9796964393
 20
-26.6328415767
 30
0.0
 10
-0.9613367757
 20
-26.6311604908
 30
0.0
 10
-0.9431996418
 20
-26.6290929184
 30
0.0
 10
-0.9078396198
 20
-26.6242495464
 30
0.0
 10
-0.8561991805
 20
-26.6141539362
 30
0.0
 10
-0.7900042676
 20
-26.5942705384
 30
0.0
 10
-0.7273757884
 20
-26.5681324096
 30
0.0
 10
-0.6781855838
 20
-26.5411372384
 30
0.0
 10
-0.6408105518
 20
-26.5165438549
 30
0.0
 10
-0.6136561003
 20
-26.4965394931
 30
0.0
 10
-0.5873987381
 20
-26.4749875632
 30
0.0
 10
-0.5620378247
 20
-26.4518888401
 30
0.0
 10
-0.5417224722
 20
-26.4314232474
 30
0.0
 10
-0.5259273624
 20
-26.4143014978
 30
0.0
 10
-0.5162258303
 20
-26.4032626777
 30
0.0
 10
-0.5085771334
 20
-26.3942415403
 30
0.0
 10
-0.5038384231
 20
-26.3885174649
 30
0.0
 10
-0.500075493
 20
-26.3838902623
 30
0.0
 10
-0.4977338751
 20
-26.3809767188
 30
0.0
 10
-0.4961015912
 20
-26.3789270796
 30
0.0
 10
-0.4952892877
 20
-26.3779033254
 30
0.0
 10
-0.4948485492
 20
-26.3773454481
 30
0.0
 10
-0.4944470907
 20
-26.3768436035
 30
0.0
 10
-0.4939697607
 20
-26.3762438025
 30
0.0
 10
-0.4932068307
 20
-26.3752840228
 30
0.0
 10
-0.4918757558
 20
-26.3736030508
 30
0.0
 10
-0.4899836142
 20
-26.3711968509
 30
0.0
 10
-0.4869779479
 20
-26.367338079
 30
0.0
 10
-0.4832599088
 20
-26.3624961974
 30
0.0
 10
-0.4788587688
 20
-26.356653626
 30
0.0
 10
-0.4730796154
 20
-26.3488316441
 30
0.0
 10
-0.4660112885
 20
-26.3389797531
 30
0.0
 10
-0.4577729428
 20
-26.3270296183
 30
0.0
 10
-0.449785842
 20
-26.314962187
 30
0.0
 10
-0.439482999
 20
-26.2987342705
 30
0.0
 10
-0.4272232955
 20
-26.2781446801
 30
0.0
 10
-0.413502396
 20
-26.252941613
 30
0.0
 10
-0.4007875933
 20
-26.2272684571
 30
0.0
 10
-0.3851639419
 20
-26.1923853704
 30
0.0
 10
-0.3681173991
 20
-26.1474933446
 30
0.0
 10
-0.351730037
 20
-26.0918043145
 30
0.0
 10
-0.3414905269
 20
-26.0440521821
 30
0.0
 10
-0.335302574
 20
-26.0050073076
 30
0.0
 10
-0.3316454932
 20
-25.9751170274
 30
0.0
 10
-0.3294435097
 20
-25.9498993899
 30
0.0
 10
-0.3281804521
 20
-25.9295013421
 30
0.0
 10
-0.3274813883
 20
-25.9140365183
 30
0.0
 10
-0.32710891
 20
-25.9010747083
 30
0.0
 10
-0.3269358949
 20
-25.8906478701
 30
0.0
 10
-0.3268799807
 20
-25.8841010776
 30
0.0
 10
-0.3268663797
 20
-25.878794743
 30
0.0
 10
-0.3268747154
 20
-25.8733587175
 30
0.0
 10
-0.3269515491
 20
-25.8637756331
 30
0.0
 10
-0.3272386697
 20
-25.8501562477
 30
0.0
 10
-0.3278697514
 20
-25.8339376713
 30
0.0
 10
-0.3290865371
 20
-25.8126288903
 30
0.0
 10
-0.3309110616
 20
-25.7911261406
 30
0.0
 10
-0.3327603948
 20
-25.7750142686
 30
0.0
 10
-0.3334630575
 20
-25.7694163604
 30
0.0
 11
-1.7347438401
 21
-26.0416019874
 31
0.0
 11
-1.7158133847
 21
-26.1540887001
 31
0.0
 11
-1.6818439799
 21
-26.2564261254
 31
0.0
 11
-1.6328355856
 21
-26.3486146759
 31
0.0
 11
-1.6026917674
 21
-26.3909031231
 31
0.0
 11
-1.5687882019
 21
-26.4306543516
 31
0.0
 11
-1.5504265138
 21
-26.4495785088
 31
0.0
 11
-1.5311248889
 21
-26.4678683614
 31
0.0
 11
-1.5109606571
 21
-26.4854375148
 31
0.0
 11
-1.4901472491
 21
-26.5020475203
 31
0.0
 11
-1.4466100225
 21
-26.5323486181
 31
0.0
 11
-1.4005255821
 21
-26.5587578319
 31
0.0
 11
-1.3518939277
 21
-26.5812751615
 31
0.0
 11
-1.3007150595
 21
-26.599900607
 31
0.0
 11
-1.2469889773
 21
-26.6146341683
 31
0.0
 11
-1.219170731
 21
-26.6205414924
 31
0.0
 11
-1.1907156812
 21
-26.6254758455
 31
0.0
 11
-1.161623828
 21
-26.6294372276
 31
0.0
 11
-1.1318951712
 21
-26.6324256386
 31
0.0
 11
-1.1167920416
 21
-26.63355498
 31
0.0
 11
-1.101529711
 21
-26.6344410786
 31
0.0
 11
-1.0861081796
 21
-26.6350839345
 31
0.0
 11
-1.0783377136
 21
-26.6353141464
 31
0.0
 11
-1.0705274474
 21
-26.6354835476
 31
0.0
 11
-1.0666073891
 21
-26.6355454442
 31
0.0
 11
-1.0626773809
 21
-26.6355921381
 31
0.0
 11
-1.0587374226
 21
-26.6356236294
 31
0.0
 11
-1.0567637121
 21
-26.635633674
 31
0.0
 11
-1.0547875142
 21
-26.6356399179
 31
0.0
 11
-1.0537984824
 21
-26.6356416147
 31
0.0
 11
-1.0528088288
 21
-26.6356423612
 31
0.0
 11
-1.0504564902
 21
-26.6356401833
 31
0.0
 11
-1.0480453491
 21
-26.6356319937
 31
0.0
 11
-1.0456376932
 21
-26.6356177696
 31
0.0
 11
-1.0408328368
 21
-26.6355712182
 31
0.0
 11
-1.0360419208
 21
-26.635500529
 31
0.0
 11
-1.0265019104
 21
-26.6352867374
 31
0.0
 11
-1.0170176618
 21
-26.6349763946
 31
0.0
 11
-0.9982164505
 21
-26.6340660559
 31
0.0
 11
-0.9796382869
 21
-26.6327695129
 31
0.0
 11
-0.961283171
 21
-26.6310867656
 31
0.0
 11
-0.9431511028
 21
-26.629017814
 31
0.0
 11
-0.9252420823
 21
-26.6265626581
 31
0.0
 11
-0.8558364774
 21
-26.6128799914
 31
0.0
 11
-0.7899996359
 21
-26.5930180559
 31
0.0
 11
-0.7277315577
 21
-26.5669768516
 31
0.0
 11
-0.6690322428
 21
-26.5347563785
 31
0.0
 11
-0.6410208717
 21
-26.5163289161
 31
0.0
 11
-0.6139016913
 21
-26.4963566365
 31
0.0
 11
-0.5876747018
 21
-26.4748395398
 31
0.0
 11
-0.5623399031
 21
-26.4517776258
 31
0.0
 11
-0.5378972953
 21
-26.4271708946
 31
0.0
 11
-0.526010563
 21
-26.4142882226
 31
0.0
 11
-0.5143468783
 21
-26.4010193462
 31
0.0
 11
-0.5085986789
 21
-26.3942400814
 31
0.0
 11
-0.5029062414
 21
-26.3873642656
 31
0.0
 11
-0.5000809333
 21
-26.383890151
 31
0.0
 11
-0.4972695658
 21
-26.3803918986
 31
0.0
 11
-0.4958691097
 21
-26.3786337208
 31
0.0
 11
-0.4951701886
 21
-26.377752369
 31
0.0
 11
-0.4948299041
 21
-26.377322823
 31
0.0
 11
-0.4945429491
 21
-26.3769632241
 31
0.0
 11
-0.4939697753
 21
-26.3762436831
 31
0.0
 11
-0.4933975828
 21
-26.3755236845
 31
0.0
 11
-0.4922561417
 21
-26.3740823146
 31
0.0
 11
-0.4899850358
 21
-26.3711940835
 31
0.0
 11
-0.4877296313
 21
-26.3682985309
 31
0.0
 11
-0.4832659268
 21
-26.3624854608
 31
0.0
 11
-0.4788650282
 21
-26.3566431045
 31
0.0
 11
-0.4745269355
 21
-26.3507714619
 31
0.0
 11
-0.4660391677
 21
-26.3389403178
 31
0.0
 11
-0.4578026235
 21
-26.3269920285
 31
0.0
 11
-0.4498173028
 21
-26.3149265941
 31
0.0
 11
-0.4420832057
 21
-26.3027440144
 31
0.0
 11
-0.4273686823
 21
-26.2780274197
 31
0.0
 11
-0.4136590532
 21
-26.2528422442
 31
0.0
 11
-0.4009543183
 21
-26.227188488
 31
0.0
 11
-0.3892544777
 21
-26.2010661512
 31
0.0
 11
-0.3688694794
 21
-26.1474157353
 31
0.0
 11
-0.3525040582
 21
-26.0918909967
 31
0.0
 11
-0.3401582142
 21
-26.0344919354
 31
0.0
 11
-0.3354926336
 21
-26.0050895336
 31
0.0
 11
-0.3318319473
 21
-25.9752185512
 31
0.0
 11
-0.3291761552
 21
-25.9448789881
 31
0.0
 11
-0.3282250946
 21
-25.9295334888
 31
0.0
 11
-0.3275252575
 21
-25.9140708443
 31
0.0
 11
-0.327076644
 21
-25.8984910546
 31
0.0
 11
-0.3269465461
 21
-25.8906572303
 31
0.0
 11
-0.326879254
 21
-25.8827941197
 31
0.0
 11
-0.3268691602
 21
-25.8788515821
 31
0.0
 11
-0.3268755566
 21
-25.8747385129
 31
0.0
 11
-0.326941851
 21
-25.8664863579
 31
0.0
 11
-0.3272886219
 21
-25.8501056643
 31
0.0
 11
-0.3279209687
 21
-25.8338897928
 31
0.0
 11
-0.3288388915
 21
-25.8178387433
 31
0.0
 11
-0.3315314651
 21
-25.7862311105
 31
0.0
 11
-0.3334630575
 21
-25.7694163604
 31
0.0
  0
SPLINE
  5
42B
100
AcDbEntity
  8
0
100
AcDbSpline
 62
7
  6
CONTINUOUS
 70
0
 71
3
 72
21
 73
17
 74
15
 42
0.0000001
 43
0.0000001
 44
0.0000000001
 12
-0.3676027567
 22
-0.742203314
 32
0.0
 13
-0.7496027277
 23
-0.3522687887
 33
0.0
 40
0.0
 40
0.0
 40
0.0
 40
0.0
 40
0.0718616353
 40
0.1486225004
 40
0.2308040553
 40
0.3188312529
 40
0.3651523259
 40
0.4130587671
 40
0.4376175623
 40
0.4625082711
 40
0.5125366963
 40
0.5628806315
 40
0.6135819578
 40
0.7162099545
 40
0.8560569094
 40
1.0
 40
1.0
 40
1.0
 40
1.0
 10
-2.5744749168
 20
-24.4644259946
 30
0.0
 10
-2.5832804285
 20
-24.4822046425
 30
0.0
 10
-2.6033941373
 20
-24.5180518221
 30
0.0
 10
-2.6393651619
 20
-24.5707290205
 30
0.0
 10
-2.6820486659
 20
-24.6239755927
 30
0.0
 10
-2.7224940326
 20
-24.6680518797
 30
0.0
 10
-2.7580772131
 20
-24.7036348997
 30
0.0
 10
-2.7818944433
 20
-24.7261856928
 30
0.0
 10
-2.801759092
 20
-24.7442927971
 30
0.0
 10
-2.8222855322
 20
-24.7625407955
 30
0.0
 10
-2.8486453168
 20
-24.7849355384
 30
0.0
 10
-2.8812032221
 20
-24.8110142163
 30
0.0
 10
-2.926086403
 20
-24.8448985382
 30
0.0
 10
-2.9927363493
 20
-24.890902526
 30
0.0
 10
-3.0843038129
 20
-24.945818632
 30
0.0
 10
-3.1541752927
 20
-24.9814175151
 30
0.0
 10
-3.1901420038
 20
-24.9983197345
 30
0.0
 11
-2.5744749168
 21
-24.4644259946
 31
0.0
 11
-2.6034439854
 21
-24.5164197374
 31
0.0
 11
-2.6391497437
 21
-24.5690234869
 31
0.0
 11
-2.6815922933
 21
-24.6222374484
 31
0.0
 11
-2.7307716342
 21
-24.6760616221
 31
0.0
 11
-2.7578876015
 21
-24.7032025385
 31
0.0
 11
-2.7866877665
 21
-24.730496008
 31
0.0
 11
-2.8017194233
 21
-24.7441999501
 31
0.0
 11
-2.8171324277
 21
-24.7578910889
 31
0.0
 11
-2.8487054628
 21
-24.7847255415
 31
0.0
 11
-2.8812480649
 21
-24.8107955999
 31
0.0
 11
-2.914760234
 21
-24.8361012638
 31
0.0
 11
-2.9846932733
 21
-24.8844194087
 31
0.0
 11
-3.0839701873
 21
-24.9440873703
 31
0.0
 11
-3.1901420038
 21
-24.9983197345
 31
0.0
  0
SPLINE
  5
42C
100
AcDbEntity
  8
0
100
AcDbSpline
 62
7
  6
CONTINUOUS
 70
0
 71
3
 72
21
 73
17
 74
15
 42
0.0000001
 43
0.0000001
 44
0.0000000001
 12
0.575618868
 22
0.2122429243
 32
0.0
 13
0.4441665712
 23
0.423202316
 33
0.0
 40
0.0
 40
0.0
 40
0.0
 40
0.0
 40
0.0820470158
 40
0.1693824629
 40
0.2621297599
 40
0.3603916411
 40
0.4116192768
 40
0.4642567569
 40
0.4911070816
 40
0.5181532745
 40
0.5712406205
 40
0.6228940038
 40
0.6731289974
 40
0.7694082281
 40
0.8893240792
 40
1.0
 40
1.0
 40
1.0
 40
1.0
 10
-3.1901420031
 20
-25.2507403035
 30
0.0
 10
-3.1743993997
 20
-25.2449356706
 30
0.0
 10
-3.1421755292
 20
-25.2321946647
 30
0.0
 10
-3.0931361167
 20
-25.210516654
 30
0.0
 10
-3.0419052943
 20
-25.1856838797
 30
0.0
 10
-2.9980180498
 20
-25.1626918755
 30
0.0
 10
-2.961806302
 20
-25.1427576557
 30
0.0
 10
-2.9385607902
 20
-25.129556946
 30
0.0
 10
-2.9197172735
 20
-25.1186222718
 30
0.0
 10
-2.9008620309
 20
-25.1075252095
 30
0.0
 10
-2.8778025067
 20
-25.0935732102
 30
0.0
 10
-2.8509644698
 20
-25.0767136218
 30
0.0
 10
-2.817037395
 20
-25.0545459568
 30
0.0
 10
-2.7722614583
 20
-25.0234766608
 30
0.0
 10
-2.7192309518
 20
-24.982719728
 30
0.0
 10
-2.6837731649
 20
-24.9515585727
 30
0.0
 10
-2.6673869835
 20
-24.9359458041
 30
0.0
 11
-3.1901420031
 21
-25.2507403035
 31
0.0
 11
-3.1433073068
 21
-25.2322952187
 31
0.0
 11
-3.0942767074
 21
-25.2106882071
 31
0.0
 11
-3.0430500018
 21
-25.1859191939
 31
0.0
 11
-2.9896271901
 21
-25.1579881789
 31
0.0
 11
-2.9620922444
 21
-25.1428369208
 31
0.0
 11
-2.9340082722
 21
-25.1268951623
 31
0.0
 11
-2.9197604011
 21
-25.1186278453
 31
0.0
 11
-2.9054631974
 21
-25.11020682
 31
0.0
 11
-2.8776000325
 21
-25.0933428117
 31
0.0
 11
-2.8507704734
 21
-25.0764788041
 31
0.0
 11
-2.8249745203
 21
-25.0596147973
 31
0.0
 11
-2.7764834317
 21
-25.0258867862
 31
0.0
 11
-2.7182599726
 21
-24.9809161096
 31
0.0
 11
-2.6673869835
 21
-24.9359458041
 31
0.0
  0
SPLINE
  5
42D
100
AcDbEntity
  8
0
100
AcDbSpline
 62
7
  6
CONTINUOUS
 70
0
 71
3
 72
60
 73
56
 74
54
 42
0.0000001
 43
0.0000001
 44
0.0000000001
 12
0.0027337226
 22
1.2661606237
 32
0.0
 13
-0.0005509227
 23
-1.2690707996
 33
0.0
 40
0.0
 40
0.0
 40
0.0
 40
0.0
 40
0.000797052
 40
0.0089907701
 40
0.0171125443
 40
0.0331559034
 40
0.0489626344
 40
0.0645687855
 40
0.095320564
 40
0.1257331556
 40
0.1561297511
 40
0.1868340465
 40
0.2024050985
 40
0.2181694656
 40
0.2341634871
 40
0.2422580815
 40
0.2504229979
 40
0.2585887333
 40
0.2666858385
 40
0.2826902227
 40
0.2984725565
 40
0.3140697023
 40
0.3448523405
 40
0.3753648558
 40
0.405932989
 40
0.4368807248
 40
0.4525999098
 40
0.4685295419
 40
0.4847054724
 40
0.4928970813
 40
0.4970205466
 40
0.5011630849
 40
0.5092874526
 40
0.5173432387
 40
0.5332648168
 40
0.5644663043
 40
0.5950714424
 40
0.6253919999
 40
0.6557485148
 40
0.6864603991
 40
0.702051312
 40
0.7178452762
 40
0.7338778073
 40
0.7419947223
 40
0.7501838708
 40
0.758373266
 40
0.7664910106
 40
0.7825274056
 40
0.7983290436
 40
0.8139324505
 40
0.8446875827
 40
0.875118563
 40
0.9055519489
 40
0.9363142215
 40
1.0
 40
1.0
 40
1.0
 40
1.0
 10
0.7810145021
 20
-24.8404231136
 30
0.0
 10
0.7810152285
 20
-24.8400867149
 30
0.0
 10
0.7810193524
 20
-24.8362921193
 30
0.0
 10
0.7809401013
 20
-24.8290696936
 30
0.0
 10
0.7804843421
 20
-24.8154194942
 30
0.0
 10
0.7793467373
 20
-24.7985815467
 30
0.0
 10
0.7770558961
 20
-24.7786763945
 30
0.0
 10
0.772797053
 20
-24.7527796525
 30
0.0
 10
0.7651718297
 20
-24.7212276829
 30
0.0
 10
0.7522642997
 20
-24.6847319791
 30
0.0
 10
0.7356466031
 20
-24.6497913267
 30
0.0
 10
0.7187853071
 20
-24.6221021734
 30
0.0
 10
0.7035364937
 20
-24.6008068329
 30
0.0
 10
0.6911260479
 20
-24.5851446309
 30
0.0
 10
0.6800630568
 20
-24.5724666169
 30
0.0
 10
0.6707658534
 20
-24.562522486
 30
0.0
 10
0.6635570686
 20
-24.5551524443
 30
0.0
 10
0.6561858406
 20
-24.5479433369
 30
0.0
 10
0.6462346691
 20
-24.5386451733
 30
0.0
 10
0.6335404768
 20
-24.5275807725
 30
0.0
 10
0.6178488512
 20
-24.5151703088
 30
0.0
 10
0.59649296
 20
-24.4999171322
 30
0.0
 10
0.5686967035
 20
-24.4830517073
 30
0.0
 10
0.5335911806
 20
-24.4664361235
 30
0.0
 10
0.496885161
 20
-24.453531286
 30
0.0
 10
0.465130576
 20
-24.4459106027
 30
0.0
 10
0.4390489202
 20
-24.4416533832
 30
0.0
 10
0.4189872201
 20
-24.4393628125
 30
0.0
 10
0.4020117238
 20
-24.4382255892
 30
0.0
 10
0.3899929765
 20
-24.4378276629
 30
0.0
 10
0.3830479365
 20
-24.4377134476
 30
0.0
 10
0.3761304691
 20
-24.4376754202
 30
0.0
 10
0.3675531351
 20
-24.4377697872
 30
0.0
 10
0.3540113549
 20
-24.4382259544
 30
0.0
 10
0.3307701612
 20
-24.439808125
 30
0.0
 10
0.2982251356
 20
-24.444350326
 30
0.0
 10
0.2603795329
 20
-24.4535477597
 30
0.0
 10
0.2240086116
 20
-24.466458421
 30
0.0
 10
0.1891285285
 20
-24.4830779862
 30
0.0
 10
0.1614433684
 20
-24.4999335795
 30
0.0
 10
0.1401149051
 20
-24.5151771002
 30
0.0
 10
0.1244054427
 20
-24.5275873686
 30
0.0
 10
0.1116756761
 20
-24.5386487964
 30
0.0
 10
0.1016814801
 20
-24.547944914
 30
0.0
 10
0.0942693195
 20
-24.5551529213
 30
0.0
 10
0.0870166308
 20
-24.5625218917
 30
0.0
 10
0.0776632678
 20
-24.5724654423
 30
0.0
 10
0.0665331853
 20
-24.5851424134
 30
0.0
 10
0.0540466439
 20
-24.6008045771
 30
0.0
 10
0.0387063924
 20
-24.6220968686
 30
0.0
 10
0.0217431176
 20
-24.6497824899
 30
0.0
 10
0.0050218224
 20
-24.6847234315
 30
0.0
 10
-0.0079651554
 20
-24.7212232595
 30
0.0
 10
-0.0204469195
 20
-24.7725189565
 30
0.0
 10
-0.0238969047
 20
-24.8124733287
 30
0.0
 10
-0.0239086
 20
-24.839413916
 30
0.0
 11
0.7810145021
 21
-24.8404231136
 31
0.0
 11
0.7810156
 21
-24.839413916
 31
0.0
 11
0.7809008682
 21
-24.8290402193
 31
0.0
 11
0.780556673
 21
-24.8187627405
 31
0.0
 11
0.779179892
 21
-24.7984964367
 31
0.0
 11
0.776885257
 21
-24.7786150046
 31
0.0
 11
0.773672768
 21
-24.7591184443
 31
0.0
 11
0.7644942279
 21
-24.7212799386
 31
0.0
 11
0.7516442718
 21
-24.6849809198
 31
0.0
 11
0.7351228998
 21
-24.6502213878
 31
0.0
 11
0.7149301116
 21
-24.6170013426
 31
0.0
 11
0.7034569366
 21
-24.6009686275
 31
0.0
 11
0.6910659075
 21
-24.5853207842
 31
0.0
 11
0.6777570244
 21
-24.5700578126
 31
0.0
 11
0.6707583877
 21
-24.5625706536
 31
0.0
 11
0.6635302874
 21
-24.5551797126
 31
0.0
 11
0.6561378961
 21
-24.5479516123
 31
0.0
 11
0.6486463862
 21
-24.5409529756
 31
0.0
 11
0.6333660108
 21
-24.5276440925
 31
0.0
 11
0.6176891611
 21
-24.5152530634
 31
0.0
 11
0.6016158373
 21
-24.5037798884
 31
0.0
 11
0.5682797669
 21
-24.4835871002
 31
0.0
 11
0.5333577995
 21
-24.4670657282
 31
0.0
 11
0.4968499353
 21
-24.4542157721
 31
0.0
 11
0.4587561742
 21
-24.445037232
 31
0.0
 11
0.4391145823
 21
-24.441824743
 31
0.0
 11
0.4190765162
 21
-24.439530108
 31
0.0
 11
0.3986419759
 21
-24.438153327
 31
0.0
 11
0.3882760279
 21
-24.4378091318
 31
0.0
 11
0.3830558844
 21
-24.4377230829
 31
0.0
 11
0.3778109613
 21
-24.4376944
 31
0.0
 11
0.3675250766
 21
-24.4378091318
 31
0.0
 11
0.3573311949
 21
-24.438153327
 31
0.0
 11
0.33721944
 21
-24.439530108
 31
0.0
 11
0.2980999652
 21
-24.445037232
 31
0.0
 11
0.2604525368
 21
-24.4542157721
 31
0.0
 11
0.2242771548
 21
-24.4670657282
 31
0.0
 11
0.1895738193
 21
-24.4835871002
 31
0.0
 11
0.1563425303
 21
-24.5037798884
 31
0.0
 11
0.1402789032
 21
-24.5152530634
 31
0.0
 11
0.1245832877
 21
-24.5276440925
 31
0.0
 11
0.1092556838
 21
-24.5409529756
 31
0.0
 11
0.1017298863
 21
-24.5479516123
 31
0.0
 11
0.0942960916
 21
-24.5551797126
 31
0.0
 11
0.0870237326
 21
-24.5625706536
 31
0.0
 11
0.0799822422
 21
-24.5700578126
 31
0.0
 11
0.066591867
 21
-24.5853207842
 31
0.0
 11
0.0541249659
 21
-24.6009686275
 31
0.0
 11
0.042581539
 21
-24.6170013426
 31
0.0
 11
0.0222651076
 21
-24.6502213878
 31
0.0
 11
0.0056425729
 21
-24.6849809198
 31
0.0
 11
-0.0072860652
 21
-24.7212799386
 31
0.0
 11
-0.0165208068
 21
-24.7591184443
 31
0.0
 11
-0.0239086
 21
-24.839413916
 31
0.0
  0
SPLINE
  5
42E
100
AcDbEntity
  8
0
100
AcDbSpline
 62
7
  6
CONTINUOUS
 70
0
 71
3
 72
57
 73
53
 74
51
 42
0.0000001
 43
0.0000001
 44
0.0000000001
 12
-0.0005509227
 22
-1.2690707996
 32
0.0
 13
0.0027337226
 23
1.2661606237
 33
0.0
 40
0.0
 40
0.0
 40
0.0
 40
0.0
 40
0.0641968085
 40
0.0951549733
 40
0.125743797
 40
0.1562905687
 40
0.1871239172
 40
0.2027533654
 40
0.2185729291
 40
0.234619661
 40
0.24273991
 40
0.2509301225
 40
0.2591192718
 40
0.2672361875
 40
0.2832687199
 40
0.2990626853
 40
0.3146535993
 40
0.3453654852
 40
0.3757220011
 40
0.4060425592
 40
0.4366476977
 40
0.4678491853
 40
0.4837707635
 40
0.4999498844
 40
0.5081464184
 40
0.5162720944
 40
0.5323266914
 40
0.5481495614
 40
0.5637771039
 40
0.5945886205
 40
0.62508541
 40
0.6555921072
 40
0.6864330339
 40
0.7020823161
 40
0.7179314255
 40
0.7340165813
 40
0.7421590919
 40
0.750373465
 40
0.7585878382
 40
0.7667303489
 40
0.7828155049
 40
0.7986646145
 40
0.8143138972
 40
0.8451548249
 40
0.8756615233
 40
0.906158314
 40
0.9369698316
 40
0.9525973745
 40
0.9684202448
 40
0.984474842
 40
0.992600518
 40
1.0
 40
1.0
 40
1.0
 40
1.0
 10
-0.0239086
 20
-24.839413916
 30
0.0
 10
-0.0239203892
 20
-24.866570681
 30
0.0
 10
-0.0204517798
 20
-24.9068228532
 30
0.0
 10
-0.0079730619
 20
-24.9584926106
 30
0.0
 10
0.0050124305
 20
-24.9952026784
 30
0.0
 10
0.0217312848
 20
-25.0303085509
 30
0.0
 10
0.0386988096
 20
-25.0581012658
 30
0.0
 10
0.0540434329
 20
-25.0794540958
 30
0.0
 10
0.0665300054
 20
-25.095145679
 30
0.0
 10
0.0776614781
 20
-25.1078388461
 30
0.0
 10
0.0870158522
 20
-25.1177893846
 30
0.0
 10
0.0942689534
 20
-25.1251599373
 30
0.0
 10
0.1016815109
 20
-25.1323680332
 30
0.0
 10
0.1116756585
 20
-25.141664202
 30
0.0
 10
0.1244054484
 20
-25.152725608
 30
0.0
 10
0.1401149036
 20
-25.1651358863
 30
0.0
 10
0.1614433689
 20
-25.1803794077
 30
0.0
 10
0.1891285297
 20
-25.1972350042
 30
0.0
 10
0.2240086051
 20
-25.2138545767
 30
0.0
 10
0.2603795564
 20
-25.2267652245
 30
0.0
 10
0.2982250455
 20
-25.2359627212
 30
0.0
 10
0.3307704332
 20
-25.2405047277
 30
0.0
 10
0.3574323984
 20
-25.2423202316
 30
0.0
 10
0.3744421068
 20
-25.2426943302
 30
0.0
 10
0.3881591675
 20
-25.2425425687
 30
0.0
 10
0.401816932
 20
-25.2420840486
 30
0.0
 10
0.4186676635
 20
-25.2409392171
 30
0.0
 10
0.4385919784
 20
-25.2386341715
 30
0.0
 10
0.4645259356
 20
-25.2343481711
 30
0.0
 10
0.4961381278
 20
-25.2266732504
 30
0.0
 10
0.5327192602
 20
-25.2136849184
 30
0.0
 10
0.5677656471
 20
-25.1969640936
 30
0.0
 10
0.5955540713
 20
-25.1800022918
 30
0.0
 10
0.6169400725
 20
-25.1646629736
 30
0.0
 10
0.6326788834
 20
-25.1521765675
 30
0.0
 10
0.6454238562
 20
-25.1410467074
 30
0.0
 10
0.6554243679
 20
-25.1316933203
 30
0.0
 10
0.662837837
 20
-25.1244408143
 30
0.0
 10
0.6700903415
 20
-25.1170273438
 30
0.0
 10
0.6794437269
 20
-25.1070268304
 30
0.0
 10
0.6905735849
 20
-25.0942818553
 30
0.0
 10
0.7030599886
 20
-25.078543042
 30
0.0
 10
0.7183993039
 20
-25.0571570379
 30
0.0
 10
0.7353611023
 20
-25.0293686104
 30
0.0
 10
0.7520819242
 20
-24.9943222205
 30
0.0
 10
0.7650702524
 20
-24.9577410853
 30
0.0
 10
0.7727451756
 20
-24.9261288932
 30
0.0
 10
0.7770311669
 20
-24.9001949318
 30
0.0
 10
0.7793362382
 20
-24.8802706268
 30
0.0
 10
0.7804809865
 20
-24.8634198624
 30
0.0
 10
0.7809283863
 20
-24.8500983905
 30
0.0
 10
0.7810077594
 20
-24.8435460911
 30
0.0
 10
0.7810145021
 20
-24.8404231136
 30
0.0
 11
-0.0239086
 21
-24.839413916
 31
0.0
 11
-0.0165208068
 21
-24.9203591303
 31
0.0
 11
-0.0072860652
 21
-24.9584528932
 31
0.0
 11
0.0056425729
 21
-24.9949607599
 31
0.0
 11
0.0222651076
 21
-25.0298827304
 31
0.0
 11
0.042581539
 21
-25.0632188047
 31
0.0
 11
0.0541249659
 21
-25.0792921308
 31
0.0
 11
0.066591867
 21
-25.0949689828
 31
0.0
 11
0.0799822422
 21
-25.1102493608
 31
0.0
 11
0.0870237326
 21
-25.117740872
 31
0.0
 11
0.0942960916
 21
-25.1251332647
 31
0.0
 11
0.1017298863
 21
-25.1323613664
 31
0.0
 11
0.1092556838
 21
-25.1393600045
 31
0.0
 11
0.1245832877
 21
-25.1526688902
 31
0.0
 11
0.1402789032
 21
-25.1650599216
 31
0.0
 11
0.1563425303
 21
-25.1765330989
 31
0.0
 11
0.1895738193
 21
-25.1967258909
 31
0.0
 11
0.2242771548
 21
-25.2132472662
 31
0.0
 11
0.2604525368
 21
-25.2260972247
 31
0.0
 11
0.2980999652
 21
-25.2352757665
 31
0.0
 11
0.33721944
 21
-25.2407828916
 31
0.0
 11
0.3573311949
 21
-25.2421596729
 31
0.0
 11
0.3778109613
 21
-25.2426186
 31
0.0
 11
0.3881882158
 21
-25.2425031657
 31
0.0
 11
0.3984705668
 21
-25.2421568629
 31
0.0
 11
0.4187505579
 21
-25.2407716517
 31
0.0
 11
0.4386509347
 21
-25.2384629663
 31
0.0
 11
0.4581716973
 21
-25.2352308068
 31
0.0
 11
0.4960743793
 21
-25.2259960652
 31
0.0
 11
0.5324586042
 21
-25.2130674271
 31
0.0
 11
0.5673243718
 21
-25.1964448924
 31
0.0
 11
0.6006716821
 21
-25.176128461
 31
0.0
 11
0.6167759158
 21
-25.1645850341
 31
0.0
 11
0.6325005352
 21
-25.152118133
 31
0.0
 11
0.6478455403
 21
-25.1387277578
 31
0.0
 11
0.6553756875
 21
-25.1316862674
 31
0.0
 11
0.6628109311
 21
-25.1244139084
 31
0.0
 11
0.6700832886
 21
-25.1169786634
 31
0.0
 11
0.6771247777
 21
-25.1094485149
 31
0.0
 11
0.6905151504
 21
-25.0941035073
 31
0.0
 11
0.702982049
 21
-25.0783788855
 31
0.0
 11
0.7145254737
 21
-25.0622746496
 31
0.0
 11
0.7348419012
 21
-25.0289273353
 31
0.0
 11
0.7514644328
 21
-24.9940615645
 31
0.0
 11
0.7643930684
 21
-24.9576773372
 31
0.0
 11
0.7736278082
 21
-24.9197746533
 31
0.0
 11
0.7768599671
 21
-24.9002538902
 31
0.0
 11
0.779168652
 21
-24.8803535129
 31
0.0
 11
0.780553863
 21
-24.8600735215
 31
0.0
 11
0.7809001658
 21
-24.8497911705
 31
0.0
 11
0.7810145021
 21
-24.8404231136
 31
0.0
  0
SPLINE
  5
42F
100
AcDbEntity
  8
0
100
AcDbSpline
 62
7
  6
CONTINUOUS
 70
0
 71
3
 72
46
 73
42
 74
40
 42
0.0000001
 43
0.0000001
 44
0.0000000001
 12
-0.0000000832
 22
-0.7705925202
 32
0.0
 13
-0.0000000002
 23
0.7719181289
 33
0.0
 40
0.0
 40
0.0
 40
0.0
 40
0.0
 40
0.0163192743
 40
0.0323704895
 40
0.0638005343
 40
0.0945957973
 40
0.1250720345
 40
0.1555549174
 40
0.1863699066
 40
0.2178321582
 40
0.2339038667
 40
0.2502464365
 40
0.2665857834
 40
0.2826471326
 40
0.3140638091
 40
0.3447938747
 40
0.3751461109
 40
0.4054408545
 40
0.4360002507
 40
0.4671382314
 40
0.4830222163
 40
0.4991602649
 40
0.507382264
 40
0.5155326868
 40
0.5316345073
 40
0.5475013599
 40
0.563169406
 40
0.5940506561
 40
0.6246007997
 40
0.6551433474
 40
0.6860020489
 40
0.7174909034
 40
0.7335692908
 40
0.7499140883
 40
0.7662566605
 40
0.7823283712
 40
0.8137906264
 40
0.8446056182
 40
0.8750885029
 40
0.9362793728
 40
1.0
 40
1.0
 40
1.0
 40
1.0
 10
0.623595
 20
-24.8401565078
 30
0.0
 10
0.6235949995
 20
-24.8443483447
 30
0.0
 10
0.6234122405
 20
-24.8526631637
 30
0.0
 10
0.6223005697
 20
-24.8690164058
 30
0.0
 10
0.6195195558
 20
-24.8889620749
 30
0.0
 10
0.6138855739
 20
-24.9121365835
 30
0.0
 10
0.6059764203
 20
-24.9343808184
 30
0.0
 10
0.5957934164
 20
-24.9556858585
 30
0.0
 10
0.5833420541
 20
-24.976044585
 30
0.0
 10
0.5711643094
 20
-24.9921072927
 30
0.0
 10
0.5603539483
 20
-25.0044539692
 30
0.0
 10
0.5516791207
 20
-25.0134899738
 30
0.0
 10
0.5426215638
 20
-25.022138286
 30
0.0
 10
0.5302655503
 20
-25.0329146248
 30
0.0
 10
0.514219329
 20
-25.0450528393
 30
0.0
 10
0.4939182932
 20
-25.0574683611
 30
0.0
 10
0.4727134486
 20
-25.0676229222
 30
0.0
 10
0.4506115788
 20
-25.0755109297
 30
0.0
 10
0.4276214124
 20
-25.0811307592
 30
0.0
 10
0.4078551929
 20
-25.083906301
 30
0.0
 10
0.3916668012
 20
-25.085015816
 30
0.0
 10
0.3813291209
 20
-25.0852441089
 30
0.0
 10
0.3729792062
 20
-25.0851517676
 30
0.0
 10
0.3646426608
 20
-25.0848734894
 30
0.0
 10
0.3543581492
 20
-25.0841783789
 30
0.0
 10
0.3421987312
 20
-25.0827788741
 30
0.0
 10
0.3263753857
 20
-25.0801768623
 30
0.0
 10
0.3070917485
 20
-25.0755178969
 30
0.0
 10
0.2847806058
 20
-25.0676326337
 30
0.0
 10
0.2634105607
 20
-25.057480104
 30
0.0
 10
0.2429904683
 20
-25.0450656956
 30
0.0
 10
0.2268771749
 20
-25.0329221145
 30
0.0
 10
0.2144924631
 20
-25.0221414734
 30
0.0
 10
0.2054283897
 20
-25.0134914512
 30
0.0
 10
0.196753193
 20
-25.004453861
 30
0.0
 10
0.1859426521
 20
-24.9921072942
 30
0.0
 10
0.1737648691
 20
-24.9760450819
 30
0.0
 10
0.1613139872
 20
-24.9556840197
 30
0.0
 10
0.1477204729
 20
-24.9272602093
 30
0.0
 10
0.1362835105
 20
-24.8886926628
 30
0.0
 10
0.133512
 20
-24.8565521798
 30
0.0
 10
0.133512
 20
-24.8401564773
 30
0.0
 11
0.623595
 21
-24.8401565078
 31
0.0
 11
0.6233138245
 21
-24.8527275271
 31
0.0
 11
0.622470298
 21
-24.8650663487
 31
0.0
 11
0.619096192
 21
-24.8890473075
 31
0.0
 11
0.6134726819
 21
-24.9120993536
 31
0.0
 11
0.6055997679
 21
-24.934222487
 31
0.0
 11
0.5954774498
 21
-24.9554167078
 31
0.0
 11
0.5831057277
 21
-24.9756820159
 31
0.0
 11
0.5684846016
 21
-24.9950184113
 31
0.0
 11
0.560330512
 21
-25.0043382668
 31
0.0
 11
0.5516140714
 21
-25.0134258941
 31
0.0
 11
0.5425056892
 21
-25.0221170476
 31
0.0
 11
0.5331757747
 21
-25.0302474814
 31
0.0
 11
0.513851349
 21
-25.0448261904
 31
0.0
 11
0.4936407942
 21
-25.0571620211
 31
0.0
 11
0.4725441103
 21
-25.0672549735
 31
0.0
 11
0.4505612973
 21
-25.0751050476
 31
0.0
 11
0.4276923553
 21
-25.0807122434
 31
0.0
 11
0.4039372842
 21
-25.0840765608
 31
0.0
 11
0.3917274502
 21
-25.0849176402
 31
0.0
 11
0.379296084
 21
-25.085198
 31
0.0
 11
0.3729613395
 21
-25.0851279101
 31
0.0
 11
0.3666848786
 21
-25.0849176402
 31
0.0
 11
0.3543068078
 21
-25.0840765608
 31
0.0
 11
0.3421618717
 21
-25.0826747619
 31
0.0
 11
0.3302500701
 21
-25.0807122434
 31
0.0
 11
0.3071258709
 21
-25.0751050476
 31
0.0
 11
0.2849342101
 21
-25.0672549735
 31
0.0
 11
0.2636750877
 21
-25.0571620211
 31
0.0
 11
0.2433485038
 21
-25.0448261904
 31
0.0
 11
0.2239544583
 21
-25.0302474814
 31
0.0
 11
0.2146071375
 21
-25.0221170476
 31
0.0
 11
0.2054929512
 21
-25.0134258941
 31
0.0
 11
0.1967765079
 21
-25.0043382668
 31
0.0
 11
0.1886224158
 21
-24.9950184113
 31
0.0
 11
0.1740012851
 21
-24.9756820159
 31
0.0
 11
0.1616295591
 21
-24.9554167078
 31
0.0
 11
0.1515072378
 21
-24.934222487
 31
0.0
 11
0.1380108095
 21
-24.8890473075
 31
0.0
 11
0.133512
 21
-24.8401564773
 31
0.0
  0
SPLINE
  5
430
100
AcDbEntity
  8
0
100
AcDbSpline
 62
7
  6
CONTINUOUS
 70
0
 71
3
 72
46
 73
42
 74
40
 42
0.0000001
 43
0.0000001
 44
0.0000000001
 12
-0.0000000002
 22
0.7719181289
 32
0.0
 13
-0.0000000832
 23
-0.7705925202
 33
0.0
 40
0.0
 40
0.0
 40
0.0
 40
0.0
 40
0.0637206253
 40
0.12491149
 40
0.1553943709
 40
0.1862093585
 40
0.2176716089
 40
0.2337433171
 40
0.2500858867
 40
0.2664306818
 40
0.2825090669
 40
0.3139979179
 40
0.3448566167
 40
0.3753991627
 40
0.4059493052
 40
0.4368305548
 40
0.4524986007
 40
0.4683654532
 40
0.4844672737
 40
0.4926176966
 40
0.5008396957
 40
0.5169777442
 40
0.5328617291
 40
0.5639997096
 40
0.5945591052
 40
0.6248538478
 40
0.6552060822
 40
0.6859361451
 40
0.7173528181
 40
0.7334141651
 40
0.7497535095
 40
0.7660960767
 40
0.7821677827
 40
0.8136300296
 40
0.8444450145
 40
0.8749278936
 40
0.9054041278
 40
0.9361993886
 40
0.967629432
 40
0.9836806469
 40
1.0
 40
1.0
 40
1.0
 40
1.0
 10
0.133512
 20
-24.8401564773
 30
0.0
 10
0.133512
 20
-24.8237607754
 30
0.0
 10
0.1362835102
 20
-24.7916202941
 30
0.0
 10
0.1477204727
 20
-24.7530527505
 30
0.0
 10
0.1613139871
 20
-24.724628944
 30
0.0
 10
0.173764869
 20
-24.7042678855
 30
0.0
 10
0.1859426521
 20
-24.688205677
 30
0.0
 10
0.196753193
 20
-24.6758591136
 30
0.0
 10
0.2054283897
 20
-24.6668215261
 30
0.0
 10
0.2144924632
 20
-24.6581715067
 30
0.0
 10
0.2268771751
 20
-24.6473908689
 30
0.0
 10
0.2429904686
 20
-24.6352472916
 30
0.0
 10
0.263410561
 20
-24.6228328871
 30
0.0
 10
0.284780606
 20
-24.6126803607
 30
0.0
 10
0.3070917487
 20
-24.6047950999
 30
0.0
 10
0.3263753858
 20
-24.600136136
 30
0.0
 10
0.3421987313
 20
-24.5975341251
 30
0.0
 10
0.3543581492
 20
-24.5961346208
 30
0.0
 10
0.3646426608
 20
-24.5954395105
 30
0.0
 10
0.3729792062
 20
-24.5951612324
 30
0.0
 10
0.3813291209
 20
-24.5950688911
 30
0.0
 10
0.3916668012
 20
-24.5952971839
 30
0.0
 10
0.4078551929
 20
-24.5964066986
 30
0.0
 10
0.4276214122
 20
-24.5991822395
 30
0.0
 10
0.4506115786
 20
-24.6048020672
 30
0.0
 10
0.4727134483
 20
-24.6126900721
 30
0.0
 10
0.4939182929
 20
-24.62284463
 30
0.0
 10
0.5142193287
 20
-24.6352601478
 30
0.0
 10
0.5302655501
 20
-24.6473983586
 30
0.0
 10
0.5426215638
 20
-24.658174694
 30
0.0
 10
0.5516791206
 20
-24.6668230035
 30
0.0
 10
0.5603539483
 20
-24.6758590054
 30
0.0
 10
0.5711643095
 20
-24.6882056786
 30
0.0
 10
0.5833420541
 20
-24.7042683824
 30
0.0
 10
0.5957934165
 20
-24.7246271051
 30
0.0
 10
0.6059764204
 20
-24.7459321421
 30
0.0
 10
0.613885574
 20
-24.7681763746
 30
0.0
 10
0.6195195559
 20
-24.7913508814
 30
0.0
 10
0.6223005698
 20
-24.8112965495
 30
0.0
 10
0.6234122419
 20
-24.8276498114
 30
0.0
 10
0.6235950005
 20
-24.8359646506
 30
0.0
 10
0.623595
 20
-24.8401565078
 30
0.0
 11
0.133512
 21
-24.8401564773
 31
0.0
 11
0.1380108095
 21
-24.7912656486
 31
0.0
 11
0.1515072378
 21
-24.7460904734
 31
0.0
 11
0.1616295591
 21
-24.7248962558
 31
0.0
 11
0.1740012851
 21
-24.7046309515
 31
0.0
 11
0.1886224158
 21
-24.6852945607
 31
0.0
 11
0.1967765079
 21
-24.6759747078
 31
0.0
 11
0.2054929512
 21
-24.6668870832
 31
0.0
 11
0.2146071375
 21
-24.6581959325
 31
0.0
 11
0.2239544583
 21
-24.6500655012
 31
0.0
 11
0.2433485038
 21
-24.6354867968
 31
0.0
 11
0.2636750877
 21
-24.62315097
 31
0.0
 11
0.2849342101
 21
-24.6130580208
 31
0.0
 11
0.3071258709
 21
-24.6052079492
 31
0.0
 11
0.3302500701
 21
-24.5996007552
 31
0.0
 11
0.3421618717
 21
-24.5976382373
 31
0.0
 11
0.3543068078
 21
-24.5962364388
 31
0.0
 11
0.3666848786
 21
-24.5953953597
 31
0.0
 11
0.3729613395
 21
-24.5951850899
 31
0.0
 11
0.379296084
 21
-24.595115
 31
0.0
 11
0.3917274502
 21
-24.5953953597
 31
0.0
 11
0.4039372842
 21
-24.5962364388
 31
0.0
 11
0.4276923553
 21
-24.5996007552
 31
0.0
 11
0.4505612973
 21
-24.6052079492
 31
0.0
 11
0.4725441103
 21
-24.6130580208
 31
0.0
 11
0.4936407942
 21
-24.62315097
 31
0.0
 11
0.513851349
 21
-24.6354867968
 31
0.0
 11
0.5331757747
 21
-24.6500655012
 31
0.0
 11
0.5425056892
 21
-24.6581959325
 31
0.0
 11
0.5516140714
 21
-24.6668870832
 31
0.0
 11
0.560330512
 21
-24.6759747078
 31
0.0
 11
0.5684846016
 21
-24.6852945607
 31
0.0
 11
0.5831057277
 21
-24.7046309515
 31
0.0
 11
0.5954774498
 21
-24.7248962558
 31
0.0
 11
0.6055997679
 21
-24.7460904733
 31
0.0
 11
0.6134726819
 21
-24.7682136043
 31
0.0
 11
0.619096192
 21
-24.7912656486
 31
0.0
 11
0.622470298
 21
-24.8152466063
 31
0.0
 11
0.6233138245
 21
-24.8275854276
 31
0.0
 11
0.623595
 21
-24.8401565078
 31
0.0
  0
SPLINE
  5
431
100
AcDbEntity
  8
0
100
AcDbSpline
 62
7
  6
CONTINUOUS
 70
0
 71
3
 72
21
 73
17
 74
15
 42
0.0000001
 43
0.0000001
 44
0.0000000001
 12
-0.3676133691
 22
-0.7422258149
 32
0.0
 13
-0.7496251412
 23
-0.3522795921
 33
0.0
 40
0.0
 40
0.0
 40
0.0
 40
0.0
 40
0.0718620556
 40
0.1486229411
 40
0.2308045178
 40
0.3188317386
 40
0.3651528239
 40
0.4130592779
 40
0.4376180795
 40
0.4625087949
 40
0.5125372334
 40
0.5628811819
 40
0.6135825216
 40
0.7162105455
 40
0.8560575375
 40
1.0
 40
1.0
 40
1.0
 40
1.0
 10
4.4824983961
 20
-21.4643609867
 30
0.0
 10
4.4736925786
 20
-21.4821402776
 30
0.0
 10
4.4535782143
 20
-21.5179886454
 30
0.0
 10
4.4176060372
 20
-21.5706675316
 30
0.0
 10
4.3749212398
 20
-21.6239157172
 30
0.0
 10
4.3344746475
 20
-21.6679933398
 30
0.0
 10
4.2988903889
 20
-21.7035774379
 30
0.0
 10
4.275072437
 20
-21.7261289144
 30
0.0
 10
4.2552071864
 20
-21.7442365673
 30
0.0
 10
4.2346801242
 20
-21.7624851187
 30
0.0
 10
4.2083195409
 20
-21.7848805402
 30
0.0
 10
4.175760649
 20
-21.8109600082
 30
0.0
 10
4.1308761082
 20
-21.8448453569
 30
0.0
 10
4.0642241423
 20
-21.8908507386
 30
0.0
 10
3.9726540619
 20
-21.945768414
 30
0.0
 10
3.9027806351
 20
-21.9813683033
 30
0.0
 10
3.8668130055
 20
-21.9982709673
 30
0.0
 11
4.4824983961
 21
-21.4643609867
 31
0.0
 11
4.4535283021
 21
-21.5163566028
 31
0.0
 11
4.417821462
 21
-21.5689619463
 31
0.0
 11
4.3753776263
 21
-21.6221775203
 31
0.0
 11
4.3261967952
 21
-21.6760033249
 31
0.0
 11
4.2990800063
 21
-21.7031450637
 31
0.0
 11
4.2702789685
 21
-21.7304393601
 31
0.0
 11
4.2552468563
 21
-21.7441437175
 31
0.0
 11
4.2398333848
 21
-21.7578352712
 31
0.0
 11
4.208259393
 21
-21.7846705369
 31
0.0
 11
4.1757158049
 21
-21.8107413852
 31
0.0
 11
4.1422026203
 21
-21.8360478159
 31
0.0
 11
4.0722674619
 21
-21.8843674249
 31
0.0
 11
3.9729875398
 21
-21.9440371945
 31
0.0
 11
3.8668130055
 21
-21.9982709673
 31
0.0
  0
SPLINE
  5
432
100
AcDbEntity
  8
0
100
AcDbSpline
 62
7
  6
CONTINUOUS
 70
0
 71
3
 72
21
 73
17
 74
15
 42
0.0000001
 43
0.0000001
 44
0.0000000001
 12
0.5756365169
 22
0.2122497526
 32
0.0
 13
0.4441798346
 23
0.4232158186
 33
0.0
 40
0.0
 40
0.0
 40
0.0
 40
0.0
 40
0.0820461071
 40
0.1693815072
 40
0.2621287543
 40
0.3603905826
 40
0.4116181906
 40
0.4642556424
 40
0.4911059527
 40
0.518152131
 40
0.5712394483
 40
0.6228928038
 40
0.6731277704
 40
0.7694069492
 40
0.8893227358
 40
1.0
 40
1.0
 40
1.0
 40
1.0
 10
3.8668130045
 20
-22.2506992361
 30
0.0
 10
3.8825559163
 20
-22.2448944808
 30
0.0
 10
3.914780596
 20
-22.2321531474
 30
0.0
 10
3.9638213327
 20
-22.2104745513
 30
0.0
 10
4.0150537074
 20
-22.1856410246
 30
0.0
 10
4.0589422818
 20
-22.1626483237
 30
0.0
 10
4.0951551268
 20
-22.1427134998
 30
0.0
 10
4.1184013429
 20
-22.1295123901
 30
0.0
 10
4.1372454306
 20
-22.1185773846
 30
0.0
 10
4.1561012446
 20
-22.1074799861
 30
0.0
 10
4.1791614675
 20
-22.093527564
 30
0.0
 10
4.2060003176
 20
-22.0766674647
 30
0.0
 10
4.2399284204
 20
-22.054499128
 30
0.0
 10
4.2847057139
 20
-22.0234288906
 30
0.0
 10
4.3377380549
 20
-21.9826705478
 30
0.0
 10
4.3731971201
 20
-21.9515082441
 30
0.0
 10
4.3895839897
 20
-21.9358947878
 30
0.0
 11
3.8668130045
 21
-22.2506992361
 31
0.0
 11
3.9136486223
 21
-22.2322537759
 31
0.0
 11
3.9626807074
 21
-22.2106461096
 31
0.0
 11
4.0139089652
 21
-22.1858763458
 31
0.0
 11
4.0673333957
 21
-22.1579444845
 31
0.0
 11
4.0948691757
 21
-22.1427927673
 31
0.0
 11
4.1229539989
 21
-22.1268505257
 31
0.0
 11
4.1372023017
 21
-22.1185829583
 31
0.0
 11
4.1514999386
 21
-22.1101616778
 31
0.0
 11
4.1793639479
 21
-22.0932971585
 31
0.0
 11
4.2061943199
 21
-22.0764326399
 31
0.0
 11
4.2319910547
 21
-22.0595681221
 31
0.0
 11
4.2804836125
 21
-22.025839089
 31
0.0
 11
4.3387088358
 21
-21.9808670497
 31
0.0
 11
4.3895839897
 21
-21.9358947878
 31
0.0
  0
SPLINE
  5
433
100
AcDbEntity
  8
0
100
AcDbSpline
 62
7
  6
CONTINUOUS
 70
0
 71
3
 72
21
 73
17
 74
15
 42
0.0000001
 43
0.0000001
 44
0.0000000001
 12
-0.367613509
 22
-0.7422260974
 32
0.0
 13
-0.7496254846
 23
-0.352279599
 33
0.0
 40
0.0
 40
0.0
 40
0.0
 40
0.0
 40
0.0718620283
 40
0.1486228845
 40
0.2308044299
 40
0.3188316173
 40
0.3651526849
 40
0.4130591206
 40
0.4376179129
 40
0.4625086189
 40
0.5125370383
 40
0.5628809676
 40
0.6135822881
 40
0.7162102728
 40
0.8560572116
 40
1.0
 40
1.0
 40
1.0
 40
1.0
 10
-0.4719453239
 20
-21.4643609867
 30
0.0
 10
-0.4807511414
 20
-21.4821402776
 30
0.0
 10
-0.5008655057
 20
-21.5179886454
 30
0.0
 10
-0.5368376828
 20
-21.5706675316
 30
0.0
 10
-0.5795224802
 20
-21.6239157172
 30
0.0
 10
-0.6199690725
 20
-21.6679933398
 30
0.0
 10
-0.6555533311
 20
-21.7035774379
 30
0.0
 10
-0.679371283
 20
-21.7261289144
 30
0.0
 10
-0.6992365336
 20
-21.7442365673
 30
0.0
 10
-0.7197635958
 20
-21.7624851187
 30
0.0
 10
-0.7461241791
 20
-21.7848805402
 30
0.0
 10
-0.778683071
 20
-21.8109600082
 30
0.0
 10
-0.8235676118
 20
-21.8448453569
 30
0.0
 10
-0.8902195777
 20
-21.8908507386
 30
0.0
 10
-0.9817897483
 20
-21.9457684681
 30
0.0
 10
-1.0516632723
 20
-21.9813683988
 30
0.0
 10
-1.0876309998
 20
-21.9982711014
 30
0.0
 11
-0.4719453239
 21
-21.4643609867
 31
0.0
 11
-0.5009154179
 21
-21.5163566028
 31
0.0
 11
-0.536622258
 21
-21.5689619463
 31
0.0
 11
-0.5790660937
 21
-21.6221775203
 31
0.0
 11
-0.6282469248
 21
-21.6760033249
 31
0.0
 11
-0.6553637137
 21
-21.7031450637
 31
0.0
 11
-0.6841647515
 21
-21.7304393601
 31
0.0
 11
-0.6991968637
 21
-21.7441437175
 31
0.0
 11
-0.7146103352
 21
-21.7578352712
 31
0.0
 11
-0.746184327
 21
-21.7846705369
 31
0.0
 11
-0.7787279151
 21
-21.8107413852
 31
0.0
 11
-0.8122410997
 21
-21.8360478159
 31
0.0
 11
-0.8821762581
 21
-21.8843674249
 31
0.0
 11
-0.9814561802
 21
-21.9440371945
 31
0.0
 11
-1.0876309998
 21
-21.9982711014
 31
0.0
  0
SPLINE
  5
434
100
AcDbEntity
  8
0
100
AcDbSpline
 62
7
  6
CONTINUOUS
 70
0
 71
3
 72
21
 73
17
 74
15
 42
0.0000001
 43
0.0000001
 44
0.0000000001
 12
0.5756365121
 22
0.2122495676
 32
0.0
 13
0.4441799727
 23
0.4232155775
 33
0.0
 40
0.0
 40
0.0
 40
0.0
 40
0.0
 40
0.0820466102
 40
0.1693820199
 40
0.2621292772
 40
0.3603911163
 40
0.4116187301
 40
0.4642561876
 40
0.4911065009
 40
0.5181526822
 40
0.5712400054
 40
0.6228933666
 40
0.6731283386
 40
0.7694075281
 40
0.8893233279
 40
1.0
 40
1.0
 40
1.0
 40
1.0
 10
-1.0876309998
 20
-22.2506993409
 30
0.0
 10
-1.0718879917
 20
-22.2448945551
 30
0.0
 10
-1.0396632164
 20
-22.2321531882
 30
0.0
 10
-0.9906223873
 20
-22.2104745513
 30
0.0
 10
-0.9393900126
 20
-22.1856410246
 30
0.0
 10
-0.8955014382
 20
-22.1626483237
 30
0.0
 10
-0.8592885932
 20
-22.1427134998
 30
0.0
 10
-0.8360423771
 20
-22.1295123901
 30
0.0
 10
-0.8171982894
 20
-22.1185773846
 30
0.0
 10
-0.7983424754
 20
-22.1074799861
 30
0.0
 10
-0.7752822525
 20
-22.093527564
 30
0.0
 10
-0.7484434024
 20
-22.0766674647
 30
0.0
 10
-0.7145152996
 20
-22.054499128
 30
0.0
 10
-0.6697380061
 20
-22.0234288906
 30
0.0
 10
-0.6167057631
 20
-21.9826706232
 30
0.0
 10
-0.5812467858
 20
-21.9515084075
 30
0.0
 10
-0.5648599988
 20
-21.9358950436
 30
0.0
 11
-1.0876309998
 21
-22.2506993409
 31
0.0
 11
-1.0407950977
 21
-22.2322537759
 31
0.0
 11
-0.9917630126
 21
-22.2106461096
 31
0.0
 11
-0.9405347548
 21
-22.1858763458
 31
0.0
 11
-0.8871103243
 21
-22.1579444845
 31
0.0
 11
-0.8595745443
 21
-22.1427927673
 31
0.0
 11
-0.8314897211
 21
-22.1268505257
 31
0.0
 11
-0.8172414183
 21
-22.1185829583
 31
0.0
 11
-0.8029437814
 21
-22.1101616778
 31
0.0
 11
-0.7750797721
 21
-22.0932971585
 31
0.0
 11
-0.7482494001
 21
-22.0764326399
 31
0.0
 11
-0.7224526653
 21
-22.0595681221
 31
0.0
 11
-0.6739601075
 21
-22.025839089
 31
0.0
 11
-0.6157348842
 21
-21.9808670497
 31
0.0
 11
-0.5648599988
 21
-21.9358950436
 31
0.0
  0
SPLINE
  5
435
100
AcDbEntity
  8
0
100
AcDbSpline
 62
7
  6
CONTINUOUS
 70
0
 71
3
 72
34
 73
30
 74
28
 42
0.0000001
 43
0.0000001
 44
0.0000000001
 12
-1.3356987673
 22
-1.526065569
 32
0.0
 13
-0.0352065808
 23
-2.0277395848
 33
0.0
 40
0.0
 40
0.0
 40
0.0
 40
0.0
 40
0.0567949809
 40
0.1159344496
 40
0.1775498179
 40
0.2417571124
 40
0.2748667171
 40
0.3086617051
 40
0.3258198382
 40
0.3431066196
 40
0.3776049789
 40
0.4119854892
 40
0.4462638309
 40
0.4804558252
 40
0.5145774133
 40
0.5486446351
 40
0.5826736076
 40
0.6166805022
 40
0.6506815215
 40
0.6846928767
 40
0.7016923731
 40
0.7184848684
 40
0.7350099027
 40
0.751268561
 40
0.7829910561
 40
0.8432907623
 40
0.8994784296
 40
0.9516675993
 40
1.0
 40
1.0
 40
1.0
 40
1.0
 10
-1.8806981612
 20
-21.7495090115
 30
0.0
 10
-1.9059851565
 20
-21.7783999664
 30
0.0
 10
-1.9560145843
 20
-21.838780602
 30
0.0
 10
-2.0280011507
 20
-21.9348754779
 30
0.0
 10
-2.0983982393
 20
-22.0382599222
 30
0.0
 10
-2.1551435957
 20
-22.1295286473
 30
0.0
 10
-2.199787239
 20
-22.2061024237
 30
0.0
 10
-2.2275031557
 20
-22.2557171025
 30
0.0
 10
-2.2494696358
 20
-22.2962831115
 30
0.0
 10
-2.2713042776
 20
-22.3374594642
 30
0.0
 10
-2.2977611265
 20
-22.3893591836
 30
0.0
 10
-2.3281117583
 20
-22.4521496098
 30
0.0
 10
-2.3570222715
 20
-22.5153886636
 30
0.0
 10
-2.3844948154
 20
-22.5790749145
 30
0.0
 10
-2.4105287565
 20
-22.6432087056
 30
0.0
 10
-2.435124305
 20
-22.7077898831
 30
0.0
 10
-2.4582810873
 20
-22.772818497
 30
0.0
 10
-2.4800002402
 20
-22.8382942634
 30
0.0
 10
-2.5002774657
 20
-22.9042180158
 30
0.0
 10
-2.5159813001
 20
-22.9595055181
 30
0.0
 10
-2.5277596232
 20
-23.0038030485
 30
0.0
 10
-2.5362414157
 20
-23.0367440019
 30
0.0
 10
-2.544340819
 20
-23.0692652155
 30
0.0
 10
-2.5545302978
 20
-23.1116657207
 30
0.0
 10
-2.5707329457
 20
-23.1830524058
 30
0.0
 10
-2.5902972232
 20
-23.2813425258
 30
0.0
 10
-2.6079023715
 20
-23.3940419277
 30
0.0
 10
-2.6192205162
 20
-23.49941666
 30
0.0
 10
-2.6227037338
 20
-23.5673314926
 30
0.0
 10
-2.62327094
 20
-23.6
 30
0.0
 11
-1.8806981612
 21
-21.7495090115
 31
0.0
 11
-1.9542770189
 21
-21.8381274429
 31
0.0
 11
-2.0262778124
 21
-21.9340487304
 31
0.0
 11
-2.0967008204
 21
-22.0372731925
 31
0.0
 11
-2.1655460429
 21
-22.1478008292
 31
0.0
 11
-2.1993769847
 21
-22.205803338
 31
0.0
 11
-2.2328134801
 21
-22.2656316405
 31
0.0
 11
-2.2493838104
 21
-22.2962304644
 31
0.0
 11
-2.2657975609
 21
-22.3272091407
 31
0.0
 11
-2.2975756416
 21
-22.3895400908
 31
0.0
 11
-2.3279158496
 21
-22.4523181069
 31
0.0
 11
-2.3568181849
 21
-22.515543189
 31
0.0
 11
-2.3842826474
 21
-22.5792153371
 31
0.0
 11
-2.4103092373
 21
-22.6433345512
 31
0.0
 11
-2.4348979544
 21
-22.7079008313
 31
0.0
 11
-2.4580487988
 21
-22.7729141775
 31
0.0
 11
-2.4797617705
 21
-22.8383745896
 31
0.0
 11
-2.5000368695
 21
-22.9042820677
 31
0.0
 11
-2.5188740958
 21
-22.9706366119
 31
0.0
 11
-2.5277515748
 21
-23.0039497849
 31
0.0
 11
-2.536242539
 21
-23.0369302418
 31
0.0
 11
-2.5443392609
 21
-23.0694509872
 31
0.0
 11
-2.5520417406
 21
-23.1015120214
 31
0.0
 11
-2.566263973
 21
-23.1642549557
 31
0.0
 11
-2.58997753
 21
-23.2842242886
 31
0.0
 11
-2.6073832102
 21
-23.3968382402
 31
0.0
 11
-2.6184810136
 21
-23.5020968107
 31
0.0
 11
-2.62327094
 21
-23.6
 31
0.0
  0
SPLINE
  5
436
100
AcDbEntity
  8
0
100
AcDbSpline
 62
7
  6
CONTINUOUS
 70
0
 71
3
 72
67
 73
63
 74
61
 42
0.0000001
 43
0.0000001
 44
0.0000000001
 12
0.1433518348
 22
2.0949527025
 32
0.0
 13
1.4382611961
 23
1.5299612151
 33
0.0
 40
0.0
 40
0.0
 40
0.0
 40
0.0
 40
0.0561651034
 40
0.083683612
 40
0.1108382417
 40
0.1376391754
 40
0.1640970046
 40
0.1902227383
 40
0.2031648092
 40
0.2160281809
 40
0.22881435
 40
0.2415248406
 40
0.2478522147
 40
0.2541612533
 40
0.2604521546
 40
0.2667251185
 40
0.26985494
 40
0.272980353
 40
0.2761013828
 40
0.2776602625
 40
0.279218056
 40
0.2807747665
 40
0.2815527167
 40
0.2823303974
 40
0.2827191368
 40
0.283107809
 40
0.2833021199
 40
0.2835502996
 40
0.2838254227
 40
0.2841005487
 40
0.2852010809
 40
0.2863016589
 40
0.2885029542
 40
0.2907044387
 40
0.2951079915
 40
0.2995123517
 40
0.3039175526
 40
0.3083236277
 40
0.3127306102
 40
0.3215474225
 40
0.3303682642
 40
0.3480230326
 40
0.3656971044
 40
0.3833925953
 40
0.4011116131
 40
0.4188562574
 40
0.4366286186
 40
0.4722642876
 40
0.5080356587
 40
0.5439590617
 40
0.5800506201
 40
0.616326233
 40
0.652801559
 40
0.6711018219
 40
0.6892145456
 40
0.7070716159
 40
0.7246743926
 40
0.7591224263
 40
0.8250302632
 40
0.887052392
 40
0.9453221278
 40
1.0
 40
1.0
 40
1.0
 40
1.0
 10
-2.35594484
 20
-23.6
 30
0.0
 10
-2.3532610498
 20
-23.5607789216
 30
0.0
 10
-2.3482467317
 20
-23.502402455
 30
0.0
 10
-2.3394387328
 20
-23.4253194629
 30
0.0
 10
-2.3318825941
 20
-23.3687906095
 30
0.0
 10
-2.3233316963
 20
-23.3131548212
 30
0.0
 10
-2.3137859767
 20
-23.2584118666
 30
0.0
 10
-2.304974925
 20
-23.2133977281
 30
0.0
 10
-2.2974248058
 20
-23.1778406525
 30
0.0
 10
-2.2915310916
 20
-23.1514786759
 30
0.0
 10
-2.2853887364
 20
-23.1253400416
 30
0.0
 10
-2.2800550859
 20
-23.1037122574
 30
0.0
 10
-2.2756634379
 20
-23.0865227344
 30
0.0
 10
-2.2723123678
 20
-23.0737053
 30
0.0
 10
-2.2688991422
 20
-23.0609437021
 30
0.0
 10
-2.2660009362
 20
-23.0503480548
 30
0.0
 10
-2.2636512482
 20
-23.0418995884
 30
0.0
 10
-2.2618746919
 20
-23.0355816851
 30
0.0
 10
-2.2603807566
 20
-23.0303265615
 30
0.0
 10
-2.2591778351
 20
-23.0261294583
 30
0.0
 10
-2.2582720704
 20
-23.0229862215
 30
0.0
 10
-2.257513911
 20
-23.0203693076
 30
0.0
 10
-2.2569054108
 20
-23.0182775321
 30
0.0
 10
-2.2565243894
 20
-23.0169709934
 30
0.0
 10
-2.2562189319
 20
-23.015926244
 30
0.0
 10
-2.2560281799
 20
-23.0152733829
 30
0.0
 10
-2.2558640047
 20
-23.0147152541
 30
0.0
 10
-2.2557252617
 20
-23.0142324996
 30
0.0
 10
-2.2555710518
 20
-23.0136953369
 30
0.0
 10
-2.2552518884
 20
-23.0125848255
 30
0.0
 10
-2.2547724712
 20
-23.0109192057
 30
0.0
 10
-2.2539180511
 20
-23.0079585637
 30
0.0
 10
-2.2528461487
 20
-23.0042586256
 30
0.0
 10
-2.2511227565
 20
-22.9983404503
 30
0.0
 10
-2.2489529466
 20
-22.990946193
 30
0.0
 10
-2.2463243876
 20
-22.9820790559
 30
0.0
 10
-2.2436709273
 20
-22.9732174954
 30
0.0
 10
-2.240992565
 20
-22.9643615113
 30
0.0
 10
-2.2373878269
 20
-22.9525597035
 30
0.0
 10
-2.2328195707
 20
-22.9378212011
 30
0.0
 10
-2.2253765184
 20
-22.9142661261
 30
0.0
 10
-2.2158230139
 20
-22.8848766265
 30
0.0
 10
-2.2039632225
 20
-22.8497073478
 30
0.0
 10
-2.1917049577
 20
-22.8146272989
 30
0.0
 10
-2.1790482354
 20
-22.7796365237
 30
0.0
 10
-2.1659930307
 20
-22.744734965
 30
0.0
 10
-2.1480396472
 20
-22.6982792933
 30
0.0
 10
-2.1245947405
 20
-22.6404226021
 30
0.0
 10
-2.0948909854
 20
-22.5714121604
 30
0.0
 10
-2.0635928302
 20
-22.5027590947
 30
0.0
 10
-2.0307009862
 20
-22.4344632529
 30
0.0
 10
-1.9962132573
 20
-22.3665260858
 30
0.0
 10
-1.966200002
 20
-22.3102986307
 30
0.0
 10
-1.9414767506
 20
-22.2656703735
 30
0.0
 10
-1.9227896412
 20
-22.2325978862
 30
0.0
 10
-1.9040632602
 20
-22.2001098962
 30
0.0
 10
-1.8792524747
 20
-22.1579336583
 30
0.0
 10
-1.8364253555
 20
-22.0873399421
 30
0.0
 10
-1.7747142994
 20
-21.9918563832
 30
0.0
 10
-1.6992647438
 20
-21.8855286855
 30
0.0
 10
-1.6235466991
 20
-21.7892046768
 30
0.0
 10
-1.5712697026
 20
-21.7298236537
 30
0.0
 10
-1.5450560153
 20
-21.7019386458
 30
0.0
 11
-2.35594484
 21
-23.6
 31
0.0
 11
-2.3457933824
 21
-23.4824993219
 31
0.0
 11
-2.3392259367
 21
-23.4250889583
 31
0.0
 11
-2.3316640131
 21
-23.3685719116
 31
0.0
 11
-2.3231076116
 21
-23.312948182
 31
0.0
 11
-2.3135567321
 21
-23.2582177693
 31
0.0
 11
-2.3030113747
 21
-23.2043806737
 31
0.0
 11
-2.2973657667
 21
-23.1777971197
 31
0.0
 11
-2.2914715393
 21
-23.151436895
 31
0.0
 11
-2.2853286924
 21
-23.1252999995
 31
0.0
 11
-2.278937226
 21
-23.0993864332
 31
0.0
 11
-2.2756482606
 21
-23.0865133986
 31
0.0
 11
-2.2722971402
 21
-23.0736961962
 31
0.0
 11
-2.268883865
 21
-23.0609348262
 31
0.0
 11
-2.2654084348
 21
-23.0482292885
 31
0.0
 11
-2.2636474117
 21
-23.0418974568
 31
0.0
 11
-2.2618708499
 21
-23.0355795831
 31
0.0
 11
-2.2600787493
 21
-23.0292756675
 31
0.0
 11
-2.259176872
 21
-23.026128944
 31
0.0
 11
-2.25827111
 21
-23.02298571
 31
0.0
 11
-2.2573614634
 21
-23.0198459655
 31
0.0
 11
-2.2569051833
 21
-23.0182774019
 31
0.0
 11
-2.256447932
 21
-23.0167097106
 31
0.0
 11
-2.2562189422
 21
-23.0159261921
 31
0.0
 11
-2.2559897096
 21
-23.0151428917
 31
0.0
 11
-2.2558750022
 21
-23.0147513232
 31
0.0
 11
-2.2557304942
 21
-23.0142506189
 31
0.0
 11
-2.255571025
 21
-23.0136953465
 31
0.0
 11
-2.2554114585
 21
-23.0131400959
 31
0.0
 11
-2.2547722198
 21
-23.0109193114
 31
0.0
 11
-2.2541314247
 21
-23.0086988755
 31
0.0
 11
-2.2528451656
 21
-23.0042590492
 31
0.0
 11
-2.2515526811
 21
-22.9998206172
 31
0.0
 11
-2.248949036
 21
-22.9909479358
 31
0.0
 11
-2.2463204895
 21
-22.9820808313
 31
0.0
 11
-2.2436670415
 21
-22.9732193036
 31
0.0
 11
-2.240988692
 21
-22.9643633529
 31
0.0
 11
-2.238285441
 21
-22.9555129789
 31
0.0
 11
-2.2328042347
 21
-22.9378289617
 31
0.0
 11
-2.2272234225
 21
-22.920167252
 31
0.0
 11
-2.2157629804
 21
-22.8849107548
 31
0.0
 11
-2.2039041148
 21
-22.8497434876
 31
0.0
 11
-2.1916468257
 21
-22.8146654502
 31
0.0
 11
-2.1789911131
 21
-22.7796766428
 31
0.0
 11
-2.165936977
 21
-22.7447770652
 31
0.0
 11
-2.1524844173
 21
-22.7099667174
 31
0.0
 11
-2.1243840275
 21
-22.6406137116
 31
0.0
 11
-2.0946899436
 21
-22.5716176254
 31
0.0
 11
-2.0634021656
 21
-22.5029784586
 31
0.0
 11
-2.0305206935
 21
-22.4346962113
 31
0.0
 11
-1.9960455274
 21
-22.3667708836
 31
0.0
 11
-1.9599766672
 21
-22.2992024754
 31
0.0
 11
-1.941365847
 21
-22.2655820066
 31
0.0
 11
-1.9226540359
 21
-22.2324692351
 31
0.0
 11
-1.9039262145
 21
-22.199983723
 31
0.0
 11
-1.885182383
 21
-22.1681254703
 31
0.0
 11
-1.8476466893
 21
-22.1062907431
 31
0.0
 11
-1.7723831794
 21
-21.9901484015
 31
0.0
 11
-1.6968635062
 21
-21.8840422102
 31
0.0
 11
-1.6210876698
 21
-21.7879721692
 31
0.0
 11
-1.5450560153
 21
-21.7019386458
 31
0.0
  0
SPLINE
  5
437
100
AcDbEntity
  8
0
100
AcDbSpline
 62
7
  6
CONTINUOUS
 70
0
 71
3
 72
83
 73
79
 74
77
 42
0.0000001
 43
0.0000001
 44
0.0000000001
 12
-0.7007779433
 22
-1.8890708124
 32
0.0
 13
-0.5482683974
 23
-1.9388347078
 33
0.0
 40
0.0
 40
0.0
 40
0.0
 40
0.0
 40
0.1022554726
 40
0.2045107547
 40
0.2556383957
 40
0.3067660368
 40
0.3578936778
 40
0.4090213188
 40
0.4601489598
 40
0.5112766009
 40
0.5624042419
 40
0.5879680624
 40
0.6135318829
 40
0.6390957034
 40
0.664659524
 40
0.6902233445
 40
0.715787165
 40
0.7285690752
 40
0.7413509855
 40
0.7541328958
 40
0.766914806
 40
0.7733057611
 40
0.7796967163
 40
0.7860876714
 40
0.7924786265
 40
0.7988695817
 40
0.8020650592
 40
0.8052605368
 40
0.8084560144
 40
0.8100537531
 40
0.8116514919
 40
0.8132492307
 40
0.8148469695
 40
0.8156458389
 40
0.8164447083
 40
0.816844143
 40
0.8172435777
 40
0.8176430124
 40
0.8178427297
 40
0.8179425884
 40
0.8180649683
 40
0.8181325316
 40
0.8182226149
 40
0.8183126969
 40
0.8184027777
 40
0.8185829352
 40
0.8187630874
 40
0.8191233764
 40
0.8194836444
 40
0.8198438916
 40
0.820204118
 40
0.8209245081
 40
0.821644815
 40
0.8223650387
 40
0.8238052368
 40
0.8252451028
 40
0.8266846374
 40
0.8281238411
 40
0.8295627145
 40
0.8324394726
 40
0.8353149163
 40
0.8381890501
 40
0.8410618787
 40
0.846803637
 40
0.8525402289
 40
0.8582716912
 40
0.8639980604
 40
0.8697193736
 40
0.8754356675
 40
0.8868533367
 40
0.8982513749
 40
0.909630081
 40
0.9209897556
 40
0.9323307008
 40
0.94365322
 40
0.9549576184
 40
0.9775132028
 40
1.0
 40
1.0
 40
1.0
 40
1.0
 10
-3.3717838865
 20
-21.473272
 30
0.0
 10
-3.3956700131
 20
-21.5376612763
 30
0.0
 10
-3.4434422217
 20
-21.6664397087
 30
0.0
 10
-3.5031574715
 20
-21.8274127194
 30
0.0
 10
-3.5509296356
 20
-21.9561910319
 30
0.0
 10
-3.5867587587
 20
-22.0527747662
 30
0.0
 10
-3.6225878819
 20
-22.1493585006
 30
0.0
 10
-3.658417005
 20
-22.245942235
 30
0.0
 10
-3.6942461281
 20
-22.3425259694
 30
0.0
 10
-3.7300752512
 20
-22.4391097037
 30
0.0
 10
-3.7599328539
 20
-22.5195961491
 30
0.0
 10
-3.7838189359
 20
-22.5839853053
 30
0.0
 10
-3.8017334975
 20
-22.6322771725
 30
0.0
 10
-3.8196480591
 20
-22.6805690397
 30
0.0
 10
-3.8375626206
 20
-22.7288609069
 30
0.0
 10
-3.8554771822
 20
-22.7771527741
 30
0.0
 10
-3.8704059835
 20
-22.8173959967
 30
0.0
 10
-3.8823490245
 20
-22.8495905748
 30
0.0
 10
-3.8913063053
 20
-22.8737365084
 30
0.0
 10
-3.9002635861
 20
-22.897882442
 30
0.0
 10
-3.9077279867
 20
-22.9180040534
 30
0.0
 10
-3.9136995073
 20
-22.9341013424
 30
0.0
 10
-3.9181781477
 20
-22.9461743092
 30
0.0
 10
-3.922656788
 20
-22.958247276
 30
0.0
 10
-3.9271354284
 20
-22.9703202428
 30
0.0
 10
-3.9308676288
 20
-22.9803810485
 30
0.0
 10
-3.933853389
 20
-22.988429693
 30
0.0
 10
-3.9360927092
 20
-22.9944661764
 30
0.0
 10
-3.9379588094
 20
-22.9994965792
 30
0.0
 10
-3.9394516895
 20
-23.0035209015
 30
0.0
 10
-3.9405713496
 20
-23.0065391432
 30
0.0
 10
-3.9416910097
 20
-23.0095573849
 30
0.0
 10
-3.9426240597
 20
-23.0120725863
 30
0.0
 10
-3.9433704999
 20
-23.0140847474
 30
0.0
 10
-3.9438370247
 20
-23.0153423482
 30
0.0
 10
-3.9442102453
 20
-23.0163484286
 30
0.0
 10
-3.9444901583
 20
-23.0171029898
 30
0.0
 10
-3.9447234272
 20
-23.0177317877
 30
0.0
 10
-3.9448866996
 20
-23.0181719522
 30
0.0
 10
-3.9449852847
 20
-23.0184376465
 30
0.0
 10
-3.9450529185
 20
-23.0186201552
 30
0.0
 10
-3.9451188933
 20
-23.0187962756
 30
0.0
 10
-3.9451771461
 20
-23.0189521244
 30
0.0
 10
-3.9452407229
 20
-23.0191221284
 30
0.0
 10
-3.9453254688
 20
-23.0193488034
 30
0.0
 10
-3.9454313865
 20
-23.0196321456
 30
0.0
 10
-3.9456008108
 20
-23.0200854908
 30
0.0
 10
-3.9458125164
 20
-23.0206521723
 30
0.0
 10
-3.9460664453
 20
-23.0213322004
 30
0.0
 10
-3.9463202532
 20
-23.0220122288
 30
0.0
 10
-3.9466584925
 20
-23.0229189076
 30
0.0
 10
-3.9470809889
 20
-23.0240522571
 30
0.0
 10
-3.9475875148
 20
-23.0254123172
 30
0.0
 10
-3.948262198
 20
-23.0272256278
 30
0.0
 10
-3.9491043412
 20
-23.02949227
 30
0.0
 10
-3.9501130339
 20
-23.0322124033
 30
0.0
 10
-3.951119789
 20
-23.0349325422
 30
0.0
 10
-3.9521246065
 20
-23.0376526868
 30
0.0
 10
-3.9534616266
 20
-23.0412791383
 30
0.0
 10
-3.9551280604
 20
-23.0458122193
 30
0.0
 10
-3.9571202598
 20
-23.0512525621
 30
0.0
 10
-3.9591047089
 20
-23.0566929277
 30
0.0
 10
-3.9617397111
 20
-23.0639451373
 30
0.0
 10
-3.9650141085
 20
-23.0730104759
 30
0.0
 10
-3.9689132729
 20
-23.0838914333
 30
0.0
 10
-3.9727814364
 20
-23.0947724818
 30
0.0
 10
-3.9766185987
 20
-23.1056536208
 30
0.0
 10
-3.9804247602
 20
-23.1165348512
 30
0.0
 10
-3.985456116
 20
-23.1310369631
 30
0.0
 10
-3.9916679663
 20
-23.1491649971
 30
0.0
 10
-3.9990014217
 20
-23.1709284612
 30
0.0
 10
-4.0062108723
 20
-23.1926922932
 30
0.0
 10
-4.0132963167
 20
-23.2144564899
 30
0.0
 10
-4.0202577548
 20
-23.2362210503
 30
0.0
 10
-4.0270951883
 20
-23.2579859809
 30
0.0
 10
-4.0360393901
 20
-23.2869835659
 30
0.0
 10
-4.0469107806
 20
-23.3232328852
 30
0.0
 10
-4.0552965323
 20
-23.3522994847
 30
0.0
 10
-4.0594061323
 20
-23.3668322123
 30
0.0
 11
-3.3717838865
 21
-21.473272
 31
0.0
 11
-3.4434422662
 21
-21.6664398287
 31
0.0
 11
-3.5151005125
 21
-21.8596072975
 31
0.0
 11
-3.5509296356
 21
-21.9561910319
 31
0.0
 11
-3.5867587588
 21
-22.0527747662
 31
0.0
 11
-3.6225878819
 21
-22.1493585006
 31
0.0
 11
-3.658417005
 21
-22.245942235
 31
0.0
 11
-3.6942461281
 21
-22.3425259694
 31
0.0
 11
-3.7300752512
 21
-22.4391097037
 31
0.0
 11
-3.7659043744
 21
-22.5356934381
 31
0.0
 11
-3.7838189359
 21
-22.5839853053
 31
0.0
 11
-3.8017334975
 21
-22.6322771725
 31
0.0
 11
-3.8196480591
 21
-22.6805690397
 31
0.0
 11
-3.8375626206
 21
-22.7288609069
 31
0.0
 11
-3.8554771822
 21
-22.7771527741
 31
0.0
 11
-3.8733917438
 21
-22.8254446412
 31
0.0
 11
-3.8823490245
 21
-22.8495905748
 31
0.0
 11
-3.8913063053
 21
-22.8737365084
 31
0.0
 11
-3.9002635861
 21
-22.897882442
 31
0.0
 11
-3.9092208669
 21
-22.9220283756
 31
0.0
 11
-3.9136995073
 21
-22.9341013424
 31
0.0
 11
-3.9181781477
 21
-22.9461743092
 31
0.0
 11
-3.922656788
 21
-22.958247276
 31
0.0
 11
-3.9271354284
 21
-22.9703202428
 31
0.0
 11
-3.9316140688
 21
-22.9823932096
 31
0.0
 11
-3.933853389
 21
-22.988429693
 31
0.0
 11
-3.9360927092
 21
-22.9944661764
 31
0.0
 11
-3.9383320294
 21
-23.0005026598
 31
0.0
 11
-3.9394516895
 21
-23.0035209015
 31
0.0
 11
-3.9405713496
 21
-23.0065391432
 31
0.0
 11
-3.9416910097
 21
-23.0095573849
 31
0.0
 11
-3.9428106698
 21
-23.0125756266
 31
0.0
 11
-3.9433704999
 21
-23.0140847474
 31
0.0
 11
-3.9439303299
 21
-23.0155938683
 31
0.0
 11
-3.9442102449
 21
-23.0163484287
 31
0.0
 11
-3.94449016
 21
-23.0171029891
 31
0.0
 11
-3.944770075
 21
-23.0178575496
 31
0.0
 11
-3.9449100325
 21
-23.0182348298
 31
0.0
 11
-3.9449800112
 21
-23.0184234699
 31
0.0
 11
-3.9450658868
 21
-23.0186546117
 31
0.0
 11
-3.9451135744
 21
-23.0187821167
 31
0.0
 11
-3.9451771513
 21
-23.0189521235
 31
0.0
 11
-3.9452407206
 21
-23.0191221302
 31
0.0
 11
-3.9453042823
 21
-23.019292137
 31
0.0
 11
-3.945431383
 21
-23.0196321506
 31
0.0
 11
-3.9455584534
 21
-23.0199721644
 31
0.0
 11
-3.9458125035
 21
-23.0206521921
 31
0.0
 11
-3.9460664325
 21
-23.0213322201
 31
0.0
 11
-3.9463202404
 21
-23.0220122486
 31
0.0
 11
-3.9465739272
 21
-23.0226922773
 31
0.0
 11
-3.9470809375
 21
-23.0240523359
 31
0.0
 11
-3.9475874633
 21
-23.025412396
 31
0.0
 11
-3.9480935048
 21
-23.0267724574
 31
0.0
 11
-3.9491041347
 21
-23.0294925845
 31
0.0
 11
-3.9501128269
 21
-23.0322127173
 31
0.0
 11
-3.9511195816
 21
-23.0349328558
 31
0.0
 11
-3.9521243988
 21
-23.0376529999
 31
0.0
 11
-3.9531272784
 21
-23.0403731496
 31
0.0
 11
-3.9551272248
 21
-23.0458134661
 31
0.0
 11
-3.9571194211
 21
-23.0512538053
 31
0.0
 11
-3.959103867
 21
-23.0566941671
 31
0.0
 11
-3.9610805628
 21
-23.0621345515
 31
0.0
 11
-3.9650107035
 21
-23.0730153883
 31
0.0
 11
-3.9689098433
 21
-23.0838963156
 31
0.0
 11
-3.9727779821
 21
-23.0947773335
 31
0.0
 11
-3.9766151199
 21
-23.1056584419
 31
0.0
 11
-3.9804212567
 21
-23.1165396409
 31
0.0
 11
-3.9841963925
 21
-23.1274209305
 31
0.0
 11
-3.9916536612
 21
-23.1491837813
 31
0.0
 11
-3.998986926
 21
-23.1709469943
 31
0.0
 11
-4.0061961869
 21
-23.1927105696
 31
0.0
 11
-4.0132814438
 21
-23.2144745071
 31
0.0
 11
-4.0202426968
 21
-23.2362388069
 31
0.0
 11
-4.0270799459
 21
-23.2580034689
 31
0.0
 11
-4.033793191
 21
-23.2797684931
 31
0.0
 11
-4.0468476695
 21
-23.3232996282
 31
0.0
 11
-4.0594061323
 21
-23.3668322123
 31
0.0
  0
SPLINE
  5
438
100
AcDbEntity
  8
0
100
AcDbSpline
 62
7
  6
CONTINUOUS
 70
0
 71
3
 72
83
 73
79
 74
77
 42
0.0000001
 43
0.0000001
 44
0.0000000001
 12
-0.5346593981
 22
1.934273584
 32
0.0
 13
-0.6753254628
 23
1.889764665
 33
0.0
 40
0.0
 40
0.0
 40
0.0
 40
0.0
 40
0.0212259283
 40
0.0428922067
 40
0.0538912385
 40
0.0650012115
 40
0.0762223934
 40
0.0875550435
 40
0.0989994139
 40
0.1105557494
 40
0.1222242874
 40
0.1281007083
 40
0.1340052658
 40
0.1399379879
 40
0.1458989018
 40
0.1518880348
 40
0.1579054134
 40
0.1609247034
 40
0.1639510647
 40
0.1669845005
 40
0.1700250139
 40
0.1715479258
 40
0.1730726083
 40
0.1745990618
 40
0.1761272868
 40
0.1776572835
 40
0.1784229464
 40
0.1791890524
 40
0.1799556015
 40
0.1803390423
 40
0.1807225938
 40
0.1811062562
 40
0.1814900294
 40
0.1816819576
 40
0.1818739134
 40
0.1819699018
 40
0.182065897
 40
0.1821618992
 40
0.1822579083
 40
0.1823577303
 40
0.1824575523
 40
0.1826571963
 40
0.1830564844
 40
0.1834557724
 40
0.1838550604
 40
0.1846536365
 40
0.1854522126
 40
0.1870493647
 40
0.1886465169
 40
0.190243669
 40
0.1918408212
 40
0.1950351255
 40
0.1982294298
 40
0.2014237341
 40
0.2078123427
 40
0.2142009513
 40
0.2205895599
 40
0.2269781685
 40
0.2333667771
 40
0.2461439943
 40
0.2589212115
 40
0.2716984287
 40
0.2844756459
 40
0.3100300804
 40
0.3355845148
 40
0.3611389492
 40
0.3866933836
 40
0.412247818
 40
0.4378022524
 40
0.4889111212
 40
0.5400199901
 40
0.5911288589
 40
0.6422377277
 40
0.6933465965
 40
0.7444554654
 40
0.7955643342
 40
0.8977820718
 40
1.0
 40
1.0
 40
1.0
 40
1.0
 10
-4.0594061323
 20
-23.3668322123
 30
0.0
 10
-4.063189013
 20
-23.3531466282
 30
0.0
 10
-4.0709866233
 20
-23.3255337232
 30
0.0
 10
-4.0811484701
 20
-23.2909451379
 30
0.0
 10
-4.08961441
 20
-23.2629126723
 30
0.0
 10
-4.0961660041
 20
-23.2416011409
 30
0.0
 10
-4.1028876356
 20
-23.220108692
 30
0.0
 10
-4.1097793089
 20
-23.1984353194
 30
0.0
 10
-4.1168410234
 20
-23.1765810237
 30
0.0
 10
-4.1240727788
 20
-23.1545458068
 30
0.0
 10
-4.1302260922
 20
-23.1360769286
 30
0.0
 10
-4.1352333714
 20
-23.1212113662
 30
0.0
 10
-4.1390403454
 20
-23.1099902374
 30
0.0
 10
-4.1428898314
 20
-23.0987238771
 30
0.0
 10
-4.1467818299
 20
-23.0874122845
 30
0.0
 10
-4.1507163407
 20
-23.07605546
 30
0.0
 10
-4.1540266347
 20
-23.066564904
 30
0.0
 10
-4.1566960796
 20
-23.0589498424
 30
0.0
 10
-4.1587111374
 20
-23.0532205457
 30
0.0
 10
-4.1607368235
 20
-23.0474799411
 30
0.0
 10
-4.1624327641
 20
-23.0426894708
 30
0.0
 10
-4.163794825
 20
-23.0388514403
 30
0.0
 10
-4.1648196218
 20
-23.0359684166
 30
0.0
 10
-4.1658470757
 20
-23.0330825658
 30
0.0
 10
-4.1668771866
 20
-23.030193888
 30
0.0
 10
-4.1677375773
 20
-23.0277849984
 30
0.0
 10
-4.1684272178
 20
-23.0258564731
 30
0.0
 10
-4.168945262
 20
-23.0244089538
 30
0.0
 10
-4.1693774567
 20
-23.0232022732
 30
0.0
 10
-4.1697235444
 20
-23.0222365754
 30
0.0
 10
-4.1699833138
 20
-23.0215120206
 30
0.0
 10
-4.1702432492
 20
-23.0207872892
 30
0.0
 10
-4.1704599851
 20
-23.0201832428
 30
0.0
 10
-4.1706334561
 20
-23.0196999171
 30
0.0
 10
-4.1707419155
 20
-23.0193977913
 30
0.0
 10
-4.1708287004
 20
-23.0191560674
 30
0.0
 10
-4.1708938111
 20
-23.0189747602
 30
0.0
 10
-4.1709588967
 20
-23.0187934293
 30
0.0
 10
-4.1710249869
 20
-23.0186097391
 30
0.0
 10
-4.1710914315
 20
-23.0184234617
 30
0.0
 10
-4.1711813507
 20
-23.0181719544
 30
0.0
 10
-4.1713386236
 20
-23.0177317861
 30
0.0
 10
-4.1715633441
 20
-23.0171029903
 30
0.0
 10
-4.1718329894
 20
-23.0163484284
 30
0.0
 10
-4.1721925232
 20
-23.0153423483
 30
0.0
 10
-4.1726419382
 20
-23.0140847474
 30
0.0
 10
-4.1733610035
 20
-23.0120725863
 30
0.0
 10
-4.1742598346
 20
-23.0095573849
 30
0.0
 10
-4.1753384322
 20
-23.0065391432
 30
0.0
 10
-4.1764170297
 20
-23.0035209015
 30
0.0
 10
-4.1778551597
 20
-22.9994965792
 30
0.0
 10
-4.1796528222
 20
-22.9944661764
 30
0.0
 10
-4.1818100173
 20
-22.988429693
 30
0.0
 10
-4.1846862773
 20
-22.9803810485
 30
0.0
 10
-4.1882816024
 20
-22.9703202428
 30
0.0
 10
-4.1925959924
 20
-22.958247276
 30
0.0
 10
-4.1969103825
 20
-22.9461743092
 30
0.0
 10
-4.2012247726
 20
-22.9341013424
 30
0.0
 10
-4.2069772926
 20
-22.9180040534
 30
0.0
 10
-4.2141679427
 20
-22.897882442
 30
0.0
 10
-4.2227967229
 20
-22.8737365084
 30
0.0
 10
-4.231425503
 20
-22.8495905748
 30
0.0
 10
-4.2429305431
 20
-22.8173959967
 30
0.0
 10
-4.2573118434
 20
-22.7771527741
 30
0.0
 10
-4.2745694036
 20
-22.7288609069
 30
0.0
 10
-4.2918269638
 20
-22.6805690397
 30
0.0
 10
-4.3090845241
 20
-22.6322771725
 30
0.0
 10
-4.3263420843
 20
-22.5839853053
 30
0.0
 10
-4.3493521647
 20
-22.5195961491
 30
0.0
 10
-4.3781147651
 20
-22.4391097037
 30
0.0
 10
-4.4126298856
 20
-22.3425259694
 30
0.0
 10
-4.4471450061
 20
-22.245942235
 30
0.0
 10
-4.4816601266
 20
-22.1493585006
 30
0.0
 10
-4.516175247
 20
-22.0527747662
 30
0.0
 10
-4.5506903675
 20
-21.9561910319
 30
0.0
 10
-4.5967105282
 20
-21.8274127194
 30
0.0
 10
-4.6542357719
 20
-21.6664397087
 30
0.0
 10
-4.7002559754
 20
-21.5376612762
 30
0.0
 10
-4.7232660986
 20
-21.473272
 30
0.0
 11
-4.0594061323
 21
-23.3668322123
 31
0.0
 11
-4.0709776463
 21
-23.3258377169
 31
0.0
 11
-4.0832293674
 21
-23.2841195022
 31
0.0
 11
-4.0896103056
 21
-23.2629890002
 31
0.0
 11
-4.0961612955
 21
-23.2416775683
 31
0.0
 11
-4.1028823373
 21
-23.2201852066
 31
0.0
 11
-4.1097734307
 21
-23.1985119152
 31
0.0
 11
-4.116834576
 21
-23.1766576939
 31
0.0
 11
-4.124065773
 21
-23.1546225427
 31
0.0
 11
-4.1314670218
 21
-23.1324064618
 31
0.0
 11
-4.1352314156
 21
-23.1212305727
 31
0.0
 11
-4.1390383223
 21
-23.1100094511
 31
0.0
 11
-4.142887742
 21
-23.098743097
 31
0.0
 11
-4.1467796746
 21
-23.0874315105
 31
0.0
 11
-4.1507141202
 21
-23.0760746916
 31
0.0
 11
-4.1546910787
 21
-23.0646726402
 31
0.0
 11
-4.1566955003
 21
-23.0589546523
 31
0.0
 11
-4.1587105501
 21
-23.0532253563
 31
0.0
 11
-4.1607362282
 21
-23.0474847522
 31
0.0
 11
-4.1627725345
 21
-23.04173284
 31
0.0
 11
-4.1637946733
 21
-23.0388526433
 31
0.0
 11
-4.1648194691
 21
-23.0359696197
 31
0.0
 11
-4.1658469219
 21
-23.033083769
 31
0.0
 11
-4.1668770319
 21
-23.0301950912
 31
0.0
 11
-4.1679097988
 21
-23.0273035865
 31
0.0
 11
-4.1684271787
 21
-23.0258567739
 31
0.0
 11
-4.1689452229
 21
-23.0244092547
 31
0.0
 11
-4.1694639313
 21
-23.0229610286
 31
0.0
 11
-4.1697235346
 21
-23.0222366506
 31
0.0
 11
-4.169983304
 21
-23.0215120958
 31
0.0
 11
-4.1702432394
 21
-23.0207873644
 31
0.0
 11
-4.1705033409
 21
-23.0200624563
 31
0.0
 11
-4.1706334539
 21
-23.019699936
 31
0.0
 11
-4.1707636085
 21
-23.0193373715
 31
0.0
 11
-4.1708287013
 21
-23.0191560727
 31
0.0
 11
-4.1708938045
 21
-23.0189747628
 31
0.0
 11
-4.1709589181
 21
-23.0187934419
 31
0.0
 11
-4.1710240421
 21
-23.01861211
 31
0.0
 11
-4.1710914545
 21
-23.0184234699
 31
0.0
 11
-4.1711588668
 21
-23.0182348298
 31
0.0
 11
-4.1712936915
 21
-23.0178575496
 31
0.0
 11
-4.1715633409
 21
-23.0171029891
 31
0.0
 11
-4.1718329903
 21
-23.0163484287
 31
0.0
 11
-4.1721026396
 21
-23.0155938683
 31
0.0
 11
-4.1726419384
 21
-23.0140847474
 31
0.0
 11
-4.1731812372
 21
-23.0125756266
 31
0.0
 11
-4.1742598347
 21
-23.0095573849
 31
0.0
 11
-4.1753384322
 21
-23.0065391432
 31
0.0
 11
-4.1764170297
 21
-23.0035209015
 31
0.0
 11
-4.1774956272
 21
-23.0005026598
 31
0.0
 11
-4.1796528222
 21
-22.9944661764
 31
0.0
 11
-4.1818100173
 21
-22.988429693
 31
0.0
 11
-4.1839672123
 21
-22.9823932096
 31
0.0
 11
-4.1882816024
 21
-22.9703202428
 31
0.0
 11
-4.1925959924
 21
-22.958247276
 31
0.0
 11
-4.1969103825
 21
-22.9461743092
 31
0.0
 11
-4.2012247726
 21
-22.9341013424
 31
0.0
 11
-4.2055391626
 21
-22.9220283756
 31
0.0
 11
-4.2141679427
 21
-22.897882442
 31
0.0
 11
-4.2227967229
 21
-22.8737365084
 31
0.0
 11
-4.231425503
 21
-22.8495905748
 31
0.0
 11
-4.2400542831
 21
-22.8254446412
 31
0.0
 11
-4.2573118434
 21
-22.7771527741
 31
0.0
 11
-4.2745694036
 21
-22.7288609069
 31
0.0
 11
-4.2918269638
 21
-22.6805690397
 31
0.0
 11
-4.3090845241
 21
-22.6322771725
 31
0.0
 11
-4.3263420843
 21
-22.5839853053
 31
0.0
 11
-4.3435996446
 21
-22.5356934381
 31
0.0
 11
-4.3781147651
 21
-22.4391097037
 31
0.0
 11
-4.4126298856
 21
-22.3425259694
 31
0.0
 11
-4.4471450061
 21
-22.245942235
 31
0.0
 11
-4.4816601266
 21
-22.1493585006
 31
0.0
 11
-4.516175247
 21
-22.0527747662
 31
0.0
 11
-4.5506903675
 21
-21.9561910319
 31
0.0
 11
-4.585205488
 21
-21.8596072975
 31
0.0
 11
-4.654235729
 21
-21.6664398287
 31
0.0
 11
-4.7232660986
 21
-21.473272
 31
0.0
  0
SPLINE
  5
439
100
AcDbEntity
  8
0
100
AcDbSpline
 62
7
  6
CONTINUOUS
 70
0
 71
3
 72
63
 73
59
 74
57
 42
0.0000001
 43
0.0000001
 44
0.0000000001
 12
0.000617665
 22
-2.1603549961
 32
0.0
 13
0.0015991619
 23
2.1607836921
 33
0.0
 40
0.0
 40
0.0
 40
0.0
 40
0.0
 40
0.0006037807
 40
0.0081389581
 40
0.0155950567
 40
0.0302704179
 40
0.0446307815
 40
0.0586770986
 40
0.085831448
 40
0.1117427281
 40
0.1364213179
 40
0.1598792326
 40
0.2031869728
 40
0.2418127496
 40
0.2759592373
 40
0.291445796
 40
0.3059335604
 40
0.3194819827
 40
0.325927374
 40
0.3321664934
 40
0.3382580729
 40
0.3442545079
 40
0.3559735848
 40
0.3673508888
 40
0.3784152801
 40
0.3997245509
 40
0.4201896686
 40
0.4401270695
 40
0.4598785695
 40
0.4697999872
 40
0.4798063126
 40
0.4899399197
 40
0.4950678934
 40
0.500242827
 40
0.5054177544
 40
0.5105456822
 40
0.5206789258
 40
0.5306842328
 40
0.5406036395
 40
0.5603468969
 40
0.5802682932
 40
0.6007076327
 40
0.6219799131
 40
0.6330213019
 40
0.644372511
 40
0.656062359
 40
0.6620429966
 40
0.6681179882
 40
0.6743406723
 40
0.6807708385
 40
0.6942929278
 40
0.7087605549
 40
0.7242337525
 40
0.7583752542
 40
0.7970264862
 40
0.8403908703
 40
0.8886122176
 40
1.0
 40
1.0
 40
1.0
 40
1.0
 10
3.1361211865
 20
-22.5501832493
 30
0.0
 10
3.1361213108
 20
-22.5506180428
 30
0.0
 10
3.1361221347
 20
-22.556479056
 30
0.0
 10
3.1361017571
 20
-22.5677093428
 30
0.0
 10
3.1359831655
 20
-22.5890725304
 30
0.0
 10
3.1356878863
 20
-22.6153495658
 30
0.0
 10
3.1350924973
 20
-22.6463683632
 30
0.0
 10
3.1339920418
 20
-22.6863640717
 30
0.0
 10
3.1320409149
 20
-22.7346560765
 30
0.0
 10
3.1287171198
 20
-22.7905457918
 30
0.0
 10
3.1244389305
 20
-22.8437019512
 30
0.0
 10
3.1176375206
 20
-22.9092041897
 30
0.0
 10
3.1069948497
 20
-22.9843930506
 30
0.0
 10
3.0900700662
 20
-23.0663160864
 30
0.0
 10
3.0722610839
 20
-23.1274334077
 30
0.0
 10
3.0558250555
 20
-23.1706080869
 30
0.0
 10
3.0429411837
 20
-23.1992016957
 30
0.0
 10
3.0312057206
 20
-23.2211115651
 30
0.0
 10
3.0213232016
 20
-23.2372173249
 30
0.0
 10
3.0137414826
 20
-23.2484174013
 30
0.0
 10
3.0059823792
 20
-23.2590948794
 30
0.0
 10
2.9956379523
 20
-23.272767393
 30
0.0
 10
2.9824141031
 20
-23.2890278179
 30
0.0
 10
2.9659764597
 20
-23.3073441399
 30
0.0
 10
2.943738229
 20
-23.3296775726
 30
0.0
 10
2.9147276088
 20
-23.3544366508
 30
0.0
 10
2.8776069842
 20
-23.3790775818
 30
0.0
 10
2.8386228587
 20
-23.398245501
 30
0.0
 10
2.8046330552
 20
-23.4096183456
 30
0.0
 10
2.7767480849
 20
-23.4159325487
 30
0.0
 10
2.7553507356
 20
-23.4193179892
 30
0.0
 10
2.7372195197
 20
-23.4209987083
 30
0.0
 10
2.7225162867
 20
-23.4216713493
 30
0.0
 10
2.7113699032
 20
-23.4218383778
 30
0.0
 10
2.7002235602
 20
-23.4216717521
 30
0.0
 10
2.6855205137
 20
-23.4210020075
 30
0.0
 10
2.6673897878
 20
-23.4193282897
 30
0.0
 10
2.6459928002
 20
-23.4159570337
 30
0.0
 10
2.6181102324
 20
-23.4096696765
 30
0.0
 10
2.5841247471
 20
-23.3983463063
 30
0.0
 10
2.5451416002
 20
-23.3792598222
 30
0.0
 10
2.5080208781
 20
-23.3547227056
 30
0.0
 10
2.479006074
 20
-23.3300641779
 30
0.0
 10
2.4567651562
 20
-23.3078210135
 30
0.0
 10
2.4403273627
 20
-23.2895807129
 30
0.0
 10
2.4271026901
 20
-23.2733870289
 30
0.0
 10
2.416757847
 20
-23.2597705148
 30
0.0
 10
2.4089979857
 20
-23.2491370771
 30
0.0
 10
2.401415541
 20
-23.2379794139
 30
0.0
 10
2.3915317271
 20
-23.2219233814
 30
0.0
 10
2.3797949096
 20
-23.2000643378
 30
0.0
 10
2.3669114916
 20
-23.1715175786
 30
0.0
 10
2.3504720255
 20
-23.1283736386
 30
0.0
 10
2.3326622846
 20
-23.0672506206
 30
0.0
 10
2.3157406692
 20
-22.9852695939
 30
0.0
 10
2.3026056701
 20
-22.8923553707
 30
0.0
 10
2.2895455916
 20
-22.7467283467
 30
0.0
 10
2.2865590543
 20
-22.6317159313
 30
0.0
 10
2.28661843
 20
-22.55148763
 30
0.0
 11
3.1361211865
 21
-22.5501832493
 31
0.0
 11
3.13612137
 21
-22.55148763
 31
0.0
 11
3.1360914625
 21
-22.5677662502
 31
0.0
 11
3.1360017399
 21
-22.58387381
 31
0.0
 11
3.1356428495
 21
-22.6155757483
 31
0.0
 11
3.1350446989
 21
-22.6465934449
 31
0.0
 11
3.134207288
 21
-22.6769268999
 31
0.0
 11
3.1318146856
 21
-22.7355410848
 31
0.0
 11
3.1284650422
 21
-22.7914183031
 31
0.0
 11
3.1241583578
 21
-22.8445585547
 31
0.0
 11
3.1188946324
 21
-22.8949618396
 31
0.0
 11
3.1054960586
 21
-22.9875575094
 31
0.0
 11
3.088269321
 21
-23.0692053124
 31
0.0
 11
3.0672144194
 21
-23.1399052488
 31
0.0
 11
3.0552514072
 21
-23.171149767
 31
0.0
 11
3.042331354
 21
-23.1996573185
 31
0.0
 11
3.0284542598
 21
-23.2254279033
 31
0.0
 11
3.0211568223
 21
-23.2372868332
 31
0.0
 11
3.0136201246
 21
-23.2484615215
 31
0.0
 11
3.0059078907
 21
-23.25912483
 31
0.0
 11
2.9980838449
 21
-23.2694496208
 31
0.0
 11
2.9821003174
 21
-23.2890836493
 31
0.0
 11
2.9656695419
 21
-23.3073636068
 31
0.0
 11
2.9487915185
 21
-23.3242894933
 31
0.0
 11
2.913693728
 21
-23.3540790537
 31
0.0
 11
2.8768069457
 21
-23.3784523304
 31
0.0
 11
2.8381311718
 21
-23.3974093233
 31
0.0
 11
2.7976664062
 21
-23.4109500326
 31
0.0
 11
2.7767631515
 21
-23.4156892808
 31
0.0
 11
2.7554126489
 21
-23.4190744581
 31
0.0
 11
2.7336148984
 21
-23.4211055645
 31
0.0
 11
2.7225483052
 21
-23.4216133411
 31
0.0
 11
2.7113699
 21
-23.4217826
 31
0.0
 11
2.7001914976
 21
-23.4216140437
 31
0.0
 11
2.689124907
 21
-23.4211083746
 31
0.0
 11
2.6673271613
 21
-23.4190856984
 31
0.0
 11
2.6459766631
 21
-23.4157145715
 31
0.0
 11
2.6250734122
 21
-23.4109949937
 31
0.0
 11
2.5846086526
 21
-23.3975104859
 31
0.0
 11
2.5459328826
 21
-23.3786321749
 31
0.0
 11
2.5090461021
 21
-23.3543600608
 31
0.0
 11
2.4739483112
 21
-23.3246941435
 31
0.0
 11
2.4570702869
 21
-23.3078385087
 31
0.0
 11
2.4406395099
 21
-23.2896344231
 31
0.0
 11
2.4246559803
 21
-23.2700818867
 31
0.0
 11
2.4168319333
 21
-23.2597999495
 31
0.0
 11
2.4091196981
 21
-23.2491808996
 31
0.0
 11
2.401582999
 21
-23.2380490649
 31
0.0
 11
2.3942855602
 21
-23.2262287735
 31
0.0
 11
2.3804084634
 21
-23.2005228203
 31
0.0
 11
2.3674884078
 21
-23.17206304
 31
0.0
 11
2.3555253933
 21
-23.1408494326
 31
0.0
 11
2.3344704878
 21
-23.0701607365
 31
0.0
 11
2.317243747
 21
-22.988456732
 31
0.0
 11
2.3038451708
 21
-22.8957374191
 31
0.0
 11
2.2942747593
 21
-22.7920027978
 31
0.0
 11
2.28661843
 21
-22.55148763
 31
0.0
  0
SPLINE
  5
43A
100
AcDbEntity
  8
0
100
AcDbSpline
 62
7
  6
CONTINUOUS
 70
0
 71
3
 72
86
 73
82
 74
80
 42
0.0000001
 43
0.0000001
 44
0.0000000001
 12
0.0015991619
 22
2.1607836921
 32
0.0
 13
0.000617665
 23
-2.1603549961
 33
0.0
 40
0.0
 40
0.0
 40
0.0
 40
0.0
 40
0.0582195039
 40
0.1117475462
 40
0.160674821
 40
0.2051201962
 40
0.22571287
 40
0.2452490807
 40
0.2637578417
 40
0.281273273
 40
0.2978356345
 40
0.3057748111
 40
0.3134942976
 40
0.3210014278
 40
0.3246779574
 40
0.3283044462
 40
0.3318819991
 40
0.3354117667
 40
0.3371591229
 40
0.3388949862
 40
0.340619514
 40
0.3414775797
 40
0.3419055716
 40
0.3423328726
 40
0.342670348
 40
0.343007532
 40
0.3436810288
 40
0.3450245597
 40
0.3463635187
 40
0.3476979581
 40
0.3503534759
 40
0.3529915544
 40
0.3556126302
 40
0.3582171485
 40
0.3633782196
 40
0.3684786123
 40
0.3735221934
 40
0.3834539971
 40
0.3932081175
 40
0.4028199161
 40
0.4123263429
 40
0.4217655853
 40
0.4405890433
 40
0.4596137584
 40
0.4791438301
 40
0.4891915184
 40
0.4942998909
 40
0.496876847
 40
0.4994695704
 40
0.5021151959
 40
0.5047475587
 40
0.5099747032
 40
0.5202949687
 40
0.5304715666
 40
0.5405460739
 40
0.5605500183
 40
0.5806665092
 40
0.6012389488
 40
0.6225887496
 40
0.6336507013
 40
0.6450116976
 40
0.6567016502
 40
0.6626790614
 40
0.6687488045
 40
0.6749655659
 40
0.6813903588
 40
0.694903209
 40
0.7093633513
 40
0.7248305495
 40
0.75896363
 40
0.7976098835
 40
0.8409715847
 40
0.8644688414
 40
0.8891949169
 40
0.9151617507
 40
0.9423796493
 40
0.9564607169
 40
0.9708578048
 40
0.9855718563
 40
0.9930480348
 40
1.0
 40
1.0
 40
1.0
 40
1.0
 10
2.28661843
 20
-22.55148763
 30
0.0
 10
2.2866494641
 20
-22.5095543784
 30
0.0
 10
2.2878330628
 20
-22.4290860361
 30
0.0
 10
2.2939352325
 20
-22.3135053681
 30
0.0
 10
2.3041815253
 20
-22.2081795239
 30
0.0
 10
2.3164841983
 20
-22.1269828219
 30
0.0
 10
2.328619971
 20
-22.0672892992
 30
0.0
 10
2.3385369733
 20
-22.0262335693
 30
0.0
 10
2.349500818
 20
-21.9877422648
 30
0.0
 10
2.3615130204
 20
-21.9518149451
 30
0.0
 10
2.3725489224
 20
-21.9236248648
 30
0.0
 10
2.381929518
 20
-21.9023994789
 30
0.0
 10
2.3891280692
 20
-21.8873475408
 30
0.0
 10
2.3953882134
 20
-21.8752569435
 30
0.0
 10
2.4005300422
 20
-21.8659127311
 30
0.0
 10
2.4044252459
 20
-21.8591137809
 30
0.0
 10
2.4083859592
 20
-21.8524755774
 30
0.0
 10
2.4117522746
 20
-21.8470597103
 30
0.0
 10
2.4144783517
 20
-21.842808428
 30
0.0
 10
2.4165322954
 20
-21.8396706374
 30
0.0
 10
2.4182609345
 20
-21.8370855071
 30
0.0
 10
2.4194780284
 20
-21.835291378
 30
0.0
 10
2.4201761625
 20
-21.8342740849
 30
0.0
 10
2.4206593783
 20
-21.8335639064
 30
0.0
 10
2.4211215674
 20
-21.8329188158
 30
0.0
 10
2.4216840983
 20
-21.8321275787
 30
0.0
 10
2.4226715223
 20
-21.8307494995
 30
0.0
 10
2.4240872088
 20
-21.8287908385
 30
0.0
 10
2.4257966856
 20
-21.8264573192
 30
0.0
 10
2.428083698
 20
-21.823375805
 30
0.0
 10
2.4309644414
 20
-21.8195700364
 30
0.0
 10
2.4344621689
 20
-21.8150698266
 30
0.0
 10
2.437994984
 20
-21.8106439802
 30
0.0
 10
2.4427375137
 20
-21.8048598806
 30
0.0
 10
2.4487538669
 20
-21.7978124521
 30
0.0
 10
2.4561363125
 20
-21.7896268889
 30
0.0
 10
2.4661149124
 20
-21.779163904
 30
0.0
 10
2.4789495038
 20
-21.7668030928
 30
0.0
 10
2.494995528
 20
-21.753085451
 30
0.0
 10
2.5116070435
 20
-21.7405596804
 30
0.0
 10
2.5287847132
 20
-21.7292268698
 30
0.0
 10
2.5524115223
 20
-21.7157230951
 30
0.0
 10
2.5835721198
 20
-21.701732455
 30
0.0
 10
2.6232389236
 20
-21.6897863034
 30
0.0
 10
2.6578356838
 20
-21.6839185825
 30
0.0
 10
2.6827412443
 20
-21.6818797531
 30
0.0
 10
2.6955024247
 20
-21.68136516
 30
0.0
 10
2.7029025401
 20
-21.6812173699
 30
0.0
 10
2.7085305274
 20
-21.6811795275
 30
0.0
 10
2.7141984245
 20
-21.6812203915
 30
0.0
 10
2.7217617629
 20
-21.6813885191
 30
0.0
 10
2.7348420274
 20
-21.6819727954
 30
0.0
 10
2.7533034481
 20
-21.6836452429
 30
0.0
 10
2.7750746938
 20
-21.6870152851
 30
0.0
 10
2.8033917239
 20
-21.6932959381
 30
0.0
 10
2.8378462793
 20
-21.7046013091
 30
0.0
 10
2.8773065878
 20
-21.7236796774
 30
0.0
 10
2.9147821661
 20
-21.7482133413
 30
0.0
 10
2.9440045883
 20
-21.7728887478
 30
0.0
 10
2.9663423895
 20
-21.7951454657
 30
0.0
 10
2.9828127765
 20
-21.8133864406
 30
0.0
 10
2.9960408639
 20
-21.8295839821
 30
0.0
 10
3.0063726147
 20
-21.8432029294
 30
0.0
 10
3.0141131351
 20
-21.8538376972
 30
0.0
 10
3.0216725379
 20
-21.8649965922
 30
0.0
 10
3.0315270153
 20
-21.8810532617
 30
0.0
 10
3.043228382
 20
-21.9029131637
 30
0.0
 10
3.0560724829
 20
-21.931459577
 30
0.0
 10
3.0724626206
 20
-21.9746052837
 30
0.0
 10
3.0902179889
 20
-22.0357290999
 30
0.0
 10
3.1070883206
 20
-22.1177079818
 30
0.0
 10
3.1176952791
 20
-22.192984438
 30
0.0
 10
3.1244749249
 20
-22.2585908233
 30
0.0
 10
3.1287399708
 20
-22.3118508712
 30
0.0
 10
3.1320535575
 20
-22.3678613406
 30
0.0
 10
3.1339985872
 20
-22.4162644515
 30
0.0
 10
3.1350956465
 20
-22.4563575201
 30
0.0
 10
3.1356892146
 20
-22.4874556957
 30
0.0
 10
3.1359836014
 20
-22.5138015104
 30
0.0
 10
3.1360993969
 20
-22.5347870463
 30
0.0
 10
3.1361197552
 20
-22.5451770117
 30
0.0
 10
3.1361211865
 20
-22.5501832493
 30
0.0
 11
2.28661843
 21
-22.55148763
 31
0.0
 11
2.2887134418
 21
-22.4257303632
 31
0.0
 11
2.2949984771
 21
-22.3102617863
 31
0.0
 11
2.3054735359
 21
-22.2050818992
 31
0.0
 11
2.3201386184
 21
-22.110190702
 31
0.0
 11
2.3290424184
 21
-22.066603362
 31
0.0
 11
2.3389937243
 21
-22.0255881946
 31
0.0
 11
2.3499925361
 21
-21.9871451996
 31
0.0
 11
2.3620388538
 21
-21.951274377
 31
0.0
 11
2.3751326774
 21
-21.917975727
 31
0.0
 11
2.3820724039
 21
-21.9022909666
 31
0.0
 11
2.3892740068
 21
-21.8872492493
 31
0.0
 11
2.3967374863
 21
-21.8728505752
 31
0.0
 11
2.4005674297
 21
-21.8658923793
 31
0.0
 11
2.4044628422
 21
-21.8590949442
 31
0.0
 11
2.4084237238
 21
-21.8524582698
 31
0.0
 11
2.4124500746
 21
-21.8459823563
 31
0.0
 11
2.4144878008
 21
-21.8428046848
 31
0.0
 11
2.4165418944
 21
-21.8396672035
 31
0.0
 11
2.4186123553
 21
-21.8365699124
 31
0.0
 11
2.4196537234
 21
-21.8350363382
 31
0.0
 11
2.4201759419
 21
-21.8342733189
 31
0.0
 11
2.4206991834
 21
-21.8335128115
 31
0.0
 11
2.4211213241
 21
-21.8329183919
 31
0.0
 11
2.4215440126
 21
-21.8323251345
 31
0.0
 11
2.4223910328
 21
-21.831142106
 31
0.0
 11
2.4240916466
 21
-21.8287899943
 31
0.0
 11
2.4258010247
 21
-21.8264564763
 31
0.0
 11
2.4275191671
 21
-21.8241415522
 31
0.0
 11
2.430981745
 21
-21.8195674851
 31
0.0
 11
2.4344793802
 21
-21.8150677931
 31
0.0
 11
2.4380120727
 21
-21.8106424762
 31
0.0
 11
2.4415798226
 21
-21.8062915344
 31
0.0
 11
2.4488204945
 21
-21.797812776
 31
0.0
 11
2.4562013957
 21
-21.7896315178
 31
0.0
 11
2.4637225263
 21
-21.78174776
 31
0.0
 11
2.4791854756
 21
-21.7668727452
 31
0.0
 11
2.4952093424
 21
-21.7531877316
 31
0.0
 11
2.5117941267
 21
-21.7406927192
 31
0.0
 11
2.5289398286
 21
-21.7293877079
 31
0.0
 11
2.5466464479
 21
-21.7192726979
 31
0.0
 11
2.5837424391
 21
-21.7026126813
 31
0.0
 11
2.6230821004
 21
-21.6907126695
 31
0.0
 11
2.6646654317
 21
-21.6835726624
 31
0.0
 11
2.6862984736
 21
-21.6817876606
 31
0.0
 11
2.6973253386
 21
-21.6813414101
 31
0.0
 11
2.7028913571
 21
-21.6812298475
 31
0.0
 11
2.708492433
 21
-21.68119266
 31
0.0
 11
2.7142077642
 21
-21.6812347991
 31
0.0
 11
2.7198931936
 21
-21.6813612163
 31
0.0
 11
2.7311743466
 21
-21.6818668853
 31
0.0
 11
2.7533778299
 21
-21.6838895612
 31
0.0
 11
2.7751028829
 21
-21.6872606877
 31
0.0
 11
2.7963495057
 21
-21.6919802649
 31
0.0
 11
2.8374074603
 21
-21.7054647709
 31
0.0
 11
2.8765516939
 21
-21.7243430794
 31
0.0
 11
2.9137822062
 21
-21.7486151904
 31
0.0
 11
2.9490989975
 21
-21.7782811037
 31
0.0
 11
2.9660397476
 21
-21.7951367363
 31
0.0
 11
2.9825020675
 21
-21.8133408195
 31
0.0
 11
2.9984859572
 21
-21.8328933533
 31
0.0
 11
3.0062984906
 21
-21.8431752892
 31
0.0
 11
3.0139914165
 21
-21.8537943378
 31
0.0
 11
3.0215052711
 21
-21.8649261711
 31
0.0
 11
3.0287805905
 21
-21.8767464613
 31
0.0
 11
3.0426156243
 21
-21.9024524125
 31
0.0
 11
3.0554965179
 21
-21.9309121913
 31
0.0
 11
3.0674232712
 21
-21.9621257977
 31
0.0
 11
3.0884143569
 21
-22.0328144934
 31
0.0
 11
3.1055888816
 21
-22.1145184997
 31
0.0
 11
3.1189468453
 21
-22.2072378165
 31
0.0
 11
3.1241946167
 21
-22.2577282163
 31
0.0
 11
3.1284882479
 21
-22.3109724438
 31
0.0
 11
3.1318277388
 21
-22.3669704989
 31
0.0
 11
3.1342130895
 21
-22.4257223816
 31
0.0
 11
3.1350479622
 21
-22.4561310084
 31
0.0
 11
3.1356442999
 21
-22.487228092
 31
0.0
 11
3.1360021025
 21
-22.5190136325
 31
0.0
 11
3.1360915531
 21
-22.5351645742
 31
0.0
 11
3.1361211865
 21
-22.5501832493
 31
0.0
  0
SPLINE
  5
43B
100
AcDbEntity
  8
0
100
AcDbSpline
 62
7
  6
CONTINUOUS
 70
0
 71
3
 72
103
 73
99
 74
97
 42
0.0000001
 43
0.0000001
 44
0.0000000001
 12
-0.0003010153
 22
2.910488996
 32
0.0
 13
0.0003624009
 23
-2.9105146643
 33
0.0
 40
0.0
 40
0.0
 40
0.0
 40
0.0
 40
0.0000661246
 40
0.0003841837
 40
0.0007020515
 40
0.0019716088
 40
0.0032381054
 40
0.0057619197
 40
0.008273503
 40
0.0132600074
 40
0.0181976889
 40
0.0230866173
 40
0.0279268651
 40
0.0327185065
 40
0.0421562593
 40
0.0514005372
 40
0.0693112596
 40
0.0864568637
 40
0.1028442178
 40
0.1184811893
 40
0.1475388137
 40
0.1609849506
 40
0.1674431327
 40
0.1737271983
 40
0.1798903931
 40
0.1859850135
 40
0.1979719482
 40
0.2096958494
 40
0.2211648658
 40
0.2433712468
 40
0.2646699905
 40
0.2851481044
 40
0.2951119566
 40
0.3049207818
 40
0.3429869466
 40
0.3616752736
 40
0.3803604058
 40
0.3992133222
 40
0.4182751416
 40
0.427931262
 40
0.4377001002
 40
0.447604144
 40
0.4576649741
 40
0.4679031803
 40
0.4730952403
 40
0.478338879
 40
0.4836363692
 40
0.4863060337
 40
0.4889899818
 40
0.4916884783
 40
0.4944017838
 40
0.4957640742
 40
0.4971301625
 40
0.4978146413
 40
0.4985000813
 40
0.4991864864
 40
0.4995300521
 40
0.499701926
 40
0.4998738606
 40
0.5001069666
 40
0.5003399565
 40
0.5008055883
 40
0.501735464
 40
0.5026634973
 40
0.5035896976
 40
0.5054366342
 40
0.5072763517
 40
0.5109344166
 40
0.5145645342
 40
0.5181673419
 40
0.5217434914
 40
0.5288183248
 40
0.535794709
 40
0.5426783898
 40
0.5494753484
 40
0.5561917977
 40
0.56940745
 40
0.5823809934
 40
0.5951695636
 40
0.6078328007
 40
0.6330142541
 40
0.645670166
 40
0.6584057937
 40
0.6842636707
 40
0.7109563377
 40
0.7388178314
 40
0.7532845402
 40
0.76815016
 40
0.783444967
 40
0.7912656101
 40
0.7992476473
 40
0.8329812697
 40
0.8697736863
 40
0.909791936
 40
0.953165815
 40
0.9761451567
 40
0.9879625612
 40
1.0
 40
1.0
 40
1.0
 40
1.0
 10
3.4034474488
 20
-22.5503200534
 30
0.0
 10
3.4034474421
 20
-22.5502559017
 30
0.0
 10
3.4034473949
 20
-22.5498831808
 30
0.0
 10
3.4034472197
 20
-22.5492020765
 30
0.0
 10
3.4034463316
 20
-22.5473534464
 30
0.0
 10
3.4034434668
 20
-22.5445846783
 30
0.0
 10
3.4034340056
 20
-22.53967579
 30
0.0
 10
3.4034140074
 20
-22.5335619544
 30
0.0
 10
3.4033645945
 20
-22.5238391972
 30
0.0
 10
3.4032702659
 20
-22.511774813
 30
0.0
 10
3.403104306
 20
-22.4974046024
 30
0.0
 10
3.4028858575
 20
-22.4831770022
 30
0.0
 10
3.4026149225
 20
-22.469092009
 30
0.0
 10
3.4021858679
 20
-22.4505962879
 30
0.0
 10
3.4015204896
 20
-22.4278324209
 30
0.0
 10
3.4001845116
 20
-22.3923563206
 30
0.0
 10
3.3980083972
 20
-22.3494300124
 30
0.0
 10
3.3945301562
 20
-22.2996395474
 30
0.0
 10
3.3902140976
 20
-22.2521278736
 30
0.0
 10
3.3835011378
 20
-22.1932471647
 30
0.0
 10
3.3750643011
 20
-22.1374402731
 30
0.0
 10
3.3657568764
 20
-22.0908517226
 30
0.0
 10
3.360138186
 20
-22.0660723891
 30
0.0
 10
3.3557420718
 20
-22.0482646193
 30
0.0
 10
3.3511594533
 20
-22.0308689714
 30
0.0
 10
3.3449155253
 20
-22.0081910825
 30
0.0
 10
3.3367201479
 20
-21.980457152
 30
0.0
 10
3.326209573
 20
-21.9479813279
 30
0.0
 10
3.3115212958
 20
-21.9064534559
 30
0.0
 10
3.2916410758
 20
-21.8569279509
 30
0.0
 10
3.2650216739
 20
-21.800805365
 30
0.0
 10
3.2405054223
 20
-21.7569550257
 30
0.0
 10
3.2196590146
 20
-21.7239212716
 30
0.0
 10
3.1876716326
 20
-21.6778157397
 30
0.0
 10
3.1447956941
 20
-21.6288740444
 30
0.0
 10
3.0888372916
 20
-21.581553416
 30
0.0
 10
3.0438138451
 20
-21.5505926611
 30
0.0
 10
2.9956798796
 20
-21.5239855587
 30
0.0
 10
2.9531501874
 20
-21.5058425931
 30
0.0
 10
2.9178007416
 20
-21.4937818874
 30
0.0
 10
2.8904457546
 20
-21.4859086438
 30
0.0
 10
2.8623675018
 20
-21.4792502961
 30
0.0
 10
2.8335658426
 20
-21.4738057047
 30
0.0
 10
2.8090769806
 20
-21.4702964374
 30
0.0
 10
2.789140653
 20
-21.4680881588
 30
0.0
 10
2.773936561
 20
-21.466726985
 30
0.0
 10
2.7611492042
 20
-21.4658473953
 30
0.0
 10
2.7508305851
 20
-21.4652940183
 30
0.0
 10
2.7430260118
 20
-21.464953594
 30
0.0
 10
2.7351761554
 20
-21.4646888683
 30
0.0
 10
2.7286059512
 20
-21.4645315624
 30
0.0
 10
2.7233273505
 20
-21.4644434109
 30
0.0
 10
2.7200165421
 20
-21.4644040371
 30
0.0
 10
2.7173622589
 20
-21.46438198
 30
0.0
 10
2.7153673227
 20
-21.4643701564
 30
0.0
 10
2.7137031034
 20
-21.4643642477
 30
0.0
 10
2.7125371197
 20
-21.4643621798
 30
0.0
 10
2.7118702549
 20
-21.4643615883
 30
0.0
 10
2.7113105538
 20
-21.4643614239
 30
0.0
 10
2.7106915602
 20
-21.4643616674
 30
0.0
 10
2.709787633
 20
-21.4643627309
 30
0.0
 10
2.7082077289
 20
-21.4643664517
 30
0.0
 10
2.7059535366
 20
-21.4643770811
 30
0.0
 10
2.7032525758
 20
-21.4643983565
 30
0.0
 10
2.6996620519
 20
-21.4644380358
 30
0.0
 10
2.6951873567
 20
-21.4645088568
 30
0.0
 10
2.6880635072
 20
-21.4646673805
 30
0.0
 10
2.6792121981
 20
-21.4649501897
 30
0.0
 10
2.6686566042
 20
-21.4654264529
 30
0.0
 10
2.658187606
 20
-21.4660389524
 30
0.0
 10
2.6443945843
 20
-21.4670336479
 30
0.0
 10
2.6273639534
 20
-21.4686142794
 30
0.0
 10
2.6071991073
 20
-21.4710632003
 30
0.0
 10
2.5873804678
 20
-21.4740574164
 30
0.0
 10
2.5679078681
 20
-21.4775970756
 30
0.0
 10
2.5425451022
 20
-21.4830140004
 30
0.0
 10
2.5116481599
 20
-21.4911396243
 30
0.0
 10
2.4757574663
 20
-21.5031328534
 30
0.0
 10
2.4412494433
 20
-21.5173192045
 30
0.0
 10
2.3971898787
 20
-21.5391053813
 30
0.0
 10
2.3556292197
 20
-21.5654196231
 30
0.0
 10
2.3171921261
 20
-21.5959590336
 30
0.0
 10
2.2802384289
 20
-21.6292653162
 30
0.0
 10
2.2371809267
 20
-21.6759435826
 30
0.0
 10
2.1912202908
 20
-21.7391742932
 30
0.0
 10
2.157840216
 20
-21.7973693651
 30
0.0
 10
2.1337840558
 20
-21.8473878503
 30
0.0
 10
2.1168396251
 20
-21.8872471025
 30
0.0
 10
2.1039262022
 20
-21.9217702375
 30
0.0
 10
2.0942187127
 20
-21.9503375789
 30
0.0
 10
2.0797936987
 20
-21.9961833792
 30
0.0
 10
2.0610171473
 20
-22.0700962199
 30
0.0
 10
2.0422151108
 20
-22.1757552012
 30
0.0
 10
2.0288469503
 20
-22.2916478609
 30
0.0
 10
2.0223597698
 20
-22.3946828106
 30
0.0
 10
2.0200725343
 20
-22.4704908748
 30
0.0
 10
2.0194033352
 20
-22.5159235568
 30
0.0
 10
2.0192908759
 20
-22.5390666654
 30
0.0
 10
2.01929233
 20
-22.5507450462
 30
0.0
 11
3.4034474488
 21
-22.5503200534
 31
0.0
 11
3.4034474244
 21
-22.5501275983
 31
0.0
 11
3.4034471852
 21
-22.5492018908
 31
0.0
 11
3.4034467409
 21
-22.5482767404
 31
0.0
 11
3.4034429134
 21
-22.5445817096
 31
0.0
 11
3.403435805
 21
-22.5408955923
 31
0.0
 11
3.4034117459
 21
-22.5335500978
 31
0.0
 11
3.4033745637
 21
-22.5262402569
 31
0.0
 11
3.4032608298
 21
-22.5117275362
 31
0.0
 11
3.4030946035
 21
-22.4973574301
 31
0.0
 11
3.4028758845
 21
-22.4831299385
 31
0.0
 11
3.402604673
 21
-22.4690450616
 31
0.0
 11
3.402280969
 21
-22.4551027993
 31
0.0
 11
3.4014760833
 21
-22.4276461186
 31
0.0
 11
3.4004612275
 21
-22.4007598963
 31
0.0
 11
3.3978016052
 21
-22.3486988269
 31
0.0
 11
3.3943021022
 21
-22.2989195914
 31
0.0
 11
3.3899627186
 21
-22.2514221895
 31
0.0
 11
3.3847834542
 21
-22.2062066215
 31
0.0
 11
3.3719052832
 21
-22.1226209866
 31
0.0
 11
3.3642063767
 21
-22.0842509198
 31
0.0
 11
3.3600419682
 21
-22.0659215741
 31
0.0
 11
3.3556675895
 21
-22.0481626868
 31
0.0
 11
3.3511103153
 21
-22.0308133384
 31
0.0
 11
3.3463972206
 21
-22.0137126094
 31
0.0
 11
3.336503569
 21
-21.9802570096
 31
0.0
 11
3.3259866348
 21
-21.9477958872
 31
0.0
 11
3.314846418
 21
-21.9163292424
 31
0.0
 11
3.2906961364
 21
-21.8563793854
 31
0.0
 11
3.2640527243
 21
-21.8004074386
 31
0.0
 11
3.2349161816
 21
-21.7484134018
 31
0.0
 11
3.2194023354
 21
-21.7239123375
 31
0.0
 11
3.203116094
 21
-21.7004650791
 31
0.0
 11
3.1298211406
 21
-21.6173836153
 31
0.0
 11
3.0882836712
 21
-21.5822674251
 31
0.0
 11
3.0434862066
 21
-21.5514342627
 31
0.0
 11
2.9954487796
 21
-21.5249153102
 31
0.0
 11
2.9444318157
 21
-21.5031159349
 31
0.0
 11
2.9178360565
 21
-21.4940328619
 31
0.0
 11
2.8905154458
 21
-21.4861608653
 31
0.0
 11
2.8624699836
 21
-21.479499945
 31
0.0
 11
2.8336996699
 21
-21.4740501012
 31
0.0
 11
2.8042045046
 21
-21.4698113338
 31
0.0
 11
2.7891851027
 21
-21.4681461038
 31
0.0
 11
2.7739844879
 21
-21.4667836428
 31
0.0
 11
2.7586026603
 21
-21.465723951
 31
0.0
 11
2.7508437916
 21
-21.4653076434
 31
0.0
 11
2.7430396197
 21
-21.4649670282
 31
0.0
 11
2.7351901446
 21
-21.4647021052
 31
0.0
 11
2.7272953663
 21
-21.4645128746
 31
0.0
 11
2.7233309884
 21
-21.4644466438
 31
0.0
 11
2.7193552848
 21
-21.4643993361
 31
0.0
 11
2.7173631857
 21
-21.4643827785
 31
0.0
 11
2.7153682553
 21
-21.4643709515
 31
0.0
 11
2.7133704934
 21
-21.4643638554
 31
0.0
 11
2.7123705506
 21
-21.4643620813
 31
0.0
 11
2.7118703138
 21
-21.4643616378
 31
0.0
 11
2.7113699
 21
-21.46436149
 31
0.0
 11
2.7106914475
 21
-21.464361756
 31
0.0
 11
2.7100133336
 21
-21.4643625542
 31
0.0
 11
2.7086581211
 21
-21.4643657467
 31
0.0
 11
2.7059517582
 21
-21.4643785169
 31
0.0
 11
2.7032508112
 21
-21.4643998006
 31
0.0
 11
2.7005552801
 21
-21.4644295978
 31
0.0
 11
2.6951804657
 21
-21.4645147325
 31
0.0
 11
2.6898273151
 21
-21.464633921
 31
0.0
 11
2.6791860048
 21
-21.4649744598
 31
0.0
 11
2.6686313493
 21
-21.4654512141
 31
0.0
 11
2.6581633486
 21
-21.466064184
 31
0.0
 11
2.6477820028
 21
-21.4668133693
 31
0.0
 11
2.6272792754
 21
-21.4687203865
 31
0.0
 11
2.6071231673
 21
-21.4711722658
 31
0.0
 11
2.5873136784
 21
-21.4741690072
 31
0.0
 11
2.5678508086
 21
-21.4777106106
 31
0.0
 11
2.5487345581
 21
-21.4817970762
 31
0.0
 11
2.5115419147
 21
-21.4916045934
 31
0.0
 11
2.475735748
 21
-21.5035915588
 31
0.0
 11
2.4413160582
 21
-21.5177579726
 31
0.0
 11
2.4082828452
 21
-21.5341038346
 31
0.0
 11
2.3463758496
 21
-21.5733339035
 31
0.0
 11
2.3174985771
 21
-21.5962011822
 31
0.0
 11
2.2899589231
 21
-21.6210109154
 31
0.0
 11
2.2388505919
 21
-21.6762546082
 31
0.0
 11
2.1930368964
 21
-21.7389972693
 31
0.0
 11
2.1525178366
 21
-21.8092388987
 31
0.0
 11
2.1342437951
 21
-21.8471718265
 31
0.0
 11
2.1172934125
 21
-21.8869794964
 31
0.0
 11
2.1016666889
 21
-21.9286619083
 31
0.0
 11
2.0943502261
 21
-21.95021587
 31
0.0
 11
2.0873720543
 21
-21.9723747015
 31
0.0
 11
2.0628633536
 21
-22.0674478235
 31
0.0
 11
2.0438010308
 21
-22.1728214189
 31
0.0
 11
2.0301850859
 21
-22.2884954879
 31
0.0
 11
2.0220155207
 21
-22.4144700618
 31
0.0
 11
2.0199731279
 21
-22.4813199909
 31
0.0
 11
2.0194625295
 21
-22.5157106263
 31
0.0
 11
2.01929233
 21
-22.5507450462
 31
0.0
  0
SPLINE
  5
43C
100
AcDbEntity
  8
0
100
AcDbSpline
 62
7
  6
CONTINUOUS
 70
0
 71
3
 72
117
 73
113
 74
111
 42
0.0000001
 43
0.0000001
 44
0.0000000001
 12
0.0003624009
 22
-2.9105146643
 32
0.0
 13
-0.0003010153
 23
2.9104889961
 33
0.0
 40
0.0
 40
0.0
 40
0.0
 40
0.0
 40
0.0190451392
 40
0.0375942557
 40
0.0732267234
 40
0.1069518803
 40
0.1388323213
 40
0.168942148
 40
0.1973693121
 40
0.2242183065
 40
0.2496131128
 40
0.261812582
 40
0.2737055333
 40
0.2795443191
 40
0.2853149613
 40
0.2910205024
 40
0.2966640901
 40
0.3022489768
 40
0.3050205058
 40
0.306401222
 40
0.3077786405
 40
0.3091528157
 40
0.3105238028
 40
0.3108660584
 40
0.3112081191
 40
0.3115301257
 40
0.3118122683
 40
0.3123761636
 40
0.3129395418
 40
0.3140647607
 40
0.3151879544
 40
0.3174283747
 40
0.3196610418
 40
0.3218861902
 40
0.32631482
 40
0.3307162453
 40
0.3350924241
 40
0.3437765334
 40
0.3523839528
 40
0.3609314325
 40
0.3694360771
 40
0.3863820803
 40
0.4033665264
 40
0.420528724
 40
0.4380037308
 40
0.4469007693
 40
0.4559232484
 40
0.4650857148
 40
0.4744020595
 40
0.479122291
 40
0.4838858889
 40
0.4886943977
 40
0.4911159877
 40
0.4935493649
 40
0.4959947105
 40
0.49722193
 40
0.4984522083
 40
0.4990685017
 40
0.4996855679
 40
0.4999943918
 40
0.5001364844
 40
0.5002537893
 40
0.5004883102
 40
0.5007227128
 40
0.5016591431
 40
0.5025936924
 40
0.5035263702
 40
0.5044571856
 40
0.5063132655
 40
0.5100034792
 40
0.5136649768
 40
0.5172983947
 40
0.5209043845
 40
0.5244836126
 40
0.5315643487
 40
0.5385464048
 40
0.5522366608
 40
0.5656056882
 40
0.5787070246
 40
0.5915975437
 40
0.6043369426
 40
0.6169870584
 40
0.62961104
 40
0.6422724276
 40
0.6550067598
 40
0.6678382472
 40
0.6939684226
 40
0.7210313098
 40
0.7493481301
 40
0.7791996529
 40
0.7947926235
 40
0.8110250003
 40
0.8279735986
 40
0.8456640987
 40
0.8833537804
 40
0.9033950752
 40
0.9242538341
 40
0.9349943262
 40
0.9459442149
 40
0.9571049866
 40
0.9684780449
 40
0.9800647161
 40
0.98593857
 40
0.9888956905
 40
0.9918662963
 40
0.9948504057
 40
0.9963475301
 40
0.9978480372
 40
0.9985995599
 40
0.999351929
 40
0.9997284312
 40
1.0
 40
1.0
 40
1.0
 40
1.0
 10
2.01929233
 20
-22.5507450462
 30
0.0
 10
2.0192946307
 20
-22.5692220984
 30
0.0
 10
2.0195867653
 20
-22.6056954291
 30
0.0
 10
2.0213933114
 20
-22.6767170307
 30
0.0
 10
2.0258578351
 20
-22.7619063881
 30
0.0
 10
2.034976339
 20
-22.8597293118
 30
0.0
 10
2.0477833691
 20
-22.9517375293
 30
0.0
 10
2.0642823506
 20
-23.0379343089
 30
0.0
 10
2.0844791187
 20
-23.1183253623
 30
0.0
 10
2.1083797605
 20
-23.1929105646
 30
0.0
 10
2.1316992824
 20
-23.250991612
 30
0.0
 10
2.1522666911
 20
-23.2943865284
 30
0.0
 10
2.1658035149
 20
-23.3200879626
 30
0.0
 10
2.1770984458
 20
-23.3398967775
 30
0.0
 10
2.1857490294
 20
-23.354298281
 30
0.0
 10
2.1946304973
 20
-23.3683349438
 30
0.0
 10
2.2037428734
 20
-23.3820067875
 30
0.0
 10
2.2115485715
 20
-23.3931238814
 30
0.0
 10
2.2171200492
 20
-23.400752849
 30
0.0
 10
2.2203245472
 20
-23.4050553234
 30
0.0
 10
2.2227394071
 20
-23.4082554585
 30
0.0
 10
2.2251687205
 20
-23.4114327597
 30
0.0
 10
2.2270029969
 20
-23.4138007504
 30
0.0
 10
2.2282305022
 20
-23.415372116
 30
0.0
 10
2.228832465
 20
-23.4161407467
 30
0.0
 10
2.2294005742
 20
-23.4168618261
 30
0.0
 10
2.2301107718
 20
-23.4177448685
 30
0.0
 10
2.2309673535
 20
-23.4188106751
 30
0.0
 10
2.2323419211
 20
-23.4205095136
 30
0.0
 10
2.2340653405
 20
-23.4226240587
 30
0.0
 10
2.2368339295
 20
-23.4259856364
 30
0.0
 10
2.240317273
 20
-23.4301503403
 30
0.0
 10
2.2445372353
 20
-23.4350922415
 30
0.0
 10
2.2502028754
 20
-23.4415906654
 30
0.0
 10
2.2573761483
 20
-23.4495653197
 30
0.0
 10
2.2661429885
 20
-23.4589098429
 30
0.0
 10
2.2779941336
 20
-23.4710165775
 30
0.0
 10
2.2931788345
 20
-23.485563675
 30
0.0
 10
2.3120282026
 20
-23.5021015801
 30
0.0
 10
2.3314593823
 20
-23.5176763985
 30
0.0
 10
2.3581054455
 20
-23.5371318932
 30
0.0
 10
2.3929822844
 20
-23.5591230675
 30
0.0
 10
2.4372091536
 20
-23.5816541239
 30
0.0
 10
2.4837599774
 20
-23.6003013083
 30
0.0
 10
2.5242440879
 20
-23.6125315351
 30
0.0
 10
2.5576784915
 20
-23.620392544
 30
0.0
 10
2.5834861033
 20
-23.62536074
 30
0.0
 10
2.6098712306
 20
-23.6293648527
 30
0.0
 10
2.6322420908
 20
-23.6318874978
 30
0.0
 10
2.6504168189
 20
-23.6334297183
 30
0.0
 10
2.6642528642
 20
-23.6343508779
 30
0.0
 10
2.6758755909
 20
-23.6349166262
 30
0.0
 10
2.6852449146
 20
-23.6352497588
 30
0.0
 10
2.6923249411
 20
-23.635440063
 30
0.0
 10
2.6982477873
 20
-23.6355483954
 30
0.0
 10
2.7030040179
 20
-23.6356051004
 30
0.0
 10
2.7059860182
 20
-23.635628041
 30
0.0
 10
2.7083761252
 20
-23.6356388899
 30
0.0
 10
2.7098722914
 20
-23.635642541
 30
0.0
 10
2.7109084085
 20
-23.6356434436
 30
0.0
 10
2.7114596758
 20
-23.6356435028
 30
0.0
 10
2.7119388572
 20
-23.6356433462
 30
0.0
 10
2.7125075942
 20
-23.635642826
 30
0.0
 10
2.7138710146
 20
-23.6356405085
 30
0.0
 10
2.7159135687
 20
-23.6356330267
 30
0.0
 10
2.7186335144
 20
-23.6356144789
 30
0.0
 10
2.721347941
 20
-23.6355873666
 30
0.0
 10
2.7249562261
 20
-23.6355398448
 30
0.0
 10
2.7312391023
 20
-23.6354270171
 30
0.0
 10
2.7401690301
 20
-23.6351805238
 30
0.0
 10
2.750817883
 20
-23.634747098
 30
0.0
 10
2.7613784526
 20
-23.6341766237
 30
0.0
 10
2.7718507644
 20
-23.633469095
 30
0.0
 10
2.7856458402
 20
-23.6323470837
 30
0.0
 10
2.8026752391
 20
-23.6306052101
 30
0.0
 10
2.8293739672
 20
-23.6271000091
 30
0.0
 10
2.8619201757
 20
-23.62136666
 30
0.0
 10
2.8998246885
 20
-23.6122395507
 30
0.0
 10
2.9363206737
 20
-23.6009091259
 30
0.0
 10
2.9714050552
 20
-23.5873740894
 30
0.0
 10
3.0050761797
 20
-23.5716345867
 30
0.0
 10
3.0373289632
 20
-23.5536877966
 30
0.0
 10
3.0681694596
 20
-23.5335453902
 30
0.0
 10
3.0975417238
 20
-23.5111846232
 30
0.0
 10
3.1255227054
 20
-23.4868061024
 30
0.0
 10
3.1613082646
 20
-23.4516302642
 30
0.0
 10
3.2028184445
 20
-23.4026327493
 30
0.0
 10
3.2468465412
 20
-23.3367621383
 30
0.0
 10
3.2854341274
 20
-23.2634749996
 30
0.0
 10
3.3126644926
 20
-23.197189774
 30
0.0
 10
3.3319409062
 20
-23.1405286975
 30
0.0
 10
3.3451896443
 20
-23.0950863208
 30
0.0
 10
3.3570744175
 20
-23.0471723915
 30
0.0
 10
3.371424159
 20
-22.9784712025
 30
0.0
 10
3.3826414296
 20
-22.9061059752
 30
0.0
 10
3.3911237442
 20
-22.8303293863
 30
0.0
 10
3.3953660505
 20
-22.7804027494
 30
0.0
 10
3.3981075836
 20
-22.7392136501
 30
0.0
 10
3.3998465146
 20
-22.7073893538
 30
0.0
 10
3.4012483167
 20
-22.6749342867
 30
0.0
 10
3.4023129496
 20
-22.6418483271
 30
0.0
 10
3.4029163805
 20
-22.6138810188
 30
0.0
 10
3.4031927072
 20
-22.5940744298
 30
0.0
 10
3.4033094721
 20
-22.5826255572
 30
0.0
 10
3.4033761686
 20
-22.5739798725
 30
0.0
 10
3.4034141418
 20
-22.5667504652
 30
0.0
 10
3.4034340178
 20
-22.5609472345
 30
0.0
 10
3.4034420587
 20
-22.5573099517
 30
0.0
 10
3.4034458612
 20
-22.5543951974
 30
0.0
 10
3.403447141
 20
-22.5525709091
 30
0.0
 10
3.403447481
 20
-22.5512122539
 30
0.0
 10
3.403447476
 20
-22.5505835194
 30
0.0
 10
3.4034474488
 20
-22.5503200534
 30
0.0
 11
2.01929233
 21
-22.5507450462
 31
0.0
 11
2.0197536732
 21
-22.6061737944
 31
0.0
 11
2.0211377027
 21
-22.6601430504
 31
0.0
 11
2.0266738208
 21
-22.7637030862
 31
0.0
 11
2.0359006843
 21
-22.8614251534
 31
0.0
 11
2.0488182933
 21
-22.9533092521
 31
0.0
 11
2.0654266476
 21
-23.0393553823
 31
0.0
 11
2.0857257474
 21
-23.119563544
 31
0.0
 11
2.1097155925
 21
-23.1939337371
 31
0.0
 11
2.1373961831
 21
-23.2624659618
 31
0.0
 11
2.1526205079
 21
-23.2945428359
 31
0.0
 11
2.1687675191
 21
-23.3251602179
 31
0.0
 11
2.1771870321
 21
-23.3399215994
 31
0.0
 11
2.1858372166
 21
-23.3543181078
 31
0.0
 11
2.1947180728
 21
-23.3683497432
 31
0.0
 11
2.2038296005
 21
-23.3820165056
 31
0.0
 11
2.2131717998
 21
-23.3953183949
 31
0.0
 11
2.2179294013
 21
-23.4018325122
 31
0.0
 11
2.2203298275
 21
-23.405055364
 31
0.0
 11
2.2227446707
 21
-23.4082554112
 31
0.0
 11
2.2251739309
 21
-23.4114326539
 31
0.0
 11
2.227617608
 21
-23.414587092
 31
0.0
 11
2.2282307799
 21
-23.4153721383
 31
0.0
 11
2.2288448529
 21
-23.4161557593
 31
0.0
 11
2.2294258161
 21
-23.4168911634
 31
0.0
 11
2.2299394348
 21
-23.4175318825
 31
0.0
 11
2.2309683691
 21
-23.4188105017
 31
0.0
 11
2.2319995661
 21
-23.4200853621
 31
0.0
 11
2.2340687479
 21
-23.4226238066
 31
0.0
 11
2.2361469801
 21
-23.4251472158
 31
0.0
 11
2.2403305958
 21
-23.4301489286
 31
0.0
 11
2.2445504134
 21
-23.4350905005
 31
0.0
 11
2.2488064326
 21
-23.4399719316
 31
0.0
 11
2.2574270765
 21
-23.4495543714
 31
0.0
 11
2.2661925273
 21
-23.4588962478
 31
0.0
 11
2.2751027853
 21
-23.4679975608
 31
0.0
 11
2.2933577222
 21
-23.4854784969
 31
0.0
 11
2.3121918874
 21
-23.5019971796
 31
0.0
 11
2.3316052807
 21
-23.517553609
 31
0.0
 11
2.3515979023
 21
-23.532147785
 31
0.0
 11
2.3933208299
 21
-23.5584493769
 31
0.0
 11
2.4373606702
 21
-23.5809019554
 31
0.0
 11
2.4837174232
 21
-23.5995055204
 31
0.0
 11
2.5323910889
 21
-23.6142600719
 31
0.0
 11
2.5575967641
 21
-23.6201939677
 31
0.0
 11
2.5833816674
 21
-23.6251656101
 31
0.0
 11
2.6097457989
 21
-23.6291749991
 31
0.0
 11
2.6366891586
 21
-23.6322221347
 31
0.0
 11
2.650378049
 21
-23.6333848575
 31
0.0
 11
2.6642117465
 21
-23.634307017
 31
0.0
 11
2.678190251
 21
-23.6349886131
 31
0.0
 11
2.6852338059
 21
-23.6352391999
 31
0.0
 11
2.6923135625
 21
-23.6354296459
 31
0.0
 11
2.6994295209
 21
-23.6355599511
 31
0.0
 11
2.7030010758
 21
-23.6356025508
 31
0.0
 11
2.7065816811
 21
-23.6356301154
 31
0.0
 11
2.7083753777
 21
-23.6356382594
 31
0.0
 11
2.7101713369
 21
-23.6356426447
 31
0.0
 11
2.7110701649
 21
-23.6356434278
 31
0.0
 11
2.711483724
 21
-23.6356434726
 31
0.0
 11
2.7118251385
 21
-23.635643361
 31
0.0
 11
2.7125077088
 21
-23.6356427366
 31
0.0
 11
2.7131899342
 21
-23.6356415768
 31
0.0
 11
2.7159153859
 21
-23.6356315849
 31
0.0
 11
2.7186353181
 21
-23.6356130286
 31
0.0
 11
2.7213497308
 21
-23.6355859078
 31
0.0
 11
2.7240586241
 21
-23.6355502225
 31
0.0
 11
2.729459852
 21
-23.6354531587
 31
0.0
 11
2.740196074
 21
-23.6351562574
 31
0.0
 11
2.750843984
 21
-23.6347223247
 31
0.0
 11
2.761403582
 21
-23.6341513607
 31
0.0
 11
2.7718748681
 21
-23.6334433652
 31
0.0
 11
2.7822578423
 21
-23.6325983385
 31
0.0
 11
2.8027588548
 21
-23.6304971908
 31
0.0
 11
2.8229066194
 21
-23.6278479177
 31
0.0
 11
2.8621424054
 21
-23.620904995
 31
0.0
 11
2.8999652001
 21
-23.6117695704
 31
0.0
 11
2.9363750037
 21
-23.600441644
 31
0.0
 11
2.9713718161
 21
-23.5869212156
 31
0.0
 11
3.0049556373
 21
-23.5712082853
 31
0.0
 11
3.0371264673
 21
-23.5533028531
 31
0.0
 11
3.0678843061
 21
-23.5332049191
 31
0.0
 11
3.0972291537
 21
-23.5109144831
 31
0.0
 11
3.1251995576
 21
-23.4865971561
 31
0.0
 11
3.1518340651
 21
-23.460418549
 31
0.0
 11
3.2010953912
 21
-23.4024774943
 31
0.0
 11
3.2450131319
 21
-23.3370913191
 31
0.0
 11
3.2835872873
 21
-23.2642600234
 31
0.0
 11
3.3168178574
 21
-23.1839836071
 31
0.0
 11
3.3314285727
 21
-23.1410166537
 31
0.0
 11
3.3446932396
 21
-23.09567287
 31
0.0
 11
3.3566089572
 21
-23.047804956
 31
0.0
 11
3.3671757257
 21
-22.9974129115
 31
0.0
 11
3.3842624152
 21
-22.8890564315
 31
0.0
 11
3.3907823361
 21
-22.8310919959
 31
0.0
 11
3.395953308
 21
-22.7706034299
 31
0.0
 11
3.3980329379
 21
-22.7394125981
 31
0.0
 11
3.3997753306
 21
-22.7075907336
 31
0.0
 11
3.401180486
 21
-22.6751378365
 31
0.0
 11
3.4022484041
 21
-22.6420539068
 31
0.0
 11
3.4029790849
 21
-22.6083389446
 31
0.0
 11
3.4032179613
 21
-22.5912448262
 31
0.0
 11
3.4033057835
 21
-22.5826386078
 31
0.0
 11
3.4033725284
 21
-22.5739929497
 31
0.0
 11
3.4034181959
 21
-22.5653078522
 31
0.0
 11
3.4034331257
 21
-22.5609505136
 31
0.0
 11
3.4034427861
 21
-22.5565833151
 31
0.0
 11
3.4034456404
 21
-22.5543960184
 31
0.0
 11
3.4034471773
 21
-22.5522062567
 31
0.0
 11
3.4034474517
 21
-22.5511104515
 31
0.0
 11
3.4034474488
 21
-22.5503200534
 31
0.0
  0
SPLINE
  5
43D
100
AcDbEntity
  8
0
100
AcDbSpline
 62
7
  6
CONTINUOUS
 70
0
 71
3
 72
103
 73
99
 74
97
 42
0.0000001
 43
0.0000001
 44
0.0000000001
 12
-0.0003010153
 22
2.910488996
 32
0.0
 13
0.0003624009
 23
-2.9105146643
 33
0.0
 40
0.0
 40
0.0
 40
0.0
 40
0.0
 40
0.0000661246
 40
0.0003841837
 40
0.0007020515
 40
0.0019716088
 40
0.0032381054
 40
0.0057619197
 40
0.008273503
 40
0.0132600074
 40
0.0181976889
 40
0.0230866173
 40
0.0279268651
 40
0.0327185065
 40
0.0421562593
 40
0.0514005372
 40
0.0693112596
 40
0.0864568637
 40
0.1028442178
 40
0.1184811893
 40
0.1475388137
 40
0.1609849506
 40
0.1674431327
 40
0.1737271983
 40
0.1798903931
 40
0.1859850135
 40
0.1979719482
 40
0.2096958494
 40
0.2211648658
 40
0.2433712468
 40
0.2646699905
 40
0.2851481044
 40
0.2951119566
 40
0.3049207818
 40
0.3429869466
 40
0.3616752736
 40
0.3803604058
 40
0.3992133222
 40
0.4182751416
 40
0.427931262
 40
0.4377001002
 40
0.447604144
 40
0.4576649741
 40
0.4679031803
 40
0.4730952403
 40
0.478338879
 40
0.4836363692
 40
0.4863060337
 40
0.4889899818
 40
0.4916884783
 40
0.4944017838
 40
0.4957640742
 40
0.4971301625
 40
0.4978146413
 40
0.4985000813
 40
0.4991864864
 40
0.4995300521
 40
0.499701926
 40
0.4998738606
 40
0.5001069666
 40
0.5003399565
 40
0.5008055883
 40
0.501735464
 40
0.5026634973
 40
0.5035896976
 40
0.5054366342
 40
0.5072763517
 40
0.5109344166
 40
0.5145645342
 40
0.5181673419
 40
0.5217434914
 40
0.5288183248
 40
0.535794709
 40
0.5426783898
 40
0.5494753484
 40
0.5561917977
 40
0.56940745
 40
0.5823809934
 40
0.5951695636
 40
0.6078328007
 40
0.6330142541
 40
0.645670166
 40
0.6584057937
 40
0.6842636707
 40
0.7109563377
 40
0.7388178314
 40
0.7532845402
 40
0.76815016
 40
0.783444967
 40
0.7912656101
 40
0.7992476473
 40
0.8329812697
 40
0.8697736863
 40
0.909791936
 40
0.953165815
 40
0.9761451567
 40
0.9879625612
 40
1.0
 40
1.0
 40
1.0
 40
1.0
 10
1.7519662088
 20
-22.5503200534
 30
0.0
 10
1.7519662021
 20
-22.5502559017
 30
0.0
 10
1.7519661549
 20
-22.5498831808
 30
0.0
 10
1.7519659797
 20
-22.5492020765
 30
0.0
 10
1.7519650916
 20
-22.5473534464
 30
0.0
 10
1.7519622268
 20
-22.5445846783
 30
0.0
 10
1.7519527656
 20
-22.53967579
 30
0.0
 10
1.7519327674
 20
-22.5335619544
 30
0.0
 10
1.7518833545
 20
-22.5238391972
 30
0.0
 10
1.7517890259
 20
-22.511774813
 30
0.0
 10
1.751623066
 20
-22.4974046024
 30
0.0
 10
1.7514046175
 20
-22.4831770022
 30
0.0
 10
1.7511336825
 20
-22.469092009
 30
0.0
 10
1.7507046279
 20
-22.4505962879
 30
0.0
 10
1.7500392496
 20
-22.4278324209
 30
0.0
 10
1.7487032716
 20
-22.3923563206
 30
0.0
 10
1.7465271572
 20
-22.3494300124
 30
0.0
 10
1.7430489162
 20
-22.2996395474
 30
0.0
 10
1.7387328576
 20
-22.2521278736
 30
0.0
 10
1.7320198978
 20
-22.1932471647
 30
0.0
 10
1.7235830611
 20
-22.1374402731
 30
0.0
 10
1.7142756364
 20
-22.0908517226
 30
0.0
 10
1.708656946
 20
-22.0660723891
 30
0.0
 10
1.7042608318
 20
-22.0482646193
 30
0.0
 10
1.6996782133
 20
-22.0308689714
 30
0.0
 10
1.6934342853
 20
-22.0081910825
 30
0.0
 10
1.6852389079
 20
-21.980457152
 30
0.0
 10
1.674728333
 20
-21.9479813279
 30
0.0
 10
1.6600400558
 20
-21.9064534559
 30
0.0
 10
1.6401598358
 20
-21.8569279509
 30
0.0
 10
1.6135404339
 20
-21.800805365
 30
0.0
 10
1.5890241823
 20
-21.7569550257
 30
0.0
 10
1.5681777746
 20
-21.7239212716
 30
0.0
 10
1.5361903926
 20
-21.6778157397
 30
0.0
 10
1.4933144541
 20
-21.6288740444
 30
0.0
 10
1.4373560516
 20
-21.581553416
 30
0.0
 10
1.3923326051
 20
-21.5505926611
 30
0.0
 10
1.3441986396
 20
-21.5239855587
 30
0.0
 10
1.3016689474
 20
-21.5058425931
 30
0.0
 10
1.2663195016
 20
-21.4937818874
 30
0.0
 10
1.2389645146
 20
-21.4859086438
 30
0.0
 10
1.2108862618
 20
-21.4792502961
 30
0.0
 10
1.1820846026
 20
-21.4738057047
 30
0.0
 10
1.1575957406
 20
-21.4702964374
 30
0.0
 10
1.137659413
 20
-21.4680881588
 30
0.0
 10
1.122455321
 20
-21.466726985
 30
0.0
 10
1.1096679642
 20
-21.4658473953
 30
0.0
 10
1.0993493451
 20
-21.4652940183
 30
0.0
 10
1.0915447718
 20
-21.464953594
 30
0.0
 10
1.0836949154
 20
-21.4646888683
 30
0.0
 10
1.0771247112
 20
-21.4645315624
 30
0.0
 10
1.0718461105
 20
-21.4644434109
 30
0.0
 10
1.0685353021
 20
-21.4644040371
 30
0.0
 10
1.0658810189
 20
-21.46438198
 30
0.0
 10
1.0638860827
 20
-21.4643701564
 30
0.0
 10
1.0622218634
 20
-21.4643642477
 30
0.0
 10
1.0610558797
 20
-21.4643621798
 30
0.0
 10
1.0603890149
 20
-21.4643615883
 30
0.0
 10
1.0598293138
 20
-21.4643614239
 30
0.0
 10
1.0592103202
 20
-21.4643616674
 30
0.0
 10
1.058306393
 20
-21.4643627309
 30
0.0
 10
1.0567264889
 20
-21.4643664517
 30
0.0
 10
1.0544722966
 20
-21.4643770811
 30
0.0
 10
1.0517713358
 20
-21.4643983565
 30
0.0
 10
1.0481808119
 20
-21.4644380358
 30
0.0
 10
1.0437061167
 20
-21.4645088568
 30
0.0
 10
1.0365822672
 20
-21.4646673805
 30
0.0
 10
1.0277309581
 20
-21.4649501897
 30
0.0
 10
1.0171753642
 20
-21.4654264529
 30
0.0
 10
1.006706366
 20
-21.4660389524
 30
0.0
 10
0.9929133443
 20
-21.4670336479
 30
0.0
 10
0.9758827134
 20
-21.4686142794
 30
0.0
 10
0.9557178673
 20
-21.4710632003
 30
0.0
 10
0.9358992278
 20
-21.4740574164
 30
0.0
 10
0.9164266281
 20
-21.4775970756
 30
0.0
 10
0.8910638622
 20
-21.4830140004
 30
0.0
 10
0.8601669199
 20
-21.4911396243
 30
0.0
 10
0.8242762263
 20
-21.5031328534
 30
0.0
 10
0.7897682033
 20
-21.5173192045
 30
0.0
 10
0.7457086387
 20
-21.5391053813
 30
0.0
 10
0.7041479797
 20
-21.5654196231
 30
0.0
 10
0.6657108861
 20
-21.5959590336
 30
0.0
 10
0.6287571889
 20
-21.6292653162
 30
0.0
 10
0.5856996867
 20
-21.6759435826
 30
0.0
 10
0.5397390508
 20
-21.7391742932
 30
0.0
 10
0.506358976
 20
-21.7973693651
 30
0.0
 10
0.4823028158
 20
-21.8473878503
 30
0.0
 10
0.4653583851
 20
-21.8872471025
 30
0.0
 10
0.4524449622
 20
-21.9217702375
 30
0.0
 10
0.4427374727
 20
-21.9503375789
 30
0.0
 10
0.4283124587
 20
-21.9961833792
 30
0.0
 10
0.4095359073
 20
-22.0700962199
 30
0.0
 10
0.3907338708
 20
-22.1757552012
 30
0.0
 10
0.3773657103
 20
-22.2916478609
 30
0.0
 10
0.3708785298
 20
-22.3946828106
 30
0.0
 10
0.3685912943
 20
-22.4704908748
 30
0.0
 10
0.3679220952
 20
-22.5159235568
 30
0.0
 10
0.3678096359
 20
-22.5390666654
 30
0.0
 10
0.36781109
 20
-22.5507450462
 30
0.0
 11
1.7519662088
 21
-22.5503200534
 31
0.0
 11
1.7519661844
 21
-22.5501275983
 31
0.0
 11
1.7519659452
 21
-22.5492018908
 31
0.0
 11
1.7519655009
 21
-22.5482767404
 31
0.0
 11
1.7519616734
 21
-22.5445817096
 31
0.0
 11
1.751954565
 21
-22.5408955923
 31
0.0
 11
1.7519305059
 21
-22.5335500978
 31
0.0
 11
1.7518933237
 21
-22.5262402569
 31
0.0
 11
1.7517795898
 21
-22.5117275362
 31
0.0
 11
1.7516133635
 21
-22.4973574301
 31
0.0
 11
1.7513946445
 21
-22.4831299385
 31
0.0
 11
1.751123433
 21
-22.4690450616
 31
0.0
 11
1.750799729
 21
-22.4551027993
 31
0.0
 11
1.7499948433
 21
-22.4276461186
 31
0.0
 11
1.7489799875
 21
-22.4007598963
 31
0.0
 11
1.7463203652
 21
-22.3486988269
 31
0.0
 11
1.7428208622
 21
-22.2989195914
 31
0.0
 11
1.7384814786
 21
-22.2514221895
 31
0.0
 11
1.7333022142
 21
-22.2062066215
 31
0.0
 11
1.7204240432
 21
-22.1226209866
 31
0.0
 11
1.7127251367
 21
-22.0842509198
 31
0.0
 11
1.7085607282
 21
-22.0659215741
 31
0.0
 11
1.7041863495
 21
-22.0481626868
 31
0.0
 11
1.6996290753
 21
-22.0308133384
 31
0.0
 11
1.6949159806
 21
-22.0137126094
 31
0.0
 11
1.685022329
 21
-21.9802570096
 31
0.0
 11
1.6745053948
 21
-21.9477958872
 31
0.0
 11
1.663365178
 21
-21.9163292424
 31
0.0
 11
1.6392148964
 21
-21.8563793854
 31
0.0
 11
1.6125714843
 21
-21.8004074386
 31
0.0
 11
1.5834349416
 21
-21.7484134018
 31
0.0
 11
1.5679210954
 21
-21.7239123375
 31
0.0
 11
1.551634854
 21
-21.7004650791
 31
0.0
 11
1.4783399006
 21
-21.6173836153
 31
0.0
 11
1.4368024312
 21
-21.5822674251
 31
0.0
 11
1.3920049666
 21
-21.5514342627
 31
0.0
 11
1.3439675396
 21
-21.5249153102
 31
0.0
 11
1.2929505757
 21
-21.5031159349
 31
0.0
 11
1.2663548165
 21
-21.4940328619
 31
0.0
 11
1.2390342058
 21
-21.4861608653
 31
0.0
 11
1.2109887436
 21
-21.479499945
 31
0.0
 11
1.1822184299
 21
-21.4740501012
 31
0.0
 11
1.1527232646
 21
-21.4698113338
 31
0.0
 11
1.1377038627
 21
-21.4681461038
 31
0.0
 11
1.1225032479
 21
-21.4667836428
 31
0.0
 11
1.1071214203
 21
-21.465723951
 31
0.0
 11
1.0993625516
 21
-21.4653076434
 31
0.0
 11
1.0915583797
 21
-21.4649670282
 31
0.0
 11
1.0837089046
 21
-21.4647021052
 31
0.0
 11
1.0758141263
 21
-21.4645128746
 31
0.0
 11
1.0718497484
 21
-21.4644466438
 31
0.0
 11
1.0678740448
 21
-21.4643993361
 31
0.0
 11
1.0658819457
 21
-21.4643827785
 31
0.0
 11
1.0638870153
 21
-21.4643709515
 31
0.0
 11
1.0618892534
 21
-21.4643638554
 31
0.0
 11
1.0608893106
 21
-21.4643620813
 31
0.0
 11
1.0603890738
 21
-21.4643616378
 31
0.0
 11
1.05988866
 21
-21.46436149
 31
0.0
 11
1.0592102075
 21
-21.464361756
 31
0.0
 11
1.0585320936
 21
-21.4643625542
 31
0.0
 11
1.0571768811
 21
-21.4643657467
 31
0.0
 11
1.0544705182
 21
-21.4643785169
 31
0.0
 11
1.0517695712
 21
-21.4643998006
 31
0.0
 11
1.0490740401
 21
-21.4644295978
 31
0.0
 11
1.0436992257
 21
-21.4645147325
 31
0.0
 11
1.0383460751
 21
-21.464633921
 31
0.0
 11
1.0277047648
 21
-21.4649744598
 31
0.0
 11
1.0171501093
 21
-21.4654512141
 31
0.0
 11
1.0066821086
 21
-21.466064184
 31
0.0
 11
0.9963007628
 21
-21.4668133693
 31
0.0
 11
0.9757980354
 21
-21.4687203865
 31
0.0
 11
0.9556419273
 21
-21.4711722658
 31
0.0
 11
0.9358324384
 21
-21.4741690072
 31
0.0
 11
0.9163695686
 21
-21.4777106106
 31
0.0
 11
0.8972533181
 21
-21.4817970762
 31
0.0
 11
0.8600606747
 21
-21.4916045934
 31
0.0
 11
0.824254508
 21
-21.5035915588
 31
0.0
 11
0.7898348182
 21
-21.5177579726
 31
0.0
 11
0.7568016052
 21
-21.5341038346
 31
0.0
 11
0.6948946096
 21
-21.5733339035
 31
0.0
 11
0.6660173371
 21
-21.5962011822
 31
0.0
 11
0.6384776831
 21
-21.6210109154
 31
0.0
 11
0.5873693519
 21
-21.6762546082
 31
0.0
 11
0.5415556564
 21
-21.7389972693
 31
0.0
 11
0.5010365966
 21
-21.8092388987
 31
0.0
 11
0.4827625551
 21
-21.8471718265
 31
0.0
 11
0.4658121725
 21
-21.8869794964
 31
0.0
 11
0.4501854489
 21
-21.9286619083
 31
0.0
 11
0.4428689861
 21
-21.95021587
 31
0.0
 11
0.4358908143
 21
-21.9723747015
 31
0.0
 11
0.4113821136
 21
-22.0674478235
 31
0.0
 11
0.3923197908
 21
-22.1728214189
 31
0.0
 11
0.3787038459
 21
-22.2884954879
 31
0.0
 11
0.3705342807
 21
-22.4144700618
 31
0.0
 11
0.3684918879
 21
-22.4813199909
 31
0.0
 11
0.3679812895
 21
-22.5157106263
 31
0.0
 11
0.36781109
 21
-22.5507450462
 31
0.0
  0
SPLINE
  5
43E
100
AcDbEntity
  8
0
100
AcDbSpline
 62
7
  6
CONTINUOUS
 70
0
 71
3
 72
117
 73
113
 74
111
 42
0.0000001
 43
0.0000001
 44
0.0000000001
 12
0.0003624009
 22
-2.9105146643
 32
0.0
 13
-0.0003010153
 23
2.9104889961
 33
0.0
 40
0.0
 40
0.0
 40
0.0
 40
0.0
 40
0.0190451392
 40
0.0375942557
 40
0.0732267234
 40
0.1069518803
 40
0.1388323213
 40
0.168942148
 40
0.1973693121
 40
0.2242183065
 40
0.2496131128
 40
0.261812582
 40
0.2737055333
 40
0.2795443191
 40
0.2853149613
 40
0.2910205024
 40
0.2966640901
 40
0.3022489768
 40
0.3050205058
 40
0.306401222
 40
0.3077786405
 40
0.3091528157
 40
0.3105238028
 40
0.3108660584
 40
0.3112081191
 40
0.3115301257
 40
0.3118122683
 40
0.3123761636
 40
0.3129395418
 40
0.3140647607
 40
0.3151879544
 40
0.3174283747
 40
0.3196610418
 40
0.3218861902
 40
0.32631482
 40
0.3307162453
 40
0.3350924241
 40
0.3437765334
 40
0.3523839528
 40
0.3609314325
 40
0.3694360771
 40
0.3863820803
 40
0.4033665264
 40
0.420528724
 40
0.4380037308
 40
0.4469007693
 40
0.4559232484
 40
0.4650857148
 40
0.4744020595
 40
0.479122291
 40
0.4838858889
 40
0.4886943977
 40
0.4911159877
 40
0.4935493649
 40
0.4959947105
 40
0.49722193
 40
0.4984522083
 40
0.4990685017
 40
0.4996855679
 40
0.4999943918
 40
0.5001364844
 40
0.5002537893
 40
0.5004883102
 40
0.5007227128
 40
0.5016591431
 40
0.5025936924
 40
0.5035263702
 40
0.5044571856
 40
0.5063132655
 40
0.5100034792
 40
0.5136649768
 40
0.5172983947
 40
0.5209043845
 40
0.5244836126
 40
0.5315643487
 40
0.5385464048
 40
0.5522366608
 40
0.5656056882
 40
0.5787070246
 40
0.5915975437
 40
0.6043369426
 40
0.6169870584
 40
0.62961104
 40
0.6422724276
 40
0.6550067598
 40
0.6678382472
 40
0.6939684226
 40
0.7210313098
 40
0.7493481301
 40
0.7791996529
 40
0.7947926235
 40
0.8110250003
 40
0.8279735986
 40
0.8456640987
 40
0.8833537804
 40
0.9033950752
 40
0.9242538341
 40
0.9349943262
 40
0.9459442149
 40
0.9571049866
 40
0.9684780449
 40
0.9800647161
 40
0.98593857
 40
0.9888956905
 40
0.9918662963
 40
0.9948504057
 40
0.9963475301
 40
0.9978480372
 40
0.9985995599
 40
0.999351929
 40
0.9997284312
 40
1.0
 40
1.0
 40
1.0
 40
1.0
 10
0.36781109
 20
-22.5507450462
 30
0.0
 10
0.3678133907
 20
-22.5692220984
 30
0.0
 10
0.3681055253
 20
-22.6056954291
 30
0.0
 10
0.3699120714
 20
-22.6767170307
 30
0.0
 10
0.3743765951
 20
-22.7619063881
 30
0.0
 10
0.383495099
 20
-22.8597293118
 30
0.0
 10
0.3963021291
 20
-22.9517375293
 30
0.0
 10
0.4128011106
 20
-23.0379343089
 30
0.0
 10
0.4329978787
 20
-23.1183253623
 30
0.0
 10
0.4568985205
 20
-23.1929105646
 30
0.0
 10
0.4802180424
 20
-23.250991612
 30
0.0
 10
0.5007854511
 20
-23.2943865284
 30
0.0
 10
0.5143222749
 20
-23.3200879626
 30
0.0
 10
0.5256172058
 20
-23.3398967775
 30
0.0
 10
0.5342677894
 20
-23.354298281
 30
0.0
 10
0.5431492573
 20
-23.3683349438
 30
0.0
 10
0.5522616334
 20
-23.3820067875
 30
0.0
 10
0.5600673315
 20
-23.3931238814
 30
0.0
 10
0.5656388092
 20
-23.400752849
 30
0.0
 10
0.5688433072
 20
-23.4050553234
 30
0.0
 10
0.5712581671
 20
-23.4082554585
 30
0.0
 10
0.5736874805
 20
-23.4114327597
 30
0.0
 10
0.5755217569
 20
-23.4138007504
 30
0.0
 10
0.5767492622
 20
-23.415372116
 30
0.0
 10
0.577351225
 20
-23.4161407467
 30
0.0
 10
0.5779193342
 20
-23.4168618261
 30
0.0
 10
0.5786295318
 20
-23.4177448685
 30
0.0
 10
0.5794861135
 20
-23.4188106751
 30
0.0
 10
0.5808606811
 20
-23.4205095136
 30
0.0
 10
0.5825841005
 20
-23.4226240587
 30
0.0
 10
0.5853526895
 20
-23.4259856364
 30
0.0
 10
0.588836033
 20
-23.4301503403
 30
0.0
 10
0.5930559953
 20
-23.4350922415
 30
0.0
 10
0.5987216354
 20
-23.4415906654
 30
0.0
 10
0.6058949083
 20
-23.4495653197
 30
0.0
 10
0.6146617485
 20
-23.4589098429
 30
0.0
 10
0.6265128936
 20
-23.4710165775
 30
0.0
 10
0.6416975945
 20
-23.485563675
 30
0.0
 10
0.6605469626
 20
-23.5021015801
 30
0.0
 10
0.6799781423
 20
-23.5176763985
 30
0.0
 10
0.7066242055
 20
-23.5371318932
 30
0.0
 10
0.7415010444
 20
-23.5591230675
 30
0.0
 10
0.7857279136
 20
-23.5816541239
 30
0.0
 10
0.8322787374
 20
-23.6003013083
 30
0.0
 10
0.8727628479
 20
-23.6125315351
 30
0.0
 10
0.9061972515
 20
-23.620392544
 30
0.0
 10
0.9320048633
 20
-23.62536074
 30
0.0
 10
0.9583899906
 20
-23.6293648527
 30
0.0
 10
0.9807608508
 20
-23.6318874978
 30
0.0
 10
0.9989355789
 20
-23.6334297183
 30
0.0
 10
1.0127716242
 20
-23.6343508779
 30
0.0
 10
1.0243943509
 20
-23.6349166262
 30
0.0
 10
1.0337636746
 20
-23.6352497588
 30
0.0
 10
1.0408437011
 20
-23.635440063
 30
0.0
 10
1.0467665473
 20
-23.6355483954
 30
0.0
 10
1.0515227779
 20
-23.6356051004
 30
0.0
 10
1.0545047782
 20
-23.635628041
 30
0.0
 10
1.0568948852
 20
-23.6356388899
 30
0.0
 10
1.0583910514
 20
-23.635642541
 30
0.0
 10
1.0594271685
 20
-23.6356434436
 30
0.0
 10
1.0599784358
 20
-23.6356435028
 30
0.0
 10
1.0604576172
 20
-23.6356433462
 30
0.0
 10
1.0610263542
 20
-23.635642826
 30
0.0
 10
1.0623897746
 20
-23.6356405085
 30
0.0
 10
1.0644323287
 20
-23.6356330267
 30
0.0
 10
1.0671522744
 20
-23.6356144789
 30
0.0
 10
1.069866701
 20
-23.6355873666
 30
0.0
 10
1.0734749861
 20
-23.6355398448
 30
0.0
 10
1.0797578623
 20
-23.6354270171
 30
0.0
 10
1.0886877901
 20
-23.6351805238
 30
0.0
 10
1.099336643
 20
-23.634747098
 30
0.0
 10
1.1098972126
 20
-23.6341766237
 30
0.0
 10
1.1203695244
 20
-23.633469095
 30
0.0
 10
1.1341646002
 20
-23.6323470837
 30
0.0
 10
1.1511939991
 20
-23.6306052101
 30
0.0
 10
1.1778927272
 20
-23.6271000091
 30
0.0
 10
1.2104389357
 20
-23.62136666
 30
0.0
 10
1.2483434485
 20
-23.6122395507
 30
0.0
 10
1.2848394337
 20
-23.6009091259
 30
0.0
 10
1.3199238152
 20
-23.5873740894
 30
0.0
 10
1.3535949397
 20
-23.5716345867
 30
0.0
 10
1.3858477232
 20
-23.5536877966
 30
0.0
 10
1.4166882196
 20
-23.5335453902
 30
0.0
 10
1.4460604838
 20
-23.5111846232
 30
0.0
 10
1.4740414654
 20
-23.4868061024
 30
0.0
 10
1.5098270246
 20
-23.4516302642
 30
0.0
 10
1.5513372045
 20
-23.4026327493
 30
0.0
 10
1.5953653012
 20
-23.3367621383
 30
0.0
 10
1.6339528874
 20
-23.2634749996
 30
0.0
 10
1.6611832526
 20
-23.197189774
 30
0.0
 10
1.6804596662
 20
-23.1405286975
 30
0.0
 10
1.6937084043
 20
-23.0950863208
 30
0.0
 10
1.7055931775
 20
-23.0471723915
 30
0.0
 10
1.719942919
 20
-22.9784712025
 30
0.0
 10
1.7311601896
 20
-22.9061059752
 30
0.0
 10
1.7396425042
 20
-22.8303293863
 30
0.0
 10
1.7438848105
 20
-22.7804027494
 30
0.0
 10
1.7466263436
 20
-22.7392136501
 30
0.0
 10
1.7483652746
 20
-22.7073893538
 30
0.0
 10
1.7497670767
 20
-22.6749342867
 30
0.0
 10
1.7508317096
 20
-22.6418483271
 30
0.0
 10
1.7514351405
 20
-22.6138810188
 30
0.0
 10
1.7517114672
 20
-22.5940744298
 30
0.0
 10
1.7518282321
 20
-22.5826255572
 30
0.0
 10
1.7518949286
 20
-22.5739798725
 30
0.0
 10
1.7519329018
 20
-22.5667504652
 30
0.0
 10
1.7519527778
 20
-22.5609472345
 30
0.0
 10
1.7519608187
 20
-22.5573099517
 30
0.0
 10
1.7519646212
 20
-22.5543951974
 30
0.0
 10
1.751965901
 20
-22.5525709091
 30
0.0
 10
1.751966241
 20
-22.5512122539
 30
0.0
 10
1.751966236
 20
-22.5505835194
 30
0.0
 10
1.7519662088
 20
-22.5503200534
 30
0.0
 11
0.36781109
 21
-22.5507450462
 31
0.0
 11
0.3682724332
 21
-22.6061737944
 31
0.0
 11
0.3696564627
 21
-22.6601430504
 31
0.0
 11
0.3751925808
 21
-22.7637030862
 31
0.0
 11
0.3844194443
 21
-22.8614251534
 31
0.0
 11
0.3973370533
 21
-22.9533092521
 31
0.0
 11
0.4139454076
 21
-23.0393553823
 31
0.0
 11
0.4342445074
 21
-23.119563544
 31
0.0
 11
0.4582343525
 21
-23.1939337371
 31
0.0
 11
0.4859149431
 21
-23.2624659618
 31
0.0
 11
0.5011392679
 21
-23.2945428359
 31
0.0
 11
0.5172862791
 21
-23.3251602179
 31
0.0
 11
0.5257057921
 21
-23.3399215994
 31
0.0
 11
0.5343559766
 21
-23.3543181078
 31
0.0
 11
0.5432368328
 21
-23.3683497432
 31
0.0
 11
0.5523483605
 21
-23.3820165056
 31
0.0
 11
0.5616905598
 21
-23.3953183949
 31
0.0
 11
0.5664481613
 21
-23.4018325122
 31
0.0
 11
0.5688485875
 21
-23.405055364
 31
0.0
 11
0.5712634307
 21
-23.4082554112
 31
0.0
 11
0.5736926909
 21
-23.4114326539
 31
0.0
 11
0.576136368
 21
-23.414587092
 31
0.0
 11
0.5767495399
 21
-23.4153721383
 31
0.0
 11
0.5773636129
 21
-23.4161557593
 31
0.0
 11
0.5779445761
 21
-23.4168911634
 31
0.0
 11
0.5784581948
 21
-23.4175318825
 31
0.0
 11
0.5794871291
 21
-23.4188105017
 31
0.0
 11
0.5805183261
 21
-23.4200853621
 31
0.0
 11
0.5825875079
 21
-23.4226238066
 31
0.0
 11
0.5846657401
 21
-23.4251472158
 31
0.0
 11
0.5888493558
 21
-23.4301489286
 31
0.0
 11
0.5930691734
 21
-23.4350905005
 31
0.0
 11
0.5973251926
 21
-23.4399719316
 31
0.0
 11
0.6059458365
 21
-23.4495543714
 31
0.0
 11
0.6147112873
 21
-23.4588962478
 31
0.0
 11
0.6236215453
 21
-23.4679975608
 31
0.0
 11
0.6418764822
 21
-23.4854784969
 31
0.0
 11
0.6607106474
 21
-23.5019971796
 31
0.0
 11
0.6801240407
 21
-23.517553609
 31
0.0
 11
0.7001166623
 21
-23.532147785
 31
0.0
 11
0.7418395899
 21
-23.5584493769
 31
0.0
 11
0.7858794302
 21
-23.5809019554
 31
0.0
 11
0.8322361832
 21
-23.5995055204
 31
0.0
 11
0.8809098489
 21
-23.6142600719
 31
0.0
 11
0.9061155241
 21
-23.6201939677
 31
0.0
 11
0.9319004274
 21
-23.6251656101
 31
0.0
 11
0.9582645589
 21
-23.6291749991
 31
0.0
 11
0.9852079186
 21
-23.6322221347
 31
0.0
 11
0.998896809
 21
-23.6333848575
 31
0.0
 11
1.0127305065
 21
-23.634307017
 31
0.0
 11
1.026709011
 21
-23.6349886131
 31
0.0
 11
1.0337525659
 21
-23.6352391999
 31
0.0
 11
1.0408323225
 21
-23.6354296459
 31
0.0
 11
1.0479482809
 21
-23.6355599511
 31
0.0
 11
1.0515198358
 21
-23.6356025508
 31
0.0
 11
1.0551004411
 21
-23.6356301154
 31
0.0
 11
1.0568941377
 21
-23.6356382594
 31
0.0
 11
1.0586900969
 21
-23.6356426447
 31
0.0
 11
1.0595889249
 21
-23.6356434278
 31
0.0
 11
1.060002484
 21
-23.6356434726
 31
0.0
 11
1.0603438985
 21
-23.635643361
 31
0.0
 11
1.0610264688
 21
-23.6356427366
 31
0.0
 11
1.0617086942
 21
-23.6356415768
 31
0.0
 11
1.0644341459
 21
-23.6356315849
 31
0.0
 11
1.0671540781
 21
-23.6356130286
 31
0.0
 11
1.0698684908
 21
-23.6355859078
 31
0.0
 11
1.0725773841
 21
-23.6355502225
 31
0.0
 11
1.077978612
 21
-23.6354531587
 31
0.0
 11
1.088714834
 21
-23.6351562574
 31
0.0
 11
1.099362744
 21
-23.6347223247
 31
0.0
 11
1.109922342
 21
-23.6341513607
 31
0.0
 11
1.1203936281
 21
-23.6334433652
 31
0.0
 11
1.1307766023
 21
-23.6325983385
 31
0.0
 11
1.1512776148
 21
-23.6304971908
 31
0.0
 11
1.1714253794
 21
-23.6278479177
 31
0.0
 11
1.2106611654
 21
-23.620904995
 31
0.0
 11
1.2484839601
 21
-23.6117695704
 31
0.0
 11
1.2848937637
 21
-23.600441644
 31
0.0
 11
1.3198905761
 21
-23.5869212156
 31
0.0
 11
1.3534743973
 21
-23.5712082853
 31
0.0
 11
1.3856452273
 21
-23.5533028531
 31
0.0
 11
1.4164030661
 21
-23.5332049191
 31
0.0
 11
1.4457479137
 21
-23.5109144831
 31
0.0
 11
1.4737183176
 21
-23.4865971561
 31
0.0
 11
1.5003528251
 21
-23.460418549
 31
0.0
 11
1.5496141512
 21
-23.4024774943
 31
0.0
 11
1.5935318919
 21
-23.3370913191
 31
0.0
 11
1.6321060473
 21
-23.2642600234
 31
0.0
 11
1.6653366174
 21
-23.1839836071
 31
0.0
 11
1.6799473327
 21
-23.1410166537
 31
0.0
 11
1.6932119996
 21
-23.09567287
 31
0.0
 11
1.7051277172
 21
-23.047804956
 31
0.0
 11
1.7156944857
 21
-22.9974129115
 31
0.0
 11
1.7327811752
 21
-22.8890564315
 31
0.0
 11
1.7393010961
 21
-22.8310919959
 31
0.0
 11
1.744472068
 21
-22.7706034299
 31
0.0
 11
1.7465516979
 21
-22.7394125981
 31
0.0
 11
1.7482940906
 21
-22.7075907336
 31
0.0
 11
1.749699246
 21
-22.6751378365
 31
0.0
 11
1.7507671641
 21
-22.6420539068
 31
0.0
 11
1.7514978449
 21
-22.6083389446
 31
0.0
 11
1.7517367213
 21
-22.5912448262
 31
0.0
 11
1.7518245435
 21
-22.5826386078
 31
0.0
 11
1.7518912884
 21
-22.5739929497
 31
0.0
 11
1.7519369559
 21
-22.5653078522
 31
0.0
 11
1.7519518857
 21
-22.5609505136
 31
0.0
 11
1.7519615461
 21
-22.5565833151
 31
0.0
 11
1.7519644004
 21
-22.5543960184
 31
0.0
 11
1.7519659373
 21
-22.5522062567
 31
0.0
 11
1.7519662117
 21
-22.5511104515
 31
0.0
 11
1.7519662088
 21
-22.5503200534
 31
0.0
  0
SPLINE
  5
43F
100
AcDbEntity
  8
0
100
AcDbSpline
 62
7
  6
CONTINUOUS
 70
0
 71
3
 72
63
 73
59
 74
57
 42
0.0000001
 43
0.0000001
 44
0.0000000001
 12
0.000617665
 22
-2.1603549961
 32
0.0
 13
0.0015991619
 23
2.1607836921
 33
0.0
 40
0.0
 40
0.0
 40
0.0
 40
0.0
 40
0.0006037807
 40
0.0081389581
 40
0.0155950567
 40
0.0302704179
 40
0.0446307815
 40
0.0586770986
 40
0.085831448
 40
0.1117427281
 40
0.1364213179
 40
0.1598792326
 40
0.2031869728
 40
0.2418127496
 40
0.2759592373
 40
0.291445796
 40
0.3059335604
 40
0.3194819827
 40
0.325927374
 40
0.3321664934
 40
0.3382580729
 40
0.3442545079
 40
0.3559735848
 40
0.3673508888
 40
0.3784152801
 40
0.3997245509
 40
0.4201896686
 40
0.4401270695
 40
0.4598785695
 40
0.4697999872
 40
0.4798063126
 40
0.4899399197
 40
0.4950678934
 40
0.500242827
 40
0.5054177544
 40
0.5105456822
 40
0.5206789258
 40
0.5306842328
 40
0.5406036395
 40
0.5603468969
 40
0.5802682932
 40
0.6007076327
 40
0.6219799131
 40
0.6330213019
 40
0.644372511
 40
0.656062359
 40
0.6620429966
 40
0.6681179882
 40
0.6743406723
 40
0.6807708385
 40
0.6942929278
 40
0.7087605549
 40
0.7242337525
 40
0.7583752542
 40
0.7970264862
 40
0.8403908703
 40
0.8886122176
 40
1.0
 40
1.0
 40
1.0
 40
1.0
 10
1.4846399465
 20
-22.5501832493
 30
0.0
 10
1.4846400708
 20
-22.5506180428
 30
0.0
 10
1.4846408947
 20
-22.556479056
 30
0.0
 10
1.4846205171
 20
-22.5677093428
 30
0.0
 10
1.4845019255
 20
-22.5890725304
 30
0.0
 10
1.4842066463
 20
-22.6153495658
 30
0.0
 10
1.4836112573
 20
-22.6463683632
 30
0.0
 10
1.4825108018
 20
-22.6863640717
 30
0.0
 10
1.4805596749
 20
-22.7346560765
 30
0.0
 10
1.4772358798
 20
-22.7905457918
 30
0.0
 10
1.4729576905
 20
-22.8437019512
 30
0.0
 10
1.4661562806
 20
-22.9092041897
 30
0.0
 10
1.4555136097
 20
-22.9843930506
 30
0.0
 10
1.4385888262
 20
-23.0663160864
 30
0.0
 10
1.4207798439
 20
-23.1274334077
 30
0.0
 10
1.4043438155
 20
-23.1706080869
 30
0.0
 10
1.3914599437
 20
-23.1992016957
 30
0.0
 10
1.3797244806
 20
-23.2211115651
 30
0.0
 10
1.3698419616
 20
-23.2372173249
 30
0.0
 10
1.3622602426
 20
-23.2484174013
 30
0.0
 10
1.3545011392
 20
-23.2590948794
 30
0.0
 10
1.3441567123
 20
-23.272767393
 30
0.0
 10
1.3309328631
 20
-23.2890278179
 30
0.0
 10
1.3144952197
 20
-23.3073441399
 30
0.0
 10
1.292256989
 20
-23.3296775726
 30
0.0
 10
1.2632463688
 20
-23.3544366508
 30
0.0
 10
1.2261257442
 20
-23.3790775818
 30
0.0
 10
1.1871416187
 20
-23.398245501
 30
0.0
 10
1.1531518152
 20
-23.4096183456
 30
0.0
 10
1.1252668449
 20
-23.4159325487
 30
0.0
 10
1.1038694956
 20
-23.4193179892
 30
0.0
 10
1.0857382797
 20
-23.4209987083
 30
0.0
 10
1.0710350467
 20
-23.4216713493
 30
0.0
 10
1.0598886632
 20
-23.4218383778
 30
0.0
 10
1.0487423202
 20
-23.4216717521
 30
0.0
 10
1.0340392737
 20
-23.4210020075
 30
0.0
 10
1.0159085478
 20
-23.4193282897
 30
0.0
 10
0.9945115602
 20
-23.4159570337
 30
0.0
 10
0.9666289924
 20
-23.4096696765
 30
0.0
 10
0.9326435071
 20
-23.3983463063
 30
0.0
 10
0.8936603602
 20
-23.3792598222
 30
0.0
 10
0.8565396381
 20
-23.3547227056
 30
0.0
 10
0.827524834
 20
-23.3300641779
 30
0.0
 10
0.8052839162
 20
-23.3078210135
 30
0.0
 10
0.7888461227
 20
-23.2895807129
 30
0.0
 10
0.7756214501
 20
-23.2733870289
 30
0.0
 10
0.765276607
 20
-23.2597705148
 30
0.0
 10
0.7575167457
 20
-23.2491370771
 30
0.0
 10
0.749934301
 20
-23.2379794139
 30
0.0
 10
0.7400504871
 20
-23.2219233814
 30
0.0
 10
0.7283136696
 20
-23.2000643378
 30
0.0
 10
0.7154302516
 20
-23.1715175786
 30
0.0
 10
0.6989907855
 20
-23.1283736386
 30
0.0
 10
0.6811810446
 20
-23.0672506206
 30
0.0
 10
0.6642594292
 20
-22.9852695939
 30
0.0
 10
0.6511244301
 20
-22.8923553707
 30
0.0
 10
0.6380643516
 20
-22.7467283467
 30
0.0
 10
0.6350778143
 20
-22.6317159313
 30
0.0
 10
0.63513719
 20
-22.55148763
 30
0.0
 11
1.4846399465
 21
-22.5501832493
 31
0.0
 11
1.48464013
 21
-22.55148763
 31
0.0
 11
1.4846102225
 21
-22.5677662502
 31
0.0
 11
1.4845204999
 21
-22.58387381
 31
0.0
 11
1.4841616095
 21
-22.6155757483
 31
0.0
 11
1.4835634589
 21
-22.6465934449
 31
0.0
 11
1.482726048
 21
-22.6769268999
 31
0.0
 11
1.4803334456
 21
-22.7355410848
 31
0.0
 11
1.4769838022
 21
-22.7914183031
 31
0.0
 11
1.4726771178
 21
-22.8445585547
 31
0.0
 11
1.4674133924
 21
-22.8949618396
 31
0.0
 11
1.4540148186
 21
-22.9875575094
 31
0.0
 11
1.436788081
 21
-23.0692053124
 31
0.0
 11
1.4157331794
 21
-23.1399052488
 31
0.0
 11
1.4037701672
 21
-23.171149767
 31
0.0
 11
1.390850114
 21
-23.1996573185
 31
0.0
 11
1.3769730198
 21
-23.2254279033
 31
0.0
 11
1.3696755823
 21
-23.2372868332
 31
0.0
 11
1.3621388846
 21
-23.2484615215
 31
0.0
 11
1.3544266507
 21
-23.25912483
 31
0.0
 11
1.3466026049
 21
-23.2694496208
 31
0.0
 11
1.3306190774
 21
-23.2890836493
 31
0.0
 11
1.3141883019
 21
-23.3073636068
 31
0.0
 11
1.2973102785
 21
-23.3242894933
 31
0.0
 11
1.262212488
 21
-23.3540790537
 31
0.0
 11
1.2253257057
 21
-23.3784523304
 31
0.0
 11
1.1866499318
 21
-23.3974093233
 31
0.0
 11
1.1461851662
 21
-23.4109500326
 31
0.0
 11
1.1252819115
 21
-23.4156892808
 31
0.0
 11
1.1039314089
 21
-23.4190744581
 31
0.0
 11
1.0821336584
 21
-23.4211055645
 31
0.0
 11
1.0710670652
 21
-23.4216133411
 31
0.0
 11
1.05988866
 21
-23.4217826
 31
0.0
 11
1.0487102576
 21
-23.4216140437
 31
0.0
 11
1.037643667
 21
-23.4211083746
 31
0.0
 11
1.0158459213
 21
-23.4190856984
 31
0.0
 11
0.9944954231
 21
-23.4157145715
 31
0.0
 11
0.9735921722
 21
-23.4109949937
 31
0.0
 11
0.9331274126
 21
-23.3975104859
 31
0.0
 11
0.8944516426
 21
-23.3786321749
 31
0.0
 11
0.8575648621
 21
-23.3543600608
 31
0.0
 11
0.8224670712
 21
-23.3246941435
 31
0.0
 11
0.8055890469
 21
-23.3078385087
 31
0.0
 11
0.7891582699
 21
-23.2896344231
 31
0.0
 11
0.7731747403
 21
-23.2700818867
 31
0.0
 11
0.7653506933
 21
-23.2597999495
 31
0.0
 11
0.7576384581
 21
-23.2491808996
 31
0.0
 11
0.750101759
 21
-23.2380490649
 31
0.0
 11
0.7428043202
 21
-23.2262287735
 31
0.0
 11
0.7289272234
 21
-23.2005228203
 31
0.0
 11
0.7160071678
 21
-23.17206304
 31
0.0
 11
0.7040441533
 21
-23.1408494326
 31
0.0
 11
0.6829892478
 21
-23.0701607365
 31
0.0
 11
0.665762507
 21
-22.988456732
 31
0.0
 11
0.6523639308
 21
-22.8957374191
 31
0.0
 11
0.6427935193
 21
-22.7920027978
 31
0.0
 11
0.63513719
 21
-22.55148763
 31
0.0
  0
SPLINE
  5
440
100
AcDbEntity
  8
0
100
AcDbSpline
 62
7
  6
CONTINUOUS
 70
0
 71
3
 72
86
 73
82
 74
80
 42
0.0000001
 43
0.0000001
 44
0.0000000001
 12
0.0015991619
 22
2.1607836921
 32
0.0
 13
0.000617665
 23
-2.1603549961
 33
0.0
 40
0.0
 40
0.0
 40
0.0
 40
0.0
 40
0.0582195039
 40
0.1117475462
 40
0.160674821
 40
0.2051201962
 40
0.22571287
 40
0.2452490807
 40
0.2637578417
 40
0.281273273
 40
0.2978356345
 40
0.3057748111
 40
0.3134942976
 40
0.3210014278
 40
0.3246779574
 40
0.3283044462
 40
0.3318819991
 40
0.3354117667
 40
0.3371591229
 40
0.3388949862
 40
0.340619514
 40
0.3414775797
 40
0.3419055716
 40
0.3423328726
 40
0.342670348
 40
0.343007532
 40
0.3436810288
 40
0.3450245597
 40
0.3463635187
 40
0.3476979581
 40
0.3503534759
 40
0.3529915544
 40
0.3556126302
 40
0.3582171485
 40
0.3633782196
 40
0.3684786123
 40
0.3735221934
 40
0.3834539971
 40
0.3932081175
 40
0.4028199161
 40
0.4123263429
 40
0.4217655853
 40
0.4405890433
 40
0.4596137584
 40
0.4791438301
 40
0.4891915184
 40
0.4942998909
 40
0.496876847
 40
0.4994695704
 40
0.5021151959
 40
0.5047475587
 40
0.5099747032
 40
0.5202949687
 40
0.5304715666
 40
0.5405460739
 40
0.5605500183
 40
0.5806665092
 40
0.6012389488
 40
0.6225887496
 40
0.6336507013
 40
0.6450116976
 40
0.6567016502
 40
0.6626790614
 40
0.6687488045
 40
0.6749655659
 40
0.6813903588
 40
0.694903209
 40
0.7093633513
 40
0.7248305495
 40
0.75896363
 40
0.7976098835
 40
0.8409715847
 40
0.8644688414
 40
0.8891949169
 40
0.9151617507
 40
0.9423796493
 40
0.9564607169
 40
0.9708578048
 40
0.9855718563
 40
0.9930480348
 40
1.0
 40
1.0
 40
1.0
 40
1.0
 10
0.63513719
 20
-22.55148763
 30
0.0
 10
0.6351682241
 20
-22.5095543784
 30
0.0
 10
0.6363518228
 20
-22.4290860361
 30
0.0
 10
0.6424539925
 20
-22.3135053681
 30
0.0
 10
0.6527002853
 20
-22.2081795239
 30
0.0
 10
0.6650029583
 20
-22.1269828219
 30
0.0
 10
0.677138731
 20
-22.0672892992
 30
0.0
 10
0.6870557333
 20
-22.0262335693
 30
0.0
 10
0.698019578
 20
-21.9877422648
 30
0.0
 10
0.7100317804
 20
-21.9518149451
 30
0.0
 10
0.7210676824
 20
-21.9236248648
 30
0.0
 10
0.730448278
 20
-21.9023994789
 30
0.0
 10
0.7376468292
 20
-21.8873475408
 30
0.0
 10
0.7439069734
 20
-21.8752569435
 30
0.0
 10
0.7490488022
 20
-21.8659127311
 30
0.0
 10
0.7529440059
 20
-21.8591137809
 30
0.0
 10
0.7569047192
 20
-21.8524755774
 30
0.0
 10
0.7602710346
 20
-21.8470597103
 30
0.0
 10
0.7629971117
 20
-21.842808428
 30
0.0
 10
0.7650510554
 20
-21.8396706374
 30
0.0
 10
0.7667796945
 20
-21.8370855071
 30
0.0
 10
0.7679967884
 20
-21.835291378
 30
0.0
 10
0.7686949225
 20
-21.8342740849
 30
0.0
 10
0.7691781383
 20
-21.8335639064
 30
0.0
 10
0.7696403274
 20
-21.8329188158
 30
0.0
 10
0.7702028583
 20
-21.8321275787
 30
0.0
 10
0.7711902823
 20
-21.8307494995
 30
0.0
 10
0.7726059688
 20
-21.8287908385
 30
0.0
 10
0.7743154456
 20
-21.8264573192
 30
0.0
 10
0.776602458
 20
-21.823375805
 30
0.0
 10
0.7794832014
 20
-21.8195700364
 30
0.0
 10
0.7829809289
 20
-21.8150698266
 30
0.0
 10
0.786513744
 20
-21.8106439802
 30
0.0
 10
0.7912562737
 20
-21.8048598806
 30
0.0
 10
0.7972726269
 20
-21.7978124521
 30
0.0
 10
0.8046550725
 20
-21.7896268889
 30
0.0
 10
0.8146336724
 20
-21.779163904
 30
0.0
 10
0.8274682638
 20
-21.7668030928
 30
0.0
 10
0.843514288
 20
-21.753085451
 30
0.0
 10
0.8601258035
 20
-21.7405596804
 30
0.0
 10
0.8773034732
 20
-21.7292268698
 30
0.0
 10
0.9009302823
 20
-21.7157230951
 30
0.0
 10
0.9320908798
 20
-21.701732455
 30
0.0
 10
0.9717576836
 20
-21.6897863034
 30
0.0
 10
1.0063544438
 20
-21.6839185825
 30
0.0
 10
1.0312600043
 20
-21.6818797531
 30
0.0
 10
1.0440211847
 20
-21.68136516
 30
0.0
 10
1.0514213001
 20
-21.6812173699
 30
0.0
 10
1.0570492874
 20
-21.6811795275
 30
0.0
 10
1.0627171845
 20
-21.6812203915
 30
0.0
 10
1.0702805229
 20
-21.6813885191
 30
0.0
 10
1.0833607874
 20
-21.6819727954
 30
0.0
 10
1.1018222081
 20
-21.6836452429
 30
0.0
 10
1.1235934538
 20
-21.6870152851
 30
0.0
 10
1.1519104839
 20
-21.6932959381
 30
0.0
 10
1.1863650393
 20
-21.7046013091
 30
0.0
 10
1.2258253478
 20
-21.7236796774
 30
0.0
 10
1.2633009261
 20
-21.7482133413
 30
0.0
 10
1.2925233483
 20
-21.7728887478
 30
0.0
 10
1.3148611495
 20
-21.7951454657
 30
0.0
 10
1.3313315365
 20
-21.8133864406
 30
0.0
 10
1.3445596239
 20
-21.8295839821
 30
0.0
 10
1.3548913747
 20
-21.8432029294
 30
0.0
 10
1.3626318951
 20
-21.8538376972
 30
0.0
 10
1.3701912979
 20
-21.8649965922
 30
0.0
 10
1.3800457753
 20
-21.8810532617
 30
0.0
 10
1.391747142
 20
-21.9029131637
 30
0.0
 10
1.4045912429
 20
-21.931459577
 30
0.0
 10
1.4209813806
 20
-21.9746052837
 30
0.0
 10
1.4387367489
 20
-22.0357290999
 30
0.0
 10
1.4556070806
 20
-22.1177079818
 30
0.0
 10
1.4662140391
 20
-22.192984438
 30
0.0
 10
1.4729936849
 20
-22.2585908233
 30
0.0
 10
1.4772587308
 20
-22.3118508712
 30
0.0
 10
1.4805723175
 20
-22.3678613406
 30
0.0
 10
1.4825173472
 20
-22.4162644515
 30
0.0
 10
1.4836144065
 20
-22.4563575201
 30
0.0
 10
1.4842079746
 20
-22.4874556957
 30
0.0
 10
1.4845023614
 20
-22.5138015104
 30
0.0
 10
1.4846181569
 20
-22.5347870463
 30
0.0
 10
1.4846385152
 20
-22.5451770117
 30
0.0
 10
1.4846399465
 20
-22.5501832493
 30
0.0
 11
0.63513719
 21
-22.55148763
 31
0.0
 11
0.6372322018
 21
-22.4257303632
 31
0.0
 11
0.6435172371
 21
-22.3102617863
 31
0.0
 11
0.6539922959
 21
-22.2050818992
 31
0.0
 11
0.6686573784
 21
-22.110190702
 31
0.0
 11
0.6775611784
 21
-22.066603362
 31
0.0
 11
0.6875124843
 21
-22.0255881946
 31
0.0
 11
0.6985112961
 21
-21.9871451996
 31
0.0
 11
0.7105576138
 21
-21.951274377
 31
0.0
 11
0.7236514374
 21
-21.917975727
 31
0.0
 11
0.7305911639
 21
-21.9022909666
 31
0.0
 11
0.7377927668
 21
-21.8872492493
 31
0.0
 11
0.7452562463
 21
-21.8728505752
 31
0.0
 11
0.7490861897
 21
-21.8658923793
 31
0.0
 11
0.7529816022
 21
-21.8590949442
 31
0.0
 11
0.7569424838
 21
-21.8524582698
 31
0.0
 11
0.7609688346
 21
-21.8459823563
 31
0.0
 11
0.7630065608
 21
-21.8428046848
 31
0.0
 11
0.7650606544
 21
-21.8396672035
 31
0.0
 11
0.7671311153
 21
-21.8365699124
 31
0.0
 11
0.7681724834
 21
-21.8350363382
 31
0.0
 11
0.7686947019
 21
-21.8342733189
 31
0.0
 11
0.7692179434
 21
-21.8335128115
 31
0.0
 11
0.7696400841
 21
-21.8329183919
 31
0.0
 11
0.7700627726
 21
-21.8323251345
 31
0.0
 11
0.7709097928
 21
-21.831142106
 31
0.0
 11
0.7726104066
 21
-21.8287899943
 31
0.0
 11
0.7743197847
 21
-21.8264564763
 31
0.0
 11
0.7760379271
 21
-21.8241415522
 31
0.0
 11
0.779500505
 21
-21.8195674851
 31
0.0
 11
0.7829981402
 21
-21.8150677931
 31
0.0
 11
0.7865308327
 21
-21.8106424762
 31
0.0
 11
0.7900985826
 21
-21.8062915344
 31
0.0
 11
0.7973392545
 21
-21.797812776
 31
0.0
 11
0.8047201557
 21
-21.7896315178
 31
0.0
 11
0.8122412863
 21
-21.78174776
 31
0.0
 11
0.8277042356
 21
-21.7668727452
 31
0.0
 11
0.8437281024
 21
-21.7531877316
 31
0.0
 11
0.8603128867
 21
-21.7406927192
 31
0.0
 11
0.8774585886
 21
-21.7293877079
 31
0.0
 11
0.8951652079
 21
-21.7192726979
 31
0.0
 11
0.9322611991
 21
-21.7026126813
 31
0.0
 11
0.9716008604
 21
-21.6907126695
 31
0.0
 11
1.0131841917
 21
-21.6835726624
 31
0.0
 11
1.0348172336
 21
-21.6817876606
 31
0.0
 11
1.0458440986
 21
-21.6813414101
 31
0.0
 11
1.0514101171
 21
-21.6812298475
 31
0.0
 11
1.057011193
 21
-21.68119266
 31
0.0
 11
1.0627265242
 21
-21.6812347991
 31
0.0
 11
1.0684119536
 21
-21.6813612163
 31
0.0
 11
1.0796931066
 21
-21.6818668853
 31
0.0
 11
1.1018965899
 21
-21.6838895612
 31
0.0
 11
1.1236216429
 21
-21.6872606877
 31
0.0
 11
1.1448682657
 21
-21.6919802649
 31
0.0
 11
1.1859262203
 21
-21.7054647709
 31
0.0
 11
1.2250704539
 21
-21.7243430794
 31
0.0
 11
1.2623009662
 21
-21.7486151904
 31
0.0
 11
1.2976177575
 21
-21.7782811037
 31
0.0
 11
1.3145585076
 21
-21.7951367363
 31
0.0
 11
1.3310208275
 21
-21.8133408195
 31
0.0
 11
1.3470047172
 21
-21.8328933533
 31
0.0
 11
1.3548172506
 21
-21.8431752892
 31
0.0
 11
1.3625101765
 21
-21.8537943378
 31
0.0
 11
1.3700240311
 21
-21.8649261711
 31
0.0
 11
1.3772993505
 21
-21.8767464613
 31
0.0
 11
1.3911343843
 21
-21.9024524125
 31
0.0
 11
1.4040152779
 21
-21.9309121913
 31
0.0
 11
1.4159420312
 21
-21.9621257977
 31
0.0
 11
1.4369331169
 21
-22.0328144934
 31
0.0
 11
1.4541076416
 21
-22.1145184997
 31
0.0
 11
1.4674656053
 21
-22.2072378165
 31
0.0
 11
1.4727133767
 21
-22.2577282163
 31
0.0
 11
1.4770070079
 21
-22.3109724438
 31
0.0
 11
1.4803464988
 21
-22.3669704989
 31
0.0
 11
1.4827318495
 21
-22.4257223816
 31
0.0
 11
1.4835667222
 21
-22.4561310084
 31
0.0
 11
1.4841630599
 21
-22.487228092
 31
0.0
 11
1.4845208625
 21
-22.5190136325
 31
0.0
 11
1.4846103131
 21
-22.5351645742
 31
0.0
 11
1.4846399465
 21
-22.5501832493
 31
0.0
  0
SPLINE
  5
441
100
AcDbEntity
  8
0
100
AcDbSpline
 62
7
  6
CONTINUOUS
 70
0
 71
3
 72
56
 73
52
 74
50
 42
0.0000001
 43
0.0000001
 44
0.0000000001
 12
0.3776242563
 22
1.7071572566
 32
0.0
 13
0.5301891817
 23
-1.6658791947
 33
0.0
 40
0.0
 40
0.0
 40
0.0
 40
0.0
 40
0.0261408605
 40
0.0446836899
 40
0.063272099
 40
0.0725872987
 40
0.0819106961
 40
0.1003646446
 40
0.1185488095
 40
0.1365027312
 40
0.1718747336
 40
0.2068339346
 40
0.2417357103
 40
0.2769371763
 40
0.294764965
 40
0.3127768599
 40
0.330835339
 40
0.3489500748
 40
0.3855505358
 40
0.4230106893
 40
0.4421923731
 40
0.4617325713
 40
0.4816743929
 40
0.5020583993
 40
0.5124287552
 40
0.5229236798
 40
0.5335475218
 40
0.544304473
 40
0.5470150243
 40
0.5497342093
 40
0.5510970594
 40
0.5524620909
 40
0.5549084303
 40
0.5572760112
 40
0.5596357976
 40
0.5643322024
 40
0.5689981248
 40
0.5736340397
 40
0.5828176692
 40
0.5918871976
 40
0.600846764
 40
0.6184522083
 40
0.6525326746
 40
0.6853881628
 40
0.7173746768
 40
0.7488776943
 40
0.7803377804
 40
0.8125412852
 40
0.8460289387
 40
0.9183478629
 40
1.0
 40
1.0
 40
1.0
 40
1.0
 10
1.449582302
 20
-25.2427184582
 30
0.0
 10
1.4528727764
 20
-25.2278429383
 30
0.0
 10
1.4589568706
 20
-25.2025161961
 30
0.0
 10
1.4686685873
 20
-25.1669442437
 30
0.0
 10
1.4764544447
 20
-25.1410185233
 30
0.0
 10
1.4830935184
 20
-25.1203654655
 30
0.0
 10
1.4899384106
 20
-25.0998617995
 30
0.0
 10
1.4992660835
 20
-25.0747442282
 30
0.0
 10
1.5117049186
 20
-25.0454510689
 30
0.0
 10
1.5297924878
 20
-25.0078954211
 30
0.0
 10
1.5554543228
 20
-24.9632010615
 30
0.0
 10
1.5912280457
 20
-24.9132659851
 30
0.0
 10
1.6318261055
 20
-24.8673001959
 30
0.0
 10
1.6695150193
 20
-24.8324478357
 30
0.0
 10
1.7019056405
 20
-24.8066473134
 30
0.0
 10
1.7273723374
 20
-24.7882402482
 30
0.0
 10
1.7539560533
 20
-24.7711695901
 30
0.0
 10
1.7908597179
 20
-24.7502393223
 30
0.0
 10
1.8396983202
 20
-24.7276123365
 30
0.0
 10
1.8912240485
 20
-24.7100533971
 30
0.0
 10
1.9342012995
 20
-24.6988715085
 30
0.0
 10
1.967672591
 20
-24.6918542128
 30
0.0
 10
2.0021211903
 20
-24.686274156
 30
0.0
 10
2.0314736411
 20
-24.6828408068
 30
0.0
 10
2.0554257722
 20
-24.6808003506
 30
0.0
 10
2.0737390205
 20
-24.679619644
 30
0.0
 10
2.0922971726
 20
-24.6787974511
 30
0.0
 10
2.1063328504
 20
-24.678451311
 30
0.0
 10
2.1157646969
 20
-24.6783309974
 30
0.0
 10
2.1197228882
 20
-24.6782993121
 30
0.0
 10
2.1228970725
 20
-24.6782851578
 30
0.0
 10
2.1259122841
 20
-24.6782787375
 30
0.0
 10
2.129513007
 20
-24.678283315
 30
0.0
 10
2.1336933333
 20
-24.6783099018
 30
0.0
 10
2.139184596
 20
-24.6783716254
 30
0.0
 10
2.1460144515
 20
-24.6784990667
 30
0.0
 10
2.1541685501
 20
-24.6787329725
 30
0.0
 10
2.1649327668
 20
-24.679151193
 30
0.0
 10
2.178252551
 20
-24.6798740014
 30
0.0
 10
2.1940666782
 20
-24.6810672334
 30
0.0
 10
2.2147364177
 20
-24.6830772486
 30
0.0
 10
2.2497884204
 20
-24.6876585692
 30
0.0
 10
2.2981640561
 20
-24.6974064352
 30
0.0
 10
2.3533371103
 20
-24.7144603659
 30
0.0
 10
2.4049920453
 20
-24.7367527012
 30
0.0
 10
2.4531025758
 20
-24.7643142137
 30
0.0
 10
2.4978986183
 20
-24.7972297049
 30
0.0
 10
2.5391135611
 20
-24.836249525
 30
0.0
 10
2.5908679813
 20
-24.8980094523
 30
0.0
 10
2.6469809832
 20
-24.99258137
 30
0.0
 10
2.6793939536
 20
-25.0766130595
 30
0.0
 10
2.6938243135
 20
-25.1219539249
 30
0.0
 11
1.449582302
 21
-25.2427184582
 31
0.0
 11
1.4602564712
 21
-25.1982798927
 31
0.0
 11
1.4687925242
 21
-25.1670071003
 31
0.0
 11
1.4781415346
 21
-25.1358844356
 31
0.0
 11
1.4831208988
 21
-25.1203794012
 31
0.0
 11
1.4883111108
 21
-25.1049285487
 31
0.0
 11
1.4995523287
 21
-25.0746888915
 31
0.0
 11
1.5119869221
 21
-25.0454318648
 31
0.0
 11
1.525614891
 21
-25.0171574685
 31
0.0
 11
1.5564509554
 21
-24.9635565673
 31
0.0
 11
1.5920605218
 21
-24.9138861881
 31
0.0
 11
1.6324435902
 21
-24.8681463307
 31
0.0
 11
1.6776001607
 21
-24.8263369952
 31
0.0
 11
1.7019685093
 21
-24.8069062731
 31
0.0
 11
1.7275132377
 21
-24.7884942576
 31
0.0
 11
1.7540771371
 21
-24.7714346514
 31
0.0
 11
1.7816219674
 21
-24.7558086255
 31
0.0
 11
1.8396544205
 21
-24.7288573149
 31
0.0
 11
1.9016105972
 21
-24.7076403256
 31
0.0
 11
1.9340600819
 21
-24.6991822016
 31
0.0
 11
1.9674904975
 21
-24.6921576578
 31
0.0
 11
2.0019018439
 21
-24.6865666944
 31
0.0
 11
2.0372941212
 21
-24.6824093114
 31
0.0
 11
2.055358109
 21
-24.6808682125
 31
0.0
 11
2.0736673294
 21
-24.6796855087
 31
0.0
 11
2.0922217826
 21
-24.6788612
 31
0.0
 11
2.1110214685
 21
-24.6783952864
 31
0.0
 11
2.1157597076
 21
-24.6783348073
 31
0.0
 11
2.1205132738
 21
-24.6782967278
 31
0.0
 11
2.1228958045
 21
-24.6782860879
 31
0.0
 11
2.1252821669
 21
-24.678281048
 31
0.0
 11
2.1295588889
 21
-24.6782870598
 31
0.0
 11
2.133697845
 21
-24.6783133025
 31
0.0
 11
2.1378229965
 21
-24.678359732
 31
0.0
 11
2.146031886
 21
-24.678513151
 31
0.0
 11
2.1541855575
 21
-24.678747317
 31
0.0
 11
2.1622840109
 21
-24.6790622299
 31
0.0
 11
2.1783152635
 21
-24.6799342963
 31
0.0
 11
2.1941256439
 21
-24.6811293503
 31
0.0
 11
2.2097151521
 21
-24.6826473918
 31
0.0
 11
2.2402315517
 21
-24.6866524375
 31
0.0
 11
2.2986138841
 21
-24.6985383796
 31
0.0
 11
2.3534622607
 21
-24.7155921227
 31
0.0
 11
2.4047766815
 21
-24.7378136667
 31
0.0
 11
2.4525571466
 21
-24.7652030116
 31
0.0
 11
2.4968261354
 21
-24.7978395612
 31
0.0
 11
2.5377915836
 21
-24.8364577995
 31
0.0
 11
2.5755040702
 21
-24.8812363848
 31
0.0
 11
2.6411701584
 21
-24.9892745967
 31
0.0
 11
2.6938243135
 21
-25.1219539249
 31
0.0
  0
SPLINE
  5
442
100
AcDbEntity
  8
0
100
AcDbSpline
 62
7
  6
CONTINUOUS
 70
0
 71
3
 72
54
 73
50
 74
48
 42
0.0000001
 43
0.0000001
 44
0.0000000001
 12
0.7497813413
 22
-2.3528566466
 32
0.0
 13
0.6101785451
 23
2.3926435126
 33
0.0
 40
0.0
 40
0.0
 40
0.0
 40
0.0
 40
0.0007934015
 40
0.0189866694
 40
0.0371837652
 40
0.0462899756
 40
0.0553960314
 40
0.0733722587
 40
0.091009984
 40
0.1083397163
 40
0.1421968061
 40
0.1752271026
 40
0.2077273948
 40
0.240009093
 40
0.2561722205
 40
0.2724050223
 40
0.3054109421
 40
0.339517263
 40
0.375087663
 40
0.3935284043
 40
0.4124517449
 40
0.4318910044
 40
0.4518769225
 40
0.4620842248
 40
0.4724385985
 40
0.4829432212
 40
0.493601136
 40
0.4989885375
 40
0.5016969988
 40
0.5043362446
 40
0.5069496636
 40
0.5095553307
 40
0.5147436978
 40
0.5250306759
 40
0.5352024684
 40
0.5552204502
 40
0.5748433724
 40
0.5941183953
 40
0.6130952731
 40
0.6503514067
 40
0.6870645295
 40
0.7236942237
 40
0.7421298468
 40
0.7606519861
 40
0.7977742851
 40
0.8354192865
 40
0.874058574
 40
0.9141286414
 40
1.0
 40
1.0
 40
1.0
 40
1.0
 10
1.1964534946
 20
-25.9706986469
 30
0.0
 10
1.1966517872
 20
-25.9713209002
 30
0.0
 10
1.2014075494
 20
-25.9862084828
 30
0.0
 10
1.2112123032
 20
-26.015204984
 30
0.0
 10
1.2243481447
 20
-26.0502804781
 30
0.0
 10
1.2355385098
 20
-26.0780814313
 30
0.0
 10
1.2470902976
 20
-26.1055373174
 30
0.0
 10
1.2623559754
 20
-26.1390418987
 30
0.0
 10
1.2820335701
 20
-26.1779373129
 30
0.0
 10
1.3097294779
 20
-26.2273685331
 30
0.0
 10
1.347538703
 20
-26.2855868951
 30
0.0
 10
1.398349208
 20
-26.3498528068
 30
0.0
 10
1.4542489463
 20
-26.4079649726
 30
0.0
 10
1.5050579449
 20
-26.4512460658
 30
0.0
 10
1.548066675
 20
-26.482647142
 30
0.0
 10
1.5930432513
 20
-26.5122645078
 30
0.0
 10
1.6534950363
 20
-26.5450201248
 30
0.0
 10
1.7318236715
 20
-26.5771406291
 30
0.0
 10
1.8014418093
 20
-26.5978929626
 30
0.0
 10
1.8600055513
 20
-26.6111466883
 30
0.0
 10
1.9060222906
 20
-26.6194969758
 30
0.0
 10
1.9535984799
 20
-26.6261365557
 30
0.0
 10
1.99425602
 20
-26.6302158423
 30
0.0
 10
2.0275427408
 20
-26.6326426152
 30
0.0
 10
2.0530753326
 20
-26.6340485516
 30
0.0
 10
2.0789988172
 20
-26.6350274231
 30
0.0
 10
2.1008476608
 20
-26.6354858684
 30
0.0
 10
2.1162829604
 20
-26.635621352
 30
0.0
 10
2.1251187371
 20
-26.6356464499
 30
0.0
 10
2.1316713566
 20
-26.6356375221
 30
0.0
 10
2.1381392214
 20
-26.6355919792
 30
0.0
 10
2.1467047113
 20
-26.6354858989
 30
0.0
 10
2.1615838254
 20
-26.6351799183
 30
0.0
 10
2.1826808473
 20
-26.6343981015
 30
0.0
 10
2.2159392651
 20
-26.6324135906
 30
0.0
 10
2.2567742191
 20
-26.6285633722
 30
0.0
 10
2.3047960441
 20
-26.6216924233
 30
0.0
 10
2.3515766018
 20
-26.612593696
 30
0.0
 10
2.4119097194
 20
-26.5975891972
 30
0.0
 10
2.4846066846
 20
-26.5732398111
 30
0.0
 10
2.5673470748
 20
-26.5348418883
 30
0.0
 10
2.6319813135
 20
-26.4954058028
 30
0.0
 10
2.6808838088
 20
-26.4596260162
 30
0.0
 10
2.7280424109
 20
-26.4209307207
 30
0.0
 10
2.7830443025
 20
-26.3670838381
 30
0.0
 10
2.8419662337
 20
-26.2944445298
 30
0.0
 10
2.8938703631
 20
-26.2137353006
 30
0.0
 10
2.9551149406
 20
-26.092703356
 30
0.0
 10
2.988229777
 20
-25.9937406164
 30
0.0
 10
3.0056953972
 20
-25.9252541
 30
0.0
 11
1.1964534946
 21
-25.9706986469
 31
0.0
 11
1.1970496858
 21
-25.9725649814
 31
0.0
 11
1.2114390298
 21
-26.0151213372
 31
0.0
 11
1.2271987875
 21
-26.0571995499
 31
0.0
 11
1.2355925715
 21
-26.0780593527
 31
0.0
 11
1.2443266532
 21
-26.0987785621
 31
0.0
 11
1.2627465372
 21
-26.1391634733
 31
0.0
 11
1.2824215476
 21
-26.1780173623
 31
0.0
 11
1.3033516844
 21
-26.2153402289
 31
0.0
 11
1.3489773371
 21
-26.2853928953
 31
0.0
 11
1.3996234953
 21
-26.3493214726
 31
0.0
 11
1.4552901591
 21
-26.4071259606
 31
0.0
 11
1.5159773283
 21
-26.4588063595
 31
0.0
 11
1.5482036025
 21
-26.4823500256
 31
0.0
 11
1.581709794
 21
-26.5043485289
 31
0.0
 11
1.6533056575
 21
-26.5432858372
 31
0.0
 11
1.7311615738
 21
-26.5753920388
 31
0.0
 11
1.815277543
 21
-26.6006671336
 31
0.0
 11
1.8596830475
 21
-26.610743016
 31
0.0
 11
1.9056535652
 21
-26.6191111217
 31
0.0
 11
1.9531890961
 21
-26.6257714508
 31
0.0
 11
2.0022896402
 21
-26.6307240032
 31
0.0
 11
2.0274267922
 21
-26.6325598631
 31
0.0
 11
2.0529551975
 21
-26.6339687789
 31
0.0
 11
2.0788748561
 21
-26.6349507504
 31
0.0
 11
2.1051857681
 21
-26.6355057779
 31
0.0
 11
2.118487944
 21
-26.6356231875
 31
0.0
 11
2.125175712
 21
-26.6356418663
 31
0.0
 11
2.1316925893
 21
-26.6356312948
 31
0.0
 11
2.1381455451
 21
-26.6355861798
 31
0.0
 11
2.1445790224
 21
-26.635506361
 31
0.0
 11
2.1573875411
 21
-26.635242612
 31
0.0
 11
2.1827708357
 21
-26.6342986681
 31
0.0
 11
2.2078424729
 21
-26.632799463
 31
0.0
 11
2.2570507755
 21
-26.6281352696
 31
0.0
 11
2.3050124487
 21
-26.6212500316
 31
0.0
 11
2.3517274927
 21
-26.6121437491
 31
0.0
 11
2.3971959074
 21
-26.6008164221
 31
0.0
 11
2.4843928491
 21
-26.5714986345
 31
0.0
 11
2.5666032737
 21
-26.5332966689
 31
0.0
 11
2.6438271812
 21
-26.4862105253
 31
0.0
 11
2.680569191
 21
-26.4593358867
 31
0.0
 11
2.7159119284
 21
-26.4303081862
 31
0.0
 11
2.7814455659
 21
-26.3662184911
 31
0.0
 11
2.8400846465
 21
-26.2940944009
 31
0.0
 11
2.8918291702
 21
-26.2139359156
 31
0.0
 11
2.936679137
 21
-26.1257430352
 31
0.0
 11
3.0056953972
 21
-25.9252541
 31
0.0
  0
SPLINE
  5
443
100
AcDbEntity
  8
0
100
AcDbSpline
 62
7
  6
CONTINUOUS
 70
0
 71
3
 72
59
 73
55
 74
53
 42
0.0000001
 43
0.0000001
 44
0.0000000001
 12
-0.5746508915
 22
-0.9061668385
 32
0.0
 13
-0.161593515
 23
1.0602102883
 33
0.0
 40
0.0
 40
0.0
 40
0.0
 40
0.0
 40
0.0297267072
 40
0.0519984491
 40
0.0743449333
 40
0.0965244775
 40
0.1182873149
 40
0.1607573018
 40
0.202209363
 40
0.2431184719
 40
0.2839785405
 40
0.3045531151
 40
0.3253002755
 40
0.3462793238
 40
0.3568746883
 40
0.3675493439
 40
0.3783100974
 40
0.3891635933
 40
0.3946272493
 40
0.4001165044
 40
0.4028709886
 40
0.405632165
 40
0.4084001295
 40
0.4097866886
 40
0.4104806174
 40
0.4111749809
 40
0.4117507264
 40
0.4123261318
 40
0.4134759254
 40
0.4157714683
 40
0.4180616691
 40
0.4203465857
 40
0.4249007855
 40
0.429434554
 40
0.4384425931
 40
0.4473747218
 40
0.4562349407
 40
0.4650273483
 40
0.4824245154
 40
0.4996019017
 40
0.5165954931
 40
0.5501712826
 40
0.5834688937
 40
0.6168038919
 40
0.6504907919
 40
0.6675666445
 40
0.6848434496
 40
0.702269257
 40
0.7198019836
 40
0.7553673445
 40
0.7919189595
 40
0.8297954522
 40
0.9106427295
 40
1.0
 40
1.0
 40
1.0
 40
1.0
 10
-0.6841615737
 20
-26.2162977979
 30
0.0
 10
-0.6898557333
 20
-26.2252769167
 30
0.0
 10
-0.7003589544
 20
-26.2406383653
 30
0.0
 10
-0.7166730884
 20
-26.2616321296
 30
0.0
 10
-0.732304419
 20
-26.2796983636
 30
0.0
 10
-0.7486644454
 20
-26.2968547219
 30
0.0
 10
-0.7710157979
 20
-26.3181912302
 30
0.0
 10
-0.8002507565
 20
-26.3422344343
 30
0.0
 10
-0.8375752276
 20
-26.3668492619
 30
0.0
 10
-0.8768553124
 20
-26.3869798179
 30
0.0
 10
-0.91114026
 20
-26.3999812161
 30
0.0
 10
-0.9393837065
 20
-26.4081121531
 30
0.0
 10
-0.9610980062
 20
-26.4131122873
 30
0.0
 10
-0.9795309078
 20
-26.4163396163
 30
0.0
 10
-0.9944987761
 20
-26.4183683903
 30
0.0
 10
-1.0058822764
 20
-26.4196172761
 30
0.0
 10
-1.0173853019
 20
-26.4205882828
 30
0.0
 10
-1.0270491233
 20
-26.4211646207
 30
0.0
 10
-1.0348380327
 20
-26.4214876606
 30
0.0
 10
-1.0397362256
 20
-26.4216319885
 30
0.0
 10
-1.0436695021
 20
-26.4217128566
 30
0.0
 10
-1.0466304723
 20
-26.4217562246
 30
0.0
 10
-1.04910265
 20
-26.4217778874
 30
0.0
 10
-1.0508358836
 20
-26.4217854708
 30
0.0
 10
-1.0518278486
 20
-26.4217876381
 30
0.0
 10
-1.0525299623
 20
-26.421788152
 30
0.0
 10
-1.0531897057
 20
-26.4217877449
 30
0.0
 10
-1.0540122571
 20
-26.4217862095
 30
0.0
 10
-1.0554496024
 20
-26.4217808434
 30
0.0
 10
-1.0574999215
 20
-26.4217655113
 30
0.0
 10
-1.059955897
 20
-26.4217348198
 30
0.0
 10
-1.0632189979
 20
-26.4216775868
 30
0.0
 10
-1.0672834283
 20
-26.4215754405
 30
0.0
 10
-1.0737485229
 20
-26.4213468126
 30
0.0
 10
-1.0817728879
 20
-26.4209389367
 30
0.0
 10
-1.091329637
 20
-26.4202518209
 30
0.0
 10
-1.1007928848
 20
-26.4193680955
 30
0.0
 10
-1.1132409873
 20
-26.4179328367
 30
0.0
 10
-1.1285806876
 20
-26.415650731
 30
0.0
 10
-1.146679966
 20
-26.412114468
 30
0.0
 10
-1.1702154205
 20
-26.4063734962
 30
0.0
 10
-1.198815534
 20
-26.397213941
 30
0.0
 10
-1.2317608271
 20
-26.3830035552
 30
0.0
 10
-1.2631923474
 20
-26.3656193986
 30
0.0
 10
-1.2880128438
 20
-26.3485678693
 30
0.0
 10
-1.3070485712
 20
-26.3334160145
 30
0.0
 10
-1.3210064406
 20
-26.321248549
 30
0.0
 10
-1.3344723034
 20
-26.3082989863
 30
0.0
 10
-1.3516847815
 20
-26.289863951
 30
0.0
 10
-1.3716993752
 20
-26.2647562764
 30
0.0
 10
-1.393060683
 20
-26.2316717623
 30
0.0
 10
-1.4187288963
 20
-26.1823748276
 30
0.0
 10
-1.4442153038
 20
-26.1121304212
 30
0.0
 10
-1.4566722103
 20
-26.052390196
 30
0.0
 10
-1.4614853954
 20
-26.0208110302
 30
0.0
 11
-0.6841615737
 21
-26.2162977979
 31
0.0
 11
-0.7021612963
 21
-26.2426191486
 31
0.0
 11
-0.71681868
 21
-26.2614784884
 31
0.0
 11
-0.7324869177
 21
-26.279612863
 31
0.0
 11
-0.7489000621
 21
-26.2968293835
 31
0.0
 11
-0.765792166
 21
-26.3129351608
 31
0.0
 11
-0.8010132523
 21
-26.3418144855
 31
0.0
 11
-0.8381501766
 21
-26.3662508371
 31
0.0
 11
-0.8772029387
 21
-26.3862442158
 31
0.0
 11
-0.9181715387
 21
-26.4017946214
 31
0.0
 11
-0.939374278
 21
-26.4079037093
 31
0.0
 11
-0.9610559767
 21
-26.4129020539
 31
0.0
 11
-0.9832166349
 21
-26.4167896553
 31
0.0
 11
-0.9944765738
 21
-26.4183169273
 31
0.0
 11
-1.0058562526
 21
-26.4195665135
 31
0.0
 11
-1.0173556713
 21
-26.4205384138
 31
0.0
 11
-1.0289748298
 21
-26.4212326284
 31
0.0
 11
-1.0348293115
 21
-26.4214756035
 31
0.0
 11
-1.0407137282
 21
-26.4216491571
 31
0.0
 11
-1.0436671621
 21
-26.4217099009
 31
0.0
 11
-1.0466280798
 21
-26.4217532893
 31
0.0
 11
-1.0495964812
 21
-26.4217793223
 31
0.0
 11
-1.0510834884
 21
-26.4217858306
 31
0.0
 11
-1.0518276935
 21
-26.4217874576
 31
0.0
 11
-1.0525723664
 21
-26.421788
 31
0.0
 11
-1.0531898271
 21
-26.4217876162
 31
0.0
 11
-1.053806922
 21
-26.4217864647
 31
0.0
 11
-1.0550400146
 21
-26.4217818589
 31
0.0
 11
-1.0575018106
 21
-26.4217634357
 31
0.0
 11
-1.0599577544
 21
-26.4217327302
 31
0.0
 11
-1.0624078461
 21
-26.4216897426
 31
0.0
 11
-1.067290473
 21
-26.4215669209
 31
0.0
 11
-1.0721496912
 21
-26.4213949705
 31
0.0
 11
-1.0817979018
 21
-26.4209036837
 31
0.0
 11
-1.0913524778
 21
-26.4202158822
 31
0.0
 11
-1.1008134193
 21
-26.4193315659
 31
0.0
 11
-1.1101807262
 21
-26.4182507349
 31
0.0
 11
-1.1286344364
 21
-26.4154995286
 31
0.0
 11
-1.1467136083
 21
-26.4119622635
 31
0.0
 11
-1.1644182421
 21
-26.4076389394
 31
0.0
 11
-1.198703895
 21
-26.3966341145
 31
0.0
 11
-1.231491395
 21
-26.3824850539
 31
0.0
 11
-1.2627807422
 21
-26.3651917576
 31
0.0
 11
-1.2925719366
 21
-26.3447542257
 31
0.0
 11
-1.3069057265
 21
-26.3333563713
 31
0.0
 11
-1.3208649782
 21
-26.321172458
 31
0.0
 11
-1.3343255103
 21
-26.3082082872
 31
0.0
 11
-1.3471631417
 21
-26.2944696604
 31
0.0
 11
-1.3709697022
 21
-26.2646690386
 31
0.0
 11
-1.3922846596
 21
-26.2317705927
 31
0.0
 11
-1.4111080139
 21
-26.1957743225
 31
0.0
 11
-1.4412799131
 21
-26.1144883096
 31
0.0
 11
-1.4614853954
 21
-26.0208110302
 31
0.0
  0
SPLINE
  5
444
100
AcDbEntity
  8
0
100
AcDbSpline
 62
7
  6
CONTINUOUS
 70
0
 71
3
 72
60
 73
56
 74
54
 42
0.0000001
 43
0.0000001
 44
0.0000000001
 12
-0.1728215188
 22
1.3768185527
 32
0.0
 13
-1.1357384841
 23
-0.7970869639
 33
0.0
 40
0.0
 40
0.0
 40
0.0
 40
0.0
 40
0.0102776696
 40
0.0323998469
 40
0.0757203335
 40
0.1180771385
 40
0.1597957942
 40
0.2012168814
 40
0.2426883129
 40
0.2635568516
 40
0.2845672949
 40
0.3057613651
 40
0.3270867269
 40
0.3689435756
 40
0.4098572867
 40
0.4501374973
 40
0.4901085699
 40
0.530102389
 40
0.5704502779
 40
0.5908632729
 40
0.6114845938
 40
0.6323520711
 40
0.6535022146
 40
0.6641948341
 40
0.6695723302
 40
0.6749712697
 40
0.6803921675
 40
0.6831110178
 40
0.6858355478
 40
0.6885658202
 40
0.6892492934
 40
0.6899331304
 40
0.6905934016
 40
0.6911102011
 40
0.6921435648
 40
0.693176619
 40
0.6952418172
 40
0.6973058365
 40
0.6993687166
 40
0.7034912078
 40
0.7076096191
 40
0.7117242695
 40
0.7199434884
 40
0.728151514
 40
0.7363509263
 40
0.7445443136
 40
0.7609227424
 40
0.7773082263
 40
0.7937215167
 40
0.8101832597
 40
0.82671392
 40
0.8600575832
 40
0.8939150871
 40
0.9284368931
 40
1.0
 40
1.0
 40
1.0
 40
1.0
 10
-0.3334630575
 20
-25.7694163604
 30
0.0
 10
-0.334055125
 20
-25.7646995317
 30
0.0
 10
-0.3360542428
 20
-25.7498467679
 30
0.0
 10
-0.3417232128
 20
-25.7152796705
 30
0.0
 10
-0.3527831389
 20
-25.6665985543
 30
0.0
 10
-0.370755385
 20
-25.6104061409
 30
0.0
 10
-0.3933402268
 20
-25.5568493784
 30
0.0
 10
-0.4205350405
 20
-25.5059445513
 30
0.0
 10
-0.4469888574
 20
-25.4658156784
 30
0.0
 10
-0.4703553381
 20
-25.4351404531
 30
0.0
 10
-0.4890624439
 20
-25.4127432358
 30
0.0
 10
-0.5088855328
 20
-25.3910406552
 30
0.0
 10
-0.5364270945
 20
-25.3633803645
 30
0.0
 10
-0.5724147613
 20
-25.3313089211
 30
0.0
 10
-0.6180451277
 20
-25.2971764537
 30
0.0
 10
-0.665784296
 20
-25.2676810187
 30
0.0
 10
-0.7156281818
 20
-25.2428360911
 30
0.0
 10
-0.7675640943
 20
-25.2226471304
 30
0.0
 10
-0.8124154592
 20
-25.2097533277
 30
0.0
 10
-0.8492071264
 20
-25.2017611364
 30
0.0
 10
-0.8774309351
 20
-25.1968988242
 30
0.0
 10
-0.90617241
 20
-25.1931932239
 30
0.0
 10
-0.9304667474
 20
-25.1910764409
 30
0.0
 10
-0.9476546328
 20
-25.190097173
 30
0.0
 10
-0.9575756598
 20
-25.1896790558
 30
0.0
 10
-0.9650633143
 20
-25.1894370071
 30
0.0
 10
-0.9713236177
 20
-25.1892955669
 30
0.0
 10
-0.9763478911
 20
-25.1892183784
 30
0.0
 10
-0.980128101
 20
-25.1891784612
 30
0.0
 10
-0.982967087
 20
-25.1891620665
 30
0.0
 10
-0.9848622577
 20
-25.1891567537
 30
0.0
 10
-0.9858000358
 20
-25.1891552502
 30
0.0
 10
-0.9866607266
 20
-25.1891548401
 30
0.0
 10
-0.9876830772
 20
-25.1891555437
 30
0.0
 10
-0.988877842
 20
-25.1891583455
 30
0.0
 10
-0.9907887424
 20
-25.1891669904
 30
0.0
 10
-0.9931762864
 20
-25.1891856266
 30
0.0
 10
-0.9960399977
 20
-25.1892205182
 30
0.0
 10
-0.9998549199
 20
-25.1892837265
 30
0.0
 10
-1.004619324
 20
-25.1893940324
 30
0.0
 10
-1.0103310663
 20
-25.1895765445
 30
0.0
 10
-1.0179341926
 20
-25.1898865777
 30
0.0
 10
-1.0274217461
 20
-25.1903993139
 30
0.0
 10
-1.0387831588
 20
-25.191215329
 30
0.0
 10
-1.0501164527
 20
-25.1922318402
 30
0.0
 10
-1.0651870955
 20
-25.1938541786
 30
0.0
 10
-1.0839649617
 20
-25.196384517
 30
0.0
 10
-1.1063883276
 20
-25.2002240532
 30
0.0
 10
-1.128698793
 20
-25.2048662465
 30
0.0
 10
-1.1508963515
 20
-25.2103111883
 30
0.0
 10
-1.1804240911
 20
-25.2186641227
 30
0.0
 10
-1.2171167577
 20
-25.2311534856
 30
0.0
 10
-1.2605569221
 20
-25.2493155625
 30
0.0
 10
-1.3185407572
 20
-25.2781534483
 30
0.0
 10
-1.3603237269
 20
-25.3041712686
 30
0.0
 10
-1.3874160518
 20
-25.3231852752
 30
0.0
 11
-0.3334630575
 21
-25.7694163604
 31
0.0
 11
-0.3353663426
 21
-25.7552827659
 31
0.0
 11
-0.340343524
 21
-25.7249937095
 31
0.0
 11
-0.3537247988
 21
-25.6663934614
 31
0.0
 11
-0.3716752892
 21
-25.6104303661
 31
0.0
 11
-0.3941949955
 21
-25.5571044237
 31
0.0
 11
-0.4212839175
 21
-25.5064156341
 31
0.0
 11
-0.4529420553
 21
-25.4583639974
 31
0.0
 11
-0.4704845801
 21
-25.4353271113
 31
0.0
 11
-0.4891694088
 21
-25.4129495135
 31
0.0
 11
-0.5089965415
 21
-25.3912312039
 31
0.0
 11
-0.5298642763
 21
-25.370252991
 31
0.0
 11
-0.5732723017
 21
-25.3316683774
 31
0.0
 11
-0.6187578489
 21
-25.2977007262
 31
0.0
 11
-0.6663209178
 21
-25.2683500372
 31
0.0
 11
-0.7159615085
 21
-25.2436163105
 31
0.0
 11
-0.7676796208
 21
-25.2234995462
 31
0.0
 11
-0.8214752549
 21
-25.2079997441
 31
0.0
 11
-0.8491521426
 21
-25.201981204
 31
0.0
 11
-0.8773484108
 21
-25.1971169044
 31
0.0
 11
-0.9060640593
 21
-25.1934068454
 31
0.0
 11
-0.9352990883
 21
-25.190851027
 31
0.0
 11
-0.9501113705
 21
-25.190005958
 31
0.0
 11
-0.9575662035
 21
-25.1896916335
 31
0.0
 11
-0.9650534977
 21
-25.1894494491
 31
0.0
 11
-0.9725732533
 21
-25.1892794048
 31
0.0
 11
-0.976345304
 21
-25.1892214351
 31
0.0
 11
-0.9801254701
 21
-25.1891815004
 31
0.0
 11
-0.9839137515
 21
-25.1891596008
 31
0.0
 11
-0.9848620899
 21
-25.1891569438
 31
0.0
 11
-0.9858109354
 21
-25.1891554141
 31
0.0
 11
-0.9867270838
 21
-25.189155008
 31
0.0
 11
-0.9874441604
 21
-25.1891555113
 31
0.0
 11
-0.9888779833
 21
-25.1891588666
 31
0.0
 11
-0.990311366
 21
-25.1891653535
 31
0.0
 11
-0.9931768106
 21
-25.1891877222
 31
0.0
 11
-0.9960404942
 21
-25.1892226174
 31
0.0
 11
-0.9989024168
 21
-25.1892700391
 31
0.0
 11
-1.004620979
 21
-25.1894024618
 31
0.0
 11
-1.0103324972
 21
-25.1895849905
 31
0.0
 11
-1.0160369714
 21
-25.1898176251
 31
0.0
 11
-1.0274247878
 21
-25.1904332119
 31
0.0
 11
-1.0387844283
 21
-25.1912492224
 31
0.0
 11
-1.0501158927
 21
-25.1922656566
 31
0.0
 11
-1.0614191811
 21
-25.1934825143
 31
0.0
 11
-1.08394123
 21
-25.1965175007
 31
0.0
 11
-1.1063505749
 21
-25.2003541817
 31
0.0
 11
-1.1286472157
 21
-25.2049925571
 31
0.0
 11
-1.1508311526
 21
-25.2104326271
 31
0.0
 11
-1.1729023855
 21
-25.2166743916
 31
0.0
 11
-1.2167067393
 21
-25.2315630042
 31
0.0
 11
-1.2600602772
 21
-25.2496583948
 31
0.0
 11
-1.3029629991
 21
-25.2709605636
 31
0.0
 11
-1.3874160518
 21
-25.3231852752
 31
0.0
  0
LINE
  5
445
100
AcDbEntity
  8
RACCORDO
100
AcDbLine
 62
7
  6
CONTINUOUS
 10
-10.4765680954
 20
-17.6161049543
 11
-10.1750256133
 21
-17.8045296097
  0
LINE
  5
446
100
AcDbEntity
  8
RACCORDO
100
AcDbLine
 62
7
  6
CONTINUOUS
 10
17.6161049543
 20
10.4765680954
 11
17.8045296097
 21
10.1750256133
  0
LINE
  5
447
100
AcDbEntity
  8
RACCORDO
100
AcDbLine
 62
7
  6
CONTINUOUS
 10
10.4765680954
 20
17.6161049543
 11
10.1750256133
 21
17.8045296097
  0
LINE
  5
448
100
AcDbEntity
  8
RACCORDO
100
AcDbLine
 62
7
  6
CONTINUOUS
 10
-17.6161049543
 20
-10.4765680954
 11
-17.8045296097
 21
-10.1750256133
  0
ENDSEC
  0
SECTION
  2
OBJECTS
  0
DICTIONARY
  5
C
100
AcDbDictionary
280
0
281
1
  3
ACAD_GROUP
350
D
  3
ACAD_MLINESTYLE
350
17
  3
ACAD_LAYOUT
350
1A
  3
ACAD_PLOTSETTINGS
350
19
  3
ACAD_PLOTSTYLENAME
350
E
  0
DICTIONARY
  5
D
102
{ACAD_REACTORS
330
C
102
}
100
AcDbDictionary
280
0
281
1
  0
ACDBDICTIONARYWDFLT
  5
E
102
{ACAD_REACTORS
330
C
102
}
100
AcDbDictionary
281
1
  3
Normal
350
F
100
AcDbDictionaryWithDefault
340
F
  0
DICTIONARY
  5
17
102
{ACAD_REACTORS
330
C
102
}
100
AcDbDictionary
280
0
281
1
  3
Standard
350
18
  0
DICTIONARY
  5
19
102
{ACAD_REACTORS
330
C
102
}
100
AcDbDictionary
281
1
  0
DICTIONARY
  5
1A
102
{ACAD_REACTORS
330
C
102
}
100
AcDbDictionary
281
1
  3
Model
350
449
  3
Layout1
350
44A
  0
ACDBPLACEHOLDER
  5
F
102
{ACAD_REACTORS
330
E
102
}
  0
MLINESTYLE
  5
18
102
{ACAD_REACTORS
330
17
102
}
100
AcDbMlineStyle
  2
STANDARD
 70
0
  3

 62
256
 51
90.0
 52
90.0
 71
2
 49
0.5
 62
256
  6
BYLAYER
 49
-0.5
 62
256
  6
BYLAYER
  0
LAYOUT
  5
449
102
{ACAD_REACTORS
330
1A
102
}
100
AcDbPlotSettings
  1

  2
none_device
  4
ISO_A4_(297.00_x_210.00_MM)
  6

 40
0.0
 41
0.0
 42
0.0
 43
0.0
 44
297.0
 45
210.0
 46
0.0
 47
0.0
 48
0.0
 49
0.0
140
0.0
141
0.0
142
1.0
143
1.0
 70
1024
 72
1
 73
0
 74
0
  7

 75
0
147
1.0
148
0.0
149
0.0
100
AcDbLayout
  1
Model
 70
0
 71
0
 10
0.0
 20
0.0
 11
297.0
 21
210.0
 12
0.0
 22
0.0
 32
0.0
 14
0.0
 24
0.0
 34
0.0
 15
0.0
 25
0.0
 35
0.0
146
0.0
 13
0.0
 23
0.0
 33
0.0
 16
1.0
 26
0.0
 36
0.0
 17
0.0
 27
1.0
 37
0.0
 76
0
330
20B
345
0
346
0
  0
LAYOUT
  5
44A
102
{ACAD_REACTORS
330
1A
102
}
100
AcDbPlotSettings
  1

  2
none_device
  4
ISO_A4_(297.00_x_210.00_MM)
  6

 40
0.0
 41
0.0
 42
0.0
 43
0.0
 44
297.0
 45
210.0
 46
0.0
 47
0.0
 48
0.0
 49
0.0
140
0.0
141
0.0
142
1.0
143
1.0
 70
0
 72
1
 73
0
 74
0
  7

 75
0
147
1.0
148
0.0
149
0.0
100
AcDbLayout
  1
Layout1
 70
0
 71
1
 10
0.0
 20
0.0
 11
297.0
 21
210.0
 12
0.0
 22
0.0
 32
0.0
 14
0.0
 24
0.0
 34
0.0
 15
0.0
 25
0.0
 35
0.0
146
0.0
 13
0.0
 23
0.0
 33
0.0
 16
1.0
 26
0.0
 36
0.0
 17
0.0
 27
1.0
 37
0.0
 76
0
330
20C
345
0
346
0
  0
ENDSEC
  0
EOF
