0
SECTION
2
HEADER
9
$ACADVER
1
AC1014
9
$HANDSEED
5
       42B
9
$EXTMAX
10
297.0000000000
20
210.0000000000
9
$EXTMIN
10
0.0000000000
20
0.0000000000
9
$LIMMIN
10
0.0000000000
20
0.0000000000
9
$LIMMAX
10
297.0000000000
20
210.0000000000
9
$VIEWCTR
10
148.5000000000
20
105.0000000000
9
$VIEWSIZE
40
210.0000000000
9
$CLAYER
8
0
9
$LTSCALE
40
16.3350000000
9
$CELTYPE
6
BYLAYER
9
$DIMSCALE
40
1
9
$DIMASZ
40
3.0000000000
9
$DIMEXO
40
1.8562500000
9
$DIMDLI
40
11.2860000000
9
$DIMEXE
40
5.3460000000
9
$DIMCEN
40
2.6730000000
9
$DIMLFAC
40
1.0000000000
9
$DIMTXT
40
3.0000000000
9
$DIMTOL
70
1
9
$DIMLIM
70
0
9
$DIMTFAC
40
1.0000000000
9
$DIMTP
40
0.0100000000
9
$DIMTM
40
0.0100000000
9
$MEASUREMENT
70
1
0
ENDSEC
0
SECTION
2
CLASSES
0
ENDSEC
0
SECTION
2
TABLES
0
TABLE
2
VPORT
5
8
100
AcDbSymbolTable
70
2
0
VPORT
5
1F4
100
AcDbSymbolTableRecord
100
AcDbViewportTableRecord
2
*ACTIVE
70
0
10
0.0
20
0.0
11
1.0
21
1.0
12
148.5000000000
22
105.0000000000
13
0.0
23
0.0
14
1.0
24
1.0
15
0.0
25
0.0
16
0.0
26
0.0
36
1.0
17
0.0
27
0.0
37
0.0
40
210.0000000000
41
1.4142857143
42
50.0
43
0.0
44
0.0
50
0.0
51
0.0
71
0
72
100
73
1
74
1
75
0
76
0
77
0
78
0
0
ENDTAB
0
TABLE
2
LTYPE
5
5
100
AcDbSymbolTable
70
6
0
LTYPE
5
14
100
AcDbSymbolTableRecord
100
AcDbLinetypeTableRecord
2
BYBLOCK
70
0
3

72
65
73
0
40
0.0
0
LTYPE
5
15
100
AcDbSymbolTableRecord
100
AcDbLinetypeTableRecord
2
BYLAYER
70
0
3

72
65
73
0
40
0.0
0
LTYPE
5
16
100
AcDbSymbolTableRecord
100
AcDbLinetypeTableRecord
2
CONTINUOUS
70
64
3
Solid line
72
65
73
0
40
0
0
LTYPE
5
1F5
100
AcDbSymbolTableRecord
100
AcDbLinetypeTableRecord
2
CENTER
70
64
3
____ _ ____ _ ____ _ ____ _ ____ _ ____ _ ____
72
65
73
4
40
0.6
49
0.375
74
0
49
-0.075
74
0
49
0.075
74
0
49
-0.075
74
0
0
LTYPE
5
1F6
100
AcDbSymbolTableRecord
100
AcDbLinetypeTableRecord
2
HIDDEN
70
64
3
- - - - - - - - - - - - - - - - - - - -
72
65
73
2
40
0.2
49
0.1
74
0
49
-0.1
74
0
0
LTYPE
5
1F7
100
AcDbSymbolTableRecord
100
AcDbLinetypeTableRecord
2
PHANTOM
70
64
3
_____ _ _ _____ _ _ _____ _ _ _____
72
65
73
6
40
0.8
49
0.45
74
0
49
-0.05
74
0
49
0.1
74
0
49
-0.05
74
0
49
0.1
74
0
49
-0.05
74
0
0
LTYPE
5
1F8
100
AcDbSymbolTableRecord
100
AcDbLinetypeTableRecord
2
DOT
70
64
3
. . . . . . . . . . . . . . . . . . . .
72
65
73
2
40
0.2
49
0.1
74
0
49
-0.1
74
0
0
LTYPE
5
1F9
100
AcDbSymbolTableRecord
100
AcDbLinetypeTableRecord
2
DASHED
70
64
3
- - - - - - - - - - - - - - - - - - - -
72
65
73
2
40
0.2
49
0.1
74
0
49
-0.1
74
0
0
ENDTAB
0
TABLE
2
LAYER
5
2
100
AcDbSymbolTable
70
36
0
LAYER
5
10
100
AcDbSymbolTableRecord
100
AcDbLayerTableRecord
2
0
70
0
62
7
6
CONTINUOUS
0
LAYER
5
1FA
100
AcDbSymbolTableRecord
100
AcDbLayerTableRecord
2
DEFAULT_1
70
0
62
7
6
CENTER
0
LAYER
5
1FB
100
AcDbSymbolTableRecord
100
AcDbLayerTableRecord
2
DEFAULT_2
70
0
62
8
6
HIDDEN
0
LAYER
5
1FC
100
AcDbSymbolTableRecord
100
AcDbLayerTableRecord
2
DEFAULT_3
70
0
62
7
6
PHANTOM
0
LAYER
5
1FD
100
AcDbSymbolTableRecord
100
AcDbLayerTableRecord
2
ASSI
70
0
62
7
6
CONTINUOUS
0
LAYER
5
1FE
100
AcDbSymbolTableRecord
100
AcDbLayerTableRecord
2
COORDINATE
70
0
62
7
6
CONTINUOUS
0
LAYER
5
1FF
100
AcDbSymbolTableRecord
100
AcDbLayerTableRecord
2
COORD_ORIGINE
70
0
62
7
6
CONTINUOUS
0
LAYER
5
200
100
AcDbSymbolTableRecord
100
AcDbLayerTableRecord
2
COPY_GEOMETRY
70
0
62
7
6
CONTINUOUS
0
LAYER
5
201
100
AcDbSymbolTableRecord
100
AcDbLayerTableRecord
2
CURVE
70
0
62
7
6
CONTINUOUS
0
LAYER
5
202
100
AcDbSymbolTableRecord
100
AcDbLayerTableRecord
2
DRAFT
70
0
62
7
6
CONTINUOUS
0
LAYER
5
203
100
AcDbSymbolTableRecord
100
AcDbLayerTableRecord
2
NOTE
70
0
62
7
6
CONTINUOUS
0
LAYER
5
204
100
AcDbSymbolTableRecord
100
AcDbLayerTableRecord
2
PIANI
70
0
62
7
6
CONTINUOUS
0
LAYER
5
205
100
AcDbSymbolTableRecord
100
AcDbLayerTableRecord
2
PIANI_ORIGINE
70
0
62
7
6
CONTINUOUS
0
LAYER
5
206
100
AcDbSymbolTableRecord
100
AcDbLayerTableRecord
2
PIANI_RIFERIMENTO
70
0
62
7
6
CONTINUOUS
0
LAYER
5
207
100
AcDbSymbolTableRecord
100
AcDbLayerTableRecord
2
PUNTI
70
0
62
7
6
CONTINUOUS
0
LAYER
5
208
100
AcDbSymbolTableRecord
100
AcDbLayerTableRecord
2
RACCORDO
70
0
62
7
6
CONTINUOUS
0
LAYER
5
209
100
AcDbSymbolTableRecord
100
AcDbLayerTableRecord
2
SMUSSO
70
0
62
7
6
CONTINUOUS
0
LAYER
5
20A
100
AcDbSymbolTableRecord
100
AcDbLayerTableRecord
2
SUPERFICI
70
0
62
7
6
CONTINUOUS
0
LAYER
5
20B
100
AcDbSymbolTableRecord
100
AcDbLayerTableRecord
2
TRASH
70
0
62
7
6
CONTINUOUS
0
LAYER
5
20C
100
AcDbSymbolTableRecord
100
AcDbLayerTableRecord
2
XSEC_DATUMS
70
0
62
7
6
CONTINUOUS
0
ENDTAB
0
TABLE
2
STYLE
5
3
100
AcDbSymbolTable
70
1
0
STYLE
5
11
100
AcDbSymbolTableRecord
100
AcDbTextStyleTableRecord
2
STANDARD
70
0
40
0.0
41
0.8000000000
50
0.0
71
0
42
0.2
3
txt
4

0
ENDTAB
0
TABLE
2
VIEW
5
6
100
AcDbSymbolTable
70
0
0
ENDTAB
0
TABLE
2
UCS
5
7
100
AcDbSymbolTable
70
0
0
ENDTAB
0
TABLE
2
APPID
5
9
100
AcDbSymbolTable
70
1
0
APPID
5
20D
100
AcDbSymbolTableRecord
100
AcDbRegAppTableRecord
2
ACAD
70
0
0
ENDTAB
0
TABLE
2
DIMSTYLE
5
A
100
AcDbSymbolTable
70
1
0
DIMSTYLE
105
20E
100
AcDbSymbolTableRecord
100
AcDbDimStyleTableRecord
2
STANDARD
70
0
3

4

5

6

7

40
1.0
41
3.0000000000
42
0.0625
43
0.38
44
0.18
45
0.0
46
0.0
47
0.0100000000
48
0.0100000000
140
3.0000000000
141
0.09
142
0.0
143
25.4
144
1.0000000000
145
0.0
146
1.0000000000
147
0.09
71
1
72
0
73
0
74
0
75
0
76
0
77
1
78
8
170
0
171
2
172
0
173
0
174
0
175
0
176
0
177
0
178
0
270
2
271
2
272
2
273
2
274
2
340
11
275
0
280
0
281
0
282
0
283
1
284
8
285
0
286
0
287
3
288
0
0
ENDTAB
0
TABLE
2
BLOCK_RECORD
5
1
100
AcDbSymbolTable
70
0
0
BLOCK_RECORD
5
1B
100
AcDbSymbolTableRecord
100
AcDbBlockTableRecord
2
*MODEL_SPACE
0
BLOCK_RECORD
5
1C
100
AcDbSymbolTableRecord
100
AcDbBlockTableRecord
2
*PAPER_SPACE
0
ENDTAB
0
ENDSEC
0
SECTION
2
BLOCKS
0
BLOCK
5
1E
100
AcDbEntity
8
0
100
AcDbBlockBegin
2
*MODEL_SPACE
70
0
10
0.0
20
0.0
30
0.0
3
*MODEL_SPACE
1

0
ENDBLK
5
1F
100
AcDbEntity
8
0
100
AcDbBlockEnd
0
BLOCK
5
20
100
AcDbEntity
8
0
100
AcDbBlockBegin
2
*PAPER_SPACE
70
0
10
0.0
20
0.0
30
0.0
3
*PAPER_SPACE
1

0
ENDBLK
5
21
100
AcDbEntity
8
0
100
AcDbBlockEnd
0
ENDSEC
0
SECTION
2
ENTITIES
0
LINE
5
20F
100
AcDbEntity
8
0
100
AcDbLine
62
7
6
CONTINUOUS
10
-10.6272670947
20
-22.4694889506
11
10.3730755803
21
-22.4694889506
0
LINE
5
210
100
AcDbEntity
8
0
100
AcDbLine
62
7
6
CONTINUOUS
10
9.3730070453
20
-20.9694889506
11
-9.6271985597
21
-20.9694889506
0
LINE
5
211
100
AcDbEntity
8
0
100
AcDbLine
62
9
6
CONTINUOUS
10
-9.5366722087
20
-20.8789625996
11
-7.5365694062
21
-20.8789625996
0
LINE
5
212
100
AcDbEntity
8
0
100
AcDbLine
62
9
6
CONTINUOUS
10
-6.1270957572
20
-20.8789625996
11
5.8729042428
21
-20.8789625996
0
LINE
5
213
100
AcDbEntity
8
0
100
AcDbLine
62
9
6
CONTINUOUS
10
7.2823778918
20
-20.8789625996
11
9.2824806943
21
-20.8789625996
0
LINE
5
214
100
AcDbEntity
8
0
100
AcDbLine
62
9
6
CONTINUOUS
10
-9.5366722087
20
-20.6212132860
11
-7.2788200926
21
-20.6212132860
0
LINE
5
215
100
AcDbEntity
8
0
100
AcDbLine
62
9
6
CONTINUOUS
10
-6.1270957572
20
-20.6212132860
11
5.8729042428
21
-20.6212132860
0
LINE
5
216
100
AcDbEntity
8
0
100
AcDbLine
62
9
6
CONTINUOUS
10
7.0246285782
20
-20.6212132860
11
9.2824806943
21
-20.6212132860
0
LINE
5
217
100
AcDbEntity
8
0
100
AcDbLine
62
7
6
CONTINUOUS
10
5.8729042428
20
-20.3694889506
11
6.7729042428
21
-20.3694889506
0
LINE
5
218
100
AcDbEntity
8
0
100
AcDbLine
62
7
6
CONTINUOUS
10
-6.1270957572
20
-20.3694889506
11
-7.0270957572
21
-20.3694889506
0
LINE
5
219
100
AcDbEntity
8
0
100
AcDbLine
62
7
6
CONTINUOUS
10
-6.4512579179
20
-18.2718189517
11
6.1970664036
21
-18.2718189517
0
LINE
5
21A
100
AcDbEntity
8
0
100
AcDbLine
62
7
6
CONTINUOUS
10
6.1970664036
20
-17.6194889506
11
-6.4512579179
21
-17.6194889506
0
LINE
5
21B
100
AcDbEntity
8
0
100
AcDbLine
62
7
6
CONTINUOUS
10
5.9920455885
20
-17.5224960428
11
-6.2462371029
21
-17.5224960428
0
LINE
5
21C
100
AcDbEntity
8
0
100
AcDbLine
62
7
6
CONTINUOUS
10
-4.4141277239
20
20.1399846984
11
-4.3903487310
21
20.1756577163
0
LINE
5
21D
100
AcDbEntity
8
0
100
AcDbLine
62
7
6
CONTINUOUS
10
9.2706763110
20
-16.8421649144
11
7.7181956491
21
-16.8421649144
0
LINE
5
21E
100
AcDbEntity
8
0
100
AcDbLine
62
7
6
CONTINUOUS
10
-7.9723871634
20
-16.8421649144
11
-9.5248678253
21
-16.8421649144
0
LINE
5
21F
100
AcDbEntity
8
0
100
AcDbLine
62
7
6
CONTINUOUS
10
-11.1270957572
20
21.2306823869
11
-11.1270957572
21
-21.9696602882
0
LINE
5
220
100
AcDbEntity
8
0
100
AcDbLine
62
7
6
CONTINUOUS
10
-10.6270957572
20
5.6305110494
11
-10.6270957572
21
-6.3694889506
0
LINE
5
221
100
AcDbEntity
8
0
100
AcDbLine
62
7
6
CONTINUOUS
10
-9.9270957572
20
19.9306138519
11
-9.9270957572
21
5.6305110494
0
LINE
5
222
100
AcDbEntity
8
0
100
AcDbLine
62
7
6
CONTINUOUS
10
-9.9270957572
20
-6.3694889506
11
-9.9270957572
21
-20.6695917532
0
LINE
5
223
100
AcDbEntity
8
0
100
AcDbLine
62
9
6
CONTINUOUS
10
-4.4225275341
20
18.4443641746
11
-4.4112948089
21
18.4780897545
0
LINE
5
224
100
AcDbEntity
8
0
100
AcDbLine
62
9
6
CONTINUOUS
10
7.1248437330
20
-16.9926232790
11
7.6213355529
21
-17.1923028097
0
LINE
5
225
100
AcDbEntity
8
0
100
AcDbLine
62
9
6
CONTINUOUS
10
-7.3790352474
20
-8.7463546223
11
-7.8429239121
21
-8.5597874581
0
LINE
5
226
100
AcDbEntity
8
0
100
AcDbLine
62
7
6
CONTINUOUS
10
-9.9082727133
20
5.6305110494
11
-9.9082727133
21
-6.3694889506
0
LINE
5
227
100
AcDbEntity
8
0
100
AcDbLine
62
9
6
CONTINUOUS
10
-9.8247650228
20
16.0884559557
11
-9.8247650228
21
2.0648732522
0
LINE
5
228
100
AcDbEntity
8
0
100
AcDbLine
62
9
6
CONTINUOUS
10
-9.8247650228
20
-2.8038511535
11
-9.8247650228
21
-16.8274338570
0
LINE
5
229
100
AcDbEntity
8
0
100
AcDbLine
62
9
6
CONTINUOUS
10
-9.5366722087
20
20.1399846984
11
-9.5366722087
21
19.8822353847
0
LINE
5
22A
100
AcDbEntity
8
0
100
AcDbLine
62
9
6
CONTINUOUS
10
-9.5366722087
20
-20.8789625996
11
-9.5366722087
21
-20.6212132860
0
LINE
5
22B
100
AcDbEntity
8
0
100
AcDbLine
62
9
6
CONTINUOUS
10
-9.5248678253
20
16.1031870131
11
-9.5248678253
21
1.3883506325
0
LINE
5
22C
100
AcDbEntity
8
0
100
AcDbLine
62
9
6
CONTINUOUS
10
-9.5248678253
20
-2.1273285338
11
-9.5248678253
21
-16.8421649144
0
LINE
5
22D
100
AcDbEntity
8
0
100
AcDbLine
62
9
6
CONTINUOUS
10
-4.4112948089
20
19.3912970707
11
-4.3903487310
21
19.5599460723
0
LINE
5
22E
100
AcDbEntity
8
0
100
AcDbLine
62
7
6
CONTINUOUS
10
-3.9753947572
20
13.7362400494
11
-3.4779697572
21
15.2855560494
0
LINE
5
22F
100
AcDbEntity
8
0
100
AcDbLine
62
7
6
CONTINUOUS
10
-3.0279477572
20
15.2855560494
11
-3.7503837572
21
13.0354550494
0
LINE
5
230
100
AcDbEntity
8
0
100
AcDbLine
62
9
6
CONTINUOUS
10
-4.1234071744
20
18.1422714332
11
-4.1113405003
21
18.1785008941
0
LINE
5
231
100
AcDbEntity
8
0
100
AcDbLine
62
7
6
CONTINUOUS
10
3.3858722761
20
20.1399846984
11
3.4096512690
21
20.1756577163
0
LINE
5
232
100
AcDbEntity
8
0
100
AcDbLine
62
7
6
CONTINUOUS
10
-2.9395957572
20
7.0347663799
11
-3.0645957553
21
6.9071068207
0
LINE
5
233
100
AcDbEntity
8
0
100
AcDbLine
62
7
6
CONTINUOUS
10
7.3729042428
20
20.2305110494
11
6.7729042428
21
19.6305110494
0
LINE
5
234
100
AcDbEntity
8
0
100
AcDbLine
62
9
6
CONTINUOUS
10
9.2824806943
20
20.1399846984
11
9.3730070453
21
20.2305110494
0
LINE
5
235
100
AcDbEntity
8
0
100
AcDbLine
62
9
6
CONTINUOUS
10
9.5823778918
20
19.8400875009
11
9.6729042428
21
19.9306138519
0
LINE
5
236
100
AcDbEntity
8
0
100
AcDbLine
62
7
6
CONTINUOUS
10
-0.4039217572
20
11.6797830494
11
-1.3789277572
21
10.7208960494
0
LINE
5
237
100
AcDbEntity
8
0
100
AcDbLine
62
7
6
CONTINUOUS
10
-0.8231377572
20
10.7748040494
11
0.1227152428
21
11.6797830494
0
LINE
5
238
100
AcDbEntity
8
0
100
AcDbLine
62
7
6
CONTINUOUS
10
-1.3789277572
20
10.2427080494
11
-1.0980577572
21
10.5046530494
0
LINE
5
239
100
AcDbEntity
8
0
100
AcDbLine
62
7
6
CONTINUOUS
10
-2.2520957870
20
6.5879578331
11
-3.1270957572
21
5.7900855208
0
LINE
5
23A
100
AcDbEntity
8
0
100
AcDbLine
62
7
6
CONTINUOUS
10
-2.8770957497
20
5.7900855208
11
-2.0958457572
21
6.4922131637
0
LINE
5
23B
100
AcDbEntity
8
0
100
AcDbLine
62
7
6
CONTINUOUS
10
-2.8770957497
20
6.8751919309
11
-2.7833457497
21
6.9390217105
0
LINE
5
23C
100
AcDbEntity
8
0
100
AcDbLine
62
7
6
CONTINUOUS
10
-1.4395957572
20
6.8751919309
11
-1.3458457572
21
6.9390217105
0
LINE
5
23D
100
AcDbEntity
8
0
100
AcDbLine
62
7
6
CONTINUOUS
10
-1.3770958168
20
7.0985961595
11
-1.5333457572
21
7.0028514901
0
LINE
5
23E
100
AcDbEntity
8
0
100
AcDbLine
62
7
6
CONTINUOUS
10
-2.8145957646
20
7.0985961595
11
-2.9395957572
21
7.0347663799
0
LINE
5
23F
100
AcDbEntity
8
0
100
AcDbLine
62
7
6
CONTINUOUS
10
1.3729042428
20
-8.9224960428
11
-1.6270957572
21
-8.9224960428
0
LINE
5
240
100
AcDbEntity
8
0
100
AcDbLine
62
7
6
CONTINUOUS
10
1.0729347038
20
-8.7194889506
11
-1.3271262181
21
-8.7194889506
0
LINE
5
241
100
AcDbEntity
8
0
100
AcDbLine
62
9
6
CONTINUOUS
10
-1.3218287721
20
-8.7141915046
11
1.0676372577
21
-8.7141915046
0
LINE
5
242
100
AcDbEntity
8
0
100
AcDbLine
62
9
6
CONTINUOUS
10
1.2676067968
20
-8.5142219656
11
-1.5217983111
21
-8.5142219656
0
LINE
5
243
100
AcDbEntity
8
0
100
AcDbLine
62
7
6
CONTINUOUS
10
-6.2462371029
20
-8.2224960428
11
-1.8270652962
21
-8.2224960428
0
LINE
5
244
100
AcDbEntity
8
0
100
AcDbLine
62
7
6
CONTINUOUS
10
1.5728737819
20
-8.2224960428
11
5.9920455885
21
-8.2224960428
0
LINE
5
245
100
AcDbEntity
8
0
100
AcDbLine
62
7
6
CONTINUOUS
10
-6.4512579179
20
-8.1194889506
11
-1.5270957572
21
-8.1194889506
0
LINE
5
246
100
AcDbEntity
8
0
100
AcDbLine
62
7
6
CONTINUOUS
10
1.2729042428
20
-8.1194889506
11
6.1970664036
21
-8.1194889506
0
LINE
5
247
100
AcDbEntity
8
0
100
AcDbLine
62
7
6
CONTINUOUS
10
-6.4512579179
20
-7.6194889506
11
-1.3218287721
21
-7.6194889506
0
LINE
5
248
100
AcDbEntity
8
0
100
AcDbLine
62
7
6
CONTINUOUS
10
1.0676372577
20
-7.6194889506
11
6.1970664036
21
-7.6194889506
0
LINE
5
249
100
AcDbEntity
8
0
100
AcDbLine
62
7
6
CONTINUOUS
10
7.3729042428
20
-20.9694889506
11
6.7729042428
21
-20.3694889506
0
LINE
5
24A
100
AcDbEntity
8
0
100
AcDbLine
62
9
6
CONTINUOUS
10
9.3730070453
20
-20.9694889506
11
9.2824806943
21
-20.8789625996
0
LINE
5
24B
100
AcDbEntity
8
0
100
AcDbLine
62
9
6
CONTINUOUS
10
9.6729042428
20
-20.6695917532
11
9.5823778918
21
-20.5790654022
0
LINE
5
24C
100
AcDbEntity
8
0
100
AcDbLine
62
9
6
CONTINUOUS
10
-6.4512579179
20
-17.6194889506
11
-6.4512579179
21
-18.2718189517
0
LINE
5
24D
100
AcDbEntity
8
0
100
AcDbLine
62
9
6
CONTINUOUS
10
-6.4512579179
20
-8.1194889506
11
-6.4512579179
21
-7.6194889506
0
LINE
5
24E
100
AcDbEntity
8
0
100
AcDbLine
62
7
6
CONTINUOUS
10
-6.1270957572
20
-20.9694889506
11
-6.1270957572
21
-20.3694889506
0
LINE
5
24F
100
AcDbEntity
8
0
100
AcDbLine
62
7
6
CONTINUOUS
10
-6.1270957572
20
19.6305110494
11
-6.1270957572
21
20.2305110494
0
LINE
5
250
100
AcDbEntity
8
0
100
AcDbLine
62
7
6
CONTINUOUS
10
-4.6670957572
20
11.6797830494
11
-4.6670957572
21
9.4805110494
0
LINE
5
251
100
AcDbEntity
8
0
100
AcDbLine
62
9
6
CONTINUOUS
10
-4.4112948089
20
18.4780897545
11
-4.4112948089
21
19.3912970707
0
LINE
5
252
100
AcDbEntity
8
0
100
AcDbLine
62
9
6
CONTINUOUS
10
-4.3903487310
20
19.5599460723
11
-4.3903487310
21
20.1756577163
0
LINE
5
253
100
AcDbEntity
8
0
100
AcDbLine
62
7
6
CONTINUOUS
10
-4.2743357572
20
9.8295490494
11
-4.2743357572
21
10.4348070494
0
LINE
5
254
100
AcDbEntity
8
0
100
AcDbLine
62
7
6
CONTINUOUS
10
-4.2743357572
20
10.7838800494
11
-4.2743357572
21
11.3307380494
0
LINE
5
255
100
AcDbEntity
8
0
100
AcDbLine
62
9
6
CONTINUOUS
10
-4.1113405003
20
18.1785008941
11
-4.1113405003
21
19.1305110494
0
LINE
5
256
100
AcDbEntity
8
0
100
AcDbLine
62
9
6
CONTINUOUS
10
-4.0903944224
20
19.2628656517
11
-4.0903944224
21
20.1833763905
0
LINE
5
257
100
AcDbEntity
8
0
100
AcDbLine
62
9
6
CONTINUOUS
10
-3.9637970919
20
19.2628656517
11
-3.9637970919
21
20.1833763905
0
LINE
5
258
100
AcDbEntity
8
0
100
AcDbLine
62
9
6
CONTINUOUS
10
-3.9428510140
20
18.1785008941
11
-3.9428510140
21
19.1305110494
0
LINE
5
259
100
AcDbEntity
8
0
100
AcDbLine
62
7
6
CONTINUOUS
10
-3.9270957572
20
1.3883506325
11
-3.9270957572
21
-2.1273285338
0
LINE
5
25A
100
AcDbEntity
8
0
100
AcDbLine
62
9
6
CONTINUOUS
10
-3.6638427834
20
20.1756577163
11
-3.6638427834
21
19.5599460723
0
LINE
5
25B
100
AcDbEntity
8
0
100
AcDbLine
62
9
6
CONTINUOUS
10
-3.6428967055
20
19.3912970707
11
-3.6428967055
21
18.4780897545
0
LINE
5
25C
100
AcDbEntity
8
0
100
AcDbLine
62
7
6
CONTINUOUS
10
-3.1915797572
20
10.4348150494
11
-3.1915797572
21
10.7838720494
0
LINE
5
25D
100
AcDbEntity
8
0
100
AcDbLine
62
7
6
CONTINUOUS
10
-3.1270957572
20
5.7900855208
11
-3.1270957572
21
5.6305110494
0
LINE
5
25E
100
AcDbEntity
8
0
100
AcDbLine
62
7
6
CONTINUOUS
10
-3.1127717572
20
11.3307340494
11
-3.1127717572
21
11.6797830494
0
LINE
5
25F
100
AcDbEntity
8
0
100
AcDbLine
62
7
6
CONTINUOUS
10
-3.1039317572
20
9.4805110494
11
-3.1039317572
21
9.8295600494
0
LINE
5
260
100
AcDbEntity
8
0
100
AcDbLine
62
9
6
CONTINUOUS
10
-4.1068327635
20
19.1305110494
11
-4.0903944224
21
19.2628656517
0
LINE
5
261
100
AcDbEntity
8
0
100
AcDbLine
62
7
6
CONTINUOUS
10
-3.0645957553
20
6.9071068207
11
-3.0958457562
21
6.7794472614
0
LINE
5
262
100
AcDbEntity
8
0
100
AcDbLine
62
7
6
CONTINUOUS
10
-2.0333457274
20
6.5879578331
11
-2.0020957572
21
6.7156173924
0
LINE
5
263
100
AcDbEntity
8
0
100
AcDbLine
62
7
6
CONTINUOUS
10
-0.7274347572
20
13.8202100494
11
-0.3072537572
21
15.2855560494
0
LINE
5
264
100
AcDbEntity
8
0
100
AcDbLine
62
7
6
CONTINUOUS
10
-0.0769717572
20
14.5192450494
11
-0.5024347572
21
13.0354600494
0
LINE
5
265
100
AcDbEntity
8
0
100
AcDbLine
62
7
6
CONTINUOUS
10
0.6730602428
20
13.0354550494
11
1.3954852428
21
15.2855620494
0
LINE
5
266
100
AcDbEntity
8
0
100
AcDbLine
62
7
6
CONTINUOUS
10
-1.6895957870
20
6.7794472614
11
-1.7208457572
21
6.6837025026
0
LINE
5
267
100
AcDbEntity
8
0
100
AcDbLine
62
7
6
CONTINUOUS
10
-2.1895957572
20
6.7156173924
11
-2.2520957870
21
6.5879578331
0
LINE
5
268
100
AcDbEntity
8
0
100
AcDbLine
62
7
6
CONTINUOUS
10
-1.6270957572
20
6.9071068207
11
-1.6895957870
21
6.7794472614
0
LINE
5
269
100
AcDbEntity
8
0
100
AcDbLine
62
7
6
CONTINUOUS
10
-0.2520958168
20
6.9071068207
11
-0.3145957572
21
6.7794472614
0
LINE
5
26A
100
AcDbEntity
8
0
100
AcDbLine
62
7
6
CONTINUOUS
10
-0.7520956976
20
5.8539153004
11
-0.6895957572
21
5.9815748820
0
LINE
5
26B
100
AcDbEntity
8
0
100
AcDbLine
62
7
6
CONTINUOUS
10
-2.9395957572
20
6.7794472614
11
-2.8770957497
21
6.8751919309
0
LINE
5
26C
100
AcDbEntity
8
0
100
AcDbLine
62
7
6
CONTINUOUS
10
-2.0958457572
20
6.4922131637
11
-2.0333457274
21
6.5879578331
0
LINE
5
26D
100
AcDbEntity
8
0
100
AcDbLine
62
7
6
CONTINUOUS
10
-1.5645958168
20
6.6837025026
11
-1.4395957572
21
6.8751919309
0
LINE
5
26E
100
AcDbEntity
8
0
100
AcDbLine
62
7
6
CONTINUOUS
10
-0.8145958168
20
6.0773195514
11
-0.9395956976
21
5.8858301902
0
LINE
5
26F
100
AcDbEntity
8
0
100
AcDbLine
62
7
6
CONTINUOUS
10
-0.1895956976
20
6.6837025026
11
-0.0645956380
21
6.8751919309
0
LINE
5
270
100
AcDbEntity
8
0
100
AcDbLine
62
7
6
CONTINUOUS
10
-1.5333457572
20
7.0028514901
11
-1.6270957572
21
6.9071068207
0
LINE
5
271
100
AcDbEntity
8
0
100
AcDbLine
62
7
6
CONTINUOUS
10
-0.1583458168
20
7.0028514901
11
-0.2520958168
21
6.9071068207
0
LINE
5
272
100
AcDbEntity
8
0
100
AcDbLine
62
7
6
CONTINUOUS
10
-0.8458456976
20
5.7581706198
11
-0.7520956976
21
5.8539153004
0
LINE
5
273
100
AcDbEntity
8
0
100
AcDbLine
62
7
6
CONTINUOUS
10
1.1854042428
20
7.0347663799
11
1.0604043620
21
6.9071068207
0
LINE
5
274
100
AcDbEntity
8
0
100
AcDbLine
62
7
6
CONTINUOUS
10
0.5291542428
20
5.7581706198
11
0.6229042428
21
5.8539153004
0
LINE
5
275
100
AcDbEntity
8
0
100
AcDbLine
62
7
6
CONTINUOUS
10
1.8729041236
20
6.5879578331
11
1.8104043620
21
6.5241280535
0
LINE
5
276
100
AcDbEntity
8
0
100
AcDbLine
62
7
6
CONTINUOUS
10
1.8729041236
20
6.3964684943
11
1.9979043620
21
6.4922131637
0
LINE
5
277
100
AcDbEntity
8
0
100
AcDbLine
62
7
6
CONTINUOUS
10
-0.0645956380
20
6.8751919309
11
0.0291543620
21
6.9390217105
0
LINE
5
278
100
AcDbEntity
8
0
100
AcDbLine
62
7
6
CONTINUOUS
10
-0.9395956976
20
5.8858301902
11
-1.0333456976
21
5.8220004106
0
LINE
5
279
100
AcDbEntity
8
0
100
AcDbLine
62
7
6
CONTINUOUS
10
1.2479043620
20
6.8751919309
11
1.3416543620
21
6.9390217105
0
LINE
5
27A
100
AcDbEntity
8
0
100
AcDbLine
62
7
6
CONTINUOUS
10
0.4354042428
20
5.8858301902
11
0.3416542428
21
5.8220004106
0
LINE
5
27B
100
AcDbEntity
8
0
100
AcDbLine
62
7
6
CONTINUOUS
10
1.9354042428
20
5.7262557300
11
2.0291542428
21
5.7900855208
0
LINE
5
27C
100
AcDbEntity
8
0
100
AcDbLine
62
7
6
CONTINUOUS
10
-0.0020958764
20
7.0985961595
11
-0.1583458168
21
7.0028514901
0
LINE
5
27D
100
AcDbEntity
8
0
100
AcDbLine
62
7
6
CONTINUOUS
10
-1.0020958168
20
5.6624259420
11
-0.8458456976
21
5.7581706198
0
LINE
5
27E
100
AcDbEntity
8
0
100
AcDbLine
62
7
6
CONTINUOUS
10
0.3729041236
20
5.6624259420
11
0.5291542428
21
5.7581706198
0
LINE
5
27F
100
AcDbEntity
8
0
100
AcDbLine
62
7
6
CONTINUOUS
10
1.3104041236
20
7.0985961595
11
1.1854042428
21
7.0347663799
0
LINE
5
280
100
AcDbEntity
8
0
100
AcDbLine
62
7
6
CONTINUOUS
10
1.8729041236
20
5.8539153004
11
1.8104043620
21
5.8220004106
0
LINE
5
281
100
AcDbEntity
8
0
100
AcDbLine
62
7
6
CONTINUOUS
10
1.8104043620
20
5.6624259420
11
1.9354042428
21
5.7262557300
0
LINE
5
282
100
AcDbEntity
8
0
100
AcDbLine
62
7
6
CONTINUOUS
10
1.8104043620
20
6.5241280535
11
1.6229043620
21
6.4602982739
0
LINE
5
283
100
AcDbEntity
8
0
100
AcDbLine
62
7
6
CONTINUOUS
10
10.3729042428
20
-6.3694889506
11
9.6540811990
21
-6.3694889506
0
LINE
5
284
100
AcDbEntity
8
0
100
AcDbLine
62
7
6
CONTINUOUS
10
-9.9082727133
20
-6.3694889506
11
-10.6270957572
21
-6.3694889506
0
LINE
5
285
100
AcDbEntity
8
0
100
AcDbLine
62
9
6
CONTINUOUS
10
1.0729347038
20
-8.7194889506
11
1.0676372577
21
-8.7141915046
0
LINE
5
286
100
AcDbEntity
8
0
100
AcDbLine
62
9
6
CONTINUOUS
10
1.2729042428
20
-8.5195194116
11
1.2676067968
21
-8.5142219656
0
LINE
5
287
100
AcDbEntity
8
0
100
AcDbLine
62
7
6
CONTINUOUS
10
-2.7279437572
20
13.0354490494
11
-2.7279387572
21
15.2855560494
0
LINE
5
288
100
AcDbEntity
8
0
100
AcDbLine
62
7
6
CONTINUOUS
10
-2.6315677572
20
11.6797830494
11
-2.6315677572
21
9.4805110494
0
LINE
5
289
100
AcDbEntity
8
0
100
AcDbLine
62
7
6
CONTINUOUS
10
-2.2779217572
20
15.2855560494
11
-2.2779267572
21
13.0354550494
0
LINE
5
28A
100
AcDbEntity
8
0
100
AcDbLine
62
7
6
CONTINUOUS
10
-2.2387847572
20
9.4805110494
11
-2.2387847572
21
11.6797830494
0
LINE
5
28B
100
AcDbEntity
8
0
100
AcDbLine
62
7
6
CONTINUOUS
10
-2.1895957572
20
6.7794472614
11
-2.1895957572
21
6.7156173924
0
LINE
5
28C
100
AcDbEntity
8
0
100
AcDbLine
62
7
6
CONTINUOUS
10
-2.0020957572
20
5.6305110494
11
-2.0020957572
21
5.7900855208
0
LINE
5
28D
100
AcDbEntity
8
0
100
AcDbLine
62
7
6
CONTINUOUS
10
-2.0020957572
20
6.7156173924
11
-2.0020957572
21
6.7794472614
0
LINE
5
28E
100
AcDbEntity
8
0
100
AcDbLine
62
7
6
CONTINUOUS
10
-1.8279217572
20
13.0354550494
11
-1.8279217572
21
15.2855560494
0
LINE
5
28F
100
AcDbEntity
8
0
100
AcDbLine
62
7
6
CONTINUOUS
10
-1.7716867572
20
11.6797830494
11
-1.7716867572
21
9.4805110494
0
LINE
5
290
100
AcDbEntity
8
0
100
AcDbLine
62
7
6
CONTINUOUS
10
-1.7520957274
20
6.5241280535
11
-1.7520957274
21
6.2368940452
0
LINE
5
291
100
AcDbEntity
8
0
100
AcDbLine
62
7
6
CONTINUOUS
10
-1.6270957572
20
-8.4224655819
11
-1.6270957572
21
-8.9224960428
0
LINE
5
292
100
AcDbEntity
8
0
100
AcDbLine
62
7
6
CONTINUOUS
10
-1.5958456976
20
6.2688089350
11
-1.5958456976
21
6.4922131637
0
LINE
5
293
100
AcDbEntity
8
0
100
AcDbLine
62
7
6
CONTINUOUS
10
-1.5270957572
20
-8.1194889506
11
-1.5270957572
21
-8.5195194116
0
LINE
5
294
100
AcDbEntity
8
0
100
AcDbLine
62
9
6
CONTINUOUS
10
-1.5217983111
20
-7.8159984694
11
-1.5217983111
21
-8.5142219656
0
LINE
5
295
100
AcDbEntity
8
0
100
AcDbLine
62
7
6
CONTINUOUS
10
-1.3789277572
20
10.7208960494
11
-1.3789197572
21
11.6797830494
0
LINE
5
296
100
AcDbEntity
8
0
100
AcDbLine
62
7
6
CONTINUOUS
10
-1.3789197572
20
9.4805110494
11
-1.3789277572
21
10.2427080494
0
LINE
5
297
100
AcDbEntity
8
0
100
AcDbLine
62
7
6
CONTINUOUS
10
-1.3779047572
20
14.5192450494
11
-1.3779047572
21
13.0354550494
0
LINE
5
298
100
AcDbEntity
8
0
100
AcDbLine
62
9
6
CONTINUOUS
10
-1.3218287721
20
-7.6194889506
11
-1.3218287721
21
-8.7141915046
0
LINE
5
299
100
AcDbEntity
8
0
100
AcDbLine
62
7
6
CONTINUOUS
10
-0.7833457572
20
6.4922131637
11
-0.7833457572
21
6.2688089350
0
LINE
5
29A
100
AcDbEntity
8
0
100
AcDbLine
62
7
6
CONTINUOUS
10
-0.6270958168
20
6.2368940452
11
-0.6270958168
21
6.5241280535
0
LINE
5
29B
100
AcDbEntity
8
0
100
AcDbLine
62
7
6
CONTINUOUS
10
-0.3770956976
20
6.5241280535
11
-0.3770956976
21
6.2368940452
0
LINE
5
29C
100
AcDbEntity
8
0
100
AcDbLine
62
7
6
CONTINUOUS
10
-0.2208457572
20
6.2688089350
11
-0.2208457572
21
6.4922131637
0
LINE
5
29D
100
AcDbEntity
8
0
100
AcDbLine
62
7
6
CONTINUOUS
10
-0.0769657572
20
13.0354550494
11
-0.0769717572
21
14.5192450494
0
LINE
5
29E
100
AcDbEntity
8
0
100
AcDbLine
62
7
6
CONTINUOUS
10
-1.5270957572
20
-8.1194889506
11
-1.5217983111
21
-7.8159984694
0
LINE
5
29F
100
AcDbEntity
8
0
100
AcDbLine
62
7
6
CONTINUOUS
10
-1.5958456976
20
6.4922131637
11
-1.5645958168
21
6.6837025026
0
LINE
5
2A0
100
AcDbEntity
8
0
100
AcDbLine
62
7
6
CONTINUOUS
10
-0.7833457572
20
6.2688089350
11
-0.8145958168
21
6.0773195514
0
LINE
5
2A1
100
AcDbEntity
8
0
100
AcDbLine
62
7
6
CONTINUOUS
10
-0.2208457572
20
6.4922131637
11
-0.1895956976
21
6.6837025026
0
LINE
5
2A2
100
AcDbEntity
8
0
100
AcDbLine
62
7
6
CONTINUOUS
10
0.5916543620
20
6.2688089350
11
0.5604041236
21
6.0773195514
0
LINE
5
2A3
100
AcDbEntity
8
0
100
AcDbLine
62
7
6
CONTINUOUS
10
-1.7208457572
20
6.6837025026
11
-1.7520957274
21
6.5241280535
0
LINE
5
2A4
100
AcDbEntity
8
0
100
AcDbLine
62
7
6
CONTINUOUS
10
-0.6583456976
20
6.0773195514
11
-0.6270958168
21
6.2368940452
0
LINE
5
2A5
100
AcDbEntity
8
0
100
AcDbLine
62
7
6
CONTINUOUS
10
-0.3458458168
20
6.6837025026
11
-0.3770956976
21
6.5241280535
0
LINE
5
2A6
100
AcDbEntity
8
0
100
AcDbLine
62
7
6
CONTINUOUS
10
0.7166542428
20
6.0773195514
11
0.7479041236
21
6.2368940452
0
LINE
5
2A7
100
AcDbEntity
8
0
100
AcDbLine
62
7
6
CONTINUOUS
10
1.0604043620
20
6.9071068207
11
1.0291541236
21
6.7794472614
0
LINE
5
2A8
100
AcDbEntity
8
0
100
AcDbLine
62
7
6
CONTINUOUS
10
1.2651482428
20
13.4779570494
11
1.1230772428
21
13.0354600494
0
LINE
5
2A9
100
AcDbEntity
8
0
100
AcDbLine
62
7
6
CONTINUOUS
10
1.6205022428
20
14.5847710494
11
1.4024152428
21
13.9054730494
0
LINE
5
2AA
100
AcDbEntity
8
0
100
AcDbLine
62
7
6
CONTINUOUS
10
-0.6895957572
20
5.9815748820
11
-0.6583456976
21
6.0773195514
0
LINE
5
2AB
100
AcDbEntity
8
0
100
AcDbLine
62
7
6
CONTINUOUS
10
-0.3145957572
20
6.7794472614
11
-0.3458458168
21
6.6837025026
0
LINE
5
2AC
100
AcDbEntity
8
0
100
AcDbLine
62
7
6
CONTINUOUS
10
0.6854043620
20
5.9815748820
11
0.7166542428
21
6.0773195514
0
LINE
5
2AD
100
AcDbEntity
8
0
100
AcDbLine
62
7
6
CONTINUOUS
10
2.0916543620
20
5.8858301902
11
2.1229042428
21
5.9815748820
0
LINE
5
2AE
100
AcDbEntity
8
0
100
AcDbLine
62
9
6
CONTINUOUS
10
3.3774724659
20
18.4443641746
11
3.3887051911
21
18.4780897545
0
LINE
5
2AF
100
AcDbEntity
8
0
100
AcDbLine
62
9
6
CONTINUOUS
10
3.6765928256
20
18.1422714332
11
3.6886594997
21
18.1785008941
0
LINE
5
2B0
100
AcDbEntity
8
0
100
AcDbLine
62
7
6
CONTINUOUS
10
0.6229042428
20
5.8539153004
11
0.6854043620
21
5.9815748820
0
LINE
5
2B1
100
AcDbEntity
8
0
100
AcDbLine
62
7
6
CONTINUOUS
10
1.9354042428
20
6.7156173924
11
1.8729041236
21
6.5879578331
0
LINE
5
2B2
100
AcDbEntity
8
0
100
AcDbLine
62
7
6
CONTINUOUS
10
1.9666541236
20
5.9815748820
11
1.9354042428
21
5.9177451024
0
LINE
5
2B3
100
AcDbEntity
8
0
100
AcDbLine
62
7
6
CONTINUOUS
10
0.5604041236
20
6.0773195514
11
0.4354042428
21
5.8858301902
0
LINE
5
2B4
100
AcDbEntity
8
0
100
AcDbLine
62
7
6
CONTINUOUS
10
1.1854042428
20
6.7794472614
11
1.2479043620
21
6.8751919309
0
LINE
5
2B5
100
AcDbEntity
8
0
100
AcDbLine
62
7
6
CONTINUOUS
10
1.9979043620
20
6.4922131637
11
2.0604041236
21
6.5879578331
0
LINE
5
2B6
100
AcDbEntity
8
0
100
AcDbLine
62
7
6
CONTINUOUS
10
2.0291542428
20
5.7900855208
11
2.0916543620
21
5.8858301902
0
LINE
5
2B7
100
AcDbEntity
8
0
100
AcDbLine
62
7
6
CONTINUOUS
10
2.5604043620
20
7.1305110494
11
2.3729043620
21
6.9071068207
0
LINE
5
2B8
100
AcDbEntity
8
0
100
AcDbLine
62
7
6
CONTINUOUS
10
2.3729043620
20
6.6517876128
11
2.5604043620
21
6.8751919309
0
LINE
5
2B9
100
AcDbEntity
8
0
100
AcDbLine
62
7
6
CONTINUOUS
10
1.9354042428
20
5.9177451024
11
1.8729041236
21
5.8539153004
0
LINE
5
2BA
100
AcDbEntity
8
0
100
AcDbLine
62
7
6
CONTINUOUS
10
3.6729042428
20
-2.1273285338
11
9.2706763110
21
-2.1273285338
0
LINE
5
2BB
100
AcDbEntity
8
0
100
AcDbLine
62
7
6
CONTINUOUS
10
-3.9270957572
20
-2.1273285338
11
-9.5248678253
21
-2.1273285338
0
LINE
5
2BC
100
AcDbEntity
8
0
100
AcDbLine
62
7
6
CONTINUOUS
10
-4.2004167572
20
13.0354490494
11
-4.9228467572
21
15.2855560494
0
LINE
5
2BD
100
AcDbEntity
8
0
100
AcDbLine
62
7
6
CONTINUOUS
10
-2.0020957572
20
6.7794472614
11
-2.0333457274
21
6.9071068207
0
LINE
5
2BE
100
AcDbEntity
8
0
100
AcDbLine
62
7
6
CONTINUOUS
10
-1.7520957274
20
6.2368940452
11
-1.7208457572
21
6.0773195514
0
LINE
5
2BF
100
AcDbEntity
8
0
100
AcDbLine
62
7
6
CONTINUOUS
10
-1.5645958168
20
6.0773195514
11
-1.5958456976
21
6.2688089350
0
LINE
5
2C0
100
AcDbEntity
8
0
100
AcDbLine
62
7
6
CONTINUOUS
10
-0.8145958168
20
6.6837025026
11
-0.7833457572
21
6.4922131637
0
LINE
5
2C1
100
AcDbEntity
8
0
100
AcDbLine
62
9
6
CONTINUOUS
10
-3.9637970919
20
19.2628656517
11
-3.9473587508
21
19.1305110494
0
LINE
5
2C2
100
AcDbEntity
8
0
100
AcDbLine
62
9
6
CONTINUOUS
10
-3.6638427834
20
19.5599460723
11
-3.6428967055
21
19.3912970707
0
LINE
5
2C3
100
AcDbEntity
8
0
100
AcDbLine
62
7
6
CONTINUOUS
10
1.2729042428
20
-8.1194889506
11
1.2676067968
21
-7.8159984694
0
LINE
5
2C4
100
AcDbEntity
8
0
100
AcDbLine
62
7
6
CONTINUOUS
10
0.3730512428
20
15.2855560494
11
0.3730512428
21
13.0354550494
0
LINE
5
2C5
100
AcDbEntity
8
0
100
AcDbLine
62
7
6
CONTINUOUS
10
0.5916543620
20
6.4922131637
11
0.5916543620
21
6.2688089350
0
LINE
5
2C6
100
AcDbEntity
8
0
100
AcDbLine
62
7
6
CONTINUOUS
10
0.7479041236
20
6.2368940452
11
0.7479041236
21
6.5241280535
0
LINE
5
2C7
100
AcDbEntity
8
0
100
AcDbLine
62
9
6
CONTINUOUS
10
1.0676372577
20
-8.7141915046
11
1.0676372577
21
-7.6194889506
0
LINE
5
2C8
100
AcDbEntity
8
0
100
AcDbLine
62
9
6
CONTINUOUS
10
1.2676067968
20
-8.5142219656
11
1.2676067968
21
-7.8159984694
0
LINE
5
2C9
100
AcDbEntity
8
0
100
AcDbLine
62
7
6
CONTINUOUS
10
1.2729042428
20
-8.1194889506
11
1.2729042428
21
-8.5195194116
0
LINE
5
2CA
100
AcDbEntity
8
0
100
AcDbLine
62
7
6
CONTINUOUS
10
1.3729042428
20
-8.4224655819
11
1.3729042428
21
-8.9224960428
0
LINE
5
2CB
100
AcDbEntity
8
0
100
AcDbLine
62
7
6
CONTINUOUS
10
1.4979041236
20
6.4602982739
11
1.4979041236
21
6.3326387146
0
LINE
5
2CC
100
AcDbEntity
8
0
100
AcDbLine
62
7
6
CONTINUOUS
10
1.9354042428
20
6.7794472614
11
1.9354042428
21
6.7156173924
0
LINE
5
2CD
100
AcDbEntity
8
0
100
AcDbLine
62
7
6
CONTINUOUS
10
1.9666541236
20
6.1092344412
11
1.9666541236
21
5.9815748820
0
LINE
5
2CE
100
AcDbEntity
8
0
100
AcDbLine
62
7
6
CONTINUOUS
10
2.0916543620
20
6.7156173924
11
2.0916543620
21
6.7794472614
0
LINE
5
2CF
100
AcDbEntity
8
0
100
AcDbLine
62
7
6
CONTINUOUS
10
2.1229042428
20
5.9815748820
11
2.1229042428
21
6.1092344412
0
LINE
5
2D0
100
AcDbEntity
8
0
100
AcDbLine
62
7
6
CONTINUOUS
10
2.3729043620
20
6.9071068207
11
2.3729043620
21
6.6517876128
0
LINE
5
2D1
100
AcDbEntity
8
0
100
AcDbLine
62
7
6
CONTINUOUS
10
2.5604043620
20
6.8751919309
11
2.5604043620
21
5.6305110494
0
LINE
5
2D2
100
AcDbEntity
8
0
100
AcDbLine
62
7
6
CONTINUOUS
10
2.6330672428
20
11.6797830494
11
2.6330672428
21
9.4805110494
0
LINE
5
2D3
100
AcDbEntity
8
0
100
AcDbLine
62
7
6
CONTINUOUS
10
2.7479043620
20
5.6305110494
11
2.7479043620
21
7.1305110494
0
LINE
5
2D4
100
AcDbEntity
8
0
100
AcDbLine
62
7
6
CONTINUOUS
10
2.8679692428
20
13.0354600494
11
2.8679692428
21
15.2855620494
0
LINE
5
2D5
100
AcDbEntity
8
0
100
AcDbLine
62
7
6
CONTINUOUS
10
3.3117822428
20
14.8692950494
11
3.3117872428
21
14.3217460494
0
LINE
5
2D6
100
AcDbEntity
8
0
100
AcDbLine
62
9
6
CONTINUOUS
10
3.3887051911
20
18.4780897545
11
3.3887051911
21
19.3912970707
0
LINE
5
2D7
100
AcDbEntity
8
0
100
AcDbLine
62
9
6
CONTINUOUS
10
3.4096512690
20
19.5599460723
11
3.4096512690
21
20.1756577163
0
LINE
5
2D8
100
AcDbEntity
8
0
100
AcDbLine
62
7
6
CONTINUOUS
10
3.6729042428
20
-2.1273285338
11
3.6729042428
21
1.3883506325
0
LINE
5
2D9
100
AcDbEntity
8
0
100
AcDbLine
62
9
6
CONTINUOUS
10
3.6886594997
20
18.1785008941
11
3.6886594997
21
19.1305110494
0
LINE
5
2DA
100
AcDbEntity
8
0
100
AcDbLine
62
9
6
CONTINUOUS
10
3.7096055776
20
19.2628656517
11
3.7096055776
21
20.1833763905
0
LINE
5
2DB
100
AcDbEntity
8
0
100
AcDbLine
62
7
6
CONTINUOUS
10
3.3180422428
20
13.9054790494
11
3.3179922428
21
13.0354600494
0
LINE
5
2DC
100
AcDbEntity
8
0
100
AcDbLine
62
7
6
CONTINUOUS
10
3.0111742428
20
9.4805110494
11
3.0165022428
21
11.0168610494
0
LINE
5
2DD
100
AcDbEntity
8
0
100
AcDbLine
62
9
6
CONTINUOUS
10
3.3887051911
20
19.3912970707
11
3.4096512690
21
19.5599460723
0
LINE
5
2DE
100
AcDbEntity
8
0
100
AcDbLine
62
9
6
CONTINUOUS
10
3.6931672365
20
19.1305110494
11
3.7096055776
21
19.2628656517
0
LINE
5
2DF
100
AcDbEntity
8
0
100
AcDbLine
62
7
6
CONTINUOUS
10
2.0604041236
20
6.5879578331
11
2.0916543620
21
6.7156173924
0
LINE
5
2E0
100
AcDbEntity
8
0
100
AcDbLine
62
7
6
CONTINUOUS
10
3.6729042428
20
1.3883506325
11
9.2706763110
21
1.3883506325
0
LINE
5
2E1
100
AcDbEntity
8
0
100
AcDbLine
62
7
6
CONTINUOUS
10
-3.9270957572
20
1.3883506325
11
-9.5248678253
21
1.3883506325
0
LINE
5
2E2
100
AcDbEntity
8
0
100
AcDbLine
62
7
6
CONTINUOUS
10
-1.6270957572
20
5.8539153004
11
-1.5333457572
21
5.7581706198
0
LINE
5
2E3
100
AcDbEntity
8
0
100
AcDbLine
62
7
6
CONTINUOUS
10
-2.0333457274
20
6.9071068207
11
-2.1583457870
21
7.0347663799
0
LINE
5
2E4
100
AcDbEntity
8
0
100
AcDbLine
62
7
6
CONTINUOUS
10
-2.2520957870
20
6.8751919309
11
-2.1895957572
21
6.7794472614
0
LINE
5
2E5
100
AcDbEntity
8
0
100
AcDbLine
62
7
6
CONTINUOUS
10
-1.4395957572
20
5.8858301902
11
-1.5645958168
21
6.0773195514
0
LINE
5
2E6
100
AcDbEntity
8
0
100
AcDbLine
62
7
6
CONTINUOUS
10
-0.9395956976
20
6.8751919309
11
-0.8145958168
21
6.6837025026
0
LINE
5
2E7
100
AcDbEntity
8
0
100
AcDbLine
62
7
6
CONTINUOUS
10
-0.0645956380
20
5.8858301902
11
-0.1895956976
21
6.0773195514
0
LINE
5
2E8
100
AcDbEntity
8
0
100
AcDbLine
62
7
6
CONTINUOUS
10
-1.6895957870
20
5.9815748820
11
-1.6270957572
21
5.8539153004
0
LINE
5
2E9
100
AcDbEntity
8
0
100
AcDbLine
62
7
6
CONTINUOUS
10
-0.3145957572
20
5.9815748820
11
-0.2520958168
21
5.8539153004
0
LINE
5
2EA
100
AcDbEntity
8
0
100
AcDbLine
62
7
6
CONTINUOUS
10
-0.6895957572
20
6.7794472614
11
-0.7520956976
21
6.9071068207
0
LINE
5
2EB
100
AcDbEntity
8
0
100
AcDbLine
62
7
6
CONTINUOUS
10
0.6854043620
20
6.7794472614
11
0.6229042428
21
6.9071068207
0
LINE
5
2EC
100
AcDbEntity
8
0
100
AcDbLine
62
9
6
CONTINUOUS
10
-3.9428510140
20
18.1785008941
11
-3.9307843399
21
18.1422714332
0
LINE
5
2ED
100
AcDbEntity
8
0
100
AcDbLine
62
9
6
CONTINUOUS
10
-3.6428967055
20
18.4780897545
11
-3.6316639802
21
18.4443641746
0
LINE
5
2EE
100
AcDbEntity
8
0
100
AcDbLine
62
7
6
CONTINUOUS
10
-1.7208457572
20
6.0773195514
11
-1.6895957870
21
5.9815748820
0
LINE
5
2EF
100
AcDbEntity
8
0
100
AcDbLine
62
7
6
CONTINUOUS
10
-0.6583456976
20
6.6837025026
11
-0.6895957572
21
6.7794472614
0
LINE
5
2F0
100
AcDbEntity
8
0
100
AcDbLine
62
7
6
CONTINUOUS
10
-0.3458458168
20
6.0773195514
11
-0.3145957572
21
5.9815748820
0
LINE
5
2F1
100
AcDbEntity
8
0
100
AcDbLine
62
7
6
CONTINUOUS
10
0.7166542428
20
6.6837025026
11
0.6854043620
21
6.7794472614
0
LINE
5
2F2
100
AcDbEntity
8
0
100
AcDbLine
62
7
6
CONTINUOUS
10
0.9979042428
20
5.9815748820
11
1.0291541236
21
5.8858301902
0
LINE
5
2F3
100
AcDbEntity
8
0
100
AcDbLine
62
7
6
CONTINUOUS
10
-4.4728247572
20
15.2855560494
11
-3.9753947572
21
13.7362400494
0
LINE
5
2F4
100
AcDbEntity
8
0
100
AcDbLine
62
7
6
CONTINUOUS
10
-0.9524407572
20
13.0354550494
11
-1.3779047572
21
14.5192450494
0
LINE
5
2F5
100
AcDbEntity
8
0
100
AcDbLine
62
7
6
CONTINUOUS
10
-1.1476167572
20
15.2855560494
11
-0.7274347572
21
13.8202100494
0
LINE
5
2F6
100
AcDbEntity
8
0
100
AcDbLine
62
7
6
CONTINUOUS
10
2.1229042428
20
6.1092344412
11
2.0916543620
21
6.2368940452
0
LINE
5
2F7
100
AcDbEntity
8
0
100
AcDbLine
62
7
6
CONTINUOUS
10
2.0916543620
20
6.7794472614
11
2.0604041236
21
6.9071068207
0
LINE
5
2F8
100
AcDbEntity
8
0
100
AcDbLine
62
7
6
CONTINUOUS
10
-0.6270958168
20
6.5241280535
11
-0.6583456976
21
6.6837025026
0
LINE
5
2F9
100
AcDbEntity
8
0
100
AcDbLine
62
7
6
CONTINUOUS
10
-0.3770956976
20
6.2368940452
11
-0.3458458168
21
6.0773195514
0
LINE
5
2FA
100
AcDbEntity
8
0
100
AcDbLine
62
7
6
CONTINUOUS
10
0.7479041236
20
6.5241280535
11
0.7166542428
21
6.6837025026
0
LINE
5
2FB
100
AcDbEntity
8
0
100
AcDbLine
62
7
6
CONTINUOUS
10
-0.1895956976
20
6.0773195514
11
-0.2208457572
21
6.2688089350
0
LINE
5
2FC
100
AcDbEntity
8
0
100
AcDbLine
62
7
6
CONTINUOUS
10
0.5604041236
20
6.6837025026
11
0.5916543620
21
6.4922131637
0
LINE
5
2FD
100
AcDbEntity
8
0
100
AcDbLine
62
9
6
CONTINUOUS
10
3.8362029081
20
19.2628656517
11
3.8362029081
21
20.1833763905
0
LINE
5
2FE
100
AcDbEntity
8
0
100
AcDbLine
62
9
6
CONTINUOUS
10
3.8571489860
20
18.1785008941
11
3.8571489860
21
19.1305110494
0
LINE
5
2FF
100
AcDbEntity
8
0
100
AcDbLine
62
7
6
CONTINUOUS
10
4.0310272428
20
11.6797830494
11
4.0310192428
21
10.1264800494
0
LINE
5
300
100
AcDbEntity
8
0
100
AcDbLine
62
9
6
CONTINUOUS
10
4.1361572166
20
20.1756577163
11
4.1361572166
21
19.5599460723
0
LINE
5
301
100
AcDbEntity
8
0
100
AcDbLine
62
9
6
CONTINUOUS
10
4.1571032945
20
19.3912970707
11
4.1571032945
21
18.4780897545
0
LINE
5
302
100
AcDbEntity
8
0
100
AcDbLine
62
7
6
CONTINUOUS
10
4.4091382428
20
9.4805110494
11
4.4091382428
21
11.6797830494
0
LINE
5
303
100
AcDbEntity
8
0
100
AcDbLine
62
7
6
CONTINUOUS
10
5.8729042428
20
20.2305110494
11
5.8729042428
21
19.6305110494
0
LINE
5
304
100
AcDbEntity
8
0
100
AcDbLine
62
7
6
CONTINUOUS
10
5.8729042428
20
-20.3694889506
11
5.8729042428
21
-20.9694889506
0
LINE
5
305
100
AcDbEntity
8
0
100
AcDbLine
62
9
6
CONTINUOUS
10
6.1970664036
20
-17.6194889506
11
6.1970664036
21
-18.2718189517
0
LINE
5
306
100
AcDbEntity
8
0
100
AcDbLine
62
9
6
CONTINUOUS
10
6.1970664036
20
-8.1194889506
11
6.1970664036
21
-7.6194889506
0
LINE
5
307
100
AcDbEntity
8
0
100
AcDbLine
62
9
6
CONTINUOUS
10
-1.5270957572
20
-8.5195194116
11
-1.5217983111
21
-8.5142219656
0
LINE
5
308
100
AcDbEntity
8
0
100
AcDbLine
62
9
6
CONTINUOUS
10
-1.3271262181
20
-8.7194889506
11
-1.3218287721
21
-8.7141915046
0
LINE
5
309
100
AcDbEntity
8
0
100
AcDbLine
62
7
6
CONTINUOUS
10
1.6854041236
20
5.6305110494
11
1.8104043620
21
5.6624259420
0
LINE
5
30A
100
AcDbEntity
8
0
100
AcDbLine
62
7
6
CONTINUOUS
10
1.8104043620
20
5.8220004106
11
1.6541542428
21
5.7900855208
0
LINE
5
30B
100
AcDbEntity
8
0
100
AcDbLine
62
7
6
CONTINUOUS
10
0.3416542428
20
5.8220004106
11
0.1854041236
21
5.7900855208
0
LINE
5
30C
100
AcDbEntity
8
0
100
AcDbLine
62
7
6
CONTINUOUS
10
-1.0333456976
20
5.8220004106
11
-1.1895958168
21
5.7900855208
0
LINE
5
30D
100
AcDbEntity
8
0
100
AcDbLine
62
7
6
CONTINUOUS
10
1.3416543620
20
6.9390217105
11
1.4979041236
21
6.9709366003
0
LINE
5
30E
100
AcDbEntity
8
0
100
AcDbLine
62
7
6
CONTINUOUS
10
0.0291543620
20
6.9390217105
11
0.1854041236
21
6.9709366003
0
LINE
5
30F
100
AcDbEntity
8
0
100
AcDbLine
62
7
6
CONTINUOUS
10
0.1854041236
20
5.6305110494
11
0.3729041236
21
5.6624259420
0
LINE
5
310
100
AcDbEntity
8
0
100
AcDbLine
62
7
6
CONTINUOUS
10
-1.1895958168
20
5.6305110494
11
-1.0020958168
21
5.6624259420
0
LINE
5
311
100
AcDbEntity
8
0
100
AcDbLine
62
7
6
CONTINUOUS
10
1.5291543620
20
7.1305110494
11
1.3104041236
21
7.0985961595
0
LINE
5
312
100
AcDbEntity
8
0
100
AcDbLine
62
7
6
CONTINUOUS
10
10.3729042428
20
5.6305110494
11
9.6540811990
21
5.6305110494
0
LINE
5
313
100
AcDbEntity
8
0
100
AcDbLine
62
7
6
CONTINUOUS
10
-3.1270957572
20
5.6305110494
11
-2.0020957572
21
5.6305110494
0
LINE
5
314
100
AcDbEntity
8
0
100
AcDbLine
62
7
6
CONTINUOUS
10
1.4354043620
20
5.6305110494
11
1.6854041236
21
5.6305110494
0
LINE
5
315
100
AcDbEntity
8
0
100
AcDbLine
62
7
6
CONTINUOUS
10
2.5604043620
20
5.6305110494
11
2.7479043620
21
5.6305110494
0
LINE
5
316
100
AcDbEntity
8
0
100
AcDbLine
62
7
6
CONTINUOUS
10
-9.9082727133
20
5.6305110494
11
-10.6270957572
21
5.6305110494
0
LINE
5
317
100
AcDbEntity
8
0
100
AcDbLine
62
7
6
CONTINUOUS
10
1.6541542428
20
5.7900855208
11
1.4666542428
21
5.7900855208
0
LINE
5
318
100
AcDbEntity
8
0
100
AcDbLine
62
7
6
CONTINUOUS
10
-2.0020957572
20
5.7900855208
11
-2.8770957497
21
5.7900855208
0
LINE
5
319
100
AcDbEntity
8
0
100
AcDbLine
62
7
6
CONTINUOUS
10
1.1541543620
20
5.9815748820
11
0.9979042428
21
5.9815748820
0
LINE
5
31A
100
AcDbEntity
8
0
100
AcDbLine
62
7
6
CONTINUOUS
10
1.4979041236
20
6.3326387146
11
1.6229043620
21
6.3326387146
0
LINE
5
31B
100
AcDbEntity
8
0
100
AcDbLine
62
7
6
CONTINUOUS
10
1.6229043620
20
6.4602982739
11
1.4979041236
21
6.4602982739
0
LINE
5
31C
100
AcDbEntity
8
0
100
AcDbLine
62
7
6
CONTINUOUS
10
-3.0958457562
20
6.7794472614
11
-2.9395957572
21
6.7794472614
0
LINE
5
31D
100
AcDbEntity
8
0
100
AcDbLine
62
7
6
CONTINUOUS
10
1.0291541236
20
6.7794472614
11
1.1854042428
21
6.7794472614
0
LINE
5
31E
100
AcDbEntity
8
0
100
AcDbLine
62
7
6
CONTINUOUS
10
-1.3770958168
20
5.6624259420
11
-1.1895958168
21
5.6305110494
0
LINE
5
31F
100
AcDbEntity
8
0
100
AcDbLine
62
7
6
CONTINUOUS
10
-0.0020958764
20
5.6624259420
11
0.1854041236
21
5.6305110494
0
LINE
5
320
100
AcDbEntity
8
0
100
AcDbLine
62
7
6
CONTINUOUS
10
1.6229043620
20
6.3326387146
11
1.8104043620
21
6.3007238248
0
LINE
5
321
100
AcDbEntity
8
0
100
AcDbLine
62
7
6
CONTINUOUS
10
-2.2833457572
20
7.0985961595
11
-2.4708457572
21
7.1305110494
0
LINE
5
322
100
AcDbEntity
8
0
100
AcDbLine
62
7
6
CONTINUOUS
10
-1.0020958168
20
7.0985961595
11
-1.1895958168
21
7.1305110494
0
LINE
5
323
100
AcDbEntity
8
0
100
AcDbLine
62
7
6
CONTINUOUS
10
-1.1895958168
20
5.7900855208
11
-1.3458457572
21
5.8220004106
0
LINE
5
324
100
AcDbEntity
8
0
100
AcDbLine
62
7
6
CONTINUOUS
10
0.1854041236
20
5.7900855208
11
0.0291543620
21
5.8220004106
0
LINE
5
325
100
AcDbEntity
8
0
100
AcDbLine
62
7
6
CONTINUOUS
10
1.4666542428
20
5.7900855208
11
1.3104041236
21
5.8220004106
0
LINE
5
326
100
AcDbEntity
8
0
100
AcDbLine
62
7
6
CONTINUOUS
10
-2.5020957721
20
6.9709366003
11
-2.3458457870
21
6.9390217105
0
LINE
5
327
100
AcDbEntity
8
0
100
AcDbLine
62
7
6
CONTINUOUS
10
-1.1895958168
20
6.9709366003
11
-1.0333456976
21
6.9390217105
0
LINE
5
328
100
AcDbEntity
8
0
100
AcDbLine
62
7
6
CONTINUOUS
10
0.1854041236
20
6.9709366003
11
0.3416542428
21
6.9390217105
0
LINE
5
329
100
AcDbEntity
8
0
100
AcDbLine
62
7
6
CONTINUOUS
10
1.3104041236
20
5.6624259420
11
1.4354043620
21
5.6305110494
0
LINE
5
32A
100
AcDbEntity
8
0
100
AcDbLine
62
7
6
CONTINUOUS
10
2.0291542428
20
6.3326387146
11
1.8729041236
21
6.3964684943
0
LINE
5
32B
100
AcDbEntity
8
0
100
AcDbLine
62
7
6
CONTINUOUS
10
-2.1583457870
20
7.0347663799
11
-2.2833457572
21
7.0985961595
0
LINE
5
32C
100
AcDbEntity
8
0
100
AcDbLine
62
7
6
CONTINUOUS
10
1.1854042428
20
5.7262557300
11
1.3104041236
21
5.6624259420
0
LINE
5
32D
100
AcDbEntity
8
0
100
AcDbLine
62
7
6
CONTINUOUS
10
1.3104041236
20
5.8220004106
11
1.2479043620
21
5.8539153004
0
LINE
5
32E
100
AcDbEntity
8
0
100
AcDbLine
62
7
6
CONTINUOUS
10
-1.5333457572
20
5.7581706198
11
-1.3770958168
21
5.6624259420
0
LINE
5
32F
100
AcDbEntity
8
0
100
AcDbLine
62
7
6
CONTINUOUS
10
-0.1583458168
20
5.7581706198
11
-0.0020958764
21
5.6624259420
0
LINE
5
330
100
AcDbEntity
8
0
100
AcDbLine
62
7
6
CONTINUOUS
10
-0.8458456976
20
7.0028514901
11
-1.0020958168
21
7.0985961595
0
LINE
5
331
100
AcDbEntity
8
0
100
AcDbLine
62
7
6
CONTINUOUS
10
0.5291542428
20
7.0028514901
11
0.3729041236
21
7.0985961595
0
LINE
5
332
100
AcDbEntity
8
0
100
AcDbLine
62
7
6
CONTINUOUS
10
-1.3458457572
20
5.8220004106
11
-1.4395957572
21
5.8858301902
0
LINE
5
333
100
AcDbEntity
8
0
100
AcDbLine
62
7
6
CONTINUOUS
10
-2.3458457870
20
6.9390217105
11
-2.2520957870
21
6.8751919309
0
LINE
5
334
100
AcDbEntity
8
0
100
AcDbLine
62
7
6
CONTINUOUS
10
0.0291543620
20
5.8220004106
11
-0.0645956380
21
5.8858301902
0
LINE
5
335
100
AcDbEntity
8
0
100
AcDbLine
62
7
6
CONTINUOUS
10
-1.0333456976
20
6.9390217105
11
-0.9395956976
21
6.8751919309
0
LINE
5
336
100
AcDbEntity
8
0
100
AcDbLine
62
7
6
CONTINUOUS
10
1.0916542428
20
5.7900855208
11
1.1854042428
21
5.7262557300
0
LINE
5
337
100
AcDbEntity
8
0
100
AcDbLine
62
7
6
CONTINUOUS
10
0.3416542428
20
6.9390217105
11
0.4354042428
21
6.8751919309
0
LINE
5
338
100
AcDbEntity
8
0
100
AcDbLine
62
7
6
CONTINUOUS
10
1.8104043620
20
6.3007238248
11
1.9041543620
21
6.2368940452
0
LINE
5
339
100
AcDbEntity
8
0
100
AcDbLine
62
7
6
CONTINUOUS
10
1.7791541236
20
6.9390217105
11
1.8729041236
21
6.8751919309
0
LINE
5
33A
100
AcDbEntity
8
0
100
AcDbLine
62
7
6
CONTINUOUS
10
-0.2520958168
20
5.8539153004
11
-0.1583458168
21
5.7581706198
0
LINE
5
33B
100
AcDbEntity
8
0
100
AcDbLine
62
7
6
CONTINUOUS
10
-0.7520956976
20
6.9071068207
11
-0.8458456976
21
7.0028514901
0
LINE
5
33C
100
AcDbEntity
8
0
100
AcDbLine
62
7
6
CONTINUOUS
10
1.2479043620
20
5.8539153004
11
1.1854042428
21
5.9177451024
0
LINE
5
33D
100
AcDbEntity
8
0
100
AcDbLine
62
7
6
CONTINUOUS
10
0.6229042428
20
6.9071068207
11
0.5291542428
21
7.0028514901
0
LINE
5
33E
100
AcDbEntity
8
0
100
AcDbLine
62
7
6
CONTINUOUS
10
2.0604041236
20
6.9071068207
11
1.9354042428
21
7.0347663799
0
LINE
5
33F
100
AcDbEntity
8
0
100
AcDbLine
62
7
6
CONTINUOUS
10
0.1278992428
20
9.4805110494
11
-0.8231377572
21
10.7748040494
0
LINE
5
340
100
AcDbEntity
8
0
100
AcDbLine
62
7
6
CONTINUOUS
10
-1.0980577572
20
10.5046530494
11
-0.3661837572
21
9.4805110494
0
LINE
5
341
100
AcDbEntity
8
0
100
AcDbLine
62
7
6
CONTINUOUS
10
1.0291541236
20
5.8858301902
11
1.0916542428
21
5.7900855208
0
LINE
5
342
100
AcDbEntity
8
0
100
AcDbLine
62
7
6
CONTINUOUS
10
0.4354042428
20
6.8751919309
11
0.5604041236
21
6.6837025026
0
LINE
5
343
100
AcDbEntity
8
0
100
AcDbLine
62
7
6
CONTINUOUS
10
2.0916543620
20
6.2368940452
11
2.0291542428
21
6.3326387146
0
LINE
5
344
100
AcDbEntity
8
0
100
AcDbLine
62
7
6
CONTINUOUS
10
1.8729041236
20
6.8751919309
11
1.9354042428
21
6.7794472614
0
LINE
5
345
100
AcDbEntity
8
0
100
AcDbLine
62
7
6
CONTINUOUS
10
1.1854042428
20
5.9177451024
11
1.1541543620
21
5.9815748820
0
LINE
5
346
100
AcDbEntity
8
0
100
AcDbLine
62
7
6
CONTINUOUS
10
1.9041543620
20
6.2368940452
11
1.9666541236
21
6.1092344412
0
LINE
5
347
100
AcDbEntity
8
0
100
AcDbLine
62
7
6
CONTINUOUS
10
2.1179372428
20
13.0354600494
11
1.9758722428
21
13.4779570494
0
LINE
5
348
100
AcDbEntity
8
0
100
AcDbLine
62
7
6
CONTINUOUS
10
1.8386002428
20
13.9054730494
11
1.6205022428
21
14.5847710494
0
LINE
5
349
100
AcDbEntity
8
0
100
AcDbLine
62
7
6
CONTINUOUS
10
1.8455242428
20
15.2855620494
11
2.5679602428
21
13.0354550494
0
LINE
5
34A
100
AcDbEntity
8
0
100
AcDbLine
62
9
6
CONTINUOUS
10
3.8362029081
20
19.2628656517
11
3.8526412492
21
19.1305110494
0
LINE
5
34B
100
AcDbEntity
8
0
100
AcDbLine
62
9
6
CONTINUOUS
10
4.1361572166
20
19.5599460723
11
4.1571032945
21
19.3912970707
0
LINE
5
34C
100
AcDbEntity
8
0
100
AcDbLine
62
9
6
CONTINUOUS
10
9.2706763110
20
-16.8421649144
11
9.2706763110
21
-2.1273285338
0
LINE
5
34D
100
AcDbEntity
8
0
100
AcDbLine
62
9
6
CONTINUOUS
10
9.2706763110
20
1.3883506325
11
9.2706763110
21
16.1031870131
0
LINE
5
34E
100
AcDbEntity
8
0
100
AcDbLine
62
9
6
CONTINUOUS
10
9.2824806943
20
20.1399846984
11
9.2824806943
21
19.8822353847
0
LINE
5
34F
100
AcDbEntity
8
0
100
AcDbLine
62
9
6
CONTINUOUS
10
9.2824806943
20
-20.8789625996
11
9.2824806943
21
-20.6212132860
0
LINE
5
350
100
AcDbEntity
8
0
100
AcDbLine
62
9
6
CONTINUOUS
10
9.5705735085
20
-16.8274338570
11
9.5705735085
21
-2.8038511535
0
LINE
5
351
100
AcDbEntity
8
0
100
AcDbLine
62
9
6
CONTINUOUS
10
9.5705735085
20
2.0648732522
11
9.5705735085
21
16.0884559557
0
LINE
5
352
100
AcDbEntity
8
0
100
AcDbLine
62
7
6
CONTINUOUS
10
9.6540811990
20
5.6305110494
11
9.6540811990
21
-6.3694889506
0
LINE
5
353
100
AcDbEntity
8
0
100
AcDbLine
62
7
6
CONTINUOUS
10
9.6729042428
20
19.9306138519
11
9.6729042428
21
5.6305110494
0
LINE
5
354
100
AcDbEntity
8
0
100
AcDbLine
62
7
6
CONTINUOUS
10
9.6729042428
20
-6.3694889506
11
9.6729042428
21
-20.6695917532
0
LINE
5
355
100
AcDbEntity
8
0
100
AcDbLine
62
7
6
CONTINUOUS
10
10.3729042428
20
5.6305110494
11
10.3729042428
21
-6.3694889506
0
LINE
5
356
100
AcDbEntity
8
0
100
AcDbLine
62
9
6
CONTINUOUS
10
-9.8365694062
20
-20.5790654022
11
-9.9270957572
21
-20.6695917532
0
LINE
5
357
100
AcDbEntity
8
0
100
AcDbLine
62
9
6
CONTINUOUS
10
-9.5366722087
20
-20.8789625996
11
-9.6271985597
21
-20.9694889506
0
LINE
5
358
100
AcDbEntity
8
0
100
AcDbLine
62
7
6
CONTINUOUS
10
-7.0270957572
20
-20.3694889506
11
-7.6270957572
21
-20.9694889506
0
LINE
5
359
100
AcDbEntity
8
0
100
AcDbLine
62
9
6
CONTINUOUS
10
7.1248437330
20
-8.7463546223
11
7.5887323977
21
-8.5597874581
0
LINE
5
35A
100
AcDbEntity
8
0
100
AcDbLine
62
7
6
CONTINUOUS
10
-1.3458457572
20
6.9390217105
11
-1.1895958168
21
6.9709366003
0
LINE
5
35B
100
AcDbEntity
8
0
100
AcDbLine
62
7
6
CONTINUOUS
10
-2.7833457497
20
6.9390217105
11
-2.6270957423
21
6.9709366003
0
LINE
5
35C
100
AcDbEntity
8
0
100
AcDbLine
62
7
6
CONTINUOUS
10
0.1854041236
20
7.1305110494
11
-0.0020958764
21
7.0985961595
0
LINE
5
35D
100
AcDbEntity
8
0
100
AcDbLine
62
7
6
CONTINUOUS
10
-1.1895958168
20
7.1305110494
11
-1.3770958168
21
7.0985961595
0
LINE
5
35E
100
AcDbEntity
8
0
100
AcDbLine
62
7
6
CONTINUOUS
10
-2.5958457721
20
7.1305110494
11
-2.8145957646
21
7.0985961595
0
LINE
5
35F
100
AcDbEntity
8
0
100
AcDbLine
62
7
6
CONTINUOUS
10
-2.6270957423
20
6.9709366003
11
-2.5020957721
21
6.9709366003
0
LINE
5
360
100
AcDbEntity
8
0
100
AcDbLine
62
7
6
CONTINUOUS
10
1.4979041236
20
6.9709366003
11
1.6229043620
21
6.9709366003
0
LINE
5
361
100
AcDbEntity
8
0
100
AcDbLine
62
7
6
CONTINUOUS
10
2.7479043620
20
7.1305110494
11
2.5604043620
21
7.1305110494
0
LINE
5
362
100
AcDbEntity
8
0
100
AcDbLine
62
7
6
CONTINUOUS
10
1.5916541236
20
7.1305110494
11
1.5291543620
21
7.1305110494
0
LINE
5
363
100
AcDbEntity
8
0
100
AcDbLine
62
7
6
CONTINUOUS
10
-2.4708457572
20
7.1305110494
11
-2.5958457721
21
7.1305110494
0
LINE
5
364
100
AcDbEntity
8
0
100
AcDbLine
62
7
6
CONTINUOUS
10
-4.6670957572
20
9.4805110494
11
-3.1039317572
21
9.4805110494
0
LINE
5
365
100
AcDbEntity
8
0
100
AcDbLine
62
7
6
CONTINUOUS
10
-2.6315677572
20
9.4805110494
11
-2.2387847572
21
9.4805110494
0
LINE
5
366
100
AcDbEntity
8
0
100
AcDbLine
62
7
6
CONTINUOUS
10
-1.7716867572
20
9.4805110494
11
-1.3789197572
21
9.4805110494
0
LINE
5
367
100
AcDbEntity
8
0
100
AcDbLine
62
7
6
CONTINUOUS
10
-0.3661837572
20
9.4805110494
11
0.1278992428
21
9.4805110494
0
LINE
5
368
100
AcDbEntity
8
0
100
AcDbLine
62
7
6
CONTINUOUS
10
2.6330672428
20
9.4805110494
11
3.0111742428
21
9.4805110494
0
LINE
5
369
100
AcDbEntity
8
0
100
AcDbLine
62
7
6
CONTINUOUS
10
4.0166652428
20
9.4805110494
11
4.4091382428
21
9.4805110494
0
LINE
5
36A
100
AcDbEntity
8
0
100
AcDbLine
62
7
6
CONTINUOUS
10
-3.1039317572
20
9.8295600494
11
-4.2743357572
21
9.8295490494
0
LINE
5
36B
100
AcDbEntity
8
0
100
AcDbLine
62
7
6
CONTINUOUS
10
1.8104043620
20
7.0985961595
11
1.5916541236
21
7.1305110494
0
LINE
5
36C
100
AcDbEntity
8
0
100
AcDbLine
62
7
6
CONTINUOUS
10
0.3729041236
20
7.0985961595
11
0.1854041236
21
7.1305110494
0
LINE
5
36D
100
AcDbEntity
8
0
100
AcDbLine
62
7
6
CONTINUOUS
10
1.6229043620
20
6.9709366003
11
1.7791541236
21
6.9390217105
0
LINE
5
36E
100
AcDbEntity
8
0
100
AcDbLine
62
7
6
CONTINUOUS
10
1.9354042428
20
7.0347663799
11
1.8104043620
21
7.0985961595
0
LINE
5
36F
100
AcDbEntity
8
0
100
AcDbLine
62
9
6
CONTINUOUS
10
-9.9270957572
20
19.9306138519
11
-9.8365694062
21
19.8400875009
0
LINE
5
370
100
AcDbEntity
8
0
100
AcDbLine
62
9
6
CONTINUOUS
10
-9.6271985597
20
20.2305110494
11
-9.5366722087
21
20.1399846984
0
LINE
5
371
100
AcDbEntity
8
0
100
AcDbLine
62
7
6
CONTINUOUS
10
-7.0270957572
20
19.6305110494
11
-7.6270957572
21
20.2305110494
0
LINE
5
372
100
AcDbEntity
8
0
100
AcDbLine
62
7
6
CONTINUOUS
10
-3.6400637905
20
20.1399846984
11
-3.6638427834
21
20.1756577163
0
LINE
5
373
100
AcDbEntity
8
0
100
AcDbLine
62
7
6
CONTINUOUS
10
4.0310192428
20
10.1264800494
11
3.0168392428
21
11.6797830494
0
LINE
5
374
100
AcDbEntity
8
0
100
AcDbLine
62
7
6
CONTINUOUS
10
3.0165022428
20
11.0168610494
11
4.0166652428
21
9.4805110494
0
LINE
5
375
100
AcDbEntity
8
0
100
AcDbLine
62
7
6
CONTINUOUS
10
4.1617812428
20
13.0354600494
11
3.7108082428
21
13.9054730494
0
LINE
5
376
100
AcDbEntity
8
0
100
AcDbLine
62
7
6
CONTINUOUS
10
4.1896353549
20
13.9595937623
11
4.6686552428
21
13.0354660494
0
LINE
5
377
100
AcDbEntity
8
0
100
AcDbLine
62
9
6
CONTINUOUS
10
3.8571489860
20
18.1785008941
11
3.8692156601
21
18.1422714332
0
LINE
5
378
100
AcDbEntity
8
0
100
AcDbLine
62
9
6
CONTINUOUS
10
4.1571032945
20
18.4780897545
11
4.1683360198
21
18.4443641746
0
LINE
5
379
100
AcDbEntity
8
0
100
AcDbLine
62
7
6
CONTINUOUS
10
10.8729042428
20
21.2306823869
11
10.8729042428
21
-21.9696602882
0
LINE
5
37A
100
AcDbEntity
8
0
100
AcDbLine
62
9
6
CONTINUOUS
10
-7.3790352474
20
-16.9926232790
11
-7.8755270673
21
-17.1923028097
0
LINE
5
37B
100
AcDbEntity
8
0
100
AcDbLine
62
7
6
CONTINUOUS
10
-4.2743357572
20
10.4348070494
11
-3.1915797572
21
10.4348150494
0
LINE
5
37C
100
AcDbEntity
8
0
100
AcDbLine
62
7
6
CONTINUOUS
10
-3.1915797572
20
10.7838720494
11
-4.2743357572
21
10.7838800494
0
LINE
5
37D
100
AcDbEntity
8
0
100
AcDbLine
62
7
6
CONTINUOUS
10
-4.2743357572
20
11.3307380494
11
-3.1127717572
21
11.3307340494
0
LINE
5
37E
100
AcDbEntity
8
0
100
AcDbLine
62
7
6
CONTINUOUS
10
4.4091382428
20
11.6797830494
11
4.0310272428
21
11.6797830494
0
LINE
5
37F
100
AcDbEntity
8
0
100
AcDbLine
62
7
6
CONTINUOUS
10
3.0168392428
20
11.6797830494
11
2.6330672428
21
11.6797830494
0
LINE
5
380
100
AcDbEntity
8
0
100
AcDbLine
62
7
6
CONTINUOUS
10
0.1227152428
20
11.6797830494
11
-0.4039217572
21
11.6797830494
0
LINE
5
381
100
AcDbEntity
8
0
100
AcDbLine
62
7
6
CONTINUOUS
10
-1.3789197572
20
11.6797830494
11
-1.7716867572
21
11.6797830494
0
LINE
5
382
100
AcDbEntity
8
0
100
AcDbLine
62
7
6
CONTINUOUS
10
-2.2387847572
20
11.6797830494
11
-2.6315677572
21
11.6797830494
0
LINE
5
383
100
AcDbEntity
8
0
100
AcDbLine
62
7
6
CONTINUOUS
10
-3.1127717572
20
11.6797830494
11
-4.6670957572
21
11.6797830494
0
LINE
5
384
100
AcDbEntity
8
0
100
AcDbLine
62
7
6
CONTINUOUS
10
4.6686552428
20
13.0354660494
11
4.1617812428
21
13.0354600494
0
LINE
5
385
100
AcDbEntity
8
0
100
AcDbLine
62
7
6
CONTINUOUS
10
1.1230772428
20
13.0354600494
11
0.6730602428
21
13.0354550494
0
LINE
5
386
100
AcDbEntity
8
0
100
AcDbLine
62
7
6
CONTINUOUS
10
0.3730512428
20
13.0354550494
11
-0.0769657572
21
13.0354550494
0
LINE
5
387
100
AcDbEntity
8
0
100
AcDbLine
62
7
6
CONTINUOUS
10
-1.3779047572
20
13.0354550494
11
-1.8279217572
21
13.0354550494
0
LINE
5
388
100
AcDbEntity
8
0
100
AcDbLine
62
7
6
CONTINUOUS
10
3.3179922428
20
13.0354600494
11
2.8679692428
21
13.0354600494
0
LINE
5
389
100
AcDbEntity
8
0
100
AcDbLine
62
7
6
CONTINUOUS
10
-0.5024347572
20
13.0354600494
11
-0.9524407572
21
13.0354550494
0
LINE
5
38A
100
AcDbEntity
8
0
100
AcDbLine
62
7
6
CONTINUOUS
10
-2.2779267572
20
13.0354550494
11
-2.7279437572
21
13.0354490494
0
LINE
5
38B
100
AcDbEntity
8
0
100
AcDbLine
62
7
6
CONTINUOUS
10
2.5679602428
20
13.0354550494
11
2.1179372428
21
13.0354600494
0
LINE
5
38C
100
AcDbEntity
8
0
100
AcDbLine
62
7
6
CONTINUOUS
10
-3.7503837572
20
13.0354550494
11
-4.2004167572
21
13.0354490494
0
LINE
5
38D
100
AcDbEntity
8
0
100
AcDbLine
62
7
6
CONTINUOUS
10
1.9758722428
20
13.4779570494
11
1.2651482428
21
13.4779570494
0
LINE
5
38E
100
AcDbEntity
8
0
100
AcDbLine
62
7
6
CONTINUOUS
10
1.4024152428
20
13.9054730494
11
1.8386002428
21
13.9054730494
0
LINE
5
38F
100
AcDbEntity
8
0
100
AcDbLine
62
7
6
CONTINUOUS
10
3.7108082428
20
13.9054730494
11
3.3180422428
21
13.9054790494
0
LINE
5
390
100
AcDbEntity
8
0
100
AcDbLine
62
7
6
CONTINUOUS
10
3.3117872428
20
14.3217460494
11
3.8593040054
21
14.3217460494
0
LINE
5
391
100
AcDbEntity
8
0
100
AcDbLine
62
7
6
CONTINUOUS
10
3.8592908615
20
14.8692950494
11
3.3117822428
21
14.8692950494
0
LINE
5
392
100
AcDbEntity
8
0
100
AcDbLine
62
7
6
CONTINUOUS
10
-4.9228467572
20
15.2855560494
11
-4.4728247572
21
15.2855560494
0
LINE
5
393
100
AcDbEntity
8
0
100
AcDbLine
62
7
6
CONTINUOUS
10
-3.4779697572
20
15.2855560494
11
-3.0279477572
21
15.2855560494
0
LINE
5
394
100
AcDbEntity
8
0
100
AcDbLine
62
7
6
CONTINUOUS
10
-2.7279387572
20
15.2855560494
11
-2.2779217572
21
15.2855560494
0
LINE
5
395
100
AcDbEntity
8
0
100
AcDbLine
62
7
6
CONTINUOUS
10
-1.8279217572
20
15.2855560494
11
-1.1476167572
21
15.2855560494
0
LINE
5
396
100
AcDbEntity
8
0
100
AcDbLine
62
7
6
CONTINUOUS
10
-0.3072537572
20
15.2855560494
11
0.3730512428
21
15.2855560494
0
LINE
5
397
100
AcDbEntity
8
0
100
AcDbLine
62
7
6
CONTINUOUS
10
1.3954852428
20
15.2855620494
11
1.8455242428
21
15.2855620494
0
LINE
5
398
100
AcDbEntity
8
0
100
AcDbLine
62
7
6
CONTINUOUS
10
2.8679692428
20
15.2855620494
11
3.9217610914
21
15.2855620494
0
LINE
5
399
100
AcDbEntity
8
0
100
AcDbLine
62
7
6
CONTINUOUS
10
9.2706763110
20
16.1031870131
11
-9.5248678253
21
16.1031870131
0
LINE
5
39A
100
AcDbEntity
8
0
100
AcDbLine
62
7
6
CONTINUOUS
10
4.1599362095
20
20.1399846984
11
4.1361572166
21
20.1756577163
0
LINE
5
39B
100
AcDbEntity
8
0
100
AcDbLine
62
7
6
CONTINUOUS
10
-4.1234071744
20
18.1422714332
11
-3.9307843399
21
18.1422714332
0
LINE
5
39C
100
AcDbEntity
8
0
100
AcDbLine
62
7
6
CONTINUOUS
10
3.6765928256
20
18.1422714332
11
3.8692156601
21
18.1422714332
0
LINE
5
39D
100
AcDbEntity
8
0
100
AcDbLine
62
9
6
CONTINUOUS
10
3.8571489860
20
18.1785008941
11
3.6886594997
21
18.1785008941
0
LINE
5
39E
100
AcDbEntity
8
0
100
AcDbLine
62
9
6
CONTINUOUS
10
-3.9428510140
20
18.1785008941
11
-4.1113405003
21
18.1785008941
0
LINE
5
39F
100
AcDbEntity
8
0
100
AcDbLine
62
9
6
CONTINUOUS
10
3.3887051911
20
18.4780897545
11
4.1571032945
21
18.4780897545
0
LINE
5
3A0
100
AcDbEntity
8
0
100
AcDbLine
62
9
6
CONTINUOUS
10
-3.6428967055
20
18.4780897545
11
-4.4112948089
21
18.4780897545
0
LINE
5
3A1
100
AcDbEntity
8
0
100
AcDbLine
62
7
6
CONTINUOUS
10
-4.1113405003
20
19.1305110494
11
-3.9428510140
21
19.1305110494
0
LINE
5
3A2
100
AcDbEntity
8
0
100
AcDbLine
62
7
6
CONTINUOUS
10
3.6886594997
20
19.1305110494
11
3.8571489860
21
19.1305110494
0
LINE
5
3A3
100
AcDbEntity
8
0
100
AcDbLine
62
9
6
CONTINUOUS
10
-4.0903944224
20
19.2628656517
11
-3.9637970919
21
19.2628656517
0
LINE
5
3A4
100
AcDbEntity
8
0
100
AcDbLine
62
9
6
CONTINUOUS
10
3.7096055776
20
19.2628656517
11
3.8362029081
21
19.2628656517
0
LINE
5
3A5
100
AcDbEntity
8
0
100
AcDbLine
62
9
6
CONTINUOUS
10
3.4096512690
20
19.5599460723
11
4.1361572166
21
19.5599460723
0
LINE
5
3A6
100
AcDbEntity
8
0
100
AcDbLine
62
9
6
CONTINUOUS
10
-3.6638427834
20
19.5599460723
11
-4.3903487310
21
19.5599460723
0
LINE
5
3A7
100
AcDbEntity
8
0
100
AcDbLine
62
7
6
CONTINUOUS
10
5.8729042428
20
19.6305110494
11
6.7729042428
21
19.6305110494
0
LINE
5
3A8
100
AcDbEntity
8
0
100
AcDbLine
62
7
6
CONTINUOUS
10
-6.1270957572
20
19.6305110494
11
-7.0270957572
21
19.6305110494
0
LINE
5
3A9
100
AcDbEntity
8
0
100
AcDbLine
62
9
6
CONTINUOUS
10
9.2824806943
20
19.8822353847
11
7.0246285782
21
19.8822353847
0
LINE
5
3AA
100
AcDbEntity
8
0
100
AcDbLine
62
9
6
CONTINUOUS
10
5.8729042428
20
19.8822353847
11
4.1649837154
21
19.8822353847
0
LINE
5
3AB
100
AcDbEntity
8
0
100
AcDbLine
62
9
6
CONTINUOUS
10
3.3808247702
20
19.8822353847
11
-3.6350162846
21
19.8822353847
0
LINE
5
3AC
100
AcDbEntity
8
0
100
AcDbLine
62
9
6
CONTINUOUS
10
-4.4191752298
20
19.8822353847
11
-6.1270957572
21
19.8822353847
0
LINE
5
3AD
100
AcDbEntity
8
0
100
AcDbLine
62
9
6
CONTINUOUS
10
-7.2788200926
20
19.8822353847
11
-9.5366722087
21
19.8822353847
0
LINE
5
3AE
100
AcDbEntity
8
0
100
AcDbLine
62
9
6
CONTINUOUS
10
9.2824806943
20
20.1399846984
11
7.2823778918
21
20.1399846984
0
LINE
5
3AF
100
AcDbEntity
8
0
100
AcDbLine
62
9
6
CONTINUOUS
10
5.8729042428
20
20.1399846984
11
4.1599362095
21
20.1399846984
0
LINE
5
3B0
100
AcDbEntity
8
0
100
AcDbLine
62
9
6
CONTINUOUS
10
3.3858722761
20
20.1399846984
11
-3.6400637905
21
20.1399846984
0
LINE
5
3B1
100
AcDbEntity
8
0
100
AcDbLine
62
9
6
CONTINUOUS
10
-4.4141277239
20
20.1399846984
11
-6.1270957572
21
20.1399846984
0
LINE
5
3B2
100
AcDbEntity
8
0
100
AcDbLine
62
9
6
CONTINUOUS
10
-7.5365694062
20
20.1399846984
11
-9.5366722087
21
20.1399846984
0
LINE
5
3B3
100
AcDbEntity
8
0
100
AcDbLine
62
7
6
CONTINUOUS
10
3.8362029081
20
20.1833763905
11
3.7096055776
21
20.1833763905
0
LINE
5
3B4
100
AcDbEntity
8
0
100
AcDbLine
62
7
6
CONTINUOUS
10
-3.9637970919
20
20.1833763905
11
-4.0903944224
21
20.1833763905
0
LINE
5
3B5
100
AcDbEntity
8
0
100
AcDbLine
62
7
6
CONTINUOUS
10
9.3730070453
20
20.2305110494
11
-9.6271985597
21
20.2305110494
0
LINE
5
3B6
100
AcDbEntity
8
0
100
AcDbLine
62
7
6
CONTINUOUS
10
-10.6272670947
20
21.7305110494
11
10.3730755803
21
21.7305110494
0
ARC
5
3B7
100
AcDbEntity
8
0
100
AcDbCircle
62
7
6
CONTINUOUS
10
2.8729042428
20
-12.8724960428
40
10.9500000000
100
AcDbArc
50
159.2784041022
51
200.7215956951
0
ARC
5
3B8
100
AcDbEntity
8
0
100
AcDbCircle
62
7
6
CONTINUOUS
10
-3.1270957572
20
-12.8724960428
40
10.9500000000
100
AcDbArc
50
339.2784041022
51
20.7215957020
0
ARC
5
3B9
100
AcDbEntity
8
0
100
AcDbCircle
62
7
6
CONTINUOUS
10
3.8592952428
20
14.5955190494
40
0.2737750000
100
AcDbArc
50
270.0018338493
51
90.0009169146
0
ARC
5
3BA
100
AcDbEntity
8
0
100
AcDbCircle
62
7
6
CONTINUOUS
10
3.9217562428
20
14.5955190494
40
0.6900438394
100
AcDbArc
50
292.8429211273
51
89.9995974084
0
ARC
5
3BB
100
AcDbEntity
8
0
100
AcDbCircle
62
7
6
CONTINUOUS
10
-3.1270957572
20
-12.8694889506
40
11.5500000000
100
AcDbArc
50
339.8820045084
51
21.9090497881
0
ARC
5
3BC
100
AcDbEntity
8
0
100
AcDbCircle
62
7
6
CONTINUOUS
10
6.1970664036
20
-9.1194889506
40
1.5000000000
100
AcDbArc
50
21.9090497881
51
90.0000000000
0
ARC
5
3BD
100
AcDbEntity
8
0
100
AcDbCircle
62
7
6
CONTINUOUS
10
-6.4512579179
20
-9.1194889506
40
1.5000000000
100
AcDbArc
50
90.0000000000
51
158.0909502119
0
ARC
5
3BE
100
AcDbEntity
8
0
100
AcDbCircle
62
7
6
CONTINUOUS
10
2.8729042428
20
-12.8694889506
40
11.5500000000
100
AcDbArc
50
158.0909502119
51
200.1179954916
0
ARC
5
3BF
100
AcDbEntity
8
0
100
AcDbCircle
62
7
6
CONTINUOUS
10
6.1970664036
20
-9.1194889506
40
1.0000000000
100
AcDbArc
50
21.9090497881
51
90.0000000000
0
ARC
5
3C0
100
AcDbEntity
8
0
100
AcDbCircle
62
7
6
CONTINUOUS
10
-3.1270957572
20
-12.8694889506
40
11.0500000000
100
AcDbArc
50
338.0909502119
51
21.9090497881
0
ARC
5
3C1
100
AcDbEntity
8
0
100
AcDbCircle
62
7
6
CONTINUOUS
10
6.1970664036
20
-16.6194889506
40
1.0000000000
100
AcDbArc
50
270.0000000000
51
338.0909502119
0
ARC
5
3C2
100
AcDbEntity
8
0
100
AcDbCircle
62
7
6
CONTINUOUS
10
-6.4512579179
20
-16.6194889506
40
1.0000000000
100
AcDbArc
50
201.9090497881
51
270.0000000000
0
ARC
5
3C3
100
AcDbEntity
8
0
100
AcDbCircle
62
7
6
CONTINUOUS
10
2.8729042428
20
-12.8694889506
40
11.0500000000
100
AcDbArc
50
158.0909502119
51
201.9090497881
0
ARC
5
3C4
100
AcDbEntity
8
0
100
AcDbCircle
62
7
6
CONTINUOUS
10
-6.4512579179
20
-9.1194889506
40
1.0000000000
100
AcDbArc
50
90.0000000000
51
158.0909502119
0
SPLINE
5
3C5
100
AcDbEntity
8
0
100
AcDbSpline
62
7
6
CONTINUOUS
70
0
71
3
72
12
73
8
74
6
42
0.0000001000
43
0.0000001000
44
0.0000000001
12
-1.4476594201
22
0.0000000000
32
0.0000000000
13
-0.5122215771
23
-1.3540113931
33
0.0000000000
40
0.0000000000
40
0.0000000000
40
0.0000000000
40
0.0000000000
40
0.1984745379
40
0.4002417005
40
0.5995074465
40
0.8014126139
40
1.0000000000
40
1.0000000000
40
1.0000000000
40
1.0000000000
10
-6.2462371029
20
-8.2224960428
30
0.0000000000
10
-6.3420116143
20
-8.2224960428
30
0.0000000000
10
-6.5359396786
20
-8.2458407270
30
0.0000000000
10
-6.8090546144
20
-8.3493216112
30
0.0000000000
10
-7.0508071076
20
-8.5163147622
30
0.0000000000
10
-7.2443307380
20
-8.7352251598
30
0.0000000000
10
-7.3348413668
20
-8.9084560885
30
0.0000000000
10
-7.3687482815
20
-8.9980859496
30
0.0000000000
11
-6.2462371029
21
-8.2224960428
31
0.0000000000
11
-6.5314938618
21
-8.2568965505
31
0.0000000000
11
-6.8046507478
21
-8.3603468371
31
0.0000000000
11
-7.0420000676
21
-8.5242969101
31
0.0000000000
11
-7.2355612410
21
-8.7433116769
31
0.0000000000
11
-7.3687482815
21
-8.9980859496
31
0.0000000000
0
SPLINE
5
3C6
100
AcDbEntity
8
0
100
AcDbSpline
62
7
6
CONTINUOUS
70
0
71
3
72
12
73
8
74
6
42
0.0000001000
43
0.0000001000
44
0.0000000001
12
0.5122215909
22
-1.3540114295
32
0.0000000000
13
1.4476594591
23
0.0000000000
33
0.0000000000
40
0.0000000000
40
0.0000000000
40
0.0000000000
40
0.0000000000
40
0.1985083690
40
0.4002608820
40
0.5995253867
40
0.8014430736
40
1.0000000000
40
1.0000000000
40
1.0000000000
40
1.0000000000
10
-7.3687482996
20
-16.7469061015
30
0.0000000000
10
-7.3348548754
20
-16.8365003017
30
0.0000000000
10
-7.2444054925
20
-17.0096339423
30
0.0000000000
10
-7.0510015436
20
-17.2284923224
30
0.0000000000
10
-6.8092977612
20
-17.3955530351
30
0.0000000000
10
-6.5360927544
20
-17.4991280083
30
0.0000000000
10
-6.3420513737
20
-17.5224960428
30
0.0000000000
10
-6.2462371029
20
-17.5224960428
30
0.0000000000
11
-7.3687482996
21
-16.7469061015
31
0.0000000000
11
-7.2356264757
21
-17.0015853983
31
0.0000000000
11
-7.0422529555
21
-17.2204710848
31
0.0000000000
11
-6.8049513959
21
-17.3844871317
31
0.0000000000
11
-6.5316105588
21
-17.4880669680
31
0.0000000000
11
-6.2462371029
21
-17.5224960428
31
0.0000000000
0
SPLINE
5
3C7
100
AcDbEntity
8
0
100
AcDbSpline
62
7
6
CONTINUOUS
70
0
71
3
72
12
73
8
74
6
42
0.0000001000
43
0.0000001000
44
0.0000000001
12
-0.5122215904
22
1.3540114283
32
0.0000000000
13
-1.4476594578
23
-0.0000000000
33
0.0000000000
40
0.0000000000
40
0.0000000000
40
0.0000000000
40
0.0000000000
40
0.1985083683
40
0.4002608814
40
0.5995253863
40
0.8014430735
40
1.0000000000
40
1.0000000000
40
1.0000000000
40
1.0000000000
10
7.1145567846
20
-8.9980859830
30
0.0000000000
10
7.0806633606
20
-8.9084917832
30
0.0000000000
10
6.9902139779
20
-8.7353581430
30
0.0000000000
10
6.7968100293
20
-8.5164997633
30
0.0000000000
10
6.5551062469
20
-8.3494390506
30
0.0000000000
10
6.2819012401
20
-8.2458640774
30
0.0000000000
10
6.0878598594
20
-8.2224960428
30
0.0000000000
10
5.9920455885
20
-8.2224960428
30
0.0000000000
11
7.1145567846
21
-8.9980859830
31
0.0000000000
11
6.9814349614
21
-8.7434066874
31
0.0000000000
11
6.7880614412
21
-8.5245210009
31
0.0000000000
11
6.5507598816
21
-8.3605049540
31
0.0000000000
11
6.2774190444
21
-8.2569251177
31
0.0000000000
11
5.9920455885
21
-8.2224960428
31
0.0000000000
0
SPLINE
5
3C8
100
AcDbEntity
8
0
100
AcDbSpline
62
7
6
CONTINUOUS
70
0
71
3
72
12
73
8
74
6
42
0.0000001000
43
0.0000001000
44
0.0000000001
12
1.4476594201
22
0.0000000000
32
0.0000000000
13
0.5122215771
23
1.3540113931
33
0.0000000000
40
0.0000000000
40
0.0000000000
40
0.0000000000
40
0.0000000000
40
0.1984745379
40
0.4002417005
40
0.5995074465
40
0.8014126139
40
1.0000000000
40
1.0000000000
40
1.0000000000
40
1.0000000000
10
5.9920455885
20
-17.5224960428
30
0.0000000000
10
6.0878201000
20
-17.5224960428
30
0.0000000000
10
6.2817481643
20
-17.4991513587
30
0.0000000000
10
6.5548631001
20
-17.3956704744
30
0.0000000000
10
6.7966155933
20
-17.2286773235
30
0.0000000000
10
6.9901392237
20
-17.0097669259
30
0.0000000000
10
7.0806498525
20
-16.8365359972
30
0.0000000000
10
7.1145567672
20
-16.7469061361
30
0.0000000000
11
5.9920455885
21
-17.5224960428
31
0.0000000000
11
6.2773023475
21
-17.4880955352
31
0.0000000000
11
6.5504592335
21
-17.3846452485
31
0.0000000000
11
6.7878085532
21
-17.2206951756
31
0.0000000000
11
6.9813697266
21
-17.0016804088
31
0.0000000000
11
7.1145567672
21
-16.7469061361
31
0.0000000000
0
SPLINE
5
3C9
100
AcDbEntity
8
0
100
AcDbSpline
62
7
6
CONTINUOUS
70
0
71
3
72
11
73
7
74
5
42
0.0000001000
43
0.0000001000
44
0.0000000001
12
-0.3121012109
22
0.0000000000
32
0.0000000000
13
0.0000000000
23
-0.3121012109
33
0.0000000000
40
0.0000000000
40
0.0000000000
40
0.0000000000
40
0.0000000000
40
0.2490349662
40
0.4991371312
40
0.7497144856
40
1.0000000000
40
1.0000000000
40
1.0000000000
40
1.0000000000
10
1.5728737819
20
-8.2224960428
30
0.0000000000
10
1.5469657437
20
-8.2224960428
30
0.0000000000
10
1.4944755252
20
-8.2328382943
30
0.0000000000
10
1.4279625994
20
-8.2772259458
30
0.0000000000
10
1.3833376707
20
-8.3437493475
30
0.0000000000
10
1.3729042428
20
-8.3964274445
30
0.0000000000
10
1.3729042428
20
-8.4224655819
30
0.0000000000
11
1.5728737819
21
-8.2224960428
31
0.0000000000
11
1.4966309718
21
-8.2375980923
31
0.0000000000
11
1.4316645556
21
-8.2808680523
31
0.0000000000
11
1.3881583538
21
-8.3458550507
31
0.0000000000
11
1.3729042428
21
-8.4224655819
31
0.0000000000
0
SPLINE
5
3CA
100
AcDbEntity
8
0
100
AcDbSpline
62
7
6
CONTINUOUS
70
0
71
3
72
11
73
7
74
5
42
0.0000001000
43
0.0000001000
44
0.0000000001
12
0.0000000000
22
0.3121012109
32
0.0000000000
13
-0.3121012109
23
0.0000000000
33
0.0000000000
40
0.0000000000
40
0.0000000000
40
0.0000000000
40
0.0000000000
40
0.2502855144
40
0.5008628688
40
0.7509650338
40
1.0000000000
40
1.0000000000
40
1.0000000000
40
1.0000000000
10
-1.6270957572
20
-8.4224655819
30
0.0000000000
10
-1.6270957572
20
-8.3964274445
30
0.0000000000
10
-1.6375291850
20
-8.3437493475
30
0.0000000000
10
-1.6821541138
20
-8.2772259458
30
0.0000000000
10
-1.7486670395
20
-8.2328382943
30
0.0000000000
10
-1.8011572580
20
-8.2224960428
30
0.0000000000
10
-1.8270652962
20
-8.2224960428
30
0.0000000000
11
-1.6270957572
21
-8.4224655819
31
0.0000000000
11
-1.6423498681
21
-8.3458550507
31
0.0000000000
11
-1.6858560699
21
-8.2808680523
31
0.0000000000
11
-1.7508224862
21
-8.2375980923
31
0.0000000000
11
-1.8270652962
21
-8.2224960428
31
0.0000000000
0
SPLINE
5
3CB
100
AcDbEntity
8
0
100
AcDbSpline
62
7
6
CONTINUOUS
70
0
71
3
72
8
73
4
74
2
42
0.0000001000
43
0.0000001000
44
0.0000000001
12
0.3942889025
22
-0.4303921441
32
0.0000000000
13
0.0000000000
23
-0.7221543780
33
0.0000000000
40
0.0000000000
40
0.0000000000
40
0.0000000000
40
0.0000000000
40
1.0000000000
40
1.0000000000
40
1.0000000000
40
1.0000000000
10
1.6451459147
20
11.1924490303
30
0.0000000000
10
1.7765755489
20
11.0489849823
30
0.0000000000
10
1.8513316047
20
10.8208731892
30
0.0000000000
10
1.8513316047
20
10.5801550632
30
0.0000000000
11
1.6451459147
21
11.1924490303
31
0.0000000000
11
1.8513316047
21
10.5801550632
31
0.0000000000
0
SPLINE
5
3CC
100
AcDbEntity
8
0
100
AcDbSpline
62
7
6
CONTINUOUS
70
0
71
3
72
8
73
4
74
2
42
0.0000001000
43
0.0000001000
44
0.0000000001
12
0.0000000000
22
-0.7221194537
32
0.0000000000
13
-0.3942844394
23
-0.4303729499
33
0.0000000000
40
0.0000000000
40
0.0000000000
40
0.0000000000
40
0.0000000000
40
1.0000000000
40
1.0000000000
40
1.0000000000
40
1.0000000000
10
1.8513316047
20
10.5801550632
30
0.0000000000
10
1.8513316047
20
10.3394485786
30
0.0000000000
10
1.7765740612
20
10.1113303874
30
0.0000000000
10
1.6451459147
20
9.9678727374
30
0.0000000000
11
1.8513316047
21
10.5801550632
31
0.0000000000
11
1.6451459147
21
9.9678727374
31
0.0000000000
0
SPLINE
5
3CD
100
AcDbEntity
8
0
100
AcDbSpline
62
7
6
CONTINUOUS
70
0
71
3
72
8
73
4
74
2
42
0.0000001000
43
0.0000001000
44
0.0000000001
12
-0.3450647679
22
-0.3766482449
32
0.0000000000
13
-0.5225616320
23
0.0000000000
33
0.0000000000
40
0.0000000000
40
0.0000000000
40
0.0000000000
40
0.0000000000
40
1.0000000000
40
1.0000000000
40
1.0000000000
40
1.0000000000
10
1.6451459147
20
9.9678727374
30
0.0000000000
10
1.5301243254
20
9.8423233225
30
0.0000000000
10
1.3641871592
20
9.7799408489
30
0.0000000000
10
1.1899999486
20
9.7799408489
30
0.0000000000
11
1.6451459147
21
9.9678727374
31
0.0000000000
11
1.1899999486
21
9.7799408489
31
0.0000000000
0
SPLINE
5
3CE
100
AcDbEntity
8
0
100
AcDbSpline
62
7
6
CONTINUOUS
70
0
71
3
72
8
73
4
74
2
42
0.0000001000
43
0.0000001000
44
0.0000000001
12
-0.5231437048
22
0.0000000000
32
0.0000000000
13
-0.3446918411
23
0.3762867500
33
0.0000000000
40
0.0000000000
40
0.0000000000
40
0.0000000000
40
0.0000000000
40
1.0000000000
40
1.0000000000
40
1.0000000000
40
1.0000000000
10
1.1899999486
20
9.7799408489
30
0.0000000000
10
1.0156187136
20
9.7799408489
30
0.0000000000
10
0.8475781912
20
9.8424438208
30
0.0000000000
10
0.7326809108
20
9.9678727374
30
0.0000000000
11
1.1899999486
21
9.7799408489
31
0.0000000000
11
0.7326809108
21
9.9678727374
31
0.0000000000
0
SPLINE
5
3CF
100
AcDbEntity
8
0
100
AcDbSpline
62
7
6
CONTINUOUS
70
0
71
3
72
8
73
4
74
2
42
0.0000001000
43
0.0000001000
44
0.0000000001
12
-0.3942637913
22
0.4304025305
32
0.0000000000
13
0.0000000000
23
0.7221194537
33
0.0000000000
40
0.0000000000
40
0.0000000000
40
0.0000000000
40
0.0000000000
40
1.0000000000
40
1.0000000000
40
1.0000000000
40
1.0000000000
10
0.7326809108
20
9.9678727374
30
0.0000000000
10
0.6012596471
20
10.1113402476
30
0.0000000000
10
0.5264913404
20
10.3394485786
30
0.0000000000
10
0.5264913404
20
10.5801550632
30
0.0000000000
11
0.7326809108
21
9.9678727374
31
0.0000000000
11
0.5264913404
21
10.5801550632
31
0.0000000000
0
SPLINE
5
3D0
100
AcDbEntity
8
0
100
AcDbSpline
62
7
6
CONTINUOUS
70
0
71
3
72
8
73
4
74
2
42
0.0000001000
43
0.0000001000
44
0.0000000001
12
0.0000000000
22
0.7221543780
32
0.0000000000
13
0.3942960809
23
0.4303962328
33
0.0000000000
40
0.0000000000
40
0.0000000000
40
0.0000000000
40
0.0000000000
40
1.0000000000
40
1.0000000000
40
1.0000000000
40
1.0000000000
10
0.5264913404
20
10.5801550632
30
0.0000000000
10
0.5264913404
20
10.8208731892
30
0.0000000000
10
0.6012488839
20
11.0489836194
30
0.0000000000
10
0.7326809108
20
11.1924490303
30
0.0000000000
11
0.5264913404
21
10.5801550632
31
0.0000000000
11
0.7326809108
21
11.1924490303
31
0.0000000000
0
SPLINE
5
3D1
100
AcDbEntity
8
0
100
AcDbSpline
62
7
6
CONTINUOUS
70
0
71
3
72
8
73
4
74
2
42
0.0000001000
43
0.0000001000
44
0.0000000001
12
0.3446918411
22
0.3762751085
32
0.0000000000
13
0.5231437048
23
0.0000000000
33
0.0000000000
40
0.0000000000
40
0.0000000000
40
0.0000000000
40
0.0000000000
40
1.0000000000
40
1.0000000000
40
1.0000000000
40
1.0000000000
10
0.7326809108
20
11.1924490303
30
0.0000000000
10
0.8475781912
20
11.3178740665
30
0.0000000000
10
1.0156187136
20
11.3803809189
30
0.0000000000
10
1.1899999486
20
11.3803809189
30
0.0000000000
11
0.7326809108
21
11.1924490303
31
0.0000000000
11
1.1899999486
21
11.3803809189
31
0.0000000000
0
SPLINE
5
3D2
100
AcDbEntity
8
0
100
AcDbSpline
62
7
6
CONTINUOUS
70
0
71
3
72
8
73
4
74
2
42
0.0000001000
43
0.0000001000
44
0.0000000001
12
0.5225616320
22
0.0000000000
32
0.0000000000
13
0.3450527262
23
-0.3766476351
33
0.0000000000
40
0.0000000000
40
0.0000000000
40
0.0000000000
40
0.0000000000
40
1.0000000000
40
1.0000000000
40
1.0000000000
40
1.0000000000
10
1.1899999486
20
11.3803809189
30
0.0000000000
10
1.3641871592
20
11.3803809189
30
0.0000000000
10
1.5301283393
20
11.3179982420
30
0.0000000000
10
1.6451459147
20
11.1924490303
30
0.0000000000
11
1.1899999486
21
11.3803809189
31
0.0000000000
11
1.6451459147
21
11.1924490303
31
0.0000000000
0
SPLINE
5
3D3
100
AcDbEntity
8
0
100
AcDbSpline
62
7
6
CONTINUOUS
70
0
71
3
72
8
73
4
74
2
42
0.0000001000
43
0.0000001000
44
0.0000000001
12
0.9097913497
22
0.0000000000
32
0.0000000000
13
0.5862753153
23
0.6886851949
33
0.0000000000
40
0.0000000000
40
0.0000000000
40
0.0000000000
40
0.0000000000
40
1.0000000000
40
1.0000000000
40
1.0000000000
40
1.0000000000
10
1.1889755005
20
9.4317410494
30
0.0000000000
10
1.4922392838
20
9.4317410494
30
0.0000000000
10
1.7763024272
20
9.5407361120
30
0.0000000000
10
1.9717275323
20
9.7702978437
30
0.0000000000
11
1.1889755005
21
9.4317410494
31
0.0000000000
11
1.9717275323
21
9.7702978437
31
0.0000000000
0
SPLINE
5
3D4
100
AcDbEntity
8
0
100
AcDbSpline
62
7
6
CONTINUOUS
70
0
71
3
72
8
73
4
74
2
42
0.0000001000
43
0.0000001000
44
0.0000000001
12
0.5284319884
22
0.6207378640
32
0.0000000000
13
0.0000000000
23
0.8936330102
33
0.0000000000
40
0.0000000000
40
0.0000000000
40
0.0000000000
40
0.0000000000
40
1.0000000000
40
1.0000000000
40
1.0000000000
40
1.0000000000
10
1.9717275323
20
9.7702978437
30
0.0000000000
10
2.1478715284
20
9.9772104650
30
0.0000000000
10
2.2465551215
20
10.2824908198
30
0.0000000000
10
2.2465551215
20
10.5803684898
30
0.0000000000
11
1.9717275323
21
9.7702978437
31
0.0000000000
11
2.2465551215
21
10.5803684898
31
0.0000000000
0
SPLINE
5
3D5
100
AcDbEntity
8
0
100
AcDbSpline
62
7
6
CONTINUOUS
70
0
71
3
72
8
73
4
74
2
42
0.0000001000
43
0.0000001000
44
0.0000000001
12
0.0000000000
22
0.8936679345
32
0.0000000000
13
-0.5284638497
23
0.6207223806
33
0.0000000000
40
0.0000000000
40
0.0000000000
40
0.0000000000
40
0.0000000000
40
1.0000000000
40
1.0000000000
40
1.0000000000
40
1.0000000000
10
2.2465551215
20
10.5803684898
30
0.0000000000
10
2.2465551215
20
10.8782578013
30
0.0000000000
10
2.1478821489
20
11.1835355563
30
0.0000000000
10
1.9717275323
20
11.3904430165
30
0.0000000000
11
2.2465551215
21
10.5803684898
31
0.0000000000
11
1.9717275323
21
11.3904430165
31
0.0000000000
0
SPLINE
5
3D6
100
AcDbEntity
8
0
100
AcDbSpline
62
7
6
CONTINUOUS
70
0
71
3
72
8
73
4
74
2
42
0.0000001000
43
0.0000001000
44
0.0000000001
12
-0.5863140729
22
0.6886720205
32
0.0000000000
13
-0.9098146326
23
0.0000000000
33
0.0000000000
40
0.0000000000
40
0.0000000000
40
0.0000000000
40
0.0000000000
40
1.0000000000
40
1.0000000000
40
1.0000000000
40
1.0000000000
10
1.9717275323
20
11.3904430165
30
0.0000000000
10
1.7762895080
20
11.6200003566
30
0.0000000000
10
1.4922470447
20
11.7289959303
30
0.0000000000
10
1.1889755005
20
11.7289959303
30
0.0000000000
11
1.9717275323
21
11.3904430165
31
0.0000000000
11
1.1889755005
21
11.7289959303
31
0.0000000000
0
SPLINE
5
3D7
100
AcDbEntity
8
0
100
AcDbSpline
62
7
6
CONTINUOUS
70
0
71
3
72
8
73
4
74
2
42
0.0000001000
43
0.0000001000
44
0.0000000001
12
-0.9097913497
22
0.0000000000
32
0.0000000000
13
-0.5863218811
23
-0.6887084778
33
0.0000000000
40
0.0000000000
40
0.0000000000
40
0.0000000000
40
0.0000000000
40
1.0000000000
40
1.0000000000
40
1.0000000000
40
1.0000000000
10
1.1889755005
20
11.7289959303
30
0.0000000000
10
0.8857117173
20
11.7289959303
30
0.0000000000
10
0.6015476812
20
11.6200125091
30
0.0000000000
10
0.4061070542
20
11.3904430165
30
0.0000000000
11
1.1889755005
21
11.7289959303
31
0.0000000000
11
0.4061070542
21
11.3904430165
31
0.0000000000
0
SPLINE
5
3D8
100
AcDbEntity
8
0
100
AcDbSpline
62
7
6
CONTINUOUS
70
0
71
3
72
8
73
4
74
2
42
0.0000001000
43
0.0000001000
44
0.0000000001
12
-0.5284522083
22
-0.6206990977
32
0.0000000000
13
0.0000000000
23
-0.8936330102
33
0.0000000000
40
0.0000000000
40
0.0000000000
40
0.0000000000
40
0.0000000000
40
1.0000000000
40
1.0000000000
40
1.0000000000
40
1.0000000000
10
0.4061070542
20
11.3904430165
30
0.0000000000
10
0.2299563181
20
11.1835433173
30
0.0000000000
10
0.1312678236
20
10.8782461599
30
0.0000000000
10
0.1312678236
20
10.5803684898
30
0.0000000000
11
0.4061070542
21
11.3904430165
31
0.0000000000
11
0.1312678236
21
10.5803684898
31
0.0000000000
0
SPLINE
5
3D9
100
AcDbEntity
8
0
100
AcDbSpline
62
7
6
CONTINUOUS
70
0
71
3
72
8
73
4
74
2
42
0.0000001000
43
0.0000001000
44
0.0000000001
12
0.0000000000
22
-0.8936097273
32
0.0000000000
13
0.5284522083
23
-0.6206758148
33
0.0000000000
40
0.0000000000
40
0.0000000000
40
0.0000000000
40
0.0000000000
40
1.0000000000
40
1.0000000000
40
1.0000000000
40
1.0000000000
10
0.1312678236
20
10.5803684898
30
0.0000000000
10
0.1312678236
20
10.2824985808
30
0.0000000000
10
0.2299563181
20
9.9771897819
30
0.0000000000
10
0.4061070542
20
9.7702978437
30
0.0000000000
11
0.1312678236
21
10.5803684898
31
0.0000000000
11
0.4061070542
21
9.7702978437
31
0.0000000000
0
SPLINE
5
3DA
100
AcDbEntity
8
0
100
AcDbSpline
62
7
6
CONTINUOUS
70
0
71
3
72
8
73
4
74
2
42
0.0000001000
43
0.0000001000
44
0.0000000001
12
0.5863435793
22
-0.6886701827
32
0.0000000000
13
0.9097680668
23
0.0000000000
33
0.0000000000
40
0.0000000000
40
0.0000000000
40
0.0000000000
40
0.0000000000
40
1.0000000000
40
1.0000000000
40
1.0000000000
40
1.0000000000
10
0.4061070542
20
9.7702978437
30
0.0000000000
10
0.6015549140
20
9.5407411161
30
0.0000000000
10
0.8857194783
20
9.4317410494
30
0.0000000000
10
1.1889755005
20
9.4317410494
30
0.0000000000
11
0.4061070542
21
9.7702978437
31
0.0000000000
11
1.1889755005
21
9.4317410494
31
0.0000000000
0
SPLINE
5
3DB
100
AcDbEntity
8
0
100
AcDbSpline
62
7
6
CONTINUOUS
70
0
71
3
72
15
73
11
74
9
42
0.0000001000
43
0.0000001000
44
0.0000000001
12
0.7838926164
22
0.0000000000
32
0.0000000000
13
-0.0000000000
23
0.7838926164
33
0.0000000000
40
0.0000000000
40
0.0000000000
40
0.0000000000
40
0.0000000000
40
0.1249999597
40
0.2499995837
40
0.3750001213
40
0.5000004166
40
0.6250005886
40
0.7500008329
40
0.8750001718
40
1.0000000000
40
1.0000000000
40
1.0000000000
40
1.0000000000
10
10.3730755803
20
-22.4694889506
30
0.0000000000
10
10.4057377622
20
-22.4694889506
30
0.0000000000
10
10.4712429930
20
-22.4630490372
30
0.0000000000
10
10.5655872691
20
-22.4344325342
30
0.0000000000
10
10.6525739562
20
-22.3879528044
30
0.0000000000
10
10.7288075957
20
-22.3253918820
30
0.0000000000
10
10.7913683756
20
-22.2491582270
30
0.0000000000
10
10.8378479397
20
-22.1621716641
30
0.0000000000
10
10.8664643470
20
-22.0678275570
30
0.0000000000
10
10.8729042428
20
-22.0023224356
30
0.0000000000
10
10.8729042428
20
-21.9696602882
30
0.0000000000
11
10.3730755803
21
-22.4694889506
31
0.0000000000
11
10.4705907862
21
-22.4598895908
31
0.0000000000
11
10.5643607700
21
-22.4314554272
31
0.0000000000
11
10.6507818120
21
-22.3852725800
31
0.0000000000
11
10.7265288186
21
-22.3231130623
31
0.0000000000
11
10.7886881828
21
-22.2473660548
31
0.0000000000
11
10.8348708449
21
-22.1609451746
31
0.0000000000
11
10.8633049031
21
-22.0671753925
31
0.0000000000
11
10.8729042428
21
-21.9696602882
31
0.0000000000
0
SPLINE
5
3DC
100
AcDbEntity
8
0
100
AcDbSpline
62
7
6
CONTINUOUS
70
0
71
3
72
15
73
11
74
9
42
0.0000001000
43
0.0000001000
44
0.0000000001
12
0.0000000000
22
0.7838926164
32
0.0000000000
13
-0.7838926164
23
0.0000000000
33
0.0000000000
40
0.0000000000
40
0.0000000000
40
0.0000000000
40
0.0000000000
40
0.1249999597
40
0.2499995837
40
0.3750001213
40
0.5000004166
40
0.6250005886
40
0.7500008329
40
0.8750001718
40
1.0000000000
40
1.0000000000
40
1.0000000000
40
1.0000000000
10
10.8729042428
20
21.2306823869
30
0.0000000000
10
10.8729042428
20
21.2633445687
30
0.0000000000
10
10.8664643294
20
21.3288497995
30
0.0000000000
10
10.8378478264
20
21.4231940756
30
0.0000000000
10
10.7913680966
20
21.5101807627
30
0.0000000000
10
10.7288071742
20
21.5864144022
30
0.0000000000
10
10.6525735191
20
21.6489751821
30
0.0000000000
10
10.5655869563
20
21.6954547462
30
0.0000000000
10
10.4712428492
20
21.7240711535
30
0.0000000000
10
10.4057377278
20
21.7305110494
30
0.0000000000
10
10.3730755803
20
21.7305110494
30
0.0000000000
11
10.8729042428
21
21.2306823869
31
0.0000000000
11
10.8633048829
21
21.3281975927
31
0.0000000000
11
10.8348707194
21
21.4219675765
31
0.0000000000
11
10.7886878722
21
21.5083886185
31
0.0000000000
11
10.7265283545
21
21.5841356251
31
0.0000000000
11
10.6507813470
21
21.6462949894
31
0.0000000000
11
10.5643604668
21
21.6924776515
31
0.0000000000
11
10.4705906847
21
21.7209117097
31
0.0000000000
11
10.3730755803
21
21.7305110494
31
0.0000000000
0
SPLINE
5
3DD
100
AcDbEntity
8
0
100
AcDbSpline
62
7
6
CONTINUOUS
70
0
71
3
72
15
73
11
74
9
42
0.0000001000
43
0.0000001000
44
0.0000000001
12
0.0000000000
22
-0.7838926164
32
0.0000000000
13
0.7838926164
23
0.0000000000
33
0.0000000000
40
0.0000000000
40
0.0000000000
40
0.0000000000
40
0.0000000000
40
0.1249999597
40
0.2499995837
40
0.3750001213
40
0.5000004166
40
0.6250005886
40
0.7500008329
40
0.8750001718
40
1.0000000000
40
1.0000000000
40
1.0000000000
40
1.0000000000
10
-11.1270957572
20
-21.9696602882
30
0.0000000000
10
-11.1270957572
20
-22.0023224700
30
0.0000000000
10
-11.1206558438
20
-22.0678277008
30
0.0000000000
10
-11.0920393408
20
-22.1621719769
30
0.0000000000
10
-11.0455596110
20
-22.2491586640
30
0.0000000000
10
-10.9829986885
20
-22.3253923035
30
0.0000000000
10
-10.9067650335
20
-22.3879530834
30
0.0000000000
10
-10.8197784706
20
-22.4344326475
30
0.0000000000
10
-10.7254343635
20
-22.4630490548
30
0.0000000000
10
-10.6599292422
20
-22.4694889506
30
0.0000000000
10
-10.6272670947
20
-22.4694889506
30
0.0000000000
11
-11.1270957572
21
-21.9696602882
31
0.0000000000
11
-11.1174963973
21
-22.0671754940
31
0.0000000000
11
-11.0890622337
21
-22.1609454778
31
0.0000000000
11
-11.0428793865
21
-22.2473665198
31
0.0000000000
11
-10.9807198689
21
-22.3231135264
31
0.0000000000
11
-10.9049728614
21
-22.3852728907
31
0.0000000000
11
-10.8185519812
21
-22.4314555528
31
0.0000000000
11
-10.7247821990
21
-22.4598896110
31
0.0000000000
11
-10.6272670947
21
-22.4694889506
31
0.0000000000
0
SPLINE
5
3DE
100
AcDbEntity
8
0
100
AcDbSpline
62
7
6
CONTINUOUS
70
0
71
3
72
15
73
11
74
9
42
0.0000001000
43
0.0000001000
44
0.0000000001
12
-0.7838926164
22
0.0000000000
32
0.0000000000
13
0.0000000000
23
-0.7838926164
33
0.0000000000
40
0.0000000000
40
0.0000000000
40
0.0000000000
40
0.0000000000
40
0.1249999597
40
0.2499995837
40
0.3750001213
40
0.5000004166
40
0.6250005886
40
0.7500008329
40
0.8750001718
40
1.0000000000
40
1.0000000000
40
1.0000000000
40
1.0000000000
10
-10.6272670947
20
21.7305110494
30
0.0000000000
10
-10.6599292765
20
21.7305110494
30
0.0000000000
10
-10.7254345073
20
21.7240711359
30
0.0000000000
10
-10.8197787835
20
21.6954546329
30
0.0000000000
10
-10.9067654706
20
21.6489749032
30
0.0000000000
10
-10.9829991101
20
21.5864139807
30
0.0000000000
10
-11.0455598899
20
21.5101803257
30
0.0000000000
10
-11.0920394540
20
21.4231937628
30
0.0000000000
10
-11.1206558613
20
21.3288496557
30
0.0000000000
10
-11.1270957572
20
21.2633445343
30
0.0000000000
10
-11.1270957572
20
21.2306823869
30
0.0000000000
11
-10.6272670947
21
21.7305110494
31
0.0000000000
11
-10.7247823006
21
21.7209116895
31
0.0000000000
11
-10.8185522844
21
21.6924775259
31
0.0000000000
11
-10.9049733263
21
21.6462946787
31
0.0000000000
11
-10.9807203329
21
21.5841351610
31
0.0000000000
11
-11.0428796972
21
21.5083881535
31
0.0000000000
11
-11.0890623593
21
21.4219672733
31
0.0000000000
11
-11.1174964175
21
21.3281974912
31
0.0000000000
11
-11.1270957572
21
21.2306823869
31
0.0000000000
0
SPLINE
5
3DF
100
AcDbEntity
8
0
100
AcDbSpline
62
7
6
CONTINUOUS
70
0
71
3
72
11
73
7
74
5
42
0.0000001000
43
0.0000001000
44
0.0000000001
12
-0.3120682848
22
0.0000950518
32
0.0000000000
13
-0.0000950518
23
0.3120682848
33
0.0000000000
40
0.0000000000
40
0.0000000000
40
0.0000000000
40
0.0000000000
40
0.2499897029
40
0.5000000000
40
0.7500102971
40
1.0000000000
40
1.0000000000
40
1.0000000000
40
1.0000000000
10
-1.3218287721
20
-8.7141915046
30
0.0000000000
10
-1.3478333914
20
-8.7141835839
30
0.0000000000
10
-1.4004102066
20
-8.7037639667
30
0.0000000000
10
-1.4668654955
20
-8.6592586890
30
0.0000000000
10
-1.5113707733
20
-8.5928034001
30
0.0000000000
10
-1.5217903905
20
-8.5402265848
30
0.0000000000
10
-1.5217983111
20
-8.5142219656
30
0.0000000000
11
-1.3218287721
21
-8.7141915046
31
0.0000000000
11
-1.3983397371
21
-8.6989522522
31
0.0000000000
11
-1.4632070598
21
-8.6556002533
31
0.0000000000
11
-1.5065590587
21
-8.5907329305
31
0.0000000000
11
-1.5217983111
21
-8.5142219656
31
0.0000000000
0
SPLINE
5
3E0
100
AcDbEntity
8
0
100
AcDbSpline
62
7
6
CONTINUOUS
70
0
71
3
72
11
73
7
74
5
42
0.0000001000
43
0.0000001000
44
0.0000000001
12
-0.0000950518
22
-0.3120682848
32
0.0000000000
13
-0.3120682848
23
-0.0000950518
33
0.0000000000
40
0.0000000000
40
0.0000000000
40
0.0000000000
40
0.0000000000
40
0.2499897029
40
0.5000000000
40
0.7500102971
40
1.0000000000
40
1.0000000000
40
1.0000000000
40
1.0000000000
10
1.2676067968
20
-8.5142219656
30
0.0000000000
10
1.2675988761
20
-8.5402265848
30
0.0000000000
10
1.2571792589
20
-8.5928034001
30
0.0000000000
10
1.2126739811
20
-8.6592586890
30
0.0000000000
10
1.1462186923
20
-8.7037639667
30
0.0000000000
10
1.0936418770
20
-8.7141835839
30
0.0000000000
10
1.0676372577
20
-8.7141915046
30
0.0000000000
11
1.2676067968
21
-8.5142219656
31
0.0000000000
11
1.2523675444
21
-8.5907329305
31
0.0000000000
11
1.2090155455
21
-8.6556002533
31
0.0000000000
11
1.1441482227
21
-8.6989522522
31
0.0000000000
11
1.0676372577
21
-8.7141915046
31
0.0000000000
0
SPLINE
5
3E1
100
AcDbEntity
8
0
100
AcDbSpline
62
7
6
CONTINUOUS
70
0
71
3
72
9
73
5
74
3
42
0.0000001000
43
0.0000001000
44
0.0000000001
12
-0.0919288964
22
-0.3514740846
32
0.0000000000
13
-0.1017803667
23
-0.3487487793
33
0.0000000000
40
0.0000000000
40
0.0000000000
40
0.0000000000
40
0.0000000000
40
0.5001172353
40
1.0000000000
40
1.0000000000
40
1.0000000000
40
1.0000000000
10
7.7181956491
20
-16.8421649144
30
0.0000000000
10
7.7028705739
20
-16.9007576636
30
0.0000000000
10
7.6714037731
20
-17.0177017653
30
0.0000000000
10
7.6382949700
20
-17.1341916417
30
0.0000000000
10
7.6213355529
20
-17.1923028097
30
0.0000000000
11
7.7181956491
21
-16.8421649144
31
0.0000000000
11
7.6709857020
21
-17.0176155757
31
0.0000000000
11
7.6213355529
21
-17.1923028097
31
0.0000000000
0
SPLINE
5
3E2
100
AcDbEntity
8
0
100
AcDbSpline
62
7
6
CONTINUOUS
70
0
71
3
72
15
73
11
74
9
42
0.0000001000
43
0.0000001000
44
0.0000000001
12
-0.4716445287
22
0.0000000000
32
0.0000000000
13
0.0010311582
23
0.4716434015
33
0.0000000000
40
0.0000000000
40
0.0000000000
40
0.0000000000
40
0.0000000000
40
0.1255011181
40
0.2509685301
40
0.3762876207
40
0.5014055103
40
0.6262483767
40
0.7509092274
40
0.8754457646
40
1.0000000000
40
1.0000000000
40
1.0000000000
40
1.0000000000
10
-4.1234071744
20
18.1422714332
30
0.0000000000
10
-4.1431378130
20
18.1422714332
30
0.0000000000
10
-4.1827065957
20
18.1462197263
30
0.0000000000
10
-4.2395983223
20
18.1637539006
30
0.0000000000
10
-4.2918707052
20
18.1921597741
30
0.0000000000
10
-4.3374443427
20
18.2302319605
30
0.0000000000
10
-4.3746213489
20
18.2763983592
30
0.0000000000
10
-4.4020704289
20
18.3288305818
30
0.0000000000
10
-4.4188587584
20
18.3855079504
30
0.0000000000
10
-4.4225703458
20
18.4247824469
30
0.0000000000
10
-4.4225275341
20
18.4443641746
30
0.0000000000
11
-4.1234071744
21
18.1422714332
31
0.0000000000
11
-4.1823057218
21
18.1481573487
31
0.0000000000
11
-4.2388590565
21
18.1655792167
31
0.0000000000
11
-4.2907938247
21
18.1937981215
31
0.0000000000
11
-4.3360873886
21
18.2316241842
31
0.0000000000
11
-4.3730244248
21
18.2774791849
31
0.0000000000
11
-4.4003043094
21
18.3295630733
31
0.0000000000
11
-4.4169889354
21
18.3858805275
31
0.0000000000
11
-4.4225275341
21
18.4443641746
31
0.0000000000
0
SPLINE
5
3E3
100
AcDbEntity
8
0
100
AcDbSpline
62
9
6
CONTINUOUS
70
0
71
3
72
11
73
7
74
5
42
0.0000001000
43
0.0000001000
44
0.0000000001
12
0.0004277413
22
-0.4677311382
32
0.0000000000
13
0.4677311392
23
-0.0004266997
33
0.0000000000
40
0.0000000000
40
0.0000000000
40
0.0000000000
40
0.0000000000
40
0.2476762115
40
0.4984299497
40
0.7491094307
40
1.0000000000
40
1.0000000000
40
1.0000000000
40
1.0000000000
10
-4.4112948089
20
18.4780897545
30
0.0000000000
10
-4.4112594951
20
18.4394744624
30
0.0000000000
10
-4.3957716656
20
18.3609483877
30
0.0000000000
10
-4.3293295459
20
18.2613128282
30
0.0000000000
10
-4.2294996959
20
18.1942756804
30
0.0000000000
10
-4.1504569443
20
18.1785365791
30
0.0000000000
10
-4.1113405003
20
18.1785008941
30
0.0000000000
11
-4.4112948089
21
18.4780897545
31
0.0000000000
11
-4.3887756063
21
18.3644536520
31
0.0000000000
11
-4.3238054960
21
18.2668076319
31
0.0000000000
11
-4.2264086457
21
18.2015269456
31
0.0000000000
11
-4.1113405003
21
18.1785008941
31
0.0000000000
0
SPLINE
5
3E4
100
AcDbEntity
8
0
100
AcDbSpline
62
7
6
CONTINUOUS
70
0
71
3
72
15
73
11
74
9
42
0.0000001000
43
0.0000001000
44
0.0000000001
12
0.1665345102
22
0.2498334804
32
0.0000000000
13
0.3002507469
23
0.0000000000
33
0.0000000000
40
0.0000000000
40
0.0000000000
40
0.0000000000
40
0.0000000000
40
0.0226971995
40
0.0817295513
40
0.1751673400
40
0.2995574089
40
0.4502531456
40
0.6216043493
40
0.8071781839
40
1.0000000000
40
1.0000000000
40
1.0000000000
40
1.0000000000
10
-4.3903487310
20
20.1756577163
30
0.0000000000
10
-4.3890887753
20
20.1775478897
30
0.0000000000
10
-4.3790171169
20
20.1765269408
30
0.0000000000
10
-4.3632429802
20
20.1796080398
30
0.0000000000
10
-4.3346482132
20
20.1798546183
30
0.0000000000
10
-4.2981567288
20
20.1813641025
30
0.0000000000
10
-4.2533498063
20
20.1821364293
30
0.0000000000
10
-4.2025936685
20
20.1828694394
30
0.0000000000
10
-4.1475607813
20
20.1832781345
30
0.0000000000
10
-4.1096927205
20
20.1833763905
30
0.0000000000
10
-4.0903944224
20
20.1833763905
30
0.0000000000
11
-4.3903487310
21
20.1756577163
31
0.0000000000
11
-4.3837038942
21
20.1771704422
31
0.0000000000
11
-4.3660388590
21
20.1786212024
31
0.0000000000
11
-4.3380158422
21
20.1799555253
31
0.0000000000
11
-4.3006858911
21
20.1811232692
31
0.0000000000
11
-4.2554495110
21
20.1820805307
31
0.0000000000
11
-4.2040060936
21
20.1827912703
31
0.0000000000
11
-4.1482891284
21
20.1832287194
31
0.0000000000
11
-4.0903944224
21
20.1833763905
31
0.0000000000
0
SPLINE
5
3E5
100
AcDbEntity
8
0
100
AcDbSpline
62
9
6
CONTINUOUS
70
0
71
3
72
11
73
7
74
5
42
0.0000001000
43
0.0000001000
44
0.0000000001
12
0.0011417494
22
-0.4655636815
32
0.0000000000
13
0.4655637344
23
-0.0011199759
33
0.0000000000
40
0.0000000000
40
0.0000000000
40
0.0000000000
40
0.0000000000
40
0.2459689323
40
0.4965762997
40
0.7481032543
40
1.0000000000
40
1.0000000000
40
1.0000000000
40
1.0000000000
10
-4.3903487310
20
19.5599460723
30
0.0000000000
10
-4.3902551193
20
19.5217746718
30
0.0000000000
10
-4.3746839038
20
19.4439284784
30
0.0000000000
10
-4.3082244875
20
19.3451495199
30
0.0000000000
10
-4.2084153048
20
19.2786411199
30
0.0000000000
10
-4.1294857523
20
19.2629596911
30
0.0000000000
10
-4.0903944224
20
19.2628656517
30
0.0000000000
11
-4.3903487310
21
19.5599460723
31
0.0000000000
11
-4.3678262270
21
19.4476682113
31
0.0000000000
11
-4.3028616704
21
19.3507536208
31
0.0000000000
11
-4.2053956082
21
19.2858438044
31
0.0000000000
11
-4.0903944224
21
19.2628656517
31
0.0000000000
0
SPLINE
5
3E6
100
AcDbEntity
8
0
100
AcDbSpline
62
7
6
CONTINUOUS
70
0
71
3
72
13
73
9
74
7
42
0.0000001000
43
0.0000001000
44
0.0000000001
12
0.0087785027
22
-0.4372576228
32
0.0000000000
13
0.4373457337
23
0.0000000000
33
0.0000000000
40
0.0000000000
40
0.0000000000
40
0.0000000000
40
0.0000000000
40
0.1350293014
40
0.2783687957
40
0.4328900676
40
0.6026300576
40
0.7921310257
40
1.0000000000
40
1.0000000000
40
1.0000000000
40
1.0000000000
10
-4.4112948089
20
19.3912970707
30
0.0000000000
10
-4.4108996905
20
19.3716162069
30
0.0000000000
10
-4.4047220608
20
19.3309712123
30
0.0000000000
10
-4.3792485565
20
19.2724944052
30
0.0000000000
10
-4.3366557384
20
19.2183486665
30
0.0000000000
10
-4.2765631171
20
19.1722863425
30
0.0000000000
10
-4.1997437492
20
19.1397680436
30
0.0000000000
10
-4.1416440367
20
19.1305110494
30
0.0000000000
10
-4.1113405003
20
19.1305110494
30
0.0000000000
11
-4.4112948089
21
19.3912970707
31
0.0000000000
11
-4.4025057463
21
19.3329002811
31
0.0000000000
11
-4.3776824667
21
19.2753354913
31
0.0000000000
11
-4.3361364800
21
19.2220355679
31
0.0000000000
11
-4.2773914053
21
19.1766498830
31
0.0000000000
11
-4.2012600787
21
19.1438979189
31
0.0000000000
11
-4.1113405003
21
19.1305110494
31
0.0000000000
0
SPLINE
5
3E7
100
AcDbEntity
8
0
100
AcDbSpline
62
7
6
CONTINUOUS
70
0
71
3
72
15
73
11
74
9
42
0.0000001000
43
0.0000001000
44
0.0000000001
12
0.3002507471
22
0.0000000000
32
0.0000000000
13
0.1665345103
23
-0.2498334806
33
0.0000000000
40
0.0000000000
40
0.0000000000
40
0.0000000000
40
0.0000000000
40
0.1928223483
40
0.3783972418
40
0.5497493000
40
0.7004450434
40
0.8248343138
40
0.9182711278
40
0.9773029147
40
1.0000000000
40
1.0000000000
40
1.0000000000
40
1.0000000000
10
-3.9637970919
20
20.1833763905
30
0.0000000000
10
-3.9444987406
20
20.1833763905
30
0.0000000000
10
-3.9066305205
20
20.1832781339
30
0.0000000000
10
-3.8515973884
20
20.1828694353
30
0.0000000000
10
-3.8008410588
20
20.1821364187
30
0.0000000000
10
-3.7560341299
20
20.1813640862
30
0.0000000000
10
-3.7195428200
20
20.1798546033
30
0.0000000000
10
-3.6909482973
20
20.1796080159
30
0.0000000000
10
-3.6751743070
20
20.1765269456
30
0.0000000000
10
-3.6651027327
20
20.1775478802
30
0.0000000000
10
-3.6638427834
20
20.1756577163
30
0.0000000000
11
-3.9637970919
21
20.1833763905
31
0.0000000000
11
-3.9059022261
21
20.1832287186
31
0.0000000000
11
-3.8501849430
21
20.1827912652
31
0.0000000000
11
-3.7987412691
21
20.1820805180
31
0.0000000000
11
-3.7535048870
21
20.1811232502
31
0.0000000000
11
-3.7161751758
21
20.1799555063
31
0.0000000000
11
-3.6881524517
21
20.1786211900
31
0.0000000000
11
-3.6704875860
21
20.1771704380
31
0.0000000000
11
-3.6638427834
21
20.1756577163
31
0.0000000000
0
SPLINE
5
3E8
100
AcDbEntity
8
0
100
AcDbSpline
62
9
6
CONTINUOUS
70
0
71
3
72
11
73
7
74
5
42
0.0000001000
43
0.0000001000
44
0.0000000001
12
-0.0011417496
22
-0.4655637538
32
0.0000000000
13
-0.4655638067
23
-0.0011199761
33
0.0000000000
40
0.0000000000
40
0.0000000000
40
0.0000000000
40
0.0000000000
40
0.2488076262
40
0.4984314966
40
0.7489732830
40
1.0000000000
40
1.0000000000
40
1.0000000000
40
1.0000000000
10
-3.6638427834
20
19.5599460723
30
0.0000000000
10
-3.6639374754
20
19.5213341349
30
0.0000000000
10
-3.6797604372
20
19.4431727880
30
0.0000000000
10
-3.7466521755
20
19.3445609971
30
0.0000000000
10
-3.8462075279
20
19.2785264797
30
0.0000000000
10
-3.9248407739
20
19.2629593664
30
0.0000000000
10
-3.9637970919
20
19.2628656517
30
0.0000000000
11
-3.6638427834
21
19.5599460723
31
0.0000000000
11
-3.6868841947
21
19.4464246668
31
0.0000000000
11
-3.7519544831
21
19.3501331457
31
0.0000000000
11
-3.8491775064
21
19.2856863013
31
0.0000000000
11
-3.9637970919
21
19.2628656517
31
0.0000000000
0
SPLINE
5
3E9
100
AcDbEntity
8
0
100
AcDbSpline
62
7
6
CONTINUOUS
70
0
71
3
72
12
73
8
74
6
42
0.0000001000
43
0.0000001000
44
0.0000000001
12
-0.0088571749
22
-0.4411762881
32
0.0000000000
13
-0.4412651886
23
0.0000000000
33
0.0000000000
40
0.0000000000
40
0.0000000000
40
0.0000000000
40
0.0000000000
40
0.1598812826
40
0.3343516277
40
0.5279867522
40
0.7466640947
40
1.0000000000
40
1.0000000000
40
1.0000000000
40
1.0000000000
10
-3.6428967055
20
19.3912970707
30
0.0000000000
10
-3.6433687376
20
19.3677851271
30
0.0000000000
10
-3.6521701345
20
19.3184710250
30
0.0000000000
10
-3.6891832776
20
19.2488396861
30
0.0000000000
10
-3.7517769810
20
19.1874568656
30
0.0000000000
10
-3.8401161733
20
19.1421216599
30
0.0000000000
10
-3.9100959788
20
19.1305110494
30
0.0000000000
10
-3.9473587508
20
19.1305110494
30
0.0000000000
11
-3.6428967055
21
19.3912970707
31
0.0000000000
11
-3.6551330822
21
19.3218162832
31
0.0000000000
11
-3.6908639025
21
19.2536223475
31
0.0000000000
11
-3.7514735573
21
19.1933959245
31
0.0000000000
11
-3.8370916176
21
19.1488900301
31
0.0000000000
11
-3.9473587508
21
19.1305110494
31
0.0000000000
0
SPLINE
5
3EA
100
AcDbEntity
8
0
100
AcDbSpline
62
9
6
CONTINUOUS
70
0
71
3
72
11
73
7
74
5
42
0.0000001000
43
0.0000001000
44
0.0000000001
12
-0.0004277415
22
-0.4677313312
32
0.0000000000
13
-0.4677313322
23
-0.0004266999
33
0.0000000000
40
0.0000000000
40
0.0000000000
40
0.0000000000
40
0.0000000000
40
0.2498284583
40
0.4998010788
40
0.7498901823
40
1.0000000000
40
1.0000000000
40
1.0000000000
40
1.0000000000
10
-3.6428967055
20
18.4780897545
30
0.0000000000
10
-3.6429323261
20
18.4391388887
30
0.0000000000
10
-3.6586086864
20
18.3603777428
30
0.0000000000
10
-3.7253876835
20
18.2608502995
30
0.0000000000
10
-3.8250351481
20
18.1941804617
30
0.0000000000
10
-3.9038562813
20
18.1785364680
30
0.0000000000
10
-3.9428510140
20
18.1785008941
30
0.0000000000
11
-3.6428967055
21
18.4780897545
31
0.0000000000
11
-3.6658079513
21
18.3635052191
31
0.0000000000
11
-3.7308480868
21
18.2663451202
31
0.0000000000
11
-3.8281267047
21
18.2013842261
31
0.0000000000
11
-3.9428510140
21
18.1785008941
31
0.0000000000
0
SPLINE
5
3EB
100
AcDbEntity
8
0
100
AcDbSpline
62
7
6
CONTINUOUS
70
0
71
3
72
15
73
11
74
9
42
0.0000001000
43
0.0000001000
44
0.0000000001
12
0.0010311582
22
-0.4716434091
32
0.0000000000
13
-0.4716445363
23
0.0000000000
33
0.0000000000
40
0.0000000000
40
0.0000000000
40
0.0000000000
40
0.0000000000
40
0.1245707628
40
0.2491431266
40
0.3738408880
40
0.4986994259
40
0.6238019476
40
0.7490841050
40
0.8745155262
40
1.0000000000
40
1.0000000000
40
1.0000000000
40
1.0000000000
10
-3.6316639802
20
18.4443641746
30
0.0000000000
10
-3.6316211628
20
18.4247798482
30
0.0000000000
10
-3.6353340374
20
18.3854970762
30
0.0000000000
10
-3.6521294833
20
18.3288068637
30
0.0000000000
10
-3.6795909843
20
18.2763650915
30
0.0000000000
10
-3.7167788225
20
18.2301997242
30
0.0000000000
10
-3.7623538105
20
18.1921383433
30
0.0000000000
10
-3.8146169205
20
18.1637451668
30
0.0000000000
10
-3.8714958537
20
18.1462183713
30
0.0000000000
10
-3.9110563178
20
18.1422714332
30
0.0000000000
10
-3.9307843399
20
18.1422714332
30
0.0000000000
11
-3.6316639802
21
18.4443641746
31
0.0000000000
11
-3.6372040669
21
18.3858728376
31
0.0000000000
11
-3.6538965252
21
18.3295400795
31
0.0000000000
11
-3.6811902778
21
18.2774438019
31
0.0000000000
11
-3.7181389735
21
18.2315887017
31
0.0000000000
11
-3.7634328004
21
18.1937742611
31
0.0000000000
11
-3.8153554511
21
18.1655695396
31
0.0000000000
11
-3.8718935249
21
18.1481557876
31
0.0000000000
11
-3.9307843399
21
18.1422714332
31
0.0000000000
0
SPLINE
5
3EC
100
AcDbEntity
8
0
100
AcDbSpline
62
7
6
CONTINUOUS
70
0
71
3
72
15
73
11
74
9
42
0.0000001000
43
0.0000001000
44
0.0000000001
12
0.3002507471
22
0.0000000000
32
0.0000000000
13
0.1665345103
23
-0.2498334806
33
0.0000000000
40
0.0000000000
40
0.0000000000
40
0.0000000000
40
0.0000000000
40
0.1928223483
40
0.3783972418
40
0.5497493000
40
0.7004450434
40
0.8248343138
40
0.9182711278
40
0.9773029147
40
1.0000000000
40
1.0000000000
40
1.0000000000
40
1.0000000000
10
3.8362029081
20
20.1833763905
30
0.0000000000
10
3.8555012594
20
20.1833763905
30
0.0000000000
10
3.8933694795
20
20.1832781339
30
0.0000000000
10
3.9484026116
20
20.1828694353
30
0.0000000000
10
3.9991589412
20
20.1821364187
30
0.0000000000
10
4.0439658701
20
20.1813640862
30
0.0000000000
10
4.0804571800
20
20.1798546033
30
0.0000000000
10
4.1090517027
20
20.1796080159
30
0.0000000000
10
4.1248256930
20
20.1765269456
30
0.0000000000
10
4.1348972673
20
20.1775478802
30
0.0000000000
10
4.1361572166
20
20.1756577163
30
0.0000000000
11
3.8362029081
21
20.1833763905
31
0.0000000000
11
3.8940977739
21
20.1832287186
31
0.0000000000
11
3.9498150570
21
20.1827912652
31
0.0000000000
11
4.0012587309
21
20.1820805180
31
0.0000000000
11
4.0464951130
21
20.1811232502
31
0.0000000000
11
4.0838248242
21
20.1799555063
31
0.0000000000
11
4.1118475483
21
20.1786211900
31
0.0000000000
11
4.1295124140
21
20.1771704380
31
0.0000000000
11
4.1361572166
21
20.1756577163
31
0.0000000000
0
SPLINE
5
3ED
100
AcDbEntity
8
0
100
AcDbSpline
62
9
6
CONTINUOUS
70
0
71
3
72
11
73
7
74
5
42
0.0000001000
43
0.0000001000
44
0.0000000001
12
-0.0011417496
22
-0.4655637538
32
0.0000000000
13
-0.4655638067
23
-0.0011199761
33
0.0000000000
40
0.0000000000
40
0.0000000000
40
0.0000000000
40
0.0000000000
40
0.2488076262
40
0.4984314966
40
0.7489732830
40
1.0000000000
40
1.0000000000
40
1.0000000000
40
1.0000000000
10
4.1361572166
20
19.5599460723
30
0.0000000000
10
4.1360625246
20
19.5213341349
30
0.0000000000
10
4.1202395628
20
19.4431727880
30
0.0000000000
10
4.0533478245
20
19.3445609971
30
0.0000000000
10
3.9537924721
20
19.2785264797
30
0.0000000000
10
3.8751592261
20
19.2629593664
30
0.0000000000
10
3.8362029081
20
19.2628656517
30
0.0000000000
11
4.1361572166
21
19.5599460723
31
0.0000000000
11
4.1131158053
21
19.4464246668
31
0.0000000000
11
4.0480455169
21
19.3501331457
31
0.0000000000
11
3.9508224936
21
19.2856863013
31
0.0000000000
11
3.8362029081
21
19.2628656517
31
0.0000000000
0
SPLINE
5
3EE
100
AcDbEntity
8
0
100
AcDbSpline
62
7
6
CONTINUOUS
70
0
71
3
72
13
73
9
74
7
42
0.0000001000
43
0.0000001000
44
0.0000000001
12
-0.0087785027
22
-0.4372576228
32
0.0000000000
13
-0.4373457337
23
0.0000000000
33
0.0000000000
40
0.0000000000
40
0.0000000000
40
0.0000000000
40
0.0000000000
40
0.1350293014
40
0.2783687957
40
0.4328900676
40
0.6026300576
40
0.7921310257
40
1.0000000000
40
1.0000000000
40
1.0000000000
40
1.0000000000
10
4.1571032945
20
19.3912970707
30
0.0000000000
10
4.1567081762
20
19.3716162069
30
0.0000000000
10
4.1505305465
20
19.3309712123
30
0.0000000000
10
4.1250570422
20
19.2724944052
30
0.0000000000
10
4.0824642240
20
19.2183486665
30
0.0000000000
10
4.0223716028
20
19.1722863425
30
0.0000000000
10
3.9455522349
20
19.1397680436
30
0.0000000000
10
3.8874525223
20
19.1305110494
30
0.0000000000
10
3.8571489860
20
19.1305110494
30
0.0000000000
11
4.1571032945
21
19.3912970707
31
0.0000000000
11
4.1483142319
21
19.3329002811
31
0.0000000000
11
4.1234909524
21
19.2753354913
31
0.0000000000
11
4.0819449657
21
19.2220355679
31
0.0000000000
11
4.0231998910
21
19.1766498830
31
0.0000000000
11
3.9470685643
21
19.1438979189
31
0.0000000000
11
3.8571489860
21
19.1305110494
31
0.0000000000
0
SPLINE
5
3EF
100
AcDbEntity
8
0
100
AcDbSpline
62
7
6
CONTINUOUS
70
0
71
3
72
12
73
8
74
6
42
0.0000001000
43
0.0000001000
44
0.0000000001
12
-0.0659199772
22
-4.8684071397
32
0.0000000000
13
0.0659199772
23
-4.8684071397
33
0.0000000000
40
0.0000000000
40
0.0000000000
40
0.0000000000
40
0.0000000000
40
0.1924221599
40
0.3961708134
40
0.6036879607
40
0.8074320195
40
1.0000000000
40
1.0000000000
40
1.0000000000
40
1.0000000000
10
9.5705735085
20
2.0648732522
30
0.0000000000
10
9.5663453537
20
1.7526101132
30
0.0000000000
10
9.5597261371
20
1.1096739978
30
0.0000000000
10
9.5548559009
20
0.1299261873
30
0.0000000000
10
9.5548542231
20
-0.8682090204
30
0.0000000000
10
9.5597221012
20
-1.8481860467
30
0.0000000000
10
9.5663421495
20
-2.4913513764
30
0.0000000000
10
9.5705735085
20
-2.8038511535
30
0.0000000000
11
9.5705735085
21
2.0648732522
31
0.0000000000
11
9.5607229260
21
1.1280497504
31
0.0000000000
11
9.5557003652
21
0.1360401385
31
0.0000000000
11
9.5556986411
21
-0.8743304313
31
0.0000000000
11
9.5607174513
21
-1.8663176907
31
0.0000000000
11
9.5705735085
21
-2.8038511535
31
0.0000000000
0
SPLINE
5
3F0
100
AcDbEntity
8
0
100
AcDbSpline
62
7
6
CONTINUOUS
70
0
71
3
72
12
73
8
74
6
42
0.0000001000
43
0.0000001000
44
0.0000000001
12
0.0659199772
22
4.8684071397
32
0.0000000000
13
-0.0659199772
23
4.8684071397
33
0.0000000000
40
0.0000000000
40
0.0000000000
40
0.0000000000
40
0.0000000000
40
0.1925679805
40
0.3963120393
40
0.6038291866
40
0.8075778401
40
1.0000000000
40
1.0000000000
40
1.0000000000
40
1.0000000000
10
-9.8247650228
20
-2.8038511535
30
0.0000000000
10
-9.8205336638
20
-2.4913513764
30
0.0000000000
10
-9.8139136156
20
-1.8481860467
30
0.0000000000
10
-9.8090457374
20
-0.8682090204
30
0.0000000000
10
-9.8090474152
20
0.1299261873
30
0.0000000000
10
-9.8139176515
20
1.1096739978
30
0.0000000000
10
-9.8205368680
20
1.7526101132
30
0.0000000000
10
-9.8247650228
20
2.0648732522
30
0.0000000000
11
-9.8247650228
21
-2.8038511535
31
0.0000000000
11
-9.8149089656
21
-1.8663176907
31
0.0000000000
11
-9.8098901554
21
-0.8743304313
31
0.0000000000
11
-9.8098918795
21
0.1360401385
31
0.0000000000
11
-9.8149144403
21
1.1280497504
31
0.0000000000
11
-9.8247650228
21
2.0648732522
31
0.0000000000
0
SPLINE
5
3F1
100
AcDbEntity
8
0
100
AcDbSpline
62
7
6
CONTINUOUS
70
0
71
3
72
10
73
6
74
4
42
0.0000001000
43
0.0000001000
44
0.0000000001
12
-0.0031436317
22
1.4378716860
32
0.0000000000
13
-0.0035614332
23
1.4378707119
33
0.0000000000
40
0.0000000000
40
0.0000000000
40
0.0000000000
40
0.0000000000
40
0.3335743036
40
0.6669112520
40
1.0000000000
40
1.0000000000
40
1.0000000000
40
1.0000000000
10
-3.6316639802
20
18.4443641746
30
0.0000000000
10
-3.6320135251
20
18.6042431901
30
0.0000000000
10
-3.6327278075
20
18.9238874253
30
0.0000000000
10
-3.6338452254
20
19.4031778309
30
0.0000000000
10
-3.6346208601
20
19.7225891997
30
0.0000000000
10
-3.6350162846
20
19.8822353847
30
0.0000000000
11
-3.6316639802
21
18.4443641746
31
0.0000000000
11
-3.6327358013
21
18.9240011697
31
0.0000000000
11
-3.6338532482
21
19.4032967725
31
0.0000000000
11
-3.6350162846
21
19.8822353847
31
0.0000000000
0
SPLINE
5
3F2
100
AcDbEntity
8
0
100
AcDbSpline
62
7
6
CONTINUOUS
70
0
71
3
72
10
73
6
74
4
42
0.0000001000
43
0.0000001000
44
0.0000000001
12
0.0031436317
22
1.4378716860
32
0.0000000000
13
0.0035614332
23
1.4378707119
33
0.0000000000
40
0.0000000000
40
0.0000000000
40
0.0000000000
40
0.0000000000
40
0.3335743036
40
0.6669112520
40
1.0000000000
40
1.0000000000
40
1.0000000000
40
1.0000000000
10
-4.4225275341
20
18.4443641746
30
0.0000000000
10
-4.4221779892
20
18.6042431901
30
0.0000000000
10
-4.4214637069
20
18.9238874253
30
0.0000000000
10
-4.4203462889
20
19.4031778309
30
0.0000000000
10
-4.4195706542
20
19.7225891997
30
0.0000000000
10
-4.4191752298
20
19.8822353847
30
0.0000000000
11
-4.4225275341
21
18.4443641746
31
0.0000000000
11
-4.4214557131
21
18.9240011697
31
0.0000000000
11
-4.4203382662
21
19.4032967725
31
0.0000000000
11
-4.4191752298
21
19.8822353847
31
0.0000000000
0
SPLINE
5
3F3
100
AcDbEntity
8
0
100
AcDbSpline
62
7
6
CONTINUOUS
70
0
71
3
72
10
73
6
74
4
42
0.0000001000
43
0.0000001000
44
0.0000000001
12
0.0031436317
22
1.4378716860
32
0.0000000000
13
0.0035614332
23
1.4378707119
33
0.0000000000
40
0.0000000000
40
0.0000000000
40
0.0000000000
40
0.0000000000
40
0.3335743036
40
0.6669112520
40
1.0000000000
40
1.0000000000
40
1.0000000000
40
1.0000000000
10
3.3774724659
20
18.4443641746
30
0.0000000000
10
3.3778220108
20
18.6042431901
30
0.0000000000
10
3.3785362931
20
18.9238874253
30
0.0000000000
10
3.3796537111
20
19.4031778309
30
0.0000000000
10
3.3804293458
20
19.7225891997
30
0.0000000000
10
3.3808247702
20
19.8822353847
30
0.0000000000
11
3.3774724659
21
18.4443641746
31
0.0000000000
11
3.3785442869
21
18.9240011697
31
0.0000000000
11
3.3796617338
21
19.4032967725
31
0.0000000000
11
3.3808247702
21
19.8822353847
31
0.0000000000
0
SPLINE
5
3F4
100
AcDbEntity
8
0
100
AcDbSpline
62
7
6
CONTINUOUS
70
0
71
3
72
10
73
6
74
4
42
0.0000001000
43
0.0000001000
44
0.0000000001
12
-0.0031436317
22
1.4378716860
32
0.0000000000
13
-0.0035614332
23
1.4378707119
33
0.0000000000
40
0.0000000000
40
0.0000000000
40
0.0000000000
40
0.0000000000
40
0.3335743036
40
0.6669112520
40
1.0000000000
40
1.0000000000
40
1.0000000000
40
1.0000000000
10
4.1683360198
20
18.4443641746
30
0.0000000000
10
4.1679864749
20
18.6042431901
30
0.0000000000
10
4.1672721925
20
18.9238874253
30
0.0000000000
10
4.1661547746
20
19.4031778309
30
0.0000000000
10
4.1653791399
20
19.7225891997
30
0.0000000000
10
4.1649837154
20
19.8822353847
30
0.0000000000
11
4.1683360198
21
18.4443641746
31
0.0000000000
11
4.1672641987
21
18.9240011697
31
0.0000000000
11
4.1661467518
21
19.4032967725
31
0.0000000000
11
4.1649837154
21
19.8822353847
31
0.0000000000
0
SPLINE
5
3F5
100
AcDbEntity
8
0
100
AcDbSpline
62
9
6
CONTINUOUS
70
0
71
3
72
11
73
7
74
5
42
0.0000001000
43
0.0000001000
44
0.0000000001
12
-0.0004277415
22
-0.4677313312
32
0.0000000000
13
-0.4677313322
23
-0.0004266999
33
0.0000000000
40
0.0000000000
40
0.0000000000
40
0.0000000000
40
0.0000000000
40
0.2498284583
40
0.4998010788
40
0.7498901823
40
1.0000000000
40
1.0000000000
40
1.0000000000
40
1.0000000000
10
4.1571032945
20
18.4780897545
30
0.0000000000
10
4.1570676739
20
18.4391388887
30
0.0000000000
10
4.1413913136
20
18.3603777428
30
0.0000000000
10
4.0746123165
20
18.2608502995
30
0.0000000000
10
3.9749648519
20
18.1941804617
30
0.0000000000
10
3.8961437187
20
18.1785364680
30
0.0000000000
10
3.8571489860
20
18.1785008941
30
0.0000000000
11
4.1571032945
21
18.4780897545
31
0.0000000000
11
4.1341920487
21
18.3635052191
31
0.0000000000
11
4.0691519132
21
18.2663451202
31
0.0000000000
11
3.9718732953
21
18.2013842261
31
0.0000000000
11
3.8571489860
21
18.1785008941
31
0.0000000000
0
SPLINE
5
3F6
100
AcDbEntity
8
0
100
AcDbSpline
62
7
6
CONTINUOUS
70
0
71
3
72
15
73
11
74
9
42
0.0000001000
43
0.0000001000
44
0.0000000001
12
0.0010311582
22
-0.4716434091
32
0.0000000000
13
-0.4716445363
23
0.0000000000
33
0.0000000000
40
0.0000000000
40
0.0000000000
40
0.0000000000
40
0.0000000000
40
0.1245707628
40
0.2491431266
40
0.3738408880
40
0.4986994259
40
0.6238019476
40
0.7490841050
40
0.8745155262
40
1.0000000000
40
1.0000000000
40
1.0000000000
40
1.0000000000
10
4.1683360198
20
18.4443641746
30
0.0000000000
10
4.1683788372
20
18.4247798482
30
0.0000000000
10
4.1646659626
20
18.3854970762
30
0.0000000000
10
4.1478705167
20
18.3288068637
30
0.0000000000
10
4.1204090157
20
18.2763650915
30
0.0000000000
10
4.0832211775
20
18.2301997242
30
0.0000000000
10
4.0376461895
20
18.1921383433
30
0.0000000000
10
3.9853830795
20
18.1637451668
30
0.0000000000
10
3.9285041463
20
18.1462183713
30
0.0000000000
10
3.8889436822
20
18.1422714332
30
0.0000000000
10
3.8692156601
20
18.1422714332
30
0.0000000000
11
4.1683360198
21
18.4443641746
31
0.0000000000
11
4.1627959331
21
18.3858728376
31
0.0000000000
11
4.1461034748
21
18.3295400795
31
0.0000000000
11
4.1188097222
21
18.2774438019
31
0.0000000000
11
4.0818610265
21
18.2315887017
31
0.0000000000
11
4.0365671996
21
18.1937742611
31
0.0000000000
11
3.9846445489
21
18.1655695396
31
0.0000000000
11
3.9281064751
21
18.1481557876
31
0.0000000000
11
3.8692156601
21
18.1422714332
31
0.0000000000
0
SPLINE
5
3F7
100
AcDbEntity
8
0
100
AcDbSpline
62
7
6
CONTINUOUS
70
0
71
3
72
15
73
11
74
9
42
0.0000001000
43
0.0000001000
44
0.0000000001
12
-0.4716445287
22
0.0000000000
32
0.0000000000
13
0.0010311582
23
0.4716434015
33
0.0000000000
40
0.0000000000
40
0.0000000000
40
0.0000000000
40
0.0000000000
40
0.1255011181
40
0.2509685301
40
0.3762876207
40
0.5014055103
40
0.6262483767
40
0.7509092274
40
0.8754457646
40
1.0000000000
40
1.0000000000
40
1.0000000000
40
1.0000000000
10
3.6765928256
20
18.1422714332
30
0.0000000000
10
3.6568621870
20
18.1422714332
30
0.0000000000
10
3.6172934043
20
18.1462197263
30
0.0000000000
10
3.5604016777
20
18.1637539006
30
0.0000000000
10
3.5081292948
20
18.1921597741
30
0.0000000000
10
3.4625556573
20
18.2302319605
30
0.0000000000
10
3.4253786511
20
18.2763983592
30
0.0000000000
10
3.3979295711
20
18.3288305818
30
0.0000000000
10
3.3811412416
20
18.3855079504
30
0.0000000000
10
3.3774296542
20
18.4247824469
30
0.0000000000
10
3.3774724659
20
18.4443641746
30
0.0000000000
11
3.6765928256
21
18.1422714332
31
0.0000000000
11
3.6176942782
21
18.1481573487
31
0.0000000000
11
3.5611409435
21
18.1655792167
31
0.0000000000
11
3.5092061753
21
18.1937981215
31
0.0000000000
11
3.4639126114
21
18.2316241842
31
0.0000000000
11
3.4269755752
21
18.2774791849
31
0.0000000000
11
3.3996956906
21
18.3295630733
31
0.0000000000
11
3.3830110646
21
18.3858805275
31
0.0000000000
11
3.3774724659
21
18.4443641746
31
0.0000000000
0
SPLINE
5
3F8
100
AcDbEntity
8
0
100
AcDbSpline
62
9
6
CONTINUOUS
70
0
71
3
72
11
73
7
74
5
42
0.0000001000
43
0.0000001000
44
0.0000000001
12
0.0004277413
22
-0.4677311382
32
0.0000000000
13
0.4677311392
23
-0.0004266997
33
0.0000000000
40
0.0000000000
40
0.0000000000
40
0.0000000000
40
0.0000000000
40
0.2476762115
40
0.4984299497
40
0.7491094307
40
1.0000000000
40
1.0000000000
40
1.0000000000
40
1.0000000000
10
3.3887051911
20
18.4780897545
30
0.0000000000
10
3.3887405049
20
18.4394744624
30
0.0000000000
10
3.4042283344
20
18.3609483877
30
0.0000000000
10
3.4706704541
20
18.2613128282
30
0.0000000000
10
3.5705003041
20
18.1942756804
30
0.0000000000
10
3.6495430557
20
18.1785365791
30
0.0000000000
10
3.6886594997
20
18.1785008941
30
0.0000000000
11
3.3887051911
21
18.4780897545
31
0.0000000000
11
3.4112243937
21
18.3644536520
31
0.0000000000
11
3.4761945040
21
18.2668076319
31
0.0000000000
11
3.5735913543
21
18.2015269456
31
0.0000000000
11
3.6886594997
21
18.1785008941
31
0.0000000000
0
SPLINE
5
3F9
100
AcDbEntity
8
0
100
AcDbSpline
62
7
6
CONTINUOUS
70
0
71
3
72
15
73
11
74
9
42
0.0000001000
43
0.0000001000
44
0.0000000001
12
0.1665345102
22
0.2498334804
32
0.0000000000
13
0.3002507469
23
0.0000000000
33
0.0000000000
40
0.0000000000
40
0.0000000000
40
0.0000000000
40
0.0000000000
40
0.0226971995
40
0.0817295513
40
0.1751673400
40
0.2995574089
40
0.4502531456
40
0.6216043493
40
0.8071781839
40
1.0000000000
40
1.0000000000
40
1.0000000000
40
1.0000000000
10
3.4096512690
20
20.1756577163
30
0.0000000000
10
3.4109112247
20
20.1775478897
30
0.0000000000
10
3.4209828831
20
20.1765269408
30
0.0000000000
10
3.4367570198
20
20.1796080398
30
0.0000000000
10
3.4653517868
20
20.1798546183
30
0.0000000000
10
3.5018432712
20
20.1813641025
30
0.0000000000
10
3.5466501937
20
20.1821364293
30
0.0000000000
10
3.5974063315
20
20.1828694394
30
0.0000000000
10
3.6524392187
20
20.1832781345
30
0.0000000000
10
3.6903072795
20
20.1833763905
30
0.0000000000
10
3.7096055776
20
20.1833763905
30
0.0000000000
11
3.4096512690
21
20.1756577163
31
0.0000000000
11
3.4162961058
21
20.1771704422
31
0.0000000000
11
3.4339611410
21
20.1786212024
31
0.0000000000
11
3.4619841578
21
20.1799555253
31
0.0000000000
11
3.4993141089
21
20.1811232692
31
0.0000000000
11
3.5445504890
21
20.1820805307
31
0.0000000000
11
3.5959939064
21
20.1827912703
31
0.0000000000
11
3.6517108716
21
20.1832287194
31
0.0000000000
11
3.7096055776
21
20.1833763905
31
0.0000000000
0
SPLINE
5
3FA
100
AcDbEntity
8
0
100
AcDbSpline
62
7
6
CONTINUOUS
70
0
71
3
72
10
73
6
74
4
42
0.0000001000
43
0.0000001000
44
0.0000000001
12
-0.1017808330
22
0.3487503771
32
0.0000000000
13
-0.0919293176
23
0.3514756948
33
0.0000000000
40
0.0000000000
40
0.0000000000
40
0.0000000000
40
0.0000000000
40
0.3332268913
40
0.6665657786
40
1.0000000000
40
1.0000000000
40
1.0000000000
40
1.0000000000
10
-7.8755270673
20
-17.1923028097
30
0.0000000000
10
-7.8868324375
20
-17.1535651417
30
0.0000000000
10
-7.9090834753
20
-17.0759701456
30
0.0000000000
10
-7.9413715040
20
-16.9592525400
30
0.0000000000
10
-7.9621697033
20
-16.8812295893
30
0.0000000000
10
-7.9723871634
20
-16.8421649144
30
0.0000000000
11
-7.8755270673
21
-17.1923028097
31
0.0000000000
11
-7.9088975622
21
-17.0759319589
31
0.0000000000
11
-7.9411858306
21
-16.9592139839
31
0.0000000000
11
-7.9723871634
21
-16.8421649144
31
0.0000000000
0
SPLINE
5
3FB
100
AcDbEntity
8
0
100
AcDbSpline
62
9
6
CONTINUOUS
70
0
71
3
72
11
73
7
74
5
42
0.0000001000
43
0.0000001000
44
0.0000000001
12
0.0011417494
22
-0.4655636815
32
0.0000000000
13
0.4655637344
23
-0.0011199759
33
0.0000000000
40
0.0000000000
40
0.0000000000
40
0.0000000000
40
0.0000000000
40
0.2459689323
40
0.4965762997
40
0.7481032543
40
1.0000000000
40
1.0000000000
40
1.0000000000
40
1.0000000000
10
3.4096512690
20
19.5599460723
30
0.0000000000
10
3.4097448807
20
19.5217746718
30
0.0000000000
10
3.4253160962
20
19.4439284784
30
0.0000000000
10
3.4917755125
20
19.3451495199
30
0.0000000000
10
3.5915846952
20
19.2786411199
30
0.0000000000
10
3.6705142477
20
19.2629596911
30
0.0000000000
10
3.7096055776
20
19.2628656517
30
0.0000000000
11
3.4096512690
21
19.5599460723
31
0.0000000000
11
3.4321737730
21
19.4476682113
31
0.0000000000
11
3.4971383296
21
19.3507536208
31
0.0000000000
11
3.5946043918
21
19.2858438044
31
0.0000000000
11
3.7096055776
21
19.2628656517
31
0.0000000000
0
SPLINE
5
3FC
100
AcDbEntity
8
0
100
AcDbSpline
62
7
6
CONTINUOUS
70
0
71
3
72
12
73
8
74
6
42
0.0000001000
43
0.0000001000
44
0.0000000001
12
0.0088571749
22
-0.4411762881
32
0.0000000000
13
0.4412651886
23
0.0000000000
33
0.0000000000
40
0.0000000000
40
0.0000000000
40
0.0000000000
40
0.0000000000
40
0.1598812826
40
0.3343516277
40
0.5279867522
40
0.7466640947
40
1.0000000000
40
1.0000000000
40
1.0000000000
40
1.0000000000
10
3.3887051911
20
19.3912970707
30
0.0000000000
10
3.3891772233
20
19.3677851271
30
0.0000000000
10
3.3979786202
20
19.3184710250
30
0.0000000000
10
3.4349917633
20
19.2488396861
30
0.0000000000
10
3.4975854667
20
19.1874568656
30
0.0000000000
10
3.5859246590
20
19.1421216599
30
0.0000000000
10
3.6559044645
20
19.1305110494
30
0.0000000000
10
3.6931672365
20
19.1305110494
30
0.0000000000
11
3.3887051911
21
19.3912970707
31
0.0000000000
11
3.4009415679
21
19.3218162832
31
0.0000000000
11
3.4366723882
21
19.2536223475
31
0.0000000000
11
3.4972820429
21
19.1933959245
31
0.0000000000
11
3.5829001033
21
19.1488900301
31
0.0000000000
11
3.6931672365
21
19.1305110494
31
0.0000000000
0
SPLINE
5
3FD
100
AcDbEntity
8
0
100
AcDbSpline
62
7
6
CONTINUOUS
70
0
71
3
72
15
73
11
74
9
42
0.0000001000
43
0.0000001000
44
0.0000000001
12
0.4703355698
22
0.0000000000
32
0.0000000000
13
-0.0000000000
23
-0.4703355698
33
0.0000000000
40
0.0000000000
40
0.0000000000
40
0.0000000000
40
0.0000000000
40
0.1249999577
40
0.2499995774
40
0.3750001105
40
0.5000004040
40
0.6250005779
40
0.7500008266
40
0.8750001698
40
1.0000000000
40
1.0000000000
40
1.0000000000
40
1.0000000000
10
9.3730070453
20
20.2305110494
30
0.0000000000
10
9.3926043541
20
20.2305110494
30
0.0000000000
10
9.4319074916
20
20.2266471015
30
0.0000000000
10
9.4885140558
20
20.2094772005
30
0.0000000000
10
9.5407060669
20
20.1815893642
30
0.0000000000
10
9.5864462507
20
20.1440528120
30
0.0000000000
10
9.6239827200
20
20.0983126191
30
0.0000000000
10
9.6518704599
20
20.0461206803
30
0.0000000000
10
9.6690403051
20
19.9895142145
30
0.0000000000
10
9.6729042428
20
19.9502111407
30
0.0000000000
10
9.6729042428
20
19.9306138519
30
0.0000000000
11
9.3730070453
21
20.2305110494
31
0.0000000000
11
9.4315161679
21
20.2247514336
31
0.0000000000
11
9.4877781564
21
20.2076909364
31
0.0000000000
11
9.5396307801
21
20.1799812298
31
0.0000000000
11
9.5850789841
21
20.1426855206
31
0.0000000000
11
9.6223746040
21
20.0972373161
31
0.0000000000
11
9.6500842030
21
20.0453847865
31
0.0000000000
11
9.6671446388
21
19.9891229154
31
0.0000000000
11
9.6729042428
21
19.9306138519
31
0.0000000000
0
SPLINE
5
3FE
100
AcDbEntity
8
0
100
AcDbSpline
62
7
6
CONTINUOUS
70
0
71
3
72
15
73
11
74
9
42
0.0000001000
43
0.0000001000
44
0.0000000001
12
0.0000000000
22
-0.4703355698
32
0.0000000000
13
-0.4703355698
23
0.0000000000
33
0.0000000000
40
0.0000000000
40
0.0000000000
40
0.0000000000
40
0.0000000000
40
0.1249999577
40
0.2499995774
40
0.3750001105
40
0.5000004040
40
0.6250005779
40
0.7500008266
40
0.8750001698
40
1.0000000000
40
1.0000000000
40
1.0000000000
40
1.0000000000
10
9.6729042428
20
-20.6695917532
30
0.0000000000
10
9.6729042428
20
-20.6891890619
30
0.0000000000
10
9.6690402949
20
-20.7284921994
30
0.0000000000
10
9.6518703940
20
-20.7850987636
30
0.0000000000
10
9.6239825576
20
-20.8372907747
30
0.0000000000
10
9.5864460055
20
-20.8830309585
30
0.0000000000
10
9.5407058126
20
-20.9205674278
30
0.0000000000
10
9.4885138737
20
-20.9484551677
30
0.0000000000
10
9.4319074079
20
-20.9656250130
30
0.0000000000
10
9.3926043341
20
-20.9694889506
30
0.0000000000
10
9.3730070453
20
-20.9694889506
30
0.0000000000
11
9.6729042428
21
-20.6695917532
31
0.0000000000
11
9.6671446271
21
-20.7281008758
31
0.0000000000
11
9.6500841299
21
-20.7843628642
31
0.0000000000
11
9.6223744233
21
-20.8362154879
31
0.0000000000
11
9.5850787141
21
-20.8816636919
31
0.0000000000
11
9.5396305096
21
-20.9189593118
31
0.0000000000
11
9.4877779800
21
-20.9466689108
31
0.0000000000
11
9.4315161089
21
-20.9637293467
31
0.0000000000
11
9.3730070453
21
-20.9694889506
31
0.0000000000
0
SPLINE
5
3FF
100
AcDbEntity
8
0
100
AcDbSpline
62
7
6
CONTINUOUS
70
0
71
3
72
15
73
11
74
9
42
0.0000001000
43
0.0000001000
44
0.0000000001
12
-0.4703355698
22
0.0000000000
32
0.0000000000
13
0.0000000000
23
0.4703355698
33
0.0000000000
40
0.0000000000
40
0.0000000000
40
0.0000000000
40
0.0000000000
40
0.1249999577
40
0.2499995774
40
0.3750001105
40
0.5000004040
40
0.6250005779
40
0.7500008266
40
0.8750001698
40
1.0000000000
40
1.0000000000
40
1.0000000000
40
1.0000000000
10
-9.6271985597
20
-20.9694889506
30
0.0000000000
10
-9.6467958685
20
-20.9694889506
30
0.0000000000
10
-9.6860990059
20
-20.9656250028
30
0.0000000000
10
-9.7427055701
20
-20.9484551018
30
0.0000000000
10
-9.7948975812
20
-20.9205672655
30
0.0000000000
10
-9.8406377651
20
-20.8830307133
30
0.0000000000
10
-9.8781742343
20
-20.8372905204
30
0.0000000000
10
-9.9060619743
20
-20.7850985816
30
0.0000000000
10
-9.9232318195
20
-20.7284921158
30
0.0000000000
10
-9.9270957572
20
-20.6891890419
30
0.0000000000
10
-9.9270957572
20
-20.6695917532
30
0.0000000000
11
-9.6271985597
21
-20.9694889506
31
0.0000000000
11
-9.6857076823
21
-20.9637293349
31
0.0000000000
11
-9.7419696707
21
-20.9466688377
31
0.0000000000
11
-9.7938222944
21
-20.9189591311
31
0.0000000000
11
-9.8392704984
21
-20.8816634219
31
0.0000000000
11
-9.8765661184
21
-20.8362152174
31
0.0000000000
11
-9.9042757173
21
-20.7843626878
31
0.0000000000
11
-9.9213361532
21
-20.7281008167
31
0.0000000000
11
-9.9270957572
21
-20.6695917532
31
0.0000000000
0
SPLINE
5
400
100
AcDbEntity
8
0
100
AcDbSpline
62
7
6
CONTINUOUS
70
0
71
3
72
15
73
11
74
9
42
0.0000001000
43
0.0000001000
44
0.0000000001
12
0.0000000000
22
0.4703355698
32
0.0000000000
13
0.4703355698
23
0.0000000000
33
0.0000000000
40
0.0000000000
40
0.0000000000
40
0.0000000000
40
0.0000000000
40
0.1249999577
40
0.2499995774
40
0.3750001105
40
0.5000004040
40
0.6250005779
40
0.7500008266
40
0.8750001698
40
1.0000000000
40
1.0000000000
40
1.0000000000
40
1.0000000000
10
-9.9270957572
20
19.9306138519
30
0.0000000000
10
-9.9270957572
20
19.9502111606
30
0.0000000000
10
-9.9232318093
20
19.9895142981
30
0.0000000000
10
-9.9060619084
20
20.0461208623
30
0.0000000000
10
-9.8781740720
20
20.0983128734
30
0.0000000000
10
-9.8406375198
20
20.1440530573
30
0.0000000000
10
-9.7948973269
20
20.1815895265
30
0.0000000000
10
-9.7427053881
20
20.2094772664
30
0.0000000000
10
-9.6860989223
20
20.2266471117
30
0.0000000000
10
-9.6467958485
20
20.2305110494
30
0.0000000000
10
-9.6271985597
20
20.2305110494
30
0.0000000000
11
-9.9270957572
21
19.9306138519
31
0.0000000000
11
-9.9213361414
21
19.9891229745
31
0.0000000000
11
-9.9042756443
21
20.0453849629
31
0.0000000000
11
-9.8765659376
21
20.0972375866
31
0.0000000000
11
-9.8392702284
21
20.1426857906
31
0.0000000000
11
-9.7938220239
21
20.1799814105
31
0.0000000000
11
-9.7419694943
21
20.2076910095
31
0.0000000000
11
-9.6857076232
21
20.2247514454
31
0.0000000000
11
-9.6271985597
21
20.2305110494
31
0.0000000000
0
SPLINE
5
401
100
AcDbEntity
8
0
100
AcDbSpline
62
7
6
CONTINUOUS
70
0
71
3
72
9
73
5
74
3
42
0.0000001000
43
0.0000001000
44
0.0000000001
12
-0.1303932867
22
0.0000000000
32
0.0000000000
13
-0.1039372683
23
0.0800317203
33
0.0000000000
40
0.0000000000
40
0.0000000000
40
0.0000000000
40
0.0000000000
40
0.5990674245
40
1.0000000000
40
1.0000000000
40
1.0000000000
40
1.0000000000
10
-1.3271262181
20
-8.7194889506
30
0.0000000000
10
-1.3531643416
20
-8.7194889506
30
0.0000000000
10
-1.3971054504
20
-8.7107859764
30
0.0000000000
10
-1.4352646960
20
-8.6886335650
30
0.0000000000
10
-1.4491553082
20
-8.6779377904
30
0.0000000000
11
-1.3271262181
21
-8.7194889506
31
0.0000000000
11
-1.4037367100
21
-8.7042348560
31
0.0000000000
11
-1.4491553082
21
-8.6779377904
31
0.0000000000
0
SPLINE
5
402
100
AcDbEntity
8
0
100
AcDbSpline
62
7
6
CONTINUOUS
70
0
71
3
72
9
73
5
74
3
42
0.0000001000
43
0.0000001000
44
0.0000000001
12
-0.0413145875
22
0.0318122418
32
0.0000000000
13
-0.0317028215
23
0.0413976880
33
0.0000000000
40
0.0000000000
40
0.0000000000
40
0.0000000000
40
0.0000000000
40
0.5002176081
40
1.0000000000
40
1.0000000000
40
1.0000000000
40
1.0000000000
10
-1.4491553082
20
-8.6779377904
30
0.0000000000
10
-1.4560440696
20
-8.6726334426
30
0.0000000000
10
-1.4691229859
20
-8.6611373842
30
0.0000000000
10
-1.4805836600
20
-8.6480276882
30
0.0000000000
10
-1.4858651640
20
-8.6411310763
30
0.0000000000
11
-1.4491553082
21
-8.6779377904
31
0.0000000000
11
-1.4687237653
21
-8.6607286203
31
0.0000000000
11
-1.4858651640
21
-8.6411310763
31
0.0000000000
0
SPLINE
5
403
100
AcDbEntity
8
0
100
AcDbSpline
62
7
6
CONTINUOUS
70
0
71
3
72
9
73
5
74
3
42
0.0000001000
43
0.0000001000
44
0.0000000001
12
-0.0794407704
22
0.1037341180
32
0.0000000000
13
0.0000000000
23
0.1298771907
33
0.0000000000
40
0.0000000000
40
0.0000000000
40
0.0000000000
40
0.0000000000
40
0.4015573391
40
1.0000000000
40
1.0000000000
40
1.0000000000
40
1.0000000000
10
-1.4858651640
20
-8.6411310763
30
0.0000000000
10
-1.4964985055
20
-8.6272460109
30
0.0000000000
10
-1.5184732758
20
-8.5891893041
30
0.0000000000
10
-1.5270957572
20
-8.5454274288
30
0.0000000000
10
-1.5270957572
20
-8.5195194116
30
0.0000000000
11
-1.4858651640
21
-8.6411310763
31
0.0000000000
11
-1.5119937322
21
-8.5957621624
31
0.0000000000
11
-1.5270957572
21
-8.5195194116
31
0.0000000000
0
SPLINE
5
404
100
AcDbEntity
8
0
100
AcDbSpline
62
7
6
CONTINUOUS
70
0
71
3
72
9
73
5
74
3
42
0.0000001000
43
0.0000001000
44
0.0000000001
12
0.0000000000
22
-0.1303932867
32
0.0000000000
13
-0.0800317203
23
-0.1039372683
33
0.0000000000
40
0.0000000000
40
0.0000000000
40
0.0000000000
40
0.0000000000
40
0.5990674245
40
1.0000000000
40
1.0000000000
40
1.0000000000
40
1.0000000000
10
1.2729042428
20
-8.5195194116
30
0.0000000000
10
1.2729042428
20
-8.5455575351
30
0.0000000000
10
1.2642012685
20
-8.5894986439
30
0.0000000000
10
1.2420488572
20
-8.6276578894
30
0.0000000000
10
1.2313530826
20
-8.6415485017
30
0.0000000000
11
1.2729042428
21
-8.5195194116
31
0.0000000000
11
1.2576501481
21
-8.5961299035
31
0.0000000000
11
1.2313530826
21
-8.6415485017
31
0.0000000000
0
SPLINE
5
405
100
AcDbEntity
8
0
100
AcDbSpline
62
7
6
CONTINUOUS
70
0
71
3
72
9
73
5
74
3
42
0.0000001000
43
0.0000001000
44
0.0000000001
12
-0.0318122418
22
-0.0413145875
32
0.0000000000
13
-0.0413976880
23
-0.0317028215
33
0.0000000000
40
0.0000000000
40
0.0000000000
40
0.0000000000
40
0.0000000000
40
0.5002176081
40
1.0000000000
40
1.0000000000
40
1.0000000000
40
1.0000000000
10
1.2313530826
20
-8.6415485017
30
0.0000000000
10
1.2260487348
20
-8.6484372630
30
0.0000000000
10
1.2145526764
20
-8.6615161794
30
0.0000000000
10
1.2014429804
20
-8.6729768535
30
0.0000000000
10
1.1945463685
20
-8.6782583575
30
0.0000000000
11
1.2313530826
21
-8.6415485017
31
0.0000000000
11
1.2141439125
21
-8.6611169588
31
0.0000000000
11
1.1945463685
21
-8.6782583575
31
0.0000000000
0
SPLINE
5
406
100
AcDbEntity
8
0
100
AcDbSpline
62
7
6
CONTINUOUS
70
0
71
3
72
9
73
5
74
3
42
0.0000001000
43
0.0000001000
44
0.0000000001
12
-0.1037341180
22
-0.0794407704
32
0.0000000000
13
-0.1298771907
23
0.0000000000
33
0.0000000000
40
0.0000000000
40
0.0000000000
40
0.0000000000
40
0.0000000000
40
0.4015573391
40
1.0000000000
40
1.0000000000
40
1.0000000000
40
1.0000000000
10
1.1945463685
20
-8.6782583575
30
0.0000000000
10
1.1806613030
20
-8.6888916989
30
0.0000000000
10
1.1426045963
20
-8.7108664692
30
0.0000000000
10
1.0988427210
20
-8.7194889506
30
0.0000000000
10
1.0729347038
20
-8.7194889506
30
0.0000000000
11
1.1945463685
21
-8.6782583575
31
0.0000000000
11
1.1491774545
21
-8.7043869257
31
0.0000000000
11
1.0729347038
21
-8.7194889506
31
0.0000000000
0
SPLINE
5
407
100
AcDbEntity
8
0
100
AcDbSpline
62
7
6
CONTINUOUS
70
0
71
3
72
12
73
8
74
6
42
0.0000001000
43
0.0000001000
44
0.0000000001
12
0.3094177270
22
0.0000000000
32
0.0000000000
13
0.0054000839
23
-0.3093706012
33
0.0000000000
40
0.0000000000
40
0.0000000000
40
0.0000000000
40
0.0000000000
40
0.1986547208
40
0.3982996545
40
0.5912530495
40
0.7897354782
40
1.0000000000
40
1.0000000000
40
1.0000000000
40
1.0000000000
10
1.0676372577
20
-7.6194889506
30
0.0000000000
10
1.0881263551
20
-7.6194889506
30
0.0000000000
10
1.1294845190
20
-7.6259017292
30
0.0000000000
10
1.1848678193
20
-7.6536141655
30
0.0000000000
10
1.2293642307
20
-7.6966357497
30
0.0000000000
10
1.2595020026
20
-7.7519560699
30
0.0000000000
10
1.2672283148
20
-7.7943152489
30
0.0000000000
10
1.2676067968
20
-7.8159984694
30
0.0000000000
11
1.0676372577
21
-7.6194889506
31
0.0000000000
11
1.1283744721
21
-7.6289345207
31
0.0000000000
11
1.1836274658
21
-7.6565586845
31
0.0000000000
11
1.2265518884
21
-7.6980552644
31
0.0000000000
11
1.2559062127
21
-7.7519996878
31
0.0000000000
11
1.2676067968
21
-7.8159984694
31
0.0000000000
0
SPLINE
5
408
100
AcDbEntity
8
0
100
AcDbSpline
62
7
6
CONTINUOUS
70
0
71
3
72
12
73
8
74
6
42
0.0000001000
43
0.0000001000
44
0.0000000001
12
0.0054000839
22
0.3093706012
32
0.0000000000
13
0.3094177270
23
0.0000000000
33
0.0000000000
40
0.0000000000
40
0.0000000000
40
0.0000000000
40
0.0000000000
40
0.2102645218
40
0.4087469505
40
0.6017003455
40
0.8013452792
40
1.0000000000
40
1.0000000000
40
1.0000000000
40
1.0000000000
10
-1.5217983111
20
-7.8159984694
30
0.0000000000
10
-1.5214198291
20
-7.7943152489
30
0.0000000000
10
-1.5136935169
20
-7.7519560699
30
0.0000000000
10
-1.4835557450
20
-7.6966357497
30
0.0000000000
10
-1.4390593336
20
-7.6536141655
30
0.0000000000
10
-1.3836760334
20
-7.6259017292
30
0.0000000000
10
-1.3423178695
20
-7.6194889506
30
0.0000000000
10
-1.3218287721
20
-7.6194889506
30
0.0000000000
11
-1.5217983111
21
-7.8159984694
31
0.0000000000
11
-1.5100977271
21
-7.7519996878
31
0.0000000000
11
-1.4807434028
21
-7.6980552644
31
0.0000000000
11
-1.4378189802
21
-7.6565586845
31
0.0000000000
11
-1.3825659865
21
-7.6289345207
31
0.0000000000
11
-1.3218287721
21
-7.6194889506
31
0.0000000000
0
SPLINE
5
409
100
AcDbEntity
8
0
100
AcDbSpline
62
7
6
CONTINUOUS
70
0
71
3
72
15
73
11
74
9
42
0.0000001000
43
0.0000001000
44
0.0000000001
12
-1.9147212382
22
0.0000000000
32
0.0000000000
13
-0.5364229531
23
1.8380445684
33
0.0000000000
40
0.0000000000
40
0.0000000000
40
0.0000000000
40
0.0000000000
40
0.1278419603
40
0.2547706545
40
0.3806036121
40
0.5055639155
40
0.6296431300
40
0.7532813298
40
0.8767080656
40
1.0000000000
40
1.0000000000
40
1.0000000000
40
1.0000000000
10
-6.4512579179
20
-18.2718189517
30
0.0000000000
10
-6.5328518234
20
-18.2718189517
30
0.0000000000
10
-6.6957857878
20
-18.2581459833
30
0.0000000000
10
-6.9321441842
20
-18.1976413029
30
0.0000000000
10
-7.1537252455
20
-18.0999294227
30
0.0000000000
10
-7.3549970004
20
-17.9686550402
30
0.0000000000
10
-7.5316713470
20
-17.8079028255
30
0.0000000000
10
-7.6801643954
20
-17.6220725765
30
0.0000000000
10
-7.7975294982
20
-17.4158332367
30
0.0000000000
10
-7.8534815261
20
-17.2678414999
30
0.0000000000
10
-7.8755270673
20
-17.1923028097
30
0.0000000000
11
-6.4512579179
21
-18.2718189517
31
0.0000000000
11
-6.6951816252
21
-18.2513417981
31
0.0000000000
11
-6.9306329939
21
-18.1911112051
31
0.0000000000
11
-7.1510982304
21
-18.0939269918
31
0.0000000000
11
-7.3515299267
21
-17.9632576877
31
0.0000000000
11
-7.5272830522
21
-17.8034023758
31
0.0000000000
11
-7.6751013724
21
-17.6184912908
31
0.0000000000
11
-7.7920080261
21
-17.4131046805
31
0.0000000000
11
-7.8755270673
21
-17.1923028097
31
0.0000000000
0
SPLINE
5
40A
100
AcDbEntity
8
0
100
AcDbSpline
62
7
6
CONTINUOUS
70
0
71
3
72
15
73
11
74
9
42
0.0000001000
43
0.0000001000
44
0.0000000001
12
-0.5364232323
22
-1.8380455251
32
0.0000000000
13
-1.9147222348
23
0.0000000000
33
0.0000000000
40
0.0000000000
40
0.0000000000
40
0.0000000000
40
0.0000000000
40
0.1237644097
40
0.2478655300
40
0.3721447198
40
0.4965192689
40
0.6212605902
40
0.7465281384
40
0.8727449714
40
1.0000000000
40
1.0000000000
40
1.0000000000
40
1.0000000000
10
7.6213355529
20
-17.1923028097
30
0.0000000000
10
7.5992055180
20
-17.2681310162
30
0.0000000000
10
7.5429472851
20
-17.4167992598
30
0.0000000000
10
7.4247976578
20
-17.6239223688
30
0.0000000000
10
7.2753041899
20
-17.8102880294
30
0.0000000000
10
7.0978854360
20
-17.9709121289
30
0.0000000000
10
6.8965444772
20
-18.1014987982
30
0.0000000000
10
6.6756496262
20
-18.1983642642
30
0.0000000000
10
6.4403863989
20
-18.2582786634
30
0.0000000000
10
6.2782857478
20
-18.2718189517
30
0.0000000000
10
6.1970664036
20
-18.2718189517
30
0.0000000000
11
7.6213355529
21
-17.1923028097
31
0.0000000000
11
7.5374302207
21
-17.4139258981
31
0.0000000000
11
7.4196725091
21
-17.6203138662
31
0.0000000000
11
7.2707396625
21
-17.8059048943
31
0.0000000000
11
7.0941698317
21
-17.9657017886
31
0.0000000000
11
6.8937565631
21
-18.0956304112
31
0.0000000000
11
6.6740829440
21
-18.1919255386
31
0.0000000000
11
6.4398781992
21
-18.2515293278
31
0.0000000000
11
6.1970664036
21
-18.2718189517
31
0.0000000000
0
SPLINE
5
40B
100
AcDbEntity
8
0
100
AcDbSpline
62
7
6
CONTINUOUS
70
0
71
3
72
17
73
13
74
11
42
0.0000001000
43
0.0000001000
44
0.0000000001
12
0.7851766352
22
0.0000000000
32
0.0000000000
13
0.0106305985
23
-0.7851046674
33
0.0000000000
40
0.0000000000
40
0.0000000000
40
0.0000000000
40
0.0000000000
40
0.0661258592
40
0.1424896813
40
0.2252713340
40
0.3107454594
40
0.4037844030
40
0.5044590632
40
0.6136312879
40
0.7319582969
40
0.8604149080
40
1.0000000000
40
1.0000000000
40
1.0000000000
40
1.0000000000
10
9.2706763110
20
-2.1273285338
30
0.0000000000
10
9.2879831375
20
-2.1273285338
30
0.0000000000
10
9.3255026087
20
-2.1373079486
30
0.0000000000
10
9.3727432483
20
-2.1740820228
30
0.0000000000
10
9.4133065378
20
-2.2239917113
30
0.0000000000
10
9.4485097755
20
-2.2828065642
30
0.0000000000
10
9.4795447473
20
-2.3490634189
30
0.0000000000
10
9.5072314029
20
-2.4234249704
30
0.0000000000
10
9.5313604342
20
-2.5059289511
30
0.0000000000
10
9.5512915507
20
-2.5970138008
30
0.0000000000
10
9.5657479238
20
-2.6971860822
30
0.0000000000
10
9.5700788841
20
-2.7673215178
30
0.0000000000
10
9.5705735085
20
-2.8038511535
30
0.0000000000
11
9.2706763110
21
-2.1273285338
31
0.0000000000
11
9.3211617240
21
-2.1394512098
31
0.0000000000
11
9.3697894042
21
-2.1745288530
31
0.0000000000
11
9.4115935847
21
-2.2243001202
31
0.0000000000
11
9.4465261953
21
-2.2816043232
31
0.0000000000
11
9.4778133094
21
-2.3476172906
31
0.0000000000
11
9.5055908462
21
-2.4216233611
31
0.0000000000
11
9.5297688390
21
-2.5038623659
31
0.0000000000
11
9.5496703818
21
-2.5946134059
31
0.0000000000
11
9.5640228486
21
-2.6944481402
31
0.0000000000
11
9.5705735085
21
-2.8038511535
31
0.0000000000
0
SPLINE
5
40C
100
AcDbEntity
8
0
100
AcDbSpline
62
9
6
CONTINUOUS
70
0
71
3
72
10
73
6
74
4
42
0.0000001000
43
0.0000001000
44
0.0000000001
12
-0.0139402475
22
3.7516243959
32
0.0000000000
13
-0.0096794517
23
3.7516378086
33
0.0000000000
40
0.0000000000
40
0.0000000000
40
0.0000000000
40
0.0000000000
40
0.3327541422
40
0.6660940564
40
1.0000000000
40
1.0000000000
40
1.0000000000
40
1.0000000000
10
9.5823778918
20
-20.5790654022
30
0.0000000000
10
9.5808316668
20
-20.1629425496
30
0.0000000000
10
9.5778951705
20
-19.3299637137
30
0.0000000000
10
9.5739607734
20
-18.0794197775
30
0.0000000000
10
9.5716508506
20
-17.2449985778
30
0.0000000000
10
9.5705735085
20
-16.8274338570
30
0.0000000000
11
9.5823778918
21
-20.5790654022
31
0.0000000000
11
9.5779765685
21
-19.3306959851
31
0.0000000000
11
9.5740416885
21
-18.0801273879
31
0.0000000000
11
9.5705735085
21
-16.8274338570
31
0.0000000000
0
SPLINE
5
40D
100
AcDbEntity
8
0
100
AcDbSpline
62
9
6
CONTINUOUS
70
0
71
3
72
11
73
7
74
5
42
0.0000001000
43
0.0000001000
44
0.0000000001
12
-0.0555655804
22
-0.3013101950
32
0.0000000000
13
-0.3063888390
23
-0.0011165261
33
0.0000000000
40
0.0000000000
40
0.0000000000
40
0.0000000000
40
0.0000000000
40
0.0967207045
40
0.3150669470
40
0.6309925115
40
1.0000000000
40
1.0000000000
40
1.0000000000
40
1.0000000000
10
9.5823778918
20
-20.5790654022
30
0.0000000000
10
9.5805864445
20
-20.5887797136
30
0.0000000000
10
9.5410054966
20
-20.5996033116
30
0.0000000000
10
9.4845528276
20
-20.6111241925
30
0.0000000000
10
9.3891773644
20
-20.6189798829
30
0.0000000000
10
9.3201672863
20
-20.6210759505
30
0.0000000000
10
9.2824806943
20
-20.6212132860
30
0.0000000000
11
9.5823778918
21
-20.5790654022
31
0.0000000000
11
9.5573586339
21
-20.5949471813
31
0.0000000000
11
9.4918443184
21
-20.6084893474
31
0.0000000000
11
9.3954865238
21
-20.6176968667
31
0.0000000000
11
9.2824806943
21
-20.6212132860
31
0.0000000000
0
SPLINE
5
40E
100
AcDbEntity
8
0
100
AcDbSpline
62
9
6
CONTINUOUS
70
0
71
3
72
10
73
6
74
4
42
0.0000001000
43
0.0000001000
44
0.0000000001
12
-0.0139946295
22
3.7790411939
32
0.0000000000
13
-0.0097006457
23
3.7790546560
33
0.0000000000
40
0.0000000000
40
0.0000000000
40
0.0000000000
40
0.0000000000
40
0.3327558765
40
0.6660922625
40
1.0000000000
40
1.0000000000
40
1.0000000000
40
1.0000000000
10
9.2824806515
20
-20.6212132860
30
0.0000000000
10
9.2809283864
20
-20.2020472311
30
0.0000000000
10
9.2779811277
20
-19.3629832632
30
0.0000000000
10
9.2740341358
20
-18.1033003843
30
0.0000000000
10
9.2717182899
20
-17.2627834444
30
0.0000000000
10
9.2706385830
20
-16.8421649144
30
0.0000000000
11
9.2824806515
21
-20.6212132860
31
0.0000000000
11
9.2780631071
21
-19.3637142578
31
0.0000000000
11
9.2741156952
21
-18.1040198709
31
0.0000000000
11
9.2706385830
21
-16.8421649144
31
0.0000000000
0
SPLINE
5
40F
100
AcDbEntity
8
0
100
AcDbSpline
62
7
6
CONTINUOUS
70
0
71
3
72
11
73
7
74
5
42
0.0000001000
43
0.0000001000
44
0.0000000001
12
-0.1413432030
22
-0.2654518131
32
0.0000000000
13
-0.3007367056
23
0.0000000007
33
0.0000000000
40
0.0000000000
40
0.0000000000
40
0.0000000000
40
0.0000000000
40
0.0851932014
40
0.3035091767
40
0.6241052103
40
1.0000000000
40
1.0000000000
40
1.0000000000
40
1.0000000000
10
9.5705735085
20
-16.8274338069
30
0.0000000000
10
9.5665596818
20
-16.8349720368
30
0.0000000000
10
9.5274049919
20
-16.8299541406
30
0.0000000000
10
9.4725298402
20
-16.8412587202
30
0.0000000000
10
9.3771302207
20
-16.8403476476
30
0.0000000000
10
9.3083580979
20
-16.8421649145
30
0.0000000000
10
9.2706763110
20
-16.8421649144
30
0.0000000000
11
9.5705735085
21
-16.8274338069
31
0.0000000000
11
9.5455610763
21
-16.8329835522
31
0.0000000000
11
9.4800762328
21
-16.8377160621
31
0.0000000000
11
9.3837149779
21
-16.8409347278
31
0.0000000000
11
9.2706763110
21
-16.8421649144
31
0.0000000000
0
SPLINE
5
410
100
AcDbEntity
8
0
100
AcDbSpline
62
9
6
CONTINUOUS
70
0
71
3
72
11
73
7
74
5
42
0.0000001000
43
0.0000001000
44
0.0000000001
12
-0.0003206611
22
-0.4679595213
32
0.0000000000
13
-0.4679595213
23
-0.0003206611
33
0.0000000000
40
0.0000000000
40
0.0000000000
40
0.0000000000
40
0.0000000000
40
0.2499768501
40
0.5000000000
40
0.7500231499
40
1.0000000000
40
1.0000000000
40
1.0000000000
40
1.0000000000
10
9.5823778918
20
-20.5790654022
30
0.0000000000
10
9.5823511725
20
-20.6180584179
30
0.0000000000
10
9.5666995351
20
-20.6968923318
30
0.0000000000
10
9.4999498459
20
-20.7965345537
30
0.0000000000
10
9.4003076239
20
-20.8632842429
30
0.0000000000
10
9.3214737100
20
-20.8789358804
30
0.0000000000
10
9.2824806943
20
-20.8789625996
30
0.0000000000
11
9.5823778918
21
-20.5790654022
31
0.0000000000
11
9.5594906245
21
-20.6937836521
31
0.0000000000
11
9.4944674187
21
-20.7910521265
31
0.0000000000
11
9.3971989443
21
-20.8560753323
31
0.0000000000
11
9.2824806943
21
-20.8789625996
31
0.0000000000
0
SPLINE
5
411
100
AcDbEntity
8
0
100
AcDbSpline
62
9
6
CONTINUOUS
70
0
71
3
72
11
73
7
74
5
42
0.0000001000
43
0.0000001000
44
0.0000000001
12
-0.4679595213
22
0.0003206611
32
0.0000000000
13
-0.0003206611
23
0.4679595213
33
0.0000000000
40
0.0000000000
40
0.0000000000
40
0.0000000000
40
0.0000000000
40
0.2499768501
40
0.5000000000
40
0.7500231499
40
1.0000000000
40
1.0000000000
40
1.0000000000
40
1.0000000000
10
-9.5366722087
20
-20.8789625996
30
0.0000000000
10
-9.5756652244
20
-20.8789358804
30
0.0000000000
10
-9.6544991383
20
-20.8632842429
30
0.0000000000
10
-9.7541413602
20
-20.7965345537
30
0.0000000000
10
-9.8208910494
20
-20.6968923318
30
0.0000000000
10
-9.8365426869
20
-20.6180584179
30
0.0000000000
10
-9.8365694062
20
-20.5790654022
30
0.0000000000
11
-9.5366722087
21
-20.8789625996
31
0.0000000000
11
-9.6513904587
21
-20.8560753323
31
0.0000000000
11
-9.7486589330
21
-20.7910521265
31
0.0000000000
11
-9.8136821388
21
-20.6937836521
31
0.0000000000
11
-9.8365694062
21
-20.5790654022
31
0.0000000000
0
SPLINE
5
412
100
AcDbEntity
8
0
100
AcDbSpline
62
9
6
CONTINUOUS
70
0
71
3
72
10
73
6
74
4
42
0.0000001000
43
0.0000001000
44
0.0000000001
12
-0.0096794517
22
-3.7516378086
32
0.0000000000
13
-0.0139402475
23
-3.7516243959
33
0.0000000000
40
0.0000000000
40
0.0000000000
40
0.0000000000
40
0.0000000000
40
0.3339059436
40
0.6672458578
40
1.0000000000
40
1.0000000000
40
1.0000000000
40
1.0000000000
10
-9.8247650228
20
-16.8274338570
30
0.0000000000
10
-9.8258423649
20
-17.2449985778
30
0.0000000000
10
-9.8281522877
20
-18.0794197775
30
0.0000000000
10
-9.8320866849
20
-19.3299637137
30
0.0000000000
10
-9.8350231811
20
-20.1629425496
30
0.0000000000
10
-9.8365694062
20
-20.5790654022
30
0.0000000000
11
-9.8247650228
21
-16.8274338570
31
0.0000000000
11
-9.8282332029
21
-18.0801273879
31
0.0000000000
11
-9.8321680829
21
-19.3306959851
31
0.0000000000
11
-9.8365694062
21
-20.5790654022
31
0.0000000000
0
SPLINE
5
413
100
AcDbEntity
8
0
100
AcDbSpline
62
7
6
CONTINUOUS
70
0
71
3
72
11
73
7
74
5
42
0.0000001000
43
0.0000001000
44
0.0000000001
12
0.1413432030
22
-0.2654518131
32
0.0000000000
13
0.3007367056
23
0.0000000007
33
0.0000000000
40
0.0000000000
40
0.0000000000
40
0.0000000000
40
0.0000000000
40
0.0851932014
40
0.3035091767
40
0.6241052103
40
1.0000000000
40
1.0000000000
40
1.0000000000
40
1.0000000000
10
-9.8247650228
20
-16.8274338069
30
0.0000000000
10
-9.8207511961
20
-16.8349720368
30
0.0000000000
10
-9.7815965063
20
-16.8299541406
30
0.0000000000
10
-9.7267213545
20
-16.8412587202
30
0.0000000000
10
-9.6313217351
20
-16.8403476476
30
0.0000000000
10
-9.5625496122
20
-16.8421649145
30
0.0000000000
10
-9.5248678253
20
-16.8421649144
30
0.0000000000
11
-9.8247650228
21
-16.8274338069
31
0.0000000000
11
-9.7997525907
21
-16.8329835522
31
0.0000000000
11
-9.7342677471
21
-16.8377160621
31
0.0000000000
11
-9.6379064922
21
-16.8409347278
31
0.0000000000
11
-9.5248678253
21
-16.8421649144
31
0.0000000000
0
SPLINE
5
414
100
AcDbEntity
8
0
100
AcDbSpline
62
9
6
CONTINUOUS
70
0
71
3
72
10
73
6
74
4
42
0.0000001000
43
0.0000001000
44
0.0000000001
12
-0.0097006457
22
-3.7790546560
32
0.0000000000
13
-0.0139946295
23
-3.7790411939
33
0.0000000000
40
0.0000000000
40
0.0000000000
40
0.0000000000
40
0.0000000000
40
0.3339077375
40
0.6672441235
40
1.0000000000
40
1.0000000000
40
1.0000000000
40
1.0000000000
10
-9.5248300974
20
-16.8421649144
30
0.0000000000
10
-9.5259098042
20
-17.2627834444
30
0.0000000000
10
-9.5282256501
20
-18.1033003843
30
0.0000000000
10
-9.5321726420
20
-19.3629832633
30
0.0000000000
10
-9.5351199008
20
-20.2020472311
30
0.0000000000
10
-9.5366721658
20
-20.6212132860
30
0.0000000000
11
-9.5248300974
21
-16.8421649144
31
0.0000000000
11
-9.5283072096
21
-18.1040198710
31
0.0000000000
11
-9.5322546215
21
-19.3637142579
31
0.0000000000
11
-9.5366721658
21
-20.6212132860
31
0.0000000000
0
SPLINE
5
415
100
AcDbEntity
8
0
100
AcDbSpline
62
9
6
CONTINUOUS
70
0
71
3
72
11
73
7
74
5
42
0.0000001000
43
0.0000001000
44
0.0000000001
12
0.0755689478
22
-0.2969186482
32
0.0000000000
13
0.3063297349
23
0.0057829960
33
0.0000000000
40
0.0000000000
40
0.0000000000
40
0.0000000000
40
0.0000000000
40
0.0973962396
40
0.3172291905
40
0.6349839365
40
1.0000000000
40
1.0000000000
40
1.0000000000
40
1.0000000000
10
-9.8365694062
20
-20.5790654022
30
0.0000000000
10
-9.8341160291
20
-20.5887049888
30
0.0000000000
10
-9.7955516753
20
-20.5998061607
30
0.0000000000
10
-9.7377112894
20
-20.6112134760
30
0.0000000000
10
-9.6428847496
20
-20.6186822548
30
0.0000000000
10
-9.5739439667
20
-20.6219169148
30
0.0000000000
10
-9.5366722087
20
-20.6212132860
30
0.0000000000
11
-9.8365694062
21
-20.5790654022
31
0.0000000000
11
-9.8113471808
21
-20.5950123626
31
0.0000000000
11
-9.7453751622
21
-20.6085832510
31
0.0000000000
11
-9.6484543274
21
-20.6177681073
31
0.0000000000
11
-9.5366722087
21
-20.6212132860
31
0.0000000000
0
SPLINE
5
416
100
AcDbEntity
8
0
100
AcDbSpline
62
7
6
CONTINUOUS
70
0
71
3
72
17
73
13
74
11
42
0.0000001000
43
0.0000001000
44
0.0000000001
12
0.0106305994
22
0.7851047320
32
0.0000000000
13
0.7851766997
23
0.0000000000
33
0.0000000000
40
0.0000000000
40
0.0000000000
40
0.0000000000
40
0.0000000000
40
0.1396065498
40
0.2680732116
40
0.3864010527
40
0.4955677397
40
0.5962350040
40
0.6892683862
40
0.7747385486
40
0.8575177081
40
0.9338780573
40
1.0000000000
40
1.0000000000
40
1.0000000000
40
1.0000000000
10
-9.8247650228
20
-2.8038511535
30
0.0000000000
10
-9.8242703224
20
-2.7673158992
30
0.0000000000
10
-9.8199383390
20
-2.6971722102
30
0.0000000000
10
-9.8054791830
20
-2.5969917530
30
0.0000000000
10
-9.7855460553
20
-2.5059058990
30
0.0000000000
10
-9.7614163525
20
-2.4234054124
30
0.0000000000
10
-9.7337300810
20
-2.3490488859
30
0.0000000000
10
-9.7026959054
20
-2.2827965480
30
0.0000000000
10
-9.6674933014
20
-2.2239849844
30
0.0000000000
10
-9.6269306937
20
-2.1740780672
30
0.0000000000
10
-9.5796911769
20
-2.1373067784
30
0.0000000000
10
-9.5421736282
20
-2.1273285338
30
0.0000000000
10
-9.5248678253
20
-2.1273285338
30
0.0000000000
11
-9.8247650228
21
-2.8038511535
31
0.0000000000
11
-9.8182126081
21
-2.6944313579
31
0.0000000000
11
-9.8038574390
21
-2.5945890310
31
0.0000000000
11
-9.7839540251
21
-2.5038377248
31
0.0000000000
11
-9.7597756844
21
-2.4216033469
31
0.0000000000
11
-9.7319988831
21
-2.3476031962
31
0.0000000000
11
-9.7007125546
21
-2.2815946819
31
0.0000000000
11
-9.6657806021
21
-2.2242937157
31
0.0000000000
11
-9.6239766931
21
-2.1745247699
31
0.0000000000
11
-9.5753504077
21
-2.1394498458
31
0.0000000000
11
-9.5248678253
21
-2.1273285338
31
0.0000000000
0
SPLINE
5
417
100
AcDbEntity
8
0
100
AcDbSpline
62
7
6
CONTINUOUS
70
0
71
3
72
17
73
13
74
11
42
0.0000001000
43
0.0000001000
44
0.0000000001
12
-0.7851766352
22
0.0000000000
32
0.0000000000
13
-0.0106305985
23
0.7851046674
33
0.0000000000
40
0.0000000000
40
0.0000000000
40
0.0000000000
40
0.0000000000
40
0.0661258592
40
0.1424896813
40
0.2252713340
40
0.3107454594
40
0.4037844030
40
0.5044590632
40
0.6136312879
40
0.7319582969
40
0.8604149080
40
1.0000000000
40
1.0000000000
40
1.0000000000
40
1.0000000000
10
-9.5248678253
20
1.3883506325
30
0.0000000000
10
-9.5421746518
20
1.3883506325
30
0.0000000000
10
-9.5796941230
20
1.3983300473
30
0.0000000000
10
-9.6269347627
20
1.4351041215
30
0.0000000000
10
-9.6674980521
20
1.4850138100
30
0.0000000000
10
-9.7027012898
20
1.5438286629
30
0.0000000000
10
-9.7337362616
20
1.6100855176
30
0.0000000000
10
-9.7614229172
20
1.6844470691
30
0.0000000000
10
-9.7855519486
20
1.7669510498
30
0.0000000000
10
-9.8054830650
20
1.8580358995
30
0.0000000000
10
-9.8199394381
20
1.9582081809
30
0.0000000000
10
-9.8242703984
20
2.0283436165
30
0.0000000000
10
-9.8247650228
20
2.0648732522
30
0.0000000000
11
-9.5248678253
21
1.3883506325
31
0.0000000000
11
-9.5753532384
21
1.4004733085
31
0.0000000000
11
-9.6239809186
21
1.4355509517
31
0.0000000000
11
-9.6657850990
21
1.4853222189
31
0.0000000000
11
-9.7007177096
21
1.5426264219
31
0.0000000000
11
-9.7320048238
21
1.6086393893
31
0.0000000000
11
-9.7597823605
21
1.6826454598
31
0.0000000000
11
-9.7839603534
21
1.7648844646
31
0.0000000000
11
-9.8038618962
21
1.8556355046
31
0.0000000000
11
-9.8182143629
21
1.9554702389
31
0.0000000000
11
-9.8247650228
21
2.0648732522
31
0.0000000000
0
SPLINE
5
418
100
AcDbEntity
8
0
100
AcDbSpline
62
9
6
CONTINUOUS
70
0
71
3
72
10
73
6
74
4
42
0.0000001000
43
0.0000001000
44
0.0000000001
12
0.0139402477
22
-3.7516243959
32
0.0000000000
13
0.0096794508
23
-3.7516378086
33
0.0000000000
40
0.0000000000
40
0.0000000000
40
0.0000000000
40
0.0000000000
40
0.3327525354
40
0.6660923420
40
1.0000000000
40
1.0000000000
40
1.0000000000
40
1.0000000000
10
-9.8365694062
20
19.8400875009
30
0.0000000000
10
-9.8350231886
20
19.4239666576
30
0.0000000000
10
-9.8320866990
20
18.5909899657
30
0.0000000000
10
-9.8281522998
20
17.3404460295
30
0.0000000000
10
-9.8258423704
20
16.5060228205
30
0.0000000000
10
-9.8247650228
20
16.0884559557
30
0.0000000000
11
-9.8365694062
21
19.8400875009
31
0.0000000000
11
-9.8321681030
21
18.5917241118
31
0.0000000000
11
-9.8282332220
21
17.3411559186
31
0.0000000000
11
-9.8247650228
21
16.0884559557
31
0.0000000000
0
SPLINE
5
419
100
AcDbEntity
8
0
100
AcDbSpline
62
9
6
CONTINUOUS
70
0
71
3
72
11
73
7
74
5
42
0.0000001000
43
0.0000001000
44
0.0000000001
12
0.0555655405
22
0.3013102087
32
0.0000000000
13
0.3063888454
23
0.0011164939
33
0.0000000000
40
0.0000000000
40
0.0000000000
40
0.0000000000
40
0.0000000000
40
0.0967207225
40
0.3150669632
40
0.6309925200
40
1.0000000000
40
1.0000000000
40
1.0000000000
40
1.0000000000
10
-9.8365694062
20
19.8400875009
30
0.0000000000
10
-9.8347779598
20
19.8498018146
30
0.0000000000
10
-9.7951970167
20
19.8606254293
30
0.0000000000
10
-9.7387443407
20
19.8721463051
30
0.0000000000
10
-9.6433688794
20
19.8800019949
30
0.0000000000
10
-9.5743588006
20
19.8820980532
30
0.0000000000
10
-9.5366722087
20
19.8822353847
30
0.0000000000
11
-9.8365694062
21
19.8400875009
31
0.0000000000
11
-9.8115501483
21
19.8559692915
31
0.0000000000
11
-9.7460358328
21
19.8695114616
31
0.0000000000
11
-9.6496780382
21
19.8787189769
31
0.0000000000
11
-9.5366722087
21
19.8822353847
31
0.0000000000
0
SPLINE
5
41A
100
AcDbEntity
8
0
100
AcDbSpline
62
9
6
CONTINUOUS
70
0
71
3
72
10
73
6
74
4
42
0.0000001000
43
0.0000001000
44
0.0000000001
12
0.0139946297
22
-3.7790411939
32
0.0000000000
13
0.0097006447
23
-3.7790546560
33
0.0000000000
40
0.0000000000
40
0.0000000000
40
0.0000000000
40
0.0000000000
40
0.3327550514
40
0.6660914362
40
1.0000000000
40
1.0000000000
40
1.0000000000
40
1.0000000000
10
-9.5366721656
20
19.8822353847
30
0.0000000000
10
-9.5351199044
20
19.4630703691
30
0.0000000000
10
-9.5321726491
20
18.6240074423
30
0.0000000000
10
-9.5282256562
20
17.3643245633
30
0.0000000000
10
-9.5259098068
20
16.5238065840
30
0.0000000000
10
-9.5248300974
20
16.1031870131
30
0.0000000000
11
-9.5366721656
21
19.8822353847
31
0.0000000000
11
-9.5322546318
21
18.6247394746
31
0.0000000000
11
-9.5283072188
21
17.3650450925
31
0.0000000000
11
-9.5248300974
21
16.1031870131
31
0.0000000000
0
SPLINE
5
41B
100
AcDbEntity
8
0
100
AcDbSpline
62
7
6
CONTINUOUS
70
0
71
3
72
11
73
7
74
5
42
0.0000001000
43
0.0000001000
44
0.0000000001
12
0.1413431992
22
0.2654518147
32
0.0000000000
13
0.3007367053
23
-0.0000000003
33
0.0000000000
40
0.0000000000
40
0.0000000000
40
0.0000000000
40
0.0000000000
40
0.0851932011
40
0.3035091766
40
0.6241052107
40
1.0000000000
40
1.0000000000
40
1.0000000000
40
1.0000000000
10
-9.8247650228
20
16.0884559246
30
0.0000000000
10
-9.8207511963
20
16.0959941546
30
0.0000000000
10
-9.7815965060
20
16.0909762574
30
0.0000000000
10
-9.7267213546
20
16.1022808360
30
0.0000000000
10
-9.6313217352
20
16.1013697711
30
0.0000000000
10
-9.5625496121
20
16.1031870131
30
0.0000000000
10
-9.5248678253
20
16.1031870131
30
0.0000000000
11
-9.8247650228
21
16.0884559246
31
0.0000000000
11
-9.7997525907
21
16.0940056694
31
0.0000000000
11
-9.7342677471
21
16.0987381789
31
0.0000000000
11
-9.6379064922
21
16.1019568443
31
0.0000000000
11
-9.5248678253
21
16.1031870131
31
0.0000000000
0
SPLINE
5
41C
100
AcDbEntity
8
0
100
AcDbSpline
62
9
6
CONTINUOUS
70
0
71
3
72
11
73
7
74
5
42
0.0000001000
43
0.0000001000
44
0.0000000001
12
0.0003206611
22
0.4679595213
32
0.0000000000
13
0.4679595213
23
0.0003206611
33
0.0000000000
40
0.0000000000
40
0.0000000000
40
0.0000000000
40
0.0000000000
40
0.2499768501
40
0.5000000000
40
0.7500231499
40
1.0000000000
40
1.0000000000
40
1.0000000000
40
1.0000000000
10
-9.8365694062
20
19.8400875009
30
0.0000000000
10
-9.8365426869
20
19.8790805166
30
0.0000000000
10
-9.8208910494
20
19.9579144305
30
0.0000000000
10
-9.7541413602
20
20.0575566524
30
0.0000000000
10
-9.6544991383
20
20.1243063416
30
0.0000000000
10
-9.5756652244
20
20.1399579791
30
0.0000000000
10
-9.5366722087
20
20.1399846984
30
0.0000000000
11
-9.8365694062
21
19.8400875009
31
0.0000000000
11
-9.8136821388
21
19.9548057508
31
0.0000000000
11
-9.7486589330
21
20.0520742252
31
0.0000000000
11
-9.6513904587
21
20.1170974310
31
0.0000000000
11
-9.5366722087
21
20.1399846984
31
0.0000000000
0
SPLINE
5
41D
100
AcDbEntity
8
0
100
AcDbSpline
62
7
6
CONTINUOUS
70
0
71
3
72
15
73
11
74
9
42
0.0000001000
43
0.0000001000
44
0.0000000001
12
-0.1430318045
22
-0.2145749460
32
0.0000000000
13
-0.0006387282
23
-0.2578761265
33
0.0000000000
40
0.0000000000
40
0.0000000000
40
0.0000000000
40
0.0000000000
40
0.0234361608
40
0.0816983440
40
0.1731263514
40
0.2949398016
40
0.4434110165
40
0.6139875527
40
0.8014355364
40
1.0000000000
40
1.0000000000
40
1.0000000000
40
1.0000000000
10
-4.4141277239
20
20.1399846984
30
0.0000000000
10
-4.4152450960
20
20.1383084274
30
0.0000000000
10
-4.4146844946
20
20.1306949808
30
0.0000000000
10
-4.4164800915
20
20.1163586321
30
0.0000000000
10
-4.4166934350
20
20.0927556201
30
0.0000000000
10
-4.4176180511
20
20.0617848528
30
0.0000000000
10
-4.4181419888
20
20.0238522454
30
0.0000000000
10
-4.4186559104
20
19.9803306749
30
0.0000000000
10
-4.4189982441
20
19.9324837265
30
0.0000000000
10
-4.4191329535
20
19.8993037297
30
0.0000000000
10
-4.4191752298
20
19.8822353847
30
0.0000000000
11
-4.4141277239
21
20.1399846984
31
0.0000000000
11
-4.4150393249
21
20.1340102003
31
0.0000000000
11
-4.4159187341
21
20.1190114868
31
0.0000000000
11
-4.4167389596
21
20.0954485858
31
0.0000000000
11
-4.4174748178
21
20.0640443288
31
0.0000000000
11
-4.4181037111
21
20.0257621949
31
0.0000000000
11
-4.4186063161
21
19.9817773151
31
0.0000000000
11
-4.4189671870
21
19.9334401539
31
0.0000000000
11
-4.4191752298
21
19.8822353847
31
0.0000000000
0
SPLINE
5
41E
100
AcDbEntity
8
0
100
AcDbSpline
62
7
6
CONTINUOUS
70
0
71
3
72
17
73
13
74
11
42
0.0000001000
43
0.0000001000
44
0.0000000001
12
-0.0106305994
22
-0.7851047320
32
0.0000000000
13
-0.7851766997
23
0.0000000000
33
0.0000000000
40
0.0000000000
40
0.0000000000
40
0.0000000000
40
0.0000000000
40
0.1396065498
40
0.2680732116
40
0.3864010527
40
0.4955677397
40
0.5962350040
40
0.6892683862
40
0.7747385486
40
0.8575177081
40
0.9338780573
40
1.0000000000
40
1.0000000000
40
1.0000000000
40
1.0000000000
10
9.5705735085
20
2.0648732522
30
0.0000000000
10
9.5700788080
20
2.0283379979
30
0.0000000000
10
9.5657468246
20
1.9581943089
30
0.0000000000
10
9.5512876687
20
1.8580138517
30
0.0000000000
10
9.5313545409
20
1.7669279977
30
0.0000000000
10
9.5072248382
20
1.6844275111
30
0.0000000000
10
9.4795385667
20
1.6100709846
30
0.0000000000
10
9.4485043910
20
1.5438186467
30
0.0000000000
10
9.4133017870
20
1.4850070831
30
0.0000000000
10
9.3727391794
20
1.4351001659
30
0.0000000000
10
9.3254996626
20
1.3983288771
30
0.0000000000
10
9.2879821139
20
1.3883506325
30
0.0000000000
10
9.2706763110
20
1.3883506325
30
0.0000000000
11
9.5705735085
21
2.0648732522
31
0.0000000000
11
9.5640210938
21
1.9554534566
31
0.0000000000
11
9.5496659246
21
1.8556111297
31
0.0000000000
11
9.5297625107
21
1.7648598235
31
0.0000000000
11
9.5055841700
21
1.6826254456
31
0.0000000000
11
9.4778073687
21
1.6086252949
31
0.0000000000
11
9.4465210403
21
1.5426167806
31
0.0000000000
11
9.4115890877
21
1.4853158144
31
0.0000000000
11
9.3697851788
21
1.4355468686
31
0.0000000000
11
9.3211588933
21
1.4004719445
31
0.0000000000
11
9.2706763110
21
1.3883506325
31
0.0000000000
0
SPLINE
5
41F
100
AcDbEntity
8
0
100
AcDbSpline
62
7
6
CONTINUOUS
70
0
71
3
72
11
73
7
74
5
42
0.0000001000
43
0.0000001000
44
0.0000000001
12
-0.1413431924
22
0.2654518019
32
0.0000000000
13
-0.3007366907
23
-0.0000000003
33
0.0000000000
40
0.0000000000
40
0.0000000000
40
0.0000000000
40
0.0000000000
40
0.0852035666
40
0.3035091427
40
0.6240812284
40
1.0000000000
40
1.0000000000
40
1.0000000000
40
1.0000000000
10
9.5705735085
20
16.0884559246
30
0.0000000000
10
9.5665591938
20
16.0959950714
30
0.0000000000
10
9.5274041282
20
16.0909762904
30
0.0000000000
10
9.4725309117
20
16.1022805610
30
0.0000000000
10
9.3771325912
20
16.1013696606
30
0.0000000000
10
9.3083605001
20
16.1031870131
30
0.0000000000
10
9.2706763110
20
16.1031870131
30
0.0000000000
11
9.5705735085
21
16.0884559246
31
0.0000000000
11
9.5455579630
21
16.0940060232
31
0.0000000000
11
9.4800762327
21
16.0987381789
31
0.0000000000
11
9.3837221835
21
16.1019566912
31
0.0000000000
11
9.2706763110
21
16.1031870131
31
0.0000000000
0
SPLINE
5
420
100
AcDbEntity
8
0
100
AcDbSpline
62
9
6
CONTINUOUS
70
0
71
3
72
10
73
6
74
4
42
0.0000001000
43
0.0000001000
44
0.0000000001
12
0.0096794508
22
3.7516378086
32
0.0000000000
13
0.0139402477
23
3.7516243959
33
0.0000000000
40
0.0000000000
40
0.0000000000
40
0.0000000000
40
0.0000000000
40
0.3339076580
40
0.6672474646
40
1.0000000000
40
1.0000000000
40
1.0000000000
40
1.0000000000
10
9.5705735085
20
16.0884559557
30
0.0000000000
10
9.5716508560
20
16.5060228205
30
0.0000000000
10
9.5739607854
20
17.3404460295
30
0.0000000000
10
9.5778951847
20
18.5909899657
30
0.0000000000
10
9.5808316742
20
19.4239666576
30
0.0000000000
10
9.5823778918
20
19.8400875009
30
0.0000000000
11
9.5705735085
21
16.0884559557
31
0.0000000000
11
9.5740417076
21
17.3411559186
31
0.0000000000
11
9.5779765886
21
18.5917241118
31
0.0000000000
11
9.5823778918
21
19.8400875009
31
0.0000000000
0
SPLINE
5
421
100
AcDbEntity
8
0
100
AcDbSpline
62
9
6
CONTINUOUS
70
0
71
3
72
10
73
6
74
4
42
0.0000001000
43
0.0000001000
44
0.0000000001
12
0.0097006447
22
3.7790546560
32
0.0000000000
13
0.0139946297
23
3.7790411939
33
0.0000000000
40
0.0000000000
40
0.0000000000
40
0.0000000000
40
0.0000000000
40
0.3339085638
40
0.6672449486
40
1.0000000000
40
1.0000000000
40
1.0000000000
40
1.0000000000
10
9.2706385830
20
16.1031870131
30
0.0000000000
10
9.2717182925
20
16.5238065840
30
0.0000000000
10
9.2740341418
20
17.3643245633
30
0.0000000000
10
9.2779811348
20
18.6240074423
30
0.0000000000
10
9.2809283900
20
19.4630703691
30
0.0000000000
10
9.2824806513
20
19.8822353847
30
0.0000000000
11
9.2706385830
21
16.1031870131
31
0.0000000000
11
9.2741157045
21
17.3650450925
31
0.0000000000
11
9.2780631175
21
18.6247394746
31
0.0000000000
11
9.2824806513
21
19.8822353847
31
0.0000000000
0
SPLINE
5
422
100
AcDbEntity
8
0
100
AcDbSpline
62
9
6
CONTINUOUS
70
0
71
3
72
11
73
7
74
5
42
0.0000001000
43
0.0000001000
44
0.0000000001
12
-0.0755688556
22
0.2969186781
32
0.0000000000
13
-0.3063297404
23
-0.0057830359
33
0.0000000000
40
0.0000000000
40
0.0000000000
40
0.0000000000
40
0.0000000000
40
0.0973962565
40
0.3172292043
40
0.6349839422
40
1.0000000000
40
1.0000000000
40
1.0000000000
40
1.0000000000
10
9.5823778918
20
19.8400875009
30
0.0000000000
10
9.5799245173
20
19.8497270901
30
0.0000000000
10
9.5413601653
20
19.8608282778
30
0.0000000000
10
9.4835197754
20
19.8722355889
30
0.0000000000
10
9.3886932361
20
19.8797043663
30
0.0000000000
10
9.3197524524
20
19.8829390184
30
0.0000000000
10
9.2824806943
20
19.8822353847
30
0.0000000000
11
9.5823778918
21
19.8400875009
31
0.0000000000
11
9.5571556668
21
19.8560344727
31
0.0000000000
11
9.4911836486
21
19.8696053651
31
0.0000000000
11
9.3942628140
21
19.8787902173
31
0.0000000000
11
9.2824806943
21
19.8822353847
31
0.0000000000
0
SPLINE
5
423
100
AcDbEntity
8
0
100
AcDbSpline
62
9
6
CONTINUOUS
70
0
71
3
72
11
73
7
74
5
42
0.0000001000
43
0.0000001000
44
0.0000000001
12
0.4679595213
22
-0.0003206611
32
0.0000000000
13
0.0003206611
23
-0.4679595213
33
0.0000000000
40
0.0000000000
40
0.0000000000
40
0.0000000000
40
0.0000000000
40
0.2499768501
40
0.5000000000
40
0.7500231499
40
1.0000000000
40
1.0000000000
40
1.0000000000
40
1.0000000000
10
9.2824806943
20
20.1399846984
30
0.0000000000
10
9.3214737100
20
20.1399579791
30
0.0000000000
10
9.4003076239
20
20.1243063416
30
0.0000000000
10
9.4999498459
20
20.0575566524
30
0.0000000000
10
9.5666995351
20
19.9579144305
30
0.0000000000
10
9.5823511725
20
19.8790805166
30
0.0000000000
10
9.5823778918
20
19.8400875009
30
0.0000000000
11
9.2824806943
21
20.1399846984
31
0.0000000000
11
9.3971989443
21
20.1170974310
31
0.0000000000
11
9.4944674187
21
20.0520742252
31
0.0000000000
11
9.5594906245
21
19.9548057508
31
0.0000000000
11
9.5823778918
21
19.8400875009
31
0.0000000000
0
SPLINE
5
424
100
AcDbEntity
8
0
100
AcDbSpline
62
7
6
CONTINUOUS
70
0
71
3
72
15
73
11
74
9
42
0.0000001000
43
0.0000001000
44
0.0000000001
12
-0.0006387282
22
0.2578761265
32
0.0000000000
13
-0.1430318045
23
0.2145749461
33
0.0000000000
40
0.0000000000
40
0.0000000000
40
0.0000000000
40
0.0000000000
40
0.1985646408
40
0.3860129691
40
0.5565897743
40
0.7050609863
40
0.8268741771
40
0.9183018741
40
0.9765638766
40
1.0000000000
40
1.0000000000
40
1.0000000000
40
1.0000000000
10
4.1649837154
20
19.8822353847
30
0.0000000000
10
4.1649414392
20
19.8993037449
30
0.0000000000
10
4.1648067295
20
19.9324837866
30
0.0000000000
10
4.1644643951
20
19.9803308030
30
0.0000000000
10
4.1639504721
20
20.0238524260
30
0.0000000000
10
4.1634265333
20
20.0617850339
30
0.0000000000
10
4.1625019175
20
20.0927557522
30
0.0000000000
10
4.1622885726
20
20.1163586987
30
0.0000000000
10
4.1604929810
20
20.1306950039
30
0.0000000000
10
4.1610535799
20
20.1383084300
30
0.0000000000
10
4.1599362095
20
20.1399846984
30
0.0000000000
11
4.1649837154
21
19.8822353847
31
0.0000000000
11
4.1647756724
21
19.9334401996
31
0.0000000000
11
4.1644148005
21
19.9817774496
31
0.0000000000
11
4.1639121939
21
20.0257623989
31
0.0000000000
11
4.1632832994
21
20.0640445320
31
0.0000000000
11
4.1625474414
21
20.0954487221
31
0.0000000000
11
4.1617272173
21
20.1190115430
31
0.0000000000
11
4.1608478097
21
20.1340102099
31
0.0000000000
11
4.1599362095
21
20.1399846984
31
0.0000000000
0
SPLINE
5
425
100
AcDbEntity
8
0
100
AcDbSpline
62
7
6
CONTINUOUS
70
0
71
3
72
15
73
11
74
9
42
0.0000001000
43
0.0000001000
44
0.0000000001
12
-0.1430318045
22
-0.2145749460
32
0.0000000000
13
-0.0006387282
23
-0.2578761265
33
0.0000000000
40
0.0000000000
40
0.0000000000
40
0.0000000000
40
0.0000000000
40
0.0234361608
40
0.0816983440
40
0.1731263514
40
0.2949398016
40
0.4434110165
40
0.6139875527
40
0.8014355364
40
1.0000000000
40
1.0000000000
40
1.0000000000
40
1.0000000000
10
3.3858722761
20
20.1399846984
30
0.0000000000
10
3.3847549040
20
20.1383084274
30
0.0000000000
10
3.3853155054
20
20.1306949808
30
0.0000000000
10
3.3835199085
20
20.1163586321
30
0.0000000000
10
3.3833065650
20
20.0927556201
30
0.0000000000
10
3.3823819489
20
20.0617848528
30
0.0000000000
10
3.3818580112
20
20.0238522454
30
0.0000000000
10
3.3813440896
20
19.9803306749
30
0.0000000000
10
3.3810017559
20
19.9324837265
30
0.0000000000
10
3.3808670465
20
19.8993037297
30
0.0000000000
10
3.3808247702
20
19.8822353847
30
0.0000000000
11
3.3858722761
21
20.1399846984
31
0.0000000000
11
3.3849606751
21
20.1340102003
31
0.0000000000
11
3.3840812659
21
20.1190114868
31
0.0000000000
11
3.3832610404
21
20.0954485858
31
0.0000000000
11
3.3825251822
21
20.0640443288
31
0.0000000000
11
3.3818962889
21
20.0257621949
31
0.0000000000
11
3.3813936839
21
19.9817773151
31
0.0000000000
11
3.3810328130
21
19.9334401539
31
0.0000000000
11
3.3808247702
21
19.8822353847
31
0.0000000000
0
SPLINE
5
426
100
AcDbEntity
8
0
100
AcDbSpline
62
7
6
CONTINUOUS
70
0
71
3
72
15
73
11
74
9
42
0.0000001000
43
0.0000001000
44
0.0000000001
12
-0.0006387282
22
0.2578761265
32
0.0000000000
13
-0.1430318045
23
0.2145749461
33
0.0000000000
40
0.0000000000
40
0.0000000000
40
0.0000000000
40
0.0000000000
40
0.1985646408
40
0.3860129691
40
0.5565897743
40
0.7050609863
40
0.8268741771
40
0.9183018741
40
0.9765638766
40
1.0000000000
40
1.0000000000
40
1.0000000000
40
1.0000000000
10
-3.6350162846
20
19.8822353847
30
0.0000000000
10
-3.6350585608
20
19.8993037449
30
0.0000000000
10
-3.6351932705
20
19.9324837866
30
0.0000000000
10
-3.6355356049
20
19.9803308030
30
0.0000000000
10
-3.6360495279
20
20.0238524260
30
0.0000000000
10
-3.6365734667
20
20.0617850339
30
0.0000000000
10
-3.6374980825
20
20.0927557522
30
0.0000000000
10
-3.6377114274
20
20.1163586987
30
0.0000000000
10
-3.6395070190
20
20.1306950039
30
0.0000000000
10
-3.6389464201
20
20.1383084300
30
0.0000000000
10
-3.6400637905
20
20.1399846984
30
0.0000000000
11
-3.6350162846
21
19.8822353847
31
0.0000000000
11
-3.6352243276
21
19.9334401996
31
0.0000000000
11
-3.6355851995
21
19.9817774496
31
0.0000000000
11
-3.6360878061
21
20.0257623989
31
0.0000000000
11
-3.6367167006
21
20.0640445320
31
0.0000000000
11
-3.6374525586
21
20.0954487221
31
0.0000000000
11
-3.6382727827
21
20.1190115430
31
0.0000000000
11
-3.6391521903
21
20.1340102099
31
0.0000000000
11
-3.6400637905
21
20.1399846984
31
0.0000000000
0
ENDSEC
0
SECTION
2
OBJECTS
0
DICTIONARY
5
427
100
AcDbDictionary
3
ACAD_GROUP
350
428
3
ACAD_MLINESTYLE
350
429
0
DICTIONARY
5
428
102
{ACAD_REACTORS
330
427
102
}
100
AcDbDictionary
0
DICTIONARY
5
429
102
{ACAD_REACTORS
330
427
102
}
100
AcDbDictionary
3
STANDARD
350
42A
0
MLINESTYLE
5
42A
102
{ACAD_REACTORS
330
429
102
}
100
AcDbMlineStyle
2
STANDARD
70
0
3

62
256
51
90.0
52
90.0
71
2
49
0.5
62
256
6
BYLAYER
49
-0.5
62
256
6
BYLAYER
0
ENDSEC
0
EOF
