  0
SECTION
  2
HEADER
  9
$ACADVER
  1
AC1015
  9
$DWGCODEPAGE
  3
ANSI_1252
  9
$EXTMAX
 10
297.0
 20
210.0
 30
0.0
  9
$EXTMIN
 10
0.0
 20
0.0
 30
0.0
  9
$LIMMIN
 10
0.0
 20
0.0
  9
$LIMMAX
 10
297.0
 20
210.0
  9
$VIEWCTR
 10
148.5
 20
105.0
  9
$VIEWSIZE
 40
210.0
  9
$CLAYER
  8
0
  9
$LTSCALE
 40
16.335
  9
$CELTYPE
  6
BYLAYER
  9
$DIMSCALE
 40
1.0
  9
$DIMASZ
 40
3.0
  9
$DIMEXO
 40
1.85625
  9
$DIMDLI
 40
11.286
  9
$DIMEXE
 40
5.346
  9
$DIMCEN
 40
2.673
  9
$DIMLFAC
 40
1.0
  9
$DIMBLK
  1
_FILLED
  9
$DIMTXT
 40
3.0
  9
$DIMTOL
 70
1
  9
$DIMLIM
 70
0
  9
$DIMTFAC
 40
1.0
  9
$DIMTP
 40
0.01
  9
$DIMTM
 40
0.01
  9
$PDMODE
 70
3
  9
$PDSIZE
 40
3.0
  9
$HANDSEED
  5
650
  9
$TILEMODE
 70
1
  9
$MEASUREMENT
 70
1
  9
$INSUNITS
 70
4
  0
ENDSEC
  0
SECTION
  2
CLASSES
  0
CLASS
  1
ACDBDICTIONARYWDFLT
  2
AcDbDictionaryWithDefault
  3
AutoCAD 2000
 90
0
280
0
281
0
  0
CLASS
  1
ACDBPLACEHOLDER
  2
AcDbPlaceHolder
  3
AutoCAD 2000
 90
0
280
0
281
0
  0
CLASS
  1
LAYOUT
  2
AcDbLayout
  3
AutoCAD 2000
 90
0
280
0
281
0
  0
ENDSEC
  0
SECTION
  2
TABLES
  0
TABLE
  2
VPORT
  5
8
100
AcDbSymbolTable
 70
2
  0
VPORT
  5
1F4
100
AcDbSymbolTableRecord
100
AcDbViewportTableRecord
  2
*ACTIVE
 70
0
 10
0.0
 20
0.0
 11
1.0
 21
1.0
 12
148.5
 22
105.0
 13
0.0
 23
0.0
 14
1.0
 24
1.0
 15
0.0
 25
0.0
 16
0.0
 26
0.0
 36
1.0
 17
0.0
 27
0.0
 37
0.0
 40
210.0
 41
1.4142857143
 42
50.0
 43
0.0
 44
0.0
 50
0.0
 51
0.0
 71
0
 72
100
 73
1
 74
1
 75
0
 76
0
 77
0
 78
0
  0
ENDTAB
  0
TABLE
  2
LTYPE
  5
5
100
AcDbSymbolTable
 70
6
  0
LTYPE
  5
14
100
AcDbSymbolTableRecord
100
AcDbLinetypeTableRecord
  2
BYBLOCK
 70
0
  3

 72
65
 73
0
 40
0.0
  0
LTYPE
  5
15
100
AcDbSymbolTableRecord
100
AcDbLinetypeTableRecord
  2
BYLAYER
 70
0
  3

 72
65
 73
0
 40
0.0
  0
LTYPE
  5
16
100
AcDbSymbolTableRecord
100
AcDbLinetypeTableRecord
  2
CONTINUOUS
 70
64
  3
Solid line
 72
65
 73
0
 40
0.0
  0
LTYPE
  5
1F5
100
AcDbSymbolTableRecord
100
AcDbLinetypeTableRecord
  2
CENTER
 70
64
  3
____ _ ____ _ ____ _ ____ _ ____ _ ____ _ ____
 72
65
 73
4
 40
0.6
 49
0.375
 74
0
 49
-0.075
 74
0
 49
0.075
 74
0
 49
-0.075
 74
0
  0
LTYPE
  5
1F6
100
AcDbSymbolTableRecord
100
AcDbLinetypeTableRecord
  2
HIDDEN
 70
64
  3
- - - - - - - - - - - - - - - - - - - -
 72
65
 73
2
 40
0.2
 49
0.1
 74
0
 49
-0.1
 74
0
  0
LTYPE
  5
1F7
100
AcDbSymbolTableRecord
100
AcDbLinetypeTableRecord
  2
PHANTOM
 70
64
  3
_____ _ _ _____ _ _ _____ _ _ _____
 72
65
 73
6
 40
0.8
 49
0.45
 74
0
 49
-0.05
 74
0
 49
0.1
 74
0
 49
-0.05
 74
0
 49
0.1
 74
0
 49
-0.05
 74
0
  0
LTYPE
  5
1F8
100
AcDbSymbolTableRecord
100
AcDbLinetypeTableRecord
  2
DOT
 70
64
  3
. . . . . . . . . . . . . . . . . . . .
 72
65
 73
2
 40
0.2
 49
0.1
 74
0
 49
-0.1
 74
0
  0
LTYPE
  5
1F9
100
AcDbSymbolTableRecord
100
AcDbLinetypeTableRecord
  2
DASHED
 70
64
  3
- - - - - - - - - - - - - - - - - - - -
 72
65
 73
2
 40
0.2
 49
0.1
 74
0
 49
-0.1
 74
0
  0
ENDTAB
  0
TABLE
  2
LAYER
  5
2
100
AcDbSymbolTable
 70
36
  0
LAYER
  5
10
100
AcDbSymbolTableRecord
100
AcDbLayerTableRecord
  2
0
 70
0
 62
7
  6
CONTINUOUS
370
-3
390
F
  0
LAYER
  5
1FA
100
AcDbSymbolTableRecord
100
AcDbLayerTableRecord
  2
DEFAULT_1
 70
0
 62
7
  6
CENTER
370
-3
390
F
  0
LAYER
  5
1FB
100
AcDbSymbolTableRecord
100
AcDbLayerTableRecord
  2
DEFAULT_2
 70
0
 62
7
  6
HIDDEN
370
-3
390
F
  0
LAYER
  5
1FC
100
AcDbSymbolTableRecord
100
AcDbLayerTableRecord
  2
DEFAULT_3
 70
0
 62
7
  6
PHANTOM
370
-3
390
F
  0
LAYER
  5
1FD
100
AcDbSymbolTableRecord
100
AcDbLayerTableRecord
  2
320200000
 70
0
 62
7
  6
CONTINUOUS
370
-3
390
F
  0
LAYER
  5
1FE
100
AcDbSymbolTableRecord
100
AcDbLayerTableRecord
  2
361200000
 70
0
 62
7
  6
CONTINUOUS
370
-3
390
F
  0
LAYER
  5
1FF
100
AcDbSymbolTableRecord
100
AcDbLayerTableRecord
  2
ASSI
 70
0
 62
7
  6
CONTINUOUS
370
-3
390
F
  0
LAYER
  5
200
100
AcDbSymbolTableRecord
100
AcDbLayerTableRecord
  2
COLOR5
 70
0
 62
7
  6
CONTINUOUS
370
-3
390
F
  0
LAYER
  5
201
100
AcDbSymbolTableRecord
100
AcDbLayerTableRecord
  2
COLOR7
 70
0
 62
7
  6
CONTINUOUS
370
-3
390
F
  0
LAYER
  5
202
100
AcDbSymbolTableRecord
100
AcDbLayerTableRecord
  2
COORDINATE
 70
0
 62
7
  6
CONTINUOUS
370
-3
390
F
  0
LAYER
  5
203
100
AcDbSymbolTableRecord
100
AcDbLayerTableRecord
  2
COORD_ORIGINE
 70
0
 62
7
  6
CONTINUOUS
370
-3
390
F
  0
LAYER
  5
204
100
AcDbSymbolTableRecord
100
AcDbLayerTableRecord
  2
COPY_PUBLISH
 70
0
 62
7
  6
CONTINUOUS
370
-3
390
F
  0
LAYER
  5
205
100
AcDbSymbolTableRecord
100
AcDbLayerTableRecord
  2
COSMETIC
 70
0
 62
7
  6
CONTINUOUS
370
-3
390
F
  0
LAYER
  5
206
100
AcDbSymbolTableRecord
100
AcDbLayerTableRecord
  2
CURVE
 70
0
 62
7
  6
CONTINUOUS
370
-3
390
F
  0
LAYER
  5
207
100
AcDbSymbolTableRecord
100
AcDbLayerTableRecord
  2
DRAFT
 70
0
 62
7
  6
CONTINUOUS
370
-3
390
F
  0
LAYER
  5
208
100
AcDbSymbolTableRecord
100
AcDbLayerTableRecord
  2
GUSCI_ESTERNI
 70
0
 62
7
  6
CONTINUOUS
370
-3
390
F
  0
LAYER
  5
209
100
AcDbSymbolTableRecord
100
AcDbLayerTableRecord
  2
IMPORT
 70
0
 62
7
  6
CONTINUOUS
370
-3
390
F
  0
LAYER
  5
20A
100
AcDbSymbolTableRecord
100
AcDbLayerTableRecord
  2
IMPORT_FEATURES
 70
0
 62
7
  6
CONTINUOUS
370
-3
390
F
  0
LAYER
  5
20B
100
AcDbSymbolTableRecord
100
AcDbLayerTableRecord
  2
IMPORT_IGES
 70
0
 62
7
  6
CONTINUOUS
370
-3
390
F
  0
LAYER
  5
20C
100
AcDbSymbolTableRecord
100
AcDbLayerTableRecord
  2
INTF_1
 70
0
 62
7
  6
CONTINUOUS
370
-3
390
F
  0
LAYER
  5
20D
100
AcDbSymbolTableRecord
100
AcDbLayerTableRecord
  2
INTF_YELLOW
 70
0
 62
7
  6
CONTINUOUS
370
-3
390
F
  0
LAYER
  5
20E
100
AcDbSymbolTableRecord
100
AcDbLayerTableRecord
  2
NOTE
 70
0
 62
7
  6
CONTINUOUS
370
-3
390
F
  0
LAYER
  5
20F
100
AcDbSymbolTableRecord
100
AcDbLayerTableRecord
  2
PIANI
 70
0
 62
7
  6
CONTINUOUS
370
-3
390
F
  0
LAYER
  5
210
100
AcDbSymbolTableRecord
100
AcDbLayerTableRecord
  2
PIANI_ORIGINE
 70
0
 62
7
  6
CONTINUOUS
370
-3
390
F
  0
LAYER
  5
211
100
AcDbSymbolTableRecord
100
AcDbLayerTableRecord
  2
PIANI_RIFERIMENTO
 70
0
 62
7
  6
CONTINUOUS
370
-3
390
F
  0
LAYER
  5
212
100
AcDbSymbolTableRecord
100
AcDbLayerTableRecord
  2
PIANI_SFORMI
 70
0
 62
7
  6
CONTINUOUS
370
-3
390
F
  0
LAYER
  5
213
100
AcDbSymbolTableRecord
100
AcDbLayerTableRecord
  2
PRECARICO_MOLLA
 70
0
 62
7
  6
CONTINUOUS
370
-3
390
F
  0
LAYER
  5
214
100
AcDbSymbolTableRecord
100
AcDbLayerTableRecord
  2
PUNTI
 70
0
 62
7
  6
CONTINUOUS
370
-3
390
F
  0
LAYER
  5
215
100
AcDbSymbolTableRecord
100
AcDbLayerTableRecord
  2
RACCORDO
 70
0
 62
7
  6
CONTINUOUS
370
-3
390
F
  0
LAYER
  5
216
100
AcDbSymbolTableRecord
100
AcDbLayerTableRecord
  2
RGB____0____0____0__
 70
0
 62
7
  6
CONTINUOUS
370
-3
390
F
  0
LAYER
  5
217
100
AcDbSymbolTableRecord
100
AcDbLayerTableRecord
  2
SMUSSO
 70
0
 62
7
  6
CONTINUOUS
370
-3
390
F
  0
LAYER
  5
218
100
AcDbSymbolTableRecord
100
AcDbLayerTableRecord
  2
SUPERFICI
 70
0
 62
7
  6
CONTINUOUS
370
-3
390
F
  0
LAYER
  5
219
100
AcDbSymbolTableRecord
100
AcDbLayerTableRecord
  2
TRASH
 70
0
 62
7
  6
CONTINUOUS
370
-3
390
F
  0
LAYER
  5
21A
100
AcDbSymbolTableRecord
100
AcDbLayerTableRecord
  2
TRECCIE
 70
0
 62
7
  6
CONTINUOUS
370
-3
390
F
  0
LAYER
  5
21B
100
AcDbSymbolTableRecord
100
AcDbLayerTableRecord
  2
VARIE
 70
0
 62
7
  6
CONTINUOUS
370
-3
390
F
  0
LAYER
  5
21C
100
AcDbSymbolTableRecord
100
AcDbLayerTableRecord
  2
XSEC_DATUMS
 70
0
 62
7
  6
CONTINUOUS
370
-3
390
F
  0
LAYER
  5
21D
100
AcDbSymbolTableRecord
100
AcDbLayerTableRecord
  2
___SHELL
 70
0
 62
7
  6
CONTINUOUS
370
-3
390
F
  0
ENDTAB
  0
TABLE
  2
STYLE
  5
3
100
AcDbSymbolTable
 70
1
  0
STYLE
  5
11
100
AcDbSymbolTableRecord
100
AcDbTextStyleTableRecord
  2
STANDARD
 70
0
 40
0.0
 41
0.8
 50
0.0
 71
0
 42
0.2
  3
txt
  4

  0
STYLE
  5
21E
100
AcDbSymbolTableRecord
100
AcDbTextStyleTableRecord
  2
TEXTSTYLE_1
 70
0
 40
0.0
 41
0.8
 50
0.0
 71
0
 42
0.2
  3
gdt
  4

  0
ENDTAB
  0
TABLE
  2
VIEW
  5
6
100
AcDbSymbolTable
 70
0
  0
ENDTAB
  0
TABLE
  2
UCS
  5
7
100
AcDbSymbolTable
 70
0
  0
ENDTAB
  0
TABLE
  2
APPID
  5
9
100
AcDbSymbolTable
 70
1
  0
APPID
  5
21F
100
AcDbSymbolTableRecord
100
AcDbRegAppTableRecord
  2
ACAD
 70
0
  0
ENDTAB
  0
TABLE
  2
BLOCK_RECORD
  5
1
100
AcDbSymbolTable
 70
0
  0
BLOCK_RECORD
  5
220
100
AcDbSymbolTableRecord
100
AcDbBlockTableRecord
  2
*Model_Space
  0
BLOCK_RECORD
  5
221
100
AcDbSymbolTableRecord
100
AcDbBlockTableRecord
  2
*Paper_Space
  0
ENDTAB
  0
TABLE
  2
DIMSTYLE
  5
A
100
AcDbSymbolTable
 70
1
100
AcDbDimStyleTable
 71
0
  0
DIMSTYLE
105
222
100
AcDbSymbolTableRecord
100
AcDbDimStyleTableRecord
  2
STANDARD
 70
0
  3

  4

 40
1.0
 41
3.0
 42
0.0625
 43
0.38
 44
0.18
 45
0.0
 46
0.0
 47
0.01
 48
0.01
140
3.0
141
0.09
142
0.0
143
25.4
144
1.0
145
0.0
146
1.0
147
0.09
 71
1.0
 72
0.0
 73
0
 74
0
 75
0
 76
0
 77
1
 78
8
170
0
171
2
172
0
173
0
174
0
175
0
176
0
177
0
178
0
270
2
271
2
272
2
273
2
274
2
275
0
280
0
281
0
282
0
283
1
284
8
285
0
286
0
287
3
288
0
340
11
  0
ENDTAB
  0
ENDSEC
  0
SECTION
  2
BLOCKS
  0
BLOCK
  5
20
100
AcDbEntity
  8
0
100
AcDbBlockBegin
  2
*Model_Space
 70
0
 10
0.0
 20
0.0
 30
0.0
  3
*Model_Space
  1

  0
ENDBLK
  5
21
100
AcDbEntity
  8
0
100
AcDbBlockEnd
  0
BLOCK
  5
1C
100
AcDbEntity
  8
0
100
AcDbBlockBegin
  2
*Paper_Space
 70
0
 10
0.0
 20
0.0
 30
0.0
  3
*Paper_Space
  1

  0
ENDBLK
  5
1D
100
AcDbEntity
  8
0
100
AcDbBlockEnd
  0
ENDSEC
  0
SECTION
  2
ENTITIES
  0
LINE
  5
223
100
AcDbEntity
  8
0
100
AcDbLine
 62
253
  6
CONTINUOUS
 10
-8.5944708045
 20
24.5150276034
 11
-8.5900989705
 21
24.5193994374
  0
LINE
  5
224
100
AcDbEntity
  8
RACCORDO
100
AcDbLine
 62
253
  6
CONTINUOUS
 10
-8.5944708045
 20
24.5150276034
 11
-8.5900989705
 21
24.5193994374
  0
LINE
  5
225
100
AcDbEntity
  8
0
100
AcDbLine
 62
253
  6
CONTINUOUS
 10
-10.7399508762
 20
22.4193994374
 11
-10.7224958112
 21
22.4281263052
  0
LINE
  5
226
100
AcDbEntity
  8
RACCORDO
100
AcDbLine
 62
253
  6
CONTINUOUS
 10
-10.7399508762
 20
22.4193994374
 11
-10.7224958112
 21
22.4281263052
  0
LINE
  5
227
100
AcDbEntity
  8
0
100
AcDbLine
 62
7
  6
CONTINUOUS
 10
-10.4901074321
 20
-24.4806005626
 11
-8.5900989705
 21
-24.4806005626
  0
LINE
  5
228
100
AcDbEntity
  8
RACCORDO
100
AcDbLine
 62
7
  6
CONTINUOUS
 10
-10.4901074321
 20
-24.4806005626
 11
-8.5900989705
 21
-24.4806005626
  0
LINE
  5
229
100
AcDbEntity
  8
0
100
AcDbLine
 62
7
  6
CONTINUOUS
 10
8.4098925679
 20
-24.4806005626
 11
10.3099010295
 21
-24.4806005626
  0
LINE
  5
22A
100
AcDbEntity
  8
RACCORDO
100
AcDbLine
 62
7
  6
CONTINUOUS
 10
8.4098925679
 20
-24.4806005626
 11
10.3099010295
 21
-24.4806005626
  0
LINE
  5
22B
100
AcDbEntity
  8
0
100
AcDbLine
 62
253
  6
CONTINUOUS
 10
-10.4857355981
 20
-24.4762287286
 11
-8.5944708045
 21
-24.4762287286
  0
LINE
  5
22C
100
AcDbEntity
  8
RACCORDO
100
AcDbLine
 62
253
  6
CONTINUOUS
 10
-10.4857355981
 20
-24.4762287286
 11
-8.5944708045
 21
-24.4762287286
  0
LINE
  5
22D
100
AcDbEntity
  8
0
100
AcDbLine
 62
253
  6
CONTINUOUS
 10
8.4142644019
 20
-24.4762287286
 11
10.3055291955
 21
-24.4762287286
  0
LINE
  5
22E
100
AcDbEntity
  8
RACCORDO
100
AcDbLine
 62
253
  6
CONTINUOUS
 10
8.4142644019
 20
-24.4762287286
 11
10.3055291955
 21
-24.4762287286
  0
LINE
  5
22F
100
AcDbEntity
  8
0
100
AcDbLine
 62
253
  6
CONTINUOUS
 10
8.1642686327
 20
-24.2262329594
 11
10.5555249647
 21
-24.2262329594
  0
LINE
  5
230
100
AcDbEntity
  8
RACCORDO
100
AcDbLine
 62
253
  6
CONTINUOUS
 10
8.1642686327
 20
-24.2262329594
 11
10.5555249647
 21
-24.2262329594
  0
LINE
  5
231
100
AcDbEntity
  8
0
100
AcDbLine
 62
253
  6
CONTINUOUS
 10
-8.3444750353
 20
-24.2262329594
 11
-10.7357313673
 21
-24.2262329594
  0
LINE
  5
232
100
AcDbEntity
  8
RACCORDO
100
AcDbLine
 62
253
  6
CONTINUOUS
 10
-8.3444750353
 20
-24.2262329594
 11
-10.7357313673
 21
-24.2262329594
  0
LINE
  5
233
100
AcDbEntity
  8
RACCORDO
100
AcDbLine
 62
253
  6
CONTINUOUS
 10
8.1642686327
 20
-23.8249381299
 11
10.5555249647
 21
-23.8249381299
  0
LINE
  5
234
100
AcDbEntity
  8
0
100
AcDbLine
 62
253
  6
CONTINUOUS
 10
-8.3444750353
 20
-23.8249381299
 11
-10.7357313673
 21
-23.8249381299
  0
LINE
  5
235
100
AcDbEntity
  8
RACCORDO
100
AcDbLine
 62
253
  6
CONTINUOUS
 10
-8.3444750353
 20
-23.8249381299
 11
-10.7357313673
 21
-23.8249381299
  0
LINE
  5
236
100
AcDbEntity
  8
0
100
AcDbLine
 62
7
  6
CONTINUOUS
 10
-4.4901032013
 20
-23.7806005626
 11
4.3098967987
 21
-23.7806005626
  0
LINE
  5
237
100
AcDbEntity
  8
DRAFT
100
AcDbLine
 62
7
  6
CONTINUOUS
 10
-4.4901032013
 20
-23.7806005626
 11
4.3098967987
 21
-23.7806005626
  0
LINE
  5
238
100
AcDbEntity
  8
0
100
AcDbLine
 62
7
  6
CONTINUOUS
 10
-3.5901032013
 20
-23.7747827328
 11
3.4098967987
 21
-23.7747827328
  0
LINE
  5
239
100
AcDbEntity
  8
DRAFT
100
AcDbLine
 62
7
  6
CONTINUOUS
 10
3.4098967987
 20
-23.7747827328
 11
-3.5901032013
 21
-23.7747827328
  0
LINE
  5
23A
100
AcDbEntity
  8
0
100
AcDbLine
 62
253
  6
CONTINUOUS
 10
-4.4464525544
 20
-23.7369499157
 11
-3.5901032013
 21
-23.7369499157
  0
LINE
  5
23B
100
AcDbEntity
  8
ASSI
100
AcDbLine
 62
253
  6
CONTINUOUS
 10
4.2662461518
 20
-23.7369499157
 11
3.4098967987
 21
-23.7369499157
  0
LINE
  5
23C
100
AcDbEntity
  8
0
100
AcDbLine
 62
253
  6
CONTINUOUS
 10
3.4098967987
 20
-23.7369499157
 11
4.2662461518
 21
-23.7369499157
  0
LINE
  5
23D
100
AcDbEntity
  8
ASSI
100
AcDbLine
 62
253
  6
CONTINUOUS
 10
-3.5901032013
 20
-23.7369499157
 11
-4.4464525544
 21
-23.7369499157
  0
LINE
  5
23E
100
AcDbEntity
  8
0
100
AcDbLine
 62
7
  6
CONTINUOUS
 10
8.4142644019
 20
-23.6806005626
 11
10.3055291955
 21
-23.6806005626
  0
LINE
  5
23F
100
AcDbEntity
  8
RACCORDO
100
AcDbLine
 62
253
  6
CONTINUOUS
 10
10.3055291955
 20
-23.608431779
 11
8.4142644019
 21
-23.608431779
  0
LINE
  5
240
100
AcDbEntity
  8
0
100
AcDbLine
 62
253
  6
CONTINUOUS
 10
-8.5944708045
 20
-23.608431779
 11
-10.4857355981
 21
-23.608431779
  0
LINE
  5
241
100
AcDbEntity
  8
RACCORDO
100
AcDbLine
 62
253
  6
CONTINUOUS
 10
-8.5944708045
 20
-23.608431779
 11
-10.4857355981
 21
-23.608431779
  0
LINE
  5
242
100
AcDbEntity
  8
RACCORDO
100
AcDbLine
 62
7
  6
CONTINUOUS
 10
-10.4908261992
 20
-23.1032502934
 11
-8.5893802034
 21
-23.1032502934
  0
LINE
  5
243
100
AcDbEntity
  8
0
100
AcDbLine
 62
7
  6
CONTINUOUS
 10
10.3106197966
 20
-23.1032502934
 11
8.4091738008
 21
-23.1032502934
  0
LINE
  5
244
100
AcDbEntity
  8
RACCORDO
100
AcDbLine
 62
7
  6
CONTINUOUS
 10
8.4091738008
 20
-23.1032502934
 11
10.3106197966
 21
-23.1032502934
  0
LINE
  5
245
100
AcDbEntity
  8
0
100
AcDbLine
 62
7
  6
CONTINUOUS
 10
-8.5893802034
 20
-23.1032502934
 11
-10.4908261992
 21
-23.1032502934
  0
LINE
  5
246
100
AcDbEntity
  8
0
100
AcDbLine
 62
253
  6
CONTINUOUS
 10
-10.7224958112
 20
-22.3893274304
 11
-10.7399508762
 21
-22.3806005626
  0
LINE
  5
247
100
AcDbEntity
  8
RACCORDO
100
AcDbLine
 62
253
  6
CONTINUOUS
 10
-10.7224958112
 20
-22.3893274304
 11
-10.7399508762
 21
-22.3806005626
  0
LINE
  5
248
100
AcDbEntity
  8
0
100
AcDbLine
 62
253
  6
CONTINUOUS
 10
-8.5944708045
 20
-24.4762287286
 11
-8.5900989705
 21
-24.4806005626
  0
LINE
  5
249
100
AcDbEntity
  8
RACCORDO
100
AcDbLine
 62
253
  6
CONTINUOUS
 10
-8.5944708045
 20
-24.4762287286
 11
-8.5900989705
 21
-24.4806005626
  0
LINE
  5
24A
100
AcDbEntity
  8
0
100
AcDbLine
 62
253
  6
CONTINUOUS
 10
-8.3444750353
 20
24.2650318342
 11
-8.3401032013
 21
24.2694036682
  0
LINE
  5
24B
100
AcDbEntity
  8
RACCORDO
100
AcDbLine
 62
253
  6
CONTINUOUS
 10
-8.3444750353
 20
24.2650318342
 11
-8.3401032013
 21
24.2694036682
  0
LINE
  5
24C
100
AcDbEntity
  8
GUSCI_ESTERNI
100
AcDbLine
 62
7
  6
CONTINUOUS
 10
5.3598967987
 20
-21.5806005626
 11
8.2854275185
 21
-21.5550698428
  0
LINE
  5
24D
100
AcDbEntity
  8
ASSI
100
AcDbLine
 62
7
  6
CONTINUOUS
 10
5.3598967987
 20
-21.5806005626
 11
8.2854275185
 21
-21.5550698428
  0
LINE
  5
24E
100
AcDbEntity
  8
0
100
AcDbLine
 62
7
  6
CONTINUOUS
 10
10.5422894086
 20
-22.3893274304
 11
8.0183479636
 21
-22.3893274304
  0
LINE
  5
24F
100
AcDbEntity
  8
RACCORDO
100
AcDbLine
 62
7
  6
CONTINUOUS
 10
10.5422894086
 20
-22.3893274304
 11
8.0183479636
 21
-22.3893274304
  0
LINE
  5
250
100
AcDbEntity
  8
0
100
AcDbLine
 62
7
  6
CONTINUOUS
 10
-8.1985543663
 20
-22.3893274304
 11
-10.7224958112
 21
-22.3893274304
  0
LINE
  5
251
100
AcDbEntity
  8
RACCORDO
100
AcDbLine
 62
7
  6
CONTINUOUS
 10
-8.1985543663
 20
-22.3893274304
 11
-10.7224958112
 21
-22.3893274304
  0
LINE
  5
252
100
AcDbEntity
  8
0
100
AcDbLine
 62
7
  6
CONTINUOUS
 10
-8.1393302276
 20
-22.3880816847
 11
-4.4892727159
 21
-22.3880816847
  0
LINE
  5
253
100
AcDbEntity
  8
RACCORDO
100
AcDbLine
 62
7
  6
CONTINUOUS
 10
7.9591238249
 20
-22.3880816847
 11
4.3090663133
 21
-22.3880816847
  0
LINE
  5
254
100
AcDbEntity
  8
0
100
AcDbLine
 62
7
  6
CONTINUOUS
 10
4.3090663133
 20
-22.3880816847
 11
7.9591238249
 21
-22.3880816847
  0
LINE
  5
255
100
AcDbEntity
  8
RACCORDO
100
AcDbLine
 62
7
  6
CONTINUOUS
 10
-4.4892727159
 20
-22.3880816847
 11
-8.1393302276
 21
-22.3880816847
  0
LINE
  5
256
100
AcDbEntity
  8
0
100
AcDbLine
 62
7
  6
CONTINUOUS
 10
-10.7399508762
 20
-22.3806005626
 11
-7.3401032013
 21
-22.3806005626
  0
LINE
  5
257
100
AcDbEntity
  8
RACCORDO
100
AcDbLine
 62
7
  6
CONTINUOUS
 10
-10.7399508762
 20
-22.3806005626
 11
-7.3401032013
 21
-22.3806005626
  0
LINE
  5
258
100
AcDbEntity
  8
0
100
AcDbLine
 62
7
  6
CONTINUOUS
 10
-3.5901032013
 20
-22.3806005626
 11
-3.0901032013
 21
-22.3806005626
  0
LINE
  5
259
100
AcDbEntity
  8
DRAFT
100
AcDbLine
 62
7
  6
CONTINUOUS
 10
-3.5901032013
 20
-22.3806005626
 11
-3.0901032013
 21
-22.3806005626
  0
LINE
  5
25A
100
AcDbEntity
  8
0
100
AcDbLine
 62
7
  6
CONTINUOUS
 10
2.9098967987
 20
-22.3806005626
 11
3.4098967987
 21
-22.3806005626
  0
LINE
  5
25B
100
AcDbEntity
  8
DRAFT
100
AcDbLine
 62
7
  6
CONTINUOUS
 10
2.9098967987
 20
-22.3806005626
 11
3.4098967987
 21
-22.3806005626
  0
LINE
  5
25C
100
AcDbEntity
  8
0
100
AcDbLine
 62
7
  6
CONTINUOUS
 10
7.1598967987
 20
-22.3806005626
 11
10.5597444735
 21
-22.3806005626
  0
LINE
  5
25D
100
AcDbEntity
  8
RACCORDO
100
AcDbLine
 62
7
  6
CONTINUOUS
 10
7.1598967987
 20
-22.3806005626
 11
10.5597444735
 21
-22.3806005626
  0
LINE
  5
25E
100
AcDbEntity
  8
0
100
AcDbLine
 62
253
  6
CONTINUOUS
 10
-7.4187211667
 20
-22.3019825972
 11
-3.0901032013
 21
-22.3019825972
  0
LINE
  5
25F
100
AcDbEntity
  8
RACCORDO
100
AcDbLine
 62
253
  6
CONTINUOUS
 10
-7.4187211667
 20
-22.3019825972
 11
-3.0901032013
 21
-22.3019825972
  0
LINE
  5
260
100
AcDbEntity
  8
0
100
AcDbLine
 62
253
  6
CONTINUOUS
 10
2.9098967987
 20
-22.3019825972
 11
7.2385147641
 21
-22.3019825972
  0
LINE
  5
261
100
AcDbEntity
  8
RACCORDO
100
AcDbLine
 62
253
  6
CONTINUOUS
 10
2.9098967987
 20
-22.3019825972
 11
7.2385147641
 21
-22.3019825972
  0
LINE
  5
262
100
AcDbEntity
  8
ASSI
100
AcDbLine
 62
7
  6
CONTINUOUS
 10
-5.5401032013
 20
-21.7393274304
 11
5.3598967987
 21
-21.7393274304
  0
LINE
  5
263
100
AcDbEntity
  8
ASSI
100
AcDbLine
 62
7
  6
CONTINUOUS
 10
-5.5401032013
 20
-21.6830391332
 11
-7.8401036295
 21
-21.6629673335
  0
LINE
  5
264
100
AcDbEntity
  8
GUSCI_ESTERNI
100
AcDbLine
 62
7
  6
CONTINUOUS
 10
-5.5401032013
 20
-21.4806005626
 11
-8.4656339211
 21
-21.4550698428
  0
LINE
  5
265
100
AcDbEntity
  8
0
100
AcDbLine
 62
253
  6
CONTINUOUS
 10
-8.3444750353
 20
-24.2262329594
 11
-8.3401032013
 21
-24.2306047934
  0
LINE
  5
266
100
AcDbEntity
  8
RACCORDO
100
AcDbLine
 62
253
  6
CONTINUOUS
 10
-8.3444750353
 20
-24.2262329594
 11
-8.3401032013
 21
-24.2306047934
  0
LINE
  5
267
100
AcDbEntity
  8
GUSCI_ESTERNI
100
AcDbLine
 62
7
  6
CONTINUOUS
 10
-10.9401032013
 20
19.0193994374
 11
-8.4656339211
 21
21.4938687176
  0
LINE
  5
268
100
AcDbEntity
  8
0
100
AcDbLine
 62
7
  6
CONTINUOUS
 10
-10.9401032013
 20
18.9693994374
 11
-11.2627947857
 21
18.646707853
  0
LINE
  5
269
100
AcDbEntity
  8
DRAFT
100
AcDbLine
 62
7
  6
CONTINUOUS
 10
-10.9401032013
 20
18.9693994374
 11
-11.2627947857
 21
18.646707853
  0
LINE
  5
26A
100
AcDbEntity
  8
0
100
AcDbLine
 62
7
  6
CONTINUOUS
 10
-8.2638731818
 20
21.4956294569
 11
-7.3401032013
 21
22.4193994374
  0
LINE
  5
26B
100
AcDbEntity
  8
RACCORDO
100
AcDbLine
 62
7
  6
CONTINUOUS
 10
-8.2638731818
 20
21.4956294569
 11
-7.3401032013
 21
22.4193994374
  0
LINE
  5
26C
100
AcDbEntity
  8
GUSCI_ESTERNI
100
AcDbLine
 62
253
  6
CONTINUOUS
 10
5.3598967987
 20
-20.5806386395
 11
9.2941928028
 21
-20.5463045585
  0
LINE
  5
26D
100
AcDbEntity
  8
ASSI
100
AcDbLine
 62
253
  6
CONTINUOUS
 10
5.3598967987
 20
-20.5806386395
 11
9.2941928028
 21
-20.5463045585
  0
LINE
  5
26E
100
AcDbEntity
  8
GUSCI_ESTERNI
100
AcDbLine
 62
7
  6
CONTINUOUS
 10
10.7598967987
 20
-19.4617509301
 11
10.3774112995
 21
-19.4630860618
  0
LINE
  5
26F
100
AcDbEntity
  8
ASSI
100
AcDbLine
 62
7
  6
CONTINUOUS
 10
10.7598967987
 20
-19.4617509301
 11
10.3774112995
 21
-19.4630860618
  0
LINE
  5
270
100
AcDbEntity
  8
0
100
AcDbLine
 62
7
  6
CONTINUOUS
 10
-9.7401032013
 20
-20.8806005626
 11
-9.0401032013
 21
-20.8806005626
  0
LINE
  5
271
100
AcDbEntity
  8
DRAFT
100
AcDbLine
 62
7
  6
CONTINUOUS
 10
9.5598967987
 20
-20.8806005626
 11
8.9598967987
 21
-20.8806005626
  0
LINE
  5
272
100
AcDbEntity
  8
0
100
AcDbLine
 62
7
  6
CONTINUOUS
 10
8.9598967987
 20
-20.8806005626
 11
9.5598967987
 21
-20.8806005626
  0
LINE
  5
273
100
AcDbEntity
  8
DRAFT
100
AcDbLine
 62
7
  6
CONTINUOUS
 10
-9.0401032013
 20
-20.8806005626
 11
-9.7401032013
 21
-20.8806005626
  0
LINE
  5
274
100
AcDbEntity
  8
RACCORDO
100
AcDbLine
 62
253
  6
CONTINUOUS
 10
-9.5968955078
 20
-20.8090021691
 11
-9.1117015949
 21
-20.8090021691
  0
LINE
  5
275
100
AcDbEntity
  8
0
100
AcDbLine
 62
253
  6
CONTINUOUS
 10
9.4166891052
 20
-20.8090021691
 11
9.0314951922
 21
-20.8090021691
  0
LINE
  5
276
100
AcDbEntity
  8
RACCORDO
100
AcDbLine
 62
253
  6
CONTINUOUS
 10
9.0314951922
 20
-20.8090021691
 11
9.4166891052
 21
-20.8090021691
  0
LINE
  5
277
100
AcDbEntity
  8
0
100
AcDbLine
 62
253
  6
CONTINUOUS
 10
-9.1117015949
 20
-20.8090021691
 11
-9.5968955078
 21
-20.8090021691
  0
LINE
  5
278
100
AcDbEntity
  8
ASSI
100
AcDbLine
 62
253
  6
CONTINUOUS
 10
5.3598967987
 20
-20.739289352
 11
-5.5401032013
 21
-20.739289352
  0
LINE
  5
279
100
AcDbEntity
  8
GUSCI_ESTERNI
100
AcDbLine
 62
253
  6
CONTINUOUS
 10
-5.5401032013
 20
-20.4806386395
 11
-9.4743992054
 21
-20.4463045585
  0
LINE
  5
27A
100
AcDbEntity
  8
GUSCI_ESTERNI
100
AcDbLine
 62
7
  6
CONTINUOUS
 10
-8.4656339211
 20
-21.4550698428
 11
-10.9401032013
 21
-18.9806005626
  0
LINE
  5
27B
100
AcDbEntity
  8
0
100
AcDbLine
 62
7
  6
CONTINUOUS
 10
-11.2627947857
 20
-18.6079089782
 11
-10.9401032013
 21
-18.9306005626
  0
LINE
  5
27C
100
AcDbEntity
  8
DRAFT
100
AcDbLine
 62
7
  6
CONTINUOUS
 10
-11.2627947857
 20
-18.6079089782
 11
-10.9401032013
 21
-18.9306005626
  0
LINE
  5
27D
100
AcDbEntity
  8
0
100
AcDbLine
 62
7
  6
CONTINUOUS
 10
-7.3401032013
 20
-22.3806005626
 11
-8.2638731818
 21
-21.4568305821
  0
LINE
  5
27E
100
AcDbEntity
  8
RACCORDO
100
AcDbLine
 62
7
  6
CONTINUOUS
 10
-7.3401032013
 20
-22.3806005626
 11
-8.2638731818
 21
-21.4568305821
  0
LINE
  5
27F
100
AcDbEntity
  8
GUSCI_ESTERNI
100
AcDbLine
 62
7
  6
CONTINUOUS
 10
8.2598967987
 20
-18.6506005626
 11
5.3598967987
 21
-18.6506005626
  0
LINE
  5
280
100
AcDbEntity
  8
ASSI
100
AcDbLine
 62
7
  6
CONTINUOUS
 10
8.2598967987
 20
-18.6506005626
 11
5.3598967987
 21
-18.6506005626
  0
LINE
  5
281
100
AcDbEntity
  8
ASSI
100
AcDbLine
 62
7
  6
CONTINUOUS
 10
-5.5401032013
 20
-18.6306005626
 11
5.3598967987
 21
-18.6306005626
  0
LINE
  5
282
100
AcDbEntity
  8
GUSCI_ESTERNI
100
AcDbLine
 62
7
  6
CONTINUOUS
 10
-5.5401032013
 20
-18.6306005626
 11
-8.4401032013
 21
-18.6306005626
  0
LINE
  5
283
100
AcDbEntity
  8
ASSI
100
AcDbLine
 62
7
  6
CONTINUOUS
 10
5.3598967987
 20
-18.613146827
 11
-5.5401032013
 21
-18.613146827
  0
LINE
  5
284
100
AcDbEntity
  8
GUSCI_ESTERNI
100
AcDbLine
 62
7
  6
CONTINUOUS
 10
5.3598967987
 20
-17.1306005626
 11
8.5098967987
 21
-17.1237281542
  0
LINE
  5
285
100
AcDbEntity
  8
ASSI
100
AcDbLine
 62
7
  6
CONTINUOUS
 10
5.3598967987
 20
-17.1306005626
 11
8.5098967987
 21
-17.1237281542
  0
LINE
  5
286
100
AcDbEntity
  8
GUSCI_ESTERNI
100
AcDbLine
 62
7
  6
CONTINUOUS
 10
5.3598967987
 20
-17.6556005626
 11
8.5598967987
 21
-17.6556005626
  0
LINE
  5
287
100
AcDbEntity
  8
ASSI
100
AcDbLine
 62
7
  6
CONTINUOUS
 10
5.3598967987
 20
-17.6556005626
 11
8.5598967987
 21
-17.6556005626
  0
LINE
  5
288
100
AcDbEntity
  8
ASSI
100
AcDbLine
 62
7
  6
CONTINUOUS
 10
-5.5401032013
 20
-17.6480542982
 11
-2.3225923503
 21
-17.6480542982
  0
LINE
  5
289
100
AcDbEntity
  8
ASSI
100
AcDbLine
 62
7
  6
CONTINUOUS
 10
5.3598967987
 20
-17.6480542982
 11
2.1423859477
 21
-17.6480542982
  0
LINE
  5
28A
100
AcDbEntity
  8
GUSCI_ESTERNI
100
AcDbLine
 62
7
  6
CONTINUOUS
 10
-8.7401032013
 20
-17.6306005626
 11
-5.5401032013
 21
-17.6306005626
  0
LINE
  5
28B
100
AcDbEntity
  8
ASSI
100
AcDbLine
 62
7
  6
CONTINUOUS
 10
-5.5401032013
 20
-17.6306005626
 11
-2.3400460859
 21
-17.6306005626
  0
LINE
  5
28C
100
AcDbEntity
  8
ASSI
100
AcDbLine
 62
7
  6
CONTINUOUS
 10
5.3598967987
 20
-17.6306005626
 11
2.1598396833
 21
-17.6306005626
  0
LINE
  5
28D
100
AcDbEntity
  8
ASSI
100
AcDbLine
 62
7
  6
CONTINUOUS
 10
5.3598967987
 20
-17.1306005626
 11
2.1598967987
 21
-17.1306005626
  0
LINE
  5
28E
100
AcDbEntity
  8
DRAFT
100
AcDbLine
 62
7
  6
CONTINUOUS
 10
-8.5401032013
 20
-17.0306005626
 11
-5.5401032013
 21
-17.0306005626
  0
LINE
  5
28F
100
AcDbEntity
  8
GUSCI_ESTERNI
100
AcDbLine
 62
7
  6
CONTINUOUS
 10
5.3598967987
 20
-16.8806005626
 11
8.5098967987
 21
-16.8806005626
  0
LINE
  5
290
100
AcDbEntity
  8
ASSI
100
AcDbLine
 62
7
  6
CONTINUOUS
 10
2.1598967987
 20
-16.8806005626
 11
8.5098967987
 21
-16.8806005626
  0
LINE
  5
291
100
AcDbEntity
  8
GUSCI_ESTERNI
100
AcDbLine
 62
253
  6
CONTINUOUS
 10
-9.7218563977
 20
-16.3806005626
 11
-9.6061286051
 21
-16.3806005626
  0
LINE
  5
292
100
AcDbEntity
  8
GUSCI_ESTERNI
100
AcDbLine
 62
253
  6
CONTINUOUS
 10
9.5008623839
 20
-16.1306005626
 11
9.4781426352
 21
-16.1306005626
  0
LINE
  5
293
100
AcDbEntity
  8
ASSI
100
AcDbLine
 62
253
  6
CONTINUOUS
 10
9.5008623839
 20
-16.1306005626
 11
9.4781426352
 21
-16.1306005626
  0
LINE
  5
294
100
AcDbEntity
  8
GUSCI_ESTERNI
100
AcDbLine
 62
7
  6
CONTINUOUS
 10
-5.5401032013
 20
-17.3806005626
 11
-8.7401032013
 21
-17.3666375741
  0
LINE
  5
295
100
AcDbEntity
  8
ASSI
100
AcDbLine
 62
7
  6
CONTINUOUS
 10
-0.0858920781
 20
21.7736105606
 11
-0.0814524888
 21
21.7780501499
  0
LINE
  5
296
100
AcDbEntity
  8
RACCORDO
100
AcDbLine
 62
7
  6
CONTINUOUS
 10
9.5598967987
 20
20.9193994374
 11
9.4166891052
 21
20.8478010438
  0
LINE
  5
297
100
AcDbEntity
  8
0
100
AcDbLine
 62
7
  6
CONTINUOUS
 10
9.4166891052
 20
20.8478010438
 11
9.5598967987
 21
20.9193994374
  0
LINE
  5
298
100
AcDbEntity
  8
GUSCI_ESTERNI
100
AcDbLine
 62
253
  6
CONTINUOUS
 10
9.5008623839
 20
-14.1306005626
 11
9.4781426352
 21
-14.1306005626
  0
LINE
  5
299
100
AcDbEntity
  8
ASSI
100
AcDbLine
 62
253
  6
CONTINUOUS
 10
9.5008623839
 20
-14.1306005626
 11
9.4781426352
 21
-14.1306005626
  0
LINE
  5
29A
100
AcDbEntity
  8
GUSCI_ESTERNI
100
AcDbLine
 62
7
  6
CONTINUOUS
 10
-9.7401032013
 20
-15.1439477179
 11
-9.5401032013
 21
-15.1456930915
  0
LINE
  5
29B
100
AcDbEntity
  8
GUSCI_ESTERNI
100
AcDbLine
 62
7
  6
CONTINUOUS
 10
-9.7401032013
 20
-14.6548563026
 11
-9.5401032013
 21
-14.6566016762
  0
LINE
  5
29C
100
AcDbEntity
  8
0
100
AcDbLine
 62
7
  6
CONTINUOUS
 10
9.5598967987
 20
-20.8806005626
 11
9.4166891052
 21
-20.8090021691
  0
LINE
  5
29D
100
AcDbEntity
  8
RACCORDO
100
AcDbLine
 62
7
  6
CONTINUOUS
 10
9.4166891052
 20
-20.8090021691
 11
9.5598967987
 21
-20.8806005626
  0
LINE
  5
29E
100
AcDbEntity
  8
0
100
AcDbLine
 62
7
  6
CONTINUOUS
 10
4.3098967987
 20
23.8193994374
 11
4.2662461518
 21
23.7757487905
  0
LINE
  5
29F
100
AcDbEntity
  8
ASSI
100
AcDbLine
 62
7
  6
CONTINUOUS
 10
4.3098967987
 20
23.8193994374
 11
4.2662461518
 21
23.7757487905
  0
LINE
  5
2A0
100
AcDbEntity
  8
GUSCI_ESTERNI
100
AcDbLine
 62
7
  6
CONTINUOUS
 10
-5.5401032013
 20
-12.8806005626
 11
-8.7401032013
 21
-12.8945635511
  0
LINE
  5
2A1
100
AcDbEntity
  8
GUSCI_ESTERNI
100
AcDbLine
 62
253
  6
CONTINUOUS
 10
-9.7218563977
 20
-13.8806005626
 11
-9.6061286051
 21
-13.8806005626
  0
LINE
  5
2A2
100
AcDbEntity
  8
0
100
AcDbLine
 62
7
  6
CONTINUOUS
 10
1.445890367
 20
-13.6806005626
 11
2.6098967987
 21
-13.6806005626
  0
LINE
  5
2A3
100
AcDbEntity
  8
0
100
AcDbLine
 62
7
  6
CONTINUOUS
 10
8.1098967987
 20
-13.6806005626
 11
9.2237885971
 21
-13.6806005626
  0
LINE
  5
2A4
100
AcDbEntity
  8
GUSCI_ESTERNI
100
AcDbLine
 62
7
  6
CONTINUOUS
 10
8.5098967987
 20
-13.3806005626
 11
5.3598967987
 21
-13.3806005626
  0
LINE
  5
2A5
100
AcDbEntity
  8
ASSI
100
AcDbLine
 62
7
  6
CONTINUOUS
 10
2.1598967987
 20
-13.3806005626
 11
8.5098967987
 21
-13.3806005626
  0
LINE
  5
2A6
100
AcDbEntity
  8
DRAFT
100
AcDbLine
 62
7
  6
CONTINUOUS
 10
-5.5401032013
 20
-13.2306005626
 11
-8.5401032013
 21
-13.2306005626
  0
LINE
  5
2A7
100
AcDbEntity
  8
ASSI
100
AcDbLine
 62
7
  6
CONTINUOUS
 10
2.1598967987
 20
-13.1306005626
 11
5.3598967987
 21
-13.1306005626
  0
LINE
  5
2A8
100
AcDbEntity
  8
ASSI
100
AcDbLine
 62
7
  6
CONTINUOUS
 10
-5.5401032013
 20
-12.6306005626
 11
-2.3400460859
 21
-12.6306005626
  0
LINE
  5
2A9
100
AcDbEntity
  8
ASSI
100
AcDbLine
 62
7
  6
CONTINUOUS
 10
5.3598967987
 20
-12.6306005626
 11
2.1598396833
 21
-12.6306005626
  0
LINE
  5
2AA
100
AcDbEntity
  8
GUSCI_ESTERNI
100
AcDbLine
 62
7
  6
CONTINUOUS
 10
-5.5401032013
 20
-12.6306005626
 11
-8.7401032013
 21
-12.6306005626
  0
LINE
  5
2AB
100
AcDbEntity
  8
ASSI
100
AcDbLine
 62
7
  6
CONTINUOUS
 10
-5.5401032013
 20
-12.613146827
 11
-2.3225923503
 21
-12.613146827
  0
LINE
  5
2AC
100
AcDbEntity
  8
ASSI
100
AcDbLine
 62
7
  6
CONTINUOUS
 10
5.3598967987
 20
-12.613146827
 11
2.1423859477
 21
-12.613146827
  0
LINE
  5
2AD
100
AcDbEntity
  8
GUSCI_ESTERNI
100
AcDbLine
 62
7
  6
CONTINUOUS
 10
8.5598967987
 20
-12.6056005626
 11
5.3598967987
 21
-12.6056005626
  0
LINE
  5
2AE
100
AcDbEntity
  8
ASSI
100
AcDbLine
 62
7
  6
CONTINUOUS
 10
8.5598967987
 20
-12.6056005626
 11
5.3598967987
 21
-12.6056005626
  0
LINE
  5
2AF
100
AcDbEntity
  8
GUSCI_ESTERNI
100
AcDbLine
 62
7
  6
CONTINUOUS
 10
5.3598967987
 20
-13.1306005626
 11
8.5098967987
 21
-13.137472971
  0
LINE
  5
2B0
100
AcDbEntity
  8
ASSI
100
AcDbLine
 62
7
  6
CONTINUOUS
 10
5.3598967987
 20
-13.1306005626
 11
8.5098967987
 21
-13.137472971
  0
LINE
  5
2B1
100
AcDbEntity
  8
ASSI
100
AcDbLine
 62
253
  6
CONTINUOUS
 10
-2.3400460859
 20
-17.6306005626
 11
-2.3225923503
 21
-17.6480542982
  0
LINE
  5
2B2
100
AcDbEntity
  8
0
100
AcDbLine
 62
7
  6
CONTINUOUS
 10
4.3098967987
 20
-23.7806005626
 11
4.2662461518
 21
-23.7369499157
  0
LINE
  5
2B3
100
AcDbEntity
  8
ASSI
100
AcDbLine
 62
7
  6
CONTINUOUS
 10
4.3098967987
 20
-23.7806005626
 11
4.2662461518
 21
-23.7369499157
  0
LINE
  5
2B4
100
AcDbEntity
  8
DRAFT
100
AcDbLine
 62
7
  6
CONTINUOUS
 10
-11.2627947857
 20
11.5193994374
 11
-11.1388638247
 21
4.1671342095
  0
LINE
  5
2B5
100
AcDbEntity
  8
0
100
AcDbLine
 62
7
  6
CONTINUOUS
 10
-11.1388638247
 20
4.1671342095
 11
-11.2627947857
 21
11.5193994374
  0
LINE
  5
2B6
100
AcDbEntity
  8
0
100
AcDbLine
 62
253
  6
CONTINUOUS
 10
-10.7357313673
 20
-23.8249381299
 11
-10.7401032013
 21
-23.3910857108
  0
LINE
  5
2B7
100
AcDbEntity
  8
RACCORDO
100
AcDbLine
 62
253
  6
CONTINUOUS
 10
-10.7357313673
 20
-23.8249381299
 11
-10.7401032013
 21
-23.3910857108
  0
LINE
  5
2B8
100
AcDbEntity
  8
0
100
AcDbLine
 62
253
  6
CONTINUOUS
 10
-10.4857355981
 20
-23.608431779
 11
-10.4908261992
 21
-23.1032502934
  0
LINE
  5
2B9
100
AcDbEntity
  8
RACCORDO
100
AcDbLine
 62
253
  6
CONTINUOUS
 10
-10.4857355981
 20
-23.608431779
 11
-10.4908261992
 21
-23.1032502934
  0
LINE
  5
2BA
100
AcDbEntity
  8
0
100
AcDbLine
 62
7
  6
CONTINUOUS
 10
-11.2627947857
 20
18.646707853
 11
-11.2627947857
 21
11.5193994374
  0
LINE
  5
2BB
100
AcDbEntity
  8
0
100
AcDbLine
 62
7
  6
CONTINUOUS
 10
-11.2627947857
 20
-11.4806005626
 11
-11.2627947857
 21
-18.6079089782
  0
LINE
  5
2BC
100
AcDbEntity
  8
DRAFT
100
AcDbLine
 62
7
  6
CONTINUOUS
 10
-11.2627947857
 20
-18.6079089782
 11
-11.2627947857
 21
-11.4806005626
  0
LINE
  5
2BD
100
AcDbEntity
  8
DRAFT
100
AcDbLine
 62
7
  6
CONTINUOUS
 10
-11.2627947857
 20
11.5193994374
 11
-11.2627947857
 21
18.646707853
  0
LINE
  5
2BE
100
AcDbEntity
  8
0
100
AcDbLine
 62
7
  6
CONTINUOUS
 10
-11.2401032013
 20
-21.880505371
 11
-11.2401032013
 21
-18.6306005626
  0
LINE
  5
2BF
100
AcDbEntity
  8
RACCORDO
100
AcDbLine
 62
7
  6
CONTINUOUS
 10
-11.2401032013
 20
-21.880505371
 11
-11.2401032013
 21
-18.6306005626
  0
LINE
  5
2C0
100
AcDbEntity
  8
0
100
AcDbLine
 62
7
  6
CONTINUOUS
 10
-11.2401032013
 20
18.6693994374
 11
-11.2401032013
 21
21.9193042458
  0
LINE
  5
2C1
100
AcDbEntity
  8
RACCORDO
100
AcDbLine
 62
7
  6
CONTINUOUS
 10
-11.2401032013
 20
18.6693994374
 11
-11.2401032013
 21
21.9193042458
  0
LINE
  5
2C2
100
AcDbEntity
  8
0
100
AcDbLine
 62
7
  6
CONTINUOUS
 10
-11.1388638247
 20
4.1671342095
 11
-11.1388638247
 21
-4.1283353347
  0
LINE
  5
2C3
100
AcDbEntity
  8
DRAFT
100
AcDbLine
 62
7
  6
CONTINUOUS
 10
-11.1388638247
 20
4.1671342095
 11
-11.1388638247
 21
-4.1283353347
  0
LINE
  5
2C4
100
AcDbEntity
  8
0
100
AcDbLine
 62
253
  6
CONTINUOUS
 10
-11.0401032013
 20
-4.1283353347
 11
-11.0401032013
 21
4.1671342095
  0
LINE
  5
2C5
100
AcDbEntity
  8
RACCORDO
100
AcDbLine
 62
253
  6
CONTINUOUS
 10
-11.0401032013
 20
-4.1283353347
 11
-11.0401032013
 21
4.1671342095
  0
LINE
  5
2C6
100
AcDbEntity
  8
GUSCI_ESTERNI
100
AcDbLine
 62
7
  6
CONTINUOUS
 10
-10.9401032013
 20
-18.9806005626
 11
-10.9401032013
 21
19.0193994374
  0
LINE
  5
2C7
100
AcDbEntity
  8
0
100
AcDbLine
 62
7
  6
CONTINUOUS
 10
-10.7401032013
 20
-22.546312608
 11
-10.7401032013
 21
-24.2306047934
  0
LINE
  5
2C8
100
AcDbEntity
  8
RACCORDO
100
AcDbLine
 62
7
  6
CONTINUOUS
 10
-10.7401032013
 20
-22.546312608
 11
-10.7401032013
 21
-24.2306047934
  0
LINE
  5
2C9
100
AcDbEntity
  8
0
100
AcDbLine
 62
7
  6
CONTINUOUS
 10
-10.7401032013
 20
22.5851114828
 11
-10.7401032013
 21
24.2694036682
  0
LINE
  5
2CA
100
AcDbEntity
  8
RACCORDO
100
AcDbLine
 62
7
  6
CONTINUOUS
 10
-10.7401032013
 20
22.5851114828
 11
-10.7401032013
 21
24.2694036682
  0
LINE
  5
2CB
100
AcDbEntity
  8
0
100
AcDbLine
 62
253
  6
CONTINUOUS
 10
-10.7357313673
 20
24.2650318342
 11
-10.7357313673
 21
23.8637370047
  0
LINE
  5
2CC
100
AcDbEntity
  8
RACCORDO
100
AcDbLine
 62
253
  6
CONTINUOUS
 10
-10.7357313673
 20
24.2650318342
 11
-10.7357313673
 21
23.8637370047
  0
LINE
  5
2CD
100
AcDbEntity
  8
0
100
AcDbLine
 62
253
  6
CONTINUOUS
 10
-10.7357313673
 20
-23.8249381299
 11
-10.7357313673
 21
-24.2262329594
  0
LINE
  5
2CE
100
AcDbEntity
  8
RACCORDO
100
AcDbLine
 62
253
  6
CONTINUOUS
 10
-10.7357313673
 20
-23.8249381299
 11
-10.7357313673
 21
-24.2262329594
  0
LINE
  5
2CF
100
AcDbEntity
  8
0
100
AcDbLine
 62
253
  6
CONTINUOUS
 10
-10.7401032013
 20
23.4298845856
 11
-10.7357313673
 21
23.8637370047
  0
LINE
  5
2D0
100
AcDbEntity
  8
RACCORDO
100
AcDbLine
 62
253
  6
CONTINUOUS
 10
-10.7401032013
 20
23.4298845856
 11
-10.7357313673
 21
23.8637370047
  0
LINE
  5
2D1
100
AcDbEntity
  8
0
100
AcDbLine
 62
253
  6
CONTINUOUS
 10
-10.4908261992
 20
23.1420491682
 11
-10.4857355981
 21
23.6472306537
  0
LINE
  5
2D2
100
AcDbEntity
  8
RACCORDO
100
AcDbLine
 62
253
  6
CONTINUOUS
 10
-10.4908261992
 20
23.1420491682
 11
-10.4850083694
 21
23.7193994374
  0
LINE
  5
2D3
100
AcDbEntity
  8
DRAFT
100
AcDbLine
 62
7
  6
CONTINUOUS
 10
-11.1388638247
 20
-4.1283353347
 11
-11.2627947857
 21
-11.4806005626
  0
LINE
  5
2D4
100
AcDbEntity
  8
0
100
AcDbLine
 62
7
  6
CONTINUOUS
 10
-11.2627947857
 20
-11.4806005626
 11
-11.1388638247
 21
-4.1283353347
  0
LINE
  5
2D5
100
AcDbEntity
  8
ASSI
100
AcDbLine
 62
7
  6
CONTINUOUS
 10
5.3598967987
 20
-11.6480542982
 11
-5.5401032013
 21
-11.6480542982
  0
LINE
  5
2D6
100
AcDbEntity
  8
ASSI
100
AcDbLine
 62
7
  6
CONTINUOUS
 10
-1.2770128996
 20
-11.6436908643
 11
-0.103193503
 21
-11.6436908643
  0
LINE
  5
2D7
100
AcDbEntity
  8
GUSCI_ESTERNI
100
AcDbLine
 62
7
  6
CONTINUOUS
 10
-8.4401032013
 20
-11.6306005626
 11
-5.5401032013
 21
-11.6306005626
  0
LINE
  5
2D8
100
AcDbEntity
  8
ASSI
100
AcDbLine
 62
7
  6
CONTINUOUS
 10
-5.5401032013
 20
-11.6306005626
 11
-1.2901032013
 21
-11.6306005626
  0
LINE
  5
2D9
100
AcDbEntity
  8
ASSI
100
AcDbLine
 62
7
  6
CONTINUOUS
 10
-0.0901032013
 20
-11.6306005626
 11
5.3598967987
 21
-11.6306005626
  0
LINE
  5
2DA
100
AcDbEntity
  8
GUSCI_ESTERNI
100
AcDbLine
 62
7
  6
CONTINUOUS
 10
5.3598967987
 20
-11.6106005626
 11
8.2598967987
 21
-11.6106005626
  0
LINE
  5
2DB
100
AcDbEntity
  8
ASSI
100
AcDbLine
 62
7
  6
CONTINUOUS
 10
5.3598967987
 20
-11.6106005626
 11
8.2598967987
 21
-11.6106005626
  0
LINE
  5
2DC
100
AcDbEntity
  8
0
100
AcDbLine
 62
7
  6
CONTINUOUS
 10
-11.2627947857
 20
-11.4806005626
 11
-10.9401032013
 21
-11.4806005626
  0
LINE
  5
2DD
100
AcDbEntity
  8
DRAFT
100
AcDbLine
 62
7
  6
CONTINUOUS
 10
11.0825883831
 20
-11.4806005626
 11
10.7598967987
 21
-11.4806005626
  0
LINE
  5
2DE
100
AcDbEntity
  8
ASSI
100
AcDbLine
 62
7
  6
CONTINUOUS
 10
-5.5401032013
 20
-11.4806005626
 11
-1.5401032013
 21
-11.4806005626
  0
LINE
  5
2DF
100
AcDbEntity
  8
0
100
AcDbLine
 62
7
  6
CONTINUOUS
 10
10.7598967987
 20
-11.4806005626
 11
11.0825883831
 21
-11.4806005626
  0
LINE
  5
2E0
100
AcDbEntity
  8
DRAFT
100
AcDbLine
 62
7
  6
CONTINUOUS
 10
-10.9401032013
 20
-11.4806005626
 11
-11.2627947857
 21
-11.4806005626
  0
LINE
  5
2E1
100
AcDbEntity
  8
ASSI
100
AcDbLine
 62
7
  6
CONTINUOUS
 10
-5.5401032013
 20
-11.4753640431
 11
-1.5453397208
 21
-11.4753640431
  0
LINE
  5
2E2
100
AcDbEntity
  8
ASSI
100
AcDbLine
 62
253
  6
CONTINUOUS
 10
-0.8401032013
 20
-16.130657678
 11
-0.8226494657
 21
-16.1481114136
  0
LINE
  5
2E3
100
AcDbEntity
  8
0
100
AcDbLine
 62
253
  6
CONTINUOUS
 10
-10.4857355981
 20
-23.608431779
 11
-10.4857355981
 21
-24.4762287286
  0
LINE
  5
2E4
100
AcDbEntity
  8
RACCORDO
100
AcDbLine
 62
253
  6
CONTINUOUS
 10
-10.4857355981
 20
-23.608431779
 11
-10.4857355981
 21
-24.4762287286
  0
LINE
  5
2E5
100
AcDbEntity
  8
0
100
AcDbLine
 62
253
  6
CONTINUOUS
 10
-10.4857355981
 20
23.6472306537
 11
-10.4857355981
 21
24.5150276034
  0
LINE
  5
2E6
100
AcDbEntity
  8
RACCORDO
100
AcDbLine
 62
253
  6
CONTINUOUS
 10
-10.4857355981
 20
23.7193994374
 11
-10.4857355981
 21
24.5150276034
  0
LINE
  5
2E7
100
AcDbEntity
  8
GUSCI_ESTERNI
100
AcDbLine
 62
7
  6
CONTINUOUS
 10
-10.2401032013
 20
-14.1306005626
 11
-10.2401032013
 21
-16.1306005626
  0
LINE
  5
2E8
100
AcDbEntity
  8
GUSCI_ESTERNI
100
AcDbLine
 62
7
  6
CONTINUOUS
 10
-9.7401032013
 20
15.9193994374
 11
-9.7401032013
 21
14.4193994374
  0
LINE
  5
2E9
100
AcDbEntity
  8
GUSCI_ESTERNI
100
AcDbLine
 62
7
  6
CONTINUOUS
 10
-9.7401032013
 20
-14.3806005626
 11
-9.7401032013
 21
-15.8806005626
  0
LINE
  5
2EA
100
AcDbEntity
  8
0
100
AcDbLine
 62
7
  6
CONTINUOUS
 10
-9.7401032013
 20
-20.1806005626
 11
-9.7401032013
 21
-20.8806005626
  0
LINE
  5
2EB
100
AcDbEntity
  8
DRAFT
100
AcDbLine
 62
7
  6
CONTINUOUS
 10
-9.7401032013
 20
-20.1806005626
 11
-9.7401032013
 21
-20.8806005626
  0
LINE
  5
2EC
100
AcDbEntity
  8
0
100
AcDbLine
 62
7
  6
CONTINUOUS
 10
-9.7401032013
 20
20.2193994374
 11
-9.7401032013
 21
20.9193994374
  0
LINE
  5
2ED
100
AcDbEntity
  8
DRAFT
100
AcDbLine
 62
7
  6
CONTINUOUS
 10
-9.7401032013
 20
20.2193994374
 11
-9.7401032013
 21
20.9193994374
  0
LINE
  5
2EE
100
AcDbEntity
  8
GUSCI_ESTERNI
100
AcDbLine
 62
7
  6
CONTINUOUS
 10
-9.7218563977
 20
-13.8806005626
 11
-9.7218563977
 21
-14.1904409943
  0
LINE
  5
2EF
100
AcDbEntity
  8
GUSCI_ESTERNI
100
AcDbLine
 62
7
  6
CONTINUOUS
 10
-9.7218563977
 20
-16.070760131
 11
-9.7218563977
 21
-16.3806005626
  0
LINE
  5
2F0
100
AcDbEntity
  8
GUSCI_ESTERNI
100
AcDbLine
 62
7
  6
CONTINUOUS
 10
-9.7218563977
 20
13.9193994374
 11
-9.7218563977
 21
14.229239869
  0
LINE
  5
2F1
100
AcDbEntity
  8
GUSCI_ESTERNI
100
AcDbLine
 62
7
  6
CONTINUOUS
 10
-9.7218563977
 20
16.1095590057
 11
-9.7218563977
 21
16.4193994374
  0
LINE
  5
2F2
100
AcDbEntity
  8
DRAFT
100
AcDbLine
 62
7
  6
CONTINUOUS
 10
-9.5401032013
 20
16.0693994374
 11
-9.5401032013
 21
14.2693994374
  0
LINE
  5
2F3
100
AcDbEntity
  8
DRAFT
100
AcDbLine
 62
7
  6
CONTINUOUS
 10
-9.5401032013
 20
-14.2306005626
 11
-9.5401032013
 21
-16.0306005626
  0
LINE
  5
2F4
100
AcDbEntity
  8
0
100
AcDbLine
 62
7
  6
CONTINUOUS
 10
4.3090663133
 20
22.4268805595
 11
4.2658295314
 21
22.3620244721
  0
LINE
  5
2F5
100
AcDbEntity
  8
DRAFT
100
AcDbLine
 62
7
  6
CONTINUOUS
 10
4.3090663133
 20
22.4268805595
 11
4.2658295314
 21
22.3620244721
  0
LINE
  5
2F6
100
AcDbEntity
  8
0
100
AcDbLine
 62
253
  6
CONTINUOUS
 10
10.3055291955
 20
24.5150276034
 11
10.3099010295
 21
24.5193994374
  0
LINE
  5
2F7
100
AcDbEntity
  8
RACCORDO
100
AcDbLine
 62
253
  6
CONTINUOUS
 10
10.3055291955
 20
24.5150276034
 11
10.3099010295
 21
24.5193994374
  0
LINE
  5
2F8
100
AcDbEntity
  8
0
100
AcDbLine
 62
253
  6
CONTINUOUS
 10
10.5555249647
 20
24.2650318342
 11
10.5598967987
 21
24.2694036682
  0
LINE
  5
2F9
100
AcDbEntity
  8
RACCORDO
100
AcDbLine
 62
253
  6
CONTINUOUS
 10
10.5555249647
 20
24.2650318342
 11
10.5598967987
 21
24.2694036682
  0
LINE
  5
2FA
100
AcDbEntity
  8
ASSI
100
AcDbLine
 62
7
  6
CONTINUOUS
 10
-1.5401032013
 20
11.5193994374
 11
-1.5453397208
 21
11.5141629179
  0
LINE
  5
2FB
100
AcDbEntity
  8
ASSI
100
AcDbLine
 62
253
  6
CONTINUOUS
 10
-0.103193503
 20
-9.9850020749
 11
-1.2770128996
 21
-9.9850020749
  0
LINE
  5
2FC
100
AcDbEntity
  8
ASSI
100
AcDbLine
 62
7
  6
CONTINUOUS
 10
-5.2401032013
 20
-9.7306005626
 11
-4.7401032013
 21
-9.7306005626
  0
LINE
  5
2FD
100
AcDbEntity
  8
ASSI
100
AcDbLine
 62
7
  6
CONTINUOUS
 10
-2.6567699474
 20
-9.7306005626
 11
-1.9067699474
 21
-9.7306005626
  0
LINE
  5
2FE
100
AcDbEntity
  8
ASSI
100
AcDbLine
 62
253
  6
CONTINUOUS
 10
-0.0945427905
 20
-8.9850401518
 11
-1.2856636121
 21
-8.9850401518
  0
LINE
  5
2FF
100
AcDbEntity
  8
ASSI
100
AcDbLine
 62
7
  6
CONTINUOUS
 10
-0.0901032013
 20
-8.9806005626
 11
-1.2901032013
 21
-8.9806005626
  0
LINE
  5
300
100
AcDbEntity
  8
0
100
AcDbLine
 62
253
  6
CONTINUOUS
 10
10.3055291955
 20
-24.4762287286
 11
10.3099010295
 21
-24.4806005626
  0
LINE
  5
301
100
AcDbEntity
  8
RACCORDO
100
AcDbLine
 62
253
  6
CONTINUOUS
 10
10.3055291955
 20
-24.4762287286
 11
10.3099010295
 21
-24.4806005626
  0
LINE
  5
302
100
AcDbEntity
  8
0
100
AcDbLine
 62
253
  6
CONTINUOUS
 10
10.5555249647
 20
-24.2262329594
 11
10.5598967987
 21
-24.2306047934
  0
LINE
  5
303
100
AcDbEntity
  8
RACCORDO
100
AcDbLine
 62
253
  6
CONTINUOUS
 10
10.5555249647
 20
-24.2262329594
 11
10.5598967987
 21
-24.2306047934
  0
LINE
  5
304
100
AcDbEntity
  8
ASSI
100
AcDbLine
 62
253
  6
CONTINUOUS
 10
0.6598967987
 20
-14.1305434472
 11
0.6424430631
 21
-14.1130897116
  0
LINE
  5
305
100
AcDbEntity
  8
ASSI
100
AcDbLine
 62
7
  6
CONTINUOUS
 10
-1.5401032013
 20
-11.4806005626
 11
-1.5453397208
 21
-11.4753640431
  0
LINE
  5
306
100
AcDbEntity
  8
ASSI
100
AcDbLine
 62
7
  6
CONTINUOUS
 10
-1.2901032013
 20
-11.6306005626
 11
-1.2770128996
 21
-11.6436908643
  0
LINE
  5
307
100
AcDbEntity
  8
0
100
AcDbLine
 62
7
  6
CONTINUOUS
 10
4.3090663133
 20
-22.3880816847
 11
4.2658295314
 21
-22.3232255973
  0
LINE
  5
308
100
AcDbEntity
  8
DRAFT
100
AcDbLine
 62
7
  6
CONTINUOUS
 10
4.3090663133
 20
-22.3880816847
 11
4.2658295314
 21
-22.3232255973
  0
LINE
  5
309
100
AcDbEntity
  8
0
100
AcDbLine
 62
253
  6
CONTINUOUS
 10
-8.5944708045
 20
23.6472306537
 11
-8.5893802034
 21
23.1420491682
  0
LINE
  5
30A
100
AcDbEntity
  8
RACCORDO
100
AcDbLine
 62
253
  6
CONTINUOUS
 10
-8.5951980332
 20
23.7193994374
 11
-8.5893802034
 21
23.1420491682
  0
LINE
  5
30B
100
AcDbEntity
  8
0
100
AcDbLine
 62
253
  6
CONTINUOUS
 10
-8.3444750353
 20
23.8637370047
 11
-8.3401032013
 21
23.4298845856
  0
LINE
  5
30C
100
AcDbEntity
  8
RACCORDO
100
AcDbLine
 62
253
  6
CONTINUOUS
 10
-8.3444750353
 20
23.8637370047
 11
-8.3401032013
 21
23.4298845856
  0
LINE
  5
30D
100
AcDbEntity
  8
GUSCI_ESTERNI
100
AcDbLine
 62
253
  6
CONTINUOUS
 10
-8.7401032013
 20
17.4054364489
 11
-8.7401032013
 21
17.0490247203
  0
LINE
  5
30E
100
AcDbEntity
  8
GUSCI_ESTERNI
100
AcDbLine
 62
253
  6
CONTINUOUS
 10
-8.7401032013
 20
-12.8945635511
 11
-8.7401032013
 21
-13.2509752797
  0
LINE
  5
30F
100
AcDbEntity
  8
GUSCI_ESTERNI
100
AcDbLine
 62
253
  6
CONTINUOUS
 10
-8.7401032013
 20
-17.3666375741
 11
-8.7401032013
 21
-17.0102258455
  0
LINE
  5
310
100
AcDbEntity
  8
GUSCI_ESTERNI
100
AcDbLine
 62
253
  6
CONTINUOUS
 10
-8.7401032013
 20
12.9333624259
 11
-8.7401032013
 21
13.2897741545
  0
LINE
  5
311
100
AcDbEntity
  8
0
100
AcDbLine
 62
253
  6
CONTINUOUS
 10
-8.5944708045
 20
-23.608431779
 11
-8.5944708045
 21
-24.4762287286
  0
LINE
  5
312
100
AcDbEntity
  8
RACCORDO
100
AcDbLine
 62
253
  6
CONTINUOUS
 10
-8.5944708045
 20
-23.608431779
 11
-8.5944708045
 21
-24.4762287286
  0
LINE
  5
313
100
AcDbEntity
  8
0
100
AcDbLine
 62
253
  6
CONTINUOUS
 10
-8.5944708045
 20
23.6472306537
 11
-8.5944708045
 21
24.5150276034
  0
LINE
  5
314
100
AcDbEntity
  8
RACCORDO
100
AcDbLine
 62
253
  6
CONTINUOUS
 10
-8.5944708045
 20
23.7193994374
 11
-8.5944708045
 21
24.5150276034
  0
LINE
  5
315
100
AcDbEntity
  8
0
100
AcDbLine
 62
253
  6
CONTINUOUS
 10
-8.3444750353
 20
-24.2262329594
 11
-8.3444750353
 21
-23.8249381299
  0
LINE
  5
316
100
AcDbEntity
  8
RACCORDO
100
AcDbLine
 62
253
  6
CONTINUOUS
 10
-8.3444750353
 20
-24.2262329594
 11
-8.3444750353
 21
-23.8249381299
  0
LINE
  5
317
100
AcDbEntity
  8
0
100
AcDbLine
 62
253
  6
CONTINUOUS
 10
-8.3444750353
 20
23.8637370047
 11
-8.3444750353
 21
24.2650318342
  0
LINE
  5
318
100
AcDbEntity
  8
RACCORDO
100
AcDbLine
 62
253
  6
CONTINUOUS
 10
-8.3444750353
 20
23.8637370047
 11
-8.3444750353
 21
24.2650318342
  0
LINE
  5
319
100
AcDbEntity
  8
0
100
AcDbLine
 62
7
  6
CONTINUOUS
 10
-8.3401032013
 20
-22.5808140529
 11
-8.3401032013
 21
-24.2306047934
  0
LINE
  5
31A
100
AcDbEntity
  8
RACCORDO
100
AcDbLine
 62
7
  6
CONTINUOUS
 10
-8.3401032013
 20
-22.5808140529
 11
-8.3401032013
 21
-24.2306047934
  0
LINE
  5
31B
100
AcDbEntity
  8
0
100
AcDbLine
 62
7
  6
CONTINUOUS
 10
-8.3401032013
 20
22.6196129277
 11
-8.3401032013
 21
24.2694036682
  0
LINE
  5
31C
100
AcDbEntity
  8
RACCORDO
100
AcDbLine
 62
7
  6
CONTINUOUS
 10
-8.3401032013
 20
22.6196129277
 11
-8.3401032013
 21
24.2694036682
  0
LINE
  5
31D
100
AcDbEntity
  8
0
100
AcDbLine
 62
253
  6
CONTINUOUS
 10
-8.174127768
 20
21.5853748706
 11
-8.174127768
 21
21.4964126532
  0
LINE
  5
31E
100
AcDbEntity
  8
RACCORDO
100
AcDbLine
 62
253
  6
CONTINUOUS
 10
-8.174127768
 20
21.5853748706
 11
-8.174127768
 21
21.4964126532
  0
LINE
  5
31F
100
AcDbEntity
  8
0
100
AcDbLine
 62
253
  6
CONTINUOUS
 10
-8.174127768
 20
-21.4576137785
 11
-8.174127768
 21
-21.5465759959
  0
LINE
  5
320
100
AcDbEntity
  8
RACCORDO
100
AcDbLine
 62
253
  6
CONTINUOUS
 10
-8.174127768
 20
-21.4576137785
 11
-8.174127768
 21
-21.5465759959
  0
LINE
  5
321
100
AcDbEntity
  8
0
100
AcDbLine
 62
7
  6
CONTINUOUS
 10
-7.8401032013
 20
21.7017889169
 11
-7.8401032013
 21
21.4993276415
  0
LINE
  5
322
100
AcDbEntity
  8
ASSI
100
AcDbLine
 62
7
  6
CONTINUOUS
 10
-7.8401032013
 20
-21.4605287667
 11
-7.8401032013
 21
-21.6629900422
  0
LINE
  5
323
100
AcDbEntity
  8
0
100
AcDbLine
 62
253
  6
CONTINUOUS
 10
-8.5893802034
 20
-23.1032502934
 11
-8.5944708045
 21
-23.608431779
  0
LINE
  5
324
100
AcDbEntity
  8
RACCORDO
100
AcDbLine
 62
253
  6
CONTINUOUS
 10
-8.5893802034
 20
-23.1032502934
 11
-8.5944708045
 21
-23.608431779
  0
LINE
  5
325
100
AcDbEntity
  8
0
100
AcDbLine
 62
253
  6
CONTINUOUS
 10
-8.3401032013
 20
-23.3910857108
 11
-8.3444750353
 21
-23.8249381299
  0
LINE
  5
326
100
AcDbEntity
  8
RACCORDO
100
AcDbLine
 62
253
  6
CONTINUOUS
 10
-8.3401032013
 20
-23.3910857108
 11
-8.3444750353
 21
-23.8249381299
  0
LINE
  5
327
100
AcDbEntity
  8
ASSI
100
AcDbLine
 62
253
  6
CONTINUOUS
 10
2.1598396833
 20
-12.6306005626
 11
2.1423859477
 21
-12.613146827
  0
LINE
  5
328
100
AcDbEntity
  8
ASSI
100
AcDbLine
 62
7
  6
CONTINUOUS
 10
-1.2901032013
 20
-8.9806005626
 11
-1.2856636121
 21
-8.9850401518
  0
LINE
  5
329
100
AcDbEntity
  8
ASSI
100
AcDbLine
 62
7
  6
CONTINUOUS
 10
-4.7401032013
 20
-6.2412387996
 11
-2.6567699474
 21
-9.7306005626
  0
LINE
  5
32A
100
AcDbEntity
  8
GUSCI_ESTERNI
100
AcDbLine
 62
7
  6
CONTINUOUS
 10
-5.5401032013
 20
20.7249712575
 11
-5.5401032013
 21
17.4193994374
  0
LINE
  5
32B
100
AcDbEntity
  8
DRAFT
100
AcDbLine
 62
7
  6
CONTINUOUS
 10
-5.5401032013
 20
20.7780882268
 11
-5.5401032013
 21
17.0693994374
  0
LINE
  5
32C
100
AcDbEntity
  8
DRAFT
100
AcDbLine
 62
7
  6
CONTINUOUS
 10
-5.5401032013
 20
13.2693994374
 11
-5.5401032013
 21
11.5193994374
  0
LINE
  5
32D
100
AcDbEntity
  8
GUSCI_ESTERNI
100
AcDbLine
 62
7
  6
CONTINUOUS
 10
-5.5401032013
 20
12.9193994374
 11
-5.5401032013
 21
1.9193994374
  0
LINE
  5
32E
100
AcDbEntity
  8
ASSI
100
AcDbLine
 62
7
  6
CONTINUOUS
 10
-5.5401032013
 20
-11.6480542982
 11
-5.5401032013
 21
-12.613146827
  0
LINE
  5
32F
100
AcDbEntity
  8
GUSCI_ESTERNI
100
AcDbLine
 62
7
  6
CONTINUOUS
 10
-5.5401032013
 20
1.1193994374
 11
-5.5401032013
 21
-12.8806005626
  0
LINE
  5
330
100
AcDbEntity
  8
DRAFT
100
AcDbLine
 62
7
  6
CONTINUOUS
 10
-5.5401032013
 20
-12.6306005626
 11
-5.5401032013
 21
-13.2306005626
  0
LINE
  5
331
100
AcDbEntity
  8
DRAFT
100
AcDbLine
 62
7
  6
CONTINUOUS
 10
-5.5401032013
 20
-17.0306005626
 11
-5.5401032013
 21
-17.6306005626
  0
LINE
  5
332
100
AcDbEntity
  8
ASSI
100
AcDbLine
 62
7
  6
CONTINUOUS
 10
-5.5401032013
 20
-17.6480542982
 11
-5.5401032013
 21
-18.613146827
  0
LINE
  5
333
100
AcDbEntity
  8
GUSCI_ESTERNI
100
AcDbLine
 62
7
  6
CONTINUOUS
 10
-5.5401032013
 20
-17.3806005626
 11
-5.5401032013
 21
-20.6860788503
  0
LINE
  5
334
100
AcDbEntity
  8
ASSI
100
AcDbLine
 62
7
  6
CONTINUOUS
 10
-5.5401032013
 20
-21.7393274304
 11
-5.5401032013
 21
-18.6306005626
  0
LINE
  5
335
100
AcDbEntity
  8
ASSI
100
AcDbLine
 62
7
  6
CONTINUOUS
 10
-5.5401032013
 20
-11.6306005626
 11
-5.5401032013
 21
-11.4806005626
  0
LINE
  5
336
100
AcDbEntity
  8
ASSI
100
AcDbLine
 62
7
  6
CONTINUOUS
 10
-5.5401032013
 20
-3.9806005626
 11
-5.5401032013
 21
0.1193994374
  0
LINE
  5
337
100
AcDbEntity
  8
ASSI
100
AcDbLine
 62
7
  6
CONTINUOUS
 10
-5.5401032013
 20
0.9193994374
 11
-5.5401032013
 21
4.0193994374
  0
LINE
  5
338
100
AcDbEntity
  8
ASSI
100
AcDbLine
 62
7
  6
CONTINUOUS
 10
-5.5401032013
 20
20.7780882268
 11
-5.5401032013
 21
21.7780501499
  0
LINE
  5
339
100
AcDbEntity
  8
ASSI
100
AcDbLine
 62
7
  6
CONTINUOUS
 10
-5.2401032013
 20
9.7693994374
 11
-5.2401032013
 21
5.7693994374
  0
LINE
  5
33A
100
AcDbEntity
  8
ASSI
100
AcDbLine
 62
7
  6
CONTINUOUS
 10
-5.2401032013
 20
-5.7306005626
 11
-5.2401032013
 21
-9.7306005626
  0
LINE
  5
33B
100
AcDbEntity
  8
0
100
AcDbLine
 62
7
  6
CONTINUOUS
 10
5.3598967987
 20
13.7693994374
 11
5.0098967987
 21
13.4193994374
  0
LINE
  5
33C
100
AcDbEntity
  8
ASSI
100
AcDbLine
 62
7
  6
CONTINUOUS
 10
-1.9067699474
 20
-5.7306005626
 11
-2.4067699474
 21
-5.7306005626
  0
LINE
  5
33D
100
AcDbEntity
  8
ASSI
100
AcDbLine
 62
7
  6
CONTINUOUS
 10
-4.4901032013
 20
-5.7306005626
 11
-5.2401032013
 21
-5.7306005626
  0
LINE
  5
33E
100
AcDbEntity
  8
0
100
AcDbLine
 62
7
  6
CONTINUOUS
 10
5.0598967987
 20
-13.3806005626
 11
5.3598967987
 21
-13.6806005626
  0
LINE
  5
33F
100
AcDbEntity
  8
ASSI
100
AcDbLine
 62
7
  6
CONTINUOUS
 10
-2.4067699474
 20
-9.1348558932
 11
-4.4901032013
 21
-5.7306005626
  0
LINE
  5
340
100
AcDbEntity
  8
ASSI
100
AcDbLine
 62
7
  6
CONTINUOUS
 10
-4.7401032013
 20
-9.7306005626
 11
-4.7401032013
 21
-6.2412387996
  0
LINE
  5
341
100
AcDbEntity
  8
ASSI
100
AcDbLine
 62
7
  6
CONTINUOUS
 10
-4.7401032013
 20
5.7693994374
 11
-4.7401032013
 21
9.2587612004
  0
LINE
  5
342
100
AcDbEntity
  8
0
100
AcDbLine
 62
7
  6
CONTINUOUS
 10
-4.4901032013
 20
23.8193994374
 11
-4.4901032013
 21
22.4268805595
  0
LINE
  5
343
100
AcDbEntity
  8
DRAFT
100
AcDbLine
 62
7
  6
CONTINUOUS
 10
-4.4901032013
 20
23.8193994374
 11
-4.4901032013
 21
22.4268805595
  0
LINE
  5
344
100
AcDbEntity
  8
0
100
AcDbLine
 62
7
  6
CONTINUOUS
 10
-4.4901032013
 20
-22.3880816847
 11
-4.4901032013
 21
-23.7806005626
  0
LINE
  5
345
100
AcDbEntity
  8
DRAFT
100
AcDbLine
 62
7
  6
CONTINUOUS
 10
-4.4901032013
 20
-22.3880816847
 11
-4.4901032013
 21
-23.7806005626
  0
LINE
  5
346
100
AcDbEntity
  8
0
100
AcDbLine
 62
253
  6
CONTINUOUS
 10
-4.4460359341
 20
-22.3232255973
 11
-4.4460359341
 21
-23.7313739873
  0
LINE
  5
347
100
AcDbEntity
  8
ASSI
100
AcDbLine
 62
253
  6
CONTINUOUS
 10
-4.4460359341
 20
-22.3232255973
 11
-4.4460359341
 21
-23.7313739873
  0
LINE
  5
348
100
AcDbEntity
  8
0
100
AcDbLine
 62
253
  6
CONTINUOUS
 10
-4.4460359341
 20
22.3620244721
 11
-4.4460359341
 21
23.7701728621
  0
LINE
  5
349
100
AcDbEntity
  8
ASSI
100
AcDbLine
 62
253
  6
CONTINUOUS
 10
-4.4460359341
 20
22.3620244721
 11
-4.4460359341
 21
23.7701728621
  0
LINE
  5
34A
100
AcDbEntity
  8
RACCORDO
100
AcDbLine
 62
7
  6
CONTINUOUS
 10
-3.5901032013
 20
-22.3232473256
 11
-3.5901032013
 21
-23.7317428529
  0
LINE
  5
34B
100
AcDbEntity
  8
ASSI
100
AcDbLine
 62
7
  6
CONTINUOUS
 10
-3.5901032013
 20
-22.3232473256
 11
-3.5901032013
 21
-23.7317428529
  0
LINE
  5
34C
100
AcDbEntity
  8
0
100
AcDbLine
 62
7
  6
CONTINUOUS
 10
-3.5901032013
 20
-22.3232473256
 11
-3.5901032013
 21
-23.7747827328
  0
LINE
  5
34D
100
AcDbEntity
  8
ASSI
100
AcDbLine
 62
7
  6
CONTINUOUS
 10
-3.5901032013
 20
-23.7332739916
 11
-3.5901032013
 21
-23.7747827328
  0
LINE
  5
34E
100
AcDbEntity
  8
0
100
AcDbLine
 62
7
  6
CONTINUOUS
 10
-3.5901032013
 20
22.3620462004
 11
-3.5901032013
 21
23.8135816076
  0
LINE
  5
34F
100
AcDbEntity
  8
ASSI
100
AcDbLine
 62
7
  6
CONTINUOUS
 10
-3.5901032013
 20
23.7720728664
 11
-3.5901032013
 21
23.8135816076
  0
LINE
  5
350
100
AcDbEntity
  8
ASSI
100
AcDbLine
 62
7
  6
CONTINUOUS
 10
-3.5901032013
 20
22.3620462004
 11
-3.5901032013
 21
23.7705417277
  0
LINE
  5
351
100
AcDbEntity
  8
GUSCI_ESTERNI
100
AcDbLine
 62
7
  6
CONTINUOUS
 10
6.2932301181
 20
6.2757823557
 11
6.1182301181
 21
6.2162078948
  0
LINE
  5
352
100
AcDbEntity
  8
ASSI
100
AcDbLine
 62
7
  6
CONTINUOUS
 10
6.2932301181
 20
6.2757823557
 11
6.1182301181
 21
6.2162078948
  0
LINE
  5
353
100
AcDbEntity
  8
GUSCI_ESTERNI
100
AcDbLine
 62
7
  6
CONTINUOUS
 10
6.1182301181
 20
5.9779100508
 11
6.2932301181
 21
6.0374845118
  0
LINE
  5
354
100
AcDbEntity
  8
ASSI
100
AcDbLine
 62
7
  6
CONTINUOUS
 10
6.1182301181
 20
5.9779100508
 11
6.2932301181
 21
6.0374845118
  0
LINE
  5
355
100
AcDbEntity
  8
GUSCI_ESTERNI
100
AcDbLine
 62
7
  6
CONTINUOUS
 10
7.226563521
 20
6.2757823557
 11
7.0515634375
 21
6.2162078948
  0
LINE
  5
356
100
AcDbEntity
  8
ASSI
100
AcDbLine
 62
7
  6
CONTINUOUS
 10
7.226563521
 20
6.2757823557
 11
7.0515634375
 21
6.2162078948
  0
LINE
  5
357
100
AcDbEntity
  8
0
100
AcDbLine
 62
7
  6
CONTINUOUS
 10
10.8598967987
 20
-4.1283353347
 11
10.9586574221
 21
-4.1283353347
  0
LINE
  5
358
100
AcDbEntity
  8
RACCORDO
100
AcDbLine
 62
7
  6
CONTINUOUS
 10
10.8598967987
 20
-4.1283353347
 11
10.9586574221
 21
-4.1283353347
  0
LINE
  5
359
100
AcDbEntity
  8
0
100
AcDbLine
 62
7
  6
CONTINUOUS
 10
-11.0401032013
 20
-4.1283353347
 11
-11.1388638247
 21
-4.1283353347
  0
LINE
  5
35A
100
AcDbEntity
  8
RACCORDO
100
AcDbLine
 62
7
  6
CONTINUOUS
 10
-11.0401032013
 20
-4.1283353347
 11
-11.1388638247
 21
-4.1283353347
  0
LINE
  5
35B
100
AcDbEntity
  8
ASSI
100
AcDbLine
 62
7
  6
CONTINUOUS
 10
-1.5453397208
 20
-3.9858370821
 11
-5.5401032013
 21
-3.9858370821
  0
LINE
  5
35C
100
AcDbEntity
  8
ASSI
100
AcDbLine
 62
7
  6
CONTINUOUS
 10
-5.5401032013
 20
-3.9806005626
 11
-1.5401032013
 21
-3.9806005626
  0
LINE
  5
35D
100
AcDbEntity
  8
0
100
AcDbLine
 62
7
  6
CONTINUOUS
 10
-3.0901032013
 20
-21.7393274304
 11
-3.0901032013
 21
-22.3806005626
  0
LINE
  5
35E
100
AcDbEntity
  8
RACCORDO
100
AcDbLine
 62
7
  6
CONTINUOUS
 10
-3.0901032013
 20
-21.7393274304
 11
-3.0901032013
 21
-22.3806005626
  0
LINE
  5
35F
100
AcDbEntity
  8
0
100
AcDbLine
 62
7
  6
CONTINUOUS
 10
-3.0901032013
 20
21.7781263052
 11
-3.0901032013
 21
22.4193994374
  0
LINE
  5
360
100
AcDbEntity
  8
RACCORDO
100
AcDbLine
 62
7
  6
CONTINUOUS
 10
-3.0901032013
 20
21.7781263052
 11
-3.0901032013
 21
22.4193994374
  0
LINE
  5
361
100
AcDbEntity
  8
ASSI
100
AcDbLine
 62
7
  6
CONTINUOUS
 10
-2.4067699474
 20
9.7693994374
 11
-2.4067699474
 21
6.3651441068
  0
LINE
  5
362
100
AcDbEntity
  8
ASSI
100
AcDbLine
 62
7
  6
CONTINUOUS
 10
-2.4067699474
 20
-5.7306005626
 11
-2.4067699474
 21
-9.1348558932
  0
LINE
  5
363
100
AcDbEntity
  8
ASSI
100
AcDbLine
 62
7
  6
CONTINUOUS
 10
-1.9067699474
 20
-9.7306005626
 11
-1.9067699474
 21
-5.7306005626
  0
LINE
  5
364
100
AcDbEntity
  8
ASSI
100
AcDbLine
 62
7
  6
CONTINUOUS
 10
-1.9067699474
 20
5.7693994374
 11
-1.9067699474
 21
9.7693994374
  0
LINE
  5
365
100
AcDbEntity
  8
ASSI
100
AcDbLine
 62
7
  6
CONTINUOUS
 10
-0.0901032013
 20
4.0193994374
 11
-0.0848666818
 21
4.0246359569
  0
LINE
  5
366
100
AcDbEntity
  8
ASSI
100
AcDbLine
 62
7
  6
CONTINUOUS
 10
3.6298967987
 20
6.1693994374
 11
3.3598967987
 21
5.901314363
  0
LINE
  5
367
100
AcDbEntity
  8
GUSCI_ESTERNI
100
AcDbLine
 62
7
  6
CONTINUOUS
 10
7.0515634375
 20
5.9779100508
 11
7.1682300764
 21
6.0374845118
  0
LINE
  5
368
100
AcDbEntity
  8
ASSI
100
AcDbLine
 62
7
  6
CONTINUOUS
 10
7.0515634375
 20
5.9779100508
 11
7.1682300764
 21
6.0374845118
  0
LINE
  5
369
100
AcDbEntity
  8
GUSCI_ESTERNI
100
AcDbLine
 62
7
  6
CONTINUOUS
 10
8.9182302433
 20
6.2757823557
 11
8.7432302433
 21
6.2162078948
  0
LINE
  5
36A
100
AcDbEntity
  8
ASSI
100
AcDbLine
 62
7
  6
CONTINUOUS
 10
8.9182302433
 20
6.2757823557
 11
8.7432302433
 21
6.2162078948
  0
LINE
  5
36B
100
AcDbEntity
  8
GUSCI_ESTERNI
100
AcDbLine
 62
7
  6
CONTINUOUS
 10
8.7432302433
 20
5.9779100508
 11
8.9182302433
 21
6.0374845118
  0
LINE
  5
36C
100
AcDbEntity
  8
ASSI
100
AcDbLine
 62
7
  6
CONTINUOUS
 10
8.7432302433
 20
5.9779100508
 11
8.9182302433
 21
6.0374845118
  0
LINE
  5
36D
100
AcDbEntity
  8
GUSCI_ESTERNI
100
AcDbLine
 62
7
  6
CONTINUOUS
 10
9.8515633541
 20
6.2757823557
 11
9.6765633541
 21
6.2162078948
  0
LINE
  5
36E
100
AcDbEntity
  8
ASSI
100
AcDbLine
 62
7
  6
CONTINUOUS
 10
9.8515633541
 20
6.2757823557
 11
9.6765633541
 21
6.2162078948
  0
LINE
  5
36F
100
AcDbEntity
  8
ASSI
100
AcDbLine
 62
7
  6
CONTINUOUS
 10
-0.103193503
 20
14.2174756487
 11
-0.0901032013
 21
11.6193994374
  0
LINE
  5
370
100
AcDbEntity
  8
ASSI
100
AcDbLine
 62
7
  6
CONTINUOUS
 10
-1.5453397208
 20
-11.4753640431
 11
-1.5453397208
 21
-3.9858370821
  0
LINE
  5
371
100
AcDbEntity
  8
ASSI
100
AcDbLine
 62
7
  6
CONTINUOUS
 10
-1.5453397208
 20
4.0246359569
 11
-1.5453397208
 21
11.5141629179
  0
LINE
  5
372
100
AcDbEntity
  8
ASSI
100
AcDbLine
 62
7
  6
CONTINUOUS
 10
-1.5401032013
 20
-11.4806005626
 11
-1.5401032013
 21
-3.9806005626
  0
LINE
  5
373
100
AcDbEntity
  8
ASSI
100
AcDbLine
 62
7
  6
CONTINUOUS
 10
-1.5401032013
 20
4.0193994374
 11
-1.5401032013
 21
11.5193994374
  0
LINE
  5
374
100
AcDbEntity
  8
ASSI
100
AcDbLine
 62
7
  6
CONTINUOUS
 10
-1.2901032013
 20
20.7780882268
 11
-1.2901032013
 21
11.6193994374
  0
LINE
  5
375
100
AcDbEntity
  8
ASSI
100
AcDbLine
 62
7
  6
CONTINUOUS
 10
-1.2901032013
 20
-8.9806005626
 11
-1.2901032013
 21
-11.6306005626
  0
LINE
  5
376
100
AcDbEntity
  8
ASSI
100
AcDbLine
 62
7
  6
CONTINUOUS
 10
-1.2770128996
 20
19.7736867145
 11
-1.2770128996
 21
14.2174756487
  0
LINE
  5
377
100
AcDbEntity
  8
ASSI
100
AcDbLine
 62
7
  6
CONTINUOUS
 10
-1.2770128996
 20
-11.6436908643
 11
-1.2770128996
 21
-9.9850020749
  0
LINE
  5
378
100
AcDbEntity
  8
ASSI
100
AcDbLine
 62
7
  6
CONTINUOUS
 10
-0.8401032013
 20
-14.1305434472
 11
-0.8401032013
 21
-16.130657678
  0
LINE
  5
379
100
AcDbEntity
  8
ASSI
100
AcDbLine
 62
7
  6
CONTINUOUS
 10
-0.8226494657
 20
-14.1130897116
 11
-0.8226494657
 21
-16.1481114136
  0
LINE
  5
37A
100
AcDbEntity
  8
ASSI
100
AcDbLine
 62
7
  6
CONTINUOUS
 10
-0.103193503
 20
19.7736867145
 11
-0.103193503
 21
14.2174756487
  0
LINE
  5
37B
100
AcDbEntity
  8
ASSI
100
AcDbLine
 62
7
  6
CONTINUOUS
 10
-0.103193503
 20
-9.9850020749
 11
-0.103193503
 21
-11.6436908643
  0
LINE
  5
37C
100
AcDbEntity
  8
ASSI
100
AcDbLine
 62
7
  6
CONTINUOUS
 10
-0.0901032013
 20
20.7780882268
 11
-0.0901032013
 21
11.6193994374
  0
LINE
  5
37D
100
AcDbEntity
  8
ASSI
100
AcDbLine
 62
7
  6
CONTINUOUS
 10
-0.0901032013
 20
6.5193994374
 11
-0.0901032013
 21
4.0193994374
  0
LINE
  5
37E
100
AcDbEntity
  8
ASSI
100
AcDbLine
 62
7
  6
CONTINUOUS
 10
-0.0901032013
 20
-8.9806005626
 11
-0.0901032013
 21
-11.6306005626
  0
LINE
  5
37F
100
AcDbEntity
  8
ASSI
100
AcDbLine
 62
7
  6
CONTINUOUS
 10
-0.0848666818
 20
6.5141629179
 11
-0.0848666818
 21
4.0246359569
  0
LINE
  5
380
100
AcDbEntity
  8
ASSI
100
AcDbLine
 62
7
  6
CONTINUOUS
 10
-1.2770128996
 20
14.2174756487
 11
-1.2901032013
 21
11.6193994374
  0
LINE
  5
381
100
AcDbEntity
  8
GUSCI_ESTERNI
100
AcDbLine
 62
7
  6
CONTINUOUS
 10
6.1182301181
 20
6.2162078948
 11
6.0015634584
 21
6.0970589728
  0
LINE
  5
382
100
AcDbEntity
  8
ASSI
100
AcDbLine
 62
7
  6
CONTINUOUS
 10
6.1182301181
 20
6.2162078948
 11
6.0015634584
 21
6.0970589728
  0
LINE
  5
383
100
AcDbEntity
  8
ASSI
100
AcDbLine
 62
7
  6
CONTINUOUS
 10
3.3598967987
 20
5.5949313135
 11
3.6298967987
 21
5.8630164952
  0
LINE
  5
384
100
AcDbEntity
  8
ASSI
100
AcDbLine
 62
7
  6
CONTINUOUS
 10
4.5298968416
 20
6.1693994374
 11
4.2598967772
 21
5.901314363
  0
LINE
  5
385
100
AcDbEntity
  8
ASSI
100
AcDbLine
 62
7
  6
CONTINUOUS
 10
4.2598967772
 20
5.5949313135
 11
4.5298968416
 21
5.8630164952
  0
LINE
  5
386
100
AcDbEntity
  8
GUSCI_ESTERNI
100
AcDbLine
 62
7
  6
CONTINUOUS
 10
9.6765633541
 20
5.9779100508
 11
9.7932302433
 21
6.0374845118
  0
LINE
  5
387
100
AcDbEntity
  8
ASSI
100
AcDbLine
 62
7
  6
CONTINUOUS
 10
9.6765633541
 20
5.9779100508
 11
9.7932302433
 21
6.0374845118
  0
LINE
  5
388
100
AcDbEntity
  8
ASSI
100
AcDbLine
 62
7
  6
CONTINUOUS
 10
0.6424430631
 20
-16.1481114136
 11
0.6424430631
 21
-14.1130897116
  0
LINE
  5
389
100
AcDbEntity
  8
ASSI
100
AcDbLine
 62
7
  6
CONTINUOUS
 10
0.6598967987
 20
-16.130657678
 11
0.6598967987
 21
-14.1305434472
  0
LINE
  5
38A
100
AcDbEntity
  8
ASSI
100
AcDbLine
 62
7
  6
CONTINUOUS
 10
1.1598967987
 20
-16.0998241562
 11
1.1598967987
 21
-14.161376969
  0
LINE
  5
38B
100
AcDbEntity
  8
ASSI
100
AcDbLine
 62
7
  6
CONTINUOUS
 10
1.1598967987
 20
14.2001758438
 11
1.1598967987
 21
16.138623031
  0
LINE
  5
38C
100
AcDbEntity
  8
GUSCI_ESTERNI
100
AcDbLine
 62
7
  6
CONTINUOUS
 10
6.0015634584
 20
5.8587611289
 11
6.1182301181
 21
5.9779100508
  0
LINE
  5
38D
100
AcDbEntity
  8
ASSI
100
AcDbLine
 62
7
  6
CONTINUOUS
 10
6.0015634584
 20
5.8587611289
 11
6.1182301181
 21
5.9779100508
  0
LINE
  5
38E
100
AcDbEntity
  8
GUSCI_ESTERNI
100
AcDbLine
 62
7
  6
CONTINUOUS
 10
7.0515634375
 20
6.2162078948
 11
6.8765634375
 21
6.0374845118
  0
LINE
  5
38F
100
AcDbEntity
  8
ASSI
100
AcDbLine
 62
7
  6
CONTINUOUS
 10
7.0515634375
 20
6.2162078948
 11
6.8765634375
 21
6.0374845118
  0
LINE
  5
390
100
AcDbEntity
  8
GUSCI_ESTERNI
100
AcDbLine
 62
7
  6
CONTINUOUS
 10
6.9932301598
 20
5.9183355898
 11
7.0515634375
 21
5.9779100508
  0
LINE
  5
391
100
AcDbEntity
  8
ASSI
100
AcDbLine
 62
7
  6
CONTINUOUS
 10
6.9932301598
 20
5.9183355898
 11
7.0515634375
 21
5.9779100508
  0
LINE
  5
392
100
AcDbEntity
  8
GUSCI_ESTERNI
100
AcDbLine
 62
7
  6
CONTINUOUS
 10
8.7432302433
 20
6.2162078948
 11
8.6265633541
 21
6.0970589728
  0
LINE
  5
393
100
AcDbEntity
  8
ASSI
100
AcDbLine
 62
7
  6
CONTINUOUS
 10
8.7432302433
 20
6.2162078948
 11
8.6265633541
 21
6.0970589728
  0
LINE
  5
394
100
AcDbEntity
  8
ASSI
100
AcDbLine
 62
7
  6
CONTINUOUS
 10
-1.5401032013
 20
-3.9806005626
 11
-1.5453397208
 21
-3.9858370821
  0
LINE
  5
395
100
AcDbEntity
  8
GUSCI_ESTERNI
100
AcDbLine
 62
7
  6
CONTINUOUS
 10
5.3598967987
 20
1.1193994374
 11
5.9598967987
 21
1.1193994374
  0
LINE
  5
396
100
AcDbEntity
  8
ASSI
100
AcDbLine
 62
7
  6
CONTINUOUS
 10
5.3598967987
 20
1.1193994374
 11
5.9598967987
 21
1.1193994374
  0
LINE
  5
397
100
AcDbEntity
  8
GUSCI_ESTERNI
100
AcDbLine
 62
7
  6
CONTINUOUS
 10
-5.5401032013
 20
1.1193994374
 11
-6.1401032013
 21
1.1193994374
  0
LINE
  5
398
100
AcDbEntity
  8
GUSCI_ESTERNI
100
AcDbLine
 62
7
  6
CONTINUOUS
 10
5.3598967987
 20
1.9193994374
 11
5.9598967987
 21
1.9193994374
  0
LINE
  5
399
100
AcDbEntity
  8
ASSI
100
AcDbLine
 62
7
  6
CONTINUOUS
 10
5.3598967987
 20
1.9193994374
 11
5.9598967987
 21
1.9193994374
  0
LINE
  5
39A
100
AcDbEntity
  8
GUSCI_ESTERNI
100
AcDbLine
 62
7
  6
CONTINUOUS
 10
-5.5401032013
 20
1.9193994374
 11
-6.1401032013
 21
1.9193994374
  0
LINE
  5
39B
100
AcDbEntity
  8
ASSI
100
AcDbLine
 62
7
  6
CONTINUOUS
 10
-1.5401032013
 20
4.0193994374
 11
-1.5453397208
 21
4.0246359569
  0
LINE
  5
39C
100
AcDbEntity
  8
ASSI
100
AcDbLine
 62
7
  6
CONTINUOUS
 10
-2.4067699474
 20
6.3651441068
 11
-4.4901032013
 21
9.7693994374
  0
LINE
  5
39D
100
AcDbEntity
  8
ASSI
100
AcDbLine
 62
7
  6
CONTINUOUS
 10
-4.7401032013
 20
9.2587612004
 11
-2.6567699474
 21
5.7693994374
  0
LINE
  5
39E
100
AcDbEntity
  8
ASSI
100
AcDbLine
 62
253
  6
CONTINUOUS
 10
2.1598967987
 20
-17.1306005626
 11
2.1598967987
 21
-16.8806005626
  0
LINE
  5
39F
100
AcDbEntity
  8
ASSI
100
AcDbLine
 62
253
  6
CONTINUOUS
 10
2.1598967987
 20
-13.3806005626
 11
2.1598967987
 21
-13.1306005626
  0
LINE
  5
3A0
100
AcDbEntity
  8
ASSI
100
AcDbLine
 62
253
  6
CONTINUOUS
 10
2.1598967987
 20
13.1693994374
 11
2.1598967987
 21
13.4193994374
  0
LINE
  5
3A1
100
AcDbEntity
  8
ASSI
100
AcDbLine
 62
253
  6
CONTINUOUS
 10
2.1598967987
 20
16.9193994374
 11
2.1598967987
 21
17.1693994374
  0
LINE
  5
3A2
100
AcDbEntity
  8
0
100
AcDbLine
 62
7
  6
CONTINUOUS
 10
2.9098967987
 20
-21.7393274304
 11
2.9098967987
 21
-22.3806005626
  0
LINE
  5
3A3
100
AcDbEntity
  8
RACCORDO
100
AcDbLine
 62
7
  6
CONTINUOUS
 10
2.9098967987
 20
-21.7393274304
 11
2.9098967987
 21
-22.3806005626
  0
LINE
  5
3A4
100
AcDbEntity
  8
0
100
AcDbLine
 62
7
  6
CONTINUOUS
 10
2.9098967987
 20
21.7781263052
 11
2.9098967987
 21
22.4193994374
  0
LINE
  5
3A5
100
AcDbEntity
  8
RACCORDO
100
AcDbLine
 62
7
  6
CONTINUOUS
 10
2.9098967987
 20
21.7781263052
 11
2.9098967987
 21
22.4193994374
  0
LINE
  5
3A6
100
AcDbEntity
  8
ASSI
100
AcDbLine
 62
7
  6
CONTINUOUS
 10
3.3598967987
 20
5.901314363
 11
3.3598967987
 21
5.5949313135
  0
LINE
  5
3A7
100
AcDbEntity
  8
ASSI
100
AcDbLine
 62
7
  6
CONTINUOUS
 10
3.4098967987
 20
-22.3232473256
 11
3.4098967987
 21
-23.7317428529
  0
LINE
  5
3A8
100
AcDbEntity
  8
0
100
AcDbLine
 62
7
  6
CONTINUOUS
 10
3.4098967987
 20
-22.3232473256
 11
3.4098967987
 21
-23.7747827328
  0
LINE
  5
3A9
100
AcDbEntity
  8
ASSI
100
AcDbLine
 62
7
  6
CONTINUOUS
 10
3.4098967987
 20
-23.7332739916
 11
3.4098967987
 21
-23.7747827328
  0
LINE
  5
3AA
100
AcDbEntity
  8
0
100
AcDbLine
 62
7
  6
CONTINUOUS
 10
3.4098967987
 20
22.3620462004
 11
3.4098967987
 21
23.8135816076
  0
LINE
  5
3AB
100
AcDbEntity
  8
RACCORDO
100
AcDbLine
 62
7
  6
CONTINUOUS
 10
3.4098967987
 20
22.3620462004
 11
3.4098967987
 21
23.7705417277
  0
LINE
  5
3AC
100
AcDbEntity
  8
ASSI
100
AcDbLine
 62
7
  6
CONTINUOUS
 10
3.4098967987
 20
23.7720728664
 11
3.4098967987
 21
23.8135816076
  0
LINE
  5
3AD
100
AcDbEntity
  8
ASSI
100
AcDbLine
 62
7
  6
CONTINUOUS
 10
3.4098967987
 20
22.3620462004
 11
3.4098967987
 21
23.7705417277
  0
LINE
  5
3AE
100
AcDbEntity
  8
ASSI
100
AcDbLine
 62
7
  6
CONTINUOUS
 10
3.6298967987
 20
5.8630164952
 11
3.6298967987
 21
4.3693994374
  0
LINE
  5
3AF
100
AcDbEntity
  8
GUSCI_ESTERNI
100
AcDbLine
 62
7
  6
CONTINUOUS
 10
6.9348967987
 20
5.7991866679
 11
6.9932301598
 21
5.9183355898
  0
LINE
  5
3B0
100
AcDbEntity
  8
ASSI
100
AcDbLine
 62
7
  6
CONTINUOUS
 10
6.9348967987
 20
5.7991866679
 11
6.9932301598
 21
5.9183355898
  0
LINE
  5
3B1
100
AcDbEntity
  8
GUSCI_ESTERNI
100
AcDbLine
 62
7
  6
CONTINUOUS
 10
8.6265633541
 20
5.8587611289
 11
8.7432302433
 21
5.9779100508
  0
LINE
  5
3B2
100
AcDbEntity
  8
ASSI
100
AcDbLine
 62
7
  6
CONTINUOUS
 10
8.6265633541
 20
5.8587611289
 11
8.7432302433
 21
5.9779100508
  0
LINE
  5
3B3
100
AcDbEntity
  8
GUSCI_ESTERNI
100
AcDbLine
 62
7
  6
CONTINUOUS
 10
9.6765633541
 20
6.2162078948
 11
9.5015633541
 21
6.0374845118
  0
LINE
  5
3B4
100
AcDbEntity
  8
ASSI
100
AcDbLine
 62
7
  6
CONTINUOUS
 10
9.6765633541
 20
6.2162078948
 11
9.5015633541
 21
6.0374845118
  0
LINE
  5
3B5
100
AcDbEntity
  8
GUSCI_ESTERNI
100
AcDbLine
 62
7
  6
CONTINUOUS
 10
9.6182302433
 20
5.9183355898
 11
9.6765633541
 21
5.9779100508
  0
LINE
  5
3B6
100
AcDbEntity
  8
ASSI
100
AcDbLine
 62
7
  6
CONTINUOUS
 10
9.6182302433
 20
5.9183355898
 11
9.6765633541
 21
5.9779100508
  0
LINE
  5
3B7
100
AcDbEntity
  8
0
100
AcDbLine
 62
7
  6
CONTINUOUS
 10
3.8598967987
 20
16.9193994374
 11
3.8598967987
 21
13.4193994374
  0
LINE
  5
3B8
100
AcDbEntity
  8
0
100
AcDbLine
 62
7
  6
CONTINUOUS
 10
3.8598967987
 20
-16.8806005626
 11
3.8598967987
 21
-13.3806005626
  0
LINE
  5
3B9
100
AcDbEntity
  8
ASSI
100
AcDbLine
 62
7
  6
CONTINUOUS
 10
3.8998967987
 20
4.3693994374
 11
3.8998967987
 21
6.1693994374
  0
LINE
  5
3BA
100
AcDbEntity
  8
0
100
AcDbLine
 62
7
  6
CONTINUOUS
 10
4.1663967987
 20
-13.3806005626
 11
4.1663967987
 21
-16.8806005626
  0
LINE
  5
3BB
100
AcDbEntity
  8
0
100
AcDbLine
 62
7
  6
CONTINUOUS
 10
4.1663967987
 20
13.4193994374
 11
4.1663967987
 21
16.9193994374
  0
LINE
  5
3BC
100
AcDbEntity
  8
ASSI
100
AcDbLine
 62
7
  6
CONTINUOUS
 10
4.2598967772
 20
5.901314363
 11
4.2598967772
 21
5.5949313135
  0
LINE
  5
3BD
100
AcDbEntity
  8
0
100
AcDbLine
 62
253
  6
CONTINUOUS
 10
4.2658295314
 20
-22.3232255973
 11
4.2658295314
 21
-23.7313739873
  0
LINE
  5
3BE
100
AcDbEntity
  8
ASSI
100
AcDbLine
 62
253
  6
CONTINUOUS
 10
4.2658295314
 20
-22.3232255973
 11
4.2658295314
 21
-23.7313739873
  0
LINE
  5
3BF
100
AcDbEntity
  8
0
100
AcDbLine
 62
253
  6
CONTINUOUS
 10
4.2658295314
 20
22.3620244721
 11
4.2658295314
 21
23.7701728621
  0
LINE
  5
3C0
100
AcDbEntity
  8
ASSI
100
AcDbLine
 62
253
  6
CONTINUOUS
 10
4.2658295314
 20
22.3620244721
 11
4.2658295314
 21
23.7701728621
  0
LINE
  5
3C1
100
AcDbEntity
  8
0
100
AcDbLine
 62
7
  6
CONTINUOUS
 10
4.3098967987
 20
-23.7806005626
 11
4.3098967987
 21
-22.3880816847
  0
LINE
  5
3C2
100
AcDbEntity
  8
DRAFT
100
AcDbLine
 62
7
  6
CONTINUOUS
 10
4.3098967987
 20
-23.7806005626
 11
4.3098967987
 21
-22.3880816847
  0
LINE
  5
3C3
100
AcDbEntity
  8
0
100
AcDbLine
 62
7
  6
CONTINUOUS
 10
4.3098967987
 20
22.4268805595
 11
4.3098967987
 21
23.8193994374
  0
LINE
  5
3C4
100
AcDbEntity
  8
DRAFT
100
AcDbLine
 62
7
  6
CONTINUOUS
 10
4.3098967987
 20
22.4268805595
 11
4.3098967987
 21
23.8193994374
  0
LINE
  5
3C5
100
AcDbEntity
  8
ASSI
100
AcDbLine
 62
7
  6
CONTINUOUS
 10
4.5298968416
 20
5.8630164952
 11
4.5298968416
 21
4.3693994374
  0
LINE
  5
3C6
100
AcDbEntity
  8
ASSI
100
AcDbLine
 62
7
  6
CONTINUOUS
 10
4.7998968416
 20
4.3693994374
 11
4.7998968416
 21
6.1693994374
  0
LINE
  5
3C7
100
AcDbEntity
  8
ASSI
100
AcDbLine
 62
7
  6
CONTINUOUS
 10
5.3598967987
 20
21.7781263052
 11
5.3598967987
 21
16.9193994374
  0
LINE
  5
3C8
100
AcDbEntity
  8
GUSCI_ESTERNI
100
AcDbLine
 62
7
  6
CONTINUOUS
 10
5.3598967987
 20
6.5141629179
 11
5.3598967987
 21
4.0246359569
  0
LINE
  5
3C9
100
AcDbEntity
  8
ASSI
100
AcDbLine
 62
7
  6
CONTINUOUS
 10
5.3598967987
 20
13.4193994374
 11
5.3598967987
 21
1.9193994374
  0
LINE
  5
3CA
100
AcDbEntity
  8
ASSI
100
AcDbLine
 62
7
  6
CONTINUOUS
 10
5.3598967987
 20
-21.7392512751
 11
5.3598967987
 21
-16.8806005626
  0
LINE
  5
3CB
100
AcDbEntity
  8
GUSCI_ESTERNI
100
AcDbLine
 62
7
  6
CONTINUOUS
 10
5.3598967987
 20
-20.5806386395
 11
5.3598967987
 21
-17.6556005626
  0
LINE
  5
3CC
100
AcDbEntity
  8
GUSCI_ESTERNI
100
AcDbLine
 62
7
  6
CONTINUOUS
 10
5.3598967987
 20
-17.6306005626
 11
5.3598967987
 21
-16.8806005626
  0
LINE
  5
3CD
100
AcDbEntity
  8
GUSCI_ESTERNI
100
AcDbLine
 62
7
  6
CONTINUOUS
 10
5.3598967987
 20
-13.3806005626
 11
5.3598967987
 21
-12.6306005626
  0
LINE
  5
3CE
100
AcDbEntity
  8
ASSI
100
AcDbLine
 62
7
  6
CONTINUOUS
 10
5.3598967987
 20
-13.3806005626
 11
5.3598967987
 21
1.1193994374
  0
LINE
  5
3CF
100
AcDbEntity
  8
GUSCI_ESTERNI
100
AcDbLine
 62
7
  6
CONTINUOUS
 10
5.3598967987
 20
-12.6056005626
 11
5.3598967987
 21
1.1193994374
  0
LINE
  5
3D0
100
AcDbEntity
  8
GUSCI_ESTERNI
100
AcDbLine
 62
7
  6
CONTINUOUS
 10
5.3598967987
 20
1.9193994374
 11
5.3598967987
 21
4.0193994374
  0
LINE
  5
3D1
100
AcDbEntity
  8
GUSCI_ESTERNI
100
AcDbLine
 62
7
  6
CONTINUOUS
 10
5.3598967987
 20
6.5193994374
 11
5.3598967987
 21
13.4193994374
  0
LINE
  5
3D2
100
AcDbEntity
  8
GUSCI_ESTERNI
100
AcDbLine
 62
7
  6
CONTINUOUS
 10
5.3598967987
 20
16.9193994374
 11
5.3598967987
 21
20.6194375143
  0
LINE
  5
3D3
100
AcDbEntity
  8
ASSI
100
AcDbLine
 62
7
  6
CONTINUOUS
 10
-5.5401032013
 20
4.0193994374
 11
-1.5401032013
 21
4.0193994374
  0
LINE
  5
3D4
100
AcDbEntity
  8
ASSI
100
AcDbLine
 62
7
  6
CONTINUOUS
 10
5.3598967987
 20
4.0193994374
 11
-0.0901032013
 21
4.0193994374
  0
LINE
  5
3D5
100
AcDbEntity
  8
ASSI
100
AcDbLine
 62
7
  6
CONTINUOUS
 10
-5.5401032013
 20
4.0246359569
 11
-1.5453397208
 21
4.0246359569
  0
LINE
  5
3D6
100
AcDbEntity
  8
ASSI
100
AcDbLine
 62
7
  6
CONTINUOUS
 10
-0.0848666818
 20
4.0246359569
 11
5.3598967987
 21
4.0246359569
  0
LINE
  5
3D7
100
AcDbEntity
  8
0
100
AcDbLine
 62
7
  6
CONTINUOUS
 10
10.8598967987
 20
4.1671342095
 11
10.9586574221
 21
4.1671342095
  0
LINE
  5
3D8
100
AcDbEntity
  8
RACCORDO
100
AcDbLine
 62
7
  6
CONTINUOUS
 10
10.8598967987
 20
4.1671342095
 11
10.9586574221
 21
4.1671342095
  0
LINE
  5
3D9
100
AcDbEntity
  8
0
100
AcDbLine
 62
7
  6
CONTINUOUS
 10
-11.0401032013
 20
4.1671342095
 11
-11.1388638247
 21
4.1671342095
  0
LINE
  5
3DA
100
AcDbEntity
  8
RACCORDO
100
AcDbLine
 62
7
  6
CONTINUOUS
 10
-11.0401032013
 20
4.1671342095
 11
-11.1388638247
 21
4.1671342095
  0
LINE
  5
3DB
100
AcDbEntity
  8
ASSI
100
AcDbLine
 62
7
  6
CONTINUOUS
 10
3.6298967987
 20
4.3693994374
 11
3.8998967987
 21
4.3693994374
  0
LINE
  5
3DC
100
AcDbEntity
  8
ASSI
100
AcDbLine
 62
7
  6
CONTINUOUS
 10
4.5298968416
 20
4.3693994374
 11
4.7998968416
 21
4.3693994374
  0
LINE
  5
3DD
100
AcDbEntity
  8
GUSCI_ESTERNI
100
AcDbLine
 62
7
  6
CONTINUOUS
 10
5.7098967987
 20
4.3693994374
 11
6.0015634584
 21
4.3693994374
  0
LINE
  5
3DE
100
AcDbEntity
  8
ASSI
100
AcDbLine
 62
7
  6
CONTINUOUS
 10
5.7098967987
 20
4.3693994374
 11
6.0015634584
 21
4.3693994374
  0
LINE
  5
3DF
100
AcDbEntity
  8
GUSCI_ESTERNI
100
AcDbLine
 62
7
  6
CONTINUOUS
 10
6.6432301598
 20
4.3693994374
 11
6.9348967987
 21
4.3693994374
  0
LINE
  5
3E0
100
AcDbEntity
  8
ASSI
100
AcDbLine
 62
7
  6
CONTINUOUS
 10
6.6432301598
 20
4.3693994374
 11
6.9348967987
 21
4.3693994374
  0
LINE
  5
3E1
100
AcDbEntity
  8
GUSCI_ESTERNI
100
AcDbLine
 62
7
  6
CONTINUOUS
 10
7.576563521
 20
4.3693994374
 11
7.8682300764
 21
4.3693994374
  0
LINE
  5
3E2
100
AcDbEntity
  8
ASSI
100
AcDbLine
 62
7
  6
CONTINUOUS
 10
7.576563521
 20
4.3693994374
 11
7.8682300764
 21
4.3693994374
  0
LINE
  5
3E3
100
AcDbEntity
  8
GUSCI_ESTERNI
100
AcDbLine
 62
7
  6
CONTINUOUS
 10
8.3348967987
 20
4.3693994374
 11
8.6265633541
 21
4.3693994374
  0
LINE
  5
3E4
100
AcDbEntity
  8
ASSI
100
AcDbLine
 62
7
  6
CONTINUOUS
 10
8.3348967987
 20
4.3693994374
 11
8.6265633541
 21
4.3693994374
  0
LINE
  5
3E5
100
AcDbEntity
  8
GUSCI_ESTERNI
100
AcDbLine
 62
7
  6
CONTINUOUS
 10
9.2682302433
 20
4.3693994374
 11
9.5598967987
 21
4.3693994374
  0
LINE
  5
3E6
100
AcDbEntity
  8
ASSI
100
AcDbLine
 62
7
  6
CONTINUOUS
 10
9.2682302433
 20
4.3693994374
 11
9.5598967987
 21
4.3693994374
  0
LINE
  5
3E7
100
AcDbEntity
  8
GUSCI_ESTERNI
100
AcDbLine
 62
7
  6
CONTINUOUS
 10
10.2015633541
 20
4.3693994374
 11
10.4932302433
 21
4.3693994374
  0
LINE
  5
3E8
100
AcDbEntity
  8
ASSI
100
AcDbLine
 62
7
  6
CONTINUOUS
 10
10.2015633541
 20
4.3693994374
 11
10.4932302433
 21
4.3693994374
  0
LINE
  5
3E9
100
AcDbEntity
  8
GUSCI_ESTERNI
100
AcDbLine
 62
7
  6
CONTINUOUS
 10
10.7598967987
 20
3.9722743513
 11
5.3598967987
 21
4.0193994374
  0
LINE
  5
3EA
100
AcDbEntity
  8
ASSI
100
AcDbLine
 62
7
  6
CONTINUOUS
 10
10.7598967987
 20
3.9722743513
 11
5.3598967987
 21
4.0193994374
  0
LINE
  5
3EB
100
AcDbEntity
  8
ASSI
100
AcDbLine
 62
7
  6
CONTINUOUS
 10
-0.0901032013
 20
6.5193994374
 11
-0.0848666818
 21
6.5141629179
  0
LINE
  5
3EC
100
AcDbEntity
  8
GUSCI_ESTERNI
100
AcDbLine
 62
7
  6
CONTINUOUS
 10
5.7098967987
 20
6.2757823557
 11
5.7098967987
 21
4.3693994374
  0
LINE
  5
3ED
100
AcDbEntity
  8
ASSI
100
AcDbLine
 62
7
  6
CONTINUOUS
 10
5.7098967987
 20
6.2757823557
 11
5.7098967987
 21
4.3693994374
  0
LINE
  5
3EE
100
AcDbEntity
  8
GUSCI_ESTERNI
100
AcDbLine
 62
7
  6
CONTINUOUS
 10
6.0015634584
 20
4.3693994374
 11
6.0015634584
 21
5.8587611289
  0
LINE
  5
3EF
100
AcDbEntity
  8
ASSI
100
AcDbLine
 62
7
  6
CONTINUOUS
 10
6.0015634584
 20
4.3693994374
 11
6.0015634584
 21
5.8587611289
  0
LINE
  5
3F0
100
AcDbEntity
  8
GUSCI_ESTERNI
100
AcDbLine
 62
7
  6
CONTINUOUS
 10
6.0015634584
 20
6.0970589728
 11
6.0015634584
 21
6.2757823557
  0
LINE
  5
3F1
100
AcDbEntity
  8
ASSI
100
AcDbLine
 62
7
  6
CONTINUOUS
 10
6.0015634584
 20
6.0970589728
 11
6.0015634584
 21
6.2757823557
  0
LINE
  5
3F2
100
AcDbEntity
  8
0
100
AcDbLine
 62
7
  6
CONTINUOUS
 10
6.5533967987
 20
-13.3806005626
 11
6.5533967987
 21
-16.8806005626
  0
LINE
  5
3F3
100
AcDbEntity
  8
0
100
AcDbLine
 62
7
  6
CONTINUOUS
 10
6.5533967987
 20
13.4193994374
 11
6.5533967987
 21
16.9193994374
  0
LINE
  5
3F4
100
AcDbEntity
  8
GUSCI_ESTERNI
100
AcDbLine
 62
7
  6
CONTINUOUS
 10
6.6432301598
 20
5.7991866679
 11
6.6432301598
 21
4.3693994374
  0
LINE
  5
3F5
100
AcDbEntity
  8
ASSI
100
AcDbLine
 62
7
  6
CONTINUOUS
 10
6.6432301598
 20
5.7991866679
 11
6.6432301598
 21
4.3693994374
  0
LINE
  5
3F6
100
AcDbEntity
  8
0
100
AcDbLine
 62
7
  6
CONTINUOUS
 10
6.8598967987
 20
16.9193994374
 11
6.8598967987
 21
13.4193994374
  0
LINE
  5
3F7
100
AcDbEntity
  8
0
100
AcDbLine
 62
7
  6
CONTINUOUS
 10
6.8598967987
 20
-16.8806005626
 11
6.8598967987
 21
-13.3806005626
  0
LINE
  5
3F8
100
AcDbEntity
  8
GUSCI_ESTERNI
100
AcDbLine
 62
7
  6
CONTINUOUS
 10
6.9348967987
 20
4.3693994374
 11
6.9348967987
 21
5.7991866679
  0
LINE
  5
3F9
100
AcDbEntity
  8
ASSI
100
AcDbLine
 62
7
  6
CONTINUOUS
 10
6.9348967987
 20
4.3693994374
 11
6.9348967987
 21
5.7991866679
  0
LINE
  5
3FA
100
AcDbEntity
  8
GUSCI_ESTERNI
100
AcDbLine
 62
7
  6
CONTINUOUS
 10
9.5598967987
 20
5.7991866679
 11
9.6182302433
 21
5.9183355898
  0
LINE
  5
3FB
100
AcDbEntity
  8
ASSI
100
AcDbLine
 62
7
  6
CONTINUOUS
 10
9.5598967987
 20
5.7991866679
 11
9.6182302433
 21
5.9183355898
  0
LINE
  5
3FC
100
AcDbEntity
  8
ASSI
100
AcDbLine
 62
7
  6
CONTINUOUS
 10
-0.0901032013
 20
-8.9806005626
 11
-0.0945427905
 21
-8.9850401518
  0
LINE
  5
3FD
100
AcDbEntity
  8
ASSI
100
AcDbLine
 62
253
  6
CONTINUOUS
 10
-2.3400460859
 20
-12.6306005626
 11
-2.3225923503
 21
-12.613146827
  0
LINE
  5
3FE
100
AcDbEntity
  8
GUSCI_ESTERNI
100
AcDbLine
 62
7
  6
CONTINUOUS
 10
10.7598967987
 20
6.5665245235
 11
5.3598967987
 21
6.5193994374
  0
LINE
  5
3FF
100
AcDbEntity
  8
ASSI
100
AcDbLine
 62
7
  6
CONTINUOUS
 10
10.7598967987
 20
6.5665245235
 11
5.3598967987
 21
6.5193994374
  0
LINE
  5
400
100
AcDbEntity
  8
ASSI
100
AcDbLine
 62
7
  6
CONTINUOUS
 10
-5.2401032013
 20
5.7693994374
 11
-4.7401032013
 21
5.7693994374
  0
LINE
  5
401
100
AcDbEntity
  8
ASSI
100
AcDbLine
 62
7
  6
CONTINUOUS
 10
-2.6567699474
 20
5.7693994374
 11
-1.9067699474
 21
5.7693994374
  0
LINE
  5
402
100
AcDbEntity
  8
GUSCI_ESTERNI
100
AcDbLine
 62
7
  6
CONTINUOUS
 10
6.2932301181
 20
6.0374845118
 11
6.4098967987
 21
6.0374845118
  0
LINE
  5
403
100
AcDbEntity
  8
ASSI
100
AcDbLine
 62
7
  6
CONTINUOUS
 10
6.2932301181
 20
6.0374845118
 11
6.4098967987
 21
6.0374845118
  0
LINE
  5
404
100
AcDbEntity
  8
GUSCI_ESTERNI
100
AcDbLine
 62
7
  6
CONTINUOUS
 10
7.1682300764
 20
6.0374845118
 11
7.3432300764
 21
6.0374845118
  0
LINE
  5
405
100
AcDbEntity
  8
ASSI
100
AcDbLine
 62
7
  6
CONTINUOUS
 10
7.1682300764
 20
6.0374845118
 11
7.3432300764
 21
6.0374845118
  0
LINE
  5
406
100
AcDbEntity
  8
GUSCI_ESTERNI
100
AcDbLine
 62
7
  6
CONTINUOUS
 10
8.9182302433
 20
6.0374845118
 11
9.0348967987
 21
6.0374845118
  0
LINE
  5
407
100
AcDbEntity
  8
ASSI
100
AcDbLine
 62
7
  6
CONTINUOUS
 10
8.9182302433
 20
6.0374845118
 11
9.0348967987
 21
6.0374845118
  0
LINE
  5
408
100
AcDbEntity
  8
GUSCI_ESTERNI
100
AcDbLine
 62
7
  6
CONTINUOUS
 10
9.7932302433
 20
6.0374845118
 11
9.9682302433
 21
6.0374845118
  0
LINE
  5
409
100
AcDbEntity
  8
ASSI
100
AcDbLine
 62
7
  6
CONTINUOUS
 10
9.7932302433
 20
6.0374845118
 11
9.9682302433
 21
6.0374845118
  0
LINE
  5
40A
100
AcDbEntity
  8
ASSI
100
AcDbLine
 62
7
  6
CONTINUOUS
 10
4.7998968416
 20
6.1693994374
 11
4.5298968416
 21
6.1693994374
  0
LINE
  5
40B
100
AcDbEntity
  8
ASSI
100
AcDbLine
 62
7
  6
CONTINUOUS
 10
3.8998967987
 20
6.1693994374
 11
3.6298967987
 21
6.1693994374
  0
LINE
  5
40C
100
AcDbEntity
  8
GUSCI_ESTERNI
100
AcDbLine
 62
7
  6
CONTINUOUS
 10
10.0848967987
 20
6.2757823557
 11
9.8515633541
 21
6.2757823557
  0
LINE
  5
40D
100
AcDbEntity
  8
ASSI
100
AcDbLine
 62
7
  6
CONTINUOUS
 10
10.0848967987
 20
6.2757823557
 11
9.8515633541
 21
6.2757823557
  0
LINE
  5
40E
100
AcDbEntity
  8
GUSCI_ESTERNI
100
AcDbLine
 62
7
  6
CONTINUOUS
 10
9.1515633541
 20
6.2757823557
 11
8.9182302433
 21
6.2757823557
  0
LINE
  5
40F
100
AcDbEntity
  8
ASSI
100
AcDbLine
 62
7
  6
CONTINUOUS
 10
9.1515633541
 20
6.2757823557
 11
8.9182302433
 21
6.2757823557
  0
LINE
  5
410
100
AcDbEntity
  8
GUSCI_ESTERNI
100
AcDbLine
 62
7
  6
CONTINUOUS
 10
8.6265633541
 20
6.2757823557
 11
8.3348967987
 21
6.2757823557
  0
LINE
  5
411
100
AcDbEntity
  8
ASSI
100
AcDbLine
 62
7
  6
CONTINUOUS
 10
8.6265633541
 20
6.2757823557
 11
8.3348967987
 21
6.2757823557
  0
LINE
  5
412
100
AcDbEntity
  8
GUSCI_ESTERNI
100
AcDbLine
 62
7
  6
CONTINUOUS
 10
7.4598967987
 20
6.2757823557
 11
7.226563521
 21
6.2757823557
  0
LINE
  5
413
100
AcDbEntity
  8
ASSI
100
AcDbLine
 62
7
  6
CONTINUOUS
 10
7.4598967987
 20
6.2757823557
 11
7.226563521
 21
6.2757823557
  0
LINE
  5
414
100
AcDbEntity
  8
GUSCI_ESTERNI
100
AcDbLine
 62
7
  6
CONTINUOUS
 10
6.5265634375
 20
6.2757823557
 11
6.2932301181
 21
6.2757823557
  0
LINE
  5
415
100
AcDbEntity
  8
ASSI
100
AcDbLine
 62
7
  6
CONTINUOUS
 10
6.5265634375
 20
6.2757823557
 11
6.2932301181
 21
6.2757823557
  0
LINE
  5
416
100
AcDbEntity
  8
GUSCI_ESTERNI
100
AcDbLine
 62
7
  6
CONTINUOUS
 10
6.0015634584
 20
6.2757823557
 11
5.7098967987
 21
6.2757823557
  0
LINE
  5
417
100
AcDbEntity
  8
ASSI
100
AcDbLine
 62
7
  6
CONTINUOUS
 10
6.0015634584
 20
6.2757823557
 11
5.7098967987
 21
6.2757823557
  0
LINE
  5
418
100
AcDbEntity
  8
ASSI
100
AcDbLine
 62
7
  6
CONTINUOUS
 10
5.3598967987
 20
6.5141629179
 11
-0.0848666818
 21
6.5141629179
  0
LINE
  5
419
100
AcDbEntity
  8
ASSI
100
AcDbLine
 62
7
  6
CONTINUOUS
 10
5.3598967987
 20
6.5193994374
 11
-0.0901032013
 21
6.5193994374
  0
LINE
  5
41A
100
AcDbEntity
  8
0
100
AcDbLine
 62
253
  6
CONTINUOUS
 10
8.1642686327
 20
-23.8249381299
 11
8.1598967987
 21
-23.3910857108
  0
LINE
  5
41B
100
AcDbEntity
  8
RACCORDO
100
AcDbLine
 62
253
  6
CONTINUOUS
 10
8.1642686327
 20
-23.8249381299
 11
8.1598967987
 21
-23.3910857108
  0
LINE
  5
41C
100
AcDbEntity
  8
0
100
AcDbLine
 62
253
  6
CONTINUOUS
 10
8.4149916306
 20
-23.6806005626
 11
8.4091738008
 21
-23.1032502934
  0
LINE
  5
41D
100
AcDbEntity
  8
RACCORDO
100
AcDbLine
 62
253
  6
CONTINUOUS
 10
8.4142644019
 20
-23.608431779
 11
8.4091738008
 21
-23.1032502934
  0
LINE
  5
41E
100
AcDbEntity
  8
GUSCI_ESTERNI
100
AcDbLine
 62
7
  6
CONTINUOUS
 10
7.576563521
 20
5.7991866679
 11
7.576563521
 21
4.3693994374
  0
LINE
  5
41F
100
AcDbEntity
  8
ASSI
100
AcDbLine
 62
7
  6
CONTINUOUS
 10
7.576563521
 20
5.7991866679
 11
7.576563521
 21
4.3693994374
  0
LINE
  5
420
100
AcDbEntity
  8
GUSCI_ESTERNI
100
AcDbLine
 62
7
  6
CONTINUOUS
 10
7.8682300764
 20
4.3693994374
 11
7.8682300764
 21
5.7991866679
  0
LINE
  5
421
100
AcDbEntity
  8
ASSI
100
AcDbLine
 62
7
  6
CONTINUOUS
 10
7.8682300764
 20
4.3693994374
 11
7.8682300764
 21
5.7991866679
  0
LINE
  5
422
100
AcDbEntity
  8
0
100
AcDbLine
 62
7
  6
CONTINUOUS
 10
8.1598967987
 20
-22.5808140529
 11
8.1598967987
 21
-24.2306047934
  0
LINE
  5
423
100
AcDbEntity
  8
RACCORDO
100
AcDbLine
 62
7
  6
CONTINUOUS
 10
8.1598967987
 20
-22.5808140529
 11
8.1598967987
 21
-24.2306047934
  0
LINE
  5
424
100
AcDbEntity
  8
0
100
AcDbLine
 62
7
  6
CONTINUOUS
 10
8.1598967987
 20
22.6196129277
 11
8.1598967987
 21
24.2694036682
  0
LINE
  5
425
100
AcDbEntity
  8
RACCORDO
100
AcDbLine
 62
7
  6
CONTINUOUS
 10
8.1598967987
 20
22.6196129277
 11
8.1598967987
 21
24.2694036682
  0
LINE
  5
426
100
AcDbEntity
  8
0
100
AcDbLine
 62
253
  6
CONTINUOUS
 10
8.1642686327
 20
24.2650318342
 11
8.1642686327
 21
23.8637370047
  0
LINE
  5
427
100
AcDbEntity
  8
RACCORDO
100
AcDbLine
 62
253
  6
CONTINUOUS
 10
8.1642686327
 20
24.2650318342
 11
8.1642686327
 21
23.8637370047
  0
LINE
  5
428
100
AcDbEntity
  8
0
100
AcDbLine
 62
253
  6
CONTINUOUS
 10
8.1642686327
 20
-23.8249381299
 11
8.1642686327
 21
-24.2262329594
  0
LINE
  5
429
100
AcDbEntity
  8
RACCORDO
100
AcDbLine
 62
253
  6
CONTINUOUS
 10
8.1642686327
 20
-23.8249381299
 11
8.1642686327
 21
-24.2262329594
  0
LINE
  5
42A
100
AcDbEntity
  8
GUSCI_ESTERNI
100
AcDbLine
 62
7
  6
CONTINUOUS
 10
8.3348967987
 20
6.2757823557
 11
8.3348967987
 21
4.3693994374
  0
LINE
  5
42B
100
AcDbEntity
  8
ASSI
100
AcDbLine
 62
7
  6
CONTINUOUS
 10
8.3348967987
 20
6.2757823557
 11
8.3348967987
 21
4.3693994374
  0
LINE
  5
42C
100
AcDbEntity
  8
0
100
AcDbLine
 62
253
  6
CONTINUOUS
 10
8.4142644019
 20
-23.6806005626
 11
8.4142644019
 21
-24.4762287286
  0
LINE
  5
42D
100
AcDbEntity
  8
RACCORDO
100
AcDbLine
 62
253
  6
CONTINUOUS
 10
8.4142644019
 20
-23.608431779
 11
8.4142644019
 21
-24.4762287286
  0
LINE
  5
42E
100
AcDbEntity
  8
0
100
AcDbLine
 62
253
  6
CONTINUOUS
 10
8.4142644019
 20
23.6472306537
 11
8.4142644019
 21
24.5150276034
  0
LINE
  5
42F
100
AcDbEntity
  8
RACCORDO
100
AcDbLine
 62
253
  6
CONTINUOUS
 10
8.4142644019
 20
23.6472306537
 11
8.4142644019
 21
24.5150276034
  0
LINE
  5
430
100
AcDbEntity
  8
GUSCI_ESTERNI
100
AcDbLine
 62
253
  6
CONTINUOUS
 10
8.5098967987
 20
17.162527029
 11
8.5098967987
 21
16.9193994374
  0
LINE
  5
431
100
AcDbEntity
  8
ASSI
100
AcDbLine
 62
253
  6
CONTINUOUS
 10
8.5098967987
 20
17.162527029
 11
8.5098967987
 21
16.9193994374
  0
LINE
  5
432
100
AcDbEntity
  8
GUSCI_ESTERNI
100
AcDbLine
 62
253
  6
CONTINUOUS
 10
8.5098967987
 20
-13.137472971
 11
8.5098967987
 21
-13.3806005626
  0
LINE
  5
433
100
AcDbEntity
  8
ASSI
100
AcDbLine
 62
253
  6
CONTINUOUS
 10
8.5098967987
 20
-13.137472971
 11
8.5098967987
 21
-13.3806005626
  0
LINE
  5
434
100
AcDbEntity
  8
GUSCI_ESTERNI
100
AcDbLine
 62
253
  6
CONTINUOUS
 10
8.5098967987
 20
-17.1237281542
 11
8.5098967987
 21
-16.8806005626
  0
LINE
  5
435
100
AcDbEntity
  8
ASSI
100
AcDbLine
 62
253
  6
CONTINUOUS
 10
8.5098967987
 20
-17.1237281542
 11
8.5098967987
 21
-16.8806005626
  0
LINE
  5
436
100
AcDbEntity
  8
GUSCI_ESTERNI
100
AcDbLine
 62
253
  6
CONTINUOUS
 10
8.5098967987
 20
13.1762718458
 11
8.5098967987
 21
13.4193994374
  0
LINE
  5
437
100
AcDbEntity
  8
ASSI
100
AcDbLine
 62
253
  6
CONTINUOUS
 10
8.5098967987
 20
13.1762718458
 11
8.5098967987
 21
13.4193994374
  0
LINE
  5
438
100
AcDbEntity
  8
GUSCI_ESTERNI
100
AcDbLine
 62
7
  6
CONTINUOUS
 10
8.6265633541
 20
4.3693994374
 11
8.6265633541
 21
5.8587611289
  0
LINE
  5
439
100
AcDbEntity
  8
ASSI
100
AcDbLine
 62
7
  6
CONTINUOUS
 10
8.6265633541
 20
4.3693994374
 11
8.6265633541
 21
5.8587611289
  0
LINE
  5
43A
100
AcDbEntity
  8
GUSCI_ESTERNI
100
AcDbLine
 62
7
  6
CONTINUOUS
 10
8.6265633541
 20
6.0970589728
 11
8.6265633541
 21
6.2757823557
  0
LINE
  5
43B
100
AcDbEntity
  8
ASSI
100
AcDbLine
 62
7
  6
CONTINUOUS
 10
8.6265633541
 20
6.0970589728
 11
8.6265633541
 21
6.2757823557
  0
LINE
  5
43C
100
AcDbEntity
  8
0
100
AcDbLine
 62
253
  6
CONTINUOUS
 10
8.1598967987
 20
23.4298845856
 11
8.1642686327
 21
23.8637370047
  0
LINE
  5
43D
100
AcDbEntity
  8
RACCORDO
100
AcDbLine
 62
253
  6
CONTINUOUS
 10
8.1598967987
 20
23.4298845856
 11
8.1642686327
 21
23.8637370047
  0
LINE
  5
43E
100
AcDbEntity
  8
0
100
AcDbLine
 62
253
  6
CONTINUOUS
 10
8.4091738008
 20
23.1420491682
 11
8.4142644019
 21
23.6472306537
  0
LINE
  5
43F
100
AcDbEntity
  8
RACCORDO
100
AcDbLine
 62
253
  6
CONTINUOUS
 10
8.4091738008
 20
23.1420491682
 11
8.4142644019
 21
23.6472306537
  0
LINE
  5
440
100
AcDbEntity
  8
0
100
AcDbLine
 62
7
  6
CONTINUOUS
 10
-4.4892727159
 20
-22.3880816847
 11
-4.4460359341
 21
-22.3232255973
  0
LINE
  5
441
100
AcDbEntity
  8
DRAFT
100
AcDbLine
 62
7
  6
CONTINUOUS
 10
-4.4892727159
 20
-22.3880816847
 11
-4.4460359341
 21
-22.3232255973
  0
LINE
  5
442
100
AcDbEntity
  8
ASSI
100
AcDbLine
 62
7
  6
CONTINUOUS
 10
-0.0901032013
 20
-11.6306005626
 11
-0.103193503
 21
-11.6436908643
  0
LINE
  5
443
100
AcDbEntity
  8
GUSCI_ESTERNI
100
AcDbLine
 62
7
  6
CONTINUOUS
 10
10.7598967987
 20
8.937776394
 11
9.5598967987
 21
8.9559148481
  0
LINE
  5
444
100
AcDbEntity
  8
ASSI
100
AcDbLine
 62
7
  6
CONTINUOUS
 10
10.7598967987
 20
8.937776394
 11
9.5598967987
 21
8.9559148481
  0
LINE
  5
445
100
AcDbEntity
  8
GUSCI_ESTERNI
100
AcDbLine
 62
7
  6
CONTINUOUS
 10
6.7015634375
 20
6.2162078948
 11
6.5265634375
 21
6.2757823557
  0
LINE
  5
446
100
AcDbEntity
  8
ASSI
100
AcDbLine
 62
7
  6
CONTINUOUS
 10
6.7015634375
 20
6.2162078948
 11
6.5265634375
 21
6.2757823557
  0
LINE
  5
447
100
AcDbEntity
  8
GUSCI_ESTERNI
100
AcDbLine
 62
7
  6
CONTINUOUS
 10
7.6348967987
 20
6.2162078948
 11
7.4598967987
 21
6.2757823557
  0
LINE
  5
448
100
AcDbEntity
  8
ASSI
100
AcDbLine
 62
7
  6
CONTINUOUS
 10
7.6348967987
 20
6.2162078948
 11
7.4598967987
 21
6.2757823557
  0
LINE
  5
449
100
AcDbEntity
  8
GUSCI_ESTERNI
100
AcDbLine
 62
7
  6
CONTINUOUS
 10
9.3265633541
 20
6.2162078948
 11
9.1515633541
 21
6.2757823557
  0
LINE
  5
44A
100
AcDbEntity
  8
ASSI
100
AcDbLine
 62
7
  6
CONTINUOUS
 10
9.3265633541
 20
6.2162078948
 11
9.1515633541
 21
6.2757823557
  0
LINE
  5
44B
100
AcDbEntity
  8
GUSCI_ESTERNI
100
AcDbLine
 62
7
  6
CONTINUOUS
 10
10.2598967987
 20
6.2162078948
 11
10.0848967987
 21
6.2757823557
  0
LINE
  5
44C
100
AcDbEntity
  8
ASSI
100
AcDbLine
 62
7
  6
CONTINUOUS
 10
10.2598967987
 20
6.2162078948
 11
10.0848967987
 21
6.2757823557
  0
LINE
  5
44D
100
AcDbEntity
  8
GUSCI_ESTERNI
100
AcDbLine
 62
7
  6
CONTINUOUS
 10
6.4098967987
 20
6.0374845118
 11
6.5265634375
 21
5.9779100508
  0
LINE
  5
44E
100
AcDbEntity
  8
ASSI
100
AcDbLine
 62
7
  6
CONTINUOUS
 10
6.4098967987
 20
6.0374845118
 11
6.5265634375
 21
5.9779100508
  0
LINE
  5
44F
100
AcDbEntity
  8
GUSCI_ESTERNI
100
AcDbLine
 62
7
  6
CONTINUOUS
 10
7.3432300764
 20
6.0374845118
 11
7.4598967987
 21
5.9779100508
  0
LINE
  5
450
100
AcDbEntity
  8
ASSI
100
AcDbLine
 62
7
  6
CONTINUOUS
 10
7.3432300764
 20
6.0374845118
 11
7.4598967987
 21
5.9779100508
  0
LINE
  5
451
100
AcDbEntity
  8
GUSCI_ESTERNI
100
AcDbLine
 62
7
  6
CONTINUOUS
 10
6.5265634375
 20
5.9779100508
 11
6.5848967987
 21
5.9183355898
  0
LINE
  5
452
100
AcDbEntity
  8
ASSI
100
AcDbLine
 62
7
  6
CONTINUOUS
 10
6.5265634375
 20
5.9779100508
 11
6.5848967987
 21
5.9183355898
  0
LINE
  5
453
100
AcDbEntity
  8
GUSCI_ESTERNI
100
AcDbLine
 62
7
  6
CONTINUOUS
 10
6.8765634375
 20
6.0374845118
 11
6.7015634375
 21
6.2162078948
  0
LINE
  5
454
100
AcDbEntity
  8
ASSI
100
AcDbLine
 62
7
  6
CONTINUOUS
 10
6.8765634375
 20
6.0374845118
 11
6.7015634375
 21
6.2162078948
  0
LINE
  5
455
100
AcDbEntity
  8
0
100
AcDbLine
 62
7
  6
CONTINUOUS
 10
-4.4892727159
 20
22.4268805595
 11
-4.4460359341
 21
22.3620244721
  0
LINE
  5
456
100
AcDbEntity
  8
DRAFT
100
AcDbLine
 62
7
  6
CONTINUOUS
 10
-4.4892727159
 20
22.4268805595
 11
-4.4460359341
 21
22.3620244721
  0
LINE
  5
457
100
AcDbEntity
  8
GUSCI_ESTERNI
100
AcDbLine
 62
7
  6
CONTINUOUS
 10
6.5848967987
 20
5.9183355898
 11
6.6432301598
 21
5.7991866679
  0
LINE
  5
458
100
AcDbEntity
  8
ASSI
100
AcDbLine
 62
7
  6
CONTINUOUS
 10
6.5848967987
 20
5.9183355898
 11
6.6432301598
 21
5.7991866679
  0
LINE
  5
459
100
AcDbEntity
  8
DRAFT
100
AcDbLine
 62
7
  6
CONTINUOUS
 10
10.9586574221
 20
-4.1283353347
 11
11.0825883831
 21
-11.4806005626
  0
LINE
  5
45A
100
AcDbEntity
  8
0
100
AcDbLine
 62
7
  6
CONTINUOUS
 10
11.0825883831
 20
-11.4806005626
 11
10.9586574221
 21
-4.1283353347
  0
LINE
  5
45B
100
AcDbEntity
  8
0
100
AcDbLine
 62
253
  6
CONTINUOUS
 10
10.3055291955
 20
23.6472306537
 11
10.3106197966
 21
23.1420491682
  0
LINE
  5
45C
100
AcDbEntity
  8
RACCORDO
100
AcDbLine
 62
253
  6
CONTINUOUS
 10
10.3055291955
 20
23.6472306537
 11
10.3106197966
 21
23.1420491682
  0
LINE
  5
45D
100
AcDbEntity
  8
0
100
AcDbLine
 62
253
  6
CONTINUOUS
 10
10.5555249647
 20
23.8637370047
 11
10.5598967987
 21
23.4298845856
  0
LINE
  5
45E
100
AcDbEntity
  8
RACCORDO
100
AcDbLine
 62
253
  6
CONTINUOUS
 10
10.5555249647
 20
23.8637370047
 11
10.5598967987
 21
23.4298845856
  0
LINE
  5
45F
100
AcDbEntity
  8
GUSCI_ESTERNI
100
AcDbLine
 62
7
  6
CONTINUOUS
 10
9.2682302433
 20
5.7991866679
 11
9.2682302433
 21
4.3693994374
  0
LINE
  5
460
100
AcDbEntity
  8
ASSI
100
AcDbLine
 62
7
  6
CONTINUOUS
 10
9.2682302433
 20
5.7991866679
 11
9.2682302433
 21
4.3693994374
  0
LINE
  5
461
100
AcDbEntity
  8
GUSCI_ESTERNI
100
AcDbLine
 62
7
  6
CONTINUOUS
 10
9.5008623839
 20
-14.1306005626
 11
9.5008623839
 21
-14.2464841619
  0
LINE
  5
462
100
AcDbEntity
  8
ASSI
100
AcDbLine
 62
7
  6
CONTINUOUS
 10
9.5008623839
 20
-14.1306005626
 11
9.5008623839
 21
-14.2464841619
  0
LINE
  5
463
100
AcDbEntity
  8
GUSCI_ESTERNI
100
AcDbLine
 62
7
  6
CONTINUOUS
 10
9.5008623839
 20
-16.0147169633
 11
9.5008623839
 21
-16.1306005626
  0
LINE
  5
464
100
AcDbEntity
  8
ASSI
100
AcDbLine
 62
7
  6
CONTINUOUS
 10
9.5008623839
 20
-16.0147169633
 11
9.5008623839
 21
-16.1306005626
  0
LINE
  5
465
100
AcDbEntity
  8
GUSCI_ESTERNI
100
AcDbLine
 62
7
  6
CONTINUOUS
 10
9.5008623839
 20
14.1693994374
 11
9.5008623839
 21
14.2852830367
  0
LINE
  5
466
100
AcDbEntity
  8
ASSI
100
AcDbLine
 62
7
  6
CONTINUOUS
 10
9.5008623839
 20
14.1693994374
 11
9.5008623839
 21
14.2852830367
  0
LINE
  5
467
100
AcDbEntity
  8
GUSCI_ESTERNI
100
AcDbLine
 62
7
  6
CONTINUOUS
 10
9.5008623839
 20
16.0535158381
 11
9.5008623839
 21
16.1693994374
  0
LINE
  5
468
100
AcDbEntity
  8
ASSI
100
AcDbLine
 62
7
  6
CONTINUOUS
 10
9.5008623839
 20
16.0535158381
 11
9.5008623839
 21
16.1693994374
  0
LINE
  5
469
100
AcDbEntity
  8
GUSCI_ESTERNI
100
AcDbLine
 62
7
  6
CONTINUOUS
 10
9.5098967987
 20
-15.8806005626
 11
9.5098967987
 21
-14.3806005626
  0
LINE
  5
46A
100
AcDbEntity
  8
ASSI
100
AcDbLine
 62
7
  6
CONTINUOUS
 10
9.5098967987
 20
-15.8806005626
 11
9.5098967987
 21
-14.3806005626
  0
LINE
  5
46B
100
AcDbEntity
  8
GUSCI_ESTERNI
100
AcDbLine
 62
7
  6
CONTINUOUS
 10
9.5098967987
 20
14.4193994374
 11
9.5098967987
 21
15.9193994374
  0
LINE
  5
46C
100
AcDbEntity
  8
ASSI
100
AcDbLine
 62
7
  6
CONTINUOUS
 10
9.5098967987
 20
14.4193994374
 11
9.5098967987
 21
15.9193994374
  0
LINE
  5
46D
100
AcDbEntity
  8
0
100
AcDbLine
 62
7
  6
CONTINUOUS
 10
9.5598967987
 20
-20.2806005626
 11
9.5598967987
 21
-20.8806005626
  0
LINE
  5
46E
100
AcDbEntity
  8
DRAFT
100
AcDbLine
 62
7
  6
CONTINUOUS
 10
9.5598967987
 20
-20.2806005626
 11
9.5598967987
 21
-20.8806005626
  0
LINE
  5
46F
100
AcDbEntity
  8
GUSCI_ESTERNI
100
AcDbLine
 62
7
  6
CONTINUOUS
 10
9.5598967987
 20
4.3693994374
 11
9.5598967987
 21
5.7991866679
  0
LINE
  5
470
100
AcDbEntity
  8
ASSI
100
AcDbLine
 62
7
  6
CONTINUOUS
 10
9.5598967987
 20
4.3693994374
 11
9.5598967987
 21
5.7991866679
  0
LINE
  5
471
100
AcDbEntity
  8
GUSCI_ESTERNI
100
AcDbLine
 62
7
  6
CONTINUOUS
 10
9.5598967987
 20
8.9559148481
 11
9.5598967987
 21
20.3193994374
  0
LINE
  5
472
100
AcDbEntity
  8
ASSI
100
AcDbLine
 62
7
  6
CONTINUOUS
 10
9.5598967987
 20
8.9559148481
 11
9.5598967987
 21
20.3193994374
  0
LINE
  5
473
100
AcDbEntity
  8
0
100
AcDbLine
 62
7
  6
CONTINUOUS
 10
9.5598967987
 20
20.3193994374
 11
9.5598967987
 21
20.9193994374
  0
LINE
  5
474
100
AcDbEntity
  8
DRAFT
100
AcDbLine
 62
7
  6
CONTINUOUS
 10
9.5598967987
 20
20.3193994374
 11
9.5598967987
 21
20.9193994374
  0
LINE
  5
475
100
AcDbEntity
  8
GUSCI_ESTERNI
100
AcDbLine
 62
7
  6
CONTINUOUS
 10
10.0598967987
 20
-16.1556005626
 11
10.0598967987
 21
-14.1056005626
  0
LINE
  5
476
100
AcDbEntity
  8
ASSI
100
AcDbLine
 62
7
  6
CONTINUOUS
 10
10.0598967987
 20
-16.1556005626
 11
10.0598967987
 21
-14.1056005626
  0
LINE
  5
477
100
AcDbEntity
  8
GUSCI_ESTERNI
100
AcDbLine
 62
7
  6
CONTINUOUS
 10
10.2015633541
 20
5.7991866679
 11
10.2015633541
 21
4.3693994374
  0
LINE
  5
478
100
AcDbEntity
  8
ASSI
100
AcDbLine
 62
7
  6
CONTINUOUS
 10
10.2015633541
 20
5.7991866679
 11
10.2015633541
 21
4.3693994374
  0
LINE
  5
479
100
AcDbEntity
  8
0
100
AcDbLine
 62
253
  6
CONTINUOUS
 10
10.3055291955
 20
-23.6806005626
 11
10.3055291955
 21
-24.4762287286
  0
LINE
  5
47A
100
AcDbEntity
  8
RACCORDO
100
AcDbLine
 62
253
  6
CONTINUOUS
 10
10.3055291955
 20
-23.608431779
 11
10.3055291955
 21
-24.4762287286
  0
LINE
  5
47B
100
AcDbEntity
  8
0
100
AcDbLine
 62
253
  6
CONTINUOUS
 10
10.3055291955
 20
23.6472306537
 11
10.3055291955
 21
24.5150276034
  0
LINE
  5
47C
100
AcDbEntity
  8
RACCORDO
100
AcDbLine
 62
253
  6
CONTINUOUS
 10
10.3055291955
 20
23.6472306537
 11
10.3055291955
 21
24.5150276034
  0
LINE
  5
47D
100
AcDbEntity
  8
GUSCI_ESTERNI
100
AcDbLine
 62
7
  6
CONTINUOUS
 10
10.4932302433
 20
4.3693994374
 11
10.4932302433
 21
5.7991866679
  0
LINE
  5
47E
100
AcDbEntity
  8
ASSI
100
AcDbLine
 62
7
  6
CONTINUOUS
 10
10.4932302433
 20
4.3693994374
 11
10.4932302433
 21
5.7991866679
  0
LINE
  5
47F
100
AcDbEntity
  8
0
100
AcDbLine
 62
253
  6
CONTINUOUS
 10
10.5555249647
 20
-24.2262329594
 11
10.5555249647
 21
-23.8249381299
  0
LINE
  5
480
100
AcDbEntity
  8
RACCORDO
100
AcDbLine
 62
253
  6
CONTINUOUS
 10
10.5555249647
 20
-24.2262329594
 11
10.5555249647
 21
-23.8249381299
  0
LINE
  5
481
100
AcDbEntity
  8
0
100
AcDbLine
 62
253
  6
CONTINUOUS
 10
10.5555249647
 20
23.8637370047
 11
10.5555249647
 21
24.2650318342
  0
LINE
  5
482
100
AcDbEntity
  8
RACCORDO
100
AcDbLine
 62
253
  6
CONTINUOUS
 10
10.5555249647
 20
23.8637370047
 11
10.5555249647
 21
24.2650318342
  0
LINE
  5
483
100
AcDbEntity
  8
0
100
AcDbLine
 62
7
  6
CONTINUOUS
 10
10.5598967987
 20
-22.546312608
 11
10.5598967987
 21
-24.2306047934
  0
LINE
  5
484
100
AcDbEntity
  8
RACCORDO
100
AcDbLine
 62
7
  6
CONTINUOUS
 10
10.5598967987
 20
-22.546312608
 11
10.5598967987
 21
-24.2306047934
  0
LINE
  5
485
100
AcDbEntity
  8
0
100
AcDbLine
 62
7
  6
CONTINUOUS
 10
10.5598967987
 20
22.5851114828
 11
10.5598967987
 21
24.2694036682
  0
LINE
  5
486
100
AcDbEntity
  8
RACCORDO
100
AcDbLine
 62
7
  6
CONTINUOUS
 10
10.5598967987
 20
22.5851114828
 11
10.5598967987
 21
24.2694036682
  0
LINE
  5
487
100
AcDbEntity
  8
GUSCI_ESTERNI
100
AcDbLine
 62
7
  6
CONTINUOUS
 10
10.7598967987
 20
-19.4617509301
 11
10.7598967987
 21
19.5005498049
  0
LINE
  5
488
100
AcDbEntity
  8
ASSI
100
AcDbLine
 62
7
  6
CONTINUOUS
 10
10.7598967987
 20
-19.4617509301
 11
10.7598967987
 21
19.5005498049
  0
LINE
  5
489
100
AcDbEntity
  8
0
100
AcDbLine
 62
253
  6
CONTINUOUS
 10
10.8598967987
 20
4.1671342095
 11
10.8598967987
 21
-4.1283353347
  0
LINE
  5
48A
100
AcDbEntity
  8
RACCORDO
100
AcDbLine
 62
253
  6
CONTINUOUS
 10
10.8598967987
 20
4.1671342095
 11
10.8598967987
 21
-4.1283353347
  0
LINE
  5
48B
100
AcDbEntity
  8
0
100
AcDbLine
 62
253
  6
CONTINUOUS
 10
10.3106197966
 20
-23.1032502934
 11
10.3048019668
 21
-23.6806005626
  0
LINE
  5
48C
100
AcDbEntity
  8
RACCORDO
100
AcDbLine
 62
253
  6
CONTINUOUS
 10
10.3106197966
 20
-23.1032502934
 11
10.3055291955
 21
-23.608431779
  0
LINE
  5
48D
100
AcDbEntity
  8
0
100
AcDbLine
 62
253
  6
CONTINUOUS
 10
10.5598967987
 20
-23.3910857108
 11
10.5555249647
 21
-23.8249381299
  0
LINE
  5
48E
100
AcDbEntity
  8
RACCORDO
100
AcDbLine
 62
253
  6
CONTINUOUS
 10
10.5598967987
 20
-23.3910857108
 11
10.5555249647
 21
-23.8249381299
  0
LINE
  5
48F
100
AcDbEntity
  8
DRAFT
100
AcDbLine
 62
7
  6
CONTINUOUS
 10
11.0825883831
 20
11.5193994374
 11
10.9586574221
 21
4.1671342095
  0
LINE
  5
490
100
AcDbEntity
  8
0
100
AcDbLine
 62
7
  6
CONTINUOUS
 10
10.9586574221
 20
4.1671342095
 11
11.0825883831
 21
11.5193994374
  0
LINE
  5
491
100
AcDbEntity
  8
ASSI
100
AcDbLine
 62
253
  6
CONTINUOUS
 10
-0.8401032013
 20
-14.1305434472
 11
-0.8226494657
 21
-14.1130897116
  0
LINE
  5
492
100
AcDbEntity
  8
0
100
AcDbLine
 62
253
  6
CONTINUOUS
 10
-10.7357313673
 20
-24.2262329594
 11
-10.7401032013
 21
-24.2306047934
  0
LINE
  5
493
100
AcDbEntity
  8
RACCORDO
100
AcDbLine
 62
253
  6
CONTINUOUS
 10
-10.7357313673
 20
-24.2262329594
 11
-10.7401032013
 21
-24.2306047934
  0
LINE
  5
494
100
AcDbEntity
  8
0
100
AcDbLine
 62
253
  6
CONTINUOUS
 10
-10.4857355981
 20
-24.4762287286
 11
-10.4901074321
 21
-24.4806005626
  0
LINE
  5
495
100
AcDbEntity
  8
RACCORDO
100
AcDbLine
 62
253
  6
CONTINUOUS
 10
-10.4857355981
 20
-24.4762287286
 11
-10.4901074321
 21
-24.4806005626
  0
LINE
  5
496
100
AcDbEntity
  8
ASSI
100
AcDbLine
 62
7
  6
CONTINUOUS
 10
-1.9067699474
 20
9.7693994374
 11
-2.4067699474
 21
9.7693994374
  0
LINE
  5
497
100
AcDbEntity
  8
ASSI
100
AcDbLine
 62
7
  6
CONTINUOUS
 10
-4.4901032013
 20
9.7693994374
 11
-5.2401032013
 21
9.7693994374
  0
LINE
  5
498
100
AcDbEntity
  8
GUSCI_ESTERNI
100
AcDbLine
 62
7
  6
CONTINUOUS
 10
9.0348967987
 20
6.0374845118
 11
9.1515633541
 21
5.9779100508
  0
LINE
  5
499
100
AcDbEntity
  8
ASSI
100
AcDbLine
 62
7
  6
CONTINUOUS
 10
9.0348967987
 20
6.0374845118
 11
9.1515633541
 21
5.9779100508
  0
LINE
  5
49A
100
AcDbEntity
  8
GUSCI_ESTERNI
100
AcDbLine
 62
7
  6
CONTINUOUS
 10
9.9682302433
 20
6.0374845118
 11
10.0848967987
 21
5.9779100508
  0
LINE
  5
49B
100
AcDbEntity
  8
ASSI
100
AcDbLine
 62
7
  6
CONTINUOUS
 10
9.9682302433
 20
6.0374845118
 11
10.0848967987
 21
5.9779100508
  0
LINE
  5
49C
100
AcDbEntity
  8
0
100
AcDbLine
 62
253
  6
CONTINUOUS
 10
-10.7357313673
 20
24.2650318342
 11
-10.7401032013
 21
24.2694036682
  0
LINE
  5
49D
100
AcDbEntity
  8
RACCORDO
100
AcDbLine
 62
253
  6
CONTINUOUS
 10
-10.7357313673
 20
24.2650318342
 11
-10.7401032013
 21
24.2694036682
  0
LINE
  5
49E
100
AcDbEntity
  8
0
100
AcDbLine
 62
253
  6
CONTINUOUS
 10
-10.4857355981
 20
24.5150276034
 11
-10.4901074321
 21
24.5193994374
  0
LINE
  5
49F
100
AcDbEntity
  8
RACCORDO
100
AcDbLine
 62
253
  6
CONTINUOUS
 10
-10.4857355981
 20
24.5150276034
 11
-10.4901074321
 21
24.5193994374
  0
LINE
  5
4A0
100
AcDbEntity
  8
GUSCI_ESTERNI
100
AcDbLine
 62
7
  6
CONTINUOUS
 10
7.4598967987
 20
5.9779100508
 11
7.5182300764
 21
5.9183355898
  0
LINE
  5
4A1
100
AcDbEntity
  8
ASSI
100
AcDbLine
 62
7
  6
CONTINUOUS
 10
7.4598967987
 20
5.9779100508
 11
7.5182300764
 21
5.9183355898
  0
LINE
  5
4A2
100
AcDbEntity
  8
GUSCI_ESTERNI
100
AcDbLine
 62
7
  6
CONTINUOUS
 10
7.751563521
 20
6.0970589728
 11
7.6348967987
 21
6.2162078948
  0
LINE
  5
4A3
100
AcDbEntity
  8
ASSI
100
AcDbLine
 62
7
  6
CONTINUOUS
 10
7.751563521
 20
6.0970589728
 11
7.6348967987
 21
6.2162078948
  0
LINE
  5
4A4
100
AcDbEntity
  8
GUSCI_ESTERNI
100
AcDbLine
 62
7
  6
CONTINUOUS
 10
9.1515633541
 20
5.9779100508
 11
9.2098967987
 21
5.9183355898
  0
LINE
  5
4A5
100
AcDbEntity
  8
ASSI
100
AcDbLine
 62
7
  6
CONTINUOUS
 10
9.1515633541
 20
5.9779100508
 11
9.2098967987
 21
5.9183355898
  0
LINE
  5
4A6
100
AcDbEntity
  8
GUSCI_ESTERNI
100
AcDbLine
 62
7
  6
CONTINUOUS
 10
7.5182300764
 20
5.9183355898
 11
7.576563521
 21
5.7991866679
  0
LINE
  5
4A7
100
AcDbEntity
  8
ASSI
100
AcDbLine
 62
7
  6
CONTINUOUS
 10
7.5182300764
 20
5.9183355898
 11
7.576563521
 21
5.7991866679
  0
LINE
  5
4A8
100
AcDbEntity
  8
GUSCI_ESTERNI
100
AcDbLine
 62
7
  6
CONTINUOUS
 10
9.2098967987
 20
5.9183355898
 11
9.2682302433
 21
5.7991866679
  0
LINE
  5
4A9
100
AcDbEntity
  8
ASSI
100
AcDbLine
 62
7
  6
CONTINUOUS
 10
9.2098967987
 20
5.9183355898
 11
9.2682302433
 21
5.7991866679
  0
LINE
  5
4AA
100
AcDbEntity
  8
GUSCI_ESTERNI
100
AcDbLine
 62
7
  6
CONTINUOUS
 10
7.8682300764
 20
5.7991866679
 11
7.751563521
 21
6.0970589728
  0
LINE
  5
4AB
100
AcDbEntity
  8
ASSI
100
AcDbLine
 62
7
  6
CONTINUOUS
 10
7.8682300764
 20
5.7991866679
 11
7.751563521
 21
6.0970589728
  0
LINE
  5
4AC
100
AcDbEntity
  8
0
100
AcDbLine
 62
7
  6
CONTINUOUS
 10
10.9586574221
 20
-4.1283353347
 11
10.9586574221
 21
4.1671342095
  0
LINE
  5
4AD
100
AcDbEntity
  8
DRAFT
100
AcDbLine
 62
7
  6
CONTINUOUS
 10
10.9586574221
 20
-4.1283353347
 11
10.9586574221
 21
4.1671342095
  0
LINE
  5
4AE
100
AcDbEntity
  8
0
100
AcDbLine
 62
7
  6
CONTINUOUS
 10
11.0598967987
 20
21.9193042458
 11
11.0598967987
 21
18.6693994374
  0
LINE
  5
4AF
100
AcDbEntity
  8
RACCORDO
100
AcDbLine
 62
7
  6
CONTINUOUS
 10
11.0598967987
 20
21.9193042458
 11
11.0598967987
 21
18.6693994374
  0
LINE
  5
4B0
100
AcDbEntity
  8
0
100
AcDbLine
 62
7
  6
CONTINUOUS
 10
11.0598967987
 20
-18.6306005626
 11
11.0598967987
 21
-21.880505371
  0
LINE
  5
4B1
100
AcDbEntity
  8
RACCORDO
100
AcDbLine
 62
7
  6
CONTINUOUS
 10
11.0598967987
 20
-18.6306005626
 11
11.0598967987
 21
-21.880505371
  0
LINE
  5
4B2
100
AcDbEntity
  8
0
100
AcDbLine
 62
7
  6
CONTINUOUS
 10
11.0825883831
 20
18.646707853
 11
11.0825883831
 21
11.5193994374
  0
LINE
  5
4B3
100
AcDbEntity
  8
0
100
AcDbLine
 62
7
  6
CONTINUOUS
 10
11.0825883831
 20
-11.4806005626
 11
11.0825883831
 21
-18.6079089782
  0
LINE
  5
4B4
100
AcDbEntity
  8
DRAFT
100
AcDbLine
 62
7
  6
CONTINUOUS
 10
11.0825883831
 20
-18.6079089782
 11
11.0825883831
 21
-11.4806005626
  0
LINE
  5
4B5
100
AcDbEntity
  8
DRAFT
100
AcDbLine
 62
7
  6
CONTINUOUS
 10
11.0825883831
 20
11.5193994374
 11
11.0825883831
 21
18.646707853
  0
LINE
  5
4B6
100
AcDbEntity
  8
ASSI
100
AcDbLine
 62
253
  6
CONTINUOUS
 10
0.6598967987
 20
-16.130657678
 11
0.6424430631
 21
-16.1481114136
  0
LINE
  5
4B7
100
AcDbEntity
  8
ASSI
100
AcDbLine
 62
7
  6
CONTINUOUS
 10
-1.5453397208
 20
11.5141629179
 11
-5.5401032013
 21
11.5141629179
  0
LINE
  5
4B8
100
AcDbEntity
  8
0
100
AcDbLine
 62
7
  6
CONTINUOUS
 10
-11.2627947857
 20
11.5193994374
 11
-10.9401032013
 21
11.5193994374
  0
LINE
  5
4B9
100
AcDbEntity
  8
DRAFT
100
AcDbLine
 62
7
  6
CONTINUOUS
 10
11.0825883831
 20
11.5193994374
 11
10.7598967987
 21
11.5193994374
  0
LINE
  5
4BA
100
AcDbEntity
  8
ASSI
100
AcDbLine
 62
7
  6
CONTINUOUS
 10
-5.5401032013
 20
11.5193994374
 11
-1.5401032013
 21
11.5193994374
  0
LINE
  5
4BB
100
AcDbEntity
  8
0
100
AcDbLine
 62
7
  6
CONTINUOUS
 10
10.7598967987
 20
11.5193994374
 11
11.0825883831
 21
11.5193994374
  0
LINE
  5
4BC
100
AcDbEntity
  8
DRAFT
100
AcDbLine
 62
7
  6
CONTINUOUS
 10
-10.9401032013
 20
11.5193994374
 11
-11.2627947857
 21
11.5193994374
  0
LINE
  5
4BD
100
AcDbEntity
  8
GUSCI_ESTERNI
100
AcDbLine
 62
7
  6
CONTINUOUS
 10
10.7598967987
 20
11.6174756487
 11
9.5598967987
 21
11.6174756487
  0
LINE
  5
4BE
100
AcDbEntity
  8
ASSI
100
AcDbLine
 62
7
  6
CONTINUOUS
 10
10.7598967987
 20
11.6174756487
 11
9.5598967987
 21
11.6174756487
  0
LINE
  5
4BF
100
AcDbEntity
  8
ASSI
100
AcDbLine
 62
7
  6
CONTINUOUS
 10
-1.2901032013
 20
11.6193994374
 11
-0.0901032013
 21
11.6193994374
  0
LINE
  5
4C0
100
AcDbEntity
  8
GUSCI_ESTERNI
100
AcDbLine
 62
7
  6
CONTINUOUS
 10
9.5015633541
 20
6.0374845118
 11
9.3265633541
 21
6.2162078948
  0
LINE
  5
4C1
100
AcDbEntity
  8
ASSI
100
AcDbLine
 62
7
  6
CONTINUOUS
 10
9.5015633541
 20
6.0374845118
 11
9.3265633541
 21
6.2162078948
  0
LINE
  5
4C2
100
AcDbEntity
  8
GUSCI_ESTERNI
100
AcDbLine
 62
7
  6
CONTINUOUS
 10
10.0848967987
 20
5.9779100508
 11
10.1432302433
 21
5.9183355898
  0
LINE
  5
4C3
100
AcDbEntity
  8
ASSI
100
AcDbLine
 62
7
  6
CONTINUOUS
 10
10.0848967987
 20
5.9779100508
 11
10.1432302433
 21
5.9183355898
  0
LINE
  5
4C4
100
AcDbEntity
  8
GUSCI_ESTERNI
100
AcDbLine
 62
7
  6
CONTINUOUS
 10
10.3765633541
 20
6.0970589728
 11
10.2598967987
 21
6.2162078948
  0
LINE
  5
4C5
100
AcDbEntity
  8
ASSI
100
AcDbLine
 62
7
  6
CONTINUOUS
 10
10.3765633541
 20
6.0970589728
 11
10.2598967987
 21
6.2162078948
  0
LINE
  5
4C6
100
AcDbEntity
  8
GUSCI_ESTERNI
100
AcDbLine
 62
7
  6
CONTINUOUS
 10
10.1432302433
 20
5.9183355898
 11
10.2015633541
 21
5.7991866679
  0
LINE
  5
4C7
100
AcDbEntity
  8
ASSI
100
AcDbLine
 62
7
  6
CONTINUOUS
 10
10.1432302433
 20
5.9183355898
 11
10.2015633541
 21
5.7991866679
  0
LINE
  5
4C8
100
AcDbEntity
  8
GUSCI_ESTERNI
100
AcDbLine
 62
7
  6
CONTINUOUS
 10
10.4932302433
 20
5.7991866679
 11
10.3765633541
 21
6.0970589728
  0
LINE
  5
4C9
100
AcDbEntity
  8
ASSI
100
AcDbLine
 62
7
  6
CONTINUOUS
 10
10.4932302433
 20
5.7991866679
 11
10.3765633541
 21
6.0970589728
  0
LINE
  5
4CA
100
AcDbEntity
  8
0
100
AcDbLine
 62
7
  6
CONTINUOUS
 10
5.3598967987
 20
-13.6806005626
 11
5.6598967987
 21
-13.3806005626
  0
LINE
  5
4CB
100
AcDbEntity
  8
0
100
AcDbLine
 62
7
  6
CONTINUOUS
 10
-4.4901032013
 20
-23.7806005626
 11
-4.4464525544
 21
-23.7369499157
  0
LINE
  5
4CC
100
AcDbEntity
  8
ASSI
100
AcDbLine
 62
7
  6
CONTINUOUS
 10
-4.4901032013
 20
-23.7806005626
 11
-4.4464525544
 21
-23.7369499157
  0
LINE
  5
4CD
100
AcDbEntity
  8
ASSI
100
AcDbLine
 62
253
  6
CONTINUOUS
 10
2.1598396833
 20
-17.6306005626
 11
2.1423859477
 21
-17.6480542982
  0
LINE
  5
4CE
100
AcDbEntity
  8
0
100
AcDbLine
 62
7
  6
CONTINUOUS
 10
-9.7401032013
 20
-20.8806005626
 11
-9.5968955078
 21
-20.8090021691
  0
LINE
  5
4CF
100
AcDbEntity
  8
RACCORDO
100
AcDbLine
 62
7
  6
CONTINUOUS
 10
-9.5968955078
 20
-20.8090021691
 11
-9.7401032013
 21
-20.8806005626
  0
LINE
  5
4D0
100
AcDbEntity
  8
GUSCI_ESTERNI
100
AcDbLine
 62
7
  6
CONTINUOUS
 10
5.3598967987
 20
13.1693994374
 11
8.5098967987
 21
13.1762718458
  0
LINE
  5
4D1
100
AcDbEntity
  8
ASSI
100
AcDbLine
 62
7
  6
CONTINUOUS
 10
5.3598967987
 20
13.1693994374
 11
8.5098967987
 21
13.1762718458
  0
LINE
  5
4D2
100
AcDbEntity
  8
ASSI
100
AcDbLine
 62
7
  6
CONTINUOUS
 10
5.3598967987
 20
13.1693994374
 11
2.1598967987
 21
13.1693994374
  0
LINE
  5
4D3
100
AcDbEntity
  8
DRAFT
100
AcDbLine
 62
7
  6
CONTINUOUS
 10
-8.5401032013
 20
13.2693994374
 11
-5.5401032013
 21
13.2693994374
  0
LINE
  5
4D4
100
AcDbEntity
  8
GUSCI_ESTERNI
100
AcDbLine
 62
7
  6
CONTINUOUS
 10
5.3598967987
 20
13.4193994374
 11
8.5098967987
 21
13.4193994374
  0
LINE
  5
4D5
100
AcDbEntity
  8
ASSI
100
AcDbLine
 62
7
  6
CONTINUOUS
 10
2.1598967987
 20
13.4193994374
 11
8.5098967987
 21
13.4193994374
  0
LINE
  5
4D6
100
AcDbEntity
  8
0
100
AcDbLine
 62
7
  6
CONTINUOUS
 10
1.4001138477
 20
13.7693994374
 11
2.6098967987
 21
13.7693994374
  0
LINE
  5
4D7
100
AcDbEntity
  8
0
100
AcDbLine
 62
7
  6
CONTINUOUS
 10
8.1098967987
 20
13.7693994374
 11
9.2697597215
 21
13.7693994374
  0
LINE
  5
4D8
100
AcDbEntity
  8
GUSCI_ESTERNI
100
AcDbLine
 62
253
  6
CONTINUOUS
 10
-9.7218563977
 20
13.9193994374
 11
-9.6061286051
 21
13.9193994374
  0
LINE
  5
4D9
100
AcDbEntity
  8
GUSCI_ESTERNI
100
AcDbLine
 62
253
  6
CONTINUOUS
 10
9.5008623839
 20
14.1693994374
 11
9.4781426352
 21
14.1693994374
  0
LINE
  5
4DA
100
AcDbEntity
  8
ASSI
100
AcDbLine
 62
253
  6
CONTINUOUS
 10
9.5008623839
 20
14.1693994374
 11
9.4781426352
 21
14.1693994374
  0
LINE
  5
4DB
100
AcDbEntity
  8
ASSI
100
AcDbLine
 62
7
  6
CONTINUOUS
 10
-0.103193503
 20
14.2174756487
 11
-1.2770128996
 21
14.2174756487
  0
LINE
  5
4DC
100
AcDbEntity
  8
GUSCI_ESTERNI
100
AcDbLine
 62
7
  6
CONTINUOUS
 10
-5.5401032013
 20
12.9193994374
 11
-8.7401032013
 21
12.9333624259
  0
LINE
  5
4DD
100
AcDbEntity
  8
RACCORDO
100
AcDbLine
 62
7
  6
CONTINUOUS
 10
-9.7401032013
 20
20.9193994374
 11
-9.5968955078
 21
20.8478010438
  0
LINE
  5
4DE
100
AcDbEntity
  8
0
100
AcDbLine
 62
7
  6
CONTINUOUS
 10
-9.5968955078
 20
20.8478010438
 11
-9.7401032013
 21
20.9193994374
  0
LINE
  5
4DF
100
AcDbEntity
  8
0
100
AcDbLine
 62
7
  6
CONTINUOUS
 10
5.7098967987
 20
13.4193994374
 11
5.3598967987
 21
13.7693994374
  0
LINE
  5
4E0
100
AcDbEntity
  8
0
100
AcDbLine
 62
7
  6
CONTINUOUS
 10
-4.4901032013
 20
23.8193994374
 11
-4.4464525544
 21
23.7757487905
  0
LINE
  5
4E1
100
AcDbEntity
  8
ASSI
100
AcDbLine
 62
7
  6
CONTINUOUS
 10
-4.4901032013
 20
23.8193994374
 11
-4.4464525544
 21
23.7757487905
  0
LINE
  5
4E2
100
AcDbEntity
  8
ASSI
100
AcDbLine
 62
7
  6
CONTINUOUS
 10
-1.2987539138
 20
21.7780501499
 11
-1.2943143246
 21
21.7736105606
  0
LINE
  5
4E3
100
AcDbEntity
  8
GUSCI_ESTERNI
100
AcDbLine
 62
7
  6
CONTINUOUS
 10
-9.5401032013
 20
15.4844919662
 11
-9.7401032013
 21
15.4827465927
  0
LINE
  5
4E4
100
AcDbEntity
  8
GUSCI_ESTERNI
100
AcDbLine
 62
253
  6
CONTINUOUS
 10
9.5008623839
 20
16.1693994374
 11
9.4781426352
 21
16.1693994374
  0
LINE
  5
4E5
100
AcDbEntity
  8
ASSI
100
AcDbLine
 62
253
  6
CONTINUOUS
 10
9.5008623839
 20
16.1693994374
 11
9.4781426352
 21
16.1693994374
  0
LINE
  5
4E6
100
AcDbEntity
  8
GUSCI_ESTERNI
100
AcDbLine
 62
7
  6
CONTINUOUS
 10
-5.5401032013
 20
17.4193994374
 11
-8.7401032013
 21
17.4054364489
  0
LINE
  5
4E7
100
AcDbEntity
  8
GUSCI_ESTERNI
100
AcDbLine
 62
253
  6
CONTINUOUS
 10
-9.7218563977
 20
16.4193994374
 11
-9.6061286051
 21
16.4193994374
  0
LINE
  5
4E8
100
AcDbEntity
  8
GUSCI_ESTERNI
100
AcDbLine
 62
7
  6
CONTINUOUS
 10
8.5098967987
 20
16.9193994374
 11
5.3598967987
 21
16.9193994374
  0
LINE
  5
4E9
100
AcDbEntity
  8
ASSI
100
AcDbLine
 62
7
  6
CONTINUOUS
 10
2.1598967987
 20
16.9193994374
 11
8.5098967987
 21
16.9193994374
  0
LINE
  5
4EA
100
AcDbEntity
  8
DRAFT
100
AcDbLine
 62
7
  6
CONTINUOUS
 10
-5.5401032013
 20
17.0693994374
 11
-8.5401032013
 21
17.0693994374
  0
LINE
  5
4EB
100
AcDbEntity
  8
ASSI
100
AcDbLine
 62
7
  6
CONTINUOUS
 10
2.1598967987
 20
17.1693994374
 11
5.3598967987
 21
17.1693994374
  0
LINE
  5
4EC
100
AcDbEntity
  8
GUSCI_ESTERNI
100
AcDbLine
 62
7
  6
CONTINUOUS
 10
5.3598967987
 20
17.1693994374
 11
8.5098967987
 21
17.162527029
  0
LINE
  5
4ED
100
AcDbEntity
  8
ASSI
100
AcDbLine
 62
7
  6
CONTINUOUS
 10
5.3598967987
 20
17.1693994374
 11
8.5098967987
 21
17.162527029
  0
LINE
  5
4EE
100
AcDbEntity
  8
GUSCI_ESTERNI
100
AcDbLine
 62
7
  6
CONTINUOUS
 10
-9.4150692889
 20
16.5532157541
 11
-9.5124647049
 21
16.554065711
  0
LINE
  5
4EF
100
AcDbEntity
  8
ASSI
100
AcDbLine
 62
253
  6
CONTINUOUS
 10
-0.103193503
 20
19.7736867145
 11
-1.2770128996
 21
19.7736867145
  0
LINE
  5
4F0
100
AcDbEntity
  8
GUSCI_ESTERNI
100
AcDbLine
 62
7
  6
CONTINUOUS
 10
10.7598967987
 20
19.5005498049
 11
10.3774112995
 21
19.5018849366
  0
LINE
  5
4F1
100
AcDbEntity
  8
ASSI
100
AcDbLine
 62
7
  6
CONTINUOUS
 10
10.7598967987
 20
19.5005498049
 11
10.3774112995
 21
19.5018849366
  0
LINE
  5
4F2
100
AcDbEntity
  8
0
100
AcDbLine
 62
7
  6
CONTINUOUS
 10
7.9827864096
 20
-21.5577109517
 11
7.1598967987
 21
-22.3806005626
  0
LINE
  5
4F3
100
AcDbEntity
  8
RACCORDO
100
AcDbLine
 62
7
  6
CONTINUOUS
 10
7.9827864096
 20
-21.5577109517
 11
7.1598967987
 21
-22.3806005626
  0
LINE
  5
4F4
100
AcDbEntity
  8
0
100
AcDbLine
 62
7
  6
CONTINUOUS
 10
10.7598967987
 20
-18.9306005626
 11
11.0825883831
 21
-18.6079089782
  0
LINE
  5
4F5
100
AcDbEntity
  8
DRAFT
100
AcDbLine
 62
7
  6
CONTINUOUS
 10
10.7598967987
 20
-18.9306005626
 11
11.0825883831
 21
-18.6079089782
  0
LINE
  5
4F6
100
AcDbEntity
  8
GUSCI_ESTERNI
100
AcDbLine
 62
7
  6
CONTINUOUS
 10
10.7598967987
 20
-19.0806005626
 11
8.2854275185
 21
-21.5550698428
  0
LINE
  5
4F7
100
AcDbEntity
  8
ASSI
100
AcDbLine
 62
7
  6
CONTINUOUS
 10
10.7598967987
 20
-19.0806005626
 11
8.2854275185
 21
-21.5550698428
  0
LINE
  5
4F8
100
AcDbEntity
  8
GUSCI_ESTERNI
100
AcDbLine
 62
253
  6
CONTINUOUS
 10
-5.5401032013
 20
20.5194375143
 11
-9.4743992054
 21
20.4851034332
  0
LINE
  5
4F9
100
AcDbEntity
  8
GUSCI_ESTERNI
100
AcDbLine
 62
7
  6
CONTINUOUS
 10
-5.5401032013
 20
21.5193994374
 11
-8.4656339211
 21
21.4938687176
  0
LINE
  5
4FA
100
AcDbEntity
  8
0
100
AcDbLine
 62
7
  6
CONTINUOUS
 10
-5.5401032013
 20
21.7218380079
 11
-7.8401036295
 21
21.7017662083
  0
LINE
  5
4FB
100
AcDbEntity
  8
ASSI
100
AcDbLine
 62
253
  6
CONTINUOUS
 10
5.3598967987
 20
20.7780882268
 11
-0.0901032013
 21
20.7780882268
  0
LINE
  5
4FC
100
AcDbEntity
  8
ASSI
100
AcDbLine
 62
253
  6
CONTINUOUS
 10
-1.2901032013
 20
20.7780882268
 11
-5.5401032013
 21
20.7780882268
  0
LINE
  5
4FD
100
AcDbEntity
  8
RACCORDO
100
AcDbLine
 62
253
  6
CONTINUOUS
 10
-9.5968955078
 20
20.8478010438
 11
-9.1117015949
 21
20.8478010438
  0
LINE
  5
4FE
100
AcDbEntity
  8
0
100
AcDbLine
 62
253
  6
CONTINUOUS
 10
9.4166891052
 20
20.8478010438
 11
9.0314951922
 21
20.8478010438
  0
LINE
  5
4FF
100
AcDbEntity
  8
RACCORDO
100
AcDbLine
 62
253
  6
CONTINUOUS
 10
9.0314951922
 20
20.8478010438
 11
9.4166891052
 21
20.8478010438
  0
LINE
  5
500
100
AcDbEntity
  8
0
100
AcDbLine
 62
253
  6
CONTINUOUS
 10
-9.1117015949
 20
20.8478010438
 11
-9.5968955078
 21
20.8478010438
  0
LINE
  5
501
100
AcDbEntity
  8
0
100
AcDbLine
 62
7
  6
CONTINUOUS
 10
-9.7401032013
 20
20.9193994374
 11
-9.0401032013
 21
20.9193994374
  0
LINE
  5
502
100
AcDbEntity
  8
DRAFT
100
AcDbLine
 62
7
  6
CONTINUOUS
 10
9.5598967987
 20
20.9193994374
 11
8.9598967987
 21
20.9193994374
  0
LINE
  5
503
100
AcDbEntity
  8
0
100
AcDbLine
 62
7
  6
CONTINUOUS
 10
8.9598967987
 20
20.9193994374
 11
9.5598967987
 21
20.9193994374
  0
LINE
  5
504
100
AcDbEntity
  8
DRAFT
100
AcDbLine
 62
7
  6
CONTINUOUS
 10
-9.0401032013
 20
20.9193994374
 11
-9.7401032013
 21
20.9193994374
  0
LINE
  5
505
100
AcDbEntity
  8
ASSI
100
AcDbLine
 62
253
  6
CONTINUOUS
 10
-0.0858920781
 20
21.7736105606
 11
-1.2943143246
 21
21.7736105606
  0
LINE
  5
506
100
AcDbEntity
  8
ASSI
100
AcDbLine
 62
7
  6
CONTINUOUS
 10
5.3598967987
 20
21.7781263052
 11
-5.5401032013
 21
21.7781263052
  0
LINE
  5
507
100
AcDbEntity
  8
GUSCI_ESTERNI
100
AcDbLine
 62
253
  6
CONTINUOUS
 10
5.3598967987
 20
20.6194375143
 11
9.2941928028
 21
20.5851034332
  0
LINE
  5
508
100
AcDbEntity
  8
ASSI
100
AcDbLine
 62
253
  6
CONTINUOUS
 10
5.3598967987
 20
20.6194375143
 11
9.2941928028
 21
20.5851034332
  0
LINE
  5
509
100
AcDbEntity
  8
GUSCI_ESTERNI
100
AcDbLine
 62
7
  6
CONTINUOUS
 10
5.3598967987
 20
21.6193994374
 11
8.2854275185
 21
21.5938687176
  0
LINE
  5
50A
100
AcDbEntity
  8
ASSI
100
AcDbLine
 62
7
  6
CONTINUOUS
 10
5.3598967987
 20
21.6193994374
 11
8.2854275185
 21
21.5938687176
  0
LINE
  5
50B
100
AcDbEntity
  8
0
100
AcDbLine
 62
7
  6
CONTINUOUS
 10
7.9827864096
 20
21.5965098265
 11
7.1598967987
 21
22.4193994374
  0
LINE
  5
50C
100
AcDbEntity
  8
RACCORDO
100
AcDbLine
 62
7
  6
CONTINUOUS
 10
7.9827864096
 20
21.5965098265
 11
7.1598967987
 21
22.4193994374
  0
LINE
  5
50D
100
AcDbEntity
  8
0
100
AcDbLine
 62
7
  6
CONTINUOUS
 10
11.0825883831
 20
18.646707853
 11
10.7598967987
 21
18.9693994374
  0
LINE
  5
50E
100
AcDbEntity
  8
DRAFT
100
AcDbLine
 62
7
  6
CONTINUOUS
 10
11.0825883831
 20
18.646707853
 11
10.7598967987
 21
18.9693994374
  0
LINE
  5
50F
100
AcDbEntity
  8
GUSCI_ESTERNI
100
AcDbLine
 62
7
  6
CONTINUOUS
 10
8.2854275185
 20
21.5938687176
 11
10.7598967987
 21
19.1193994374
  0
LINE
  5
510
100
AcDbEntity
  8
ASSI
100
AcDbLine
 62
7
  6
CONTINUOUS
 10
8.2854275185
 20
21.5938687176
 11
10.7598967987
 21
19.1193994374
  0
LINE
  5
511
100
AcDbEntity
  8
0
100
AcDbLine
 62
253
  6
CONTINUOUS
 10
8.1642686327
 20
-24.2262329594
 11
8.1598967987
 21
-24.2306047934
  0
LINE
  5
512
100
AcDbEntity
  8
RACCORDO
100
AcDbLine
 62
253
  6
CONTINUOUS
 10
8.1642686327
 20
-24.2262329594
 11
8.1598967987
 21
-24.2306047934
  0
LINE
  5
513
100
AcDbEntity
  8
0
100
AcDbLine
 62
253
  6
CONTINUOUS
 10
8.4142644019
 20
-24.4762287286
 11
8.4098925679
 21
-24.4806005626
  0
LINE
  5
514
100
AcDbEntity
  8
RACCORDO
100
AcDbLine
 62
253
  6
CONTINUOUS
 10
8.4142644019
 20
-24.4762287286
 11
8.4098925679
 21
-24.4806005626
  0
LINE
  5
515
100
AcDbEntity
  8
0
100
AcDbLine
 62
253
  6
CONTINUOUS
 10
7.2385147641
 20
22.3407814719
 11
2.9098967987
 21
22.3407814719
  0
LINE
  5
516
100
AcDbEntity
  8
RACCORDO
100
AcDbLine
 62
253
  6
CONTINUOUS
 10
7.2385147641
 20
22.3407814719
 11
2.9098967987
 21
22.3407814719
  0
LINE
  5
517
100
AcDbEntity
  8
0
100
AcDbLine
 62
253
  6
CONTINUOUS
 10
-3.0901032013
 20
22.3407814719
 11
-7.4187211667
 21
22.3407814719
  0
LINE
  5
518
100
AcDbEntity
  8
RACCORDO
100
AcDbLine
 62
253
  6
CONTINUOUS
 10
-3.0901032013
 20
22.3407814719
 11
-7.4187211667
 21
22.3407814719
  0
LINE
  5
519
100
AcDbEntity
  8
0
100
AcDbLine
 62
7
  6
CONTINUOUS
 10
10.5597444735
 20
22.4193994374
 11
7.1598967987
 21
22.4193994374
  0
LINE
  5
51A
100
AcDbEntity
  8
RACCORDO
100
AcDbLine
 62
7
  6
CONTINUOUS
 10
10.5597444735
 20
22.4193994374
 11
7.1598967987
 21
22.4193994374
  0
LINE
  5
51B
100
AcDbEntity
  8
0
100
AcDbLine
 62
7
  6
CONTINUOUS
 10
3.4098967987
 20
22.4193994374
 11
2.9098967987
 21
22.4193994374
  0
LINE
  5
51C
100
AcDbEntity
  8
DRAFT
100
AcDbLine
 62
7
  6
CONTINUOUS
 10
3.4098967987
 20
22.4193994374
 11
2.9098967987
 21
22.4193994374
  0
LINE
  5
51D
100
AcDbEntity
  8
0
100
AcDbLine
 62
7
  6
CONTINUOUS
 10
-3.0901032013
 20
22.4193994374
 11
-3.5901032013
 21
22.4193994374
  0
LINE
  5
51E
100
AcDbEntity
  8
DRAFT
100
AcDbLine
 62
7
  6
CONTINUOUS
 10
-3.0901032013
 20
22.4193994374
 11
-3.5901032013
 21
22.4193994374
  0
LINE
  5
51F
100
AcDbEntity
  8
0
100
AcDbLine
 62
7
  6
CONTINUOUS
 10
-7.3401032013
 20
22.4193994374
 11
-10.7399508762
 21
22.4193994374
  0
LINE
  5
520
100
AcDbEntity
  8
RACCORDO
100
AcDbLine
 62
7
  6
CONTINUOUS
 10
-7.3401032013
 20
22.4193994374
 11
-10.7399508762
 21
22.4193994374
  0
LINE
  5
521
100
AcDbEntity
  8
0
100
AcDbLine
 62
7
  6
CONTINUOUS
 10
-8.1393302276
 20
22.4268805595
 11
-4.4892727159
 21
22.4268805595
  0
LINE
  5
522
100
AcDbEntity
  8
RACCORDO
100
AcDbLine
 62
7
  6
CONTINUOUS
 10
7.9591238249
 20
22.4268805595
 11
4.3090663133
 21
22.4268805595
  0
LINE
  5
523
100
AcDbEntity
  8
0
100
AcDbLine
 62
7
  6
CONTINUOUS
 10
4.3090663133
 20
22.4268805595
 11
7.9591238249
 21
22.4268805595
  0
LINE
  5
524
100
AcDbEntity
  8
RACCORDO
100
AcDbLine
 62
7
  6
CONTINUOUS
 10
-4.4892727159
 20
22.4268805595
 11
-8.1393302276
 21
22.4268805595
  0
LINE
  5
525
100
AcDbEntity
  8
0
100
AcDbLine
 62
7
  6
CONTINUOUS
 10
-10.7224958112
 20
22.4281263052
 11
-8.1985543663
 21
22.4281263052
  0
LINE
  5
526
100
AcDbEntity
  8
RACCORDO
100
AcDbLine
 62
7
  6
CONTINUOUS
 10
-10.7224958112
 20
22.4281263052
 11
-8.1985543663
 21
22.4281263052
  0
LINE
  5
527
100
AcDbEntity
  8
0
100
AcDbLine
 62
7
  6
CONTINUOUS
 10
8.0183479636
 20
22.4281263052
 11
10.5422894086
 21
22.4281263052
  0
LINE
  5
528
100
AcDbEntity
  8
RACCORDO
100
AcDbLine
 62
7
  6
CONTINUOUS
 10
8.0183479636
 20
22.4281263052
 11
10.5422894086
 21
22.4281263052
  0
LINE
  5
529
100
AcDbEntity
  8
RACCORDO
100
AcDbLine
 62
7
  6
CONTINUOUS
 10
-10.4908261992
 20
23.1420491682
 11
-8.5893802034
 21
23.1420491682
  0
LINE
  5
52A
100
AcDbEntity
  8
0
100
AcDbLine
 62
7
  6
CONTINUOUS
 10
10.3106197966
 20
23.1420491682
 11
8.4091738008
 21
23.1420491682
  0
LINE
  5
52B
100
AcDbEntity
  8
RACCORDO
100
AcDbLine
 62
7
  6
CONTINUOUS
 10
8.4091738008
 20
23.1420491682
 11
10.3106197966
 21
23.1420491682
  0
LINE
  5
52C
100
AcDbEntity
  8
0
100
AcDbLine
 62
7
  6
CONTINUOUS
 10
-8.5893802034
 20
23.1420491682
 11
-10.4908261992
 21
23.1420491682
  0
LINE
  5
52D
100
AcDbEntity
  8
0
100
AcDbLine
 62
253
  6
CONTINUOUS
 10
8.1642686327
 20
24.2650318342
 11
8.1598967987
 21
24.2694036682
  0
LINE
  5
52E
100
AcDbEntity
  8
RACCORDO
100
AcDbLine
 62
253
  6
CONTINUOUS
 10
8.1642686327
 20
24.2650318342
 11
8.1598967987
 21
24.2694036682
  0
LINE
  5
52F
100
AcDbEntity
  8
0
100
AcDbLine
 62
253
  6
CONTINUOUS
 10
8.4142644019
 20
24.5150276034
 11
8.4098925679
 21
24.5193994374
  0
LINE
  5
530
100
AcDbEntity
  8
RACCORDO
100
AcDbLine
 62
253
  6
CONTINUOUS
 10
8.4142644019
 20
24.5150276034
 11
8.4098925679
 21
24.5193994374
  0
LINE
  5
531
100
AcDbEntity
  8
0
100
AcDbLine
 62
253
  6
CONTINUOUS
 10
10.5597444735
 20
-22.3806005626
 11
10.5422894086
 21
-22.3893274304
  0
LINE
  5
532
100
AcDbEntity
  8
RACCORDO
100
AcDbLine
 62
253
  6
CONTINUOUS
 10
10.5597444735
 20
-22.3806005626
 11
10.5422894086
 21
-22.3893274304
  0
LINE
  5
533
100
AcDbEntity
  8
0
100
AcDbLine
 62
253
  6
CONTINUOUS
 10
-10.4857355981
 20
23.6472306537
 11
-8.5944708045
 21
23.6472306537
  0
LINE
  5
534
100
AcDbEntity
  8
0
100
AcDbLine
 62
253
  6
CONTINUOUS
 10
8.4142644019
 20
23.6472306537
 11
10.3055291955
 21
23.6472306537
  0
LINE
  5
535
100
AcDbEntity
  8
RACCORDO
100
AcDbLine
 62
253
  6
CONTINUOUS
 10
8.4142644019
 20
23.6472306537
 11
10.3055291955
 21
23.6472306537
  0
LINE
  5
536
100
AcDbEntity
  8
RACCORDO
100
AcDbLine
 62
7
  6
CONTINUOUS
 10
-8.5944708045
 20
23.7193994374
 11
-10.4857355981
 21
23.7193994374
  0
LINE
  5
537
100
AcDbEntity
  8
0
100
AcDbLine
 62
253
  6
CONTINUOUS
 10
-4.4464525544
 20
23.7757487905
 11
-3.5901032013
 21
23.7757487905
  0
LINE
  5
538
100
AcDbEntity
  8
ASSI
100
AcDbLine
 62
253
  6
CONTINUOUS
 10
4.2662461518
 20
23.7757487905
 11
3.4098967987
 21
23.7757487905
  0
LINE
  5
539
100
AcDbEntity
  8
0
100
AcDbLine
 62
253
  6
CONTINUOUS
 10
3.4098967987
 20
23.7757487905
 11
4.2662461518
 21
23.7757487905
  0
LINE
  5
53A
100
AcDbEntity
  8
ASSI
100
AcDbLine
 62
253
  6
CONTINUOUS
 10
-3.5901032013
 20
23.7757487905
 11
-4.4464525544
 21
23.7757487905
  0
LINE
  5
53B
100
AcDbEntity
  8
0
100
AcDbLine
 62
7
  6
CONTINUOUS
 10
-3.5901032013
 20
23.8135816076
 11
3.4098967987
 21
23.8135816076
  0
LINE
  5
53C
100
AcDbEntity
  8
DRAFT
100
AcDbLine
 62
7
  6
CONTINUOUS
 10
3.4098967987
 20
23.8135816076
 11
-3.5901032013
 21
23.8135816076
  0
LINE
  5
53D
100
AcDbEntity
  8
0
100
AcDbLine
 62
7
  6
CONTINUOUS
 10
4.3098967987
 20
23.8193994374
 11
-4.4901032013
 21
23.8193994374
  0
LINE
  5
53E
100
AcDbEntity
  8
DRAFT
100
AcDbLine
 62
7
  6
CONTINUOUS
 10
4.3098967987
 20
23.8193994374
 11
-4.4901032013
 21
23.8193994374
  0
LINE
  5
53F
100
AcDbEntity
  8
0
100
AcDbLine
 62
253
  6
CONTINUOUS
 10
8.1642686327
 20
23.8637370047
 11
10.5555249647
 21
23.8637370047
  0
LINE
  5
540
100
AcDbEntity
  8
RACCORDO
100
AcDbLine
 62
253
  6
CONTINUOUS
 10
8.1642686327
 20
23.8637370047
 11
10.5555249647
 21
23.8637370047
  0
LINE
  5
541
100
AcDbEntity
  8
0
100
AcDbLine
 62
253
  6
CONTINUOUS
 10
-8.3444750353
 20
23.8637370047
 11
-10.7357313673
 21
23.8637370047
  0
LINE
  5
542
100
AcDbEntity
  8
0
100
AcDbLine
 62
253
  6
CONTINUOUS
 10
8.1642686327
 20
24.2650318342
 11
10.5555249647
 21
24.2650318342
  0
LINE
  5
543
100
AcDbEntity
  8
RACCORDO
100
AcDbLine
 62
253
  6
CONTINUOUS
 10
8.1642686327
 20
24.2650318342
 11
10.5555249647
 21
24.2650318342
  0
LINE
  5
544
100
AcDbEntity
  8
0
100
AcDbLine
 62
253
  6
CONTINUOUS
 10
-8.3444750353
 20
24.2650318342
 11
-10.7357313673
 21
24.2650318342
  0
LINE
  5
545
100
AcDbEntity
  8
RACCORDO
100
AcDbLine
 62
253
  6
CONTINUOUS
 10
-8.3444750353
 20
24.2650318342
 11
-10.7357313673
 21
24.2650318342
  0
LINE
  5
546
100
AcDbEntity
  8
0
100
AcDbLine
 62
253
  6
CONTINUOUS
 10
10.3055291955
 20
24.5150276034
 11
8.4142644019
 21
24.5150276034
  0
LINE
  5
547
100
AcDbEntity
  8
RACCORDO
100
AcDbLine
 62
253
  6
CONTINUOUS
 10
10.3055291955
 20
24.5150276034
 11
8.4142644019
 21
24.5150276034
  0
LINE
  5
548
100
AcDbEntity
  8
0
100
AcDbLine
 62
253
  6
CONTINUOUS
 10
-8.5944708045
 20
24.5150276034
 11
-10.4857355981
 21
24.5150276034
  0
LINE
  5
549
100
AcDbEntity
  8
RACCORDO
100
AcDbLine
 62
253
  6
CONTINUOUS
 10
-8.5944708045
 20
24.5150276034
 11
-10.4857355981
 21
24.5150276034
  0
LINE
  5
54A
100
AcDbEntity
  8
0
100
AcDbLine
 62
7
  6
CONTINUOUS
 10
10.3099010295
 20
24.5193994374
 11
8.4098925679
 21
24.5193994374
  0
LINE
  5
54B
100
AcDbEntity
  8
RACCORDO
100
AcDbLine
 62
7
  6
CONTINUOUS
 10
10.3099010295
 20
24.5193994374
 11
8.4098925679
 21
24.5193994374
  0
LINE
  5
54C
100
AcDbEntity
  8
0
100
AcDbLine
 62
7
  6
CONTINUOUS
 10
-8.5900989705
 20
24.5193994374
 11
-10.4901074321
 21
24.5193994374
  0
LINE
  5
54D
100
AcDbEntity
  8
RACCORDO
100
AcDbLine
 62
7
  6
CONTINUOUS
 10
-8.5900989705
 20
24.5193994374
 11
-10.4901074321
 21
24.5193994374
  0
LINE
  5
54E
100
AcDbEntity
  8
0
100
AcDbLine
 62
253
  6
CONTINUOUS
 10
10.5422894086
 20
22.4281263052
 11
10.5597444735
 21
22.4193994374
  0
LINE
  5
54F
100
AcDbEntity
  8
RACCORDO
100
AcDbLine
 62
253
  6
CONTINUOUS
 10
10.5422894086
 20
22.4281263052
 11
10.5597444735
 21
22.4193994374
  0
ARC
  5
550
100
AcDbEntity
  8
GUSCI_ESTERNI
100
AcDbCircle
 62
7
  6
CONTINUOUS
 10
-8.4401032013
 20
-14.1306005626
 40
2.5
100
AcDbArc
 50
90.0
 51
180.0
  0
ARC
  5
551
100
AcDbEntity
  8
GUSCI_ESTERNI
100
AcDbCircle
 62
7
  6
CONTINUOUS
 10
-8.4401032013
 20
-16.1306005626
 40
2.5
100
AcDbArc
 50
180.0
 51
270.0
  0
ARC
  5
552
100
AcDbEntity
  8
GUSCI_ESTERNI
100
AcDbCircle
 62
7
  6
CONTINUOUS
 10
-8.7401032013
 20
-16.1306005626
 40
1.5
100
AcDbArc
 50
180.0
 51
270.0
  0
ARC
  5
553
100
AcDbEntity
  8
GUSCI_ESTERNI
100
AcDbCircle
 62
7
  6
CONTINUOUS
 10
-8.7401032013
 20
-14.1306005626
 40
1.5
100
AcDbArc
 50
90.0
 51
180.0
  0
ARC
  5
554
100
AcDbEntity
  8
GUSCI_ESTERNI
100
AcDbCircle
 62
7
  6
CONTINUOUS
 10
-8.7401032013
 20
-15.8806005626
 40
1.0
100
AcDbArc
 50
180.0
 51
240.2462861003
  0
ARC
  5
555
100
AcDbEntity
  8
GUSCI_ESTERNI
100
AcDbCircle
 62
7
  6
CONTINUOUS
 10
-8.7401032013
 20
-14.3806005626
 40
1.0
100
AcDbArc
 50
119.7501332207
 51
180.0
  0
ARC
  5
556
100
AcDbEntity
  8
DRAFT
100
AcDbCircle
 62
7
  6
CONTINUOUS
 10
-8.5401032013
 20
-16.0306005626
 40
1.0
100
AcDbArc
 50
180.0
 51
270.0
  0
ARC
  5
557
100
AcDbEntity
  8
DRAFT
100
AcDbCircle
 62
7
  6
CONTINUOUS
 10
-8.5401032013
 20
-14.2306005626
 40
1.0
100
AcDbArc
 50
90.0
 51
180.0
  0
ARC
  5
558
100
AcDbEntity
  8
0
100
AcDbCircle
 62
7
  6
CONTINUOUS
 10
-10.7249779653
 20
-21.8879996335
 40
0.5000947882
100
AcDbArc
 50
243.4349775538
 51
252.0220797126
  0
ARC
  5
559
100
AcDbEntity
  8
RACCORDO
100
AcDbCircle
 62
7
  6
CONTINUOUS
 10
-10.7249779653
 20
-21.8879996335
 40
0.5000947882
100
AcDbArc
 50
243.4349775539
 51
252.0220797126
  0
ARC
  5
55A
100
AcDbEntity
  8
0
100
AcDbCircle
 62
253
  6
CONTINUOUS
 10
-8.5944810185
 20
-24.2262227454
 40
0.2500059834
100
AcDbArc
 50
270.0023408215
 51
359.9976591785
  0
ARC
  5
55B
100
AcDbEntity
  8
0
100
AcDbCircle
 62
253
  6
CONTINUOUS
 10
-10.4857253841
 20
-24.2262227454
 40
0.2500059834
100
AcDbArc
 50
180.0023408215
 51
269.9976591785
  0
ARC
  5
55C
100
AcDbEntity
  8
RACCORDO
100
AcDbCircle
 62
253
  6
CONTINUOUS
 10
-10.4857253841
 20
-24.2262227454
 40
0.2500059834
100
AcDbArc
 50
180.0023408215
 51
269.9976591785
  0
ARC
  5
55D
100
AcDbEntity
  8
RACCORDO
100
AcDbCircle
 62
253
  6
CONTINUOUS
 10
-8.5944810185
 20
-24.2262227454
 40
0.2500059834
100
AcDbArc
 50
270.0023408215
 51
359.9976591785
  0
ARC
  5
55E
100
AcDbEntity
  8
0
100
AcDbCircle
 62
7
  6
CONTINUOUS
 10
-8.5900972334
 20
-24.2306065305
 40
0.2499940321
100
AcDbArc
 50
269.9996018723
 51
0.0003981277
  0
ARC
  5
55F
100
AcDbEntity
  8
0
100
AcDbCircle
 62
7
  6
CONTINUOUS
 10
-10.4901091692
 20
-24.2306065305
 40
0.2499940321
100
AcDbArc
 50
179.9996018723
 51
270.0003981277
  0
ARC
  5
560
100
AcDbEntity
  8
RACCORDO
100
AcDbCircle
 62
7
  6
CONTINUOUS
 10
-8.5900972334
 20
-24.2306065305
 40
0.2499940321
100
AcDbArc
 50
269.9996018723
 51
0.0003981277
  0
ARC
  5
561
100
AcDbEntity
  8
RACCORDO
100
AcDbCircle
 62
7
  6
CONTINUOUS
 10
-10.4901091692
 20
-24.2306065305
 40
0.2499940321
100
AcDbArc
 50
179.9996018723
 51
270.0003981277
  0
ARC
  5
562
100
AcDbEntity
  8
0
100
AcDbCircle
 62
7
  6
CONTINUOUS
 10
-10.9404198097
 20
-22.5462420018
 40
0.2003126717
100
AcDbArc
 50
359.9798047652
 51
57.7410851133
  0
ARC
  5
563
100
AcDbEntity
  8
RACCORDO
100
AcDbCircle
 62
7
  6
CONTINUOUS
 10
-10.9404198097
 20
-22.5462420018
 40
0.2003126717
100
AcDbArc
 50
359.9798047652
 51
57.7410851133
  0
ARC
  5
564
100
AcDbEntity
  8
GUSCI_ESTERNI
100
AcDbCircle
 62
7
  6
CONTINUOUS
 10
-8.7401032013
 20
14.4193994374
 40
1.0
100
AcDbArc
 50
180.0
 51
240.2462861003
  0
ARC
  5
565
100
AcDbEntity
  8
GUSCI_ESTERNI
100
AcDbCircle
 62
7
  6
CONTINUOUS
 10
-8.7401032013
 20
15.9193994374
 40
1.0
100
AcDbArc
 50
119.7501332207
 51
180.0
  0
ARC
  5
566
100
AcDbEntity
  8
DRAFT
100
AcDbCircle
 62
7
  6
CONTINUOUS
 10
-8.5401032013
 20
14.2693994374
 40
1.0
100
AcDbArc
 50
180.0
 51
270.0
  0
ARC
  5
567
100
AcDbEntity
  8
DRAFT
100
AcDbCircle
 62
7
  6
CONTINUOUS
 10
-8.5401032013
 20
16.0693994374
 40
1.0
100
AcDbArc
 50
90.0
 51
180.0
  0
ARC
  5
568
100
AcDbEntity
  8
0
100
AcDbCircle
 62
7
  6
CONTINUOUS
 10
-10.7249779653
 20
21.9267985082
 40
0.5000947883
100
AcDbArc
 50
107.9779194038
 51
116.5650224981
  0
ARC
  5
569
100
AcDbEntity
  8
RACCORDO
100
AcDbCircle
 62
7
  6
CONTINUOUS
 10
-10.7249779653
 20
21.9267985082
 40
0.5000947883
100
AcDbArc
 50
107.9779194038
 51
116.5650224981
  0
ARC
  5
56A
100
AcDbEntity
  8
GUSCI_ESTERNI
100
AcDbCircle
 62
7
  6
CONTINUOUS
 10
-6.1401032013
 20
1.5193994374
 40
0.4
100
AcDbArc
 50
90.0
 51
270.0
  0
ARC
  5
56B
100
AcDbEntity
  8
ASSI
100
AcDbCircle
 62
7
  6
CONTINUOUS
 10
-5.5401032013
 20
0.5193994374
 40
0.4
100
AcDbArc
 50
270.0
 51
90.0
  0
ARC
  5
56C
100
AcDbEntity
  8
0
100
AcDbCircle
 62
253
  6
CONTINUOUS
 10
-8.5944810185
 20
24.2650216202
 40
0.2500059834
100
AcDbArc
 50
0.0023408215
 51
89.9976591785
  0
ARC
  5
56D
100
AcDbEntity
  8
0
100
AcDbCircle
 62
253
  6
CONTINUOUS
 10
-10.4857253841
 20
24.2650216202
 40
0.2500059834
100
AcDbArc
 50
90.0023408215
 51
179.9976591785
  0
ARC
  5
56E
100
AcDbEntity
  8
RACCORDO
100
AcDbCircle
 62
253
  6
CONTINUOUS
 10
-10.4857253841
 20
24.2650216202
 40
0.2500059834
100
AcDbArc
 50
90.0023408215
 51
179.9976591785
  0
ARC
  5
56F
100
AcDbEntity
  8
RACCORDO
100
AcDbCircle
 62
253
  6
CONTINUOUS
 10
-8.5944810185
 20
24.2650216202
 40
0.2500059834
100
AcDbArc
 50
0.0023408215
 51
89.9976591785
  0
ARC
  5
570
100
AcDbEntity
  8
0
100
AcDbCircle
 62
7
  6
CONTINUOUS
 10
-8.5900972334
 20
24.2694054053
 40
0.2499940321
100
AcDbArc
 50
359.9996018723
 51
90.0003981277
  0
ARC
  5
571
100
AcDbEntity
  8
0
100
AcDbCircle
 62
7
  6
CONTINUOUS
 10
-10.4901091692
 20
24.2694054053
 40
0.2499940321
100
AcDbArc
 50
89.9996018723
 51
180.0003981277
  0
ARC
  5
572
100
AcDbEntity
  8
RACCORDO
100
AcDbCircle
 62
7
  6
CONTINUOUS
 10
-10.4901091692
 20
24.2694054053
 40
0.2499940321
100
AcDbArc
 50
89.9996018723
 51
180.0003981277
  0
ARC
  5
573
100
AcDbEntity
  8
RACCORDO
100
AcDbCircle
 62
7
  6
CONTINUOUS
 10
-8.5900972334
 20
24.2694054053
 40
0.2499940321
100
AcDbArc
 50
359.9996018723
 51
90.0003981277
  0
ARC
  5
574
100
AcDbEntity
  8
0
100
AcDbCircle
 62
7
  6
CONTINUOUS
 10
-10.9404198216
 20
22.5850408607
 40
0.2003126717
100
AcDbArc
 50
302.2589202112
 51
0.0201997759
  0
ARC
  5
575
100
AcDbEntity
  8
RACCORDO
100
AcDbCircle
 62
7
  6
CONTINUOUS
 10
-10.9404198216
 20
22.5850408607
 40
0.2003126717
100
AcDbArc
 50
302.2589202113
 51
0.0201997759
  0
ARC
  5
576
100
AcDbEntity
  8
0
100
AcDbCircle
 62
7
  6
CONTINUOUS
 10
3.0892159865
 20
-18.6908223538
 40
7.0929231079
100
AcDbArc
 50
44.9402588609
 51
48.4752605848
  0
ARC
  5
577
100
AcDbEntity
  8
ASSI
100
AcDbCircle
 62
7
  6
CONTINUOUS
 10
2.1598967987
 20
-15.8806005626
 40
1.0
100
AcDbArc
 50
180.0
 51
270.0
  0
ARC
  5
578
100
AcDbEntity
  8
ASSI
100
AcDbCircle
 62
7
  6
CONTINUOUS
 10
2.1598967987
 20
-14.3806005626
 40
1.0
100
AcDbArc
 50
90.0
 51
180.0
  0
ARC
  5
579
100
AcDbEntity
  8
0
100
AcDbCircle
 62
7
  6
CONTINUOUS
 10
10.5447715627
 20
-21.8879996334
 40
0.5000947883
100
AcDbArc
 50
287.9779194038
 51
296.5650224981
  0
ARC
  5
57A
100
AcDbEntity
  8
RACCORDO
100
AcDbCircle
 62
7
  6
CONTINUOUS
 10
10.5447715627
 20
-21.8879996334
 40
0.5000947883
100
AcDbArc
 50
287.9779194038
 51
296.5650224981
  0
ARC
  5
57B
100
AcDbEntity
  8
0
100
AcDbCircle
 62
253
  6
CONTINUOUS
 10
8.4142746159
 20
-24.2262227454
 40
0.2500059834
100
AcDbArc
 50
180.0023408215
 51
269.9976591785
  0
ARC
  5
57C
100
AcDbEntity
  8
0
100
AcDbCircle
 62
253
  6
CONTINUOUS
 10
10.3055189815
 20
-24.2262227454
 40
0.2500059834
100
AcDbArc
 50
270.0023408215
 51
359.9976591785
  0
ARC
  5
57D
100
AcDbEntity
  8
RACCORDO
100
AcDbCircle
 62
253
  6
CONTINUOUS
 10
10.3055189815
 20
-24.2262227454
 40
0.2500059834
100
AcDbArc
 50
270.0023408215
 51
359.9976591785
  0
ARC
  5
57E
100
AcDbEntity
  8
RACCORDO
100
AcDbCircle
 62
253
  6
CONTINUOUS
 10
8.4142746159
 20
-24.2262227454
 40
0.2500059834
100
AcDbArc
 50
180.0023408215
 51
269.9976591785
  0
ARC
  5
57F
100
AcDbEntity
  8
0
100
AcDbCircle
 62
7
  6
CONTINUOUS
 10
8.4098908308
 20
-24.2306065305
 40
0.2499940321
100
AcDbArc
 50
179.9996018723
 51
270.0003981277
  0
ARC
  5
580
100
AcDbEntity
  8
0
100
AcDbCircle
 62
7
  6
CONTINUOUS
 10
10.3099027666
 20
-24.2306065305
 40
0.2499940321
100
AcDbArc
 50
269.9996018723
 51
0.0003981277
  0
ARC
  5
581
100
AcDbEntity
  8
RACCORDO
100
AcDbCircle
 62
7
  6
CONTINUOUS
 10
10.3099027666
 20
-24.2306065305
 40
0.2499940321
100
AcDbArc
 50
269.9996018723
 51
0.0003981277
  0
ARC
  5
582
100
AcDbEntity
  8
RACCORDO
100
AcDbCircle
 62
7
  6
CONTINUOUS
 10
8.4098908308
 20
-24.2306065305
 40
0.2499940321
100
AcDbArc
 50
179.9996018723
 51
270.0003981277
  0
ARC
  5
583
100
AcDbEntity
  8
0
100
AcDbCircle
 62
7
  6
CONTINUOUS
 10
10.7602134008
 20
-22.5462419997
 40
0.2003126717
100
AcDbArc
 50
122.2589136785
 51
180.0201958139
  0
ARC
  5
584
100
AcDbEntity
  8
RACCORDO
100
AcDbCircle
 62
7
  6
CONTINUOUS
 10
10.7602134008
 20
-22.5462419997
 40
0.2003126717
100
AcDbArc
 50
122.2589136785
 51
180.0201958139
  0
ARC
  5
585
100
AcDbEntity
  8
0
100
AcDbCircle
 62
7
  6
CONTINUOUS
 10
7.6307324735
 20
-18.6909867738
 40
7.0931488677
100
AcDbArc
 50
131.5247848031
 51
135.059684648
  0
ARC
  5
586
100
AcDbEntity
  8
GUSCI_ESTERNI
100
AcDbCircle
 62
7
  6
CONTINUOUS
 10
8.2598967987
 20
-16.1506005626
 40
2.5
100
AcDbArc
 50
270.0
 51
360.0
  0
ARC
  5
587
100
AcDbEntity
  8
GUSCI_ESTERNI
100
AcDbCircle
 62
7
  6
CONTINUOUS
 10
8.2598967987
 20
-14.1106005626
 40
2.5
100
AcDbArc
 50
0.0
 51
90.0
  0
ARC
  5
588
100
AcDbEntity
  8
ASSI
100
AcDbCircle
 62
7
  6
CONTINUOUS
 10
8.2598967987
 20
-16.1506005626
 40
2.5
100
AcDbArc
 50
270.0
 51
360.0
  0
ARC
  5
589
100
AcDbEntity
  8
ASSI
100
AcDbCircle
 62
7
  6
CONTINUOUS
 10
8.2598967987
 20
-14.1106005626
 40
2.5
100
AcDbArc
 50
0.0
 51
90.0
  0
ARC
  5
58A
100
AcDbEntity
  8
GUSCI_ESTERNI
100
AcDbCircle
 62
7
  6
CONTINUOUS
 10
8.5598967987
 20
-14.1056005626
 40
1.5
100
AcDbArc
 50
0.0
 51
90.0
  0
ARC
  5
58B
100
AcDbEntity
  8
GUSCI_ESTERNI
100
AcDbCircle
 62
7
  6
CONTINUOUS
 10
8.5598967987
 20
-16.1556005626
 40
1.5
100
AcDbArc
 50
270.0
 51
360.0
  0
ARC
  5
58C
100
AcDbEntity
  8
ASSI
100
AcDbCircle
 62
7
  6
CONTINUOUS
 10
8.5598967987
 20
-14.1056005626
 40
1.5
100
AcDbArc
 50
0.0
 51
90.0
  0
ARC
  5
58D
100
AcDbEntity
  8
ASSI
100
AcDbCircle
 62
7
  6
CONTINUOUS
 10
8.5598967987
 20
-16.1556005626
 40
1.5
100
AcDbArc
 50
270.0
 51
360.0
  0
ARC
  5
58E
100
AcDbEntity
  8
GUSCI_ESTERNI
100
AcDbCircle
 62
7
  6
CONTINUOUS
 10
8.5098967987
 20
-14.3806005626
 40
1.0
100
AcDbArc
 50
0.0
 51
90.0
  0
ARC
  5
58F
100
AcDbEntity
  8
GUSCI_ESTERNI
100
AcDbCircle
 62
7
  6
CONTINUOUS
 10
8.5098967987
 20
-15.8806005626
 40
1.0
100
AcDbArc
 50
270.0
 51
360.0
  0
ARC
  5
590
100
AcDbEntity
  8
ASSI
100
AcDbCircle
 62
7
  6
CONTINUOUS
 10
8.5098967987
 20
-14.3806005626
 40
1.0
100
AcDbArc
 50
0.0
 51
90.0
  0
ARC
  5
591
100
AcDbEntity
  8
ASSI
100
AcDbCircle
 62
7
  6
CONTINUOUS
 10
8.5098967987
 20
-15.8806005626
 40
1.0
100
AcDbArc
 50
270.0
 51
360.0
  0
ARC
  5
592
100
AcDbEntity
  8
SMUSSO
100
AcDbCircle
 62
7
  6
CONTINUOUS
 10
4.9598967987
 20
1.5193994374
 40
1.35
100
AcDbArc
 50
350.4031420291
 51
9.5968579709
  0
ARC
  5
593
100
AcDbEntity
  8
SMUSSO
100
AcDbCircle
 62
7
  6
CONTINUOUS
 10
4.9598967987
 20
1.5193994374
 40
0.85
100
AcDbArc
 50
331.9249350285
 51
28.0750649715
  0
ARC
  5
594
100
AcDbEntity
  8
ASSI
100
AcDbCircle
 62
7
  6
CONTINUOUS
 10
5.3598967987
 20
1.5193994374
 40
0.4
100
AcDbArc
 50
90.0
 51
270.0
  0
ARC
  5
595
100
AcDbEntity
  8
GUSCI_ESTERNI
100
AcDbCircle
 62
7
  6
CONTINUOUS
 10
5.9598967987
 20
1.5193994374
 40
0.4
100
AcDbArc
 50
270.0
 51
90.0
  0
ARC
  5
596
100
AcDbEntity
  8
ASSI
100
AcDbCircle
 62
7
  6
CONTINUOUS
 10
5.9598967987
 20
1.5193994374
 40
0.4
100
AcDbArc
 50
270.0
 51
90.0
  0
ARC
  5
597
100
AcDbEntity
  8
0
100
AcDbCircle
 62
7
  6
CONTINUOUS
 10
4.9598967987
 20
1.5193994374
 40
0.2
100
AcDbArc
 50
284.5103154316
 51
75.4896845684
  0
ARC
  5
598
100
AcDbEntity
  8
0
100
AcDbCircle
 62
7
  6
CONTINUOUS
 10
3.1400868096
 20
18.7269406593
 40
7.0197027213
100
AcDbArc
 50
310.8790568821
 51
315.0708092429
  0
ARC
  5
599
100
AcDbEntity
  8
ASSI
100
AcDbCircle
 62
7
  6
CONTINUOUS
 10
2.1598967987
 20
15.9193994374
 40
1.0
100
AcDbArc
 50
90.0
 51
180.0
  0
ARC
  5
59A
100
AcDbEntity
  8
ASSI
100
AcDbCircle
 62
7
  6
CONTINUOUS
 10
2.1598967987
 20
14.4193994374
 40
1.0
100
AcDbArc
 50
180.0
 51
270.0
  0
ARC
  5
59B
100
AcDbEntity
  8
0
100
AcDbCircle
 62
7
  6
CONTINUOUS
 10
7.5795538359
 20
18.7267764509
 40
7.019478465
100
AcDbArc
 50
224.9291235261
 51
229.1209973961
  0
ARC
  5
59C
100
AcDbEntity
  8
GUSCI_ESTERNI
100
AcDbCircle
 62
7
  6
CONTINUOUS
 10
8.5098967987
 20
15.9193994374
 40
1.0
100
AcDbArc
 50
0.0
 51
90.0
  0
ARC
  5
59D
100
AcDbEntity
  8
GUSCI_ESTERNI
100
AcDbCircle
 62
7
  6
CONTINUOUS
 10
8.5098967987
 20
14.4193994374
 40
1.0
100
AcDbArc
 50
270.0
 51
360.0
  0
ARC
  5
59E
100
AcDbEntity
  8
ASSI
100
AcDbCircle
 62
7
  6
CONTINUOUS
 10
8.5098967987
 20
15.9193994374
 40
1.0
100
AcDbArc
 50
0.0
 51
90.0
  0
ARC
  5
59F
100
AcDbEntity
  8
ASSI
100
AcDbCircle
 62
7
  6
CONTINUOUS
 10
8.5098967987
 20
14.4193994374
 40
1.0
100
AcDbArc
 50
270.0
 51
360.0
  0
ARC
  5
5A0
100
AcDbEntity
  8
0
100
AcDbCircle
 62
7
  6
CONTINUOUS
 10
10.5447715627
 20
21.9267985083
 40
0.5000947882
100
AcDbArc
 50
63.4349775538
 51
72.0220797127
  0
ARC
  5
5A1
100
AcDbEntity
  8
RACCORDO
100
AcDbCircle
 62
7
  6
CONTINUOUS
 10
10.5447715627
 20
21.9267985083
 40
0.5000947882
100
AcDbArc
 50
63.4349775538
 51
72.0220797127
  0
ARC
  5
5A2
100
AcDbEntity
  8
0
100
AcDbCircle
 62
253
  6
CONTINUOUS
 10
10.3055189815
 20
24.2650216202
 40
0.2500059834
100
AcDbArc
 50
0.0023408215
 51
89.9976591785
  0
ARC
  5
5A3
100
AcDbEntity
  8
0
100
AcDbCircle
 62
253
  6
CONTINUOUS
 10
8.4142746159
 20
24.2650216202
 40
0.2500059834
100
AcDbArc
 50
90.0023408215
 51
179.9976591785
  0
ARC
  5
5A4
100
AcDbEntity
  8
RACCORDO
100
AcDbCircle
 62
253
  6
CONTINUOUS
 10
8.4142746159
 20
24.2650216202
 40
0.2500059834
100
AcDbArc
 50
90.0023408215
 51
179.9976591785
  0
ARC
  5
5A5
100
AcDbEntity
  8
RACCORDO
100
AcDbCircle
 62
253
  6
CONTINUOUS
 10
10.3055189815
 20
24.2650216202
 40
0.2500059834
100
AcDbArc
 50
0.0023408215
 51
89.9976591785
  0
ARC
  5
5A6
100
AcDbEntity
  8
0
100
AcDbCircle
 62
7
  6
CONTINUOUS
 10
8.4098908308
 20
24.2694054053
 40
0.2499940321
100
AcDbArc
 50
89.9996018723
 51
180.0003981277
  0
ARC
  5
5A7
100
AcDbEntity
  8
0
100
AcDbCircle
 62
7
  6
CONTINUOUS
 10
10.3099027666
 20
24.2694054053
 40
0.2499940321
100
AcDbArc
 50
359.9996018723
 51
90.0003981277
  0
ARC
  5
5A8
100
AcDbEntity
  8
RACCORDO
100
AcDbCircle
 62
7
  6
CONTINUOUS
 10
8.4098908308
 20
24.2694054053
 40
0.2499940321
100
AcDbArc
 50
89.9996018723
 51
180.0003981277
  0
ARC
  5
5A9
100
AcDbEntity
  8
RACCORDO
100
AcDbCircle
 62
7
  6
CONTINUOUS
 10
10.3099027666
 20
24.2694054053
 40
0.2499940321
100
AcDbArc
 50
359.9996018723
 51
90.0003981277
  0
ARC
  5
5AA
100
AcDbEntity
  8
0
100
AcDbCircle
 62
7
  6
CONTINUOUS
 10
10.7602134131
 20
22.5850408582
 40
0.2003126717
100
AcDbArc
 50
179.9797995228
 51
237.7410808526
  0
ARC
  5
5AB
100
AcDbEntity
  8
RACCORDO
100
AcDbCircle
 62
7
  6
CONTINUOUS
 10
10.7602134131
 20
22.5850408582
 40
0.2003126717
100
AcDbArc
 50
179.9797995229
 51
237.7410808526
  0
SPLINE
  5
5AC
100
AcDbEntity
  8
0
100
AcDbSpline
 62
7
  6
CONTINUOUS
 70
0
 71
3
 72
27
 73
23
 74
21
 42
0.0000001
 43
0.0000001
 44
0.0000000001
 12
-0.0453620884
 22
0.0147190314
 32
0.0
 13
-0.0461863849
 23
0.0118822052
 33
0.0
 40
0.0
 40
0.0
 40
0.0
 40
0.0
 40
0.0715553232
 40
0.1399234144
 40
0.2036475075
 40
0.2627461471
 40
0.3173243211
 40
0.3689504796
 40
0.4184203839
 40
0.4660926464
 40
0.5121065567
 40
0.5570474287
 40
0.6013263698
 40
0.6452205536
 40
0.6889445492
 40
0.7326652251
 40
0.7765111923
 40
0.8205785335
 40
0.8649343278
 40
0.9096190888
 40
0.9546482816
 40
1.0
 40
1.0
 40
1.0
 40
1.0
 10
10.6991260535
 20
22.4024764333
 30
0.0
 10
10.6980440872
 20
22.4028275083
 30
0.0
 10
10.6959264113
 20
22.4035080682
 30
0.0
 10
10.6928390623
 20
22.4044820973
 30
0.0
 10
10.6899361213
 20
22.405382353
 30
0.0
 10
10.6872388939
 20
22.4062057567
 30
0.0
 10
10.6847225707
 20
22.4069629922
 30
0.0
 10
10.6823502519
 20
22.4076675233
 30
0.0
 10
10.6800809203
 20
22.4083331683
 30
0.0
 10
10.6778951902
 20
22.408966813
 30
0.0
 10
10.6757767996
 20
22.4095741297
 30
0.0
 10
10.6737086072
 20
22.4101607723
 30
0.0
 10
10.6716712882
 20
22.4107327458
 30
0.0
 10
10.6696511329
 20
22.4112942611
 30
0.0
 10
10.6676381328
 20
22.4118483551
 30
0.0
 10
10.6656245289
 20
22.4123973435
 30
0.0
 10
10.6636043597
 20
22.4129429786
 30
0.0
 10
10.6615731812
 20
22.4134865513
 30
0.0
 10
10.6595278934
 20
22.4140289596
 30
0.0
 10
10.6574666298
 20
22.414570756
 30
0.0
 10
10.6553888904
 20
22.415112129
 30
0.0
 10
10.6539977938
 20
22.4154715019
 30
0.0
 10
10.6532995831
 20
22.4156511281
 30
0.0
 11
10.6991260535
 21
22.4024764333
 31
0.0
 11
10.6958772327
 21
22.4035206104
 31
0.0
 11
10.6927678366
 21
22.4045016821
 31
0.0
 11
10.6898652078
 21
22.4054019113
 31
0.0
 11
10.6871696001
 21
22.4062248768
 31
0.0
 11
10.6846771708
 21
22.4069749663
 31
0.0
 11
10.6823169937
 21
22.4076759293
 31
0.0
 11
10.6800531454
 21
22.4083399993
 31
0.0
 11
10.6778695534
 21
22.4089730541
 31
0.0
 11
10.6757601173
 21
22.4095778308
 31
0.0
 11
10.6736982213
 21
22.4101627129
 31
0.0
 11
10.6716651532
 21
22.4107335174
 31
0.0
 11
10.6696482926
 21
22.411294141
 31
0.0
 11
10.6676378583
 21
22.4118475528
 31
0.0
 11
10.665626235
 21
22.4123960254
 31
0.0
 11
10.6636075484
 21
22.4129412847
 31
0.0
 11
10.6615774081
 21
22.413484605
 31
0.0
 11
10.659532751
 21
22.4140268723
 31
0.0
 11
10.6574717335
 21
22.4145686311
 31
0.0
 11
10.6553936655
 21
22.415110118
 31
0.0
 11
10.6532995831
 21
22.4156511281
 31
0.0
  0
SPLINE
  5
5AD
100
AcDbEntity
  8
0
100
AcDbSpline
 62
7
  6
CONTINUOUS
 70
0
 71
3
 72
27
 73
23
 74
21
 42
0.0000001
 43
0.0000001
 44
0.0000000001
 12
0.0453620884
 22
-0.0147190314
 32
0.0
 13
0.0461863849
 23
-0.0118822052
 33
0.0
 40
0.0
 40
0.0
 40
0.0
 40
0.0
 40
0.0715553232
 40
0.1399234144
 40
0.2036475075
 40
0.2627461471
 40
0.3173243211
 40
0.3689504796
 40
0.4184203839
 40
0.4660926464
 40
0.5121065567
 40
0.5570474287
 40
0.6013263698
 40
0.6452205536
 40
0.6889445492
 40
0.7326652251
 40
0.7765111923
 40
0.8205785335
 40
0.8649343278
 40
0.9096190888
 40
0.9546482816
 40
1.0
 40
1.0
 40
1.0
 40
1.0
 10
-10.8793324562
 20
-22.3636775585
 30
0.0
 10
-10.8782504899
 20
-22.3640286335
 30
0.0
 10
-10.8761328139
 20
-22.3647091934
 30
0.0
 10
-10.8730454649
 20
-22.3656832226
 30
0.0
 10
-10.870142524
 20
-22.3665834782
 30
0.0
 10
-10.8674452965
 20
-22.3674068819
 30
0.0
 10
-10.8649289733
 20
-22.3681641174
 30
0.0
 10
-10.8625566545
 20
-22.3688686485
 30
0.0
 10
-10.8602873229
 20
-22.3695342935
 30
0.0
 10
-10.8581015928
 20
-22.3701679382
 30
0.0
 10
-10.8559832023
 20
-22.3707752549
 30
0.0
 10
-10.8539150098
 20
-22.3713618976
 30
0.0
 10
-10.8518776908
 20
-22.371933871
 30
0.0
 10
-10.8498575355
 20
-22.3724953863
 30
0.0
 10
-10.8478445354
 20
-22.3730494803
 30
0.0
 10
-10.8458309315
 20
-22.3735984687
 30
0.0
 10
-10.8438107623
 20
-22.3741441038
 30
0.0
 10
-10.8417795838
 20
-22.3746876765
 30
0.0
 10
-10.839734296
 20
-22.3752300848
 30
0.0
 10
-10.8376730324
 20
-22.3757718812
 30
0.0
 10
-10.835595293
 20
-22.3763132542
 30
0.0
 10
-10.8342041964
 20
-22.3766726272
 30
0.0
 10
-10.8335059857
 20
-22.3768522533
 30
0.0
 11
-10.8793324562
 21
-22.3636775585
 31
0.0
 11
-10.8760836353
 21
-22.3647217357
 31
0.0
 11
-10.8729742392
 21
-22.3657028073
 31
0.0
 11
-10.8700716104
 21
-22.3666030365
 31
0.0
 11
-10.8673760027
 21
-22.367426002
 31
0.0
 11
-10.8648835734
 21
-22.3681760915
 31
0.0
 11
-10.8625233963
 21
-22.3688770545
 31
0.0
 11
-10.860259548
 21
-22.3695411245
 31
0.0
 11
-10.858075956
 21
-22.3701741793
 31
0.0
 11
-10.8559665199
 21
-22.3707789561
 31
0.0
 11
-10.8539046239
 21
-22.3713638381
 31
0.0
 11
-10.8518715558
 21
-22.3719346426
 31
0.0
 11
-10.8498546953
 21
-22.3724952662
 31
0.0
 11
-10.8478442609
 21
-22.373048678
 31
0.0
 11
-10.8458326376
 21
-22.3735971506
 31
0.0
 11
-10.843813951
 21
-22.37414241
 31
0.0
 11
-10.8417838107
 21
-22.3746857302
 31
0.0
 11
-10.8397391536
 21
-22.3752279975
 31
0.0
 11
-10.8376781361
 21
-22.3757697563
 31
0.0
 11
-10.8356000681
 21
-22.3763112432
 31
0.0
 11
-10.8335059857
 21
-22.3768522533
 31
0.0
  0
SPLINE
  5
5AE
100
AcDbEntity
  8
0
100
AcDbSpline
 62
7
  6
CONTINUOUS
 70
0
 71
3
 72
27
 73
23
 74
21
 42
0.0000001
 43
0.0000001
 44
0.0000000001
 12
0.0461863775
 22
0.0118822033
 32
0.0
 13
0.0453620813
 23
0.0147190284
 33
0.0
 40
0.0
 40
0.0
 40
0.0
 40
0.0
 40
0.0453774781
 40
0.0903306196
 40
0.1348597099
 40
0.1789956283
 40
0.222798043
 40
0.266358374
 40
0.3098034547
 40
0.3533008102
 40
0.397067014
 40
0.4413811152
 40
0.4866064474
 40
0.5332469531
 40
0.5817198678
 40
0.6320325446
 40
0.6843908057
 40
0.7400338972
 40
0.7987405076
 40
0.8607759224
 40
0.9281047811
 40
1.0
 40
1.0
 40
1.0
 40
1.0
 10
10.6532995831
 20
-22.3768522533
 30
0.0
 10
10.6539981902
 20
-22.3766725252
 30
0.0
 10
10.6553885124
 20
-22.3763133514
 30
0.0
 10
10.6574630833
 20
-22.3757728052
 30
0.0
 10
10.6595174068
 20
-22.3752328465
 30
0.0
 10
10.6615528615
 20
-22.3746930803
 30
0.0
 10
10.6635722241
 20
-22.3741527321
 30
0.0
 10
10.6655797381
 20
-22.3736106107
 30
0.0
 10
10.6675812914
 20
-22.3730650391
 30
0.0
 10
10.6695846744
 20
-22.3725137581
 30
0.0
 10
10.6715999865
 20
-22.371953783
 30
0.0
 10
10.6736402924
 20
-22.3713811791
 30
0.0
 10
10.675723007
 20
-22.3707906136
 30
0.0
 10
10.6778675919
 20
-22.3701759292
 30
0.0
 10
10.6800879917
 20
-22.3695322747
 30
0.0
 10
10.682393535
 20
-22.3688559164
 30
0.0
 10
10.6848060163
 20
-22.3681392198
 30
0.0
 10
10.6873436084
 20
-22.3673751548
 30
0.0
 10
10.6900252406
 20
-22.3665559729
 30
0.0
 10
10.6928807083
 20
-22.3656700838
 30
0.0
 10
10.6959318399
 20
-22.3647074337
 30
0.0
 10
10.6980389406
 20
-22.3640303035
 30
0.0
 10
10.6991260462
 20
-22.3636775609
 30
0.0
 11
10.6532995831
 21
-22.3768522533
 31
0.0
 11
10.6553948542
 21
-22.3763109348
 31
0.0
 11
10.6574694125
 21
-22.3757703637
 31
0.0
 11
10.659523253
 21
-22.3752305052
 31
0.0
 11
10.6615577828
 21
-22.3746909584
 31
0.0
 11
10.6635757335
 21
-22.374150963
 31
0.0
 11
10.6655812931
 21
-22.3736093452
 31
0.0
 11
10.6675802691
 21
-22.3730644523
 31
0.0
 11
10.6695803246
 21
-22.3725140633
 31
0.0
 11
10.6715913543
 21
-22.3719552543
 31
0.0
 11
10.6736260905
 21
-22.3713841889
 31
0.0
 11
10.6757010885
 21
-22.3707957856
 31
0.0
 11
10.6778392869
 21
-22.3701829034
 31
0.0
 11
10.6800595624
 21
-22.3695392534
 31
0.0
 11
10.6823619524
 21
-22.3688637851
 31
0.0
 11
10.6847555337
 21
-22.368152664
 31
0.0
 11
10.6872964752
 21
-22.3673875433
 31
0.0
 11
10.6899740511
 21
-22.3665695455
 31
0.0
 11
10.6927996616
 21
-22.3656928545
 31
0.0
 11
10.6958617799
 21
-22.364726655
 31
0.0
 11
10.6991260462
 21
-22.3636775609
 31
0.0
  0
SPLINE
  5
5AF
100
AcDbEntity
  8
0
100
AcDbSpline
 62
7
  6
CONTINUOUS
 70
0
 71
3
 72
27
 73
23
 74
21
 42
0.0000001
 43
0.0000001
 44
0.0000000001
 12
-0.0461863775
 22
-0.0118822033
 32
0.0
 13
-0.0453620813
 23
-0.0147190284
 33
0.0
 40
0.0
 40
0.0
 40
0.0
 40
0.0
 40
0.0453774781
 40
0.0903306196
 40
0.1348597099
 40
0.1789956283
 40
0.222798043
 40
0.266358374
 40
0.3098034547
 40
0.3533008102
 40
0.397067014
 40
0.4413811152
 40
0.4866064474
 40
0.5332469531
 40
0.5817198678
 40
0.6320325446
 40
0.6843908057
 40
0.7400338972
 40
0.7987405076
 40
0.8607759224
 40
0.9281047811
 40
1.0
 40
1.0
 40
1.0
 40
1.0
 10
-10.8335059857
 20
22.4156511281
 30
0.0
 10
-10.8342045928
 20
22.4154713999
 30
0.0
 10
-10.835594915
 20
22.4151122262
 30
0.0
 10
-10.837669486
 20
22.41457168
 30
0.0
 10
-10.8397238094
 20
22.4140317213
 30
0.0
 10
-10.8417592641
 20
22.4134919551
 30
0.0
 10
-10.8437786267
 20
22.4129516068
 30
0.0
 10
-10.8457861407
 20
22.4124094855
 30
0.0
 10
-10.847787694
 20
22.4118639139
 30
0.0
 10
-10.849791077
 20
22.4113126329
 30
0.0
 10
-10.8518063891
 20
22.4107526578
 30
0.0
 10
-10.853846695
 20
22.4101800538
 30
0.0
 10
-10.8559294096
 20
22.4095894884
 30
0.0
 10
-10.8580739945
 20
22.408974804
 30
0.0
 10
-10.8602943943
 20
22.4083311495
 30
0.0
 10
-10.8625999376
 20
22.4076547912
 30
0.0
 10
-10.8650124189
 20
22.4069380946
 30
0.0
 10
-10.867550011
 20
22.4061740296
 30
0.0
 10
-10.8702316432
 20
22.4053548477
 30
0.0
 10
-10.8730871109
 20
22.4044689586
 30
0.0
 10
-10.8761382425
 20
22.4035063085
 30
0.0
 10
-10.8782453432
 20
22.4028291783
 30
0.0
 10
-10.8793324488
 20
22.4024764357
 30
0.0
 11
-10.8335059857
 21
22.4156511281
 31
0.0
 11
-10.8356012569
 21
22.4151098095
 31
0.0
 11
-10.8376758151
 21
22.4145692385
 31
0.0
 11
-10.8397296556
 21
22.4140293799
 31
0.0
 11
-10.8417641854
 21
22.4134898332
 31
0.0
 11
-10.8437821361
 21
22.4129498378
 31
0.0
 11
-10.8457876957
 21
22.4124082199
 31
0.0
 11
-10.8477866717
 21
22.4118633271
 31
0.0
 11
-10.8497867272
 21
22.4113129381
 31
0.0
 11
-10.851797757
 21
22.410754129
 31
0.0
 11
-10.8538324931
 21
22.4101830637
 31
0.0
 11
-10.8559074911
 21
22.4095946604
 31
0.0
 11
-10.8580456895
 21
22.4089817782
 31
0.0
 11
-10.860265965
 21
22.4083381282
 31
0.0
 11
-10.862568355
 21
22.4076626599
 31
0.0
 11
-10.8649619363
 21
22.4069515388
 31
0.0
 11
-10.8675028778
 21
22.4061864181
 31
0.0
 11
-10.8701804537
 21
22.4053684203
 31
0.0
 11
-10.8730060642
 21
22.4044917293
 31
0.0
 11
-10.8760681825
 21
22.4035255298
 31
0.0
 11
-10.8793324488
 21
22.4024764357
 31
0.0
  0
SPLINE
  5
5B0
100
AcDbEntity
  8
0
100
AcDbSpline
 62
7
  6
CONTINUOUS
 70
0
 71
3
 72
18
 73
14
 74
12
 42
0.0000001
 43
0.0000001
 44
0.0000000001
 12
0.4450903692
 22
-0.4810902355
 32
0.0
 13
0.0252793885
 23
-0.6549154174
 33
0.0
 40
0.0
 40
0.0
 40
0.0
 40
0.0
 40
0.1610700427
 40
0.3161797675
 40
0.459639169
 40
0.5858983805
 40
0.6937258751
 40
0.7831374497
 40
0.8554530788
 40
0.9120560403
 40
0.9545072575
 40
0.9834021834
 40
1.0
 40
1.0
 40
1.0
 40
1.0
 10
3.8378667864
 20
-23.2369583773
 30
0.0
 10
3.8617636946
 20
-23.2627881189
 30
0.0
 10
3.9086734232
 20
-23.313491623
 30
0.0
 10
3.976755413
 20
-23.3873040936
 30
0.0
 10
4.0394632789
 20
-23.4557273889
 30
0.0
 10
4.0948741048
 20
-23.5168242785
 30
0.0
 10
4.1419485617
 20
-23.5695427973
 30
0.0
 10
4.1806698939
 20
-23.6139057113
 30
0.0
 10
4.2114536928
 20
-23.650365602
 30
0.0
 10
4.2348390179
 20
-23.6795559357
 30
0.0
 10
4.2515056998
 20
-23.7021377316
 30
0.0
 10
4.2615213536
 20
-23.7183262574
 30
0.0
 10
4.2656896706
 20
-23.7277505987
 30
0.0
 10
4.2658295314
 20
-23.7313739873
 30
0.0
 11
3.8378667864
 21
-23.2369583773
 31
0.0
 11
3.9095377329
 21
-23.3144658957
 31
0.0
 11
3.9784397289
 21
-23.3892131237
 31
0.0
 11
4.0419379223
 21
-23.4585560615
 31
0.0
 11
4.0974942019
 21
-23.5198844813
 31
0.0
 11
4.1445182975
 21
-23.5726391084
 31
0.0
 11
4.182994586
 21
-23.6168387518
 31
0.0
 11
4.2134851484
 21
-23.6531250565
 31
0.0
 11
4.2365696133
 21
-23.6821655644
 31
0.0
 11
4.2528579742
 21
-23.7047219321
 31
0.0
 11
4.262513285
 21
-23.7210135304
 31
0.0
 11
4.2658295314
 21
-23.7313739873
 31
0.0
  0
SPLINE
  5
5B1
100
AcDbEntity
  8
0
100
AcDbSpline
 62
7
  6
CONTINUOUS
 70
0
 71
3
 72
8
 73
4
 74
2
 42
0.0000001
 43
0.0000001
 44
0.0000000001
 12
0.0
 22
0.0062881995
 32
0.0
 13
0.0022476677
 23
0.0059728434
 33
0.0
 40
0.0
 40
0.0
 40
0.0
 40
0.0
 40
1.0
 40
1.0
 40
1.0
 40
1.0
 10
3.4098967987
 20
-23.7317428529
 30
0.0
 10
3.4098967987
 20
-23.7296467865
 30
0.0
 10
3.4104096618
 20
-23.7276038161
 30
0.0
 10
3.4111588844
 20
-23.7256128683
 30
0.0
 11
3.4098967987
 21
-23.7317428529
 31
0.0
 11
3.4111588844
 21
-23.7256128683
 31
0.0
  0
SPLINE
  5
5B2
100
AcDbEntity
  8
0
100
AcDbSpline
 62
7
  6
CONTINUOUS
 70
0
 71
3
 72
18
 73
14
 74
12
 42
0.0000001
 43
0.0000001
 44
0.0000000001
 12
0.232149697
 22
0.6169033864
 32
0.0
 13
0.4410644187
 23
0.4767386574
 33
0.0
 40
0.0
 40
0.0
 40
0.0
 40
0.0
 40
0.0066271058
 40
0.0353775591
 40
0.0779097127
 40
0.1348025639
 40
0.2076256814
 40
0.2978091982
 40
0.4067225147
 40
0.5344206762
 40
0.6796844479
 40
0.8368312717
 40
1.0
 40
1.0
 40
1.0
 40
1.0
 10
3.4111588844
 20
-23.7256128683
 30
0.0
 10
3.4116717112
 20
-23.7242501069
 30
0.0
 10
3.4150004899
 20
-23.7171053731
 30
0.0
 10
3.423716083
 20
-23.7028790002
 30
0.0
 10
3.4402280237
 20
-23.6804163523
 30
0.0
 10
3.4634878881
 20
-23.6513240839
 30
0.0
 10
3.4941942891
 20
-23.6149153215
 30
0.0
 10
3.5328877933
 20
-23.5705567113
 30
0.0
 10
3.5800029142
 20
-23.5177741965
 30
0.0
 10
3.6355365336
 20
-23.4565307547
 30
0.0
 10
3.6984468304
 20
-23.3878810174
 30
0.0
 10
3.7667840047
 20
-23.3137900965
 30
0.0
 10
3.8138774796
 20
-23.2628879908
 30
0.0
 10
3.8378667864
 20
-23.2369583773
 30
0.0
 11
3.4111588844
 21
-23.7256128683
 31
0.0
 11
3.4129409052
 21
-23.7215973594
 31
0.0
 11
3.4223709637
 21
-23.7054807973
 31
0.0
 11
3.438491097
 21
-23.6830486201
 31
0.0
 11
3.4614515312
 21
-23.6540976944
 31
0.0
 11
3.4918566206
 21
-23.6178690291
 31
0.0
 11
3.5302992222
 21
-23.5736781159
 31
0.0
 11
3.5773573139
 21
-23.5208654033
 31
0.0
 11
3.6330324168
 21
-23.45939357
 31
0.0
 11
3.6967445242
 21
-23.3898106876
 31
0.0
 11
3.7659188767
 21
-23.3147657262
 31
0.0
 11
3.8378667864
 21
-23.2369583773
 31
0.0
  0
SPLINE
  5
5B3
100
AcDbEntity
  8
0
100
AcDbSpline
 62
7
  6
CONTINUOUS
 70
0
 71
3
 72
18
 73
14
 74
12
 42
0.0000001
 43
0.0000001
 44
0.0000000001
 12
0.4453347054
 22
-0.4813543341
 32
0.0
 13
0.0
 23
-0.6557629105
 33
0.0
 40
0.0
 40
0.0
 40
0.0
 40
0.0
 40
0.1614952952
 40
0.3171097781
 40
0.4609917901
 40
0.5874696091
 40
0.6953300589
 40
0.7846477581
 40
0.8567778755
 40
0.9131578401
 40
0.9553196044
 40
0.9838298659
 40
1.0
 40
1.0
 40
1.0
 40
1.0
 10
-4.018073189
 20
-23.2369583773
 30
0.0
 10
-3.9941000357
 20
-23.2628705307
 30
0.0
 10
-3.9470264961
 20
-23.3137510905
 30
0.0
 10
-3.8787074407
 20
-23.38782211
 30
0.0
 10
-3.8157983875
 20
-23.4564699756
 30
0.0
 10
-3.7602633979
 20
-23.5177141823
 30
0.0
 10
-3.7131485151
 20
-23.5704953257
 30
0.0
 10
-3.6744547898
 20
-23.6148524941
 30
0.0
 10
-3.6437419132
 20
-23.6512663681
 30
0.0
 10
-3.6204700761
 20
-23.6803700427
 30
0.0
 10
-3.6039420222
 20
-23.7028498102
 30
0.0
 10
-3.594131153
 20
-23.7188590922
 30
0.0
 10
-3.5901032013
 20
-23.7282082616
 30
0.0
 10
-3.5901032013
 20
-23.7317428529
 30
0.0
 11
-4.018073189
 21
-23.2369583773
 31
0.0
 11
-3.9461736991
 21
-23.3147133083
 31
0.0
 11
-3.8770105226
 21
-23.3897458561
 31
0.0
 11
-3.8132932013
 21
-23.4593338921
 31
0.0
 11
-3.7576158801
 21
-23.5208073854
 31
0.0
 11
-3.7105609024
 21
-23.5736154038
 31
0.0
 11
-3.6721178379
 21
-23.6178049986
 31
0.0
 11
-3.6417091289
 21
-23.6540351603
 31
0.0
 11
-3.6187334685
 21
-23.6830013415
 31
0.0
 11
-3.6025966153
 21
-23.7054517441
 31
0.0
 11
-3.5931522502
 21
-23.7215869026
 31
0.0
 11
-3.5901032013
 21
-23.7317428529
 31
0.0
  0
SPLINE
  5
5B4
100
AcDbEntity
  8
0
100
AcDbSpline
 62
7
  6
CONTINUOUS
 70
0
 71
3
 72
18
 73
14
 74
12
 42
0.0000001
 43
0.0000001
 44
0.0000000001
 12
0.0252793929
 22
0.654915531
 32
0.0
 13
0.4450904464
 23
0.4810903189
 33
0.0
 40
0.0
 40
0.0
 40
0.0
 40
0.0
 40
0.0165806563
 40
0.0454411065
 40
0.0878560839
 40
0.1444275358
 40
0.2167384756
 40
0.3061519021
 40
0.4139889825
 40
0.5402449784
 40
0.6836932136
 40
0.8388260589
 40
1.0
 40
1.0
 40
1.0
 40
1.0
 10
-4.4460359341
 20
-23.7313739873
 30
0.0
 10
-4.4458962177
 20
-23.7277543442
 30
0.0
 10
-4.4417349893
 20
-23.7183400399
 30
0.0
 10
-4.4317312242
 20
-23.7021661094
 30
0.0
 10
-4.4150800883
 20
-23.6796008545
 30
0.0
 10
-4.3917062626
 20
-23.6504214742
 30
0.0
 10
-4.3609285115
 20
-23.6139663042
 30
0.0
 10
-4.3222069959
 20
-23.5696015688
 30
0.0
 10
-4.2751318515
 20
-23.51688124
 30
0.0
 10
-4.2197220661
 20
-23.4557848004
 30
0.0
 10
-4.1570131396
 20
-23.3873598659
 30
0.0
 10
-4.0889140986
 20
-23.3135286662
 30
0.0
 10
-4.0419855161
 20
-23.2628047849
 30
0.0
 10
-4.018073189
 20
-23.2369583773
 30
0.0
 11
-4.4460359341
 21
-23.7313739873
 31
0.0
 11
-4.4427246385
 21
-23.7210237529
 31
0.0
 11
-4.4330832284
 21
-23.7047501783
 31
0.0
 11
-4.4168110226
 21
-23.682211436
 31
0.0
 11
-4.3937412267
 21
-23.6531856407
 31
0.0
 11
-4.3632539569
 21
-23.616900573
 31
0.0
 11
-4.3247777358
 21
-23.5726992482
 31
0.0
 11
-4.2777500136
 21
-23.5199394212
 31
0.0
 11
-4.2221955064
 21
-23.4586122202
 31
0.0
 11
-4.1587024962
 21
-23.3892744372
 31
0.0
 11
-4.0897903535
 21
-23.3145159294
 31
0.0
 11
-4.018073189
 21
-23.2369583773
 31
0.0
  0
SPLINE
  5
5B5
100
AcDbEntity
  8
0
100
AcDbSpline
 62
7
  6
CONTINUOUS
 70
0
 71
3
 72
18
 73
14
 74
12
 42
0.0000001
 43
0.0000001
 44
0.0000000001
 12
-0.4453347138
 22
0.4813543431
 32
0.0
 13
0.0
 23
0.6557629228
 33
0.0
 40
0.0
 40
0.0
 40
0.0
 40
0.0
 40
0.1612016661
 40
0.3168616821
 40
0.4607450366
 40
0.5870767765
 40
0.6948071043
 40
0.7840907429
 40
0.8562933587
 40
0.9129036648
 40
0.95526983
 40
0.9838485666
 40
1.0
 40
1.0
 40
1.0
 40
1.0
 10
3.8378667864
 20
23.2757572521
 30
0.0
 10
3.8139372204
 20
23.3016222928
 30
0.0
 10
3.7669005115
 20
23.3524630488
 30
0.0
 10
3.6986177164
 20
23.4264941385
 30
0.0
 10
3.6357228245
 20
23.4951255692
 30
0.0
 10
3.5802272722
 20
23.556324437
 30
0.0
 10
3.5331556046
 20
23.6090532229
 30
0.0
 10
3.4944715126
 20
23.6533922148
 30
0.0
 10
3.4637155916
 20
23.6898465871
 30
0.0
 10
3.4403680149
 20
23.7190315057
 30
0.0
 10
3.4237693008
 20
23.7415964448
 30
0.0
 10
3.413926374
 20
23.7576511336
 30
0.0
 10
3.4098967987
 20
23.767011224
 30
0.0
 10
3.4098967987
 20
23.7705417277
 30
0.0
 11
3.8378667864
 21
23.2757572521
 31
0.0
 11
3.7660979487
 21
23.3533707435
 31
0.0
 11
3.6969142206
 21
23.4284249588
 31
0.0
 11
3.633195784
 21
23.4980131696
 31
0.0
 11
3.5775817096
 21
23.5594147052
 31
0.0
 11
3.5305812687
 21
23.612157031
 31
0.0
 11
3.4921489977
 21
23.656326412
 31
0.0
 11
3.4617040305
 21
23.6925882099
 31
0.0
 11
3.4386280073
 21
23.7216675807
 31
0.0
 11
3.4224082219
 21
23.7442234446
 31
0.0
 11
3.412940548
 21
23.7603969902
 31
0.0
 11
3.4098967987
 21
23.7705417277
 31
0.0
  0
SPLINE
  5
5B6
100
AcDbEntity
  8
0
100
AcDbSpline
 62
7
  6
CONTINUOUS
 70
0
 71
3
 72
18
 73
14
 74
12
 42
0.0000001
 43
0.0000001
 44
0.0000000001
 12
-0.0252793934
 22
-0.6549155442
 32
0.0
 13
-0.4450904554
 23
-0.4810903286
 33
0.0
 40
0.0
 40
0.0
 40
0.0
 40
0.0
 40
0.0165612013
 40
0.0454873726
 40
0.088099836
 40
0.1448866598
 40
0.2172643667
 40
0.3066417466
 40
0.4143507724
 40
0.5404648439
 40
0.6839186683
 40
0.8391027189
 40
1.0
 40
1.0
 40
1.0
 40
1.0
 10
4.2658295314
 20
23.7701728621
 30
0.0
 10
4.2656899791
 20
23.766557466
 30
0.0
 10
4.2615272606
 20
23.7571330131
 30
0.0
 10
4.2514927537
 20
23.7409155032
 30
0.0
 10
4.2347744347
 20
23.718269403
 30
0.0
 10
4.2113290404
 20
23.689013216
 30
0.0
 10
4.1805117903
 20
23.6525210846
 30
0.0
 10
4.141800972
 20
23.6081752254
 30
0.0
 10
4.0947685674
 20
23.5555063853
 30
0.0
 10
4.0393967589
 20
23.4944534775
 30
0.0
 10
3.9766999596
 20
23.4260426548
 30
0.0
 10
3.9086331991
 20
23.3522470241
 30
0.0
 10
3.8617380677
 20
23.301559294
 30
0.0
 10
3.8378667864
 20
23.2757572521
 30
0.0
 11
4.2658295314
 21
23.7701728621
 31
0.0
 11
4.2625238477
 21
23.7598342197
 31
0.0
 11
4.2528600145
 21
23.7435238635
 31
0.0
 11
4.2365076938
 21
23.720883321
 31
0.0
 11
4.2133440124
 21
23.6917518363
 31
0.0
 11
4.1828232881
 21
23.6554377219
 31
0.0
 11
4.1443589861
 21
23.6112573424
 31
0.0
 11
4.0973850554
 21
23.5585619949
 31
0.0
 11
4.0418920421
 21
23.4973045948
 31
0.0
 11
3.9783960938
 21
23.4279645325
 31
0.0
 11
3.9094609164
 21
23.3531816122
 31
0.0
 11
3.8378667864
 21
23.2757572521
 31
0.0
  0
SPLINE
  5
5B7
100
AcDbEntity
  8
0
100
AcDbSpline
 62
7
  6
CONTINUOUS
 70
0
 71
3
 72
18
 73
14
 74
12
 42
0.0000001
 43
0.0000001
 44
0.0000000001
 12
-0.4450903719
 22
0.4810902383
 32
0.0
 13
-0.0252793887
 23
0.6549154213
 33
0.0
 40
0.0
 40
0.0
 40
0.0
 40
0.0
 40
0.1607870617
 40
0.3159451345
 40
0.4594086114
 40
0.5855248047
 40
0.6932231358
 40
0.782598559
 40
0.8549817506
 40
0.9118040473
 40
0.9544563951
 40
0.9834203014
 40
1.0
 40
1.0
 40
1.0
 40
1.0
 10
-4.018073189
 20
23.2757572521
 30
0.0
 10
-4.0419281133
 20
23.301541614
 30
0.0
 10
-4.0888030283
 20
23.3522074944
 30
0.0
 10
-4.1568511606
 20
23.425982671
 30
0.0
 10
-4.2195461102
 20
23.4943909562
 30
0.0
 10
-4.2749184458
 20
23.5554436818
 30
0.0
 10
-4.3219498789
 20
23.6081102883
 30
0.0
 10
-4.3606605337
 20
23.6524541853
 30
0.0
 10
-4.3914846087
 20
23.6889517121
 30
0.0
 10
-4.4149428115
 20
23.7182201454
 30
0.0
 10
-4.4316782999
 20
23.7408845621
 30
0.0
 10
-4.4417258128
 20
23.7571180391
 30
0.0
 10
-4.4458962258
 20
23.7665534287
 30
0.0
 10
-4.4460359341
 20
23.7701728621
 30
0.0
 11
-4.018073189
 21
23.2757572521
 31
0.0
 11
-4.0896182888
 21
23.3531285344
 31
0.0
 11
-4.1585420583
 21
23.4278987887
 31
0.0
 11
-4.2220425394
 21
23.4972432542
 31
0.0
 11
-4.2775368785
 21
23.5585013088
 31
0.0
 11
-4.324506755
 21
23.6111908626
 31
0.0
 11
-4.3629711663
 21
23.6553694319
 31
0.0
 11
-4.3934956496
 21
23.6916850711
 31
0.0
 11
-4.4166757962
 21
23.7208331574
 31
0.0
 11
-4.4330458842
 21
23.7434931063
 31
0.0
 11
-4.4427249156
 21
23.7598231999
 31
0.0
 11
-4.4460359341
 21
23.7701728621
 31
0.0
  0
SPLINE
  5
5B8
100
AcDbEntity
  8
0
100
AcDbSpline
 62
7
  6
CONTINUOUS
 70
0
 71
3
 72
8
 73
4
 74
2
 42
0.0000001
 43
0.0000001
 44
0.0000000001
 12
0.0
 22
-0.0062742889
 32
0.0
 13
-0.0022398713
 23
-0.0059603371
 33
0.0
 40
0.0
 40
0.0
 40
0.0
 40
0.0
 40
1.0
 40
1.0
 40
1.0
 40
1.0
 10
-3.5901032013
 20
23.7705417277
 30
0.0
 10
-3.5901032013
 20
23.7684502981
 30
0.0
 10
-3.5906140431
 20
23.7664117247
 30
0.0
 10
-3.5913606669
 20
23.7644249457
 30
0.0
 11
-3.5901032013
 21
23.7705417277
 31
0.0
 11
-3.5913606669
 21
23.7644249457
 31
0.0
  0
SPLINE
  5
5B9
100
AcDbEntity
  8
0
100
AcDbSpline
 62
7
  6
CONTINUOUS
 70
0
 71
3
 72
18
 73
14
 74
12
 42
0.0000001
 43
0.0000001
 44
0.0000000001
 12
-0.2318623307
 22
-0.6169897634
 32
0.0
 13
-0.4410738809
 23
-0.4767488849
 33
0.0
 40
0.0
 40
0.0
 40
0.0
 40
0.0
 40
0.0066281586
 40
0.0354438089
 40
0.0781775225
 40
0.1352977049
 40
0.2081916
 40
0.2983390118
 40
0.4071197443
 40
0.5346687078
 40
0.6799322081
 40
0.8371246023
 40
1.0
 40
1.0
 40
1.0
 40
1.0
 10
-3.5913606669
 20
23.7644249457
 30
0.0
 10
-3.5918729403
 20
23.763061777
 30
0.0
 10
-3.5952058528
 20
23.7559026736
 30
0.0
 10
-3.6039544085
 20
23.741628252
 30
0.0
 10
-3.6205353399
 20
23.7190822544
 30
0.0
 10
-3.6438695891
 20
23.6899100808
 30
0.0
 10
-3.6746182577
 20
23.6534614856
 30
0.0
 10
-3.7133021149
 20
23.6091208991
 30
0.0
 10
-3.7603743094
 20
23.5563903098
 30
0.0
 10
-3.8158689879
 20
23.4951915915
 30
0.0
 10
-3.8787659059
 20
23.4265573963
 30
0.0
 10
-3.9470684391
 20
23.352504634
 30
0.0
 10
-3.9941264944
 20
23.3016408068
 30
0.0
 10
-4.018073189
 20
23.2757572521
 30
0.0
 11
-3.5913606669
 21
23.7644249457
 31
0.0
 11
-3.5931416339
 21
23.7604082448
 31
0.0
 11
-3.6025936922
 21
23.7442550303
 31
0.0
 11
-3.6187950525
 21
23.721719288
 31
0.0
 11
-3.6418540394
 21
23.6926570653
 31
0.0
 11
-3.6722948914
 21
23.6563970769
 31
0.0
 11
-3.7107267017
 21
23.612226192
 31
0.0
 11
-3.7577306865
 21
23.5594785723
 31
0.0
 11
-3.8133429549
 21
23.4980781684
 31
0.0
 11
-3.8770568082
 21
23.4284943793
 31
0.0
 11
-3.9462530084
 21
23.3534263254
 31
0.0
 11
-4.018073189
 21
23.2757572521
 31
0.0
  0
SPLINE
  5
5BA
100
AcDbEntity
  8
0
100
AcDbSpline
 62
7
  6
CONTINUOUS
 70
0
 71
3
 72
9
 73
5
 74
3
 42
0.0000001
 43
0.0000001
 44
0.0000000001
 12
-0.1190437227
 22
-0.1848643536
 32
0.0
 13
-0.1246584854
 23
-0.1811265558
 33
0.0
 40
0.0
 40
0.0
 40
0.0
 40
0.0
 40
0.5884034581
 40
1.0
 40
1.0
 40
1.0
 40
1.0
 10
7.7973649068
 20
21.7819313293
 30
0.0
 10
7.7740163274
 20
21.7456730543
 30
0.0
 10
7.7335214402
 20
21.6845751804
 30
0.0
 10
7.6922083264
 20
21.6240346
 30
0.0
 10
7.6751053259
 20
21.5991842453
 30
0.0
 11
7.7973649068
 21
21.7819313293
 31
0.0
 11
7.7260783788
 21
21.6739655991
 31
0.0
 11
7.6751053259
 21
21.5991842453
 31
0.0
  0
SPLINE
  5
5BB
100
AcDbEntity
  8
0
100
AcDbSpline
 62
7
  6
CONTINUOUS
 70
0
 71
3
 72
9
 73
5
 74
3
 42
0.0000001
 43
0.0000001
 44
0.0000000001
 12
-0.1402706335
 22
0.2028500307
 32
0.0
 13
-0.1335246193
 23
0.207351903
 33
0.0
 40
0.0
 40
0.0
 40
0.0
 40
0.0
 40
0.4754095652
 40
1.0
 40
1.0
 40
1.0
 40
1.0
 10
-7.8401230101
 20
21.5771684936
 30
0.0
 10
-7.8623516771
 20
21.6093141086
 30
0.0
 10
-7.9088019024
 20
21.6771430203
 30
0.0
 10
-7.95422273
 20
21.7456730543
 30
0.0
 10
-7.9775713094
 20
21.7819313293
 30
0.0
 11
-7.8401230101
 21
21.5771684936
 31
0.0
 11
-7.9062847814
 21
21.6739655991
 31
0.0
 11
-7.9775713094
 21
21.7819313293
 31
0.0
  0
SPLINE
  5
5BC
100
AcDbEntity
  8
0
100
AcDbSpline
 62
7
  6
CONTINUOUS
 70
0
 71
3
 72
9
 73
5
 74
3
 42
0.0000001
 43
0.0000001
 44
0.0000000001
 12
0.1246584854
 22
-0.1811265558
 32
0.0
 13
0.1190437227
 23
-0.1848643536
 33
0.0
 40
0.0
 40
0.0
 40
0.0
 40
0.0
 40
0.4115965419
 40
1.0
 40
1.0
 40
1.0
 40
1.0
 10
7.6751053259
 20
-21.5603853705
 30
0.0
 10
7.6922083264
 20
-21.5852357252
 30
0.0
 10
7.7335214402
 20
-21.6457763056
 30
0.0
 10
7.7740163274
 20
-21.7068741795
 30
0.0
 10
7.7973649068
 20
-21.7431324545
 30
0.0
 11
7.6751053259
 21
-21.5603853705
 31
0.0
 11
7.7260783788
 21
-21.6351667243
 31
0.0
 11
7.7973649068
 21
-21.7431324545
 31
0.0
  0
SPLINE
  5
5BD
100
AcDbEntity
  8
0
100
AcDbSpline
 62
7
  6
CONTINUOUS
 70
0
 71
3
 72
9
 73
5
 74
3
 42
0.0000001
 43
0.0000001
 44
0.0000000001
 12
0.1335246193
 22
0.207351903
 32
0.0
 13
0.1402706335
 23
0.2028500307
 33
0.0
 40
0.0
 40
0.0
 40
0.0
 40
0.0
 40
0.5245904348
 40
1.0
 40
1.0
 40
1.0
 40
1.0
 10
-7.9775713094
 20
-21.7431324545
 30
0.0
 10
-7.95422273
 20
-21.7068741795
 30
0.0
 10
-7.9088019024
 20
-21.6383441456
 30
0.0
 10
-7.8623516771
 20
-21.5705152338
 30
0.0
 10
-7.8401230101
 20
-21.5383696189
 30
0.0
 11
-7.9775713094
 21
-21.7431324545
 31
0.0
 11
-7.9062847814
 21
-21.6351667243
 31
0.0
 11
-7.8401230101
 21
-21.5383696189
 31
0.0
  0
SPLINE
  5
5BE
100
AcDbEntity
  8
0
100
AcDbSpline
 62
253
  6
CONTINUOUS
 70
0
 71
3
 72
17
 73
13
 74
11
 42
0.0000001
 43
0.0000001
 44
0.0000000001
 12
-0.0012298291
 22
-0.3661500354
 32
0.0
 13
-0.3661509389
 23
-0.0009224053
 33
0.0
 40
0.0
 40
0.0
 40
0.0
 40
0.0
 40
0.0926637669
 40
0.1861959939
 40
0.2811621264
 40
0.3780472439
 40
0.4771141944
 40
0.5784104998
 40
0.6817687109
 40
0.7868361684
 40
0.8931123906
 40
1.0
 40
1.0
 40
1.0
 40
1.0
 10
10.5555249647
 20
23.8637370047
 30
0.0
 10
10.5554869778
 20
23.8524273908
 30
0.0
 10
10.5533389099
 20
23.8296566274
 30
0.0
 10
10.544004332
 20
23.7964549544
 30
0.0
 10
10.528794584
 20
23.764925297
 30
0.0
 10
10.508108698
 20
23.7358675561
 30
0.0
 10
10.4824735937
 20
23.7099819767
 30
0.0
 10
10.4525303296
 20
23.6878900257
 30
0.0
 10
10.4190174305
 20
23.6701163879
 30
0.0
 10
10.3827511288
 20
23.657082121
 30
0.0
 10
10.3446219456
 20
23.6490954657
 30
0.0
 10
10.3185748617
 20
23.6472635183
 30
0.0
 10
10.3055291955
 20
23.6472306537
 30
0.0
 11
10.5555249647
 21
23.8637370047
 31
0.0
 11
10.552349905
 21
23.8299568586
 31
0.0
 11
10.5431192823
 21
23.7969772576
 31
0.0
 11
10.5280596583
 21
23.7656355424
 31
0.0
 11
10.5075387829
 21
23.7366985893
 31
0.0
 11
10.4820610936
 21
23.7108788416
 31
0.0
 11
10.4522515199
 21
23.6888097078
 31
0.0
 11
10.4188416924
 21
23.6710329169
 31
0.0
 11
10.3826514197
 21
23.6579846745
 31
0.0
 11
10.3445692607
 21
23.6499852292
 31
0.0
 11
10.3055291955
 21
23.6472306537
 31
0.0
  0
SPLINE
  5
5BF
100
AcDbEntity
  8
0
100
AcDbSpline
 62
253
  6
CONTINUOUS
 70
0
 71
3
 72
17
 73
13
 74
11
 42
0.0000001
 43
0.0000001
 44
0.0000000001
 12
0.001229829
 22
-0.3661500127
 32
0.0
 13
0.3661509162
 23
-0.0009224053
 33
0.0
 40
0.0
 40
0.0
 40
0.0
 40
0.0
 40
0.092740981
 40
0.1862742706
 40
0.2812426722
 40
0.3781228716
 40
0.4771847111
 40
0.5784746944
 40
0.6818263867
 40
0.7868857196
 40
0.8931548188
 40
1.0
 40
1.0
 40
1.0
 40
1.0
 10
8.1642686327
 20
23.8637370047
 30
0.0
 10
8.1643066512
 20
23.8524179676
 30
0.0
 10
8.1664573854
 20
23.8296375298
 30
0.0
 10
8.1757995643
 20
23.7964277832
 30
0.0
 10
8.1910137832
 20
23.7649004962
 30
0.0
 10
8.2117029764
 20
23.7358463287
 30
0.0
 10
8.2373396691
 20
23.7099651879
 30
0.0
 10
8.2672833576
 20
23.6878775729
 30
0.0
 10
8.3007954854
 20
23.6701080188
 30
0.0
 10
8.337060183
 20
23.6570772611
 30
0.0
 10
8.3751829208
 20
23.649094322
 30
0.0
 10
8.4012239149
 20
23.6472635053
 30
0.0
 10
8.4142644019
 20
23.6472306537
 30
0.0
 11
8.1642686327
 21
23.8637370047
 31
0.0
 11
8.1674488783
 21
23.8299289515
 31
0.0
 11
8.1766844813
 21
23.7969503431
 31
0.0
 11
8.1917489862
 21
23.7656100542
 31
0.0
 11
8.2122726876
 21
23.7366773159
 31
0.0
 11
8.2377520831
 21
23.7108618842
 31
0.0
 11
8.267562022
 21
23.6887971385
 31
0.0
 11
8.3009712683
 21
23.6710243421
 31
0.0
 11
8.3371596798
 21
23.6579797153
 31
0.0
 11
8.3752397612
 21
23.6499830788
 31
0.0
 11
8.4142644019
 21
23.6472306537
 31
0.0
  0
SPLINE
  5
5C0
100
AcDbEntity
  8
0
100
AcDbSpline
 62
253
  6
CONTINUOUS
 70
0
 71
3
 72
17
 73
13
 74
11
 42
0.0000001
 43
0.0000001
 44
0.0000000001
 12
-0.0012298291
 22
-0.3661500354
 32
0.0
 13
-0.3661509389
 23
-0.0009224053
 33
0.0
 40
0.0
 40
0.0
 40
0.0
 40
0.0
 40
0.0926637669
 40
0.1861959939
 40
0.2811621264
 40
0.3780472439
 40
0.4771141944
 40
0.5784104998
 40
0.6817687109
 40
0.7868361684
 40
0.8931123906
 40
1.0
 40
1.0
 40
1.0
 40
1.0
 10
-8.3444750353
 20
23.8637370047
 30
0.0
 10
-8.3445130222
 20
23.8524273908
 30
0.0
 10
-8.3466610901
 20
23.8296566274
 30
0.0
 10
-8.355995668
 20
23.7964549544
 30
0.0
 10
-8.371205416
 20
23.764925297
 30
0.0
 10
-8.391891302
 20
23.7358675561
 30
0.0
 10
-8.4175264063
 20
23.7099819767
 30
0.0
 10
-8.4474696704
 20
23.6878900257
 30
0.0
 10
-8.4809825695
 20
23.6701163879
 30
0.0
 10
-8.5172488712
 20
23.657082121
 30
0.0
 10
-8.5553780544
 20
23.6490954657
 30
0.0
 10
-8.5814251383
 20
23.6472635183
 30
0.0
 10
-8.5944708045
 20
23.6472306537
 30
0.0
 11
-8.3444750353
 21
23.8637370047
 31
0.0
 11
-8.347650095
 21
23.8299568586
 31
0.0
 11
-8.3568807177
 21
23.7969772576
 31
0.0
 11
-8.3719403417
 21
23.7656355424
 31
0.0
 11
-8.3924612171
 21
23.7366985893
 31
0.0
 11
-8.4179389064
 21
23.7108788416
 31
0.0
 11
-8.4477484801
 21
23.6888097078
 31
0.0
 11
-8.4811583076
 21
23.6710329169
 31
0.0
 11
-8.5173485803
 21
23.6579846745
 31
0.0
 11
-8.5554307393
 21
23.6499852292
 31
0.0
 11
-8.5944708045
 21
23.6472306537
 31
0.0
  0
SPLINE
  5
5C1
100
AcDbEntity
  8
0
100
AcDbSpline
 62
253
  6
CONTINUOUS
 70
0
 71
3
 72
17
 73
13
 74
11
 42
0.0000001
 43
0.0000001
 44
0.0000000001
 12
0.0012298291
 22
-0.3661500354
 32
0.0
 13
0.3661509389
 23
-0.0009224053
 33
0.0
 40
0.0
 40
0.0
 40
0.0
 40
0.0
 40
0.0926637669
 40
0.1861959939
 40
0.2811621264
 40
0.3780472439
 40
0.4771141944
 40
0.5784104998
 40
0.6817687109
 40
0.7868361684
 40
0.8931123906
 40
1.0
 40
1.0
 40
1.0
 40
1.0
 10
-10.7357313673
 20
23.8637370047
 30
0.0
 10
-10.7356933804
 20
23.8524273908
 30
0.0
 10
-10.7335453126
 20
23.8296566274
 30
0.0
 10
-10.7242107347
 20
23.7964549544
 30
0.0
 10
-10.7090009866
 20
23.764925297
 30
0.0
 10
-10.6883151007
 20
23.7358675561
 30
0.0
 10
-10.6626799963
 20
23.7099819767
 30
0.0
 10
-10.6327367323
 20
23.6878900257
 30
0.0
 10
-10.5992238331
 20
23.6701163879
 30
0.0
 10
-10.5629575314
 20
23.657082121
 30
0.0
 10
-10.5248283482
 20
23.6490954657
 30
0.0
 10
-10.4987812643
 20
23.6472635183
 30
0.0
 10
-10.4857355981
 20
23.6472306537
 30
0.0
 11
-10.7357313673
 21
23.8637370047
 31
0.0
 11
-10.7325563076
 21
23.8299568586
 31
0.0
 11
-10.7233256849
 21
23.7969772576
 31
0.0
 11
-10.7082660609
 21
23.7656355424
 31
0.0
 11
-10.6877451855
 21
23.7366985893
 31
0.0
 11
-10.6622674962
 21
23.7108788416
 31
0.0
 11
-10.6324579225
 21
23.6888097078
 31
0.0
 11
-10.5990480951
 21
23.6710329169
 31
0.0
 11
-10.5628578223
 21
23.6579846745
 31
0.0
 11
-10.5247756633
 21
23.6499852292
 31
0.0
 11
-10.4857355981
 21
23.6472306537
 31
0.0
  0
SPLINE
  5
5C2
100
AcDbEntity
  8
0
100
AcDbSpline
 62
7
  6
CONTINUOUS
 70
0
 71
3
 72
18
 73
14
 74
12
 42
0.0000001
 43
0.0000001
 44
0.0000000001
 12
0.0031763781
 22
0.3152256661
 32
0.0
 13
0.3152416691
 23
0.0
 33
0.0
 40
0.0
 40
0.0
 40
0.0
 40
0.0
 40
0.0600923894
 40
0.1232193774
 40
0.1912702092
 40
0.2657636629
 40
0.3477531865
 40
0.4378167491
 40
0.5360799495
 40
0.6422378908
 40
0.7555663097
 40
0.8749375201
 40
1.0
 40
1.0
 40
1.0
 40
1.0
 10
8.1642686327
 20
-23.8249381299
 30
0.0
 10
8.1643322581
 20
-23.8186239088
 30
0.0
 10
8.1659599174
 20
-23.8056481657
 30
0.0
 10
8.1728471845
 20
-23.7866111915
 30
0.0
 10
8.1842176348
 20
-23.7680752252
 30
0.0
 10
8.2000084726
 20
-23.7503991487
 30
0.0
 10
8.2201099624
 20
-23.7339141172
 30
0.0
 10
8.2443520126
 20
-23.7189673103
 30
0.0
 10
8.2724821245
 20
-23.7059191815
 30
0.0
 10
8.3041442959
 20
-23.6951413523
 30
0.0
 10
8.3388640389
 20
-23.6869975037
 30
0.0
 10
8.3761506818
 20
-23.6818407247
 30
0.0
 10
8.4018499957
 20
-23.6806005626
 30
0.0
 10
8.4149916306
 20
-23.6806005626
 30
0.0
 11
8.1642686327
 21
-23.8249381299
 31
0.0
 11
8.1665879732
 21
-23.8061370237
 31
0.0
 11
8.1732554832
 21
-23.7873869693
 31
0.0
 11
8.1843501556
 21
-23.7690262452
 31
0.0
 11
8.1998786525
 21
-23.7514098389
 31
0.0
 11
8.2197700216
 21
-23.7349060291
 31
0.0
 11
8.2438683247
 21
-23.719893854
 31
0.0
 11
8.2719226875
 21
-23.7067597038
 31
0.0
 11
8.3035743866
 21
-23.6958921658
 31
0.0
 11
8.3383420664
 21
-23.687673645
 31
0.0
 11
8.3756109431
 21
-23.6824672643
 31
0.0
 11
8.4149916306
 21
-23.6806005626
 31
0.0
  0
SPLINE
  5
5C3
100
AcDbEntity
  8
0
100
AcDbSpline
 62
253
  6
CONTINUOUS
 70
0
 71
3
 72
17
 73
13
 74
11
 42
0.0000001
 43
0.0000001
 44
0.0000000001
 12
-0.001229829
 22
0.3661500177
 32
0.0
 13
-0.3661509212
 23
0.0009224053
 33
0.0
 40
0.0
 40
0.0
 40
0.0
 40
0.0
 40
0.0927380474
 40
0.1862683312
 40
0.2812329042
 40
0.3781093545
 40
0.4771672798
 40
0.578453321
 40
0.681800696
 40
0.7868568096
 40
0.893122764
 40
1.0
 40
1.0
 40
1.0
 40
1.0
 10
-8.3444750353
 20
-23.8249381299
 30
0.0
 10
-8.3445130526
 20
-23.8136194507
 30
0.0
 10
-8.3466636516
 20
-23.790839742
 30
0.0
 10
-8.3560052204
 20
-23.7576310789
 30
0.0
 10
-8.3712184163
 20
-23.7261047535
 30
0.0
 10
-8.3919062045
 20
-23.6970513267
 30
0.0
 10
-8.4175412471
 20
-23.6711705653
 30
0.0
 10
-8.4474830874
 20
-23.6490829684
 30
0.0
 10
-8.4809933763
 20
-23.6313129647
 30
0.0
 10
-8.517256365
 20
-23.6182813241
 30
0.0
 10
-8.555381851
 20
-23.6102962382
 30
0.0
 10
-8.581426405
 20
-23.6084646403
 30
0.0
 10
-8.5944708045
 20
-23.608431779
 30
0.0
 11
-8.3444750353
 21
-23.8249381299
 31
0.0
 11
-8.3476550839
 21
-23.7911311366
 31
0.0
 11
-8.3568901126
 21
-23.7581535098
 31
0.0
 11
-8.3719535643
 21
-23.7268142695
 31
0.0
 11
-8.3924758963
 21
-23.6978822423
 31
0.0
 11
-8.4179536468
 21
-23.6720672
 31
0.0
 11
-8.4477617855
 21
-23.6500024475
 31
0.0
 11
-8.4811690475
 21
-23.6322292858
 31
0.0
 11
-8.5173558728
 21
-23.6191837333
 31
0.0
 11
-8.5554345118
 21
-23.6111858284
 31
0.0
 11
-8.5944708045
 21
-23.608431779
 31
0.0
  0
SPLINE
  5
5C4
100
AcDbEntity
  8
0
100
AcDbSpline
 62
7
  6
CONTINUOUS
 70
0
 71
3
 72
18
 73
14
 74
12
 42
0.0000001
 43
0.0000001
 44
0.0000000001
 12
0.3145151746
 22
0.0
 32
0.0
 13
0.0031690579
 23
-0.3144992085
 33
0.0
 40
0.0
 40
0.0
 40
0.0
 40
0.0
 40
0.1233645867
 40
0.2431315365
 40
0.3566833685
 40
0.4629485722
 40
0.5612613068
 40
0.6513651559
 40
0.7334201413
 40
0.8080244445
 40
0.8762413066
 40
0.9395978155
 40
1.0
 40
1.0
 40
1.0
 40
1.0
 10
10.3055291955
 20
-23.6806005626
 30
0.0
 10
10.3184625403
 20
-23.6806005626
 30
0.0
 10
10.3439631769
 20
-23.6818899133
 30
0.0
 10
10.3810506724
 20
-23.6870167312
 30
0.0
 10
10.4157617095
 20
-23.6951748319
 30
0.0
 10
10.4473851531
 20
-23.7059501155
 30
0.0
 10
10.475466309
 20
-23.7189829075
 30
0.0
 10
10.499665856
 20
-23.7339041289
 30
0.0
 10
10.5197421904
 20
-23.7503607522
 30
0.0
 10
10.5355294051
 20
-23.7680146786
 30
0.0
 10
10.5469149358
 20
-23.7865450313
 30
0.0
 10
10.5538257188
 20
-23.805603279
 30
0.0
 10
10.5554611587
 20
-23.8186059835
 30
0.0
 10
10.5555249647
 20
-23.8249381299
 30
0.0
 11
10.3055291955
 21
-23.6806005626
 31
0.0
 11
10.3442838412
 21
-23.6824767589
 31
0.0
 11
10.3815885622
 21
-23.6876993475
 31
0.0
 11
10.4163415684
 21
-23.6959274841
 31
0.0
 11
10.447948739
 21
-23.7067910989
 31
0.0
 11
10.47594993
 21
-23.7199071986
 31
0.0
 11
10.5000034087
 21
-23.7348915459
 31
0.0
 11
10.519868954
 21
-23.7513654382
 31
0.0
 11
10.5353939703
 21
-23.7689592403
 31
0.0
 11
10.5465034226
 21
-23.7873142755
 31
0.0
 11
10.5531930987
 21
-23.8060843837
 31
0.0
 11
10.5555249647
 21
-23.8249381299
 31
0.0
  0
SPLINE
  5
5C5
100
AcDbEntity
  8
0
100
AcDbSpline
 62
253
  6
CONTINUOUS
 70
0
 71
3
 72
17
 73
13
 74
11
 42
0.0000001
 43
0.0000001
 44
0.0000000001
 12
0.0012298291
 22
0.3661500354
 32
0.0
 13
0.3661509389
 23
0.0009224053
 33
0.0
 40
0.0
 40
0.0
 40
0.0
 40
0.0
 40
0.0926637669
 40
0.1861959939
 40
0.2811621264
 40
0.3780472439
 40
0.4771141944
 40
0.5784104998
 40
0.6817687109
 40
0.7868361684
 40
0.8931123906
 40
1.0
 40
1.0
 40
1.0
 40
1.0
 10
-10.7357313673
 20
-23.8249381299
 30
0.0
 10
-10.7356933804
 20
-23.8136285161
 30
0.0
 10
-10.7335453126
 20
-23.7908577527
 30
0.0
 10
-10.7242107347
 20
-23.7576560796
 30
0.0
 10
-10.7090009866
 20
-23.7261264223
 30
0.0
 10
-10.6883151007
 20
-23.6970686813
 30
0.0
 10
-10.6626799963
 20
-23.671183102
 30
0.0
 10
-10.6327367323
 20
-23.6490911509
 30
0.0
 10
-10.5992238331
 20
-23.6313175132
 30
0.0
 10
-10.5629575314
 20
-23.6182832463
 30
0.0
 10
-10.5248283482
 20
-23.6102965909
 30
0.0
 10
-10.4987812643
 20
-23.6084646435
 30
0.0
 10
-10.4857355981
 20
-23.608431779
 30
0.0
 11
-10.7357313673
 21
-23.8249381299
 31
0.0
 11
-10.7325563076
 21
-23.7911579838
 31
0.0
 11
-10.7233256849
 21
-23.7581783828
 31
0.0
 11
-10.7082660609
 21
-23.7268366676
 31
0.0
 11
-10.6877451855
 21
-23.6978997146
 31
0.0
 11
-10.6622674962
 21
-23.6720799668
 31
0.0
 11
-10.6324579225
 21
-23.650010833
 31
0.0
 11
-10.5990480951
 21
-23.6322340422
 31
0.0
 11
-10.5628578223
 21
-23.6191857997
 31
0.0
 11
-10.5247756633
 21
-23.6111863544
 31
0.0
 11
-10.4857355981
 21
-23.608431779
 31
0.0
  0
SPLINE
  5
5C6
100
AcDbEntity
  8
RACCORDO
100
AcDbSpline
 62
7
  6
CONTINUOUS
 70
0
 71
3
 72
27
 73
23
 74
21
 42
0.0000001
 43
0.0000001
 44
0.0000000001
 12
0.0453620884
 22
-0.0147190314
 32
0.0
 13
0.0461863849
 23
-0.0118822052
 33
0.0
 40
0.0
 40
0.0
 40
0.0
 40
0.0
 40
0.0715553232
 40
0.1399234144
 40
0.2036475075
 40
0.2627461471
 40
0.3173243211
 40
0.3689504796
 40
0.4184203839
 40
0.4660926464
 40
0.5121065567
 40
0.5570474287
 40
0.6013263698
 40
0.6452205536
 40
0.6889445492
 40
0.7326652251
 40
0.7765111923
 40
0.8205785335
 40
0.8649343278
 40
0.9096190888
 40
0.9546482816
 40
1.0
 40
1.0
 40
1.0
 40
1.0
 10
-10.8793324562
 20
-22.3636775585
 30
0.0
 10
-10.8782504899
 20
-22.3640286335
 30
0.0
 10
-10.8761328139
 20
-22.3647091934
 30
0.0
 10
-10.8730454649
 20
-22.3656832226
 30
0.0
 10
-10.870142524
 20
-22.3665834782
 30
0.0
 10
-10.8674452965
 20
-22.3674068819
 30
0.0
 10
-10.8649289733
 20
-22.3681641174
 30
0.0
 10
-10.8625566545
 20
-22.3688686485
 30
0.0
 10
-10.8602873229
 20
-22.3695342935
 30
0.0
 10
-10.8581015928
 20
-22.3701679382
 30
0.0
 10
-10.8559832023
 20
-22.3707752549
 30
0.0
 10
-10.8539150098
 20
-22.3713618976
 30
0.0
 10
-10.8518776908
 20
-22.371933871
 30
0.0
 10
-10.8498575355
 20
-22.3724953863
 30
0.0
 10
-10.8478445354
 20
-22.3730494803
 30
0.0
 10
-10.8458309315
 20
-22.3735984687
 30
0.0
 10
-10.8438107623
 20
-22.3741441038
 30
0.0
 10
-10.8417795838
 20
-22.3746876765
 30
0.0
 10
-10.839734296
 20
-22.3752300848
 30
0.0
 10
-10.8376730324
 20
-22.3757718812
 30
0.0
 10
-10.835595293
 20
-22.3763132542
 30
0.0
 10
-10.8342041964
 20
-22.3766726272
 30
0.0
 10
-10.8335059857
 20
-22.3768522533
 30
0.0
 11
-10.8793324562
 21
-22.3636775585
 31
0.0
 11
-10.8760836353
 21
-22.3647217357
 31
0.0
 11
-10.8729742392
 21
-22.3657028073
 31
0.0
 11
-10.8700716104
 21
-22.3666030365
 31
0.0
 11
-10.8673760027
 21
-22.367426002
 31
0.0
 11
-10.8648835734
 21
-22.3681760915
 31
0.0
 11
-10.8625233963
 21
-22.3688770545
 31
0.0
 11
-10.860259548
 21
-22.3695411245
 31
0.0
 11
-10.858075956
 21
-22.3701741793
 31
0.0
 11
-10.8559665199
 21
-22.3707789561
 31
0.0
 11
-10.8539046239
 21
-22.3713638381
 31
0.0
 11
-10.8518715558
 21
-22.3719346426
 31
0.0
 11
-10.8498546953
 21
-22.3724952662
 31
0.0
 11
-10.8478442609
 21
-22.373048678
 31
0.0
 11
-10.8458326376
 21
-22.3735971506
 31
0.0
 11
-10.843813951
 21
-22.37414241
 31
0.0
 11
-10.8417838107
 21
-22.3746857302
 31
0.0
 11
-10.8397391536
 21
-22.3752279975
 31
0.0
 11
-10.8376781361
 21
-22.3757697563
 31
0.0
 11
-10.8356000681
 21
-22.3763112432
 31
0.0
 11
-10.8335059857
 21
-22.3768522533
 31
0.0
  0
SPLINE
  5
5C7
100
AcDbEntity
  8
RACCORDO
100
AcDbSpline
 62
7
  6
CONTINUOUS
 70
0
 71
3
 72
27
 73
23
 74
21
 42
0.0000001
 43
0.0000001
 44
0.0000000001
 12
-0.0453620884
 22
0.0147190314
 32
0.0
 13
-0.0461863849
 23
0.0118822052
 33
0.0
 40
0.0
 40
0.0
 40
0.0
 40
0.0
 40
0.0715553232
 40
0.1399234144
 40
0.2036475075
 40
0.2627461471
 40
0.3173243211
 40
0.3689504796
 40
0.4184203839
 40
0.4660926464
 40
0.5121065567
 40
0.5570474287
 40
0.6013263698
 40
0.6452205536
 40
0.6889445492
 40
0.7326652251
 40
0.7765111923
 40
0.8205785335
 40
0.8649343278
 40
0.9096190888
 40
0.9546482816
 40
1.0
 40
1.0
 40
1.0
 40
1.0
 10
10.6991260535
 20
22.4024764333
 30
0.0
 10
10.6980440872
 20
22.4028275083
 30
0.0
 10
10.6959264113
 20
22.4035080682
 30
0.0
 10
10.6928390623
 20
22.4044820973
 30
0.0
 10
10.6899361213
 20
22.405382353
 30
0.0
 10
10.6872388939
 20
22.4062057567
 30
0.0
 10
10.6847225707
 20
22.4069629922
 30
0.0
 10
10.6823502519
 20
22.4076675233
 30
0.0
 10
10.6800809203
 20
22.4083331683
 30
0.0
 10
10.6778951902
 20
22.408966813
 30
0.0
 10
10.6757767996
 20
22.4095741297
 30
0.0
 10
10.6737086072
 20
22.4101607723
 30
0.0
 10
10.6716712882
 20
22.4107327458
 30
0.0
 10
10.6696511329
 20
22.4112942611
 30
0.0
 10
10.6676381328
 20
22.4118483551
 30
0.0
 10
10.6656245289
 20
22.4123973435
 30
0.0
 10
10.6636043597
 20
22.4129429786
 30
0.0
 10
10.6615731812
 20
22.4134865513
 30
0.0
 10
10.6595278934
 20
22.4140289596
 30
0.0
 10
10.6574666298
 20
22.414570756
 30
0.0
 10
10.6553888904
 20
22.415112129
 30
0.0
 10
10.6539977938
 20
22.4154715019
 30
0.0
 10
10.6532995831
 20
22.4156511281
 30
0.0
 11
10.6991260535
 21
22.4024764333
 31
0.0
 11
10.6958772327
 21
22.4035206104
 31
0.0
 11
10.6927678366
 21
22.4045016821
 31
0.0
 11
10.6898652078
 21
22.4054019113
 31
0.0
 11
10.6871696001
 21
22.4062248768
 31
0.0
 11
10.6846771708
 21
22.4069749663
 31
0.0
 11
10.6823169937
 21
22.4076759293
 31
0.0
 11
10.6800531454
 21
22.4083399993
 31
0.0
 11
10.6778695534
 21
22.4089730541
 31
0.0
 11
10.6757601173
 21
22.4095778308
 31
0.0
 11
10.6736982213
 21
22.4101627129
 31
0.0
 11
10.6716651532
 21
22.4107335174
 31
0.0
 11
10.6696482926
 21
22.411294141
 31
0.0
 11
10.6676378583
 21
22.4118475528
 31
0.0
 11
10.665626235
 21
22.4123960254
 31
0.0
 11
10.6636075484
 21
22.4129412847
 31
0.0
 11
10.6615774081
 21
22.413484605
 31
0.0
 11
10.659532751
 21
22.4140268723
 31
0.0
 11
10.6574717335
 21
22.4145686311
 31
0.0
 11
10.6553936655
 21
22.415110118
 31
0.0
 11
10.6532995831
 21
22.4156511281
 31
0.0
  0
SPLINE
  5
5C8
100
AcDbEntity
  8
RACCORDO
100
AcDbSpline
 62
7
  6
CONTINUOUS
 70
0
 71
3
 72
27
 73
23
 74
21
 42
0.0000001
 43
0.0000001
 44
0.0000000001
 12
-0.0461863775
 22
-0.0118822033
 32
0.0
 13
-0.0453620813
 23
-0.0147190284
 33
0.0
 40
0.0
 40
0.0
 40
0.0
 40
0.0
 40
0.0453774781
 40
0.0903306196
 40
0.1348597099
 40
0.1789956283
 40
0.222798043
 40
0.266358374
 40
0.3098034547
 40
0.3533008102
 40
0.397067014
 40
0.4413811152
 40
0.4866064474
 40
0.5332469531
 40
0.5817198678
 40
0.6320325446
 40
0.6843908057
 40
0.7400338972
 40
0.7987405076
 40
0.8607759224
 40
0.9281047811
 40
1.0
 40
1.0
 40
1.0
 40
1.0
 10
-10.8335059857
 20
22.4156511281
 30
0.0
 10
-10.8342045928
 20
22.4154713999
 30
0.0
 10
-10.835594915
 20
22.4151122262
 30
0.0
 10
-10.837669486
 20
22.41457168
 30
0.0
 10
-10.8397238094
 20
22.4140317213
 30
0.0
 10
-10.8417592641
 20
22.4134919551
 30
0.0
 10
-10.8437786267
 20
22.4129516068
 30
0.0
 10
-10.8457861407
 20
22.4124094855
 30
0.0
 10
-10.847787694
 20
22.4118639139
 30
0.0
 10
-10.849791077
 20
22.4113126329
 30
0.0
 10
-10.8518063891
 20
22.4107526578
 30
0.0
 10
-10.853846695
 20
22.4101800538
 30
0.0
 10
-10.8559294096
 20
22.4095894884
 30
0.0
 10
-10.8580739945
 20
22.408974804
 30
0.0
 10
-10.8602943943
 20
22.4083311495
 30
0.0
 10
-10.8625999376
 20
22.4076547912
 30
0.0
 10
-10.8650124189
 20
22.4069380946
 30
0.0
 10
-10.867550011
 20
22.4061740296
 30
0.0
 10
-10.8702316432
 20
22.4053548477
 30
0.0
 10
-10.8730871109
 20
22.4044689586
 30
0.0
 10
-10.8761382425
 20
22.4035063085
 30
0.0
 10
-10.8782453432
 20
22.4028291783
 30
0.0
 10
-10.8793324488
 20
22.4024764357
 30
0.0
 11
-10.8335059857
 21
22.4156511281
 31
0.0
 11
-10.8356012569
 21
22.4151098095
 31
0.0
 11
-10.8376758151
 21
22.4145692385
 31
0.0
 11
-10.8397296556
 21
22.4140293799
 31
0.0
 11
-10.8417641854
 21
22.4134898332
 31
0.0
 11
-10.8437821361
 21
22.4129498378
 31
0.0
 11
-10.8457876957
 21
22.4124082199
 31
0.0
 11
-10.8477866717
 21
22.4118633271
 31
0.0
 11
-10.8497867272
 21
22.4113129381
 31
0.0
 11
-10.851797757
 21
22.410754129
 31
0.0
 11
-10.8538324931
 21
22.4101830637
 31
0.0
 11
-10.8559074911
 21
22.4095946604
 31
0.0
 11
-10.8580456895
 21
22.4089817782
 31
0.0
 11
-10.860265965
 21
22.4083381282
 31
0.0
 11
-10.862568355
 21
22.4076626599
 31
0.0
 11
-10.8649619363
 21
22.4069515388
 31
0.0
 11
-10.8675028778
 21
22.4061864181
 31
0.0
 11
-10.8701804537
 21
22.4053684203
 31
0.0
 11
-10.8730060642
 21
22.4044917293
 31
0.0
 11
-10.8760681825
 21
22.4035255298
 31
0.0
 11
-10.8793324488
 21
22.4024764357
 31
0.0
  0
SPLINE
  5
5C9
100
AcDbEntity
  8
RACCORDO
100
AcDbSpline
 62
7
  6
CONTINUOUS
 70
0
 71
3
 72
27
 73
23
 74
21
 42
0.0000001
 43
0.0000001
 44
0.0000000001
 12
0.0461863775
 22
0.0118822033
 32
0.0
 13
0.0453620813
 23
0.0147190284
 33
0.0
 40
0.0
 40
0.0
 40
0.0
 40
0.0
 40
0.0453774781
 40
0.0903306196
 40
0.1348597099
 40
0.1789956283
 40
0.222798043
 40
0.266358374
 40
0.3098034547
 40
0.3533008102
 40
0.397067014
 40
0.4413811152
 40
0.4866064474
 40
0.5332469531
 40
0.5817198678
 40
0.6320325446
 40
0.6843908057
 40
0.7400338972
 40
0.7987405076
 40
0.8607759224
 40
0.9281047811
 40
1.0
 40
1.0
 40
1.0
 40
1.0
 10
10.6532995831
 20
-22.3768522533
 30
0.0
 10
10.6539981902
 20
-22.3766725252
 30
0.0
 10
10.6553885124
 20
-22.3763133514
 30
0.0
 10
10.6574630833
 20
-22.3757728052
 30
0.0
 10
10.6595174068
 20
-22.3752328465
 30
0.0
 10
10.6615528615
 20
-22.3746930803
 30
0.0
 10
10.6635722241
 20
-22.3741527321
 30
0.0
 10
10.6655797381
 20
-22.3736106107
 30
0.0
 10
10.6675812914
 20
-22.3730650391
 30
0.0
 10
10.6695846744
 20
-22.3725137581
 30
0.0
 10
10.6715999865
 20
-22.371953783
 30
0.0
 10
10.6736402924
 20
-22.3713811791
 30
0.0
 10
10.675723007
 20
-22.3707906136
 30
0.0
 10
10.6778675919
 20
-22.3701759292
 30
0.0
 10
10.6800879917
 20
-22.3695322747
 30
0.0
 10
10.682393535
 20
-22.3688559164
 30
0.0
 10
10.6848060163
 20
-22.3681392198
 30
0.0
 10
10.6873436084
 20
-22.3673751548
 30
0.0
 10
10.6900252406
 20
-22.3665559729
 30
0.0
 10
10.6928807083
 20
-22.3656700838
 30
0.0
 10
10.6959318399
 20
-22.3647074337
 30
0.0
 10
10.6980389406
 20
-22.3640303035
 30
0.0
 10
10.6991260462
 20
-22.3636775609
 30
0.0
 11
10.6532995831
 21
-22.3768522533
 31
0.0
 11
10.6553948542
 21
-22.3763109348
 31
0.0
 11
10.6574694125
 21
-22.3757703637
 31
0.0
 11
10.659523253
 21
-22.3752305052
 31
0.0
 11
10.6615577828
 21
-22.3746909584
 31
0.0
 11
10.6635757335
 21
-22.374150963
 31
0.0
 11
10.6655812931
 21
-22.3736093452
 31
0.0
 11
10.6675802691
 21
-22.3730644523
 31
0.0
 11
10.6695803246
 21
-22.3725140633
 31
0.0
 11
10.6715913543
 21
-22.3719552543
 31
0.0
 11
10.6736260905
 21
-22.3713841889
 31
0.0
 11
10.6757010885
 21
-22.3707957856
 31
0.0
 11
10.6778392869
 21
-22.3701829034
 31
0.0
 11
10.6800595624
 21
-22.3695392534
 31
0.0
 11
10.6823619524
 21
-22.3688637851
 31
0.0
 11
10.6847555337
 21
-22.368152664
 31
0.0
 11
10.6872964752
 21
-22.3673875433
 31
0.0
 11
10.6899740511
 21
-22.3665695455
 31
0.0
 11
10.6927996616
 21
-22.3656928545
 31
0.0
 11
10.6958617799
 21
-22.364726655
 31
0.0
 11
10.6991260462
 21
-22.3636775609
 31
0.0
  0
SPLINE
  5
5CA
100
AcDbEntity
  8
RACCORDO
100
AcDbSpline
 62
253
  6
CONTINUOUS
 70
0
 71
3
 72
17
 73
13
 74
11
 42
0.0000001
 43
0.0000001
 44
0.0000000001
 12
0.001229829
 22
-0.3661500177
 32
0.0
 13
0.3661509212
 23
-0.0009224053
 33
0.0
 40
0.0
 40
0.0
 40
0.0
 40
0.0
 40
0.0927380474
 40
0.1862683312
 40
0.2812329042
 40
0.3781093545
 40
0.4771672798
 40
0.578453321
 40
0.681800696
 40
0.7868568096
 40
0.893122764
 40
1.0
 40
1.0
 40
1.0
 40
1.0
 10
8.1642686327
 20
23.8637370047
 30
0.0
 10
8.16430665
 20
23.8524183255
 30
0.0
 10
8.166457249
 20
23.8296386168
 30
0.0
 10
8.1757988178
 20
23.7964299537
 30
0.0
 10
8.1910120136
 20
23.7649036282
 30
0.0
 10
8.2116998019
 20
23.7358502015
 30
0.0
 10
8.2373348445
 20
23.70996944
 30
0.0
 10
8.2672766847
 20
23.6878818432
 30
0.0
 10
8.3007869736
 20
23.6701118395
 30
0.0
 10
8.3370499624
 20
23.6570801988
 30
0.0
 10
8.3751754484
 20
23.649095113
 30
0.0
 10
8.4012200024
 20
23.6472635151
 30
0.0
 10
8.4142644019
 20
23.6472306537
 30
0.0
 11
8.1642686327
 21
23.8637370047
 31
0.0
 11
8.1674486812
 21
23.8299300114
 31
0.0
 11
8.17668371
 21
23.7969523846
 31
0.0
 11
8.1917471617
 21
23.7656131443
 31
0.0
 11
8.2122694937
 21
23.7366811171
 31
0.0
 11
8.2377472442
 21
23.7108660748
 31
0.0
 11
8.2675553829
 21
23.6888013223
 31
0.0
 11
8.3009626449
 21
23.6710281606
 31
0.0
 11
8.3371494701
 21
23.657982608
 31
0.0
 11
8.3752281092
 21
23.6499847032
 31
0.0
 11
8.4142644019
 21
23.6472306537
 31
0.0
  0
SPLINE
  5
5CB
100
AcDbEntity
  8
RACCORDO
100
AcDbSpline
 62
253
  6
CONTINUOUS
 70
0
 71
3
 72
17
 73
13
 74
11
 42
0.0000001
 43
0.0000001
 44
0.0000000001
 12
-0.0012298291
 22
-0.3661500354
 32
0.0
 13
-0.3661509389
 23
-0.0009224053
 33
0.0
 40
0.0
 40
0.0
 40
0.0
 40
0.0
 40
0.0926637669
 40
0.1861959939
 40
0.2811621264
 40
0.3780472439
 40
0.4771141944
 40
0.5784104998
 40
0.6817687109
 40
0.7868361684
 40
0.8931123906
 40
1.0
 40
1.0
 40
1.0
 40
1.0
 10
10.5555249647
 20
23.8637370047
 30
0.0
 10
10.5554869778
 20
23.8524273908
 30
0.0
 10
10.5533389099
 20
23.8296566274
 30
0.0
 10
10.544004332
 20
23.7964549544
 30
0.0
 10
10.528794584
 20
23.764925297
 30
0.0
 10
10.508108698
 20
23.7358675561
 30
0.0
 10
10.4824735937
 20
23.7099819767
 30
0.0
 10
10.4525303296
 20
23.6878900257
 30
0.0
 10
10.4190174305
 20
23.6701163879
 30
0.0
 10
10.3827511288
 20
23.657082121
 30
0.0
 10
10.3446219456
 20
23.6490954657
 30
0.0
 10
10.3185748617
 20
23.6472635183
 30
0.0
 10
10.3055291955
 20
23.6472306537
 30
0.0
 11
10.5555249647
 21
23.8637370047
 31
0.0
 11
10.552349905
 21
23.8299568586
 31
0.0
 11
10.5431192823
 21
23.7969772576
 31
0.0
 11
10.5280596583
 21
23.7656355424
 31
0.0
 11
10.5075387829
 21
23.7366985893
 31
0.0
 11
10.4820610936
 21
23.7108788416
 31
0.0
 11
10.4522515199
 21
23.6888097078
 31
0.0
 11
10.4188416924
 21
23.6710329169
 31
0.0
 11
10.3826514197
 21
23.6579846745
 31
0.0
 11
10.3445692607
 21
23.6499852292
 31
0.0
 11
10.3055291955
 21
23.6472306537
 31
0.0
  0
SPLINE
  5
5CC
100
AcDbEntity
  8
ASSI
100
AcDbSpline
 62
7
  6
CONTINUOUS
 70
0
 71
3
 72
18
 73
14
 74
12
 42
0.0000001
 43
0.0000001
 44
0.0000000001
 12
-0.4450903692
 22
0.4810902355
 32
0.0
 13
-0.0252793885
 23
0.6549154174
 33
0.0
 40
0.0
 40
0.0
 40
0.0
 40
0.0
 40
0.1610700427
 40
0.3161797675
 40
0.459639169
 40
0.5858983805
 40
0.6937258751
 40
0.7831374497
 40
0.8554530788
 40
0.9120560403
 40
0.9545072575
 40
0.9834021834
 40
1.0
 40
1.0
 40
1.0
 40
1.0
 10
-4.018073189
 20
23.2757572521
 30
0.0
 10
-4.0419700972
 20
23.3015869937
 30
0.0
 10
-4.0888798258
 20
23.3522904978
 30
0.0
 10
-4.1569618156
 20
23.4261029684
 30
0.0
 10
-4.2196696815
 20
23.4945262637
 30
0.0
 10
-4.2750805074
 20
23.5556231533
 30
0.0
 10
-4.3221549643
 20
23.608341672
 30
0.0
 10
-4.3608762965
 20
23.652704586
 30
0.0
 10
-4.3916600954
 20
23.6891644768
 30
0.0
 10
-4.4150454205
 20
23.7183548105
 30
0.0
 10
-4.4317121025
 20
23.7409366063
 30
0.0
 10
-4.4417277563
 20
23.7571251322
 30
0.0
 10
-4.4458960732
 20
23.7665494734
 30
0.0
 10
-4.4460359341
 20
23.7701728621
 30
0.0
 11
-4.018073189
 21
23.2757572521
 31
0.0
 11
-4.0897441355
 21
23.3532647704
 31
0.0
 11
-4.1586461315
 21
23.4280119985
 31
0.0
 11
-4.2221443249
 21
23.4973549363
 31
0.0
 11
-4.2777006045
 21
23.558683356
 31
0.0
 11
-4.3247247001
 21
23.6114379831
 31
0.0
 11
-4.3632009886
 21
23.6556376266
 31
0.0
 11
-4.393691551
 21
23.6919239312
 31
0.0
 11
-4.4167760159
 21
23.7209644392
 31
0.0
 11
-4.4330643768
 21
23.7435208069
 31
0.0
 11
-4.4427196876
 21
23.7598124052
 31
0.0
 11
-4.4460359341
 21
23.7701728621
 31
0.0
  0
SPLINE
  5
5CD
100
AcDbEntity
  8
ASSI
100
AcDbSpline
 62
7
  6
CONTINUOUS
 70
0
 71
3
 72
8
 73
4
 74
2
 42
0.0000001
 43
0.0000001
 44
0.0000000001
 12
0.0
 22
-0.0062881995
 32
0.0
 13
-0.0022476677
 23
-0.0059728434
 33
0.0
 40
0.0
 40
0.0
 40
0.0
 40
0.0
 40
1.0
 40
1.0
 40
1.0
 40
1.0
 10
-3.5901032013
 20
23.7705417277
 30
0.0
 10
-3.5901032013
 20
23.7684456612
 30
0.0
 10
-3.5906160644
 20
23.7664026909
 30
0.0
 10
-3.591365287
 20
23.764411743
 30
0.0
 11
-3.5901032013
 21
23.7705417277
 31
0.0
 11
-3.591365287
 21
23.764411743
 31
0.0
  0
SPLINE
  5
5CE
100
AcDbEntity
  8
ASSI
100
AcDbSpline
 62
7
  6
CONTINUOUS
 70
0
 71
3
 72
18
 73
14
 74
12
 42
0.0000001
 43
0.0000001
 44
0.0000000001
 12
-0.232149697
 22
-0.6169033864
 32
0.0
 13
-0.4410644187
 23
-0.4767386574
 33
0.0
 40
0.0
 40
0.0
 40
0.0
 40
0.0
 40
0.0066271058
 40
0.0353775591
 40
0.0779097127
 40
0.1348025639
 40
0.2076256814
 40
0.2978091982
 40
0.4067225147
 40
0.5344206762
 40
0.6796844479
 40
0.8368312717
 40
1.0
 40
1.0
 40
1.0
 40
1.0
 10
-3.591365287
 20
23.764411743
 30
0.0
 10
-3.5918781138
 20
23.7630489817
 30
0.0
 10
-3.5952068925
 20
23.7559042478
 30
0.0
 10
-3.6039224856
 20
23.741677875
 30
0.0
 10
-3.6204344264
 20
23.719215227
 30
0.0
 10
-3.6436942907
 20
23.6901229587
 30
0.0
 10
-3.6744006917
 20
23.6537141962
 30
0.0
 10
-3.713094196
 20
23.6093555861
 30
0.0
 10
-3.7602093168
 20
23.5565730713
 30
0.0
 10
-3.8157429362
 20
23.4953296295
 30
0.0
 10
-3.878653233
 20
23.4266798921
 30
0.0
 10
-3.9469904073
 20
23.3525889713
 30
0.0
 10
-3.9940838822
 20
23.3016868656
 30
0.0
 10
-4.018073189
 20
23.2757572521
 30
0.0
 11
-3.591365287
 21
23.764411743
 31
0.0
 11
-3.5931473078
 21
23.7603962342
 31
0.0
 11
-3.6025773664
 21
23.7442796721
 31
0.0
 11
-3.6186974996
 21
23.7218474949
 31
0.0
 11
-3.6416579338
 21
23.6928965692
 31
0.0
 11
-3.6720630232
 21
23.6566679039
 31
0.0
 11
-3.7105056248
 21
23.6124769907
 31
0.0
 11
-3.7575637165
 21
23.559664278
 31
0.0
 11
-3.8132388194
 21
23.4981924448
 31
0.0
 11
-3.8769509268
 21
23.4286095623
 31
0.0
 11
-3.9461252793
 21
23.353564601
 31
0.0
 11
-4.018073189
 21
23.2757572521
 31
0.0
  0
SPLINE
  5
5CF
100
AcDbEntity
  8
ASSI
100
AcDbSpline
 62
7
  6
CONTINUOUS
 70
0
 71
3
 72
18
 73
14
 74
12
 42
0.0000001
 43
0.0000001
 44
0.0000000001
 12
-0.4453347054
 22
0.4813543341
 32
0.0
 13
0.0
 23
0.6557629105
 33
0.0
 40
0.0
 40
0.0
 40
0.0
 40
0.0
 40
0.1614952952
 40
0.3171097781
 40
0.4609917901
 40
0.5874696091
 40
0.6953300589
 40
0.7846477581
 40
0.8567778755
 40
0.9131578401
 40
0.9553196044
 40
0.9838298659
 40
1.0
 40
1.0
 40
1.0
 40
1.0
 10
3.8378667864
 20
23.2757572521
 30
0.0
 10
3.8138936331
 20
23.3016694055
 30
0.0
 10
3.7668200935
 20
23.3525499653
 30
0.0
 10
3.6985010381
 20
23.4266209848
 30
0.0
 10
3.6355919849
 20
23.4952688504
 30
0.0
 10
3.5800569953
 20
23.5565130571
 30
0.0
 10
3.5329421125
 20
23.6092942004
 30
0.0
 10
3.4942483872
 20
23.6536513688
 30
0.0
 10
3.4635355106
 20
23.6900652429
 30
0.0
 10
3.4402636735
 20
23.7191689175
 30
0.0
 10
3.4237356196
 20
23.7416486849
 30
0.0
 10
3.4139247504
 20
23.757657967
 30
0.0
 10
3.4098967987
 20
23.7670071363
 30
0.0
 10
3.4098967987
 20
23.7705417277
 30
0.0
 11
3.8378667864
 21
23.2757572521
 31
0.0
 11
3.7659672965
 21
23.3535121831
 31
0.0
 11
3.69680412
 21
23.4285447309
 31
0.0
 11
3.6330867987
 21
23.4981327669
 31
0.0
 11
3.5774094775
 21
23.5596062602
 31
0.0
 11
3.5303544998
 21
23.6124142786
 31
0.0
 11
3.4919114352
 21
23.6566038734
 31
0.0
 11
3.4615027263
 21
23.692834035
 31
0.0
 11
3.4385270659
 21
23.7218002163
 31
0.0
 11
3.4223902127
 21
23.7442506188
 31
0.0
 11
3.4129458476
 21
23.7603857773
 31
0.0
 11
3.4098967987
 21
23.7705417277
 31
0.0
  0
SPLINE
  5
5D0
100
AcDbEntity
  8
ASSI
100
AcDbSpline
 62
7
  6
CONTINUOUS
 70
0
 71
3
 72
18
 73
14
 74
12
 42
0.0000001
 43
0.0000001
 44
0.0000000001
 12
-0.0252793929
 22
-0.654915531
 32
0.0
 13
-0.4450904464
 23
-0.4810903189
 33
0.0
 40
0.0
 40
0.0
 40
0.0
 40
0.0
 40
0.0165806563
 40
0.0454411065
 40
0.0878560839
 40
0.1444275358
 40
0.2167384756
 40
0.3061519021
 40
0.4139889825
 40
0.5402449784
 40
0.6836932136
 40
0.8388260589
 40
1.0
 40
1.0
 40
1.0
 40
1.0
 10
4.2658295314
 20
23.7701728621
 30
0.0
 10
4.2656898151
 20
23.766553219
 30
0.0
 10
4.2615285867
 20
23.7571389147
 30
0.0
 10
4.2515248216
 20
23.7409649841
 30
0.0
 10
4.2348736857
 20
23.7183997292
 30
0.0
 10
4.2114998599
 20
23.689220349
 30
0.0
 10
4.1807221089
 20
23.652765179
 30
0.0
 10
4.1420005933
 20
23.6084004436
 30
0.0
 10
4.0949254489
 20
23.5556801148
 30
0.0
 10
4.0395156635
 20
23.4945836752
 30
0.0
 10
3.976806737
 20
23.4261587407
 30
0.0
 10
3.908707696
 20
23.352327541
 30
0.0
 10
3.8617791135
 20
23.3016036597
 30
0.0
 10
3.8378667864
 20
23.2757572521
 30
0.0
 11
4.2658295314
 21
23.7701728621
 31
0.0
 11
4.2625182359
 21
23.7598226276
 31
0.0
 11
4.2528768258
 21
23.743549053
 31
0.0
 11
4.23660462
 21
23.7210103108
 31
0.0
 11
4.2135348241
 21
23.6919845154
 31
0.0
 11
4.1830475543
 21
23.6556994478
 31
0.0
 11
4.1445713332
 21
23.611498123
 31
0.0
 11
4.097543611
 21
23.5587382959
 31
0.0
 11
4.0419891038
 21
23.497411095
 31
0.0
 11
3.9784960936
 21
23.4280733119
 31
0.0
 11
3.9095839509
 21
23.3533148041
 31
0.0
 11
3.8378667864
 21
23.2757572521
 31
0.0
  0
SPLINE
  5
5D1
100
AcDbEntity
  8
ASSI
100
AcDbSpline
 62
7
  6
CONTINUOUS
 70
0
 71
3
 72
18
 73
14
 74
12
 42
0.0000001
 43
0.0000001
 44
0.0000000001
 12
0.4453347138
 22
-0.4813543431
 32
0.0
 13
0.0
 23
-0.6557629228
 33
0.0
 40
0.0
 40
0.0
 40
0.0
 40
0.0
 40
0.1612016661
 40
0.3168616821
 40
0.4607450366
 40
0.5870767765
 40
0.6948071043
 40
0.7840907429
 40
0.8562933587
 40
0.9129036648
 40
0.95526983
 40
0.9838485666
 40
1.0
 40
1.0
 40
1.0
 40
1.0
 10
-4.018073189
 20
-23.2369583773
 30
0.0
 10
-3.994143623
 20
-23.262823418
 30
0.0
 10
-3.9471069141
 20
-23.313664174
 30
0.0
 10
-3.878824119
 20
-23.3876952637
 30
0.0
 10
-3.8159292272
 20
-23.4563266944
 30
0.0
 10
-3.7604336749
 20
-23.5175255622
 30
0.0
 10
-3.7133620072
 20
-23.5702543482
 30
0.0
 10
-3.6746779153
 20
-23.61459334
 30
0.0
 10
-3.6439219942
 20
-23.6510477123
 30
0.0
 10
-3.6205744175
 20
-23.6802326309
 30
0.0
 10
-3.6039757034
 20
-23.70279757
 30
0.0
 10
-3.5941327766
 20
-23.7188522589
 30
0.0
 10
-3.5901032013
 20
-23.7282123492
 30
0.0
 10
-3.5901032013
 20
-23.7317428529
 30
0.0
 11
-4.018073189
 21
-23.2369583773
 31
0.0
 11
-3.9463043513
 21
-23.3145718687
 31
0.0
 11
-3.8771206232
 21
-23.389626084
 31
0.0
 11
-3.8134021866
 21
-23.4592142949
 31
0.0
 11
-3.7577881122
 21
-23.5206158304
 31
0.0
 11
-3.7107876713
 21
-23.5733581563
 31
0.0
 11
-3.6723554003
 21
-23.6175275372
 31
0.0
 11
-3.6419104331
 21
-23.6537893351
 31
0.0
 11
-3.6188344099
 21
-23.682868706
 31
0.0
 11
-3.6026146245
 21
-23.7054245698
 31
0.0
 11
-3.5931469506
 21
-23.7215981154
 31
0.0
 11
-3.5901032013
 21
-23.7317428529
 31
0.0
  0
SPLINE
  5
5D2
100
AcDbEntity
  8
ASSI
100
AcDbSpline
 62
7
  6
CONTINUOUS
 70
0
 71
3
 72
18
 73
14
 74
12
 42
0.0000001
 43
0.0000001
 44
0.0000000001
 12
0.0252793934
 22
0.6549155442
 32
0.0
 13
0.4450904554
 23
0.4810903286
 33
0.0
 40
0.0
 40
0.0
 40
0.0
 40
0.0
 40
0.0165612013
 40
0.0454873726
 40
0.088099836
 40
0.1448866598
 40
0.2172643667
 40
0.3066417466
 40
0.4143507724
 40
0.5404648439
 40
0.6839186683
 40
0.8391027189
 40
1.0
 40
1.0
 40
1.0
 40
1.0
 10
-4.4460359341
 20
-23.7313739873
 30
0.0
 10
-4.4458963817
 20
-23.7277585913
 30
0.0
 10
-4.4417336632
 20
-23.7183341383
 30
0.0
 10
-4.4316991563
 20
-23.7021166284
 30
0.0
 10
-4.4149808373
 20
-23.6794705282
 30
0.0
 10
-4.391535443
 20
-23.6502143413
 30
0.0
 10
-4.3607181929
 20
-23.6137222098
 30
0.0
 10
-4.3220073746
 20
-23.5693763506
 30
0.0
 10
-4.2749749701
 20
-23.5167075105
 30
0.0
 10
-4.2196031615
 20
-23.4556546028
 30
0.0
 10
-4.1569063622
 20
-23.3872437801
 30
0.0
 10
-4.0888396017
 20
-23.3134481494
 30
0.0
 10
-4.0419444704
 20
-23.2627604193
 30
0.0
 10
-4.018073189
 20
-23.2369583773
 30
0.0
 11
-4.4460359341
 21
-23.7313739873
 31
0.0
 11
-4.4427302503
 21
-23.721035345
 31
0.0
 11
-4.4330664171
 21
-23.7047249888
 31
0.0
 11
-4.4167140964
 21
-23.6820844462
 31
0.0
 11
-4.393550415
 21
-23.6529529615
 31
0.0
 11
-4.3630296907
 21
-23.6166388471
 31
0.0
 11
-4.3245653887
 21
-23.5724584677
 31
0.0
 11
-4.2775914581
 21
-23.5197631201
 31
0.0
 11
-4.2220984447
 21
-23.4585057201
 31
0.0
 11
-4.1586024964
 21
-23.3891656578
 31
0.0
 11
-4.089667319
 21
-23.3143827374
 31
0.0
 11
-4.018073189
 21
-23.2369583773
 31
0.0
  0
SPLINE
  5
5D3
100
AcDbEntity
  8
ASSI
100
AcDbSpline
 62
7
  6
CONTINUOUS
 70
0
 71
3
 72
18
 73
14
 74
12
 42
0.0000001
 43
0.0000001
 44
0.0000000001
 12
0.4450903719
 22
-0.4810902383
 32
0.0
 13
0.0252793887
 23
-0.6549154213
 33
0.0
 40
0.0
 40
0.0
 40
0.0
 40
0.0
 40
0.1607870617
 40
0.3159451345
 40
0.4594086114
 40
0.5855248047
 40
0.6932231358
 40
0.782598559
 40
0.8549817506
 40
0.9118040473
 40
0.9544563951
 40
0.9834203014
 40
1.0
 40
1.0
 40
1.0
 40
1.0
 10
3.8378667864
 20
-23.2369583773
 30
0.0
 10
3.8617217107
 20
-23.2627427393
 30
0.0
 10
3.9085966257
 20
-23.3134086196
 30
0.0
 10
3.976644758
 20
-23.3871837962
 30
0.0
 10
4.0393397076
 20
-23.4555920814
 30
0.0
 10
4.0947120432
 20
-23.516644807
 30
0.0
 10
4.1417434763
 20
-23.5693114135
 30
0.0
 10
4.180454131
 20
-23.6136553105
 30
0.0
 10
4.2112782061
 20
-23.6501528374
 30
0.0
 10
4.2347364089
 20
-23.6794212706
 30
0.0
 10
4.2514718972
 20
-23.7020856874
 30
0.0
 10
4.2615194102
 20
-23.7183191643
 30
0.0
 10
4.2656898232
 20
-23.7277545539
 30
0.0
 10
4.2658295314
 20
-23.7313739873
 30
0.0
 11
3.8378667864
 21
-23.2369583773
 31
0.0
 11
3.9094118862
 21
-23.3143296596
 31
0.0
 11
3.9783356557
 21
-23.3890999139
 31
0.0
 11
4.0418361368
 21
-23.4584443794
 31
0.0
 11
4.0973304759
 21
-23.519702434
 31
0.0
 11
4.1443003524
 21
-23.5723919878
 31
0.0
 11
4.1827647637
 21
-23.6165705571
 31
0.0
 11
4.213289247
 21
-23.6528861963
 31
0.0
 11
4.2364693936
 21
-23.6820342826
 31
0.0
 11
4.2528394815
 21
-23.7046942315
 31
0.0
 11
4.262518513
 21
-23.7210243251
 31
0.0
 11
4.2658295314
 21
-23.7313739873
 31
0.0
  0
SPLINE
  5
5D4
100
AcDbEntity
  8
ASSI
100
AcDbSpline
 62
7
  6
CONTINUOUS
 70
0
 71
3
 72
8
 73
4
 74
2
 42
0.0000001
 43
0.0000001
 44
0.0000000001
 12
0.0
 22
0.0062742889
 32
0.0
 13
0.0022398713
 23
0.0059603371
 33
0.0
 40
0.0
 40
0.0
 40
0.0
 40
0.0
 40
1.0
 40
1.0
 40
1.0
 40
1.0
 10
3.4098967987
 20
-23.7317428529
 30
0.0
 10
3.4098967987
 20
-23.7296514233
 30
0.0
 10
3.4104076405
 20
-23.7276128499
 30
0.0
 10
3.4111542643
 20
-23.7256260709
 30
0.0
 11
3.4098967987
 21
-23.7317428529
 31
0.0
 11
3.4111542643
 21
-23.7256260709
 31
0.0
  0
SPLINE
  5
5D5
100
AcDbEntity
  8
ASSI
100
AcDbSpline
 62
7
  6
CONTINUOUS
 70
0
 71
3
 72
18
 73
14
 74
12
 42
0.0000001
 43
0.0000001
 44
0.0000000001
 12
0.2318623307
 22
0.6169897634
 32
0.0
 13
0.4410738809
 23
0.4767488849
 33
0.0
 40
0.0
 40
0.0
 40
0.0
 40
0.0
 40
0.0066281586
 40
0.0354438089
 40
0.0781775225
 40
0.1352977049
 40
0.2081916
 40
0.2983390118
 40
0.4071197443
 40
0.5346687078
 40
0.6799322081
 40
0.8371246023
 40
1.0
 40
1.0
 40
1.0
 40
1.0
 10
3.4111542643
 20
-23.7256260709
 30
0.0
 10
3.4116665377
 20
-23.7242629022
 30
0.0
 10
3.4149994502
 20
-23.7171037988
 30
0.0
 10
3.4237480059
 20
-23.7028293772
 30
0.0
 10
3.4403289372
 20
-23.6802833796
 30
0.0
 10
3.4636631865
 20
-23.651111206
 30
0.0
 10
3.4944118551
 20
-23.6146626108
 30
0.0
 10
3.5330957123
 20
-23.5703220244
 30
0.0
 10
3.5801679068
 20
-23.517591435
 30
0.0
 10
3.6356625853
 20
-23.4563927168
 30
0.0
 10
3.6985595032
 20
-23.3877585215
 30
0.0
 10
3.7668620365
 20
-23.3137057592
 30
0.0
 10
3.8139200918
 20
-23.2628419321
 30
0.0
 10
3.8378667864
 20
-23.2369583773
 30
0.0
 11
3.4111542643
 21
-23.7256260709
 31
0.0
 11
3.4129352313
 21
-23.72160937
 31
0.0
 11
3.4223872895
 21
-23.7054561555
 31
0.0
 11
3.4385886499
 21
-23.6829204132
 31
0.0
 11
3.4616476368
 21
-23.6538581906
 31
0.0
 11
3.4920884888
 21
-23.6175982022
 31
0.0
 11
3.5305202991
 21
-23.5734273172
 31
0.0
 11
3.5775242839
 21
-23.5206796976
 31
0.0
 11
3.6331365523
 21
-23.4592792936
 31
0.0
 11
3.6968504056
 21
-23.3896955045
 31
0.0
 11
3.7660466058
 21
-23.3146274507
 31
0.0
 11
3.8378667864
 21
-23.2369583773
 31
0.0
  0
SPLINE
  5
5D6
100
AcDbEntity
  8
RACCORDO
100
AcDbSpline
 62
7
  6
CONTINUOUS
 70
0
 71
3
 72
18
 73
14
 74
12
 42
0.0000001
 43
0.0000001
 44
0.0000000001
 12
-0.3145151746
 22
0.0
 32
0.0
 13
-0.0031690579
 23
0.3144992085
 33
0.0
 40
0.0
 40
0.0
 40
0.0
 40
0.0
 40
0.1233645867
 40
0.2431315365
 40
0.3566833685
 40
0.4629485722
 40
0.5612613068
 40
0.6513651559
 40
0.7334201413
 40
0.8080244445
 40
0.8762413066
 40
0.9395978155
 40
1.0
 40
1.0
 40
1.0
 40
1.0
 10
-10.4857355981
 20
23.7193994374
 30
0.0
 10
-10.4986689429
 20
23.7193994374
 30
0.0
 10
-10.5241695795
 20
23.720688788
 30
0.0
 10
-10.561257075
 20
23.725815606
 30
0.0
 10
-10.5959681122
 20
23.7339737067
 30
0.0
 10
-10.6275915557
 20
23.7447489903
 30
0.0
 10
-10.6556727116
 20
23.7577817823
 30
0.0
 10
-10.6798722586
 20
23.7727030037
 30
0.0
 10
-10.699948593
 20
23.789159627
 30
0.0
 10
-10.7157358077
 20
23.8068135533
 30
0.0
 10
-10.7271213384
 20
23.8253439061
 30
0.0
 10
-10.7340321214
 20
23.8444021538
 30
0.0
 10
-10.7356675613
 20
23.8574048583
 30
0.0
 10
-10.7357313673
 20
23.8637370047
 30
0.0
 11
-10.4857355981
 21
23.7193994374
 31
0.0
 11
-10.5244902439
 21
23.7212756337
 31
0.0
 11
-10.5617949648
 21
23.7264982223
 31
0.0
 11
-10.596547971
 21
23.7347263588
 31
0.0
 11
-10.6281551416
 21
23.7455899736
 31
0.0
 11
-10.6561563326
 21
23.7587060734
 31
0.0
 11
-10.6802098113
 21
23.7736904207
 31
0.0
 11
-10.7000753566
 21
23.790164313
 31
0.0
 11
-10.7156003729
 21
23.807758115
 31
0.0
 11
-10.7267098252
 21
23.8261131503
 31
0.0
 11
-10.7333995013
 21
23.8448832585
 31
0.0
 11
-10.7357313673
 21
23.8637370047
 31
0.0
  0
SPLINE
  5
5D7
100
AcDbEntity
  8
RACCORDO
100
AcDbSpline
 62
7
  6
CONTINUOUS
 70
0
 71
3
 72
18
 73
14
 74
12
 42
0.0000001
 43
0.0000001
 44
0.0000000001
 12
-0.0031763781
 22
-0.3152256661
 32
0.0
 13
-0.3152416691
 23
0.0
 33
0.0
 40
0.0
 40
0.0
 40
0.0
 40
0.0
 40
0.0600923894
 40
0.1232193774
 40
0.1912702092
 40
0.2657636629
 40
0.3477531865
 40
0.4378167491
 40
0.5360799495
 40
0.6422378908
 40
0.7555663097
 40
0.8749375201
 40
1.0
 40
1.0
 40
1.0
 40
1.0
 10
-8.3444750353
 20
23.8637370047
 30
0.0
 10
-8.3445386607
 20
23.8574227835
 30
0.0
 10
-8.34616632
 20
23.8444470405
 30
0.0
 10
-8.3530535871
 20
23.8254100663
 30
0.0
 10
-8.3644240374
 20
23.8068741
 30
0.0
 10
-8.3802148752
 20
23.7891980235
 30
0.0
 10
-8.400316365
 20
23.772712992
 30
0.0
 10
-8.4245584152
 20
23.757766185
 30
0.0
 10
-8.4526885271
 20
23.7447180563
 30
0.0
 10
-8.4843506985
 20
23.7339402271
 30
0.0
 10
-8.5190704415
 20
23.7257963785
 30
0.0
 10
-8.5563570844
 20
23.7206395995
 30
0.0
 10
-8.5820563983
 20
23.7193994374
 30
0.0
 10
-8.5951980332
 20
23.7193994374
 30
0.0
 11
-8.3444750353
 21
23.8637370047
 31
0.0
 11
-8.3467943758
 21
23.8449358985
 31
0.0
 11
-8.3534618858
 21
23.8261858441
 31
0.0
 11
-8.3645565582
 21
23.80782512
 31
0.0
 11
-8.3800850551
 21
23.7902087137
 31
0.0
 11
-8.3999764242
 21
23.7737049039
 31
0.0
 11
-8.4240747273
 21
23.7586927288
 31
0.0
 11
-8.4521290901
 21
23.7455585786
 31
0.0
 11
-8.4837807892
 21
23.7346910406
 31
0.0
 11
-8.518548469
 21
23.7264725198
 31
0.0
 11
-8.5558173457
 21
23.7212661391
 31
0.0
 11
-8.5951980332
 21
23.7193994374
 31
0.0
  0
SPLINE
  5
5D8
100
AcDbEntity
  8
RACCORDO
100
AcDbSpline
 62
7
  6
CONTINUOUS
 70
0
 71
3
 72
9
 73
5
 74
3
 42
0.0000001
 43
0.0000001
 44
0.0000000001
 12
0.1335246193
 22
0.207351903
 32
0.0
 13
0.1402706335
 23
0.2028500307
 33
0.0
 40
0.0
 40
0.0
 40
0.0
 40
0.0
 40
0.5245904348
 40
1.0
 40
1.0
 40
1.0
 40
1.0
 10
-7.9775713094
 20
-21.7431324545
 30
0.0
 10
-7.95422273
 20
-21.7068741795
 30
0.0
 10
-7.9088019024
 20
-21.6383441456
 30
0.0
 10
-7.8623516771
 20
-21.5705152338
 30
0.0
 10
-7.8401230101
 20
-21.5383696189
 30
0.0
 11
-7.9775713094
 21
-21.7431324545
 31
0.0
 11
-7.9062847814
 21
-21.6351667243
 31
0.0
 11
-7.8401230101
 21
-21.5383696189
 31
0.0
  0
SPLINE
  5
5D9
100
AcDbEntity
  8
RACCORDO
100
AcDbSpline
 62
7
  6
CONTINUOUS
 70
0
 71
3
 72
9
 73
5
 74
3
 42
0.0000001
 43
0.0000001
 44
0.0000000001
 12
0.1246584854
 22
-0.1811265558
 32
0.0
 13
0.1190437227
 23
-0.1848643536
 33
0.0
 40
0.0
 40
0.0
 40
0.0
 40
0.0
 40
0.4115965419
 40
1.0
 40
1.0
 40
1.0
 40
1.0
 10
7.6751053259
 20
-21.5603853705
 30
0.0
 10
7.6922083264
 20
-21.5852357252
 30
0.0
 10
7.7335214402
 20
-21.6457763056
 30
0.0
 10
7.7740163274
 20
-21.7068741795
 30
0.0
 10
7.7973649068
 20
-21.7431324545
 30
0.0
 11
7.6751053259
 21
-21.5603853705
 31
0.0
 11
7.7260783788
 21
-21.6351667243
 31
0.0
 11
7.7973649068
 21
-21.7431324545
 31
0.0
  0
SPLINE
  5
5DA
100
AcDbEntity
  8
RACCORDO
100
AcDbSpline
 62
7
  6
CONTINUOUS
 70
0
 71
3
 72
9
 73
5
 74
3
 42
0.0000001
 43
0.0000001
 44
0.0000000001
 12
-0.1402706335
 22
0.2028500307
 32
0.0
 13
-0.1335246193
 23
0.207351903
 33
0.0
 40
0.0
 40
0.0
 40
0.0
 40
0.0
 40
0.4754095652
 40
1.0
 40
1.0
 40
1.0
 40
1.0
 10
-7.8401230101
 20
21.5771684936
 30
0.0
 10
-7.8623516771
 20
21.6093141086
 30
0.0
 10
-7.9088019024
 20
21.6771430203
 30
0.0
 10
-7.95422273
 20
21.7456730543
 30
0.0
 10
-7.9775713094
 20
21.7819313293
 30
0.0
 11
-7.8401230101
 21
21.5771684936
 31
0.0
 11
-7.9062847814
 21
21.6739655991
 31
0.0
 11
-7.9775713094
 21
21.7819313293
 31
0.0
  0
SPLINE
  5
5DB
100
AcDbEntity
  8
RACCORDO
100
AcDbSpline
 62
7
  6
CONTINUOUS
 70
0
 71
3
 72
9
 73
5
 74
3
 42
0.0000001
 43
0.0000001
 44
0.0000000001
 12
-0.1190437227
 22
-0.1848643536
 32
0.0
 13
-0.1246584854
 23
-0.1811265558
 33
0.0
 40
0.0
 40
0.0
 40
0.0
 40
0.0
 40
0.5884034581
 40
1.0
 40
1.0
 40
1.0
 40
1.0
 10
7.7973649068
 20
21.7819313293
 30
0.0
 10
7.7740163274
 20
21.7456730543
 30
0.0
 10
7.7335214402
 20
21.6845751804
 30
0.0
 10
7.6922083264
 20
21.6240346
 30
0.0
 10
7.6751053259
 20
21.5991842453
 30
0.0
 11
7.7973649068
 21
21.7819313293
 31
0.0
 11
7.7260783788
 21
21.6739655991
 31
0.0
 11
7.6751053259
 21
21.5991842453
 31
0.0
  0
SPLINE
  5
5DC
100
AcDbEntity
  8
RACCORDO
100
AcDbSpline
 62
253
  6
CONTINUOUS
 70
0
 71
3
 72
17
 73
13
 74
11
 42
0.0000001
 43
0.0000001
 44
0.0000000001
 12
-0.0012298291
 22
0.3661500354
 32
0.0
 13
-0.3661509389
 23
0.0009224053
 33
0.0
 40
0.0
 40
0.0
 40
0.0
 40
0.0
 40
0.0926637669
 40
0.1861959939
 40
0.2811621264
 40
0.3780472439
 40
0.4771141944
 40
0.5784104998
 40
0.6817687109
 40
0.7868361684
 40
0.8931123906
 40
1.0
 40
1.0
 40
1.0
 40
1.0
 10
10.5555249647
 20
-23.8249381299
 30
0.0
 10
10.5554869778
 20
-23.8136285161
 30
0.0
 10
10.5533389099
 20
-23.7908577527
 30
0.0
 10
10.544004332
 20
-23.7576560796
 30
0.0
 10
10.528794584
 20
-23.7261264223
 30
0.0
 10
10.508108698
 20
-23.6970686813
 30
0.0
 10
10.4824735937
 20
-23.671183102
 30
0.0
 10
10.4525303296
 20
-23.6490911509
 30
0.0
 10
10.4190174305
 20
-23.6313175132
 30
0.0
 10
10.3827511288
 20
-23.6182832463
 30
0.0
 10
10.3446219456
 20
-23.6102965909
 30
0.0
 10
10.3185748617
 20
-23.6084646435
 30
0.0
 10
10.3055291955
 20
-23.608431779
 30
0.0
 11
10.5555249647
 21
-23.8249381299
 31
0.0
 11
10.552349905
 21
-23.7911579838
 31
0.0
 11
10.5431192823
 21
-23.7581783828
 31
0.0
 11
10.5280596583
 21
-23.7268366676
 31
0.0
 11
10.5075387829
 21
-23.6978997146
 31
0.0
 11
10.4820610936
 21
-23.6720799668
 31
0.0
 11
10.4522515199
 21
-23.650010833
 31
0.0
 11
10.4188416924
 21
-23.6322340422
 31
0.0
 11
10.3826514197
 21
-23.6191857997
 31
0.0
 11
10.3445692607
 21
-23.6111863544
 31
0.0
 11
10.3055291955
 21
-23.608431779
 31
0.0
  0
SPLINE
  5
5DD
100
AcDbEntity
  8
RACCORDO
100
AcDbSpline
 62
253
  6
CONTINUOUS
 70
0
 71
3
 72
17
 73
13
 74
11
 42
0.0000001
 43
0.0000001
 44
0.0000000001
 12
0.0012298291
 22
0.3661500354
 32
0.0
 13
0.3661509389
 23
0.0009224053
 33
0.0
 40
0.0
 40
0.0
 40
0.0
 40
0.0
 40
0.0926637669
 40
0.1861959939
 40
0.2811621264
 40
0.3780472439
 40
0.4771141944
 40
0.5784104998
 40
0.6817687109
 40
0.7868361684
 40
0.8931123906
 40
1.0
 40
1.0
 40
1.0
 40
1.0
 10
8.1642686327
 20
-23.8249381299
 30
0.0
 10
8.1643066196
 20
-23.8136285161
 30
0.0
 10
8.1664546874
 20
-23.7908577527
 30
0.0
 10
8.1757892653
 20
-23.7576560796
 30
0.0
 10
8.1909990134
 20
-23.7261264223
 30
0.0
 10
8.2116848993
 20
-23.6970686813
 30
0.0
 10
8.2373200037
 20
-23.671183102
 30
0.0
 10
8.2672632677
 20
-23.6490911509
 30
0.0
 10
8.3007761669
 20
-23.6313175132
 30
0.0
 10
8.3370424686
 20
-23.6182832463
 30
0.0
 10
8.3751716518
 20
-23.6102965909
 30
0.0
 10
8.4012187357
 20
-23.6084646435
 30
0.0
 10
8.4142644019
 20
-23.608431779
 30
0.0
 11
8.1642686327
 21
-23.8249381299
 31
0.0
 11
8.1674436924
 21
-23.7911579838
 31
0.0
 11
8.1766743151
 21
-23.7581783828
 31
0.0
 11
8.1917339391
 21
-23.7268366676
 31
0.0
 11
8.2122548145
 21
-23.6978997146
 31
0.0
 11
8.2377325038
 21
-23.6720799668
 31
0.0
 11
8.2675420775
 21
-23.650010833
 31
0.0
 11
8.3009519049
 21
-23.6322340422
 31
0.0
 11
8.3371421777
 21
-23.6191857997
 31
0.0
 11
8.3752243367
 21
-23.6111863544
 31
0.0
 11
8.4142644019
 21
-23.608431779
 31
0.0
  0
SPLINE
  5
5DE
100
AcDbEntity
  8
RACCORDO
100
AcDbSpline
 62
253
  6
CONTINUOUS
 70
0
 71
3
 72
17
 73
13
 74
11
 42
0.0000001
 43
0.0000001
 44
0.0000000001
 12
0.0012298291
 22
0.3661500354
 32
0.0
 13
0.3661509389
 23
0.0009224053
 33
0.0
 40
0.0
 40
0.0
 40
0.0
 40
0.0
 40
0.0926637669
 40
0.1861959939
 40
0.2811621264
 40
0.3780472439
 40
0.4771141944
 40
0.5784104998
 40
0.6817687109
 40
0.7868361684
 40
0.8931123906
 40
1.0
 40
1.0
 40
1.0
 40
1.0
 10
-10.7357313673
 20
-23.8249381299
 30
0.0
 10
-10.7356933804
 20
-23.8136285161
 30
0.0
 10
-10.7335453126
 20
-23.7908577527
 30
0.0
 10
-10.7242107347
 20
-23.7576560796
 30
0.0
 10
-10.7090009866
 20
-23.7261264223
 30
0.0
 10
-10.6883151007
 20
-23.6970686813
 30
0.0
 10
-10.6626799963
 20
-23.671183102
 30
0.0
 10
-10.6327367323
 20
-23.6490911509
 30
0.0
 10
-10.5992238331
 20
-23.6313175132
 30
0.0
 10
-10.5629575314
 20
-23.6182832463
 30
0.0
 10
-10.5248283482
 20
-23.6102965909
 30
0.0
 10
-10.4987812643
 20
-23.6084646435
 30
0.0
 10
-10.4857355981
 20
-23.608431779
 30
0.0
 11
-10.7357313673
 21
-23.8249381299
 31
0.0
 11
-10.7325563076
 21
-23.7911579838
 31
0.0
 11
-10.7233256849
 21
-23.7581783828
 31
0.0
 11
-10.7082660609
 21
-23.7268366676
 31
0.0
 11
-10.6877451855
 21
-23.6978997146
 31
0.0
 11
-10.6622674962
 21
-23.6720799668
 31
0.0
 11
-10.6324579225
 21
-23.650010833
 31
0.0
 11
-10.5990480951
 21
-23.6322340422
 31
0.0
 11
-10.5628578223
 21
-23.6191857997
 31
0.0
 11
-10.5247756633
 21
-23.6111863544
 31
0.0
 11
-10.4857355981
 21
-23.608431779
 31
0.0
  0
SPLINE
  5
5DF
100
AcDbEntity
  8
RACCORDO
100
AcDbSpline
 62
253
  6
CONTINUOUS
 70
0
 71
3
 72
17
 73
13
 74
11
 42
0.0000001
 43
0.0000001
 44
0.0000000001
 12
-0.001229829
 22
0.3661500127
 32
0.0
 13
-0.3661509162
 23
0.0009224053
 33
0.0
 40
0.0
 40
0.0
 40
0.0
 40
0.0
 40
0.092740981
 40
0.1862742706
 40
0.2812426722
 40
0.3781228716
 40
0.4771847111
 40
0.5784746944
 40
0.6818263867
 40
0.7868857196
 40
0.8931548188
 40
1.0
 40
1.0
 40
1.0
 40
1.0
 10
-8.3444750353
 20
-23.8249381299
 30
0.0
 10
-8.3445130538
 20
-23.8136190928
 30
0.0
 10
-8.346663788
 20
-23.790838655
 30
0.0
 10
-8.3560059669
 20
-23.7576289085
 30
0.0
 10
-8.3712201858
 20
-23.7261016215
 30
0.0
 10
-8.391909379
 20
-23.6970474539
 30
0.0
 10
-8.4175460717
 20
-23.6711663131
 30
0.0
 10
-8.4474897602
 20
-23.6490786981
 30
0.0
 10
-8.481001888
 20
-23.631309144
 30
0.0
 10
-8.5172665856
 20
-23.6182783864
 30
0.0
 10
-8.5553893234
 20
-23.6102954472
 30
0.0
 10
-8.5814303175
 20
-23.6084646305
 30
0.0
 10
-8.5944708045
 20
-23.608431779
 30
0.0
 11
-8.3444750353
 21
-23.8249381299
 31
0.0
 11
-8.3476552809
 21
-23.7911300767
 31
0.0
 11
-8.3568908839
 21
-23.7581514683
 31
0.0
 11
-8.3719553888
 21
-23.7268111794
 31
0.0
 11
-8.3924790902
 21
-23.6978784411
 31
0.0
 11
-8.4179584857
 21
-23.6720630094
 31
0.0
 11
-8.4477684246
 21
-23.6499982637
 31
0.0
 11
-8.4811776709
 21
-23.6322254673
 31
0.0
 11
-8.5173660824
 21
-23.6191808405
 31
0.0
 11
-8.5554461639
 21
-23.611184204
 31
0.0
 11
-8.5944708045
 21
-23.608431779
 31
0.0
  0
ELLIPSE
  5
5E0
100
AcDbEntity
  8
GUSCI_ESTERNI
100
AcDbEllipse
 62
7
  6
CONTINUOUS
 10
-8.7358006121
 20
-13.8806005626
 30
0.0
 11
0.9860557856
 21
-0.0
 31
0.0
 40
0.9999904802
 41
1.5751597745
 42
3.1415926536
  0
ELLIPSE
  5
5E1
100
AcDbEntity
  8
GUSCI_ESTERNI
100
AcDbEllipse
 62
7
  6
CONTINUOUS
 10
-8.7358006121
 20
13.9193994374
 30
0.0
 11
0.9860557856
 21
0.0000000002
 31
0.0
 40
0.9999904802
 41
3.1415926534
 42
4.7080255324
  0
ELLIPSE
  5
5E2
100
AcDbEntity
  8
GUSCI_ESTERNI
100
AcDbEllipse
 62
7
  6
CONTINUOUS
 10
-8.7358006121
 20
16.4193994374
 30
0.0
 11
0.9860557856
 21
-0.0
 31
0.0
 40
0.9999904802
 41
1.5751597745
 42
3.1415926536
  0
ELLIPSE
  5
5E3
100
AcDbEntity
  8
GUSCI_ESTERNI
100
AcDbEllipse
 62
7
  6
CONTINUOUS
 10
-8.7358006121
 20
-16.3806005626
 30
0.0
 11
0.9860557856
 21
-0.0
 31
0.0
 40
0.9999904802
 41
3.1415926536
 42
4.7080255327
  0
ELLIPSE
  5
5E4
100
AcDbEntity
  8
ASSI
100
AcDbEllipse
 62
7
  6
CONTINUOUS
 10
-0.0813763335
 20
20.7780882268
 30
0.0
 11
-0.0
 21
1.0
 31
0.0
 40
0.0087268678
 41
0.0087266463
 42
1.5707963268
  0
ELLIPSE
  5
5E5
100
AcDbEntity
  8
ASSI
100
AcDbEllipse
 62
7
  6
CONTINUOUS
 10
-1.2988300691
 20
20.7780882268
 30
0.0
 11
0.0
 21
1.0
 31
0.0
 40
0.0087268678
 41
-1.5707963268
 42
-0.0087266463
  0
ELLIPSE
  5
5E6
100
AcDbEntity
  8
ASSI
100
AcDbEllipse
 62
7
  6
CONTINUOUS
 10
-2.3227065833
 20
-16.1479971806
 30
0.0
 11
-1.0607409467
 21
1.0607409467
 31
0.0
 40
0.9999238505
 41
-3.9269527408
 42
-2.3562325664
  0
ELLIPSE
  5
5E7
100
AcDbEntity
  8
ASSI
100
AcDbEllipse
 62
7
  6
CONTINUOUS
 10
-2.3227065833
 20
-14.1132039446
 30
0.0
 11
1.0607409467
 21
1.0607409467
 31
0.0
 40
0.9999238505
 41
-0.7853600872
 42
0.7853600872
  0
ELLIPSE
  5
5E8
100
AcDbEntity
  8
ASSI
100
AcDbEllipse
 62
7
  6
CONTINUOUS
 10
2.1425001807
 20
-14.1132039446
 30
0.0
 11
-1.0607409467
 21
1.0607409467
 31
0.0
 40
0.9999238505
 41
-0.7853600872
 42
0.7853600872
  0
ELLIPSE
  5
5E9
100
AcDbEntity
  8
ASSI
100
AcDbEllipse
 62
7
  6
CONTINUOUS
 10
2.1425001807
 20
-16.1479971806
 30
0.0
 11
1.0607409467
 21
1.0607409467
 31
0.0
 40
0.9999238505
 41
-3.9269527408
 42
-2.3562325664
  0
ELLIPSE
  5
5EA
100
AcDbEntity
  8
ASSI
100
AcDbEllipse
 62
7
  6
CONTINUOUS
 10
2.1599539163
 20
-16.130543445
 30
0.0
 11
-1.0607409467
 21
-1.0607409467
 31
0.0
 40
0.9999238505
 41
-0.7853600872
 42
0.7853600872
  0
ELLIPSE
  5
5EB
100
AcDbEntity
  8
ASSI
100
AcDbEllipse
 62
7
  6
CONTINUOUS
 10
2.1599539163
 20
-14.1306576802
 30
0.0
 11
-1.0607409467
 21
1.0607409467
 31
0.0
 40
0.9999238505
 41
-0.7853600872
 42
0.7853600872
  0
ELLIPSE
  5
5EC
100
AcDbEntity
  8
ASSI
100
AcDbEllipse
 62
7
  6
CONTINUOUS
 10
-1.2944666352
 20
19.7736867145
 30
0.0
 11
-0.0
 21
2.0
 31
0.0
 40
0.0087268678
 41
-1.5707963268
 42
-0.0087266463
  0
ELLIPSE
  5
5ED
100
AcDbEntity
  8
ASSI
100
AcDbEllipse
 62
7
  6
CONTINUOUS
 10
-1.2857397674
 20
-9.9850020749
 30
0.0
 11
0.0
 21
1.0
 31
0.0
 40
0.0087268678
 41
-1.5707963268
 42
-0.0087266463
  0
ELLIPSE
  5
5EE
100
AcDbEntity
  8
ASSI
100
AcDbEllipse
 62
7
  6
CONTINUOUS
 10
-0.0857397674
 20
19.7736867145
 30
0.0
 11
-0.0
 21
2.0
 31
0.0
 40
0.0087268678
 41
0.0087266463
 42
1.5707963268
  0
ELLIPSE
  5
5EF
100
AcDbEntity
  8
ASSI
100
AcDbEllipse
 62
7
  6
CONTINUOUS
 10
-0.0944666352
 20
-9.9850020749
 30
0.0
 11
-0.0
 21
1.0
 31
0.0
 40
0.0087268678
 41
0.0087266463
 42
1.5707963268
  0
ELLIPSE
  5
5F0
100
AcDbEntity
  8
ASSI
100
AcDbEllipse
 62
7
  6
CONTINUOUS
 10
-2.3401603189
 20
-14.1306576802
 30
0.0
 11
1.0607409467
 21
1.0607409467
 31
-0.0
 40
0.9999238505
 41
-0.7853600872
 42
0.7853600872
  0
ELLIPSE
  5
5F1
100
AcDbEntity
  8
ASSI
100
AcDbEllipse
 62
7
  6
CONTINUOUS
 10
-2.3401603189
 20
-16.130543445
 30
0.0
 11
1.0607409467
 21
-1.0607409467
 31
-0.0
 40
0.9999238505
 41
-0.7853600872
 42
0.7853600872
  0
ELLIPSE
  5
5F2
100
AcDbEntity
  8
ASSI
100
AcDbEllipse
 62
7
  6
CONTINUOUS
 10
2.1598967987
 20
-16.0998241562
 30
0.0
 11
-0.0
 21
1.0307764064
 31
0.0
 40
0.9701425001
 41
1.5707963268
 42
3.1415926536
  0
ELLIPSE
  5
5F3
100
AcDbEntity
  8
ASSI
100
AcDbEllipse
 62
7
  6
CONTINUOUS
 10
2.1598967987
 20
-14.161376969
 30
0.0
 11
0.0
 21
1.0307764064
 31
0.0
 40
0.9701425001
 41
0.0
 42
1.5707963268
  0
ELLIPSE
  5
5F4
100
AcDbEntity
  8
ASSI
100
AcDbEllipse
 62
7
  6
CONTINUOUS
 10
2.1598967987
 20
16.138623031
 30
0.0
 11
0.0
 21
1.0307764064
 31
0.0
 40
0.9701425001
 41
0.0
 42
1.5707963268
  0
ELLIPSE
  5
5F5
100
AcDbEntity
  8
ASSI
100
AcDbEllipse
 62
7
  6
CONTINUOUS
 10
2.1598967987
 20
14.2001758438
 30
0.0
 11
0.0
 21
1.0307764064
 31
0.0
 40
0.9701425001
 41
1.5707963268
 42
3.1415926536
  0
ELLIPSE
  5
5F6
100
AcDbEntity
  8
GUSCI_ESTERNI
100
AcDbEllipse
 62
7
  6
CONTINUOUS
 10
8.5077300651
 20
16.1693994374
 30
0.0
 11
0.9931323188
 21
0.0
 31
0.0
 40
0.9999976201
 41
6.2831853072
 42
7.8517999153
  0
ELLIPSE
  5
5F7
100
AcDbEntity
  8
GUSCI_ESTERNI
100
AcDbEllipse
 62
7
  6
CONTINUOUS
 10
8.5077300651
 20
14.1693994374
 30
0.0
 11
0.9931323188
 21
0.0
 31
0.0
 40
0.9999976201
 41
-1.5686146081
 42
-0.0
  0
ELLIPSE
  5
5F8
100
AcDbEntity
  8
GUSCI_ESTERNI
100
AcDbEllipse
 62
7
  6
CONTINUOUS
 10
8.5077300651
 20
-14.1306005626
 30
0.0
 11
0.9931323188
 21
-0.0
 31
0.0
 40
0.9999976201
 41
0.0
 42
1.5686146081
  0
ELLIPSE
  5
5F9
100
AcDbEntity
  8
GUSCI_ESTERNI
100
AcDbEllipse
 62
7
  6
CONTINUOUS
 10
8.5077300651
 20
-16.1306005626
 30
0.0
 11
0.9931323188
 21
0.0
 31
0.0
 40
0.9999976201
 41
-1.5686146081
 42
-0.0000000001
  0
ELLIPSE
  5
5FA
100
AcDbEntity
  8
ASSI
100
AcDbEllipse
 62
7
  6
CONTINUOUS
 10
8.5077300651
 20
16.1693994374
 30
0.0
 11
0.9931323188
 21
0.0
 31
0.0
 40
0.9999976201
 41
6.2831853072
 42
7.8517999153
  0
ELLIPSE
  5
5FB
100
AcDbEntity
  8
ASSI
100
AcDbEllipse
 62
7
  6
CONTINUOUS
 10
8.5077300651
 20
-16.1306005626
 30
0.0
 11
0.9931323188
 21
-0.0
 31
0.0
 40
0.9999976201
 41
-1.5686146081
 42
-0.0000000001
  0
ELLIPSE
  5
5FC
100
AcDbEntity
  8
ASSI
100
AcDbEllipse
 62
7
  6
CONTINUOUS
 10
8.5077300651
 20
-14.1306005626
 30
0.0
 11
0.9931323188
 21
-0.0
 31
0.0
 40
0.9999976201
 41
0.0
 42
1.5686146081
  0
ELLIPSE
  5
5FD
100
AcDbEntity
  8
ASSI
100
AcDbEllipse
 62
7
  6
CONTINUOUS
 10
8.5077300651
 20
14.1693994374
 30
0.0
 11
0.9931323188
 21
-0.0000000006
 31
0.0
 40
0.9999976201
 41
4.714570699
 42
6.2831853078
  0
ELLIPSE
  5
5FE
100
AcDbEntity
  8
0
100
AcDbEllipse
 62
7
  6
CONTINUOUS
 10
7.9781218884
 20
22.4554694023
 30
0.0
 11
0.20090327
 21
0.0027587982
 31
0.0
 40
0.1416374191
 41
-1.6674458463
 42
-1.3711529984
  0
ELLIPSE
  5
5FF
100
AcDbEntity
  8
0
100
AcDbEllipse
 62
7
  6
CONTINUOUS
 10
7.959893414
 20
22.6196739066
 30
0.0
 11
-0.0220972656
 21
0.1990550872
 31
0.0
 40
0.9986126811
 41
-2.9557058086
 42
-1.6815068062
  0
ELLIPSE
  5
600
100
AcDbEntity
  8
0
100
AcDbEllipse
 62
7
  6
CONTINUOUS
 10
-8.158328291
 20
-22.4166705275
 30
0.0
 11
0.20090327
 21
0.0027587982
 31
0.0
 40
0.1416374191
 41
1.4741468073
 42
1.7704396552
  0
ELLIPSE
  5
601
100
AcDbEntity
  8
0
100
AcDbEllipse
 62
7
  6
CONTINUOUS
 10
-8.1400998166
 20
-22.5808750318
 30
0.0
 11
-0.0220972656
 21
0.1990550872
 31
0.0
 40
0.9986126811
 41
0.185886845
 42
1.4600858474
  0
ELLIPSE
  5
602
100
AcDbEntity
  8
0
100
AcDbEllipse
 62
7
  6
CONTINUOUS
 10
7.959893414
 20
-22.5808750318
 30
0.0
 11
0.0220972656
 21
0.1990550872
 31
0.0
 40
0.9986126811
 41
-1.4600858474
 42
-0.185886845
  0
ELLIPSE
  5
603
100
AcDbEntity
  8
0
100
AcDbEllipse
 62
7
  6
CONTINUOUS
 10
7.9781218884
 20
-22.4166705275
 30
0.0
 11
0.20090327
 21
-0.0027587982
 31
0.0
 40
0.1416374191
 41
1.3711529984
 42
1.6674458463
  0
ELLIPSE
  5
604
100
AcDbEntity
  8
0
100
AcDbEllipse
 62
7
  6
CONTINUOUS
 10
-8.1400998166
 20
22.6196739066
 30
0.0
 11
0.0220972656
 21
0.1990550872
 31
0.0
 40
0.9986126811
 41
-4.601678501
 42
-3.3274794986
  0
ELLIPSE
  5
605
100
AcDbEntity
  8
0
100
AcDbEllipse
 62
7
  6
CONTINUOUS
 10
-8.158328291
 20
22.4554694023
 30
0.0
 11
0.20090327
 21
-0.0027587982
 31
0.0
 40
0.1416374191
 41
-1.7704396552
 42
-1.4741468073
  0
ELLIPSE
  5
606
100
AcDbEntity
  8
0
100
AcDbEllipse
 62
7
  6
CONTINUOUS
 10
3.8378667864
 20
-22.3232473256
 30
0.0
 11
0.4279699877
 21
-0.0
 31
0.0
 40
0.0087268678
 41
0.0058177642
 42
3.1415926536
  0
ELLIPSE
  5
607
100
AcDbEntity
  8
0
100
AcDbEllipse
 62
7
  6
CONTINUOUS
 10
-4.018073189
 20
-22.3232473256
 30
0.0
 11
0.4279699877
 21
-0.0
 31
0.0
 40
0.0087268678
 41
-0.0
 42
3.1357748894
  0
ELLIPSE
  5
608
100
AcDbEntity
  8
0
100
AcDbEllipse
 62
7
  6
CONTINUOUS
 10
3.8378667864
 20
22.3620462004
 30
0.0
 11
0.4279699877
 21
0.0
 31
0.0
 40
0.0087268678
 41
-3.1415926536
 42
-0.0058177642
  0
ELLIPSE
  5
609
100
AcDbEntity
  8
0
100
AcDbEllipse
 62
7
  6
CONTINUOUS
 10
-4.018073189
 20
22.3620462004
 30
0.0
 11
0.4279699877
 21
-0.0
 31
0.0
 40
0.0087268678
 41
-3.1357748894
 42
-0.0
  0
ELLIPSE
  5
60A
100
AcDbEntity
  8
0
100
AcDbEllipse
 62
7
  6
CONTINUOUS
 10
-10.7225719724
 20
21.928107266
 30
0.0
 11
0.4473055582
 21
0.2236357461
 31
0.0
 40
0.9998096356
 41
1.1071030277
 42
1.3309505
  0
ELLIPSE
  5
60B
100
AcDbEntity
  8
0
100
AcDbEllipse
 62
7
  6
CONTINUOUS
 10
-10.7400270373
 20
21.9193803982
 30
0.0
 11
0.4473055582
 21
0.2236357461
 31
0.0
 40
0.9998096356
 41
7.3902883349
 42
8.9612369607
  0
ELLIPSE
  5
60C
100
AcDbEntity
  8
0
100
AcDbEllipse
 62
7
  6
CONTINUOUS
 10
-10.7225719724
 20
-21.8893083912
 30
0.0
 11
0.4473055582
 21
-0.2236357461
 31
0.0
 40
0.9998096356
 41
-1.3309505
 42
-1.1071030277
  0
ELLIPSE
  5
60D
100
AcDbEntity
  8
0
100
AcDbEllipse
 62
7
  6
CONTINUOUS
 10
10.5423655697
 20
21.928107266
 30
0.0
 11
0.4473055582
 21
-0.2236357461
 31
0.0
 40
0.9998096356
 41
1.8106421536
 42
2.0344896259
  0
ELLIPSE
  5
60E
100
AcDbEntity
  8
0
100
AcDbEllipse
 62
7
  6
CONTINUOUS
 10
10.5423655697
 20
-21.8893083912
 30
0.0
 11
0.4473055582
 21
0.2236357461
 31
0.0
 40
0.9998096356
 41
-2.0344896259
 42
-1.8106421536
  0
ELLIPSE
  5
60F
100
AcDbEntity
  8
0
100
AcDbEllipse
 62
7
  6
CONTINUOUS
 10
10.5598206347
 20
-21.8805815234
 30
0.0
 11
-0.4473055582
 21
-0.2236357461
 31
-0.0
 40
0.9998096356
 41
7.3902883349
 42
8.9612369607
  0
ELLIPSE
  5
610
100
AcDbEntity
  8
0
100
AcDbEllipse
 62
7
  6
CONTINUOUS
 10
10.5598206347
 20
21.9193803982
 30
0.0
 11
0.4473055582
 21
-0.2236357461
 31
0.0
 40
0.9998096356
 41
6.7467263073
 42
8.3176749331
  0
ELLIPSE
  5
611
100
AcDbEntity
  8
0
100
AcDbEllipse
 62
7
  6
CONTINUOUS
 10
-10.7400270373
 20
-21.8805815234
 30
0.0
 11
-0.4473055582
 21
0.2236357461
 31
-0.0
 40
0.9998096356
 41
6.7467263073
 42
8.3176749331
  0
ELLIPSE
  5
612
100
AcDbEntity
  8
0
100
AcDbEllipse
 62
7
  6
CONTINUOUS
 10
10.3098925678
 20
23.4307243028
 30
0.0
 11
-0.0029088041
 21
0.2886641433
 31
0.0
 40
0.8660144118
 41
-3.150319066
 42
-1.582431609
  0
ELLIPSE
  5
613
100
AcDbEntity
  8
0
100
AcDbEllipse
 62
7
  6
CONTINUOUS
 10
8.4099010296
 20
23.4307243028
 30
0.0
 11
0.0029088041
 21
0.2886641433
 31
0.0
 40
0.8660144118
 41
-4.7007536982
 42
-3.1328662412
  0
ELLIPSE
  5
614
100
AcDbEntity
  8
0
100
AcDbEllipse
 62
7
  6
CONTINUOUS
 10
-8.5901074322
 20
23.4307243028
 30
0.0
 11
-0.0029088041
 21
0.2886641433
 31
0.0
 40
0.8660144118
 41
-3.150319066
 42
-1.582431609
  0
ELLIPSE
  5
615
100
AcDbEntity
  8
0
100
AcDbEllipse
 62
7
  6
CONTINUOUS
 10
-10.4900989704
 20
23.4307243028
 30
0.0
 11
0.0029088041
 21
0.2886641433
 31
0.0
 40
0.8660144118
 41
-4.7007536982
 42
-3.1328662412
  0
ELLIPSE
  5
616
100
AcDbEntity
  8
0
100
AcDbEllipse
 62
7
  6
CONTINUOUS
 10
-11.0401032013
 20
-3.403464115
 30
0.0
 11
0.0
 21
0.7248712197
 31
0.0
 40
0.9656887748
 41
-3.1415926536
 42
-2.9982072934
  0
ELLIPSE
  5
617
100
AcDbEntity
  8
0
100
AcDbEllipse
 62
7
  6
CONTINUOUS
 10
-11.0401032013
 20
3.4422629898
 30
0.0
 11
-0.0
 21
0.7248712197
 31
0.0
 40
0.9656887748
 41
-0.1433853602
 42
-0.0
  0
ELLIPSE
  5
618
100
AcDbEntity
  8
0
100
AcDbEllipse
 62
7
  6
CONTINUOUS
 10
10.8598967987
 20
3.4422629898
 30
0.0
 11
-0.0
 21
0.7248712197
 31
0.0
 40
0.9656887748
 41
-0.0
 42
0.1433853602
  0
ELLIPSE
  5
619
100
AcDbEntity
  8
0
100
AcDbEllipse
 62
7
  6
CONTINUOUS
 10
10.8598967987
 20
-3.403464115
 30
0.0
 11
-0.0
 21
0.7248712197
 31
0.0
 40
0.9656887748
 41
-3.2849780138
 42
-3.1415926536
  0
ELLIPSE
  5
61A
100
AcDbEntity
  8
0
100
AcDbEllipse
 62
7
  6
CONTINUOUS
 10
-9.5969716689
 20
-20.3090212075
 30
0.0
 11
-0.0
 21
0.5
 31
0.0
 40
0.0174550649
 41
-3.1328660073
 42
-1.61767183
  0
ELLIPSE
  5
61B
100
AcDbEntity
  8
0
100
AcDbEllipse
 62
7
  6
CONTINUOUS
 10
9.4167652663
 20
-20.3090212075
 30
0.0
 11
0.0
 21
0.5
 31
0.0
 40
0.0174550649
 41
-4.4634352855
 42
-3.1503192998
  0
ELLIPSE
  5
61C
100
AcDbEntity
  8
0
100
AcDbEllipse
 62
7
  6
CONTINUOUS
 10
-9.5969716689
 20
20.3478200823
 30
0.0
 11
0.0
 21
0.5
 31
0.0
 40
0.0174550649
 41
-1.5239208236
 42
-0.0087266463
  0
ELLIPSE
  5
61D
100
AcDbEntity
  8
0
100
AcDbEllipse
 62
7
  6
CONTINUOUS
 10
8.4099010296
 20
-23.391925428
 30
0.0
 11
-0.0029088041
 21
0.2886641433
 31
0.0
 40
0.8660144118
 41
-0.0087264124
 42
1.5591610446
  0
ELLIPSE
  5
61E
100
AcDbEntity
  8
0
100
AcDbEllipse
 62
7
  6
CONTINUOUS
 10
9.4167652663
 20
20.3478200823
 30
0.0
 11
0.0
 21
0.5
 31
0.0
 40
0.0174550649
 41
0.0087266463
 42
1.3218426319
  0
ELLIPSE
  5
61F
100
AcDbEntity
  8
0
100
AcDbEllipse
 62
7
  6
CONTINUOUS
 10
-8.5901074322
 20
-23.391925428
 30
0.0
 11
0.0029088041
 21
0.2886641433
 31
0.0
 40
0.8660144118
 41
-1.5591610446
 42
0.0087264124
  0
ELLIPSE
  5
620
100
AcDbEntity
  8
0
100
AcDbEllipse
 62
7
  6
CONTINUOUS
 10
10.3098925678
 20
-23.391925428
 30
0.0
 11
0.0029088041
 21
0.2886641433
 31
0.0
 40
0.8660144118
 41
-1.5591610446
 42
0.0087264124
  0
ELLIPSE
  5
621
100
AcDbEntity
  8
0
100
AcDbEllipse
 62
7
  6
CONTINUOUS
 10
-10.4900989704
 20
-23.391925428
 30
0.0
 11
-0.0029088041
 21
0.2886641433
 31
0.0
 40
0.8660144118
 41
-0.0087264124
 42
1.5591610446
  0
ELLIPSE
  5
622
100
AcDbEntity
  8
0
100
AcDbEllipse
 62
7
  6
CONTINUOUS
 10
-4.4464694777
 20
23.2757572521
 30
0.0
 11
0.0
 21
0.5
 31
0.0
 40
0.0058178298
 41
-0.149597008
 42
-0.0058177642
  0
ELLIPSE
  5
623
100
AcDbEntity
  8
0
100
AcDbEllipse
 62
7
  6
CONTINUOUS
 10
4.2662630751
 20
23.2757572521
 30
0.0
 11
0.0
 21
0.5
 31
0.0
 40
0.0058178298
 41
0.0058177642
 42
0.149597008
  0
ELLIPSE
  5
624
100
AcDbEntity
  8
0
100
AcDbEllipse
 62
7
  6
CONTINUOUS
 10
4.2662630751
 20
-23.2369583773
 30
0.0
 11
0.0
 21
0.5
 31
0.0
 40
0.0058178298
 41
-3.2911896616
 42
-3.1474104178
  0
ELLIPSE
  5
625
100
AcDbEntity
  8
0
100
AcDbEllipse
 62
7
  6
CONTINUOUS
 10
-4.4464694777
 20
-23.2369583773
 30
0.0
 11
-0.0
 21
0.5
 31
0.0
 40
0.0058178298
 41
-3.1357748894
 42
-2.9919956456
  0
ELLIPSE
  5
626
100
AcDbEntity
  8
RACCORDO
100
AcDbEllipse
 62
7
  6
CONTINUOUS
 10
-8.158328291
 20
-22.4166705275
 30
0.0
 11
0.20090327
 21
0.0027587982
 31
0.0
 40
0.1416374191
 41
1.4741468073
 42
1.7704396552
  0
ELLIPSE
  5
627
100
AcDbEntity
  8
RACCORDO
100
AcDbEllipse
 62
7
  6
CONTINUOUS
 10
-8.1400998166
 20
-22.5808750318
 30
0.0
 11
-0.0220972656
 21
0.1990550872
 31
0.0
 40
0.9986126811
 41
0.185886845
 42
1.4600858474
  0
ELLIPSE
  5
628
100
AcDbEntity
  8
RACCORDO
100
AcDbEllipse
 62
7
  6
CONTINUOUS
 10
7.9781218884
 20
22.4554694023
 30
0.0
 11
0.20090327
 21
0.0027587982
 31
0.0
 40
0.1416374191
 41
-1.6674458463
 42
-1.3711529984
  0
ELLIPSE
  5
629
100
AcDbEntity
  8
RACCORDO
100
AcDbEllipse
 62
7
  6
CONTINUOUS
 10
7.959893414
 20
22.6196739066
 30
0.0
 11
-0.0220972656
 21
0.1990550872
 31
0.0
 40
0.9986126811
 41
-2.9557058086
 42
-1.6815068062
  0
ELLIPSE
  5
62A
100
AcDbEntity
  8
RACCORDO
100
AcDbEllipse
 62
7
  6
CONTINUOUS
 10
-8.1400998166
 20
22.6196739066
 30
0.0
 11
0.0220972656
 21
0.1990550872
 31
0.0
 40
0.9986126811
 41
-4.601678501
 42
-3.3274794986
  0
ELLIPSE
  5
62B
100
AcDbEntity
  8
RACCORDO
100
AcDbEllipse
 62
7
  6
CONTINUOUS
 10
-8.158328291
 20
22.4554694023
 30
0.0
 11
0.20090327
 21
-0.0027587982
 31
0.0
 40
0.1416374191
 41
-1.7704396552
 42
-1.4741468073
  0
ELLIPSE
  5
62C
100
AcDbEntity
  8
RACCORDO
100
AcDbEllipse
 62
7
  6
CONTINUOUS
 10
7.959893414
 20
-22.5808750318
 30
0.0
 11
0.0220972656
 21
0.1990550872
 31
0.0
 40
0.9986126811
 41
-1.4600858474
 42
-0.185886845
  0
ELLIPSE
  5
62D
100
AcDbEntity
  8
RACCORDO
100
AcDbEllipse
 62
7
  6
CONTINUOUS
 10
7.9781218884
 20
-22.4166705275
 30
0.0
 11
0.20090327
 21
-0.0027587982
 31
0.0
 40
0.1416374191
 41
1.3711529984
 42
1.6674458463
  0
ELLIPSE
  5
62E
100
AcDbEntity
  8
RACCORDO
100
AcDbEllipse
 62
7
  6
CONTINUOUS
 10
10.8598967987
 20
3.4422629898
 30
0.0
 11
-0.0
 21
0.7248712197
 31
0.0
 40
0.9656887748
 41
0.0
 42
0.1433853602
  0
ELLIPSE
  5
62F
100
AcDbEntity
  8
RACCORDO
100
AcDbEllipse
 62
7
  6
CONTINUOUS
 10
10.8598967987
 20
-3.403464115
 30
0.0
 11
-0.0
 21
0.7248712197
 31
0.0
 40
0.9656887748
 41
-3.2849780138
 42
-3.1415926536
  0
ELLIPSE
  5
630
100
AcDbEntity
  8
RACCORDO
100
AcDbEllipse
 62
7
  6
CONTINUOUS
 10
-11.0401032013
 20
-3.403464115
 30
0.0
 11
0.0
 21
0.7248712197
 31
0.0
 40
0.9656887748
 41
-3.1415926536
 42
-2.9982072934
  0
ELLIPSE
  5
631
100
AcDbEntity
  8
RACCORDO
100
AcDbEllipse
 62
7
  6
CONTINUOUS
 10
-11.0401032013
 20
3.4422629898
 30
0.0
 11
0.0
 21
0.7248712197
 31
0.0
 40
0.9656887748
 41
-0.1433853602
 42
-0.0
  0
ELLIPSE
  5
632
100
AcDbEntity
  8
RACCORDO
100
AcDbEllipse
 62
7
  6
CONTINUOUS
 10
9.4167652663
 20
20.3478200823
 30
0.0
 11
0.0
 21
0.5
 31
0.0
 40
0.0174550649
 41
0.0087266463
 42
1.3218426319
  0
ELLIPSE
  5
633
100
AcDbEntity
  8
ASSI
100
AcDbEllipse
 62
7
  6
CONTINUOUS
 10
4.2662630751
 20
-23.2369583773
 30
0.0
 11
0.0
 21
0.5
 31
0.0
 40
0.0058178298
 41
-3.2911896616
 42
-3.1474104178
  0
ELLIPSE
  5
634
100
AcDbEntity
  8
ASSI
100
AcDbEllipse
 62
7
  6
CONTINUOUS
 10
-4.4464694777
 20
-23.2369583773
 30
0.0
 11
0.0
 21
0.5
 31
0.0
 40
0.0058178298
 41
-3.1357748894
 42
-2.9919956456
  0
ELLIPSE
  5
635
100
AcDbEntity
  8
ASSI
100
AcDbEllipse
 62
7
  6
CONTINUOUS
 10
-4.4464694777
 20
23.2757572521
 30
0.0
 11
0.0
 21
0.5
 31
0.0
 40
0.0058178298
 41
-0.149597008
 42
-0.0058177642
  0
ELLIPSE
  5
636
100
AcDbEntity
  8
ASSI
100
AcDbEllipse
 62
7
  6
CONTINUOUS
 10
4.2662630751
 20
23.2757572521
 30
0.0
 11
0.0
 21
0.5
 31
0.0
 40
0.0058178298
 41
0.0058177642
 42
0.149597008
  0
ELLIPSE
  5
637
100
AcDbEntity
  8
RACCORDO
100
AcDbEllipse
 62
7
  6
CONTINUOUS
 10
-9.5969716689
 20
20.3478200823
 30
0.0
 11
0.0
 21
0.5
 31
0.0
 40
0.0174550649
 41
-1.5239208236
 42
-0.0087266463
  0
ELLIPSE
  5
638
100
AcDbEntity
  8
RACCORDO
100
AcDbEllipse
 62
7
  6
CONTINUOUS
 10
9.4167652663
 20
-20.3090212075
 30
0.0
 11
0.0
 21
0.5
 31
0.0
 40
0.0174550649
 41
-4.4634352855
 42
-3.1503192998
  0
ELLIPSE
  5
639
100
AcDbEntity
  8
RACCORDO
100
AcDbEllipse
 62
7
  6
CONTINUOUS
 10
-9.5969716689
 20
-20.3090212075
 30
0.0
 11
-0.0
 21
0.5
 31
0.0
 40
0.0174550649
 41
-3.1328660073
 42
-1.61767183
  0
ELLIPSE
  5
63A
100
AcDbEntity
  8
RACCORDO
100
AcDbEllipse
 62
7
  6
CONTINUOUS
 10
8.4099010296
 20
23.4307243028
 30
0.0
 11
0.0029088041
 21
0.2886641433
 31
0.0
 40
0.8660144118
 41
-4.7007536982
 42
-3.1328662411
  0
ELLIPSE
  5
63B
100
AcDbEntity
  8
DRAFT
100
AcDbEllipse
 62
7
  6
CONTINUOUS
 10
-4.018073189
 20
22.3620462004
 30
0.0
 11
0.4279699877
 21
-0.0
 31
0.0
 40
0.0087268678
 41
-3.1357748894
 42
-0.0
  0
ELLIPSE
  5
63C
100
AcDbEntity
  8
DRAFT
100
AcDbEllipse
 62
7
  6
CONTINUOUS
 10
3.8378667864
 20
22.3620462004
 30
0.0
 11
0.4279699877
 21
-0.0
 31
0.0
 40
0.0087268678
 41
-3.1415926536
 42
-0.0058177642
  0
ELLIPSE
  5
63D
100
AcDbEntity
  8
DRAFT
100
AcDbEllipse
 62
7
  6
CONTINUOUS
 10
-4.018073189
 20
-22.3232473256
 30
0.0
 11
0.4279699877
 21
0.0
 31
0.0
 40
0.0087268678
 41
-0.0
 42
3.1357748894
  0
ELLIPSE
  5
63E
100
AcDbEntity
  8
DRAFT
100
AcDbEllipse
 62
7
  6
CONTINUOUS
 10
3.8378667864
 20
-22.3232473256
 30
0.0
 11
0.4279699877
 21
-0.0
 31
0.0
 40
0.0087268678
 41
0.0058177642
 42
3.1415926536
  0
ELLIPSE
  5
63F
100
AcDbEntity
  8
RACCORDO
100
AcDbEllipse
 62
7
  6
CONTINUOUS
 10
10.3098925678
 20
23.4307243028
 30
0.0
 11
-0.0029088041
 21
0.2886641433
 31
0.0
 40
0.8660144118
 41
-3.150319066
 42
-1.582431609
  0
ELLIPSE
  5
640
100
AcDbEntity
  8
RACCORDO
100
AcDbEllipse
 62
7
  6
CONTINUOUS
 10
10.5423655697
 20
-21.8893083912
 30
0.0
 11
0.4473055582
 21
0.2236357461
 31
0.0
 40
0.9998096356
 41
-2.0344896259
 42
-1.8106421536
  0
ELLIPSE
  5
641
100
AcDbEntity
  8
RACCORDO
100
AcDbEllipse
 62
7
  6
CONTINUOUS
 10
10.5598206347
 20
-21.8805815234
 30
0.0
 11
-0.4473055582
 21
-0.2236357461
 31
0.0
 40
0.9998096356
 41
7.3902883349
 42
8.9612369607
  0
ELLIPSE
  5
642
100
AcDbEntity
  8
RACCORDO
100
AcDbEllipse
 62
7
  6
CONTINUOUS
 10
10.5423655697
 20
21.928107266
 30
0.0
 11
0.4473055582
 21
-0.2236357461
 31
0.0
 40
0.9998096356
 41
1.8106421536
 42
2.0344896259
  0
ELLIPSE
  5
643
100
AcDbEntity
  8
RACCORDO
100
AcDbEllipse
 62
7
  6
CONTINUOUS
 10
-10.4900989704
 20
23.4307243028
 30
0.0
 11
0.0029088041
 21
0.2886641433
 31
0.0
 40
0.8660144118
 41
-4.7007536982
 42
-3.1328662412
  0
ELLIPSE
  5
644
100
AcDbEntity
  8
RACCORDO
100
AcDbEllipse
 62
7
  6
CONTINUOUS
 10
-10.7225719724
 20
-21.8893083912
 30
0.0
 11
0.4473055582
 21
-0.2236357461
 31
0.0
 40
0.9998096356
 41
-1.3309505
 42
-1.1071030277
  0
ELLIPSE
  5
645
100
AcDbEntity
  8
RACCORDO
100
AcDbEllipse
 62
7
  6
CONTINUOUS
 10
-10.7225719724
 20
21.928107266
 30
0.0
 11
0.4473055582
 21
0.2236357461
 31
0.0
 40
0.9998096356
 41
1.1071030276
 42
1.3309505
  0
ELLIPSE
  5
646
100
AcDbEntity
  8
RACCORDO
100
AcDbEllipse
 62
7
  6
CONTINUOUS
 10
-10.7400270373
 20
21.9193803982
 30
0.0
 11
0.4473055582
 21
0.2236357461
 31
-0.0
 40
0.9998096356
 41
7.3902883349
 42
8.9612369607
  0
ELLIPSE
  5
647
100
AcDbEntity
  8
RACCORDO
100
AcDbEllipse
 62
7
  6
CONTINUOUS
 10
-8.5901074322
 20
23.4307243028
 30
0.0
 11
-0.0029088041
 21
0.2886641433
 31
0.0
 40
0.8660144118
 41
-3.150319066
 42
-1.582431609
  0
ELLIPSE
  5
648
100
AcDbEntity
  8
RACCORDO
100
AcDbEllipse
 62
7
  6
CONTINUOUS
 10
-10.7400270373
 20
-21.8805815234
 30
0.0
 11
-0.4473055582
 21
0.2236357461
 31
0.0
 40
0.9998096356
 41
6.7467263073
 42
8.3176749331
  0
ELLIPSE
  5
649
100
AcDbEntity
  8
RACCORDO
100
AcDbEllipse
 62
7
  6
CONTINUOUS
 10
10.5598206347
 20
21.9193803982
 30
0.0
 11
0.4473055582
 21
-0.2236357461
 31
-0.0
 40
0.9998096356
 41
6.7467263073
 42
8.3176749331
  0
ELLIPSE
  5
64A
100
AcDbEntity
  8
RACCORDO
100
AcDbEllipse
 62
7
  6
CONTINUOUS
 10
10.3098925678
 20
-23.391925428
 30
0.0
 11
0.0029088041
 21
0.2886641433
 31
0.0
 40
0.8660144118
 41
-1.5591610446
 42
0.0087264124
  0
ELLIPSE
  5
64B
100
AcDbEntity
  8
RACCORDO
100
AcDbEllipse
 62
7
  6
CONTINUOUS
 10
8.4099010296
 20
-23.391925428
 30
0.0
 11
-0.0029088041
 21
0.2886641433
 31
0.0
 40
0.8660144118
 41
-0.0087264124
 42
1.5591610446
  0
ELLIPSE
  5
64C
100
AcDbEntity
  8
RACCORDO
100
AcDbEllipse
 62
7
  6
CONTINUOUS
 10
-10.4900989704
 20
-23.391925428
 30
0.0
 11
-0.0029088041
 21
0.2886641433
 31
0.0
 40
0.8660144118
 41
-0.0087264124
 42
1.5591610446
  0
ELLIPSE
  5
64D
100
AcDbEntity
  8
RACCORDO
100
AcDbEllipse
 62
7
  6
CONTINUOUS
 10
-8.5901074322
 20
-23.391925428
 30
0.0
 11
0.0029088041
 21
0.2886641433
 31
0.0
 40
0.8660144118
 41
-1.5591610446
 42
0.0087264124
  0
ENDSEC
  0
SECTION
  2
OBJECTS
  0
DICTIONARY
  5
C
100
AcDbDictionary
280
0
281
1
  3
ACAD_GROUP
350
D
  3
ACAD_MLINESTYLE
350
17
  3
ACAD_LAYOUT
350
1A
  3
ACAD_PLOTSETTINGS
350
19
  3
ACAD_PLOTSTYLENAME
350
E
  0
DICTIONARY
  5
D
102
{ACAD_REACTORS
330
C
102
}
100
AcDbDictionary
280
0
281
1
  0
ACDBDICTIONARYWDFLT
  5
E
102
{ACAD_REACTORS
330
C
102
}
100
AcDbDictionary
281
1
  3
Normal
350
F
100
AcDbDictionaryWithDefault
340
F
  0
DICTIONARY
  5
17
102
{ACAD_REACTORS
330
C
102
}
100
AcDbDictionary
280
0
281
1
  3
Standard
350
18
  0
DICTIONARY
  5
19
102
{ACAD_REACTORS
330
C
102
}
100
AcDbDictionary
281
1
  0
DICTIONARY
  5
1A
102
{ACAD_REACTORS
330
C
102
}
100
AcDbDictionary
281
1
  3
Model
350
64E
  3
Layout1
350
64F
  0
ACDBPLACEHOLDER
  5
F
102
{ACAD_REACTORS
330
E
102
}
  0
MLINESTYLE
  5
18
102
{ACAD_REACTORS
330
17
102
}
100
AcDbMlineStyle
  2
STANDARD
 70
0
  3

 62
256
 51
90.0
 52
90.0
 71
2
 49
0.5
 62
256
  6
BYLAYER
 49
-0.5
 62
256
  6
BYLAYER
  0
LAYOUT
  5
64E
102
{ACAD_REACTORS
330
1A
102
}
100
AcDbPlotSettings
  1

  2
none_device
  4
ISO_A4_(297.00_x_210.00_MM)
  6

 40
0.0
 41
0.0
 42
0.0
 43
0.0
 44
297.0
 45
210.0
 46
0.0
 47
0.0
 48
0.0
 49
0.0
140
0.0
141
0.0
142
1.0
143
1.0
 70
1024
 72
1
 73
0
 74
0
  7

 75
0
147
1.0
148
0.0
149
0.0
100
AcDbLayout
  1
Model
 70
0
 71
0
 10
0.0
 20
0.0
 11
297.0
 21
210.0
 12
0.0
 22
0.0
 32
0.0
 14
0.0
 24
0.0
 34
0.0
 15
0.0
 25
0.0
 35
0.0
146
0.0
 13
0.0
 23
0.0
 33
0.0
 16
1.0
 26
0.0
 36
0.0
 17
0.0
 27
1.0
 37
0.0
 76
0
330
220
345
0
346
0
  0
LAYOUT
  5
64F
102
{ACAD_REACTORS
330
1A
102
}
100
AcDbPlotSettings
  1

  2
none_device
  4
ISO_A4_(297.00_x_210.00_MM)
  6

 40
0.0
 41
0.0
 42
0.0
 43
0.0
 44
297.0
 45
210.0
 46
0.0
 47
0.0
 48
0.0
 49
0.0
140
0.0
141
0.0
142
1.0
143
1.0
 70
0
 72
1
 73
0
 74
0
  7

 75
0
147
1.0
148
0.0
149
0.0
100
AcDbLayout
  1
Layout1
 70
0
 71
1
 10
0.0
 20
0.0
 11
297.0
 21
210.0
 12
0.0
 22
0.0
 32
0.0
 14
0.0
 24
0.0
 34
0.0
 15
0.0
 25
0.0
 35
0.0
146
0.0
 13
0.0
 23
0.0
 33
0.0
 16
1.0
 26
0.0
 36
0.0
 17
0.0
 27
1.0
 37
0.0
 76
0
330
221
345
0
346
0
  0
ENDSEC
  0
EOF
