0
SECTION
2
HEADER
9
$ACADVER
1
AC1014
9
$HANDSEED
5
       392
9
$EXTMAX
10
297.0000000000
20
210.0000000000
9
$EXTMIN
10
0.0000000000
20
0.0000000000
9
$LIMMIN
10
0.0000000000
20
0.0000000000
9
$LIMMAX
10
297.0000000000
20
210.0000000000
9
$VIEWCTR
10
148.5000000000
20
105.0000000000
9
$VIEWSIZE
40
210.0000000000
9
$CLAYER
8
0
9
$LTSCALE
40
16.3350000000
9
$CELTYPE
6
BYLAYER
9
$DIMSCALE
40
1
9
$DIMASZ
40
3.0000000000
9
$DIMEXO
40
1.8562500000
9
$DIMDLI
40
11.2860000000
9
$DIMEXE
40
5.3460000000
9
$DIMCEN
40
2.6730000000
9
$DIMLFAC
40
1.0000000000
9
$DIMTXT
40
3.0000000000
9
$DIMTOL
70
1
9
$DIMLIM
70
0
9
$DIMTFAC
40
1.0000000000
9
$DIMTP
40
0.0100000000
9
$DIMTM
40
0.0100000000
9
$MEASUREMENT
70
1
0
ENDSEC
0
SECTION
2
CLASSES
0
ENDSEC
0
SECTION
2
TABLES
0
TABLE
2
VPORT
5
8
100
AcDbSymbolTable
70
2
0
VPORT
5
1F4
100
AcDbSymbolTableRecord
100
AcDbViewportTableRecord
2
*ACTIVE
70
0
10
0.0
20
0.0
11
1.0
21
1.0
12
148.5000000000
22
105.0000000000
13
0.0
23
0.0
14
1.0
24
1.0
15
0.0
25
0.0
16
0.0
26
0.0
36
1.0
17
0.0
27
0.0
37
0.0
40
210.0000000000
41
1.4142857143
42
50.0
43
0.0
44
0.0
50
0.0
51
0.0
71
0
72
100
73
1
74
1
75
0
76
0
77
0
78
0
0
ENDTAB
0
TABLE
2
LTYPE
5
5
100
AcDbSymbolTable
70
6
0
LTYPE
5
14
100
AcDbSymbolTableRecord
100
AcDbLinetypeTableRecord
2
BYBLOCK
70
0
3

72
65
73
0
40
0.0
0
LTYPE
5
15
100
AcDbSymbolTableRecord
100
AcDbLinetypeTableRecord
2
BYLAYER
70
0
3

72
65
73
0
40
0.0
0
LTYPE
5
16
100
AcDbSymbolTableRecord
100
AcDbLinetypeTableRecord
2
CONTINUOUS
70
64
3
Solid line
72
65
73
0
40
0
0
LTYPE
5
1F5
100
AcDbSymbolTableRecord
100
AcDbLinetypeTableRecord
2
CENTER
70
64
3
____ _ ____ _ ____ _ ____ _ ____ _ ____ _ ____
72
65
73
4
40
0.6
49
0.375
74
0
49
-0.075
74
0
49
0.075
74
0
49
-0.075
74
0
0
LTYPE
5
1F6
100
AcDbSymbolTableRecord
100
AcDbLinetypeTableRecord
2
HIDDEN
70
64
3
- - - - - - - - - - - - - - - - - - - -
72
65
73
2
40
0.2
49
0.1
74
0
49
-0.1
74
0
0
LTYPE
5
1F7
100
AcDbSymbolTableRecord
100
AcDbLinetypeTableRecord
2
PHANTOM
70
64
3
_____ _ _ _____ _ _ _____ _ _ _____
72
65
73
6
40
0.8
49
0.45
74
0
49
-0.05
74
0
49
0.1
74
0
49
-0.05
74
0
49
0.1
74
0
49
-0.05
74
0
0
LTYPE
5
1F8
100
AcDbSymbolTableRecord
100
AcDbLinetypeTableRecord
2
DOT
70
64
3
. . . . . . . . . . . . . . . . . . . .
72
65
73
2
40
0.2
49
0.1
74
0
49
-0.1
74
0
0
LTYPE
5
1F9
100
AcDbSymbolTableRecord
100
AcDbLinetypeTableRecord
2
DASHED
70
64
3
- - - - - - - - - - - - - - - - - - - -
72
65
73
2
40
0.2
49
0.1
74
0
49
-0.1
74
0
0
ENDTAB
0
TABLE
2
LAYER
5
2
100
AcDbSymbolTable
70
36
0
LAYER
5
10
100
AcDbSymbolTableRecord
100
AcDbLayerTableRecord
2
0
70
0
62
7
6
CONTINUOUS
0
LAYER
5
1FA
100
AcDbSymbolTableRecord
100
AcDbLayerTableRecord
2
DEFAULT_1
70
0
62
7
6
CENTER
0
LAYER
5
1FB
100
AcDbSymbolTableRecord
100
AcDbLayerTableRecord
2
DEFAULT_2
70
0
62
8
6
HIDDEN
0
LAYER
5
1FC
100
AcDbSymbolTableRecord
100
AcDbLayerTableRecord
2
DEFAULT_3
70
0
62
7
6
PHANTOM
0
LAYER
5
1FD
100
AcDbSymbolTableRecord
100
AcDbLayerTableRecord
2
_BLACK_HOLE
70
0
62
7
6
CONTINUOUS
0
LAYER
5
1FE
100
AcDbSymbolTableRecord
100
AcDbLayerTableRecord
2
ASSI
70
0
62
7
6
CONTINUOUS
0
LAYER
5
1FF
100
AcDbSymbolTableRecord
100
AcDbLayerTableRecord
2
COLOR5
70
0
62
7
6
CONTINUOUS
0
LAYER
5
200
100
AcDbSymbolTableRecord
100
AcDbLayerTableRecord
2
COORDINATE
70
0
62
7
6
CONTINUOUS
0
LAYER
5
201
100
AcDbSymbolTableRecord
100
AcDbLayerTableRecord
2
COORD_ORIGINE
70
0
62
7
6
CONTINUOUS
0
LAYER
5
202
100
AcDbSymbolTableRecord
100
AcDbLayerTableRecord
2
CURVE
70
0
62
7
6
CONTINUOUS
0
LAYER
5
203
100
AcDbSymbolTableRecord
100
AcDbLayerTableRecord
2
DRAFT
70
0
62
7
6
CONTINUOUS
0
LAYER
5
204
100
AcDbSymbolTableRecord
100
AcDbLayerTableRecord
2
IMP_IGES_SCRITTE
70
0
62
7
6
CONTINUOUS
0
LAYER
5
205
100
AcDbSymbolTableRecord
100
AcDbLayerTableRecord
2
NOTE
70
0
62
7
6
CONTINUOUS
0
LAYER
5
206
100
AcDbSymbolTableRecord
100
AcDbLayerTableRecord
2
PIANI
70
0
62
7
6
CONTINUOUS
0
LAYER
5
207
100
AcDbSymbolTableRecord
100
AcDbLayerTableRecord
2
PIANI_ORIGINE
70
0
62
7
6
CONTINUOUS
0
LAYER
5
208
100
AcDbSymbolTableRecord
100
AcDbLayerTableRecord
2
PUNTI
70
0
62
7
6
CONTINUOUS
0
LAYER
5
209
100
AcDbSymbolTableRecord
100
AcDbLayerTableRecord
2
RACCORDO
70
0
62
7
6
CONTINUOUS
0
LAYER
5
20A
100
AcDbSymbolTableRecord
100
AcDbLayerTableRecord
2
SUPERFICI
70
0
62
7
6
CONTINUOUS
0
LAYER
5
20B
100
AcDbSymbolTableRecord
100
AcDbLayerTableRecord
2
TRASH
70
0
62
7
6
CONTINUOUS
0
LAYER
5
20C
100
AcDbSymbolTableRecord
100
AcDbLayerTableRecord
2
XSEC_DATUMS
70
0
62
7
6
CONTINUOUS
0
ENDTAB
0
TABLE
2
STYLE
5
3
100
AcDbSymbolTable
70
1
0
STYLE
5
11
100
AcDbSymbolTableRecord
100
AcDbTextStyleTableRecord
2
STANDARD
70
0
40
0.0
41
0.8000000000
50
0.0
71
0
42
0.2
3
txt
4

0
ENDTAB
0
TABLE
2
VIEW
5
6
100
AcDbSymbolTable
70
0
0
ENDTAB
0
TABLE
2
UCS
5
7
100
AcDbSymbolTable
70
0
0
ENDTAB
0
TABLE
2
APPID
5
9
100
AcDbSymbolTable
70
1
0
APPID
5
20D
100
AcDbSymbolTableRecord
100
AcDbRegAppTableRecord
2
ACAD
70
0
0
ENDTAB
0
TABLE
2
DIMSTYLE
5
A
100
AcDbSymbolTable
70
1
0
DIMSTYLE
105
20E
100
AcDbSymbolTableRecord
100
AcDbDimStyleTableRecord
2
STANDARD
70
0
3

4

5

6

7

40
1.0
41
3.0000000000
42
0.0625
43
0.38
44
0.18
45
0.0
46
0.0
47
0.0100000000
48
0.0100000000
140
3.0000000000
141
0.09
142
0.0
143
25.4
144
1.0000000000
145
0.0
146
1.0000000000
147
0.09
71
1
72
0
73
0
74
0
75
0
76
0
77
1
78
8
170
0
171
2
172
0
173
0
174
0
175
0
176
0
177
0
178
0
270
2
271
2
272
2
273
2
274
2
340
11
275
0
280
0
281
0
282
0
283
1
284
8
285
0
286
0
287
3
288
0
0
ENDTAB
0
TABLE
2
BLOCK_RECORD
5
1
100
AcDbSymbolTable
70
0
0
BLOCK_RECORD
5
1B
100
AcDbSymbolTableRecord
100
AcDbBlockTableRecord
2
*MODEL_SPACE
0
BLOCK_RECORD
5
1C
100
AcDbSymbolTableRecord
100
AcDbBlockTableRecord
2
*PAPER_SPACE
0
ENDTAB
0
ENDSEC
0
SECTION
2
BLOCKS
0
BLOCK
5
1E
100
AcDbEntity
8
0
100
AcDbBlockBegin
2
*MODEL_SPACE
70
0
10
0.0
20
0.0
30
0.0
3
*MODEL_SPACE
1

0
ENDBLK
5
1F
100
AcDbEntity
8
0
100
AcDbBlockEnd
0
BLOCK
5
20
100
AcDbEntity
8
0
100
AcDbBlockBegin
2
*PAPER_SPACE
70
0
10
0.0
20
0.0
30
0.0
3
*PAPER_SPACE
1

0
ENDBLK
5
21
100
AcDbEntity
8
0
100
AcDbBlockEnd
0
ENDSEC
0
SECTION
2
ENTITIES
0
LINE
5
20F
100
AcDbEntity
8
0
100
AcDbLine
62
7
6
CONTINUOUS
10
-43.3511342539
20
-21.1254221166
11
-43.3511342539
21
26.5745778834
0
LINE
5
210
100
AcDbEntity
8
0
100
AcDbLine
62
7
6
CONTINUOUS
10
-42.4511342539
20
-21.1254221166
11
-42.4511342539
21
26.5745778834
0
LINE
5
211
100
AcDbEntity
8
0
100
AcDbLine
62
9
6
CONTINUOUS
10
-42.3611342539
20
-21.1254221166
11
-42.3611342539
21
26.5745778834
0
LINE
5
212
100
AcDbEntity
8
0
100
AcDbLine
62
9
6
CONTINUOUS
10
-40.3511342539
20
-23.1354221166
11
-40.3511342539
21
-23.2254221166
0
LINE
5
213
100
AcDbEntity
8
0
100
AcDbLine
62
9
6
CONTINUOUS
10
-40.3511342539
20
28.5845778834
11
-40.3511342539
21
28.6745778834
0
LINE
5
214
100
AcDbEntity
8
0
100
AcDbLine
62
7
6
CONTINUOUS
10
-40.2461342539
20
13.1945778834
11
-40.2461342539
21
-7.7454221166
0
LINE
5
215
100
AcDbEntity
8
0
100
AcDbLine
62
7
6
CONTINUOUS
10
-39.8861342539
20
-7.7454221166
11
-39.8861342539
21
13.1945778834
0
POLYLINE
5
216
100
AcDbEntity
8
0
100
AcDb2dPolyline
62
7
6
CONTINUOUS
66
1
70
0
0
VERTEX
5
217
100
AcDbEntity
8
0
100
AcDbVertex
62
7
6
CONTINUOUS
100
AcDb2dVertex
10
-37.5311342539
20
-12.8508304386
0
VERTEX
5
218
100
AcDbEntity
8
0
100
AcDbVertex
62
7
6
CONTINUOUS
100
AcDb2dVertex
10
-37.5311268099
20
-12.8522169080
0
VERTEX
5
219
100
AcDbEntity
8
0
100
AcDbVertex
62
7
6
CONTINUOUS
100
AcDb2dVertex
10
-37.5311064912
20
-12.8535943640
0
VERTEX
5
21A
100
AcDbEntity
8
0
100
AcDbVertex
62
7
6
CONTINUOUS
100
AcDb2dVertex
10
-37.5310732682
20
-12.8549628052
0
VERTEX
5
21B
100
AcDbEntity
8
0
100
AcDbVertex
62
7
6
CONTINUOUS
100
AcDb2dVertex
10
-37.5310271120
20
-12.8563222301
0
VERTEX
5
21C
100
AcDbEntity
8
0
100
AcDbVertex
62
7
6
CONTINUOUS
100
AcDb2dVertex
10
-37.5309679939
20
-12.8576726367
0
VERTEX
5
21D
100
AcDbEntity
8
0
100
AcDbVertex
62
7
6
CONTINUOUS
100
AcDb2dVertex
10
-37.5308958858
20
-12.8590140226
0
SEQEND
5
21E
100
AcDbEntity
8
0
0
LINE
5
21F
100
AcDbEntity
8
0
100
AcDbLine
62
7
6
CONTINUOUS
10
-37.8161342539
20
-11.1462453768
11
-37.8161342539
21
-11.9045988564
0
LINE
5
220
100
AcDbEntity
8
0
100
AcDbLine
62
7
6
CONTINUOUS
10
-37.8161342539
20
16.5954011436
11
-37.8161342539
21
17.3537546232
0
LINE
5
221
100
AcDbEntity
8
0
100
AcDbLine
62
7
6
CONTINUOUS
10
-37.5311342539
20
20.0943985332
11
-37.5311342539
21
18.2999862054
0
LINE
5
222
100
AcDbEntity
8
0
100
AcDbLine
62
7
6
CONTINUOUS
10
-37.5311342539
20
-12.8589818701
11
-37.5311342539
21
-14.6452427665
0
LINE
5
223
100
AcDbEntity
8
0
100
AcDbLine
62
7
6
CONTINUOUS
10
-37.1711342539
20
-14.5021021446
11
-37.1711342539
21
-12.8589818701
0
LINE
5
224
100
AcDbEntity
8
0
100
AcDbLine
62
7
6
CONTINUOUS
10
-37.1711342539
20
18.2999862054
11
-37.1711342539
21
19.9512579113
0
LINE
5
225
100
AcDbEntity
8
0
100
AcDbLine
62
7
6
CONTINUOUS
10
-36.8861342539
20
-11.1462453768
11
-36.8861342539
21
-11.9045988564
0
LINE
5
226
100
AcDbEntity
8
0
100
AcDbLine
62
7
6
CONTINUOUS
10
-36.8861342539
20
16.5954011436
11
-36.8861342539
21
17.3537546232
0
POLYLINE
5
227
100
AcDbEntity
8
0
100
AcDb2dPolyline
62
7
6
CONTINUOUS
66
1
70
0
0
VERTEX
5
228
100
AcDbEntity
8
0
100
AcDbVertex
62
7
6
CONTINUOUS
100
AcDb2dVertex
10
-37.1713726219
20
-12.8590140226
0
VERTEX
5
229
100
AcDbEntity
8
0
100
AcDbVertex
62
7
6
CONTINUOUS
100
AcDb2dVertex
10
-37.1713005138
20
-12.8576726367
0
VERTEX
5
22A
100
AcDbEntity
8
0
100
AcDbVertex
62
7
6
CONTINUOUS
100
AcDb2dVertex
10
-37.1712413957
20
-12.8563222301
0
VERTEX
5
22B
100
AcDbEntity
8
0
100
AcDbVertex
62
7
6
CONTINUOUS
100
AcDb2dVertex
10
-37.1711952395
20
-12.8549628052
0
VERTEX
5
22C
100
AcDbEntity
8
0
100
AcDbVertex
62
7
6
CONTINUOUS
100
AcDb2dVertex
10
-37.1711620165
20
-12.8535943640
0
VERTEX
5
22D
100
AcDbEntity
8
0
100
AcDbVertex
62
7
6
CONTINUOUS
100
AcDb2dVertex
10
-37.1711416978
20
-12.8522169080
0
VERTEX
5
22E
100
AcDbEntity
8
0
100
AcDbVertex
62
7
6
CONTINUOUS
100
AcDb2dVertex
10
-37.1711342539
20
-12.8508304386
0
SEQEND
5
22F
100
AcDbEntity
8
0
0
LINE
5
230
100
AcDbEntity
8
0
100
AcDbLine
62
7
6
CONTINUOUS
10
19.6488657461
20
-24.1254221166
11
-40.3511342539
21
-24.1254221166
0
LINE
5
231
100
AcDbEntity
8
0
100
AcDbLine
62
7
6
CONTINUOUS
10
19.6488657461
20
-23.2254221166
11
-40.3511342539
21
-23.2254221166
0
LINE
5
232
100
AcDbEntity
8
0
100
AcDbLine
62
9
6
CONTINUOUS
10
19.6488657461
20
-23.1354221166
11
-40.3511342539
21
-23.1354221166
0
LINE
5
233
100
AcDbEntity
8
0
100
AcDbLine
62
9
6
CONTINUOUS
10
21.6588657461
20
-21.1254221166
11
21.7488657461
21
-21.1254221166
0
LINE
5
234
100
AcDbEntity
8
0
100
AcDbLine
62
9
6
CONTINUOUS
10
-42.3611342539
20
-21.1254221166
11
-42.4511342539
21
-21.1254221166
0
LINE
5
235
100
AcDbEntity
8
0
100
AcDbLine
62
7
6
CONTINUOUS
10
-30.1211342539
20
-17.8704221166
11
9.4188657461
21
-17.8704221166
0
LINE
5
236
100
AcDbEntity
8
0
100
AcDbLine
62
7
6
CONTINUOUS
10
9.4188657461
20
-17.5104221166
11
-30.1211342539
21
-17.5104221166
0
POLYLINE
5
237
100
AcDbEntity
8
0
100
AcDb2dPolyline
62
7
6
CONTINUOUS
66
1
70
0
0
VERTEX
5
238
100
AcDbEntity
8
0
100
AcDbVertex
62
7
6
CONTINUOUS
100
AcDb2dVertex
10
-38.6765425759
20
-11.3454221166
0
VERTEX
5
239
100
AcDbEntity
8
0
100
AcDbVertex
62
7
6
CONTINUOUS
100
AcDb2dVertex
10
-38.6779277799
20
-11.3454295241
0
VERTEX
5
23A
100
AcDbEntity
8
0
100
AcDbVertex
62
7
6
CONTINUOUS
100
AcDb2dVertex
10
-38.6793044766
20
-11.3454498203
0
VERTEX
5
23B
100
AcDbEntity
8
0
100
AcDbVertex
62
7
6
CONTINUOUS
100
AcDb2dVertex
10
-38.6806726648
20
-11.3454830352
0
VERTEX
5
23C
100
AcDbEntity
8
0
100
AcDbVertex
62
7
6
CONTINUOUS
100
AcDb2dVertex
10
-38.6820323427
20
-11.3455291984
0
VERTEX
5
23D
100
AcDbEntity
8
0
100
AcDbVertex
62
7
6
CONTINUOUS
100
AcDb2dVertex
10
-38.6833835086
20
-11.3455883388
0
VERTEX
5
23E
100
AcDbEntity
8
0
100
AcDbVertex
62
7
6
CONTINUOUS
100
AcDb2dVertex
10
-38.6847261599
20
-11.3456604851
0
SEQEND
5
23F
100
AcDbEntity
8
0
0
LINE
5
240
100
AcDbEntity
8
0
100
AcDbLine
62
7
6
CONTINUOUS
10
-39.4396118656
20
-11.7054221166
11
-38.6846940073
21
-11.7054221166
0
LINE
5
241
100
AcDbEntity
8
0
100
AcDbLine
62
7
6
CONTINUOUS
10
17.9742740682
20
-11.7054221166
11
18.7373433579
21
-11.7054221166
0
LINE
5
242
100
AcDbEntity
8
0
100
AcDbLine
62
7
6
CONTINUOUS
10
17.9742740682
20
-11.3454221166
11
18.4960473021
21
-11.3454221166
0
LINE
5
243
100
AcDbEntity
8
0
100
AcDbLine
62
7
6
CONTINUOUS
10
-38.6846940073
20
-11.3454221166
11
-39.1983158098
21
-11.3454221166
0
POLYLINE
5
244
100
AcDbEntity
8
0
100
AcDb2dPolyline
62
7
6
CONTINUOUS
66
1
70
0
0
VERTEX
5
245
100
AcDbEntity
8
0
100
AcDbVertex
62
7
6
CONTINUOUS
100
AcDb2dVertex
10
-38.6847261599
20
-11.7051837485
0
VERTEX
5
246
100
AcDbEntity
8
0
100
AcDbVertex
62
7
6
CONTINUOUS
100
AcDb2dVertex
10
-38.6833847740
20
-11.7052558566
0
VERTEX
5
247
100
AcDbEntity
8
0
100
AcDbVertex
62
7
6
CONTINUOUS
100
AcDb2dVertex
10
-38.6820343674
20
-11.7053149748
0
VERTEX
5
248
100
AcDbEntity
8
0
100
AcDbVertex
62
7
6
CONTINUOUS
100
AcDb2dVertex
10
-38.6806749425
20
-11.7053611310
0
VERTEX
5
249
100
AcDbEntity
8
0
100
AcDbVertex
62
7
6
CONTINUOUS
100
AcDb2dVertex
10
-38.6793065012
20
-11.7053943539
0
VERTEX
5
24A
100
AcDbEntity
8
0
100
AcDbVertex
62
7
6
CONTINUOUS
100
AcDb2dVertex
10
-38.6779290453
20
-11.7054146726
0
VERTEX
5
24B
100
AcDbEntity
8
0
100
AcDbVertex
62
7
6
CONTINUOUS
100
AcDb2dVertex
10
-38.6765425759
20
-11.7054221166
0
SEQEND
5
24C
100
AcDbEntity
8
0
0
LINE
5
24D
100
AcDbEntity
8
0
100
AcDbLine
62
7
6
CONTINUOUS
10
-9.8540177539
20
-10.5879221166
11
-9.4158674539
21
-10.5879221166
0
LINE
5
24E
100
AcDbEntity
8
0
100
AcDbLine
62
7
6
CONTINUOUS
10
-9.4158674539
20
-10.3629221166
11
-9.8540186456
21
-10.3629221166
0
LINE
5
24F
100
AcDbEntity
8
0
100
AcDbLine
62
7
6
CONTINUOUS
10
-12.0042323539
20
18.2796000834
11
-12.2496284539
21
17.5152705834
0
LINE
5
250
100
AcDbEntity
8
0
100
AcDbLine
62
7
6
CONTINUOUS
10
-12.1386227539
20
17.1695499834
11
-11.7822212539
21
18.2796000834
0
LINE
5
251
100
AcDbEntity
8
0
100
AcDbLine
62
7
6
CONTINUOUS
10
-12.8065874539
20
14.1470778834
11
-12.6504620539
21
14.6132061834
0
LINE
5
252
100
AcDbEntity
8
0
100
AcDbLine
62
7
6
CONTINUOUS
10
-12.6844622539
20
14.7020778834
11
-12.8429294539
21
14.2305951834
0
LINE
5
253
100
AcDbEntity
8
0
100
AcDbLine
62
7
6
CONTINUOUS
10
-12.4340054539
20
14.1470778834
11
-12.3760232539
21
14.3086179834
0
LINE
5
254
100
AcDbEntity
8
0
100
AcDbLine
62
7
6
CONTINUOUS
10
-12.3528266539
20
14.3750925834
11
-12.2631335539
21
14.6215758834
0
LINE
5
255
100
AcDbEntity
8
0
100
AcDbLine
62
7
6
CONTINUOUS
10
-12.3026006539
20
14.7020778834
11
-12.5112968539
21
14.1470778834
0
LINE
5
256
100
AcDbEntity
8
0
100
AcDbLine
62
7
6
CONTINUOUS
10
-12.0325250539
20
15.0245778834
11
-11.7244844539
21
15.8143974834
0
LINE
5
257
100
AcDbEntity
8
0
100
AcDbLine
62
7
6
CONTINUOUS
10
-8.4330004380
20
13.4926501810
11
-8.7837230539
21
13.1970939834
0
LINE
5
258
100
AcDbEntity
8
0
100
AcDbLine
62
7
6
CONTINUOUS
10
-8.7837230539
20
13.0435851834
11
-8.4492734849
21
13.3254279573
0
LINE
5
259
100
AcDbEntity
8
0
100
AcDbLine
62
7
6
CONTINUOUS
10
-13.1096090539
20
14.7020778834
11
-13.1096090539
21
14.1470778834
0
LINE
5
25A
100
AcDbEntity
8
0
100
AcDbLine
62
7
6
CONTINUOUS
10
-13.0369520539
20
14.1470778834
11
-13.0369520539
21
14.6124429834
0
LINE
5
25B
100
AcDbEntity
8
0
100
AcDbLine
62
7
6
CONTINUOUS
10
-10.4400119539
20
18.2796000834
11
-10.6473017539
21
17.5566957834
0
LINE
5
25C
100
AcDbEntity
8
0
100
AcDbLine
62
7
6
CONTINUOUS
10
-10.5363017539
20
17.1695529834
11
-10.3264061539
21
17.9015535834
0
LINE
5
25D
100
AcDbEntity
8
0
100
AcDbLine
62
7
6
CONTINUOUS
10
-9.5999945539
20
18.2796027834
11
-9.9563903539
21
17.1695499834
0
LINE
5
25E
100
AcDbEntity
8
0
100
AcDbLine
62
7
6
CONTINUOUS
10
-9.7343822539
20
17.1695529834
11
-9.6642938539
21
17.3878509834
0
LINE
5
25F
100
AcDbEntity
8
0
100
AcDbLine
62
7
6
CONTINUOUS
10
-9.5965757539
20
17.5987593834
11
-9.4889861539
21
17.9338794834
0
LINE
5
260
100
AcDbEntity
8
0
100
AcDbLine
62
7
6
CONTINUOUS
10
-8.9547185539
20
14.1470778834
11
-8.8967321539
21
14.3086179834
0
LINE
5
261
100
AcDbEntity
8
0
100
AcDbLine
62
7
6
CONTINUOUS
10
-8.8735400539
20
14.3750925834
11
-8.7838511539
21
14.6215758834
0
LINE
5
262
100
AcDbEntity
8
0
100
AcDbLine
62
7
6
CONTINUOUS
10
-8.8232825539
20
14.7020778834
11
-9.0320057539
21
14.1470778834
0
LINE
5
263
100
AcDbEntity
8
0
100
AcDbLine
62
7
6
CONTINUOUS
10
-9.1405370010
20
12.5589556776
11
-9.0829979729
21
12.6614712494
0
LINE
5
264
100
AcDbEntity
8
0
100
AcDbLine
62
7
6
CONTINUOUS
10
-7.6808129539
20
14.7020778834
11
-7.8400190539
21
14.4353727834
0
LINE
5
265
100
AcDbEntity
8
0
100
AcDbLine
62
7
6
CONTINUOUS
10
-7.8021812539
20
14.3704692834
11
-7.5926594539
21
14.7020778834
0
LINE
5
266
100
AcDbEntity
8
0
100
AcDbLine
62
7
6
CONTINUOUS
10
-8.3984546539
20
12.1058724834
11
-8.3332262539
21
12.1983438834
0
LINE
5
267
100
AcDbEntity
8
0
100
AcDbLine
62
7
6
CONTINUOUS
10
-12.6504620539
20
14.6132061834
11
-12.6504620539
21
14.1470778834
0
LINE
5
268
100
AcDbEntity
8
0
100
AcDbLine
62
7
6
CONTINUOUS
10
-12.5777756539
20
14.1470778834
11
-12.5777756539
21
14.7020778834
0
LINE
5
269
100
AcDbEntity
8
0
100
AcDbLine
62
7
6
CONTINUOUS
10
-11.9439356539
20
14.7020778834
11
-11.9439356539
21
14.1470778834
0
LINE
5
26A
100
AcDbEntity
8
0
100
AcDbLine
62
7
6
CONTINUOUS
10
-11.8689332539
20
14.2112181834
11
-11.8689332539
21
14.6379375834
0
LINE
5
26B
100
AcDbEntity
8
0
100
AcDbLine
62
7
6
CONTINUOUS
10
-11.6635208539
20
15.8044695834
11
-11.6635208539
21
15.7118091834
0
LINE
5
26C
100
AcDbEntity
8
0
100
AcDbLine
62
7
6
CONTINUOUS
10
-11.6342165539
20
18.2796000834
11
-11.6342192539
21
17.1695472834
0
LINE
5
26D
100
AcDbEntity
8
0
100
AcDbLine
62
7
6
CONTINUOUS
10
-11.4122111539
20
17.1695499834
11
-11.4122081539
21
18.2796000834
0
LINE
5
26E
100
AcDbEntity
8
0
100
AcDbLine
62
7
6
CONTINUOUS
10
-11.3819561539
20
14.7020778834
11
-11.3819561539
21
14.1470778834
0
LINE
5
26F
100
AcDbEntity
8
0
100
AcDbLine
62
7
6
CONTINUOUS
10
-11.3069582539
20
14.2135521834
11
-11.3069582539
21
14.3990607834
0
LINE
5
270
100
AcDbEntity
8
0
100
AcDbLine
62
7
6
CONTINUOUS
10
-11.3069582539
20
14.4655350834
11
-11.3069582539
21
14.6356035834
0
LINE
5
271
100
AcDbEntity
8
0
100
AcDbLine
62
7
6
CONTINUOUS
10
-11.1902081539
20
18.2796000834
11
-11.1902081539
21
17.1695499834
0
LINE
5
272
100
AcDbEntity
8
0
100
AcDbLine
62
7
6
CONTINUOUS
10
-11.1527855539
20
15.7294760196
11
-11.1527855539
21
15.8044695834
0
LINE
5
273
100
AcDbEntity
8
0
100
AcDbLine
62
7
6
CONTINUOUS
10
-11.0031734539
20
14.3990607834
11
-11.0031734539
21
14.4655350834
0
LINE
5
274
100
AcDbEntity
8
0
100
AcDbLine
62
7
6
CONTINUOUS
10
-10.9829081539
20
15.6194245626
11
-10.9829081539
21
15.5256782988
0
LINE
5
275
100
AcDbEntity
8
0
100
AcDbLine
62
7
6
CONTINUOUS
10
-10.9776656539
20
14.6356035834
11
-10.9776656539
21
14.7020778834
0
LINE
5
276
100
AcDbEntity
8
0
100
AcDbLine
62
7
6
CONTINUOUS
10
-10.9722479539
20
14.1470778834
11
-10.9722479539
21
14.2135521834
0
LINE
5
277
100
AcDbEntity
8
0
100
AcDbLine
62
7
6
CONTINUOUS
10
-10.9682000539
20
17.1695499834
11
-10.9682000539
21
17.9015535834
0
LINE
5
278
100
AcDbEntity
8
0
100
AcDbLine
62
7
6
CONTINUOUS
10
-10.7887625539
20
15.6425896626
11
-10.7887625539
21
15.0245778834
0
LINE
5
279
100
AcDbEntity
8
0
100
AcDbLine
62
7
6
CONTINUOUS
10
-10.6916897539
20
15.0245778834
11
-10.6916897539
21
15.8177067834
0
LINE
5
27A
100
AcDbEntity
8
0
100
AcDbLine
62
7
6
CONTINUOUS
10
-10.6475786539
20
14.7020778834
11
-10.6475786539
21
14.1470778834
0
LINE
5
27B
100
AcDbEntity
8
0
100
AcDbLine
62
7
6
CONTINUOUS
10
-10.6114004539
20
-11.2398332230
11
-10.6114004539
21
-11.0145881234
0
LINE
5
27C
100
AcDbEntity
8
0
100
AcDbLine
62
7
6
CONTINUOUS
10
-10.6114004539
20
-9.9362561166
11
-10.6114004539
21
-9.7110110166
0
LINE
5
27D
100
AcDbEntity
8
0
100
AcDbLine
62
7
6
CONTINUOUS
10
-10.5726032539
20
14.1470778834
11
-10.5726032539
21
14.7020778834
0
LINE
5
27E
100
AcDbEntity
8
0
100
AcDbLine
62
7
6
CONTINUOUS
10
-10.4443046539
20
14.7020778834
11
-10.4443046539
21
14.1470778834
0
LINE
5
27F
100
AcDbEntity
8
0
100
AcDbLine
62
7
6
CONTINUOUS
10
-10.3716137539
20
14.1470778834
11
-10.3716137539
21
14.5978041834
0
LINE
5
280
100
AcDbEntity
8
0
100
AcDbLine
62
7
6
CONTINUOUS
10
-10.3264061539
20
17.9015535834
11
-10.3264034539
21
17.1695499834
0
LINE
5
281
100
AcDbEntity
8
0
100
AcDbLine
62
7
6
CONTINUOUS
10
-10.1043950539
20
17.1695499834
11
-10.1043950539
21
18.2796000834
0
LINE
5
282
100
AcDbEntity
8
0
100
AcDbLine
62
7
6
CONTINUOUS
10
-10.0763213539
20
14.7020778834
11
-10.0763213539
21
14.2512600834
0
LINE
5
283
100
AcDbEntity
8
0
100
AcDbLine
62
7
6
CONTINUOUS
10
-10.0036664539
20
14.1470778834
11
-10.0036664539
21
14.7020778834
0
LINE
5
284
100
AcDbEntity
8
0
100
AcDbLine
62
7
6
CONTINUOUS
10
-9.6268190539
20
15.4845705830
11
-9.6376088554
21
15.3996318715
0
LINE
5
285
100
AcDbEntity
8
0
100
AcDbLine
62
7
6
CONTINUOUS
10
-9.6596966539
20
14.7020778834
11
-9.6596966539
21
14.1470778834
0
LINE
5
286
100
AcDbEntity
8
0
100
AcDbLine
62
7
6
CONTINUOUS
10
-9.5846987539
20
14.1470778834
11
-9.5846987539
21
14.7020778834
0
LINE
5
287
100
AcDbEntity
8
0
100
AcDbLine
62
7
6
CONTINUOUS
10
-9.5043056539
20
14.7020778834
11
-9.5043056539
21
14.6356035834
0
LINE
5
288
100
AcDbEntity
8
0
100
AcDbLine
62
7
6
CONTINUOUS
10
-9.4158674539
20
-10.5879221166
11
-9.4158674539
21
-10.3629221166
0
LINE
5
289
100
AcDbEntity
8
0
100
AcDbLine
62
7
6
CONTINUOUS
10
-9.3164627539
20
14.6356035834
11
-9.3164627539
21
14.1470778834
0
LINE
5
28A
100
AcDbEntity
8
0
100
AcDbLine
62
7
6
CONTINUOUS
10
-9.2958674539
20
-11.2398332580
11
-9.2958674539
21
-11.0145870045
0
LINE
5
28B
100
AcDbEntity
8
0
100
AcDbLine
62
7
6
CONTINUOUS
10
-9.2958674539
20
-9.9362561166
11
-9.2958674539
21
-9.7110111431
0
LINE
5
28C
100
AcDbEntity
8
0
100
AcDbLine
62
7
6
CONTINUOUS
10
-9.2414918539
20
14.1470778834
11
-9.2414918539
21
14.6356035834
0
LINE
5
28D
100
AcDbEntity
8
0
100
AcDbLine
62
7
6
CONTINUOUS
10
-9.0536492539
20
14.6356035834
11
-9.0536492539
21
14.7020778834
0
LINE
5
28E
100
AcDbEntity
8
0
100
AcDbLine
62
7
6
CONTINUOUS
10
-9.0276632539
20
12.6277422834
11
-9.0276632539
21
12.5027427834
0
LINE
5
28F
100
AcDbEntity
8
0
100
AcDbLine
62
7
6
CONTINUOUS
10
-9.0235811539
20
13.6414887834
11
-9.0235811539
21
13.5158016834
0
LINE
5
290
100
AcDbEntity
8
0
100
AcDbLine
62
7
6
CONTINUOUS
10
-8.9168867539
20
13.5158016834
11
-8.9168867539
21
13.1970939834
0
LINE
5
291
100
AcDbEntity
8
0
100
AcDbLine
62
7
6
CONTINUOUS
10
-8.9168867539
20
13.0421871834
11
-8.9168867539
21
12.6277422834
0
LINE
5
292
100
AcDbEntity
8
0
100
AcDbLine
62
7
6
CONTINUOUS
10
-8.8735688539
20
18.2796027834
11
-8.8735688539
21
17.1695529834
0
LINE
5
293
100
AcDbEntity
8
0
100
AcDbLine
62
7
6
CONTINUOUS
10
-8.7837230539
20
12.6277422834
11
-8.7837230539
21
13.0435851834
0
LINE
5
294
100
AcDbEntity
8
0
100
AcDbLine
62
7
6
CONTINUOUS
10
-8.7837230539
20
13.1970939834
11
-8.7837230539
21
13.5158016834
0
LINE
5
295
100
AcDbEntity
8
0
100
AcDbLine
62
7
6
CONTINUOUS
10
-8.6770715539
20
13.5158016834
11
-8.6770715539
21
13.6414887834
0
LINE
5
296
100
AcDbEntity
8
0
100
AcDbLine
62
7
6
CONTINUOUS
10
-8.6729894539
20
12.5027427834
11
-8.6729894539
21
12.6277422834
0
LINE
5
297
100
AcDbEntity
8
0
100
AcDbLine
62
7
6
CONTINUOUS
10
-8.6546186539
20
17.8041204834
11
-8.6546213539
21
18.0742446834
0
LINE
5
298
100
AcDbEntity
8
0
100
AcDbLine
62
7
6
CONTINUOUS
10
-8.4684956539
20
14.7020778834
11
-8.4684956539
21
14.1470778834
0
LINE
5
299
100
AcDbEntity
8
0
100
AcDbLine
62
7
6
CONTINUOUS
10
-8.3934932539
20
14.2135521834
11
-8.3934932539
21
14.7020778834
0
LINE
5
29A
100
AcDbEntity
8
0
100
AcDbLine
62
7
6
CONTINUOUS
10
-8.1121106539
20
14.1470778834
11
-8.1121106539
21
14.2135521834
0
LINE
5
29B
100
AcDbEntity
8
0
100
AcDbLine
62
7
6
CONTINUOUS
10
-7.8771389539
20
14.3704692834
11
-7.8771389539
21
14.1470778834
0
LINE
5
29C
100
AcDbEntity
8
0
100
AcDbLine
62
7
6
CONTINUOUS
10
-7.8021812539
20
14.1470778834
11
-7.8021812539
21
14.3704692834
0
LINE
5
29D
100
AcDbEntity
8
0
100
AcDbLine
62
7
6
CONTINUOUS
10
-8.6515577539
20
17.1695529834
11
-8.6515328539
21
17.5987620834
0
LINE
5
29E
100
AcDbEntity
8
0
100
AcDbLine
62
7
6
CONTINUOUS
10
-12.4462910539
20
15.8143974834
11
-12.1412492539
21
15.0245778834
0
LINE
5
29F
100
AcDbEntity
8
0
100
AcDbLine
62
7
6
CONTINUOUS
10
-12.0165905539
20
14.1470778834
11
-12.2175575539
21
14.7020778834
0
LINE
5
2A0
100
AcDbEntity
8
0
100
AcDbLine
62
7
6
CONTINUOUS
10
-12.1280121180
20
15.2404924848
11
-12.3331025539
21
15.8143974834
0
LINE
5
2A1
100
AcDbEntity
8
0
100
AcDbLine
62
7
6
CONTINUOUS
10
-12.1534127539
20
14.3086179834
11
-12.0985367539
21
14.1470778834
0
LINE
5
2A2
100
AcDbEntity
8
0
100
AcDbLine
62
7
6
CONTINUOUS
10
-12.8429294539
20
14.2305951834
11
-13.0021601539
21
14.7020778834
0
LINE
5
2A3
100
AcDbEntity
8
0
100
AcDbLine
62
7
6
CONTINUOUS
10
-13.0369520539
20
14.6124429834
11
-12.8807966539
21
14.1470778834
0
LINE
5
2A4
100
AcDbEntity
8
0
100
AcDbLine
62
7
6
CONTINUOUS
10
-12.2631335539
20
14.6215758834
11
-12.1804469539
21
14.3750925834
0
LINE
5
2A5
100
AcDbEntity
8
0
100
AcDbLine
62
7
6
CONTINUOUS
10
-12.7170383539
20
18.2796000834
11
-12.3606395539
21
17.1695472834
0
LINE
5
2A6
100
AcDbEntity
8
0
100
AcDbLine
62
7
6
CONTINUOUS
10
-12.2496284539
20
17.5152705834
11
-12.4950272539
21
18.2796000834
0
LINE
5
2A7
100
AcDbEntity
8
0
100
AcDbLine
62
7
6
CONTINUOUS
10
-8.5372589539
20
14.1470778834
11
-8.7382664539
21
14.7020778834
0
LINE
5
2A8
100
AcDbEntity
8
0
100
AcDbLine
62
7
6
CONTINUOUS
10
-8.6740991539
20
14.3086179834
11
-8.6192186539
21
14.1470778834
0
LINE
5
2A9
100
AcDbEntity
8
0
100
AcDbLine
62
7
6
CONTINUOUS
10
-8.7838511539
20
14.6215758834
11
-8.7011600539
21
14.3750925834
0
LINE
5
2AA
100
AcDbEntity
8
0
100
AcDbLine
62
7
6
CONTINUOUS
10
-9.3136700539
20
17.3878509834
11
-9.2435846539
21
17.1695529834
0
LINE
5
2AB
100
AcDbEntity
8
0
100
AcDbLine
62
7
6
CONTINUOUS
10
-9.4889861539
20
17.9338794834
11
-9.3813911539
21
17.5987593834
0
LINE
5
2AC
100
AcDbEntity
8
0
100
AcDbLine
62
7
6
CONTINUOUS
10
-9.0215735539
20
17.1695499834
11
-9.3779750539
21
18.2796027834
0
LINE
5
2AD
100
AcDbEntity
8
0
100
AcDbLine
62
7
6
CONTINUOUS
10
-10.9682000539
20
17.9015535834
11
-10.7583044539
21
17.1695499834
0
LINE
5
2AE
100
AcDbEntity
8
0
100
AcDbLine
62
7
6
CONTINUOUS
10
-10.6473017539
20
17.5566957834
11
-10.8545915539
21
18.2796000834
0
LINE
5
2AF
100
AcDbEntity
8
0
100
AcDbLine
62
7
6
CONTINUOUS
10
-9.2529950539
20
13.3254279834
11
-8.9168867539
21
13.0421871834
0
LINE
5
2B0
100
AcDbEntity
8
0
100
AcDbLine
62
7
6
CONTINUOUS
10
-8.0866160539
20
14.7020778834
11
-7.8771389539
21
14.3704692834
0
LINE
5
2B1
100
AcDbEntity
8
0
100
AcDbLine
62
7
6
CONTINUOUS
10
-10.3716137539
20
14.5978041834
11
-10.0879196539
21
14.1470778834
0
LINE
5
2B2
100
AcDbEntity
8
0
100
AcDbLine
62
7
6
CONTINUOUS
10
-10.0763213539
20
14.2512600834
11
-10.3553924539
21
14.7020778834
0
LINE
5
2B3
100
AcDbEntity
8
0
100
AcDbLine
62
7
6
CONTINUOUS
10
-7.8400190539
20
14.4353727834
11
-7.9992704539
21
14.7020778834
0
LINE
5
2B4
100
AcDbEntity
8
0
100
AcDbLine
62
7
6
CONTINUOUS
10
-8.6192705539
20
12.6614712834
11
-8.5617314539
21
12.5589555834
0
LINE
5
2B5
100
AcDbEntity
8
0
100
AcDbLine
62
7
6
CONTINUOUS
10
-8.4577682539
20
17.5987593834
11
-8.2352882539
21
17.1695529834
0
LINE
5
2B6
100
AcDbEntity
8
0
100
AcDbLine
62
7
6
CONTINUOUS
10
-7.9852301539
20
17.1695556834
11
-8.2215469257
21
17.6254584937
0
LINE
5
2B7
100
AcDbEntity
8
0
100
AcDbLine
62
7
6
CONTINUOUS
10
-9.0276632539
20
12.5027427834
11
-8.6729894539
21
12.5027427834
0
LINE
5
2B8
100
AcDbEntity
8
0
100
AcDbLine
62
7
6
CONTINUOUS
10
-8.6729894539
20
12.6277422834
11
-8.7837230539
21
12.6277422834
0
LINE
5
2B9
100
AcDbEntity
8
0
100
AcDbLine
62
7
6
CONTINUOUS
10
-8.9168867539
20
12.6277422834
11
-9.0276632539
21
12.6277422834
0
LINE
5
2BA
100
AcDbEntity
8
0
100
AcDbLine
62
7
6
CONTINUOUS
10
-9.0235811539
20
13.5158016834
11
-8.9168867539
21
13.5158016834
0
LINE
5
2BB
100
AcDbEntity
8
0
100
AcDbLine
62
7
6
CONTINUOUS
10
-8.7837230539
20
13.5158016834
11
-8.6770715539
21
13.5158016834
0
LINE
5
2BC
100
AcDbEntity
8
0
100
AcDbLine
62
7
6
CONTINUOUS
10
-8.6770715539
20
13.6414887834
11
-9.0235811539
21
13.6414887834
0
LINE
5
2BD
100
AcDbEntity
8
0
100
AcDbLine
62
7
6
CONTINUOUS
10
-13.1096090539
20
14.1470778834
11
-13.0369520539
21
14.1470778834
0
LINE
5
2BE
100
AcDbEntity
8
0
100
AcDbLine
62
7
6
CONTINUOUS
10
-12.8807966539
20
14.1470778834
11
-12.8065874539
21
14.1470778834
0
LINE
5
2BF
100
AcDbEntity
8
0
100
AcDbLine
62
7
6
CONTINUOUS
10
-12.5112968539
20
14.1470778834
11
-12.4340054539
21
14.1470778834
0
LINE
5
2C0
100
AcDbEntity
8
0
100
AcDbLine
62
7
6
CONTINUOUS
10
-12.6504620539
20
14.1470778834
11
-12.5777756539
21
14.1470778834
0
LINE
5
2C1
100
AcDbEntity
8
0
100
AcDbLine
62
7
6
CONTINUOUS
10
-11.9439356539
20
14.1470778834
11
-11.7189866928
21
14.1470778834
0
LINE
5
2C2
100
AcDbEntity
8
0
100
AcDbLine
62
7
6
CONTINUOUS
10
-12.0985367539
20
14.1470778834
11
-12.0165905539
21
14.1470778834
0
LINE
5
2C3
100
AcDbEntity
8
0
100
AcDbLine
62
7
6
CONTINUOUS
10
-11.3819561539
20
14.1470778834
11
-10.9722479539
21
14.1470778834
0
LINE
5
2C4
100
AcDbEntity
8
0
100
AcDbLine
62
7
6
CONTINUOUS
10
-10.4443046539
20
14.1470778834
11
-10.3716137539
21
14.1470778834
0
LINE
5
2C5
100
AcDbEntity
8
0
100
AcDbLine
62
7
6
CONTINUOUS
10
-10.6475786539
20
14.1470778834
11
-10.5726032539
21
14.1470778834
0
LINE
5
2C6
100
AcDbEntity
8
0
100
AcDbLine
62
7
6
CONTINUOUS
10
-10.0879196539
20
14.1470778834
11
-10.0036664539
21
14.1470778834
0
LINE
5
2C7
100
AcDbEntity
8
0
100
AcDbLine
62
7
6
CONTINUOUS
10
-9.6596966539
20
14.1470778834
11
-9.5846987539
21
14.1470778834
0
LINE
5
2C8
100
AcDbEntity
8
0
100
AcDbLine
62
7
6
CONTINUOUS
10
-9.3164627539
20
14.1470778834
11
-9.2414918539
21
14.1470778834
0
LINE
5
2C9
100
AcDbEntity
8
0
100
AcDbLine
62
7
6
CONTINUOUS
10
-9.0320057539
20
14.1470778834
11
-8.9547185539
21
14.1470778834
0
LINE
5
2CA
100
AcDbEntity
8
0
100
AcDbLine
62
7
6
CONTINUOUS
10
-8.6192186539
20
14.1470778834
11
-8.5372589539
21
14.1470778834
0
LINE
5
2CB
100
AcDbEntity
8
0
100
AcDbLine
62
7
6
CONTINUOUS
10
-8.4684956539
20
14.1470778834
11
-8.1121106539
21
14.1470778834
0
LINE
5
2CC
100
AcDbEntity
8
0
100
AcDbLine
62
7
6
CONTINUOUS
10
-7.8771389539
20
14.1470778834
11
-7.8021812539
21
14.1470778834
0
LINE
5
2CD
100
AcDbEntity
8
0
100
AcDbLine
62
7
6
CONTINUOUS
10
-11.7208948485
20
14.2112181834
11
-11.8689332539
21
14.2112181834
0
LINE
5
2CE
100
AcDbEntity
8
0
100
AcDbLine
62
7
6
CONTINUOUS
10
-8.1121106539
20
14.2135521834
11
-8.3934932539
21
14.2135521834
0
LINE
5
2CF
100
AcDbEntity
8
0
100
AcDbLine
62
7
6
CONTINUOUS
10
-10.9722479539
20
14.2135521834
11
-11.3069582539
21
14.2135521834
0
LINE
5
2D0
100
AcDbEntity
8
0
100
AcDbLine
62
7
6
CONTINUOUS
10
-12.3760232539
20
14.3086179834
11
-12.1534127539
21
14.3086179834
0
LINE
5
2D1
100
AcDbEntity
8
0
100
AcDbLine
62
7
6
CONTINUOUS
10
-8.8967321539
20
14.3086179834
11
-8.6740991539
21
14.3086179834
0
LINE
5
2D2
100
AcDbEntity
8
0
100
AcDbLine
62
7
6
CONTINUOUS
10
-8.7011600539
20
14.3750925834
11
-8.8735400539
21
14.3750925834
0
LINE
5
2D3
100
AcDbEntity
8
0
100
AcDbLine
62
7
6
CONTINUOUS
10
-12.1804469539
20
14.3750925834
11
-12.3528266539
21
14.3750925834
0
LINE
5
2D4
100
AcDbEntity
8
0
100
AcDbLine
62
7
6
CONTINUOUS
10
-11.3069582539
20
14.3990607834
11
-11.0031734539
21
14.3990607834
0
LINE
5
2D5
100
AcDbEntity
8
0
100
AcDbLine
62
7
6
CONTINUOUS
10
-8.9168867539
20
13.1970939834
11
-9.2685089539
21
13.4934078834
0
LINE
5
2D6
100
AcDbEntity
8
0
100
AcDbLine
62
7
6
CONTINUOUS
10
-9.7319927539
20
15.2474040834
11
-9.8290655539
21
15.2341668834
0
LINE
5
2D7
100
AcDbEntity
8
0
100
AcDbLine
62
7
6
CONTINUOUS
10
-10.0342421539
20
15.6136332834
11
-9.9382724539
21
15.6213549834
0
LINE
5
2D8
100
AcDbEntity
8
0
100
AcDbLine
62
7
6
CONTINUOUS
10
-11.0031734539
20
14.4655350834
11
-11.3069582539
21
14.4655350834
0
LINE
5
2D9
100
AcDbEntity
8
0
100
AcDbLine
62
7
6
CONTINUOUS
10
-11.3069582539
20
14.6356035834
11
-10.9776656539
21
14.6356035834
0
LINE
5
2DA
100
AcDbEntity
8
0
100
AcDbLine
62
7
6
CONTINUOUS
10
-9.5043056539
20
14.6356035834
11
-9.3164627539
21
14.6356035834
0
LINE
5
2DB
100
AcDbEntity
8
0
100
AcDbLine
62
7
6
CONTINUOUS
10
-9.2414918539
20
14.6356035834
11
-9.0536492539
21
14.6356035834
0
LINE
5
2DC
100
AcDbEntity
8
0
100
AcDbLine
62
7
6
CONTINUOUS
10
-11.8689332539
20
14.6379375834
11
-11.7208948485
21
14.6379375834
0
LINE
5
2DD
100
AcDbEntity
8
0
100
AcDbLine
62
7
6
CONTINUOUS
10
-7.5926594539
20
14.7020778834
11
-7.6808129539
21
14.7020778834
0
LINE
5
2DE
100
AcDbEntity
8
0
100
AcDbLine
62
7
6
CONTINUOUS
10
-7.9992704539
20
14.7020778834
11
-8.0866160539
21
14.7020778834
0
LINE
5
2DF
100
AcDbEntity
8
0
100
AcDbLine
62
7
6
CONTINUOUS
10
-8.3934932539
20
14.7020778834
11
-8.4684956539
21
14.7020778834
0
LINE
5
2E0
100
AcDbEntity
8
0
100
AcDbLine
62
7
6
CONTINUOUS
10
-8.7382664539
20
14.7020778834
11
-8.8232825539
21
14.7020778834
0
LINE
5
2E1
100
AcDbEntity
8
0
100
AcDbLine
62
7
6
CONTINUOUS
10
-9.0536492539
20
14.7020778834
11
-9.5043056539
21
14.7020778834
0
LINE
5
2E2
100
AcDbEntity
8
0
100
AcDbLine
62
7
6
CONTINUOUS
10
-9.5846987539
20
14.7020778834
11
-9.6596966539
21
14.7020778834
0
LINE
5
2E3
100
AcDbEntity
8
0
100
AcDbLine
62
7
6
CONTINUOUS
10
-10.0036664539
20
14.7020778834
11
-10.0763213539
21
14.7020778834
0
LINE
5
2E4
100
AcDbEntity
8
0
100
AcDbLine
62
7
6
CONTINUOUS
10
-10.3553924539
20
14.7020778834
11
-10.4443046539
21
14.7020778834
0
LINE
5
2E5
100
AcDbEntity
8
0
100
AcDbLine
62
7
6
CONTINUOUS
10
-10.5726032539
20
14.7020778834
11
-10.6475786539
21
14.7020778834
0
LINE
5
2E6
100
AcDbEntity
8
0
100
AcDbLine
62
7
6
CONTINUOUS
10
-10.9776656539
20
14.7020778834
11
-11.3819561539
21
14.7020778834
0
LINE
5
2E7
100
AcDbEntity
8
0
100
AcDbLine
62
7
6
CONTINUOUS
10
-11.7166269584
20
14.7020778834
11
-11.9439356539
21
14.7020778834
0
LINE
5
2E8
100
AcDbEntity
8
0
100
AcDbLine
62
7
6
CONTINUOUS
10
-12.2175575539
20
14.7020778834
11
-12.3026006539
21
14.7020778834
0
LINE
5
2E9
100
AcDbEntity
8
0
100
AcDbLine
62
7
6
CONTINUOUS
10
-12.5777756539
20
14.7020778834
11
-12.6844622539
21
14.7020778834
0
LINE
5
2EA
100
AcDbEntity
8
0
100
AcDbLine
62
7
6
CONTINUOUS
10
-13.0021601539
20
14.7020778834
11
-13.1096090539
21
14.7020778834
0
LINE
5
2EB
100
AcDbEntity
8
0
100
AcDbLine
62
7
6
CONTINUOUS
10
-12.1412492539
20
15.0245778834
11
-12.0325250539
21
15.0245778834
0
LINE
5
2EC
100
AcDbEntity
8
0
100
AcDbLine
62
7
6
CONTINUOUS
10
-11.5532108539
20
15.0245778834
11
-11.4539318539
21
15.0245778834
0
LINE
5
2ED
100
AcDbEntity
8
0
100
AcDbLine
62
7
6
CONTINUOUS
10
-10.7887625539
20
15.0245778834
11
-10.6916897539
21
15.0245778834
0
LINE
5
2EE
100
AcDbEntity
8
0
100
AcDbLine
62
7
6
CONTINUOUS
10
-11.6635208539
20
15.7118091834
11
-11.2774358539
21
15.7118091834
0
LINE
5
2EF
100
AcDbEntity
8
0
100
AcDbLine
62
7
6
CONTINUOUS
10
-11.1527855539
20
15.8044695834
11
-11.6635208539
21
15.8044695834
0
LINE
5
2F0
100
AcDbEntity
8
0
100
AcDbLine
62
7
6
CONTINUOUS
10
-11.7244844539
20
15.8143974834
11
-11.8311920539
21
15.8143974834
0
LINE
5
2F1
100
AcDbEntity
8
0
100
AcDbLine
62
7
6
CONTINUOUS
10
-12.3331025539
20
15.8143974834
11
-12.4462910539
21
15.8143974834
0
LINE
5
2F2
100
AcDbEntity
8
0
100
AcDbLine
62
7
6
CONTINUOUS
10
-10.6916897539
20
15.8177067834
11
-10.7542562022
21
15.8177067834
0
LINE
5
2F3
100
AcDbEntity
8
0
100
AcDbLine
62
7
6
CONTINUOUS
10
17.9742740682
20
16.7945778834
11
18.4960473021
21
16.7945778834
0
LINE
5
2F4
100
AcDbEntity
8
0
100
AcDbLine
62
7
6
CONTINUOUS
10
-38.6765425759
20
16.7945778834
11
-39.1983158098
21
16.7945778834
0
LINE
5
2F5
100
AcDbEntity
8
0
100
AcDbLine
62
7
6
CONTINUOUS
10
18.7373433579
20
17.1545778834
11
17.9742740682
21
17.1545778834
0
LINE
5
2F6
100
AcDbEntity
8
0
100
AcDbLine
62
7
6
CONTINUOUS
10
-38.6765425759
20
17.1545778834
11
-39.4396118656
21
17.1545778834
0
LINE
5
2F7
100
AcDbEntity
8
0
100
AcDbLine
62
7
6
CONTINUOUS
10
-8.2352882539
20
17.1695529834
11
-7.9852301539
21
17.1695556834
0
LINE
5
2F8
100
AcDbEntity
8
0
100
AcDbLine
62
7
6
CONTINUOUS
10
-9.9563903539
20
17.1695499834
11
-9.7343822539
21
17.1695529834
0
LINE
5
2F9
100
AcDbEntity
8
0
100
AcDbLine
62
7
6
CONTINUOUS
10
-11.1902081539
20
17.1695499834
11
-10.9682000539
21
17.1695499834
0
LINE
5
2FA
100
AcDbEntity
8
0
100
AcDbLine
62
7
6
CONTINUOUS
10
-10.3264034539
20
17.1695499834
11
-10.1043950539
21
17.1695499834
0
LINE
5
2FB
100
AcDbEntity
8
0
100
AcDbLine
62
7
6
CONTINUOUS
10
-8.8735688539
20
17.1695529834
11
-8.6515577539
21
17.1695529834
0
LINE
5
2FC
100
AcDbEntity
8
0
100
AcDbLine
62
7
6
CONTINUOUS
10
-10.7583044539
20
17.1695499834
11
-10.5363017539
21
17.1695529834
0
LINE
5
2FD
100
AcDbEntity
8
0
100
AcDbLine
62
7
6
CONTINUOUS
10
-11.6342192539
20
17.1695472834
11
-11.4122111539
21
17.1695499834
0
LINE
5
2FE
100
AcDbEntity
8
0
100
AcDbLine
62
7
6
CONTINUOUS
10
-9.2435846539
20
17.1695529834
11
-9.0215735539
21
17.1695499834
0
LINE
5
2FF
100
AcDbEntity
8
0
100
AcDbLine
62
7
6
CONTINUOUS
10
-12.3606395539
20
17.1695472834
11
-12.1386227539
21
17.1695499834
0
LINE
5
300
100
AcDbEntity
8
0
100
AcDbLine
62
7
6
CONTINUOUS
10
-9.8191376539
20
15.6125301834
11
-9.7220648539
21
15.5948805834
0
LINE
5
301
100
AcDbEntity
8
0
100
AcDbLine
62
7
6
CONTINUOUS
10
-9.6642938539
20
17.3878509834
11
-9.3136700539
21
17.3878509834
0
LINE
5
302
100
AcDbEntity
8
0
100
AcDbLine
62
7
6
CONTINUOUS
10
-9.3813911539
20
17.5987593834
11
-9.5965757539
21
17.5987593834
0
LINE
5
303
100
AcDbEntity
8
0
100
AcDbLine
62
7
6
CONTINUOUS
10
-8.6515328539
20
17.5987620834
11
-8.4577682539
21
17.5987593834
0
LINE
5
304
100
AcDbEntity
8
0
100
AcDbLine
62
7
6
CONTINUOUS
10
-8.3845120839
20
17.8041204834
11
-8.6546186539
21
17.8041204834
0
LINE
5
305
100
AcDbEntity
8
0
100
AcDbLine
62
7
6
CONTINUOUS
10
-8.6546213539
20
18.0742446834
11
-8.3845157772
21
18.0742446834
0
LINE
5
306
100
AcDbEntity
8
0
100
AcDbLine
62
7
6
CONTINUOUS
10
-10.1043950539
20
18.2796000834
11
-10.4400119539
21
18.2796000834
0
LINE
5
307
100
AcDbEntity
8
0
100
AcDbLine
62
7
6
CONTINUOUS
10
-10.8545915539
20
18.2796000834
11
-11.1902081539
21
18.2796000834
0
LINE
5
308
100
AcDbEntity
8
0
100
AcDbLine
62
7
6
CONTINUOUS
10
-11.4122081539
20
18.2796000834
11
-11.6342165539
21
18.2796000834
0
LINE
5
309
100
AcDbEntity
8
0
100
AcDbLine
62
7
6
CONTINUOUS
10
-11.7822212539
20
18.2796000834
11
-12.0042323539
21
18.2796000834
0
LINE
5
30A
100
AcDbEntity
8
0
100
AcDbLine
62
7
6
CONTINUOUS
10
-12.4950272539
20
18.2796000834
11
-12.7170383539
21
18.2796000834
0
LINE
5
30B
100
AcDbEntity
8
0
100
AcDbLine
62
7
6
CONTINUOUS
10
-8.3536961270
20
18.2796027834
11
-8.8735688539
21
18.2796027834
0
LINE
5
30C
100
AcDbEntity
8
0
100
AcDbLine
62
7
6
CONTINUOUS
10
-9.3779750539
20
18.2796027834
11
-9.5999945539
21
18.2796027834
0
LINE
5
30D
100
AcDbEntity
8
0
100
AcDbLine
62
7
6
CONTINUOUS
10
-30.1211342539
20
22.9595778834
11
9.4188657461
21
22.9595778834
0
LINE
5
30E
100
AcDbEntity
8
0
100
AcDbLine
62
7
6
CONTINUOUS
10
9.4188657461
20
23.3195778834
11
-30.1211342539
21
23.3195778834
0
LINE
5
30F
100
AcDbEntity
8
0
100
AcDbLine
62
9
6
CONTINUOUS
10
21.6588657461
20
26.5745778834
11
21.7488657461
21
26.5745778834
0
LINE
5
310
100
AcDbEntity
8
0
100
AcDbLine
62
9
6
CONTINUOUS
10
-42.3611342539
20
26.5745778834
11
-42.4511342539
21
26.5745778834
0
LINE
5
311
100
AcDbEntity
8
0
100
AcDbLine
62
9
6
CONTINUOUS
10
-40.3511342539
20
28.5845778834
11
19.6488657461
21
28.5845778834
0
LINE
5
312
100
AcDbEntity
8
0
100
AcDbLine
62
7
6
CONTINUOUS
10
16.1838657461
20
-11.1462453768
11
16.1838657461
21
-11.9045988564
0
LINE
5
313
100
AcDbEntity
8
0
100
AcDbLine
62
7
6
CONTINUOUS
10
16.1838657461
20
16.5954011436
11
16.1838657461
21
17.3537546232
0
LINE
5
314
100
AcDbEntity
8
0
100
AcDbLine
62
7
6
CONTINUOUS
10
16.4688657461
20
-12.8508304386
11
16.4688657461
21
-14.5021021446
0
LINE
5
315
100
AcDbEntity
8
0
100
AcDbLine
62
7
6
CONTINUOUS
10
16.4688657461
20
18.2999862054
11
16.4688657461
21
19.9512579113
0
LINE
5
316
100
AcDbEntity
8
0
100
AcDbLine
62
7
6
CONTINUOUS
10
16.8288657461
20
-14.6452427665
11
16.8288657461
21
-12.8508304386
0
LINE
5
317
100
AcDbEntity
8
0
100
AcDbLine
62
7
6
CONTINUOUS
10
16.8288657461
20
18.2999862054
11
16.8288657461
21
20.0943985332
0
LINE
5
318
100
AcDbEntity
8
0
100
AcDbLine
62
7
6
CONTINUOUS
10
17.1138657461
20
-11.1462453768
11
17.1138657461
21
-11.9045988564
0
LINE
5
319
100
AcDbEntity
8
0
100
AcDbLine
62
7
6
CONTINUOUS
10
17.1138657461
20
16.5954011436
11
17.1138657461
21
17.3537546232
0
LINE
5
31A
100
AcDbEntity
8
0
100
AcDbLine
62
7
6
CONTINUOUS
10
-40.3511342539
20
28.6745778834
11
19.6488657461
21
28.6745778834
0
LINE
5
31B
100
AcDbEntity
8
0
100
AcDbLine
62
7
6
CONTINUOUS
10
-40.3511342539
20
29.5745778834
11
19.6488657461
21
29.5745778834
0
LINE
5
31C
100
AcDbEntity
8
0
100
AcDbLine
62
7
6
CONTINUOUS
10
19.1838657461
20
13.1945778834
11
19.1838657461
21
-7.7454221166
0
LINE
5
31D
100
AcDbEntity
8
0
100
AcDbLine
62
7
6
CONTINUOUS
10
19.5438657461
20
-7.7454221166
11
19.5438657461
21
13.1945778834
0
LINE
5
31E
100
AcDbEntity
8
0
100
AcDbLine
62
9
6
CONTINUOUS
10
19.6488657461
20
-23.1354221166
11
19.6488657461
21
-23.2254221166
0
LINE
5
31F
100
AcDbEntity
8
0
100
AcDbLine
62
9
6
CONTINUOUS
10
19.6488657461
20
28.5845778834
11
19.6488657461
21
28.6745778834
0
LINE
5
320
100
AcDbEntity
8
0
100
AcDbLine
62
9
6
CONTINUOUS
10
21.6588657461
20
26.5745778834
11
21.6588657461
21
-21.1254221166
0
LINE
5
321
100
AcDbEntity
8
0
100
AcDbLine
62
7
6
CONTINUOUS
10
21.7488657461
20
26.5745778834
11
21.7488657461
21
-21.1254221166
0
LINE
5
322
100
AcDbEntity
8
0
100
AcDbLine
62
7
6
CONTINUOUS
10
22.6488657461
20
26.5745778834
11
22.6488657461
21
-21.1254221166
0
ARC
5
323
100
AcDbEntity
8
0
100
AcDbCircle
62
7
6
CONTINUOUS
10
-40.3511342539
20
-21.1254221166
40
3.0000000000
100
AcDbArc
50
180.0000000000
51
270.0000000000
0
ARC
5
324
100
AcDbEntity
8
0
100
AcDbCircle
62
7
6
CONTINUOUS
10
-40.3511342539
20
26.5745778834
40
3.0000000000
100
AcDbArc
50
90.0000000000
51
180.0000000000
0
ARC
5
325
100
AcDbEntity
8
0
100
AcDbCircle
62
7
6
CONTINUOUS
10
19.6488657461
20
26.5745778834
40
3.0000000000
100
AcDbArc
50
0.0000000000
51
90.0000000000
0
ARC
5
326
100
AcDbEntity
8
0
100
AcDbCircle
62
7
6
CONTINUOUS
10
19.6488657461
20
-21.1254221166
40
3.0000000000
100
AcDbArc
50
270.0000000000
51
360.0000000000
0
ARC
5
327
100
AcDbEntity
8
0
100
AcDbCircle
62
7
6
CONTINUOUS
10
19.6488657461
20
-21.1254221166
40
2.1000000000
100
AcDbArc
50
270.0000000000
51
360.0000000000
0
ARC
5
328
100
AcDbEntity
8
0
100
AcDbCircle
62
7
6
CONTINUOUS
10
19.6488657461
20
26.5745778834
40
2.1000000000
100
AcDbArc
50
0.0000000000
51
90.0000000000
0
ARC
5
329
100
AcDbEntity
8
0
100
AcDbCircle
62
7
6
CONTINUOUS
10
-40.3511342539
20
26.5745778834
40
2.1000000000
100
AcDbArc
50
90.0000000000
51
180.0000000000
0
ARC
5
32A
100
AcDbEntity
8
0
100
AcDbCircle
62
7
6
CONTINUOUS
10
-40.3511342539
20
-21.1254221166
40
2.1000000000
100
AcDbArc
50
180.0000000000
51
270.0000000000
0
ARC
5
32B
100
AcDbEntity
8
0
100
AcDbCircle
62
7
6
CONTINUOUS
10
-8.8511342539
20
13.0745778834
40
0.5912869093
100
AcDbArc
50
134.9002846268
51
240.6958542366
0
ARC
5
32C
100
AcDbEntity
8
0
100
AcDbCircle
62
7
6
CONTINUOUS
10
-8.8511342539
20
13.0745778834
40
0.4737276383
100
AcDbArc
50
148.0267086216
51
240.6958772397
0
ARC
5
32D
100
AcDbEntity
8
0
100
AcDbCircle
62
7
6
CONTINUOUS
10
-8.8511342539
20
13.0745778834
40
0.4737275993
100
AcDbArc
50
299.3041227603
51
31.9732906835
0
ARC
5
32E
100
AcDbEntity
8
0
100
AcDbCircle
62
7
6
CONTINUOUS
10
-8.8511342539
20
13.0745778834
40
0.5912870174
100
AcDbArc
50
299.3041457634
51
44.9957848492
0
ARC
5
32F
100
AcDbEntity
8
0
100
AcDbCircle
62
7
6
CONTINUOUS
10
-8.8749413539
20
11.5907499834
40
0.7017056116
100
AcDbArc
50
47.2312712626
51
84.2013994484
0
ARC
5
330
100
AcDbEntity
8
0
100
AcDbCircle
62
7
6
CONTINUOUS
10
-8.8197176539
20
11.7044106834
40
0.6932848537
100
AcDbArc
50
45.4348886633
51
67.5658631502
0
CIRCLE
5
331
100
AcDbEntity
8
0
100
AcDbCircle
62
7
6
CONTINUOUS
10
-8.8511342539
20
13.0745778834
40
0.6611280000
0
ARC
5
332
100
AcDbEntity
8
0
100
AcDbCircle
62
7
6
CONTINUOUS
10
-8.3537003539
20
17.9391819834
40
0.3404218531
100
AcDbArc
50
292.8428569455
51
89.9992885773
0
ARC
5
333
100
AcDbEntity
8
0
100
AcDbCircle
62
7
6
CONTINUOUS
10
-8.3845148539
20
17.9391819834
40
0.1350624000
100
AcDbArc
50
270.0011750532
51
90.0003916809
0
ARC
5
334
100
AcDbEntity
8
0
100
AcDbCircle
62
7
6
CONTINUOUS
10
-10.6414004539
20
-10.4754221166
40
0.5399999774
100
AcDbArc
50
86.8152613297
51
273.1847386302
0
ARC
5
335
100
AcDbEntity
8
0
100
AcDbCircle
62
7
6
CONTINUOUS
10
-10.6414004539
20
-10.4754221166
40
0.7649995620
100
AcDbArc
50
87.7525290943
51
272.2474708871
0
ARC
5
336
100
AcDbEntity
8
0
100
AcDbCircle
62
7
6
CONTINUOUS
10
-9.3258674539
20
-10.4754221166
40
0.5399999774
100
AcDbArc
50
86.8152613297
51
167.9752993829
0
ARC
5
337
100
AcDbEntity
8
0
100
AcDbCircle
62
7
6
CONTINUOUS
10
-9.3258674539
20
-10.4754221166
40
0.7649995973
100
AcDbArc
50
87.7525287227
51
272.2474707841
0
ARC
5
338
100
AcDbEntity
8
0
100
AcDbCircle
62
7
6
CONTINUOUS
10
-9.3258674539
20
-10.4754221166
40
0.5399990642
100
AcDbArc
50
192.0247203293
51
273.1847452260
0
ARC
5
339
100
AcDbEntity
8
0
100
AcDbCircle
62
7
6
CONTINUOUS
10
-30.1211342539
20
13.1945778834
40
9.7650000000
100
AcDbArc
50
90.0000000000
51
136.2170535338
0
ARC
5
33A
100
AcDbEntity
8
0
100
AcDbCircle
62
7
6
CONTINUOUS
10
9.4188657461
20
13.1945778834
40
9.7650000000
100
AcDbArc
50
43.7829464662
51
90.0000000000
0
ARC
5
33B
100
AcDbEntity
8
0
100
AcDbCircle
62
7
6
CONTINUOUS
10
9.4188657461
20
13.1945778834
40
10.1250000000
100
AcDbArc
50
42.9581331904
51
90.0000000000
0
ARC
5
33C
100
AcDbEntity
8
0
100
AcDbCircle
62
7
6
CONTINUOUS
10
-30.1211342539
20
13.1945778834
40
10.1250000000
100
AcDbArc
50
90.0000000000
51
137.0418668096
0
ARC
5
33D
100
AcDbEntity
8
0
100
AcDbCircle
62
7
6
CONTINUOUS
10
9.4188657461
20
-7.7454221166
40
10.1250000000
100
AcDbArc
50
336.9763463399
51
360.0000000000
0
ARC
5
33E
100
AcDbEntity
8
0
100
AcDbCircle
62
7
6
CONTINUOUS
10
9.4188657461
20
13.1945778834
40
10.1250000000
100
AcDbArc
50
0.0000000000
51
23.0236536601
0
CIRCLE
5
33F
100
AcDbEntity
8
0
100
AcDbCircle
62
7
6
CONTINUOUS
10
-37.3511342539
20
-11.5254221166
40
0.6000000000
0
ARC
5
340
100
AcDbEntity
8
0
100
AcDbCircle
62
7
6
CONTINUOUS
10
9.4188657461
20
13.1945778834
40
9.7650000000
100
AcDbArc
50
0.0000000000
51
21.6332212816
0
ARC
5
341
100
AcDbEntity
8
0
100
AcDbCircle
62
7
6
CONTINUOUS
10
9.4188657461
20
-7.7454221166
40
9.7650000000
100
AcDbArc
50
338.3667787184
51
360.0000000000
0
ARC
5
342
100
AcDbEntity
8
0
100
AcDbCircle
62
7
6
CONTINUOUS
10
-30.1211342539
20
-7.7454221166
40
10.1250000000
100
AcDbArc
50
222.9581331904
51
270.0000000000
0
ARC
5
343
100
AcDbEntity
8
0
100
AcDbCircle
62
7
6
CONTINUOUS
10
9.4188657461
20
-7.7454221166
40
10.1250000000
100
AcDbArc
50
270.0000000000
51
317.0418668096
0
ARC
5
344
100
AcDbEntity
8
0
100
AcDbCircle
62
7
6
CONTINUOUS
10
9.4188657461
20
-7.7454221166
40
9.7650000000
100
AcDbArc
50
270.0000000000
51
316.2170535338
0
ARC
5
345
100
AcDbEntity
8
0
100
AcDbCircle
62
7
6
CONTINUOUS
10
-30.1211342539
20
-7.7454221166
40
9.7650000000
100
AcDbArc
50
223.7829464662
51
270.0000000000
0
ARC
5
346
100
AcDbEntity
8
0
100
AcDbCircle
62
7
6
CONTINUOUS
10
-30.1211342539
20
-7.7454221166
40
9.7650000000
100
AcDbArc
50
180.0000000000
51
201.6332212816
0
ARC
5
347
100
AcDbEntity
8
0
100
AcDbCircle
62
7
6
CONTINUOUS
10
-30.1211342539
20
13.1945778834
40
9.7650000000
100
AcDbArc
50
158.3667787184
51
180.0000000000
0
ARC
5
348
100
AcDbEntity
8
0
100
AcDbCircle
62
7
6
CONTINUOUS
10
-30.1211342539
20
13.1945778834
40
10.1250000000
100
AcDbArc
50
156.9763463399
51
180.0000000000
0
ARC
5
349
100
AcDbEntity
8
0
100
AcDbCircle
62
7
6
CONTINUOUS
10
-30.1211342539
20
-7.7454221166
40
10.1250000000
100
AcDbArc
50
180.0000000000
51
203.0236536601
0
CIRCLE
5
34A
100
AcDbEntity
8
0
100
AcDbCircle
62
7
6
CONTINUOUS
10
16.6488657461
20
-11.5254221166
40
0.6000000000
0
CIRCLE
5
34B
100
AcDbEntity
8
0
100
AcDbCircle
62
7
6
CONTINUOUS
10
16.6488657461
20
16.9745778834
40
0.6000000000
0
CIRCLE
5
34C
100
AcDbEntity
8
0
100
AcDbCircle
62
7
6
CONTINUOUS
10
-37.3511342539
20
16.9745778834
40
0.6000000000
0
ARC
5
34D
100
AcDbEntity
8
0
100
AcDbCircle
62
7
6
CONTINUOUS
10
-8.8511342539
20
13.0745778834
40
0.7871227298
100
AcDbArc
50
292.0885380792
51
273.4296275093
0
ARC
5
34E
100
AcDbEntity
8
0
100
AcDbCircle
62
9
6
CONTINUOUS
10
19.6488657461
20
26.5745778834
40
2.0099988011
100
AcDbArc
50
0.0000000000
51
90.0000000000
0
ARC
5
34F
100
AcDbEntity
8
0
100
AcDbCircle
62
9
6
CONTINUOUS
10
19.6488657461
20
-21.1254221166
40
2.0099988011
100
AcDbArc
50
270.0000000000
51
360.0000000000
0
ARC
5
350
100
AcDbEntity
8
0
100
AcDbCircle
62
9
6
CONTINUOUS
10
-37.3511342539
20
-11.5254221166
40
1.9284597787
100
AcDbArc
50
185.3561861672
51
264.6438470661
0
ARC
5
351
100
AcDbEntity
8
0
100
AcDbCircle
62
9
6
CONTINUOUS
10
-37.3511342539
20
16.9745778834
40
1.9284597787
100
AcDbArc
50
95.3557380635
51
174.6441236900
0
ARC
5
352
100
AcDbEntity
8
0
100
AcDbCircle
62
9
6
CONTINUOUS
10
16.6488657461
20
16.9745778834
40
1.9284597787
100
AcDbArc
50
5.3561861672
51
84.6438470661
0
ARC
5
353
100
AcDbEntity
8
0
100
AcDbCircle
62
9
6
CONTINUOUS
10
16.6488657461
20
-11.5254221166
40
1.9284597787
100
AcDbArc
50
275.3557380635
51
354.6441236900
0
ARC
5
354
100
AcDbEntity
8
0
100
AcDbCircle
62
9
6
CONTINUOUS
10
-40.3511342539
20
-21.1254221166
40
2.0099988011
100
AcDbArc
50
180.0000000000
51
270.0000000000
0
ARC
5
355
100
AcDbEntity
8
0
100
AcDbCircle
62
9
6
CONTINUOUS
10
-40.3511342539
20
26.5745778834
40
2.0099988011
100
AcDbArc
50
90.0000000000
51
180.0000000000
0
ARC
5
356
100
AcDbEntity
8
0
100
AcDbCircle
62
9
6
CONTINUOUS
10
16.6488657461
20
-11.5254221166
40
1.3375751269
100
AcDbArc
50
277.7338645431
51
352.2661354569
0
ARC
5
357
100
AcDbEntity
8
0
100
AcDbCircle
62
7
6
CONTINUOUS
10
16.6488657461
20
-11.5254221166
40
1.3456528587
100
AcDbArc
50
262.3128420128
51
277.6871579872
0
ARC
5
358
100
AcDbEntity
8
0
100
AcDbCircle
62
9
6
CONTINUOUS
10
16.6488657461
20
-11.5254221166
40
1.3375751269
100
AcDbArc
50
7.7338645431
51
262.2661354569
0
ARC
5
359
100
AcDbEntity
8
0
100
AcDbCircle
62
7
6
CONTINUOUS
10
16.6488657461
20
-11.5254221166
40
1.3456528587
100
AcDbArc
50
352.3128420128
51
7.6871579872
0
CIRCLE
5
35A
100
AcDbEntity
8
0
100
AcDbCircle
62
7
6
CONTINUOUS
10
16.6488657461
20
-11.5254221166
40
1.1869585760
0
CIRCLE
5
35B
100
AcDbEntity
8
0
100
AcDbCircle
62
7
6
CONTINUOUS
10
16.6488657461
20
16.9745778834
40
1.1869585760
0
ARC
5
35C
100
AcDbEntity
8
0
100
AcDbCircle
62
7
6
CONTINUOUS
10
16.6488657461
20
16.9745778834
40
1.3456528587
100
AcDbArc
50
352.3128420128
51
7.6871579872
0
ARC
5
35D
100
AcDbEntity
8
0
100
AcDbCircle
62
9
6
CONTINUOUS
10
16.6488657461
20
16.9745778834
40
1.3375751269
100
AcDbArc
50
7.7338645431
51
82.2661354569
0
ARC
5
35E
100
AcDbEntity
8
0
100
AcDbCircle
62
7
6
CONTINUOUS
10
16.6488657461
20
16.9745778834
40
1.3456528587
100
AcDbArc
50
82.3128420128
51
97.6871579872
0
ARC
5
35F
100
AcDbEntity
8
0
100
AcDbCircle
62
9
6
CONTINUOUS
10
16.6488657461
20
16.9745778834
40
1.3375751269
100
AcDbArc
50
97.7338645431
51
352.2661354569
0
ARC
5
360
100
AcDbEntity
8
0
100
AcDbCircle
62
7
6
CONTINUOUS
10
-37.3511342539
20
-11.5254221166
40
1.3456528587
100
AcDbArc
50
262.3128420128
51
277.6871579872
0
ARC
5
361
100
AcDbEntity
8
0
100
AcDbCircle
62
9
6
CONTINUOUS
10
-37.3511342539
20
-11.5254221166
40
1.3375751269
100
AcDbArc
50
187.7338645431
51
262.2661354569
0
ARC
5
362
100
AcDbEntity
8
0
100
AcDbCircle
62
9
6
CONTINUOUS
10
-37.3511342539
20
16.9745778834
40
1.3375751269
100
AcDbArc
50
97.7338645431
51
172.2661354569
0
ARC
5
363
100
AcDbEntity
8
0
100
AcDbCircle
62
7
6
CONTINUOUS
10
-37.3511342539
20
16.9745778834
40
1.3456528587
100
AcDbArc
50
82.3128420128
51
97.6871579872
0
ARC
5
364
100
AcDbEntity
8
0
100
AcDbCircle
62
9
6
CONTINUOUS
10
-37.3511342539
20
16.9745778834
40
1.3375751269
100
AcDbArc
50
187.7338645431
51
82.2661354569
0
ARC
5
365
100
AcDbEntity
8
0
100
AcDbCircle
62
7
6
CONTINUOUS
10
-37.3511342539
20
16.9745778834
40
1.3456528587
100
AcDbArc
50
172.3128420128
51
187.6871579872
0
CIRCLE
5
366
100
AcDbEntity
8
0
100
AcDbCircle
62
7
6
CONTINUOUS
10
-37.3511342539
20
16.9745778834
40
1.1869585760
0
ARC
5
367
100
AcDbEntity
8
0
100
AcDbCircle
62
9
6
CONTINUOUS
10
-37.3511342539
20
-11.5254221166
40
1.3375751269
100
AcDbArc
50
277.7338645431
51
172.2661354569
0
CIRCLE
5
368
100
AcDbEntity
8
0
100
AcDbCircle
62
7
6
CONTINUOUS
10
-37.3511342539
20
-11.5254221166
40
1.1869585760
0
ARC
5
369
100
AcDbEntity
8
0
100
AcDbCircle
62
7
6
CONTINUOUS
10
-37.3511342539
20
-11.5254221166
40
1.3456528587
100
AcDbArc
50
172.3128420128
51
187.6871579872
0
ARC
5
36A
100
AcDbEntity
8
0
100
AcDbCircle
62
9
6
CONTINUOUS
10
-37.3511342539
20
16.9745778834
40
1.9284597787
100
AcDbArc
50
189.5628354957
51
84.6442362005
0
ARC
5
36B
100
AcDbEntity
8
0
100
AcDbCircle
62
9
6
CONTINUOUS
10
16.6488657461
20
16.9745778834
40
1.9284597787
100
AcDbArc
50
95.3557637995
51
350.4371645043
0
ARC
5
36C
100
AcDbEntity
8
0
100
AcDbCircle
62
9
6
CONTINUOUS
10
16.6488657461
20
-11.5254221166
40
1.9284597787
100
AcDbArc
50
9.5628354957
51
264.6442362005
0
ARC
5
36D
100
AcDbEntity
8
0
100
AcDbCircle
62
9
6
CONTINUOUS
10
-37.3511342539
20
-11.5254221166
40
1.9284597787
100
AcDbArc
50
275.3557637995
51
170.4371645043
0
SPLINE
5
36E
100
AcDbEntity
8
0
100
AcDbSpline
62
7
6
CONTINUOUS
70
0
71
3
72
13
73
9
74
7
42
0.0000001000
43
0.0000001000
44
0.0000000001
12
0.6142506790
22
0.2818672528
32
0.0000000000
13
-0.5837219379
23
-0.3531393009
33
0.0000000000
40
0.0000000000
40
0.0000000000
40
0.0000000000
40
0.0000000000
40
0.1555715268
40
0.2990043197
40
0.4552178779
40
0.6215136701
40
0.8024099286
40
1.0000000000
40
1.0000000000
40
1.0000000000
40
1.0000000000
10
-9.4591306212
20
15.4533907848
30
0.0000000000
10
-9.4272773159
20
15.4680076244
30
0.0000000000
10
-9.3697382716
20
15.5113903486
30
0.0000000000
10
-9.3405809940
20
15.6160446354
30
0.0000000000
10
-9.3712757819
20
15.7222956100
30
0.0000000000
10
-9.4612269729
20
15.8007941726
30
0.0000000000
10
-9.5844755643
20
15.8277248380
30
0.0000000000
10
-9.6735592948
20
15.8061919191
30
0.0000000000
10
-9.7120051813
20
15.7829329792
30
0.0000000000
11
-9.4591306212
21
15.4533907848
31
0.0000000000
11
-9.3777942367
21
15.5200162911
31
0.0000000000
11
-9.3503201539
21
15.6129783246
31
0.0000000000
11
-9.3791472531
21
15.7145410875
31
0.0000000000
11
-9.4624054488
21
15.7900344927
31
0.0000000000
11
-9.5814885402
21
15.8177067834
31
0.0000000000
11
-9.7120051813
21
15.7829329792
31
0.0000000000
0
SPLINE
5
36F
100
AcDbEntity
8
0
100
AcDbSpline
62
7
6
CONTINUOUS
70
0
71
3
72
12
73
8
74
6
42
0.0000001000
43
0.0000001000
44
0.0000000001
12
0.0657629444
22
0.4370183953
32
0.0000000000
13
-0.0830153731
23
-0.4392444016
33
0.0000000000
40
0.0000000000
40
0.0000000000
40
0.0000000000
40
0.0000000000
40
0.2670143771
40
0.4955430218
40
0.7210616220
40
0.9366716295
40
1.0000000000
40
1.0000000000
40
1.0000000000
40
1.0000000000
10
-9.7220648539
20
15.5948805834
30
0.0000000000
10
-9.7162116366
20
15.6337773149
30
0.0000000000
10
-9.6898661069
20
15.7109948594
30
0.0000000000
10
-9.5798195515
20
15.7503882460
30
0.0000000000
10
-9.4760612532
20
15.7155425112
30
0.0000000000
10
-9.4470164706
20
15.6381850193
30
0.0000000000
10
-9.4499536040
20
15.5959988331
30
0.0000000000
10
-9.4517060135
20
15.5867266223
30
0.0000000000
11
-9.7220648539
21
15.5948805834
31
0.0000000000
11
-9.6735112092
21
15.7024328334
31
0.0000000000
11
-9.5790927420
21
15.7382835834
31
0.0000000000
11
-9.4857515289
21
15.7033463436
31
0.0000000000
11
-9.4495991539
21
15.6151845246
31
0.0000000000
11
-9.4517060135
21
15.5867266223
31
0.0000000000
0
SPLINE
5
370
100
AcDbEntity
8
0
100
AcDbSpline
62
7
6
CONTINUOUS
70
0
71
3
72
8
73
4
74
2
42
0.0000001000
43
0.0000001000
44
0.0000000001
12
-0.0157038686
22
0.0000000000
32
0.0000000000
13
-0.0156098341
23
0.0017159743
33
0.0000000000
40
0.0000000000
40
0.0000000000
40
0.0000000000
40
0.0000000000
40
1.0000000000
40
1.0000000000
40
1.0000000000
40
1.0000000000
10
-9.6111515868
20
15.4835019558
30
0.0000000000
10
-9.6163862097
20
15.4835019558
30
0.0000000000
10
-9.6216157759
20
15.4839985916
30
0.0000000000
10
-9.6268190539
20
15.4845705830
30
0.0000000000
11
-9.6111515868
21
15.4835019558
31
0.0000000000
11
-9.6268190539
21
15.4845705830
31
0.0000000000
0
SPLINE
5
371
100
AcDbEntity
8
0
100
AcDbSpline
62
7
6
CONTINUOUS
70
0
71
3
72
9
73
5
74
3
42
0.0000001000
43
0.0000001000
44
0.0000000001
12
0.0853237133
22
0.0224158965
32
0.0000000000
13
0.0883741792
23
-0.0086390233
33
0.0000000000
40
0.0000000000
40
0.0000000000
40
0.0000000000
40
0.0000000000
40
0.7861640329
40
1.0000000000
40
1.0000000000
40
1.0000000000
40
1.0000000000
10
-9.6376088515
20
15.3996318569
30
0.0000000000
10
-9.6152493734
20
15.4055060474
30
0.0000000000
10
-9.5860565683
20
15.4114548050
30
0.0000000000
10
-9.5564547222
20
15.4101953097
30
0.0000000000
10
-9.5501555295
20
15.4095795318
30
0.0000000000
11
-9.6376088515
21
15.3996318569
31
0.0000000000
11
-9.5690958972
21
15.4104043572
31
0.0000000000
11
-9.5501555295
21
15.4095795318
31
0.0000000000
0
SPLINE
5
372
100
AcDbEntity
8
0
100
AcDbSpline
62
7
6
CONTINUOUS
70
0
71
3
72
12
73
8
74
6
42
0.0000001000
43
0.0000001000
44
0.0000000001
12
0.4222157393
22
-0.0412737253
32
0.0000000000
13
-0.4113453363
23
-0.1369043946
33
0.0000000000
40
0.0000000000
40
0.0000000000
40
0.0000000000
40
0.0000000000
40
0.1033895514
40
0.2441725849
40
0.5254820380
40
0.8256609679
40
1.0000000000
40
1.0000000000
40
1.0000000000
40
1.0000000000
10
-9.5501555295
20
15.4095795318
30
0.0000000000
10
-9.5356046309
20
15.4081571078
30
0.0000000000
10
-9.5016275896
20
15.4004319026
30
0.0000000000
10
-9.4377913520
20
15.3591237938
30
0.0000000000
10
-9.3980670102
20
15.2539076999
30
0.0000000000
10
-9.4408888033
20
15.1445875105
30
0.0000000000
10
-9.5007526445
20
15.1082249399
30
0.0000000000
10
-9.5246571604
20
15.1002690134
30
0.0000000000
11
-9.5501555295
21
15.4095795318
31
0.0000000000
11
-9.5076045358
21
15.3995586422
31
0.0000000000
11
-9.4579844307
21
15.3670214970
31
0.0000000000
11
-9.4142999539
21
15.2567976780
31
0.0000000000
11
-9.4612161678
21
15.1393002834
31
0.0000000000
11
-9.5246571604
21
15.1002690134
31
0.0000000000
0
SPLINE
5
373
100
AcDbEntity
8
0
100
AcDbSpline
62
7
6
CONTINUOUS
70
0
71
3
72
13
73
9
74
7
42
0.0000001000
43
0.0000001000
44
0.0000000001
12
0.0798111424
22
-0.8120027579
32
0.0000000000
13
-0.1885967400
23
0.8132928139
33
0.0000000000
40
0.0000000000
40
0.0000000000
40
0.0000000000
40
0.0000000000
40
0.2192384581
40
0.3300681966
40
0.4482603524
40
0.6981628849
40
0.9322609598
40
1.0000000000
40
1.0000000000
40
1.0000000000
40
1.0000000000
10
-9.8290655539
20
15.2341668834
30
0.0000000000
10
-9.8232329966
20
15.1748261392
30
0.0000000000
10
-9.7809303376
20
15.0836223974
30
0.0000000000
10
-9.6730409964
20
15.0204716965
30
0.0000000000
10
-9.5426260013
20
15.0007218217
30
0.0000000000
10
-9.3698553409
20
15.0582013109
30
0.0000000000
10
-9.3049520205
20
15.2117767198
30
0.0000000000
10
-9.3132166480
20
15.2969518341
30
0.0000000000
10
-9.3174751020
20
15.3153157257
30
0.0000000000
11
-9.8290655539
21
15.2341668834
31
0.0000000000
11
-9.7506506463
21
15.0733900626
31
0.0000000000
11
-9.6731169375
21
15.0268530282
31
0.0000000000
11
-9.5779379334
21
15.0113406834
31
0.0000000000
11
-9.3871619686
21
15.0833093445
31
0.0000000000
11
-9.3117116539
21
15.2587798074
31
0.0000000000
11
-9.3174751020
21
15.3153157257
31
0.0000000000
0
SPLINE
5
374
100
AcDbEntity
8
0
100
AcDbSpline
62
7
6
CONTINUOUS
70
0
71
3
72
12
73
8
74
6
42
0.0000001000
43
0.0000001000
44
0.0000000001
12
0.0053985438
22
0.5891177622
32
0.0000000000
13
0.1306785596
23
-0.5744667058
33
0.0000000000
40
0.0000000000
40
0.0000000000
40
0.0000000000
40
0.0000000000
40
0.3133833609
40
0.5190979956
40
0.6656846068
40
0.8456976516
40
1.0000000000
40
1.0000000000
40
1.0000000000
40
1.0000000000
10
-10.3508318539
20
15.4324835934
30
0.0000000000
10
-10.3502679159
20
15.4940234948
30
0.0000000000
10
-10.3437349961
20
15.5980407408
30
0.0000000000
10
-10.2678198570
20
15.7152946782
30
0.0000000000
10
-10.1628463081
20
15.7502834017
30
0.0000000000
10
-10.0624882936
20
15.7102405168
30
0.0000000000
10
-10.0409634901
20
15.6431804706
30
0.0000000000
10
-10.0342421539
20
15.6136332834
30
0.0000000000
11
-10.3508318539
21
15.4324835934
31
0.0000000000
11
-10.3231854006
21
15.6150293988
31
0.0000000000
11
-10.2510874764
21
15.7124469228
31
0.0000000000
11
-10.1686824643
21
15.7382835834
31
0.0000000000
11
-10.0711098144
21
15.6967277436
31
0.0000000000
11
-10.0342421539
21
15.6136332834
31
0.0000000000
0
SPLINE
5
375
100
AcDbEntity
8
0
100
AcDbSpline
62
7
6
CONTINUOUS
70
0
71
3
72
17
73
13
74
11
42
0.0000001000
43
0.0000001000
44
0.0000000001
12
-0.1324149661
22
1.0256878946
32
0.0000000000
13
0.1757277362
23
-1.0191564282
33
0.0000000000
40
0.0000000000
40
0.0000000000
40
0.0000000000
40
0.0000000000
40
0.1556170575
40
0.2315528138
40
0.3146580621
40
0.4255489564
40
0.5320744858
40
0.6765364676
40
0.7658908010
40
0.8691448066
40
0.9612404795
40
1.0000000000
40
1.0000000000
40
1.0000000000
40
1.0000000000
10
-9.9382724539
20
15.6213549834
30
0.0000000000
10
-9.9451411297
20
15.6745598274
30
0.0000000000
10
-9.9812843462
20
15.7563025711
30
0.0000000000
10
-10.0787781506
20
15.8104991986
30
0.0000000000
10
-10.1723241679
20
15.8227224482
30
0.0000000000
10
-10.2776913039
20
15.8046128845
30
0.0000000000
10
-10.3792825984
20
15.7235245535
30
0.0000000000
10
-10.4252947990
20
15.6110759756
30
0.0000000000
10
-10.4439355034
20
15.4964693722
30
0.0000000000
10
-10.4482648308
20
15.3981682646
30
0.0000000000
10
-10.4448200586
20
15.3173690575
30
0.0000000000
10
-10.4388221705
20
15.2726852220
30
0.0000000000
10
-10.4365517962
20
15.2595178839
30
0.0000000000
11
-9.9382724539
21
15.6213549834
31
0.0000000000
11
-10.0098015919
21
15.7655249859
31
0.0000000000
11
-10.0778878535
21
15.8046613340
31
0.0000000000
11
-10.1628394764
21
15.8177067834
31
0.0000000000
11
-10.2752694912
21
15.7950846195
31
0.0000000000
11
-10.3620524352
21
15.7272181278
31
0.0000000000
11
-10.4256142742
21
15.5920108107
31
0.0000000000
11
-10.4415047339
21
15.5009770487
31
0.0000000000
11
-10.4468015539
21
15.3943232178
31
0.0000000000
11
-10.4420180422
21
15.2991980816
31
0.0000000000
11
-10.4365517962
21
15.2595178839
31
0.0000000000
0
SPLINE
5
376
100
AcDbEntity
8
0
100
AcDbSpline
62
7
6
CONTINUOUS
70
0
71
3
72
8
73
4
74
2
42
0.0000001000
43
0.0000001000
44
0.0000000001
12
0.0756203518
22
0.0278828499
32
0.0000000000
13
0.0710627391
23
0.0384855299
33
0.0000000000
40
0.0000000000
40
0.0000000000
40
0.0000000000
40
0.0000000000
40
1.0000000000
40
1.0000000000
40
1.0000000000
40
1.0000000000
10
-10.9829081539
20
15.5256782988
30
0.0000000000
10
-10.9577013699
20
15.5349725821
30
0.0000000000
10
-10.9333976270
20
15.5464873179
30
0.0000000000
10
-10.9097100473
20
15.5593158278
30
0.0000000000
11
-10.9829081539
21
15.5256782988
31
0.0000000000
11
-10.9097100473
21
15.5593158278
31
0.0000000000
0
SPLINE
5
377
100
AcDbEntity
8
0
100
AcDbSpline
62
7
6
CONTINUOUS
70
0
71
3
72
9
73
5
74
3
42
0.0000001000
43
0.0000001000
44
0.0000000001
12
0.1295020845
22
0.0701345938
32
0.0000000000
13
0.1063369324
23
0.1013180541
33
0.0000000000
40
0.0000000000
40
0.0000000000
40
0.0000000000
40
0.0000000000
40
0.2261559497
40
1.0000000000
40
1.0000000000
40
1.0000000000
40
1.0000000000
10
-10.9097100473
20
15.5593158278
30
0.0000000000
10
-10.8999474916
20
15.5646029464
30
0.0000000000
10
-10.8572429089
20
15.5889678744
30
0.0000000000
10
-10.8161919547
20
15.6164548715
30
0.0000000000
10
-10.7887625539
20
15.6425896626
30
0.0000000000
11
-10.9097100473
21
15.5593158278
31
0.0000000000
11
-10.8807162781
21
15.5757831762
31
0.0000000000
11
-10.7887625539
21
15.6425896626
31
0.0000000000
0
SPLINE
5
378
100
AcDbEntity
8
0
100
AcDbSpline
62
7
6
CONTINUOUS
70
0
71
3
72
9
73
5
74
3
42
0.0000001000
43
0.0000001000
44
0.0000000001
12
-0.0706925994
22
-0.1427307827
32
0.0000000000
13
-0.1249186841
23
-0.1008607224
33
0.0000000000
40
0.0000000000
40
0.0000000000
40
0.0000000000
40
0.0000000000
40
0.8562170050
40
1.0000000000
40
1.0000000000
40
1.0000000000
40
1.0000000000
10
-10.7542562022
20
15.8177067834
30
0.0000000000
10
-10.7744322708
20
15.7769706090
30
0.0000000000
10
-10.8112123782
20
15.7365417740
30
0.0000000000
10
-10.8522649025
20
15.7020647399
30
0.0000000000
10
-10.8582519633
20
15.6972307210
30
0.0000000000
11
-10.7542562022
21
15.8177067834
31
0.0000000000
11
-10.8405479187
21
15.7121022072
31
0.0000000000
11
-10.8582519633
21
15.6972307210
31
0.0000000000
0
SPLINE
5
379
100
AcDbEntity
8
0
100
AcDbSpline
62
7
6
CONTINUOUS
70
0
71
3
72
8
73
4
74
2
42
0.0000001000
43
0.0000001000
44
0.0000000001
12
-0.1152639613
22
-0.0930653928
32
0.0000000000
13
-0.1330123960
23
-0.0625079506
33
0.0000000000
40
0.0000000000
40
0.0000000000
40
0.0000000000
40
0.0000000000
40
1.0000000000
40
1.0000000000
40
1.0000000000
40
1.0000000000
10
-10.8582519633
20
15.6972307210
30
0.0000000000
10
-10.8966732838
20
15.6662089234
30
0.0000000000
10
-10.9385706885
20
15.6402605461
30
0.0000000000
10
-10.9829081539
20
15.6194245626
30
0.0000000000
11
-10.8582519633
21
15.6972307210
31
0.0000000000
11
-10.9829081539
21
15.6194245626
31
0.0000000000
0
SPLINE
5
37A
100
AcDbEntity
8
0
100
AcDbSpline
62
7
6
CONTINUOUS
70
0
71
3
72
10
73
6
74
4
42
0.0000001000
43
0.0000001000
44
0.0000000001
12
-0.4949648350
22
-0.5655085670
32
0.0000000000
13
-0.0130463723
23
-0.7514119505
33
0.0000000000
40
0.0000000000
40
0.0000000000
40
0.0000000000
40
0.0000000000
40
0.3316029707
40
0.6960516186
40
1.0000000000
40
1.0000000000
40
1.0000000000
40
1.0000000000
10
-11.2774358539
20
15.7118091834
30
0.0000000000
10
-11.3321464571
20
15.6493010765
30
0.0000000000
10
-11.4283328699
20
15.5013967603
30
0.0000000000
10
-11.5197212967
20
15.2671773868
30
0.0000000000
10
-11.5518890459
20
15.1007080321
30
0.0000000000
10
-11.5532108539
20
15.0245778834
30
0.0000000000
11
-11.2774358539
21
15.7118091834
31
0.0000000000
11
-11.4164005911
21
15.5049434694
31
0.0000000000
11
-11.5166534196
21
15.2500584246
31
0.0000000000
11
-11.5532108539
21
15.0245778834
31
0.0000000000
0
SPLINE
5
37B
100
AcDbEntity
8
0
100
AcDbSpline
62
7
6
CONTINUOUS
70
0
71
3
72
12
73
8
74
6
42
0.0000001000
43
0.0000001000
44
0.0000000001
12
0.0531878810
22
0.7772910283
32
0.0000000000
13
0.5336387128
23
0.5676618867
33
0.0000000000
40
0.0000000000
40
0.0000000000
40
0.0000000000
40
0.0000000000
40
0.2830836826
40
0.4720526873
40
0.6648791927
40
0.8460982752
40
1.0000000000
40
1.0000000000
40
1.0000000000
40
1.0000000000
10
-11.4539318539
20
15.0245778834
30
0.0000000000
10
-11.4489129801
20
15.0979240190
30
0.0000000000
10
-11.4283205040
20
15.2199138334
30
0.0000000000
10
-11.3700949749
20
15.3828810227
30
0.0000000000
10
-11.3057560486
20
15.5144827890
30
0.0000000000
10
-11.2340154883
20
15.6315376327
30
0.0000000000
10
-11.1801615266
20
15.7003546384
30
0.0000000000
10
-11.1527855539
20
15.7294760196
30
0.0000000000
11
-11.4539318539
21
15.0245778834
31
0.0000000000
11
-11.4167539248
21
15.2419747644
31
0.0000000000
11
-11.3679352905
21
15.3808727282
31
0.0000000000
11
-11.3022814497
21
15.5160003237
31
0.0000000000
11
-11.2278717538
21
15.6359904533
31
0.0000000000
11
-11.1527855539
21
15.7294760196
31
0.0000000000
0
SPLINE
5
37C
100
AcDbEntity
8
0
100
AcDbSpline
62
7
6
CONTINUOUS
70
0
71
3
72
9
73
5
74
3
42
0.0000001000
43
0.0000001000
44
0.0000000001
12
-0.2602400750
22
-0.7015231211
32
0.0000000000
13
-0.2036043090
23
-0.7200033830
33
0.0000000000
40
0.0000000000
40
0.0000000000
40
0.0000000000
40
0.0000000000
40
0.8180842246
40
1.0000000000
40
1.0000000000
40
1.0000000000
40
1.0000000000
10
-11.8311920539
20
15.8143974834
30
0.0000000000
10
-11.9021581539
20
15.6230958172
30
0.0000000000
10
-11.9921384947
20
15.3905645501
30
0.0000000000
10
-12.0742134169
20
15.1548312330
30
0.0000000000
10
-12.0865596954
20
15.1111712418
30
0.0000000000
11
-11.8311920539
21
15.8143974834
31
0.0000000000
11
-12.0440903539
21
15.2404924848
31
0.0000000000
11
-12.0865596954
21
15.1111712418
31
0.0000000000
0
SPLINE
5
37D
100
AcDbEntity
8
0
100
AcDbSpline
62
7
6
CONTINUOUS
70
0
71
3
72
8
73
4
74
2
42
0.0000001000
43
0.0000001000
44
0.0000000001
12
-0.0361808657
22
0.1308939731
32
0.0000000000
13
-0.0459038597
23
0.1278089312
33
0.0000000000
40
0.0000000000
40
0.0000000000
40
0.0000000000
40
0.0000000000
40
1.0000000000
40
1.0000000000
40
1.0000000000
40
1.0000000000
10
-12.0865596954
20
15.1111712418
30
0.0000000000
10
-12.0986199840
20
15.1548025662
30
0.0000000000
10
-12.1127108315
20
15.1978895077
30
0.0000000000
10
-12.1280121180
20
15.2404924848
30
0.0000000000
11
-12.0865596954
21
15.1111712418
31
0.0000000000
11
-12.1280121180
21
15.2404924848
31
0.0000000000
0
SPLINE
5
37E
100
AcDbEntity
8
0
100
AcDbSpline
62
7
6
CONTINUOUS
70
0
71
3
72
18
73
14
74
12
42
0.0000001000
43
0.0000001000
44
0.0000000001
12
-0.0007682784
22
-0.7974611950
32
0.0000000000
13
0.0003889217
23
0.7961247250
33
0.0000000000
40
0.0000000000
40
0.0000000000
40
0.0000000000
40
0.0000000000
40
0.1101179163
40
0.2022182129
40
0.3312224550
40
0.4192377629
40
0.4989966504
40
0.5787343149
40
0.6665764934
40
0.7955016273
40
0.8875708007
40
0.9412691872
40
1.0000000000
40
1.0000000000
40
1.0000000000
40
1.0000000000
10
-8.8009771365
20
15.4125067159
30
0.0000000000
10
-8.8010053369
20
15.3832351275
30
0.0000000000
10
-8.8024450216
20
15.3294919756
30
0.0000000000
10
-8.8116880526
20
15.2423682255
30
0.0000000000
10
-8.8339452247
20
15.1606566029
30
0.0000000000
10
-8.8923666316
20
15.1027566212
30
0.0000000000
10
-8.9587154992
20
15.0850764601
30
0.0000000000
10
-9.0250084415
20
15.1026876888
30
0.0000000000
10
-9.0835590834
20
15.1603609893
30
0.0000000000
10
-9.1056960165
20
15.2420742263
30
0.0000000000
10
-9.1135217821
20
15.3142634194
30
0.0000000000
10
-9.1160637036
20
15.3685465805
30
0.0000000000
10
-9.1164705678
20
15.3983864993
30
0.0000000000
10
-9.1164629539
20
15.4139721834
30
0.0000000000
11
-8.8009771365
21
15.4125067159
31
0.0000000000
11
-8.8038197446
21
15.3248672389
31
0.0000000000
11
-8.8123499170
21
15.2520254765
31
0.0000000000
11
-8.8464706065
21
15.1551314979
31
0.0000000000
11
-8.8972799947
21
15.1068557870
31
0.0000000000
11
-8.9587196539
21
15.0907638834
31
0.0000000000
11
-9.0201593025
21
15.1067889967
31
0.0000000000
11
-9.0709686927
21
15.1548643368
31
0.0000000000
11
-9.1050893886
21
15.2516915251
31
0.0000000000
11
-9.1136810568
21
15.3245011044
31
0.0000000000
11
-9.1157751664
21
15.3672098562
31
0.0000000000
11
-9.1164629539
21
15.4139721834
31
0.0000000000
0
SPLINE
5
37F
100
AcDbEntity
8
0
100
AcDbSpline
62
7
6
CONTINUOUS
70
0
71
3
72
18
73
14
74
12
42
0.0000001000
43
0.0000001000
44
0.0000000001
12
0.0003889217
22
0.7961247250
32
0.0000000000
13
-0.0007682784
23
-0.7974611950
33
0.0000000000
40
0.0000000000
40
0.0000000000
40
0.0000000000
40
0.0000000000
40
0.0585310585
40
0.1121490415
40
0.2054386686
40
0.3439731308
40
0.4958340169
40
0.5767556382
40
0.6648102915
40
0.7936923148
40
0.8859346390
40
0.9981623389
40
1.0000000000
40
1.0000000000
40
1.0000000000
40
1.0000000000
10
-9.1164629539
20
15.4139721834
30
0.0000000000
10
-9.1164553659
20
15.4295048577
30
0.0000000000
10
-9.1160218672
20
15.4592623926
30
0.0000000000
10
-9.1133447452
20
15.5138311829
30
0.0000000000
10
-9.1040713970
20
15.5884573158
30
0.0000000000
10
-9.0795477465
20
15.6919158390
30
0.0000000000
10
-8.9786661911
20
15.7487192676
30
0.0000000000
10
-8.8927794048
20
15.7252874153
30
0.0000000000
10
-8.8336880854
20
15.6677703969
30
0.0000000000
10
-8.8116671250
20
15.5857993296
30
0.0000000000
10
-8.8023821486
20
15.4981632311
30
0.0000000000
10
-8.8009605193
20
15.4433162029
30
0.0000000000
10
-8.8009766659
20
15.4129952037
30
0.0000000000
10
-8.8009771365
20
15.4125067159
30
0.0000000000
11
-9.1164629539
21
15.4139721834
31
0.0000000000
11
-9.1157228810
21
15.4605746278
31
0.0000000000
11
-9.1134809664
21
15.5032117623
31
0.0000000000
11
-9.1043614351
21
15.5769364652
31
0.0000000000
11
-9.0666683281
21
15.6806121486
31
0.0000000000
11
-8.9597882815
21
15.7371804834
31
0.0000000000
11
-8.8973747896
21
15.7211553721
31
0.0000000000
11
-8.8463327169
21
15.6730800384
31
0.0000000000
11
-8.8123154446
21
15.5762528522
31
0.0000000000
11
-8.8038111265
21
15.5032942031
31
0.0000000000
11
-8.8009763539
21
15.4139721834
31
0.0000000000
11
-8.8009771365
21
15.4125067159
31
0.0000000000
0
SPLINE
5
380
100
AcDbEntity
8
0
100
AcDbSpline
62
7
6
CONTINUOUS
70
0
71
3
72
18
73
14
74
12
42
0.0000001000
43
0.0000001000
44
0.0000000001
12
0.0026335873
22
1.0766547314
32
0.0000000000
13
0.0007183076
23
-1.0780986171
33
0.0000000000
40
0.0000000000
40
0.0000000000
40
0.0000000000
40
0.0000000000
40
0.0984363441
40
0.1749778389
40
0.2375622490
40
0.2934900596
40
0.3939952252
40
0.5003885946
40
0.5743134961
40
0.6419486816
40
0.7878848469
40
0.8827641251
40
1.0000000000
40
1.0000000000
40
1.0000000000
40
1.0000000000
10
-8.7016983384
20
15.4138054795
30
0.0000000000
10
-8.7016119248
20
15.4491327980
30
0.0000000000
10
-8.7035697961
20
15.5119155511
30
0.0000000000
10
-8.7161748498
20
15.5965218035
30
0.0000000000
10
-8.7382263642
20
15.6632254892
30
0.0000000000
10
-8.7729226436
20
15.7338890494
30
0.0000000000
10
-8.8439762419
20
15.8031467058
30
0.0000000000
10
-8.9472652704
20
15.8226468651
30
0.0000000000
10
-9.0365378481
20
15.8114466933
30
0.0000000000
10
-9.1297606578
20
15.7614683712
30
0.0000000000
10
-9.1880927684
20
15.6586081356
30
0.0000000000
10
-9.2121890424
20
15.5326453618
30
0.0000000000
10
-9.2157700243
20
15.4563785741
30
0.0000000000
10
-9.2157419539
20
15.4142479626
30
0.0000000000
11
-8.7016983384
21
15.4138054795
31
0.0000000000
11
-8.7061334515
21
15.5196241802
31
0.0000000000
11
-8.7194417445
21
15.6008959332
31
0.0000000000
11
-8.7404782011
21
15.6648628039
31
0.0000000000
11
-8.7680987895
21
15.7183243746
31
0.0000000000
11
-8.8471428015
21
15.7921200393
31
0.0000000000
11
-8.9587196539
21
15.8177067834
31
0.0000000000
11
-9.0374210985
21
15.8061953327
31
0.0000000000
11
-9.1014763048
21
15.7716609807
31
0.0000000000
11
-9.1869751729
21
15.6399611841
31
0.0000000000
11
-9.2085448405
21
15.5401814068
31
0.0000000000
11
-9.2157419539
21
15.4142479626
31
0.0000000000
0
SPLINE
5
381
100
AcDbEntity
8
0
100
AcDbSpline
62
7
6
CONTINUOUS
70
0
71
3
72
18
73
14
74
12
42
0.0000001000
43
0.0000001000
44
0.0000000001
12
0.0007183076
22
-1.0780986171
32
0.0000000000
13
0.0026335873
23
1.0766547314
33
0.0000000000
40
0.0000000000
40
0.0000000000
40
0.0000000000
40
0.0000000000
40
0.0963338814
40
0.1793703934
40
0.3117378032
40
0.4032410390
40
0.4996885195
40
0.5740011378
40
0.6418351637
40
0.7115103768
40
0.7893378866
40
0.8834499441
40
1.0000000000
40
1.0000000000
40
1.0000000000
40
1.0000000000
10
-9.2157419539
20
15.4142479626
30
0.0000000000
10
-9.2157188881
20
15.3796288212
30
0.0000000000
10
-9.2131523671
20
15.3151967981
30
0.0000000000
10
-9.1956872954
20
15.2049992618
30
0.0000000000
10
-9.1557170282
20
15.0980291919
30
0.0000000000
10
-9.0623147535
20
15.0227021346
30
0.0000000000
10
-8.9665553063
20
15.0069807544
30
0.0000000000
10
-8.8805172721
20
15.0175858669
30
0.0000000000
10
-8.8119064379
20
15.0545202844
30
0.0000000000
10
-8.7609298717
20
15.1143524908
30
0.0000000000
10
-8.7249690992
20
15.1941678325
30
0.0000000000
10
-8.7049954500
20
15.2963537947
30
0.0000000000
10
-8.7018006533
20
15.3719774231
30
0.0000000000
10
-8.7016983384
20
15.4138054795
30
0.0000000000
11
-9.2157419539
21
15.4142479626
31
0.0000000000
11
-9.2108037911
21
15.3107160497
31
0.0000000000
11
-9.1960755704
21
15.2225959719
31
0.0000000000
11
-9.1377665610
21
15.0926598486
31
0.0000000000
11
-9.0604806204
21
15.0316704747
31
0.0000000000
11
-8.9587196539
21
15.0113406834
31
0.0000000000
11
-8.8796066949
21
15.0229210810
31
0.0000000000
11
-8.8154200626
21
15.0576622737
31
0.0000000000
11
-8.7657525559
21
15.1138148083
31
0.0000000000
11
-8.7301969738
21
15.1896292314
31
0.0000000000
11
-8.7088222588
21
15.2886065979
31
0.0000000000
11
-8.7016983384
21
15.4138054795
31
0.0000000000
0
SPLINE
5
382
100
AcDbEntity
8
0
100
AcDbSpline
62
7
6
CONTINUOUS
70
0
71
3
72
13
73
9
74
7
42
0.0000001000
43
0.0000001000
44
0.0000000001
12
-0.0167012759
22
-0.5285229086
32
0.0000000000
13
0.0004203095
23
0.5295299983
33
0.0000000000
40
0.0000000000
40
0.0000000000
40
0.0000000000
40
0.0000000000
40
0.1269834275
40
0.2549337289
40
0.4778637997
40
0.6381068378
40
0.8126720746
40
1.0000000000
40
1.0000000000
40
1.0000000000
40
1.0000000000
10
-10.0244684099
20
15.2646406002
30
0.0000000000
10
-10.0251753383
20
15.2422693834
30
0.0000000000
10
-10.0315817493
20
15.1976463362
30
0.0000000000
10
-10.0718492547
20
15.1219834534
30
0.0000000000
10
-10.1631524088
20
15.0777175157
30
0.0000000000
10
-10.2621272588
20
15.1088622743
30
0.0000000000
10
-10.3221569025
20
15.1835906230
30
0.0000000000
10
-10.3354146991
20
15.2474835400
30
0.0000000000
10
-10.3353884539
20
15.2805487920
30
0.0000000000
11
-10.0244684099
21
15.2646406002
31
0.0000000000
11
-10.0352978543
21
15.1988720030
31
0.0000000000
11
-10.0682486557
21
15.1403689194
31
0.0000000000
11
-10.1741979643
21
15.0907638834
31
0.0000000000
11
-10.2547932006
21
15.1147563126
31
0.0000000000
11
-10.3140934479
21
15.1845791004
31
0.0000000000
11
-10.3353884539
21
15.2805487920
31
0.0000000000
0
SPLINE
5
383
100
AcDbEntity
8
0
100
AcDbSpline
62
7
6
CONTINUOUS
70
0
71
3
72
14
73
10
74
8
42
0.0000001000
43
0.0000001000
44
0.0000000001
12
0.0004203095
22
0.5295299983
32
0.0000000000
13
-0.0167012759
23
-0.5285229086
33
0.0000000000
40
0.0000000000
40
0.0000000000
40
0.0000000000
40
0.0000000000
40
0.1349710862
40
0.2563277597
40
0.4872020096
40
0.7157488882
40
0.8389599647
40
0.9800889363
40
1.0000000000
40
1.0000000000
40
1.0000000000
40
1.0000000000
10
-10.3353884539
20
15.2805487920
30
0.0000000000
10
-10.3353695440
20
15.3043725383
30
0.0000000000
10
-10.3285418681
20
15.3496092169
30
0.0000000000
10
-10.2828959799
20
15.4242517533
30
0.0000000000
10
-10.1786176329
20
15.4691969797
30
0.0000000000
10
-10.0728657416
20
15.4243989966
30
0.0000000000
10
-10.0297373364
20
15.3466802965
30
0.0000000000
10
-10.0239550172
20
15.2965482312
30
0.0000000000
10
-10.0243575632
20
15.2681484180
30
0.0000000000
10
-10.0244684099
20
15.2646406002
30
0.0000000000
11
-10.3353884539
21
15.2805487920
31
0.0000000000
11
-10.3234137510
21
15.3503578557
31
0.0000000000
11
-10.2895667134
21
15.4043028264
31
0.0000000000
11
-10.1779726248
21
15.4514775834
31
0.0000000000
11
-10.0677057238
21
15.4043028264
31
0.0000000000
11
-10.0351621213
21
15.3484325367
31
0.0000000000
11
-10.0243142539
21
15.2751711816
31
0.0000000000
11
-10.0244684099
21
15.2646406002
31
0.0000000000
0
SPLINE
5
384
100
AcDbEntity
8
0
100
AcDbSpline
62
7
6
CONTINUOUS
70
0
71
3
72
15
73
11
74
9
42
0.0000001000
43
0.0000001000
44
0.0000000001
12
0.0070028237
22
0.4061314125
32
0.0000000000
13
-0.4061875013
23
0.0018648099
33
0.0000000000
40
0.0000000000
40
0.0000000000
40
0.0000000000
40
0.0000000000
40
0.1149293105
40
0.2060811432
40
0.3341924356
40
0.4552601699
40
0.5704742312
40
0.6837748557
40
0.8381885424
40
1.0000000000
40
1.0000000000
40
1.0000000000
40
1.0000000000
10
-11.4858029713
20
14.4245778834
30
0.0000000000
10
-11.4855346948
20
14.4401366845
30
0.0000000000
10
-11.4862602795
20
14.4680893824
30
0.0000000000
10
-11.4926819200
20
14.5130073263
30
0.0000000000
10
-11.5064090610
20
14.5571502800
30
0.0000000000
10
-11.5272021433
20
14.6023106072
30
0.0000000000
10
-11.5577685566
20
14.6389527155
30
0.0000000000
10
-11.5973447691
20
14.6729992666
30
0.0000000000
10
-11.6517326738
20
14.6964292330
30
0.0000000000
10
-11.6947183612
20
14.7019773009
30
0.0000000000
10
-11.7166269584
20
14.7020778834
30
0.0000000000
11
-11.4858029713
21
14.4245778834
31
0.0000000000
11
-11.4873499358
21
14.4712355866
31
0.0000000000
11
-11.4927720143
21
14.5078615470
31
0.0000000000
11
-11.5077949419
21
14.5576836254
31
0.0000000000
11
-11.5294204170
21
14.6018502247
31
0.0000000000
11
-11.5588603281
21
14.6382293189
31
0.0000000000
11
-11.5942115614
21
14.6676961608
31
0.0000000000
11
-11.6514979746
21
14.6932355866
31
0.0000000000
11
-11.7166269584
21
14.7020778834
31
0.0000000000
0
SPLINE
5
385
100
AcDbEntity
8
0
100
AcDbSpline
62
7
6
CONTINUOUS
70
0
71
3
72
15
73
11
74
9
42
0.0000001000
43
0.0000001000
44
0.0000000001
12
0.4085264964
22
-0.0018762629
32
0.0000000000
13
-0.0070431489
23
0.4084700879
33
0.0000000000
40
0.0000000000
40
0.0000000000
40
0.0000000000
40
0.0000000000
40
0.1666104649
40
0.3201400637
40
0.4327919910
40
0.5473463999
40
0.6677209668
40
0.7950987643
40
0.8857287116
40
1.0000000000
40
1.0000000000
40
1.0000000000
40
1.0000000000
10
-11.7189866928
20
14.1470778834
30
0.0000000000
10
-11.6962984296
20
14.1469736817
30
0.0000000000
10
-11.6524559705
20
14.1524152709
30
0.0000000000
10
-11.5973458395
20
14.1761559789
30
0.0000000000
10
-11.5577683036
20
14.2102031745
30
0.0000000000
10
-11.5272022153
20
14.2468451245
30
0.0000000000
10
-11.5064090398
20
14.2920054971
30
0.0000000000
10
-11.4926819240
20
14.3361484385
30
0.0000000000
10
-11.4862602783
20
14.3810663850
30
0.0000000000
10
-11.4855346948
20
14.4090190823
30
0.0000000000
10
-11.4858029713
20
14.4245778834
30
0.0000000000
11
-11.7189866928
21
14.1470778834
31
0.0000000000
11
-11.6514979746
21
14.1559201802
31
0.0000000000
11
-11.5942115614
21
14.1814596060
31
0.0000000000
11
-11.5588603281
21
14.2109264479
31
0.0000000000
11
-11.5294204170
21
14.2473055421
31
0.0000000000
11
-11.5077949419
21
14.2914721414
31
0.0000000000
11
-11.4927720143
21
14.3412942198
31
0.0000000000
11
-11.4873499358
21
14.3779201802
31
0.0000000000
11
-11.4858029713
21
14.4245778834
31
0.0000000000
0
SPLINE
5
386
100
AcDbEntity
8
0
100
AcDbSpline
62
7
6
CONTINUOUS
70
0
71
3
72
14
73
10
74
8
42
0.0000001000
43
0.0000001000
44
0.0000000001
12
0.2978000326
22
-0.0073361944
32
0.0000000000
13
-0.0080350929
23
-0.2977819995
33
0.0000000000
40
0.0000000000
40
0.0000000000
40
0.0000000000
40
0.0000000000
40
0.1344150111
40
0.2464878504
40
0.3932279544
40
0.5898666829
40
0.7257737367
40
0.8770581109
40
1.0000000000
40
1.0000000000
40
1.0000000000
40
1.0000000000
10
-11.7208948488
20
14.6379375695
30
0.0000000000
10
-11.7075519173
20
14.6376088713
30
0.0000000000
10
-11.6830311710
20
14.6340264594
30
0.0000000000
10
-11.6464846158
20
14.6194913937
30
0.0000000000
10
-11.6097620079
20
14.5918803716
30
0.0000000000
10
-11.5833860181
20
14.5507232901
30
0.0000000000
10
-11.5700852894
20
14.5043686599
30
0.0000000000
10
-11.5635612787
20
14.4640717310
30
0.0000000000
10
-11.5626222305
20
14.4367811772
30
0.0000000000
10
-11.5629515137
20
14.4245778834
30
0.0000000000
11
-11.7208948488
21
14.6379375695
31
0.0000000000
11
-11.6812879868
21
14.6320576650
31
0.0000000000
11
-11.6503040401
21
14.6196245878
31
0.0000000000
11
-11.6153904332
21
14.5933221212
31
0.0000000000
11
-11.5832462156
21
14.5443528531
31
0.0000000000
11
-11.5712530090
21
14.5056846363
31
0.0000000000
11
-11.5641522407
21
14.4611814014
31
0.0000000000
11
-11.5629515137
21
14.4245778834
31
0.0000000000
0
SPLINE
5
387
100
AcDbEntity
8
0
100
AcDbSpline
62
7
6
CONTINUOUS
70
0
71
3
72
14
73
10
74
8
42
0.0000001000
43
0.0000001000
44
0.0000000001
12
0.0080350929
22
-0.2977819995
32
0.0000000000
13
-0.2978000326
23
-0.0073361944
33
0.0000000000
40
0.0000000000
40
0.0000000000
40
0.0000000000
40
0.0000000000
40
0.1229418891
40
0.2742262633
40
0.4101333171
40
0.6067720456
40
0.7535121497
40
0.8655849890
40
1.0000000000
40
1.0000000000
40
1.0000000000
40
1.0000000000
10
-11.5629515137
20
14.4245778834
30
0.0000000000
10
-11.5626222305
20
14.4123745895
30
0.0000000000
10
-11.5635612787
20
14.3850840358
30
0.0000000000
10
-11.5700852894
20
14.3447871069
30
0.0000000000
10
-11.5833860181
20
14.2984324767
30
0.0000000000
10
-11.6097620079
20
14.2572753951
30
0.0000000000
10
-11.6464846158
20
14.2296643730
30
0.0000000000
10
-11.6830311710
20
14.2151293074
30
0.0000000000
10
-11.7075519173
20
14.2115468955
30
0.0000000000
10
-11.7208948488
20
14.2112181973
30
0.0000000000
11
-11.5629515137
21
14.4245778834
31
0.0000000000
11
-11.5641522407
21
14.3879743654
31
0.0000000000
11
-11.5712530090
21
14.3434711305
31
0.0000000000
11
-11.5832462156
21
14.3048029137
31
0.0000000000
11
-11.6153904332
21
14.2558336456
31
0.0000000000
11
-11.6503040401
21
14.2295311790
31
0.0000000000
11
-11.6812879868
21
14.2170981017
31
0.0000000000
11
-11.7208948488
21
14.2112181973
31
0.0000000000
0
SPLINE
5
388
100
AcDbEntity
8
0
100
AcDbSpline
62
7
6
CONTINUOUS
70
0
71
3
72
9
73
5
74
3
42
0.0000001000
43
0.0000001000
44
0.0000000001
12
-0.1761068583
22
-0.1065408866
32
0.0000000000
13
-0.0365115769
23
-0.2006013929
33
0.0000000000
40
0.0000000000
40
0.0000000000
40
0.0000000000
40
0.0000000000
40
0.1580309395
40
1.0000000000
40
1.0000000000
40
1.0000000000
40
1.0000000000
10
-9.7120051813
20
15.7829329792
30
0.0000000000
10
-9.7212819587
20
15.7773207271
30
0.0000000000
10
-9.7770145041
20
15.7373794778
30
0.0000000000
10
-9.8088904478
20
15.6688302388
30
0.0000000000
10
-9.8191376539
20
15.6125301834
30
0.0000000000
11
-9.7120051813
21
15.7829329792
31
0.0000000000
11
-9.7383011022
21
15.7639823712
31
0.0000000000
11
-9.8191376539
21
15.6125301834
31
0.0000000000
0
SPLINE
5
389
100
AcDbEntity
8
0
100
AcDbSpline
62
7
6
CONTINUOUS
70
0
71
3
72
10
73
6
74
4
42
0.0000001000
43
0.0000001000
44
0.0000000001
12
-0.0382400444
22
-0.2023327100
32
0.0000000000
13
-0.2035738211
23
-0.0000000000
33
0.0000000000
40
0.0000000000
40
0.0000000000
40
0.0000000000
40
0.0000000000
40
0.1560640337
40
0.4282155236
40
1.0000000000
40
1.0000000000
40
1.0000000000
40
1.0000000000
10
-9.4517060135
20
15.5867266223
30
0.0000000000
10
-9.4536953120
20
15.5762010027
30
0.0000000000
10
-9.4629920440
20
15.5484004122
30
0.0000000000
10
-9.5120333734
20
15.4974753673
30
0.0000000000
10
-9.5723514699
20
15.4835019558
30
0.0000000000
10
-9.6111515868
20
15.4835019558
30
0.0000000000
11
-9.4517060135
21
15.5867266223
31
0.0000000000
11
-9.4620262630
21
15.5567331518
31
0.0000000000
11
-9.4993075902
21
15.5157503988
31
0.0000000000
11
-9.6111515868
21
15.4835019558
31
0.0000000000
0
SPLINE
5
38A
100
AcDbEntity
8
0
100
AcDbSpline
62
7
6
CONTINUOUS
70
0
71
3
72
10
73
6
74
4
42
0.0000001000
43
0.0000001000
44
0.0000000001
12
-0.2814737445
22
-0.0936803926
32
0.0000000000
13
-0.0571957663
23
0.2826767579
33
0.0000000000
40
0.0000000000
40
0.0000000000
40
0.0000000000
40
0.0000000000
40
0.1796979604
40
0.5427889175
40
1.0000000000
40
1.0000000000
40
1.0000000000
40
1.0000000000
10
-9.5246571604
20
15.1002690134
30
0.0000000000
10
-9.5415172464
20
15.0946576216
30
0.0000000000
10
-9.5953147802
20
15.0858278414
30
0.0000000000
10
-9.6954142469
20
15.1209258442
30
0.0000000000
10
-9.7232759078
20
15.2043231012
30
0.0000000000
10
-9.7319927539
20
15.2474040834
30
0.0000000000
11
-9.5246571604
21
15.1002690134
31
0.0000000000
11
-9.5771967936
21
15.0918669834
31
0.0000000000
11
-9.6753640755
21
15.1283209920
31
0.0000000000
11
-9.7319927539
21
15.2474040834
31
0.0000000000
0
SPLINE
5
38B
100
AcDbEntity
8
0
100
AcDbSpline
62
7
6
CONTINUOUS
70
0
71
3
72
9
73
5
74
3
42
0.0000001000
43
0.0000001000
44
0.0000000001
12
-0.0475560938
22
0.2050779316
32
0.0000000000
13
-0.2004663901
23
0.0462804776
33
0.0000000000
40
0.0000000000
40
0.0000000000
40
0.0000000000
40
0.0000000000
40
0.3789626307
40
1.0000000000
40
1.0000000000
40
1.0000000000
40
1.0000000000
10
-9.3174751020
20
15.3153157257
30
0.0000000000
10
-9.3234824295
20
15.3412213498
30
0.0000000000
10
-9.3519568036
20
15.4056352915
30
0.0000000000
10
-9.4176315814
20
15.4438101495
30
0.0000000000
10
-9.4591306212
20
15.4533907848
30
0.0000000000
11
-9.3174751020
21
15.3153157257
31
0.0000000000
11
-9.3504063264
21
15.3862740384
31
0.0000000000
11
-9.4591306212
21
15.4533907848
31
0.0000000000
0
SPLINE
5
38C
100
AcDbEntity
8
0
100
AcDbSpline
62
7
6
CONTINUOUS
70
0
71
3
72
15
73
11
74
9
42
0.0000001000
43
0.0000001000
44
0.0000000001
12
0.1449150959
22
-0.8404544141
32
0.0000000000
13
-0.1552774649
23
0.8664105501
33
0.0000000000
40
0.0000000000
40
0.0000000000
40
0.0000000000
40
0.0000000000
40
0.0490849959
40
0.2029786043
40
0.3323055409
40
0.4640198614
40
0.6184012156
40
0.7728043283
40
0.9392581177
40
1.0000000000
40
1.0000000000
40
1.0000000000
40
1.0000000000
10
-10.4365517962
20
15.2595178839
30
0.0000000000
10
-10.4341807439
20
15.2457666501
30
0.0000000000
10
-10.4221487996
20
15.1892089736
30
0.0000000000
10
-10.3830211370
20
15.0995262352
30
0.0000000000
10
-10.2852225279
20
15.0251995991
30
0.0000000000
10
-10.1662738292
20
15.0026517883
30
0.0000000000
10
-10.0377897200
20
15.0329239697
30
0.0000000000
10
-9.9449447572
20
15.1418186256
30
0.0000000000
10
-9.9207431513
20
15.2502888178
30
0.0000000000
10
-9.9268205508
20
15.3169327917
30
0.0000000000
10
-9.9299644993
20
15.3344752610
30
0.0000000000
11
-10.4365517962
21
15.2595178839
31
0.0000000000
11
-10.4276675071
21
15.2185166595
31
0.0000000000
11
-10.3702653669
21
15.1004849574
31
0.0000000000
11
-10.2825409039
21
15.0336267519
31
0.0000000000
11
-10.1724398886
21
15.0113406834
31
0.0000000000
11
-10.0452300549
21
15.0453041031
31
0.0000000000
11
-9.9571027083
21
15.1431525237
31
0.0000000000
11
-9.9250352539
21
15.2814450744
31
0.0000000000
11
-9.9299644993
21
15.3344752610
31
0.0000000000
0
SPLINE
5
38D
100
AcDbEntity
8
0
100
AcDbSpline
62
7
6
CONTINUOUS
70
0
71
3
72
11
73
7
74
5
42
0.0000001000
43
0.0000001000
44
0.0000000001
12
-0.1003906687
22
0.5601555547
32
0.0000000000
13
-0.3030011410
23
-0.4606805787
33
0.0000000000
40
0.0000000000
40
0.0000000000
40
0.0000000000
40
0.0000000000
40
0.2630660970
40
0.5898066077
40
0.7882455009
40
1.0000000000
40
1.0000000000
40
1.0000000000
40
1.0000000000
10
-9.9299644993
20
15.3344752610
30
0.0000000000
10
-9.9387676265
20
15.3835945728
30
0.0000000000
10
-9.9852077474
20
15.4888862490
30
0.0000000000
10
-10.1353635282
20
15.5527884217
30
0.0000000000
10
-10.2717522885
20
15.5194711969
30
0.0000000000
10
-10.3294445689
20
15.4650006551
30
0.0000000000
10
-10.3508318539
20
15.4324835934
30
0.0000000000
11
-9.9299644993
21
15.3344752610
31
0.0000000000
11
-9.9933068005
21
15.4660850445
31
0.0000000000
11
-10.1587028557
21
15.5375193834
31
0.0000000000
11
-10.2650227257
21
15.5116654782
31
0.0000000000
11
-10.3508318539
21
15.4324835934
31
0.0000000000
0
ENDSEC
0
SECTION
2
OBJECTS
0
DICTIONARY
5
38E
100
AcDbDictionary
3
ACAD_GROUP
350
38F
3
ACAD_MLINESTYLE
350
390
0
DICTIONARY
5
38F
102
{ACAD_REACTORS
330
38E
102
}
100
AcDbDictionary
0
DICTIONARY
5
390
102
{ACAD_REACTORS
330
38E
102
}
100
AcDbDictionary
3
STANDARD
350
391
0
MLINESTYLE
5
391
102
{ACAD_REACTORS
330
390
102
}
100
AcDbMlineStyle
2
STANDARD
70
0
3

62
256
51
90.0
52
90.0
71
2
49
0.5
62
256
6
BYLAYER
49
-0.5
62
256
6
BYLAYER
0
ENDSEC
0
EOF
