0
SECTION
2
HEADER
9
$ACADVER
1
AC1015
9
$DWGCODEPAGE
3
ANSI_1252
9
$EXTMAX
10
431.8000000000
20
558.8000000000
30
0.0000000000
9
$EXTMIN
10
0.0000000000
20
0.0000000000
30
0.0000000000
9
$LIMMIN
10
0.0000000000
20
0.0000000000
9
$LIMMAX
10
431.8000000000
20
558.8000000000
9
$VIEWCTR
10
215.9000000000
20
279.4000000000
9
$VIEWSIZE
40
558.8000000000
9
$CLAYER
8
0
9
$LTSCALE
40
36.4254814815
9
$CELTYPE
6
BYLAYER
9
$DIMSCALE
40
1
9
$DIMASZ
40
3.0000000000
9
$DIMEXO
40
4.1392592593
9
$DIMDLI
40
25.1666962963
9
$DIMEXE
40
11.9210666667
9
$DIMCEN
40
5.9605333333
9
$DIMLFAC
40
1.0000000000
9
$DIMBLK
1
_FILLED
9
$DIMTXT
40
3.0000000000
9
$DIMTOL
70
1
9
$DIMLIM
70
0
9
$DIMTFAC
40
1.0000000000
9
$DIMTP
40
0.0100000000
9
$DIMTM
40
0.0100000000
9
$PDMODE
70
3
9
$PDSIZE
40
3.0000000000
9
$HANDSEED
5
45A
9
$MEASUREMENT
70
1
9
$INSUNITS
70
4
0
ENDSEC
0
SECTION
2
CLASSES
0
CLASS
1
ACDBDICTIONARYWDFLT
2
AcDbDictionaryWithDefault
3
AutoCAD 2000
90
0
280
0
281
0
0
CLASS
1
ACDBPLACEHOLDER
2
AcDbPlaceHolder
3
AutoCAD 2000
90
0
280
0
281
0
0
CLASS
1
LAYOUT
2
AcDbLayout
3
AutoCAD 2000
90
0
280
0
281
0
0
ENDSEC
0
SECTION
2
TABLES
0
TABLE
2
VPORT
5
8
100
AcDbSymbolTable
70
2
0
VPORT
5
1F4
100
AcDbSymbolTableRecord
100
AcDbViewportTableRecord
2
*ACTIVE
70
0
10
0.0
20
0.0
11
1.0
21
1.0
12
215.9000000000
22
279.4000000000
13
0.0
23
0.0
14
1.0
24
1.0
15
0.0
25
0.0
16
0.0
26
0.0
36
1.0
17
0.0
27
0.0
37
0.0
40
558.8000000000
41
0.7727272727
42
50.0
43
0.0
44
0.0
50
0.0
51
0.0
71
0
72
100
73
1
74
1
75
0
76
0
77
0
78
0
0
ENDTAB
0
TABLE
2
LTYPE
5
5
100
AcDbSymbolTable
70
6
0
LTYPE
5
14
100
AcDbSymbolTableRecord
100
AcDbLinetypeTableRecord
2
BYBLOCK
70
0
3

72
65
73
0
40
0.0
0
LTYPE
5
15
100
AcDbSymbolTableRecord
100
AcDbLinetypeTableRecord
2
BYLAYER
70
0
3

72
65
73
0
40
0.0
0
LTYPE
5
16
100
AcDbSymbolTableRecord
100
AcDbLinetypeTableRecord
2
CONTINUOUS
70
64
3
Solid line
72
65
73
0
40
0
0
LTYPE
5
1F5
100
AcDbSymbolTableRecord
100
AcDbLinetypeTableRecord
2
CENTER
70
64
3
____ _ ____ _ ____ _ ____ _ ____ _ ____ _ ____
72
65
73
4
40
0.6
49
0.375
74
0
49
-0.075
74
0
49
0.075
74
0
49
-0.075
74
0
0
LTYPE
5
1F6
100
AcDbSymbolTableRecord
100
AcDbLinetypeTableRecord
2
HIDDEN
70
64
3
- - - - - - - - - - - - - - - - - - - -
72
65
73
2
40
0.2
49
0.1
74
0
49
-0.1
74
0
0
LTYPE
5
1F7
100
AcDbSymbolTableRecord
100
AcDbLinetypeTableRecord
2
PHANTOM
70
64
3
_____ _ _ _____ _ _ _____ _ _ _____
72
65
73
6
40
0.8
49
0.45
74
0
49
-0.05
74
0
49
0.1
74
0
49
-0.05
74
0
49
0.1
74
0
49
-0.05
74
0
0
LTYPE
5
1F8
100
AcDbSymbolTableRecord
100
AcDbLinetypeTableRecord
2
DOT
70
64
3
. . . . . . . . . . . . . . . . . . . .
72
65
73
2
40
0.2
49
0.1
74
0
49
-0.1
74
0
0
LTYPE
5
1F9
100
AcDbSymbolTableRecord
100
AcDbLinetypeTableRecord
2
DASHED
70
64
3
- - - - - - - - - - - - - - - - - - - -
72
65
73
2
40
0.2
49
0.1
74
0
49
-0.1
74
0
0
ENDTAB
0
TABLE
2
LAYER
5
2
100
AcDbSymbolTable
70
36
0
LAYER
5
10
100
AcDbSymbolTableRecord
100
AcDbLayerTableRecord
2
0
70
0
62
7
6
CONTINUOUS
370
-3
390
F
0
LAYER
5
1FA
100
AcDbSymbolTableRecord
100
AcDbLayerTableRecord
2
DEFAULT_1
70
0
62
7
6
CENTER
370
-3
390
F
0
LAYER
5
1FB
100
AcDbSymbolTableRecord
100
AcDbLayerTableRecord
2
DEFAULT_2
70
0
62
9
6
HIDDEN
370
-3
390
F
0
LAYER
5
1FC
100
AcDbSymbolTableRecord
100
AcDbLayerTableRecord
2
DEFAULT_3
70
0
62
7
6
PHANTOM
370
-3
390
F
0
LAYER
5
1FD
100
AcDbSymbolTableRecord
100
AcDbLayerTableRecord
2
_2D_DELETED_OBJS
70
0
62
7
6
CONTINUOUS
370
-3
390
F
0
LAYER
5
1FE
100
AcDbSymbolTableRecord
100
AcDbLayerTableRecord
2
_BLACK_HOLE
70
0
62
7
6
CONTINUOUS
370
-3
390
F
0
LAYER
5
1FF
100
AcDbSymbolTableRecord
100
AcDbLayerTableRecord
2
ASSI
70
0
62
7
6
CONTINUOUS
370
-3
390
F
0
LAYER
5
200
100
AcDbSymbolTableRecord
100
AcDbLayerTableRecord
2
COORDINATE
70
0
62
7
6
CONTINUOUS
370
-3
390
F
0
LAYER
5
201
100
AcDbSymbolTableRecord
100
AcDbLayerTableRecord
2
COPY_PUBLISH
70
0
62
7
6
CONTINUOUS
370
-3
390
F
0
LAYER
5
202
100
AcDbSymbolTableRecord
100
AcDbLayerTableRecord
2
COSMETIC
70
0
62
7
6
CONTINUOUS
370
-3
390
F
0
LAYER
5
203
100
AcDbSymbolTableRecord
100
AcDbLayerTableRecord
2
CURVE
70
0
62
7
6
CONTINUOUS
370
-3
390
F
0
LAYER
5
204
100
AcDbSymbolTableRecord
100
AcDbLayerTableRecord
2
DRAFT
70
0
62
7
6
CONTINUOUS
370
-3
390
F
0
LAYER
5
205
100
AcDbSymbolTableRecord
100
AcDbLayerTableRecord
2
IMPORT_IGES
70
0
62
7
6
CONTINUOUS
370
-3
390
F
0
LAYER
5
206
100
AcDbSymbolTableRecord
100
AcDbLayerTableRecord
2
NOTE
70
0
62
7
6
CONTINUOUS
370
-3
390
F
0
LAYER
5
207
100
AcDbSymbolTableRecord
100
AcDbLayerTableRecord
2
PIANI
70
0
62
7
6
CONTINUOUS
370
-3
390
F
0
LAYER
5
208
100
AcDbSymbolTableRecord
100
AcDbLayerTableRecord
2
PUNTI
70
0
62
7
6
CONTINUOUS
370
-3
390
F
0
LAYER
5
209
100
AcDbSymbolTableRecord
100
AcDbLayerTableRecord
2
RACCORDO
70
0
62
7
6
CONTINUOUS
370
-3
390
F
0
LAYER
5
20A
100
AcDbSymbolTableRecord
100
AcDbLayerTableRecord
2
SNAPLINE
70
0
62
7
6
CONTINUOUS
370
-3
390
F
0
LAYER
5
20B
100
AcDbSymbolTableRecord
100
AcDbLayerTableRecord
2
TRASH
70
0
62
7
6
CONTINUOUS
370
-3
390
F
0
LAYER
5
20C
100
AcDbSymbolTableRecord
100
AcDbLayerTableRecord
2
XSEC_DATUMS
70
0
62
7
6
CONTINUOUS
370
-3
390
F
0
ENDTAB
0
TABLE
2
STYLE
5
3
100
AcDbSymbolTable
70
1
0
STYLE
5
11
100
AcDbSymbolTableRecord
100
AcDbTextStyleTableRecord
2
STANDARD
70
0
40
0.0
41
0.8000000000
50
0.0
71
0
42
0.2
3
txt
4

0
ENDTAB
0
TABLE
2
VIEW
5
6
100
AcDbSymbolTable
70
0
0
ENDTAB
0
TABLE
2
UCS
5
7
100
AcDbSymbolTable
70
0
0
ENDTAB
0
TABLE
2
APPID
5
9
100
AcDbSymbolTable
70
1
0
APPID
5
20D
100
AcDbSymbolTableRecord
100
AcDbRegAppTableRecord
2
ACAD
70
0
0
ENDTAB
0
TABLE
2
BLOCK_RECORD
5
1
100
AcDbSymbolTable
70
0
0
BLOCK_RECORD
5
1F
100
AcDbSymbolTableRecord
100
AcDbBlockTableRecord
2
*MODEL_SPACE
0
BLOCK_RECORD
5
1B
100
AcDbSymbolTableRecord
100
AcDbBlockTableRecord
2
*PAPER_SPACE
0
ENDTAB
0
TABLE
2
DIMSTYLE
5
A
100
AcDbSymbolTable
70
1
100
AcDbDimStyleTable
71
0
0
DIMSTYLE
105
20E
100
AcDbSymbolTableRecord
100
AcDbDimStyleTableRecord
2
STANDARD
70
0
3

4

40
1.0
41
3.0000000000
42
0.0625
43
0.38
44
0.18
45
0.0
46
0.0
47
0.0100000000
48
0.0100000000
140
3.0000000000
141
0.09
142
0.0
143
25.4
144
1.0000000000
145
0.0
146
1.0000000000
147
0.09
71
1
72
0
73
0
74
0
75
0
76
0
77
1
78
8
170
0
171
2
172
0
173
0
174
0
175
0
176
0
177
0
178
0
270
2
271
2
272
2
273
2
274
2
275
0
280
0
281
0
282
0
283
1
284
8
285
0
286
0
287
3
288
0
340
11
0
ENDTAB
0
ENDSEC
0
SECTION
2
BLOCKS
0
BLOCK
5
20
100
AcDbEntity
8
0
100
AcDbBlockBegin
2
*MODEL_SPACE
70
0
10
0.0
20
0.0
30
0.0
3
*MODEL_SPACE
1

0
ENDBLK
5
21
100
AcDbEntity
8
0
100
AcDbBlockEnd
0
BLOCK
5
1C
100
AcDbEntity
8
0
100
AcDbBlockBegin
2
*PAPER_SPACE
70
0
10
0.0
20
0.0
30
0.0
3
*PAPER_SPACE
1

0
ENDBLK
5
1D
100
AcDbEntity
8
0
100
AcDbBlockEnd
0
ENDSEC
0
SECTION
2
ENTITIES
0
LINE
5
20F
100
AcDbEntity
8
0
100
AcDbLine
62
0
6
CONTINUOUS
10
-275.0000000000
20
132.0137046525
11
-275.0000000000
21
-132.0137046525
0
LINE
5
210
100
AcDbEntity
8
0
100
AcDbLine
62
0
6
CONTINUOUS
10
-272.4965691350
20
-132.0068476243
11
-272.4965691350
21
132.0068476243
0
LINE
5
211
100
AcDbEntity
8
0
100
AcDbLine
62
0
6
CONTINUOUS
10
-272.3026603517
20
-131.8129388410
11
-272.3026603517
21
131.8129388410
0
LINE
5
212
100
AcDbEntity
8
0
100
AcDbLine
62
0
6
CONTINUOUS
10
265.0137046525
20
-142.0000000000
11
-265.0137046525
21
-142.0000000000
0
LINE
5
213
100
AcDbEntity
8
0
100
AcDbLine
62
0
6
CONTINUOUS
10
265.0068476243
20
-139.4965691350
11
-265.0068476243
21
-139.4965691350
0
LINE
5
214
100
AcDbEntity
8
0
100
AcDbLine
62
0
6
CONTINUOUS
10
264.8129388410
20
-139.3026603517
11
-264.8129388410
21
-139.3026603517
0
LINE
5
215
100
AcDbEntity
8
0
100
AcDbLine
62
9
6
CONTINUOUS
10
-272.3026603517
20
-131.8129388410
11
-272.4965691350
21
-132.0068476243
0
LINE
5
216
100
AcDbEntity
8
0
100
AcDbLine
62
9
6
CONTINUOUS
10
-264.8129388410
20
-139.3026603517
11
-265.0068476243
21
-139.4965691350
0
LINE
5
217
100
AcDbEntity
8
0
100
AcDbLine
62
9
6
CONTINUOUS
10
-272.3026603517
20
131.8129388410
11
-272.4965691350
21
132.0068476243
0
LINE
5
218
100
AcDbEntity
8
0
100
AcDbLine
62
9
6
CONTINUOUS
10
-264.8129388410
20
139.3026603517
11
-265.0068476243
21
139.4965691350
0
LINE
5
219
100
AcDbEntity
8
0
100
AcDbLine
62
0
6
CONTINUOUS
10
-6.7212500000
20
79.9319148853
11
-6.5671875000
21
80.0553191692
0
LINE
5
21A
100
AcDbEntity
8
0
100
AcDbLine
62
0
6
CONTINUOUS
10
-13.0891666544
20
68.4063830376
11
-12.9351041544
21
68.5297872782
0
LINE
5
21B
100
AcDbEntity
8
0
100
AcDbLine
62
0
6
CONTINUOUS
10
-10.7268750000
20
68.4063830376
11
-10.5728125000
21
68.5297872782
0
LINE
5
21C
100
AcDbEntity
8
0
100
AcDbLine
62
0
6
CONTINUOUS
10
-10.6241667646
20
68.8382978797
11
-10.8809375000
21
68.6531915188
0
LINE
5
21D
100
AcDbEntity
8
0
100
AcDbLine
62
0
6
CONTINUOUS
10
-10.0079167646
20
66.0617021257
11
-9.7511457354
21
66.2468085028
0
LINE
5
21E
100
AcDbEntity
8
0
100
AcDbLine
62
0
6
CONTINUOUS
10
-1.1250000000
20
74.9893617630
11
-0.9375000000
21
75.1170213223
0
LINE
5
21F
100
AcDbEntity
8
0
100
AcDbLine
62
0
6
CONTINUOUS
10
1.5000000000
20
74.9893617630
11
1.6875000000
21
75.1170213223
0
LINE
5
220
100
AcDbEntity
8
0
100
AcDbLine
62
0
6
CONTINUOUS
10
-0.1250002384
20
73.0106382817
11
-0.3125002384
21
72.8829787225
0
LINE
5
221
100
AcDbEntity
8
0
100
AcDbLine
62
0
6
CONTINUOUS
10
-0.9999997616
20
75.4361702204
11
-1.3125000000
21
75.2446808815
0
LINE
5
222
100
AcDbEntity
8
0
100
AcDbLine
62
0
6
CONTINUOUS
10
-0.2499997616
20
72.5638297852
11
0.0624997616
21
72.7553191409
0
LINE
5
223
100
AcDbEntity
8
0
100
AcDbLine
62
0
6
CONTINUOUS
10
-6.4644789708
20
79.6851063825
11
-6.6698960292
21
79.5617021257
0
LINE
5
224
100
AcDbEntity
8
0
100
AcDbLine
62
0
6
CONTINUOUS
10
-12.9864583456
20
68.8382978797
11
-13.1918750000
21
68.7148936391
0
LINE
5
225
100
AcDbEntity
8
0
100
AcDbLine
62
0
6
CONTINUOUS
10
-7.6969789708
20
66.0617021257
11
-7.4915625000
21
66.1851063825
0
LINE
5
226
100
AcDbEntity
8
0
100
AcDbLine
62
0
6
CONTINUOUS
10
1.6250002384
20
75.4361702204
11
1.3749997616
21
75.3085106611
0
LINE
5
227
100
AcDbEntity
8
0
100
AcDbLine
62
0
6
CONTINUOUS
10
2.7500002384
20
72.9468085021
11
2.6250000000
21
72.8829787225
0
LINE
5
228
100
AcDbEntity
8
0
100
AcDbLine
62
0
6
CONTINUOUS
10
2.6250000000
20
72.5638297852
11
2.8749997616
21
72.6914893612
0
LINE
5
229
100
AcDbEntity
8
0
100
AcDbLine
62
0
6
CONTINUOUS
10
-1.4971875000
20
67.6659574211
11
-1.3431250000
21
67.7276595414
0
LINE
5
22A
100
AcDbEntity
8
0
100
AcDbLine
62
0
6
CONTINUOUS
10
2.6250000000
20
74.2872340083
11
2.2500000000
21
74.1595744491
0
LINE
5
22B
100
AcDbEntity
8
0
100
AcDbLine
62
0
6
CONTINUOUS
10
-6.9266664708
20
79.8702127650
11
-6.7212500000
21
79.9319148853
0
LINE
5
22C
100
AcDbEntity
8
0
100
AcDbLine
62
0
6
CONTINUOUS
10
-7.7483335292
20
66.4319148853
11
-7.9537500000
21
66.3702127650
0
LINE
5
22D
100
AcDbEntity
8
0
100
AcDbLine
62
0
6
CONTINUOUS
10
1.6570550000
20
-76.3750000000
11
3.1175560000
21
-76.3750000000
0
LINE
5
22E
100
AcDbEntity
8
0
100
AcDbLine
62
0
6
CONTINUOUS
10
3.1175560000
20
-75.6250000000
11
1.6570519451
21
-75.6250000000
0
LINE
5
22F
100
AcDbEntity
8
0
100
AcDbLine
62
0
6
CONTINUOUS
10
-0.9830781368
20
-74.2001410349
11
-0.8675540000
21
-74.2027800000
0
LINE
5
230
100
AcDbEntity
8
0
100
AcDbLine
62
0
6
CONTINUOUS
10
-13.1918750000
20
68.2212766767
11
-13.0891666544
21
68.4063830376
0
LINE
5
231
100
AcDbEntity
8
0
100
AcDbLine
62
0
6
CONTINUOUS
10
-6.5671875000
20
80.0553191692
11
-6.4644789708
21
80.2404255301
0
LINE
5
232
100
AcDbEntity
8
0
100
AcDbLine
62
0
6
CONTINUOUS
10
-11.8053125000
20
67.6659574211
11
-11.7026041177
21
67.8510637820
0
LINE
5
233
100
AcDbEntity
8
0
100
AcDbLine
62
0
6
CONTINUOUS
10
-10.9322917646
20
68.0361701429
11
-10.7268750000
21
68.4063830376
0
LINE
5
234
100
AcDbEntity
8
0
100
AcDbLine
62
0
6
CONTINUOUS
10
-9.6997917646
20
66.8638297707
11
-9.9052082354
21
66.4936170056
0
LINE
5
235
100
AcDbEntity
8
0
100
AcDbLine
62
0
6
CONTINUOUS
10
-7.4915625000
20
66.7404255301
11
-7.5942710292
21
66.5553191692
0
LINE
5
236
100
AcDbEntity
8
0
100
AcDbLine
62
0
6
CONTINUOUS
10
-1.3749997616
20
74.6063829064
11
-1.1250000000
21
74.9893617630
0
LINE
5
237
100
AcDbEntity
8
0
100
AcDbLine
62
0
6
CONTINUOUS
10
0.1250002384
20
73.3936170042
11
-0.1250002384
21
73.0106382817
0
LINE
5
238
100
AcDbEntity
8
0
100
AcDbLine
62
0
6
CONTINUOUS
10
1.3749997616
20
74.7978724241
11
1.5000000000
21
74.9893617630
0
LINE
5
239
100
AcDbEntity
8
0
100
AcDbLine
62
0
6
CONTINUOUS
10
-0.4701042646
20
67.2340425789
11
0.7623957354
21
68.9000000000
0
LINE
5
23A
100
AcDbEntity
8
0
100
AcDbLine
62
0
6
CONTINUOUS
10
0.7623957354
20
68.4063830376
11
-0.1106250000
21
67.2340425789
0
LINE
5
23B
100
AcDbEntity
8
0
100
AcDbLine
62
0
6
CONTINUOUS
10
-6.2590625000
20
79.9319148853
11
-6.4644789708
21
79.6851063825
0
LINE
5
23C
100
AcDbEntity
8
0
100
AcDbLine
62
0
6
CONTINUOUS
10
-13.1918750000
20
68.7148936391
11
-13.3972916636
21
68.4680851579
0
LINE
5
23D
100
AcDbEntity
8
0
100
AcDbLine
62
0
6
CONTINUOUS
10
-10.8809375000
20
68.6531915188
11
-11.0350000000
21
68.4680851579
0
LINE
5
23E
100
AcDbEntity
8
0
100
AcDbLine
62
0
6
CONTINUOUS
10
-9.7511457354
20
66.2468085028
11
-9.5970832354
21
66.4319148853
0
LINE
5
23F
100
AcDbEntity
8
0
100
AcDbLine
62
0
6
CONTINUOUS
10
-7.4915625000
20
66.1851063825
11
-7.2861460292
21
66.4319148853
0
LINE
5
240
100
AcDbEntity
8
0
100
AcDbLine
62
0
6
CONTINUOUS
10
-1.3431250000
20
67.7276595414
11
-1.2404166177
21
67.8510637820
0
LINE
5
241
100
AcDbEntity
8
0
100
AcDbLine
62
0
6
CONTINUOUS
10
2.2003125000
20
68.4680851579
11
2.3543750000
21
68.6531915188
0
LINE
5
242
100
AcDbEntity
8
0
100
AcDbLine
62
0
6
CONTINUOUS
10
3.6382289708
20
66.4319148853
11
3.4841664708
21
66.2468085028
0
LINE
5
243
100
AcDbEntity
8
0
100
AcDbLine
62
0
6
CONTINUOUS
10
4.1250000000
20
75.5000000000
11
3.7500000000
21
75.0531915426
0
LINE
5
244
100
AcDbEntity
8
0
100
AcDbLine
62
0
6
CONTINUOUS
10
3.7500000000
20
74.5425531268
11
4.1250000000
21
74.9893617630
0
LINE
5
245
100
AcDbEntity
8
0
100
AcDbLine
62
0
6
CONTINUOUS
10
5.3749995232
20
75.5000000000
11
4.9999995232
21
75.0531915426
0
LINE
5
246
100
AcDbEntity
8
0
100
AcDbLine
62
0
6
CONTINUOUS
10
4.9999995232
20
74.5425531268
11
5.3749995232
21
74.9893617630
0
LINE
5
247
100
AcDbEntity
8
0
100
AcDbLine
62
0
6
CONTINUOUS
10
-12.0620833823
20
67.8510637820
11
-13.5000000000
21
66.3085106447
0
LINE
5
248
100
AcDbEntity
8
0
100
AcDbLine
62
0
6
CONTINUOUS
10
-13.0891666544
20
66.3085106447
11
-11.8053125000
21
67.6659574211
0
LINE
5
249
100
AcDbEntity
8
0
100
AcDbLine
62
0
6
CONTINUOUS
10
-1.3125000000
20
75.2446808815
11
-1.5000000000
21
75.0531915426
0
LINE
5
24A
100
AcDbEntity
8
0
100
AcDbLine
62
0
6
CONTINUOUS
10
1.3749997616
20
75.3085106611
11
1.1250000000
21
75.0531915426
0
LINE
5
24B
100
AcDbEntity
8
0
100
AcDbLine
62
0
6
CONTINUOUS
10
0.0624997616
20
72.7553191409
11
0.2499997616
21
72.9468085021
0
LINE
5
24C
100
AcDbEntity
8
0
100
AcDbLine
62
0
6
CONTINUOUS
10
2.7500002384
20
74.4148935676
11
2.6250000000
21
74.2872340083
0
LINE
5
24D
100
AcDbEntity
8
0
100
AcDbLine
62
0
6
CONTINUOUS
10
2.8749997616
20
73.0744681060
11
2.7500002384
21
72.9468085021
0
LINE
5
24E
100
AcDbEntity
8
0
100
AcDbLine
62
0
6
CONTINUOUS
10
-1.0863541177
20
67.5425531805
11
-1.2917708823
21
67.3574468195
0
LINE
5
24F
100
AcDbEntity
8
0
100
AcDbLine
62
0
6
CONTINUOUS
10
10.2931860000
20
68.0328470000
11
11.8185498100
21
69.3182818399
0
LINE
5
250
100
AcDbEntity
8
0
100
AcDbLine
62
0
6
CONTINUOUS
10
11.7477756906
20
68.5909977393
11
10.2931860000
21
67.3652060000
0
LINE
5
251
100
AcDbEntity
8
0
100
AcDbLine
62
0
6
CONTINUOUS
10
-9.9052082354
20
66.4936170056
11
-10.0592707354
21
66.3702127650
0
LINE
5
252
100
AcDbEntity
8
0
100
AcDbLine
62
0
6
CONTINUOUS
10
-7.5942710292
20
66.5553191692
11
-7.7483335292
21
66.4319148853
0
LINE
5
253
100
AcDbEntity
8
0
100
AcDbLine
62
0
6
CONTINUOUS
10
2.6625000000
20
68.5297872782
11
2.5084375000
21
68.4063830376
0
LINE
5
254
100
AcDbEntity
8
0
100
AcDbLine
62
0
6
CONTINUOUS
10
3.1760414708
20
66.3702127650
11
3.3301039708
21
66.4936170056
0
LINE
5
255
100
AcDbEntity
8
0
100
AcDbLine
62
0
6
CONTINUOUS
10
2.7500002384
20
74.0319148898
11
3.0000000000
21
74.2234042287
0
LINE
5
256
100
AcDbEntity
8
0
100
AcDbLine
62
0
6
CONTINUOUS
10
2.3543750000
20
68.6531915188
11
2.6111460292
21
68.8382978797
0
LINE
5
257
100
AcDbEntity
8
0
100
AcDbLine
62
0
6
CONTINUOUS
10
3.4841664708
20
66.2468085028
11
3.2273960292
21
66.0617021257
0
LINE
5
258
100
AcDbEntity
8
0
100
AcDbLine
62
0
6
CONTINUOUS
10
2.8749997616
20
72.6914893612
11
3.0624997616
21
72.8191489428
0
LINE
5
259
100
AcDbEntity
8
0
100
AcDbLine
62
0
6
CONTINUOUS
10
-10.9836457354
20
67.6659574211
11
-10.9322917646
21
68.0361701429
0
LINE
5
25A
100
AcDbEntity
8
0
100
AcDbLine
62
0
6
CONTINUOUS
10
-9.6484375000
20
67.2340425789
11
-9.6997917646
21
66.8638297707
0
LINE
5
25B
100
AcDbEntity
8
0
100
AcDbLine
62
0
6
CONTINUOUS
10
-11.1890625000
20
68.0361701429
11
-11.2404166177
21
67.7276595414
0
LINE
5
25C
100
AcDbEntity
8
0
100
AcDbLine
62
0
6
CONTINUOUS
10
-9.4430207354
20
66.8638297707
11
-9.3916667646
21
67.1723404586
0
LINE
5
25D
100
AcDbEntity
8
0
100
AcDbLine
62
0
6
CONTINUOUS
10
-6.1050000000
20
80.4872340113
11
-6.1563539708
21
80.1787234098
0
LINE
5
25E
100
AcDbEntity
8
0
100
AcDbLine
62
0
6
CONTINUOUS
10
-7.1834375000
20
66.6787234098
11
-7.1320835292
21
66.9872340113
0
LINE
5
25F
100
AcDbEntity
8
0
100
AcDbLine
62
0
6
CONTINUOUS
10
-13.3972916636
20
68.4680851579
11
-13.4486458318
21
68.2212766767
0
LINE
5
260
100
AcDbEntity
8
0
100
AcDbLine
62
0
6
CONTINUOUS
10
-11.7026041177
20
67.8510637820
11
-11.6512500000
21
68.0978722632
0
LINE
5
261
100
AcDbEntity
8
0
100
AcDbLine
62
0
6
CONTINUOUS
10
-6.4644789708
20
80.2404255301
11
-6.4131250000
21
80.4872340113
0
LINE
5
262
100
AcDbEntity
8
0
100
AcDbLine
62
0
6
CONTINUOUS
10
-7.4402085292
20
66.9872340113
11
-7.4915625000
21
66.7404255301
0
LINE
5
263
100
AcDbEntity
8
0
100
AcDbLine
62
0
6
CONTINUOUS
10
-9.5970832354
20
82.1531915188
11
-10.0592707354
21
80.4872340113
0
LINE
5
264
100
AcDbEntity
8
0
100
AcDbLine
62
0
6
CONTINUOUS
10
-10.1106250000
20
80.2404255301
11
-10.3160417646
21
79.5000000000
0
LINE
5
265
100
AcDbEntity
8
0
100
AcDbLine
62
0
6
CONTINUOUS
10
-11.1377083823
20
68.2212766767
11
-11.1890625000
21
68.0361701429
0
LINE
5
266
100
AcDbEntity
8
0
100
AcDbLine
62
0
6
CONTINUOUS
10
-9.4943750000
20
66.6787234098
11
-9.4430207354
21
66.8638297707
0
LINE
5
267
100
AcDbEntity
8
0
100
AcDbLine
62
0
6
CONTINUOUS
10
-1.2404166177
20
67.8510637820
11
-1.1890625000
21
68.0361701429
0
LINE
5
268
100
AcDbEntity
8
0
100
AcDbLine
62
0
6
CONTINUOUS
10
-0.8809375000
20
67.9744680226
11
-0.9322917646
21
67.7893616617
0
LINE
5
269
100
AcDbEntity
8
0
100
AcDbLine
62
0
6
CONTINUOUS
10
5.2172770000
20
91.6404210000
11
4.5106100000
21
89.1171730000
0
LINE
5
26A
100
AcDbEntity
8
0
100
AcDbLine
62
0
6
CONTINUOUS
10
-10.6241667646
20
79.5000000000
11
-9.8025000000
21
82.4000000000
0
LINE
5
26B
100
AcDbEntity
8
0
100
AcDbLine
62
0
6
CONTINUOUS
10
-10.1574140000
20
88.8285920000
11
-8.8217830000
21
93.5086520000
0
LINE
5
26C
100
AcDbEntity
8
0
100
AcDbLine
62
0
6
CONTINUOUS
10
4.2202960000
20
88.0668600000
11
3.8286720000
21
86.7095090000
0
LINE
5
26D
100
AcDbEntity
8
0
100
AcDbLine
62
0
6
CONTINUOUS
10
-12.2675000000
20
79.8085106447
11
-11.4971875000
21
82.4000000000
0
LINE
5
26E
100
AcDbEntity
8
0
100
AcDbLine
62
0
6
CONTINUOUS
10
2.4248220000
20
86.7095090000
11
4.5574660000
21
93.5086520000
0
LINE
5
26F
100
AcDbEntity
8
0
100
AcDbLine
62
0
6
CONTINUOUS
10
-11.3431250000
20
81.7829787970
11
-12.0620833823
21
79.5000000000
0
LINE
5
270
100
AcDbEntity
8
0
100
AcDbLine
62
0
6
CONTINUOUS
10
-7.4035040000
20
93.5086520000
11
-9.5890210000
21
86.7095090000
0
LINE
5
271
100
AcDbEntity
8
0
100
AcDbLine
62
0
6
CONTINUOUS
10
-1.6249998808
20
74.7978724241
11
-1.6875000000
21
74.6063829064
0
LINE
5
272
100
AcDbEntity
8
0
100
AcDbLine
62
0
6
CONTINUOUS
10
0.3750000000
20
73.2021276653
11
0.4374997616
21
73.3936170042
0
LINE
5
273
100
AcDbEntity
8
0
100
AcDbLine
62
0
6
CONTINUOUS
10
3.1875000000
20
73.0106382817
11
3.2499997616
21
73.2021276653
0
LINE
5
274
100
AcDbEntity
8
0
100
AcDbLine
62
0
6
CONTINUOUS
10
-6.0000000000
20
72.5000000000
11
-5.0000000596
21
75.5000000000
0
LINE
5
275
100
AcDbEntity
8
0
100
AcDbLine
62
0
6
CONTINUOUS
10
-5.3750000596
20
75.5000000000
11
-6.2500000298
21
72.8829787225
0
LINE
5
276
100
AcDbEntity
8
0
100
AcDbLine
62
0
6
CONTINUOUS
10
-1.2572890000
20
89.7337470000
11
0.1619590000
21
93.5086520000
0
LINE
5
277
100
AcDbEntity
8
0
100
AcDbLine
62
0
6
CONTINUOUS
10
0.5219710000
20
91.1307140000
11
-1.1655140000
21
86.7095090000
0
LINE
5
278
100
AcDbEntity
8
0
100
AcDbLine
62
0
6
CONTINUOUS
10
-11.9593750000
20
68.0978722632
11
-12.0620833823
21
67.8510637820
0
LINE
5
279
100
AcDbEntity
8
0
100
AcDbLine
62
0
6
CONTINUOUS
10
-11.0350000000
20
68.4680851579
11
-11.1377083823
21
68.2212766767
0
LINE
5
27A
100
AcDbEntity
8
0
100
AcDbLine
62
0
6
CONTINUOUS
10
-6.1563539708
20
80.1787234098
11
-6.2590625000
21
79.9319148853
0
LINE
5
27B
100
AcDbEntity
8
0
100
AcDbLine
62
0
6
CONTINUOUS
10
-9.5970832354
20
66.4319148853
11
-9.4943750000
21
66.6787234098
0
LINE
5
27C
100
AcDbEntity
8
0
100
AcDbLine
62
0
6
CONTINUOUS
10
-7.2861460292
20
66.4319148853
11
-7.1834375000
21
66.6787234098
0
LINE
5
27D
100
AcDbEntity
8
0
100
AcDbLine
62
0
6
CONTINUOUS
10
2.0976039708
20
68.2212766767
11
2.2003125000
21
68.4680851579
0
LINE
5
27E
100
AcDbEntity
8
0
100
AcDbLine
62
0
6
CONTINUOUS
10
3.7409375000
20
66.6787234098
11
3.6382289708
21
66.4319148853
0
LINE
5
27F
100
AcDbEntity
8
0
100
AcDbLine
62
0
6
CONTINUOUS
10
-2.6250000000
20
75.1808511019
11
-3.8749998808
21
72.5000000000
0
LINE
5
280
100
AcDbEntity
8
0
100
AcDbLine
62
0
6
CONTINUOUS
10
-3.4999998808
20
72.5000000000
11
-2.2500000000
21
75.1808511019
0
LINE
5
281
100
AcDbEntity
8
0
100
AcDbLine
62
0
6
CONTINUOUS
10
-1.5000000000
20
75.0531915426
11
-1.6249998808
21
74.7978724241
0
LINE
5
282
100
AcDbEntity
8
0
100
AcDbLine
62
0
6
CONTINUOUS
10
0.2499997616
20
72.9468085021
11
0.3750000000
21
73.2021276653
0
LINE
5
283
100
AcDbEntity
8
0
100
AcDbLine
62
0
6
CONTINUOUS
10
2.8749997616
20
74.6702126861
11
2.7500002384
21
74.4148935676
0
LINE
5
284
100
AcDbEntity
8
0
100
AcDbLine
62
0
6
CONTINUOUS
10
2.9375002384
20
73.2021276653
11
2.8749997616
21
73.0744681060
0
LINE
5
285
100
AcDbEntity
8
0
100
AcDbLine
62
0
6
CONTINUOUS
10
2.5084375000
20
68.4063830376
11
2.3030210292
21
68.0361701429
0
LINE
5
286
100
AcDbEntity
8
0
100
AcDbLine
62
0
6
CONTINUOUS
10
3.3301039708
20
66.4936170056
11
3.5355210292
21
66.8638297707
0
LINE
5
287
100
AcDbEntity
8
0
100
AcDbLine
62
0
6
CONTINUOUS
10
8.9915758065
20
65.7033146552
11
8.7413280513
21
65.2574530914
0
LINE
5
288
100
AcDbEntity
8
0
100
AcDbLine
62
0
6
CONTINUOUS
10
13.4609375000
20
81.2276595414
11
14.1285408831
21
82.4000000000
0
LINE
5
289
100
AcDbEntity
8
0
100
AcDbLine
62
0
6
CONTINUOUS
10
14.4366658831
20
82.4000000000
11
13.6150000000
21
80.9808510602
0
LINE
5
28A
100
AcDbEntity
8
0
100
AcDbLine
62
0
6
CONTINUOUS
10
-0.9322917646
20
67.7893616617
11
-1.0863541177
21
67.5425531805
0
LINE
5
28B
100
AcDbEntity
8
0
100
AcDbLine
62
0
6
CONTINUOUS
10
3.0000000000
20
74.2234042287
11
3.1250002384
21
74.4148935676
0
LINE
5
28C
100
AcDbEntity
8
0
100
AcDbLine
62
0
6
CONTINUOUS
10
3.0624997616
20
72.8191489428
11
3.1875000000
21
73.0106382817
0
LINE
5
28D
100
AcDbEntity
8
0
100
AcDbLine
62
0
6
CONTINUOUS
10
12.2524890000
20
63.6890770000
11
11.9687970000
21
63.2869010000
0
LINE
5
28E
100
AcDbEntity
8
CURVE
100
AcDbLine
62
0
6
CONTINUOUS
10
-16.0000000000
20
61.5000000000
11
-16.0000000000
21
95.5000000000
0
LINE
5
28F
100
AcDbEntity
8
0
100
AcDbLine
62
0
6
CONTINUOUS
10
-13.5000000000
20
66.3085106447
11
-13.5000000000
21
66.0000000000
0
LINE
5
290
100
AcDbEntity
8
0
100
AcDbLine
62
0
6
CONTINUOUS
10
-13.5000000000
20
79.5000000000
11
-13.5000000000
21
82.4000000000
0
LINE
5
291
100
AcDbEntity
8
0
100
AcDbLine
62
0
6
CONTINUOUS
10
-13.1918750000
20
81.7829787970
11
-13.1918750000
21
79.5000000000
0
LINE
5
292
100
AcDbEntity
8
0
100
AcDbLine
62
0
6
CONTINUOUS
10
-11.9593750000
20
68.2212766767
11
-11.9593750000
21
68.0978722632
0
LINE
5
293
100
AcDbEntity
8
0
100
AcDbLine
62
0
6
CONTINUOUS
10
-11.6512500000
20
66.0000000000
11
-11.6512500000
21
66.3085106447
0
LINE
5
294
100
AcDbEntity
8
0
100
AcDbLine
62
0
6
CONTINUOUS
10
-11.6512500000
20
68.0978722632
11
-11.6512500000
21
68.2212766767
0
LINE
5
295
100
AcDbEntity
8
0
100
AcDbLine
62
0
6
CONTINUOUS
10
-11.3431250000
20
79.5000000000
11
-11.3431250000
21
81.7829787970
0
LINE
5
296
100
AcDbEntity
8
0
100
AcDbLine
62
0
6
CONTINUOUS
10
-11.2404166177
20
67.7276595414
11
-11.2404166177
21
67.1723404586
0
LINE
5
297
100
AcDbEntity
8
0
100
AcDbLine
62
0
6
CONTINUOUS
10
-11.0350000000
20
82.4000000000
11
-11.0350000000
21
79.5000000000
0
LINE
5
298
100
AcDbEntity
8
0
100
AcDbLine
62
0
6
CONTINUOUS
10
-10.9836457354
20
67.2340425789
11
-10.9836457354
21
67.6659574211
0
LINE
5
299
100
AcDbEntity
8
0
100
AcDbLine
62
0
6
CONTINUOUS
10
-9.6484375000
20
67.6659574211
11
-9.6484375000
21
67.2340425789
0
LINE
5
29A
100
AcDbEntity
8
0
100
AcDbLine
62
0
6
CONTINUOUS
10
-9.3916667646
20
67.1723404586
11
-9.3916667646
21
67.7276595414
0
LINE
5
29B
100
AcDbEntity
8
0
100
AcDbLine
62
0
6
CONTINUOUS
10
-8.1591664708
20
79.5000000000
11
-8.1591664708
21
82.4000000000
0
LINE
5
29C
100
AcDbEntity
8
0
100
AcDbLine
62
0
6
CONTINUOUS
10
-7.8510414708
20
82.0297872782
11
-7.8510414708
21
79.8702127650
0
LINE
5
29D
100
AcDbEntity
8
0
100
AcDbLine
62
0
6
CONTINUOUS
10
-7.4402085292
20
68.9000000000
11
-7.4402085292
21
66.9872340113
0
LINE
5
29E
100
AcDbEntity
8
0
100
AcDbLine
62
0
6
CONTINUOUS
10
-7.1320835292
20
66.9872340113
11
-7.1320835292
21
68.9000000000
0
LINE
5
29F
100
AcDbEntity
8
0
100
AcDbLine
62
0
6
CONTINUOUS
10
-6.8768190000
20
86.7095090000
11
-6.8768190000
21
93.5090600000
0
LINE
5
2A0
100
AcDbEntity
8
0
100
AcDbLine
62
0
6
CONTINUOUS
10
-6.4131250000
20
80.4872340113
11
-6.4131250000
21
81.4127659023
0
LINE
5
2A1
100
AcDbEntity
8
0
100
AcDbLine
62
0
6
CONTINUOUS
10
-6.1050000000
20
81.4127659023
11
-6.1050000000
21
80.4872340113
0
LINE
5
2A2
100
AcDbEntity
8
0
100
AcDbLine
62
0
6
CONTINUOUS
10
-5.6941664708
20
79.5000000000
11
-5.6941664708
21
82.4000000000
0
LINE
5
2A3
100
AcDbEntity
8
0
100
AcDbLine
62
0
6
CONTINUOUS
10
-5.4575710000
20
93.5090600000
11
-5.4575710000
21
86.7095090000
0
LINE
5
2A4
100
AcDbEntity
8
0
100
AcDbLine
62
0
6
CONTINUOUS
10
-5.3860414708
20
82.0297872782
11
-5.3860414708
21
81.2276595414
0
LINE
5
2A5
100
AcDbEntity
8
0
100
AcDbLine
62
0
6
CONTINUOUS
10
-5.3860414708
20
80.8574468195
11
-5.3860414708
21
79.8702127650
0
LINE
5
2A6
100
AcDbEntity
8
0
100
AcDbLine
62
0
6
CONTINUOUS
10
-4.5000000000
20
75.5000000000
11
-4.5000000000
21
75.1808511019
0
LINE
5
2A7
100
AcDbEntity
8
0
100
AcDbLine
62
0
6
CONTINUOUS
10
-4.0508335292
20
81.2276595414
11
-4.0508335292
21
80.8574468195
0
LINE
5
2A8
100
AcDbEntity
8
0
100
AcDbLine
62
0
6
CONTINUOUS
10
-3.8454164708
20
82.4000000000
11
-3.8454164708
21
82.0297872782
0
LINE
5
2A9
100
AcDbEntity
8
0
100
AcDbLine
62
0
6
CONTINUOUS
10
-3.8454164708
20
79.8702127650
11
-3.8454164708
21
79.5000000000
0
LINE
5
2AA
100
AcDbEntity
8
0
100
AcDbLine
62
0
6
CONTINUOUS
10
-3.5000000000
20
66.0000000000
11
-3.5000000000
21
68.9000000000
0
LINE
5
2AB
100
AcDbEntity
8
0
100
AcDbLine
62
0
6
CONTINUOUS
10
-3.1918750000
20
68.9000000000
11
-3.1918750000
21
66.0000000000
0
LINE
5
2AC
100
AcDbEntity
8
0
100
AcDbLine
62
0
6
CONTINUOUS
10
-2.7810416912
20
66.0000000000
11
-2.7810416912
21
68.9000000000
0
LINE
5
2AD
100
AcDbEntity
8
0
100
AcDbLine
62
0
6
CONTINUOUS
10
-2.4729166912
20
68.5914893985
11
-2.4729166912
21
67.6659574211
0
LINE
5
2AE
100
AcDbEntity
8
0
100
AcDbLine
62
0
6
CONTINUOUS
10
-2.4729166912
20
67.2957446992
11
-2.4729166912
21
66.0000000000
0
LINE
5
2AF
100
AcDbEntity
8
0
100
AcDbLine
62
0
6
CONTINUOUS
10
-2.2500000000
20
75.1808511019
11
-2.2500000000
21
75.5000000000
0
LINE
5
2B0
100
AcDbEntity
8
0
100
AcDbLine
62
0
6
CONTINUOUS
10
-1.7500001192
20
74.2872340083
11
-1.7500001192
21
73.7127659917
0
LINE
5
2B1
100
AcDbEntity
8
0
100
AcDbLine
62
0
6
CONTINUOUS
10
-1.4375002384
20
73.7765957713
11
-1.4375002384
21
74.2234042287
0
LINE
5
2B2
100
AcDbEntity
8
0
100
AcDbLine
62
0
6
CONTINUOUS
10
-1.1890625000
20
68.0361701429
11
-1.1890625000
21
68.2212766767
0
LINE
5
2B3
100
AcDbEntity
8
0
100
AcDbLine
62
0
6
CONTINUOUS
10
-0.9695829415
20
79.5000000000
11
-0.9695829415
21
82.4000000000
0
LINE
5
2B4
100
AcDbEntity
8
0
100
AcDbLine
62
0
6
CONTINUOUS
10
-0.8809375000
20
68.2212766767
11
-0.8809375000
21
67.9744680226
0
LINE
5
2B5
100
AcDbEntity
8
0
100
AcDbLine
62
0
6
CONTINUOUS
10
-0.8675540000
20
-78.5480370100
11
-0.8675540000
21
-77.7972200106
0
LINE
5
2B6
100
AcDbEntity
8
0
100
AcDbLine
62
0
6
CONTINUOUS
10
-0.8675540000
20
-74.2027800000
11
-0.8675540000
21
-73.4519630000
0
LINE
5
2B7
100
AcDbEntity
8
0
100
AcDbLine
62
0
6
CONTINUOUS
10
-0.6614579415
20
82.4000000000
11
-0.6614579415
21
79.5000000000
0
LINE
5
2B8
100
AcDbEntity
8
0
100
AcDbLine
62
0
6
CONTINUOUS
10
-0.4701042646
20
66.8638297707
11
-0.4701042646
21
67.2340425789
0
LINE
5
2B9
100
AcDbEntity
8
0
100
AcDbLine
62
0
6
CONTINUOUS
10
-0.2506250000
20
79.5000000000
11
-0.2506250000
21
82.4000000000
0
LINE
5
2BA
100
AcDbEntity
8
0
100
AcDbLine
62
0
6
CONTINUOUS
10
0.0575000000
20
82.0297872782
11
0.0575000000
21
79.5000000000
0
LINE
5
2BB
100
AcDbEntity
8
0
100
AcDbLine
62
0
6
CONTINUOUS
10
0.1875000000
20
74.2234042287
11
0.1875000000
21
73.7765957713
0
LINE
5
2BC
100
AcDbEntity
8
0
100
AcDbLine
62
0
6
CONTINUOUS
10
0.5000002384
20
73.7127659917
11
0.5000002384
21
74.2872340083
0
LINE
5
2BD
100
AcDbEntity
8
0
100
AcDbLine
62
0
6
CONTINUOUS
10
0.7623957354
20
66.0000000000
11
0.7623957354
21
66.8638297707
0
LINE
5
2BE
100
AcDbEntity
8
0
100
AcDbLine
62
0
6
CONTINUOUS
10
0.7623957354
20
67.2340425789
11
0.7623957354
21
68.4063830376
0
LINE
5
2BF
100
AcDbEntity
8
0
100
AcDbLine
62
0
6
CONTINUOUS
10
1.0705207354
20
68.9000000000
11
1.0705207354
21
67.2340425789
0
LINE
5
2C0
100
AcDbEntity
8
0
100
AcDbLine
62
0
6
CONTINUOUS
10
1.0705207354
20
66.8638297707
11
1.0705207354
21
66.0000000000
0
LINE
5
2C1
100
AcDbEntity
8
0
100
AcDbLine
62
0
6
CONTINUOUS
10
1.4954170585
20
79.9319148853
11
1.4954170585
21
82.4000000000
0
LINE
5
2C2
100
AcDbEntity
8
0
100
AcDbLine
62
0
6
CONTINUOUS
10
1.5840625000
20
67.2340425789
11
1.5840625000
21
66.8638297707
0
LINE
5
2C3
100
AcDbEntity
8
0
100
AcDbLine
62
0
6
CONTINUOUS
10
1.8035420585
20
82.4000000000
11
1.8035420585
21
79.5000000000
0
LINE
5
2C4
100
AcDbEntity
8
0
100
AcDbLine
62
0
6
CONTINUOUS
10
1.9948960292
20
67.1723404586
11
1.9948960292
21
67.7276595414
0
LINE
5
2C5
100
AcDbEntity
8
0
100
AcDbLine
62
0
6
CONTINUOUS
10
2.0000002384
20
74.1595744491
11
2.0000002384
21
73.9042553306
0
LINE
5
2C6
100
AcDbEntity
8
0
100
AcDbLine
62
0
6
CONTINUOUS
10
2.2516664708
20
67.6659574211
11
2.2516664708
21
67.2340425789
0
LINE
5
2C7
100
AcDbEntity
8
0
100
AcDbLine
62
0
6
CONTINUOUS
10
-3.0295130000
20
91.1492220000
11
-3.3357860000
21
86.7095090000
0
LINE
5
2C8
100
AcDbEntity
8
0
100
AcDbLine
62
0
6
CONTINUOUS
10
-4.6935450000
20
86.7095090000
11
-4.0796220000
21
93.5086520000
0
LINE
5
2C9
100
AcDbEntity
8
0
100
AcDbLine
62
0
6
CONTINUOUS
10
2.3030210292
20
68.0361701429
11
2.2516664708
21
67.6659574211
0
LINE
5
2CA
100
AcDbEntity
8
0
100
AcDbLine
62
0
6
CONTINUOUS
10
3.5355210292
20
66.8638297707
11
3.5868750000
21
67.2340425789
0
LINE
5
2CB
100
AcDbEntity
8
0
100
AcDbLine
62
0
6
CONTINUOUS
10
-1.4375002384
20
74.2234042287
11
-1.3749997616
21
74.6063829064
0
LINE
5
2CC
100
AcDbEntity
8
0
100
AcDbLine
62
0
6
CONTINUOUS
10
0.1875000000
20
73.7765957713
11
0.1250002384
21
73.3936170042
0
LINE
5
2CD
100
AcDbEntity
8
0
100
AcDbLine
62
0
6
CONTINUOUS
10
1.9948960292
20
67.7276595414
11
2.0462500000
21
68.0361701429
0
LINE
5
2CE
100
AcDbEntity
8
0
100
AcDbLine
62
0
6
CONTINUOUS
10
3.8436460292
20
67.1723404586
11
3.7922914708
21
66.8638297707
0
LINE
5
2CF
100
AcDbEntity
8
0
100
AcDbLine
62
0
6
CONTINUOUS
10
-1.6875000000
20
74.6063829064
11
-1.7500001192
21
74.2872340083
0
LINE
5
2D0
100
AcDbEntity
8
0
100
AcDbLine
62
0
6
CONTINUOUS
10
0.4374997616
20
73.3936170042
11
0.5000002384
21
73.7127659917
0
LINE
5
2D1
100
AcDbEntity
8
0
100
AcDbLine
62
0
6
CONTINUOUS
10
1.1250000000
20
75.0531915426
11
1.0625002384
21
74.7978724241
0
LINE
5
2D2
100
AcDbEntity
8
0
100
AcDbLine
62
0
6
CONTINUOUS
10
3.1250002384
20
74.4148935676
11
3.1875000000
21
74.6702126861
0
LINE
5
2D3
100
AcDbEntity
8
0
100
AcDbLine
62
0
6
CONTINUOUS
10
2.0462500000
20
68.0361701429
11
2.0976039708
21
68.2212766767
0
LINE
5
2D4
100
AcDbEntity
8
0
100
AcDbLine
62
0
6
CONTINUOUS
10
3.7922914708
20
66.8638297707
11
3.7409375000
21
66.6787234098
0
LINE
5
2D5
100
AcDbEntity
8
0
100
AcDbLine
62
0
6
CONTINUOUS
10
8.7877091169
20
82.1531915188
11
8.3255216169
21
80.4872340113
0
LINE
5
2D6
100
AcDbEntity
8
0
100
AcDbLine
62
0
6
CONTINUOUS
10
8.2741658831
20
80.2404255301
11
8.0687500000
21
79.5000000000
0
LINE
5
2D7
100
AcDbEntity
8
0
100
AcDbLine
62
0
6
CONTINUOUS
10
7.7606250000
20
79.5000000000
11
8.5822908831
21
82.4000000000
0
LINE
5
2D8
100
AcDbEntity
8
0
100
AcDbLine
62
0
6
CONTINUOUS
10
-11.6512500000
20
68.2212766767
11
-11.7026041177
21
68.4680851579
0
LINE
5
2D9
100
AcDbEntity
8
0
100
AcDbLine
62
0
6
CONTINUOUS
10
-11.2404166177
20
67.1723404586
11
-11.1890625000
21
66.8638297707
0
LINE
5
2DA
100
AcDbEntity
8
0
100
AcDbLine
62
0
6
CONTINUOUS
10
-9.3916667646
20
67.7276595414
11
-9.4430207354
21
68.0361701429
0
LINE
5
2DB
100
AcDbEntity
8
0
100
AcDbLine
62
0
6
CONTINUOUS
10
-8.9808332354
20
66.9872340113
11
-8.9294792646
21
66.6787234098
0
LINE
5
2DC
100
AcDbEntity
8
0
100
AcDbLine
62
0
6
CONTINUOUS
10
-10.9322917646
20
66.8638297707
11
-10.9836457354
21
67.2340425789
0
LINE
5
2DD
100
AcDbEntity
8
0
100
AcDbLine
62
0
6
CONTINUOUS
10
-9.6997917646
20
68.0361701429
11
-9.6484375000
21
67.6659574211
0
LINE
5
2DE
100
AcDbEntity
8
0
100
AcDbLine
62
0
6
CONTINUOUS
10
1.5661660000
20
93.5086520000
11
2.2019620000
21
86.7095090000
0
LINE
5
2DF
100
AcDbEntity
8
0
100
AcDbLine
62
0
6
CONTINUOUS
10
0.8135610000
20
86.7095090000
11
0.5219710000
21
91.1307140000
0
LINE
5
2E0
100
AcDbEntity
8
0
100
AcDbLine
62
0
6
CONTINUOUS
10
2.8749997616
20
74.7978724241
11
2.8749997616
21
74.6702126861
0
LINE
5
2E1
100
AcDbEntity
8
0
100
AcDbLine
62
0
6
CONTINUOUS
10
2.9375002384
20
73.4574467838
11
2.9375002384
21
73.2021276653
0
LINE
5
2E2
100
AcDbEntity
8
0
100
AcDbLine
62
0
6
CONTINUOUS
10
3.1175560000
20
-76.3750000000
11
3.1175560000
21
-75.6250000000
0
LINE
5
2E3
100
AcDbEntity
8
0
100
AcDbLine
62
0
6
CONTINUOUS
10
3.1875000000
20
74.6702126861
11
3.1875000000
21
74.7978724241
0
LINE
5
2E4
100
AcDbEntity
8
0
100
AcDbLine
62
0
6
CONTINUOUS
10
3.2499997616
20
73.2021276653
11
3.2499997616
21
73.4574467838
0
LINE
5
2E5
100
AcDbEntity
8
0
100
AcDbLine
62
0
6
CONTINUOUS
10
3.5175560000
20
-78.5480371273
11
3.5175560000
21
-77.7972166714
0
LINE
5
2E6
100
AcDbEntity
8
0
100
AcDbLine
62
0
6
CONTINUOUS
10
3.5175560000
20
-74.2027800000
11
3.5175560000
21
-73.4519631366
0
LINE
5
2E7
100
AcDbEntity
8
0
100
AcDbLine
62
0
6
CONTINUOUS
10
3.5868750000
20
67.2340425789
11
3.5868750000
21
67.6659574211
0
LINE
5
2E8
100
AcDbEntity
8
0
100
AcDbLine
62
0
6
CONTINUOUS
10
3.7500000000
20
75.0531915426
11
3.7500000000
21
74.5425531268
0
LINE
5
2E9
100
AcDbEntity
8
0
100
AcDbLine
62
0
6
CONTINUOUS
10
3.8436460292
20
67.7276595414
11
3.8436460292
21
67.1723404586
0
LINE
5
2EA
100
AcDbEntity
8
0
100
AcDbLine
62
0
6
CONTINUOUS
10
4.1250000000
20
74.9893617630
11
4.1250000000
21
72.5000000000
0
LINE
5
2EB
100
AcDbEntity
8
0
100
AcDbLine
62
0
6
CONTINUOUS
10
4.5000000000
20
72.5000000000
11
4.5000000000
21
75.5000000000
0
LINE
5
2EC
100
AcDbEntity
8
0
100
AcDbLine
62
0
6
CONTINUOUS
10
4.6793750000
20
79.5000000000
11
4.6793750000
21
82.4000000000
0
LINE
5
2ED
100
AcDbEntity
8
0
100
AcDbLine
62
0
6
CONTINUOUS
10
4.9875000000
20
82.4000000000
11
4.9875000000
21
79.5000000000
0
LINE
5
2EE
100
AcDbEntity
8
0
100
AcDbLine
62
0
6
CONTINUOUS
10
4.9999995232
20
75.0531915426
11
4.9999995232
21
74.5425531268
0
LINE
5
2EF
100
AcDbEntity
8
0
100
AcDbLine
62
0
6
CONTINUOUS
10
5.3749995232
20
74.9893617630
11
5.3749995232
21
72.5000000000
0
LINE
5
2F0
100
AcDbEntity
8
0
100
AcDbLine
62
0
6
CONTINUOUS
10
5.3983329415
20
82.0914893985
11
5.3983329415
21
82.4000000000
0
LINE
5
2F1
100
AcDbEntity
8
0
100
AcDbLine
62
0
6
CONTINUOUS
10
5.7499995232
20
72.5000000000
11
5.7499995232
21
75.5000000000
0
LINE
5
2F2
100
AcDbEntity
8
0
100
AcDbLine
62
0
6
CONTINUOUS
10
6.2200000000
20
79.5000000000
11
6.2200000000
21
82.0914893985
0
LINE
5
2F3
100
AcDbEntity
8
0
100
AcDbLine
62
0
6
CONTINUOUS
10
6.5281250000
20
82.0914893985
11
6.5281250000
21
79.5000000000
0
LINE
5
2F4
100
AcDbEntity
8
0
100
AcDbLine
62
0
6
CONTINUOUS
10
7.3497908831
20
82.4000000000
11
7.3497908831
21
82.0914893985
0
LINE
5
2F5
100
AcDbEntity
8
0
100
AcDbLine
62
0
6
CONTINUOUS
10
8.4333240879
20
86.7095094051
11
8.4333240879
21
93.4292160625
0
LINE
5
2F6
100
AcDbEntity
8
0
100
AcDbLine
62
0
6
CONTINUOUS
10
9.2322390000
20
65.0129710000
11
9.2322390000
21
65.5566200000
0
LINE
5
2F7
100
AcDbEntity
8
0
100
AcDbLine
62
0
6
CONTINUOUS
10
9.2499930000
20
69.4189740000
11
9.2499930000
21
69.9656130000
0
LINE
5
2F8
100
AcDbEntity
8
0
100
AcDbLine
62
0
6
CONTINUOUS
10
9.7140290000
20
65.5566200000
11
9.7140290000
21
67.3591260000
0
LINE
5
2F9
100
AcDbEntity
8
0
100
AcDbLine
62
0
6
CONTINUOUS
10
9.7140290000
20
68.0328470000
11
9.7140290000
21
69.4189740000
0
LINE
5
2FA
100
AcDbEntity
8
0
100
AcDbLine
62
0
6
CONTINUOUS
10
9.7998012541
20
92.3503512128
11
9.7998012541
21
90.4838538395
0
LINE
5
2FB
100
AcDbEntity
8
0
100
AcDbLine
62
0
6
CONTINUOUS
10
9.8468613796
20
89.3703184747
11
9.8468613796
21
86.7095094051
0
LINE
5
2FC
100
AcDbEntity
8
0
100
AcDbLine
62
0
6
CONTINUOUS
10
10.2256250000
20
79.5000000000
11
10.2256250000
21
82.4000000000
0
LINE
5
2FD
100
AcDbEntity
8
0
100
AcDbLine
62
0
6
CONTINUOUS
10
10.2931860000
20
69.4189740000
11
10.2931860000
21
68.0328470000
0
LINE
5
2FE
100
AcDbEntity
8
0
100
AcDbLine
62
0
6
CONTINUOUS
10
10.2931860000
20
67.3652060000
11
10.2931860000
21
65.5566200000
0
LINE
5
2FF
100
AcDbEntity
8
0
100
AcDbLine
62
0
6
CONTINUOUS
10
10.5337500000
20
82.4000000000
11
10.5337500000
21
79.8702127650
0
LINE
5
300
100
AcDbEntity
8
0
100
AcDbLine
62
0
6
CONTINUOUS
10
10.7570340000
20
69.9656130000
11
10.7570340000
21
69.4189740000
0
LINE
5
301
100
AcDbEntity
8
0
100
AcDbLine
62
0
6
CONTINUOUS
10
10.7747880000
20
65.5566200000
11
10.7747880000
21
65.0129710000
0
LINE
5
302
100
AcDbEntity
8
0
100
AcDbLine
62
0
6
CONTINUOUS
10
12.0743750000
20
79.8702127650
11
12.0743750000
21
79.5000000000
0
LINE
5
303
100
AcDbEntity
8
0
100
AcDbLine
62
0
6
CONTINUOUS
10
12.0821408634
20
89.9234661474
11
12.0821408634
21
89.8832891389
0
LINE
5
304
100
AcDbEntity
8
0
100
AcDbLine
62
0
6
CONTINUOUS
10
13.3068750000
20
79.5000000000
11
13.3068750000
21
80.9808510602
0
LINE
5
305
100
AcDbEntity
8
0
100
AcDbLine
62
0
6
CONTINUOUS
10
13.6150000000
20
80.9808510602
11
13.6150000000
21
79.5000000000
0
LINE
5
306
100
AcDbEntity
8
CURVE
100
AcDbLine
62
0
6
CONTINUOUS
10
16.0000000000
20
95.5000000000
11
16.0000000000
21
61.5000000000
0
LINE
5
307
100
AcDbEntity
8
0
100
AcDbLine
62
0
6
CONTINUOUS
10
-12.0620833823
20
68.4063830376
11
-11.9593750000
21
68.2212766767
0
LINE
5
308
100
AcDbEntity
8
0
100
AcDbLine
62
0
6
CONTINUOUS
10
-10.7268750000
20
66.4936170056
11
-10.9322917646
21
66.8638297707
0
LINE
5
309
100
AcDbEntity
8
0
100
AcDbLine
62
0
6
CONTINUOUS
10
-11.1377083823
20
66.6787234098
11
-11.0350000000
21
66.4319148853
0
LINE
5
30A
100
AcDbEntity
8
0
100
AcDbLine
62
0
6
CONTINUOUS
10
-8.9294792646
20
66.6787234098
11
-8.8267707354
21
66.4319148853
0
LINE
5
30B
100
AcDbEntity
8
0
100
AcDbLine
62
0
6
CONTINUOUS
10
-9.4943750000
20
68.2212766767
11
-9.5970832354
21
68.4680851579
0
LINE
5
30C
100
AcDbEntity
8
0
100
AcDbLine
62
0
6
CONTINUOUS
10
-6.2500000298
20
72.8829787225
11
-7.1250000000
21
75.5000000000
0
LINE
5
30D
100
AcDbEntity
8
0
100
AcDbLine
62
0
6
CONTINUOUS
10
-7.5000000000
20
75.5000000000
11
-6.4999999702
21
72.5000000000
0
LINE
5
30E
100
AcDbEntity
8
0
100
AcDbLine
62
0
6
CONTINUOUS
10
-1.6875000000
20
73.3936170042
11
-1.6249998808
21
73.2021276653
0
LINE
5
30F
100
AcDbEntity
8
0
100
AcDbLine
62
0
6
CONTINUOUS
10
-10.8397350000
20
86.7095090000
11
-12.9951960000
21
93.5086520000
0
LINE
5
310
100
AcDbEntity
8
0
100
AcDbLine
62
0
6
CONTINUOUS
10
-12.4729166912
20
79.5000000000
11
-13.1918750000
21
81.7829787970
0
LINE
5
311
100
AcDbEntity
8
0
100
AcDbLine
62
0
6
CONTINUOUS
10
-13.0378125000
20
82.4000000000
11
-12.2675000000
21
79.8085106447
0
LINE
5
312
100
AcDbEntity
8
0
100
AcDbLine
62
0
6
CONTINUOUS
10
-9.3916667646
20
82.4000000000
11
-8.5700000000
21
79.5000000000
0
LINE
5
313
100
AcDbEntity
8
0
100
AcDbLine
62
0
6
CONTINUOUS
10
-11.1890625000
20
66.8638297707
11
-11.1377083823
21
66.6787234098
0
LINE
5
314
100
AcDbEntity
8
0
100
AcDbLine
62
0
6
CONTINUOUS
10
-9.4430207354
20
68.0361701429
11
-9.4943750000
21
68.2212766767
0
LINE
5
315
100
AcDbEntity
8
0
100
AcDbLine
62
0
6
CONTINUOUS
10
-8.8781250000
20
79.5000000000
11
-9.0835417646
21
80.2404255301
0
LINE
5
316
100
AcDbEntity
8
0
100
AcDbLine
62
0
6
CONTINUOUS
10
-9.1348957354
20
80.4872340113
11
-9.5970832354
21
82.1531915188
0
LINE
5
317
100
AcDbEntity
8
0
100
AcDbLine
62
0
6
CONTINUOUS
10
-1.1890625000
20
68.2212766767
11
-1.2404166177
21
68.4063830376
0
LINE
5
318
100
AcDbEntity
8
0
100
AcDbLine
62
0
6
CONTINUOUS
10
-0.9322917646
20
68.4063830376
11
-0.8809375000
21
68.2212766767
0
LINE
5
319
100
AcDbEntity
8
0
100
AcDbLine
62
0
6
CONTINUOUS
10
2.0976039708
20
66.6787234098
11
2.0462500000
21
66.8638297707
0
LINE
5
31A
100
AcDbEntity
8
0
100
AcDbLine
62
0
6
CONTINUOUS
10
3.7409375000
20
68.2212766767
11
3.7922914708
21
68.0361701429
0
LINE
5
31B
100
AcDbEntity
8
0
100
AcDbLine
62
0
6
CONTINUOUS
10
-11.4534540000
20
93.5086520000
11
-10.1574140000
21
88.8285920000
0
LINE
5
31C
100
AcDbEntity
8
0
100
AcDbLine
62
0
6
CONTINUOUS
10
3.2499997616
20
73.4574467838
11
3.1875000000
21
73.7127659917
0
LINE
5
31D
100
AcDbEntity
8
0
100
AcDbLine
62
0
6
CONTINUOUS
10
3.1875000000
20
74.7978724241
11
3.1250002384
21
75.0531915426
0
LINE
5
31E
100
AcDbEntity
8
0
100
AcDbLine
62
0
6
CONTINUOUS
10
-8.6213542646
20
66.7404255301
11
-8.6727082354
21
66.9872340113
0
LINE
5
31F
100
AcDbEntity
8
0
100
AcDbLine
62
0
6
CONTINUOUS
10
-6.4131250000
20
81.4127659023
11
-6.4644789708
21
81.6595743835
0
LINE
5
320
100
AcDbEntity
8
0
100
AcDbLine
62
0
6
CONTINUOUS
10
-1.7500001192
20
73.7127659917
11
-1.6875000000
21
73.3936170042
0
LINE
5
321
100
AcDbEntity
8
0
100
AcDbLine
62
0
6
CONTINUOUS
10
0.5000002384
20
74.2872340083
11
0.4374997616
21
74.6063829064
0
LINE
5
322
100
AcDbEntity
8
0
100
AcDbLine
62
0
6
CONTINUOUS
10
-6.1563539708
20
81.7212766767
11
-6.1050000000
21
81.4127659023
0
LINE
5
323
100
AcDbEntity
8
0
100
AcDbLine
62
0
6
CONTINUOUS
10
2.0462500000
20
66.8638297707
11
1.9948960292
21
67.1723404586
0
LINE
5
324
100
AcDbEntity
8
0
100
AcDbLine
62
0
6
CONTINUOUS
10
3.7922914708
20
68.0361701429
11
3.8436460292
21
67.7276595414
0
LINE
5
325
100
AcDbEntity
8
0
100
AcDbLine
62
0
6
CONTINUOUS
10
-1.3749997616
20
73.3936170042
11
-1.4375002384
21
73.7765957713
0
LINE
5
326
100
AcDbEntity
8
0
100
AcDbLine
62
0
6
CONTINUOUS
10
0.1250002384
20
74.6063829064
11
0.1875000000
21
74.2234042287
0
LINE
5
327
100
AcDbEntity
8
0
100
AcDbLine
62
0
6
CONTINUOUS
10
2.2516664708
20
67.2340425789
11
2.3030210292
21
66.8638297707
0
LINE
5
328
100
AcDbEntity
8
0
100
AcDbLine
62
0
6
CONTINUOUS
10
3.5868750000
20
67.6659574211
11
3.5355210292
21
68.0361701429
0
LINE
5
329
100
AcDbEntity
8
0
100
AcDbLine
62
0
6
CONTINUOUS
10
-11.0350000000
20
66.4319148853
11
-10.8809375000
21
66.2468085028
0
LINE
5
32A
100
AcDbEntity
8
0
100
AcDbLine
62
0
6
CONTINUOUS
10
-11.7026041177
20
68.4680851579
11
-11.9080208823
21
68.7148936391
0
LINE
5
32B
100
AcDbEntity
8
0
100
AcDbLine
62
0
6
CONTINUOUS
10
-8.8267707354
20
66.4319148853
11
-8.6213542646
21
66.1851063825
0
LINE
5
32C
100
AcDbEntity
8
0
100
AcDbLine
62
0
6
CONTINUOUS
10
-9.5970832354
20
68.4680851579
11
-9.7511457354
21
68.6531915188
0
LINE
5
32D
100
AcDbEntity
8
0
100
AcDbLine
62
0
6
CONTINUOUS
10
-1.2404166177
20
68.4063830376
11
-1.3431250000
21
68.5297872782
0
LINE
5
32E
100
AcDbEntity
8
0
100
AcDbLine
62
0
6
CONTINUOUS
10
-1.1250000000
20
73.0106382817
11
-1.3749997616
21
73.3936170042
0
LINE
5
32F
100
AcDbEntity
8
0
100
AcDbLine
62
0
6
CONTINUOUS
10
1.0625002384
20
73.0106382817
11
1.1874997616
21
72.8191489428
0
LINE
5
330
100
AcDbEntity
8
0
100
AcDbLine
62
0
6
CONTINUOUS
10
-0.1250002384
20
74.9893617630
11
0.1250002384
21
74.6063829064
0
LINE
5
331
100
AcDbEntity
8
0
100
AcDbLine
62
0
6
CONTINUOUS
10
3.1875000000
20
73.7127659917
11
3.0624997616
21
73.9042553306
0
LINE
5
332
100
AcDbEntity
8
0
100
AcDbLine
62
0
6
CONTINUOUS
10
2.7500002384
20
74.9893617630
11
2.8749997616
21
74.7978724241
0
LINE
5
333
100
AcDbEntity
8
0
100
AcDbLine
62
0
6
CONTINUOUS
10
-1.0863541177
20
68.6531915188
11
-0.9322917646
21
68.4063830376
0
LINE
5
334
100
AcDbEntity
8
0
100
AcDbLine
62
0
6
CONTINUOUS
10
11.2586720000
20
65.2574530000
11
11.0084240000
21
65.7033150000
0
LINE
5
335
100
AcDbEntity
8
0
100
AcDbLine
62
0
6
CONTINUOUS
10
-9.9052082354
20
68.4063830376
11
-9.6997917646
21
68.0361701429
0
LINE
5
336
100
AcDbEntity
8
0
100
AcDbLine
62
0
6
CONTINUOUS
10
-8.5186460292
20
66.5553191692
11
-8.6213542646
21
66.7404255301
0
LINE
5
337
100
AcDbEntity
8
0
100
AcDbLine
62
0
6
CONTINUOUS
10
-6.4644789708
20
81.6595743835
11
-6.5671875000
21
81.8446809173
0
LINE
5
338
100
AcDbEntity
8
0
100
AcDbLine
62
0
6
CONTINUOUS
10
2.3030210292
20
66.8638297707
11
2.5084375000
21
66.4936170056
0
LINE
5
339
100
AcDbEntity
8
0
100
AcDbLine
62
0
6
CONTINUOUS
10
3.5355210292
20
68.0361701429
11
3.3301039708
21
68.4063830376
0
LINE
5
33A
100
AcDbEntity
8
0
100
AcDbLine
62
0
6
CONTINUOUS
10
0.2115625000
20
82.4000000000
11
1.4954170585
21
79.9319148853
0
LINE
5
33B
100
AcDbEntity
8
0
100
AcDbLine
62
0
6
CONTINUOUS
10
1.3413545585
20
79.5000000000
11
0.0575000000
21
82.0297872782
0
LINE
5
33C
100
AcDbEntity
8
0
100
AcDbLine
62
0
6
CONTINUOUS
10
-1.6249998808
20
73.2021276653
11
-1.5000000000
21
72.9468085021
0
LINE
5
33D
100
AcDbEntity
8
0
100
AcDbLine
62
0
6
CONTINUOUS
10
0.3750000000
20
74.7978724241
11
0.2499997616
21
75.0531915426
0
LINE
5
33E
100
AcDbEntity
8
0
100
AcDbLine
62
0
6
CONTINUOUS
10
1.3749997616
20
73.0744681060
11
1.3125000000
21
73.2021276653
0
LINE
5
33F
100
AcDbEntity
8
0
100
AcDbLine
62
0
6
CONTINUOUS
10
2.8125000000
20
73.7127659917
11
2.9375002384
21
73.4574467838
0
LINE
5
340
100
AcDbEntity
8
0
100
AcDbLine
62
0
6
CONTINUOUS
10
-6.2590625000
20
81.9680851579
11
-6.1563539708
21
81.7212766767
0
LINE
5
341
100
AcDbEntity
8
0
100
AcDbLine
62
0
6
CONTINUOUS
10
2.2003125000
20
66.4319148853
11
2.0976039708
21
66.6787234098
0
LINE
5
342
100
AcDbEntity
8
0
100
AcDbLine
62
0
6
CONTINUOUS
10
3.6382289708
20
68.4680851579
11
3.7409375000
21
68.2212766767
0
LINE
5
343
100
AcDbEntity
8
0
100
AcDbLine
62
0
6
CONTINUOUS
10
-1.3645630000
20
86.7095090000
11
-3.0295130000
21
91.1492220000
0
LINE
5
344
100
AcDbEntity
8
0
100
AcDbLine
62
0
6
CONTINUOUS
10
-2.6615470000
20
93.5086520000
11
-1.2572890000
21
89.7337470000
0
LINE
5
345
100
AcDbEntity
8
0
100
AcDbLine
62
0
6
CONTINUOUS
10
0.4374997616
20
74.6063829064
11
0.3750000000
21
74.7978724241
0
LINE
5
346
100
AcDbEntity
8
0
100
AcDbLine
62
0
6
CONTINUOUS
10
0.9999997616
20
73.2021276653
11
1.0625002384
21
73.0106382817
0
LINE
5
347
100
AcDbEntity
8
0
100
AcDbLine
62
0
6
CONTINUOUS
10
5.9304190000
20
93.5086520000
11
8.0165640000
21
86.7095090000
0
LINE
5
348
100
AcDbEntity
8
0
100
AcDbLine
62
0
6
CONTINUOUS
10
8.9931250000
20
82.4000000000
11
9.8147908831
21
79.5000000000
0
LINE
5
349
100
AcDbEntity
8
0
100
AcDbLine
62
0
6
CONTINUOUS
10
9.5066658831
20
79.5000000000
11
9.3012500000
21
80.2404255301
0
LINE
5
34A
100
AcDbEntity
8
0
100
AcDbLine
62
0
6
CONTINUOUS
10
9.2498966169
20
80.4872340113
11
8.7877091169
21
82.1531915188
0
LINE
5
34B
100
AcDbEntity
8
0
100
AcDbLine
62
0
6
CONTINUOUS
10
6.5207350000
20
86.7095090000
11
6.1530750000
21
88.0668600000
0
LINE
5
34C
100
AcDbEntity
8
0
100
AcDbLine
62
0
6
CONTINUOUS
10
5.8694400000
20
89.1171730000
11
5.2172770000
21
91.6404210000
0
LINE
5
34D
100
AcDbEntity
8
0
100
AcDbLine
62
0
6
CONTINUOUS
10
2.9192710292
20
66.3085106447
11
3.1760414708
21
66.3702127650
0
LINE
5
34E
100
AcDbEntity
8
0
100
AcDbLine
62
0
6
CONTINUOUS
10
3.2273960292
20
66.0617021257
11
2.9192710292
21
66.0000000000
0
LINE
5
34F
100
AcDbEntity
8
CURVE
100
AcDbLine
62
0
6
CONTINUOUS
10
16.0000000000
20
61.5000000000
11
-16.0000000000
21
61.5000000000
0
LINE
5
350
100
AcDbEntity
8
0
100
AcDbLine
62
0
6
CONTINUOUS
10
-10.6241667646
20
66.0617021257
11
-10.3160417646
21
66.0000000000
0
LINE
5
351
100
AcDbEntity
8
0
100
AcDbLine
62
0
6
CONTINUOUS
10
-10.3160417646
20
66.3085106447
11
-10.5728125000
21
66.3702127650
0
LINE
5
352
100
AcDbEntity
8
0
100
AcDbLine
62
0
6
CONTINUOUS
10
-8.4159375000
20
66.0617021257
11
-8.1591664708
21
66.0000000000
0
LINE
5
353
100
AcDbEntity
8
0
100
AcDbLine
62
0
6
CONTINUOUS
10
-12.4729166912
20
68.5914893985
11
-12.2161458823
21
68.5297872782
0
LINE
5
354
100
AcDbEntity
8
0
100
AcDbLine
62
0
6
CONTINUOUS
10
-10.3160417646
20
68.5914893985
11
-10.0592707354
21
68.5297872782
0
LINE
5
355
100
AcDbEntity
8
0
100
AcDbLine
62
0
6
CONTINUOUS
10
-8.1591664708
20
66.3702127650
11
-8.3645835292
21
66.4319148853
0
LINE
5
356
100
AcDbEntity
8
0
100
AcDbLine
62
0
6
CONTINUOUS
10
-1.3431250000
20
68.5297872782
11
-1.4971875000
21
68.5914893985
0
LINE
5
357
100
AcDbEntity
8
0
100
AcDbLine
62
0
6
CONTINUOUS
10
-8.6213542646
20
66.1851063825
11
-8.4159375000
21
66.0617021257
0
LINE
5
358
100
AcDbEntity
8
0
100
AcDbLine
62
0
6
CONTINUOUS
10
-11.9080208823
20
68.7148936391
11
-12.1134375000
21
68.8382978797
0
LINE
5
359
100
AcDbEntity
8
0
100
AcDbLine
62
0
6
CONTINUOUS
10
-1.3125000000
20
72.7553191409
11
-0.9999997616
21
72.5638297852
0
LINE
5
35A
100
AcDbEntity
8
0
100
AcDbLine
62
0
6
CONTINUOUS
10
0.0624997616
20
75.2446808815
11
-0.2499997616
21
75.4361702204
0
LINE
5
35B
100
AcDbEntity
8
0
100
AcDbLine
62
0
6
CONTINUOUS
10
-0.9375000000
20
72.8829787225
11
-1.1250000000
21
73.0106382817
0
LINE
5
35C
100
AcDbEntity
8
0
100
AcDbLine
62
0
6
CONTINUOUS
10
1.1874997616
20
72.8191489428
11
1.3749997616
21
72.6914893612
0
LINE
5
35D
100
AcDbEntity
8
0
100
AcDbLine
62
0
6
CONTINUOUS
10
-0.3125002384
20
75.1170213223
11
-0.1250002384
21
74.9893617630
0
LINE
5
35E
100
AcDbEntity
8
0
100
AcDbLine
62
0
6
CONTINUOUS
10
2.6250000000
20
73.8404255509
11
2.8125000000
21
73.7127659917
0
LINE
5
35F
100
AcDbEntity
8
0
100
AcDbLine
62
0
6
CONTINUOUS
10
2.5625002384
20
75.1170213223
11
2.7500002384
21
74.9893617630
0
LINE
5
360
100
AcDbEntity
8
0
100
AcDbLine
62
0
6
CONTINUOUS
10
-10.8809375000
20
66.2468085028
11
-10.6241667646
21
66.0617021257
0
LINE
5
361
100
AcDbEntity
8
0
100
AcDbLine
62
0
6
CONTINUOUS
10
-9.7511457354
20
68.6531915188
11
-10.0079167646
21
68.8382978797
0
LINE
5
362
100
AcDbEntity
8
0
100
AcDbLine
62
0
6
CONTINUOUS
10
2.6111460292
20
66.0617021257
11
2.3543750000
21
66.2468085028
0
LINE
5
363
100
AcDbEntity
8
0
100
AcDbLine
62
0
6
CONTINUOUS
10
3.2273960292
20
68.8382978797
11
3.4841664708
21
68.6531915188
0
LINE
5
364
100
AcDbEntity
8
0
100
AcDbLine
62
0
6
CONTINUOUS
10
-10.5728125000
20
66.3702127650
11
-10.7268750000
21
66.4936170056
0
LINE
5
365
100
AcDbEntity
8
0
100
AcDbLine
62
0
6
CONTINUOUS
10
-12.2161458823
20
68.5297872782
11
-12.0620833823
21
68.4063830376
0
LINE
5
366
100
AcDbEntity
8
0
100
AcDbLine
62
0
6
CONTINUOUS
10
-8.3645835292
20
66.4319148853
11
-8.5186460292
21
66.5553191692
0
LINE
5
367
100
AcDbEntity
8
0
100
AcDbLine
62
0
6
CONTINUOUS
10
-10.0592707354
20
68.5297872782
11
-9.9052082354
21
68.4063830376
0
LINE
5
368
100
AcDbEntity
8
0
100
AcDbLine
62
0
6
CONTINUOUS
10
2.5084375000
20
66.4936170056
11
2.6625000000
21
66.3702127650
0
LINE
5
369
100
AcDbEntity
8
0
100
AcDbLine
62
0
6
CONTINUOUS
10
3.3301039708
20
68.4063830376
11
3.1760414708
21
68.5297872782
0
LINE
5
36A
100
AcDbEntity
8
0
100
AcDbLine
62
0
6
CONTINUOUS
10
-6.5671875000
20
81.8446809173
11
-6.7212500000
21
81.9680851579
0
LINE
5
36B
100
AcDbEntity
8
0
100
AcDbLine
62
0
6
CONTINUOUS
10
9.7140290000
20
67.3591260000
11
8.2522240000
21
68.5909980000
0
LINE
5
36C
100
AcDbEntity
8
0
100
AcDbLine
62
0
6
CONTINUOUS
10
8.1847520000
20
69.3215780000
11
9.7140290000
21
68.0328470000
0
LINE
5
36D
100
AcDbEntity
8
0
100
AcDbLine
62
0
6
CONTINUOUS
10
-1.2917708823
20
68.8382978797
11
-1.0863541177
21
68.6531915188
0
LINE
5
36E
100
AcDbEntity
8
0
100
AcDbLine
62
0
6
CONTINUOUS
10
-1.5000000000
20
72.9468085021
11
-1.3125000000
21
72.7553191409
0
LINE
5
36F
100
AcDbEntity
8
0
100
AcDbLine
62
0
6
CONTINUOUS
10
1.5000000000
20
72.9468085021
11
1.3749997616
21
73.0744681060
0
LINE
5
370
100
AcDbEntity
8
0
100
AcDbLine
62
0
6
CONTINUOUS
10
0.2499997616
20
75.0531915426
11
0.0624997616
21
75.2446808815
0
LINE
5
371
100
AcDbEntity
8
0
100
AcDbLine
62
0
6
CONTINUOUS
10
3.1250002384
20
75.0531915426
11
2.8749997616
21
75.3085106611
0
LINE
5
372
100
AcDbEntity
8
0
100
AcDbLine
62
0
6
CONTINUOUS
10
2.3543750000
20
66.2468085028
11
2.2003125000
21
66.4319148853
0
LINE
5
373
100
AcDbEntity
8
0
100
AcDbLine
62
0
6
CONTINUOUS
10
3.4841664708
20
68.6531915188
11
3.6382289708
21
68.4680851579
0
LINE
5
374
100
AcDbEntity
8
0
100
AcDbLine
62
0
6
CONTINUOUS
10
-6.4644789708
20
82.2148936391
11
-6.2590625000
21
81.9680851579
0
LINE
5
375
100
AcDbEntity
8
0
100
AcDbLine
62
0
6
CONTINUOUS
10
13.3068750000
20
80.9808510602
11
12.4852091169
21
82.4000000000
0
LINE
5
376
100
AcDbEntity
8
0
100
AcDbLine
62
0
6
CONTINUOUS
10
12.7933341169
20
82.4000000000
11
13.4609375000
21
81.2276595414
0
LINE
5
377
100
AcDbEntity
8
0
100
AcDbLine
62
0
6
CONTINUOUS
10
2.3750002384
20
72.5000000000
11
2.6250000000
21
72.5638297852
0
LINE
5
378
100
AcDbEntity
8
0
100
AcDbLine
62
0
6
CONTINUOUS
10
-1.2917708823
20
67.3574468195
11
-1.5485416177
21
67.2957446992
0
LINE
5
379
100
AcDbEntity
8
0
100
AcDbLine
62
0
6
CONTINUOUS
10
2.9192710292
20
68.5914893985
11
2.6625000000
21
68.5297872782
0
LINE
5
37A
100
AcDbEntity
8
0
100
AcDbLine
62
0
6
CONTINUOUS
10
-7.9537500000
20
66.0000000000
11
-7.6969789708
21
66.0617021257
0
LINE
5
37B
100
AcDbEntity
8
0
100
AcDbLine
62
0
6
CONTINUOUS
10
-10.0592707354
20
66.3702127650
11
-10.3160417646
21
66.3085106447
0
LINE
5
37C
100
AcDbEntity
8
0
100
AcDbLine
62
0
6
CONTINUOUS
10
-10.5728125000
20
68.5297872782
11
-10.3160417646
21
68.5914893985
0
LINE
5
37D
100
AcDbEntity
8
0
100
AcDbLine
62
0
6
CONTINUOUS
10
-12.9351041544
20
68.5297872782
11
-12.6783333088
21
68.5914893985
0
LINE
5
37E
100
AcDbEntity
8
0
100
AcDbLine
62
0
6
CONTINUOUS
10
-6.6698960292
20
79.5617021257
11
-6.9266664708
21
79.5000000000
0
LINE
5
37F
100
AcDbEntity
8
0
100
AcDbLine
62
0
6
CONTINUOUS
10
2.6250000000
20
72.8829787225
11
2.3124997616
21
72.8191489428
0
LINE
5
380
100
AcDbEntity
8
0
100
AcDbLine
62
0
6
CONTINUOUS
10
-0.3125002384
20
72.8829787225
11
-0.6249997616
21
72.8191489428
0
LINE
5
381
100
AcDbEntity
8
0
100
AcDbLine
62
0
6
CONTINUOUS
10
1.6875000000
20
75.1170213223
11
2.0000002384
21
75.1808511019
0
LINE
5
382
100
AcDbEntity
8
0
100
AcDbLine
62
0
6
CONTINUOUS
10
-0.9375000000
20
75.1170213223
11
-0.6249997616
21
75.1808511019
0
LINE
5
383
100
AcDbEntity
8
0
100
AcDbLine
62
0
6
CONTINUOUS
10
-10.3160417646
20
66.0000000000
11
-10.0079167646
21
66.0617021257
0
LINE
5
384
100
AcDbEntity
8
0
100
AcDbLine
62
0
6
CONTINUOUS
10
2.6111460292
20
68.8382978797
11
2.9192710292
21
68.9000000000
0
LINE
5
385
100
AcDbEntity
8
0
100
AcDbLine
62
0
6
CONTINUOUS
10
-10.3160417646
20
68.9000000000
11
-10.6241667646
21
68.8382978797
0
LINE
5
386
100
AcDbEntity
8
0
100
AcDbLine
62
0
6
CONTINUOUS
10
-12.6269791912
20
68.9000000000
11
-12.9864583456
21
68.8382978797
0
LINE
5
387
100
AcDbEntity
8
0
100
AcDbLine
62
0
6
CONTINUOUS
10
-0.6249997616
20
72.5000000000
11
-0.2499997616
21
72.5638297852
0
LINE
5
388
100
AcDbEntity
8
0
100
AcDbLine
62
0
6
CONTINUOUS
10
-0.6249997616
20
75.5000000000
11
-0.9999997616
21
75.4361702204
0
LINE
5
389
100
AcDbEntity
8
0
100
AcDbLine
62
0
6
CONTINUOUS
10
2.0625000000
20
75.5000000000
11
1.6250002384
21
75.4361702204
0
LINE
5
38A
100
AcDbEntity
8
0
100
AcDbLine
62
0
6
CONTINUOUS
10
10.7747880000
20
65.0129710000
11
9.2322390000
21
65.0129710000
0
LINE
5
38B
100
AcDbEntity
8
0
100
AcDbLine
62
0
6
CONTINUOUS
10
9.2322390000
20
65.5566200000
11
9.7140290000
21
65.5566200000
0
LINE
5
38C
100
AcDbEntity
8
0
100
AcDbLine
62
0
6
CONTINUOUS
10
10.2931860000
20
65.5566200000
11
10.7747880000
21
65.5566200000
0
LINE
5
38D
100
AcDbEntity
8
0
100
AcDbLine
62
0
6
CONTINUOUS
10
1.0705207354
20
66.0000000000
11
0.7623957354
21
66.0000000000
0
LINE
5
38E
100
AcDbEntity
8
0
100
AcDbLine
62
0
6
CONTINUOUS
10
-2.4729166912
20
66.0000000000
11
-2.7810416912
21
66.0000000000
0
LINE
5
38F
100
AcDbEntity
8
0
100
AcDbLine
62
0
6
CONTINUOUS
10
-3.1918750000
20
66.0000000000
11
-3.5000000000
21
66.0000000000
0
LINE
5
390
100
AcDbEntity
8
0
100
AcDbLine
62
0
6
CONTINUOUS
10
-13.5000000000
20
66.0000000000
11
-11.6512500000
21
66.0000000000
0
LINE
5
391
100
AcDbEntity
8
0
100
AcDbLine
62
0
6
CONTINUOUS
10
-8.1591664708
20
66.0000000000
11
-7.9537500000
21
66.0000000000
0
LINE
5
392
100
AcDbEntity
8
0
100
AcDbLine
62
0
6
CONTINUOUS
10
-11.6512500000
20
66.3085106447
11
-13.0891666544
21
66.3085106447
0
LINE
5
393
100
AcDbEntity
8
0
100
AcDbLine
62
0
6
CONTINUOUS
10
-7.9537500000
20
66.3702127650
11
-8.1591664708
21
66.3702127650
0
LINE
5
394
100
AcDbEntity
8
0
100
AcDbLine
62
0
6
CONTINUOUS
10
1.5840625000
20
66.8638297707
11
1.0705207354
21
66.8638297707
0
LINE
5
395
100
AcDbEntity
8
0
100
AcDbLine
62
0
6
CONTINUOUS
10
0.7623957354
20
66.8638297707
11
-0.4701042646
21
66.8638297707
0
LINE
5
396
100
AcDbEntity
8
0
100
AcDbLine
62
0
6
CONTINUOUS
10
-8.6727082354
20
66.9872340113
11
-8.9808332354
21
66.9872340113
0
LINE
5
397
100
AcDbEntity
8
0
100
AcDbLine
62
0
6
CONTINUOUS
10
-0.1106250000
20
67.2340425789
11
0.7623957354
21
67.2340425789
0
LINE
5
398
100
AcDbEntity
8
0
100
AcDbLine
62
0
6
CONTINUOUS
10
1.0705207354
20
67.2340425789
11
1.5840625000
21
67.2340425789
0
LINE
5
399
100
AcDbEntity
8
0
100
AcDbLine
62
0
6
CONTINUOUS
10
-1.5485416177
20
67.2957446992
11
-2.4729166912
21
67.2957446992
0
LINE
5
39A
100
AcDbEntity
8
0
100
AcDbLine
62
0
6
CONTINUOUS
10
-2.4729166912
20
67.6659574211
11
-1.4971875000
21
67.6659574211
0
LINE
5
39B
100
AcDbEntity
8
0
100
AcDbLine
62
0
6
CONTINUOUS
10
-13.4486458318
20
68.2212766767
11
-13.1918750000
21
68.2212766767
0
LINE
5
39C
100
AcDbEntity
8
0
100
AcDbLine
62
0
6
CONTINUOUS
10
-1.4971875000
20
68.5914893985
11
-2.4729166912
21
68.5914893985
0
LINE
5
39D
100
AcDbEntity
8
0
100
AcDbLine
62
0
6
CONTINUOUS
10
-12.6783333088
20
68.5914893985
11
-12.4729166912
21
68.5914893985
0
LINE
5
39E
100
AcDbEntity
8
0
100
AcDbLine
62
0
6
CONTINUOUS
10
-7.1320835292
20
68.9000000000
11
-7.4402085292
21
68.9000000000
0
LINE
5
39F
100
AcDbEntity
8
0
100
AcDbLine
62
0
6
CONTINUOUS
10
-12.4215625000
20
68.9000000000
11
-12.6269791912
21
68.9000000000
0
LINE
5
3A0
100
AcDbEntity
8
0
100
AcDbLine
62
0
6
CONTINUOUS
10
-3.5000000000
20
68.9000000000
11
-3.1918750000
21
68.9000000000
0
LINE
5
3A1
100
AcDbEntity
8
0
100
AcDbLine
62
0
6
CONTINUOUS
10
-2.7810416912
20
68.9000000000
11
-1.5485416177
21
68.9000000000
0
LINE
5
3A2
100
AcDbEntity
8
0
100
AcDbLine
62
0
6
CONTINUOUS
10
0.7623957354
20
68.9000000000
11
1.0705207354
21
68.9000000000
0
LINE
5
3A3
100
AcDbEntity
8
0
100
AcDbLine
62
0
6
CONTINUOUS
10
10.7570340000
20
69.4189740000
11
10.2931860000
21
69.4189740000
0
LINE
5
3A4
100
AcDbEntity
8
0
100
AcDbLine
62
0
6
CONTINUOUS
10
9.7140290000
20
69.4189740000
11
9.2499930000
21
69.4189740000
0
LINE
5
3A5
100
AcDbEntity
8
0
100
AcDbLine
62
0
6
CONTINUOUS
10
9.2499930000
20
69.9656130000
11
10.7570340000
21
69.9656130000
0
LINE
5
3A6
100
AcDbEntity
8
0
100
AcDbLine
62
0
6
CONTINUOUS
10
-6.4999999702
20
72.5000000000
11
-6.0000000000
21
72.5000000000
0
LINE
5
3A7
100
AcDbEntity
8
0
100
AcDbLine
62
0
6
CONTINUOUS
10
-3.8749998808
20
72.5000000000
11
-3.4999998808
21
72.5000000000
0
LINE
5
3A8
100
AcDbEntity
8
0
100
AcDbLine
62
0
6
CONTINUOUS
10
1.8750000000
20
72.5000000000
11
2.3750002384
21
72.5000000000
0
LINE
5
3A9
100
AcDbEntity
8
0
100
AcDbLine
62
0
6
CONTINUOUS
10
4.1250000000
20
72.5000000000
11
4.5000000000
21
72.5000000000
0
LINE
5
3AA
100
AcDbEntity
8
0
100
AcDbLine
62
0
6
CONTINUOUS
10
5.3749995232
20
72.5000000000
11
5.7499995232
21
72.5000000000
0
LINE
5
3AB
100
AcDbEntity
8
0
100
AcDbLine
62
0
6
CONTINUOUS
10
2.3124997616
20
72.8191489428
11
1.9374997616
21
72.8191489428
0
LINE
5
3AC
100
AcDbEntity
8
0
100
AcDbLine
62
0
6
CONTINUOUS
10
1.3125000000
20
73.2021276653
11
0.9999997616
21
73.2021276653
0
LINE
5
3AD
100
AcDbEntity
8
0
100
AcDbLine
62
0
6
CONTINUOUS
10
2.0000002384
20
73.9042553306
11
2.2500000000
21
73.9042553306
0
LINE
5
3AE
100
AcDbEntity
8
0
100
AcDbLine
62
0
6
CONTINUOUS
10
2.2500000000
20
74.1595744491
11
2.0000002384
21
74.1595744491
0
LINE
5
3AF
100
AcDbEntity
8
0
100
AcDbLine
62
0
6
CONTINUOUS
10
1.0625002384
20
74.7978724241
11
1.3749997616
21
74.7978724241
0
LINE
5
3B0
100
AcDbEntity
8
0
100
AcDbLine
62
0
6
CONTINUOUS
10
-4.5000000000
20
75.1808511019
11
-2.6250000000
21
75.1808511019
0
LINE
5
3B1
100
AcDbEntity
8
0
100
AcDbLine
62
0
6
CONTINUOUS
10
2.0000002384
20
75.1808511019
11
2.2500000000
21
75.1808511019
0
LINE
5
3B2
100
AcDbEntity
8
0
100
AcDbLine
62
0
6
CONTINUOUS
10
5.7499995232
20
75.5000000000
11
5.3749995232
21
75.5000000000
0
LINE
5
3B3
100
AcDbEntity
8
0
100
AcDbLine
62
0
6
CONTINUOUS
10
4.5000000000
20
75.5000000000
11
4.1250000000
21
75.5000000000
0
LINE
5
3B4
100
AcDbEntity
8
0
100
AcDbLine
62
0
6
CONTINUOUS
10
2.1875002384
20
75.5000000000
11
2.0625000000
21
75.5000000000
0
LINE
5
3B5
100
AcDbEntity
8
0
100
AcDbLine
62
0
6
CONTINUOUS
10
-2.2500000000
20
75.5000000000
11
-4.5000000000
21
75.5000000000
0
LINE
5
3B6
100
AcDbEntity
8
0
100
AcDbLine
62
0
6
CONTINUOUS
10
-5.0000000596
20
75.5000000000
11
-5.3750000596
21
75.5000000000
0
LINE
5
3B7
100
AcDbEntity
8
0
100
AcDbLine
62
0
6
CONTINUOUS
10
-7.1250000000
20
75.5000000000
11
-7.5000000000
21
75.5000000000
0
LINE
5
3B8
100
AcDbEntity
8
0
100
AcDbLine
62
0
6
CONTINUOUS
10
13.6150000000
20
79.5000000000
11
13.3068750000
21
79.5000000000
0
LINE
5
3B9
100
AcDbEntity
8
0
100
AcDbLine
62
0
6
CONTINUOUS
10
12.0743750000
20
79.5000000000
11
10.2256250000
21
79.5000000000
0
LINE
5
3BA
100
AcDbEntity
8
0
100
AcDbLine
62
0
6
CONTINUOUS
10
9.8147908831
20
79.5000000000
11
9.5066658831
21
79.5000000000
0
LINE
5
3BB
100
AcDbEntity
8
0
100
AcDbLine
62
0
6
CONTINUOUS
10
8.0687500000
20
79.5000000000
11
7.7606250000
21
79.5000000000
0
LINE
5
3BC
100
AcDbEntity
8
0
100
AcDbLine
62
0
6
CONTINUOUS
10
6.5281250000
20
79.5000000000
11
6.2200000000
21
79.5000000000
0
LINE
5
3BD
100
AcDbEntity
8
0
100
AcDbLine
62
0
6
CONTINUOUS
10
4.9875000000
20
79.5000000000
11
4.6793750000
21
79.5000000000
0
LINE
5
3BE
100
AcDbEntity
8
0
100
AcDbLine
62
0
6
CONTINUOUS
10
1.8035420585
20
79.5000000000
11
1.3413545585
21
79.5000000000
0
LINE
5
3BF
100
AcDbEntity
8
0
100
AcDbLine
62
0
6
CONTINUOUS
10
0.0575000000
20
79.5000000000
11
-0.2506250000
21
79.5000000000
0
LINE
5
3C0
100
AcDbEntity
8
0
100
AcDbLine
62
0
6
CONTINUOUS
10
-0.6614579415
20
79.5000000000
11
-0.9695829415
21
79.5000000000
0
LINE
5
3C1
100
AcDbEntity
8
0
100
AcDbLine
62
0
6
CONTINUOUS
10
-3.8454164708
20
79.5000000000
11
-5.6941664708
21
79.5000000000
0
LINE
5
3C2
100
AcDbEntity
8
0
100
AcDbLine
62
0
6
CONTINUOUS
10
-6.9266664708
20
79.5000000000
11
-8.1591664708
21
79.5000000000
0
LINE
5
3C3
100
AcDbEntity
8
0
100
AcDbLine
62
0
6
CONTINUOUS
10
-8.5700000000
20
79.5000000000
11
-8.8781250000
21
79.5000000000
0
LINE
5
3C4
100
AcDbEntity
8
0
100
AcDbLine
62
0
6
CONTINUOUS
10
-10.3160417646
20
79.5000000000
11
-10.6241667646
21
79.5000000000
0
LINE
5
3C5
100
AcDbEntity
8
0
100
AcDbLine
62
0
6
CONTINUOUS
10
-11.0350000000
20
79.5000000000
11
-11.3431250000
21
79.5000000000
0
LINE
5
3C6
100
AcDbEntity
8
0
100
AcDbLine
62
0
6
CONTINUOUS
10
-12.0620833823
20
79.5000000000
11
-12.4729166912
21
79.5000000000
0
LINE
5
3C7
100
AcDbEntity
8
0
100
AcDbLine
62
0
6
CONTINUOUS
10
-13.1918750000
20
79.5000000000
11
-13.5000000000
21
79.5000000000
0
LINE
5
3C8
100
AcDbEntity
8
0
100
AcDbLine
62
0
6
CONTINUOUS
10
-7.8510414708
20
79.8702127650
11
-6.9266664708
21
79.8702127650
0
LINE
5
3C9
100
AcDbEntity
8
0
100
AcDbLine
62
0
6
CONTINUOUS
10
-5.3860414708
20
79.8702127650
11
-3.8454164708
21
79.8702127650
0
LINE
5
3CA
100
AcDbEntity
8
0
100
AcDbLine
62
0
6
CONTINUOUS
10
10.5337500000
20
79.8702127650
11
12.0743750000
21
79.8702127650
0
LINE
5
3CB
100
AcDbEntity
8
0
100
AcDbLine
62
0
6
CONTINUOUS
10
9.3012500000
20
80.2404255301
11
8.2741658831
21
80.2404255301
0
LINE
5
3CC
100
AcDbEntity
8
0
100
AcDbLine
62
0
6
CONTINUOUS
10
-9.0835417646
20
80.2404255301
11
-10.1106250000
21
80.2404255301
0
LINE
5
3CD
100
AcDbEntity
8
0
100
AcDbLine
62
0
6
CONTINUOUS
10
-10.0592707354
20
80.4872340113
11
-9.1348957354
21
80.4872340113
0
LINE
5
3CE
100
AcDbEntity
8
0
100
AcDbLine
62
0
6
CONTINUOUS
10
8.3255216169
20
80.4872340113
11
9.2498966169
21
80.4872340113
0
LINE
5
3CF
100
AcDbEntity
8
0
100
AcDbLine
62
0
6
CONTINUOUS
10
-4.0508335292
20
80.8574468195
11
-5.3860414708
21
80.8574468195
0
LINE
5
3D0
100
AcDbEntity
8
0
100
AcDbLine
62
0
6
CONTINUOUS
10
-5.3860414708
20
81.2276595414
11
-4.0508335292
21
81.2276595414
0
LINE
5
3D1
100
AcDbEntity
8
0
100
AcDbLine
62
0
6
CONTINUOUS
10
-3.8454164708
20
82.0297872782
11
-5.3860414708
21
82.0297872782
0
LINE
5
3D2
100
AcDbEntity
8
0
100
AcDbLine
62
0
6
CONTINUOUS
10
-6.9266664708
20
82.0297872782
11
-7.8510414708
21
82.0297872782
0
LINE
5
3D3
100
AcDbEntity
8
0
100
AcDbLine
62
0
6
CONTINUOUS
10
7.3497908831
20
82.0914893985
11
6.5281250000
21
82.0914893985
0
LINE
5
3D4
100
AcDbEntity
8
0
100
AcDbLine
62
0
6
CONTINUOUS
10
6.2200000000
20
82.0914893985
11
5.3983329415
21
82.0914893985
0
LINE
5
3D5
100
AcDbEntity
8
0
100
AcDbLine
62
0
6
CONTINUOUS
10
-13.5000000000
20
82.4000000000
11
-13.0378125000
21
82.4000000000
0
LINE
5
3D6
100
AcDbEntity
8
0
100
AcDbLine
62
0
6
CONTINUOUS
10
-11.4971875000
20
82.4000000000
11
-11.0350000000
21
82.4000000000
0
LINE
5
3D7
100
AcDbEntity
8
0
100
AcDbLine
62
0
6
CONTINUOUS
10
-9.8025000000
20
82.4000000000
11
-9.3916667646
21
82.4000000000
0
LINE
5
3D8
100
AcDbEntity
8
0
100
AcDbLine
62
0
6
CONTINUOUS
10
-8.1591664708
20
82.4000000000
11
-6.9266664708
21
82.4000000000
0
LINE
5
3D9
100
AcDbEntity
8
0
100
AcDbLine
62
0
6
CONTINUOUS
10
-5.6941664708
20
82.4000000000
11
-3.8454164708
21
82.4000000000
0
LINE
5
3DA
100
AcDbEntity
8
0
100
AcDbLine
62
0
6
CONTINUOUS
10
-0.9695829415
20
82.4000000000
11
-0.6614579415
21
82.4000000000
0
LINE
5
3DB
100
AcDbEntity
8
0
100
AcDbLine
62
0
6
CONTINUOUS
10
-0.2506250000
20
82.4000000000
11
0.2115625000
21
82.4000000000
0
LINE
5
3DC
100
AcDbEntity
8
0
100
AcDbLine
62
0
6
CONTINUOUS
10
1.4954170585
20
82.4000000000
11
1.8035420585
21
82.4000000000
0
LINE
5
3DD
100
AcDbEntity
8
0
100
AcDbLine
62
0
6
CONTINUOUS
10
4.6793750000
20
82.4000000000
11
4.9875000000
21
82.4000000000
0
LINE
5
3DE
100
AcDbEntity
8
0
100
AcDbLine
62
0
6
CONTINUOUS
10
5.3983329415
20
82.4000000000
11
7.3497908831
21
82.4000000000
0
LINE
5
3DF
100
AcDbEntity
8
0
100
AcDbLine
62
0
6
CONTINUOUS
10
8.5822908831
20
82.4000000000
11
8.9931250000
21
82.4000000000
0
LINE
5
3E0
100
AcDbEntity
8
0
100
AcDbLine
62
0
6
CONTINUOUS
10
10.2256250000
20
82.4000000000
11
10.5337500000
21
82.4000000000
0
LINE
5
3E1
100
AcDbEntity
8
0
100
AcDbLine
62
0
6
CONTINUOUS
10
12.4852091169
20
82.4000000000
11
12.7933341169
21
82.4000000000
0
LINE
5
3E2
100
AcDbEntity
8
0
100
AcDbLine
62
0
6
CONTINUOUS
10
14.1285408831
20
82.4000000000
11
14.4366658831
21
82.4000000000
0
LINE
5
3E3
100
AcDbEntity
8
0
100
AcDbLine
62
0
6
CONTINUOUS
10
2.6250000000
20
75.4361702204
11
2.1875002384
21
75.5000000000
0
LINE
5
3E4
100
AcDbEntity
8
0
100
AcDbLine
62
0
6
CONTINUOUS
10
-0.9999997616
20
72.5638297852
11
-0.6249997616
21
72.5000000000
0
LINE
5
3E5
100
AcDbEntity
8
0
100
AcDbLine
62
0
6
CONTINUOUS
10
2.2500000000
20
73.9042553306
11
2.6250000000
21
73.8404255509
0
LINE
5
3E6
100
AcDbEntity
8
0
100
AcDbLine
62
0
6
CONTINUOUS
10
-0.2499997616
20
75.4361702204
11
-0.6249997616
21
75.5000000000
0
LINE
5
3E7
100
AcDbEntity
8
0
100
AcDbLine
62
0
6
CONTINUOUS
10
-12.1134375000
20
68.8382978797
11
-12.4215625000
21
68.9000000000
0
LINE
5
3E8
100
AcDbEntity
8
0
100
AcDbLine
62
0
6
CONTINUOUS
10
2.9192710292
20
66.0000000000
11
2.6111460292
21
66.0617021257
0
LINE
5
3E9
100
AcDbEntity
8
0
100
AcDbLine
62
0
6
CONTINUOUS
10
-10.0079167646
20
68.8382978797
11
-10.3160417646
21
68.9000000000
0
LINE
5
3EA
100
AcDbEntity
8
0
100
AcDbLine
62
0
6
CONTINUOUS
10
2.9192710292
20
68.9000000000
11
3.2273960292
21
68.8382978797
0
LINE
5
3EB
100
AcDbEntity
8
0
100
AcDbLine
62
0
6
CONTINUOUS
10
-0.6249997616
20
72.8191489428
11
-0.9375000000
21
72.8829787225
0
LINE
5
3EC
100
AcDbEntity
8
0
100
AcDbLine
62
0
6
CONTINUOUS
10
1.9374997616
20
72.8191489428
11
1.6250002384
21
72.8829787225
0
LINE
5
3ED
100
AcDbEntity
8
0
100
AcDbLine
62
0
6
CONTINUOUS
10
-0.6249997616
20
75.1808511019
11
-0.3125002384
21
75.1170213223
0
LINE
5
3EE
100
AcDbEntity
8
0
100
AcDbLine
62
0
6
CONTINUOUS
10
2.2500000000
20
75.1808511019
11
2.5625002384
21
75.1170213223
0
LINE
5
3EF
100
AcDbEntity
8
0
100
AcDbLine
62
0
6
CONTINUOUS
10
2.6625000000
20
66.3702127650
11
2.9192710292
21
66.3085106447
0
LINE
5
3F0
100
AcDbEntity
8
0
100
AcDbLine
62
0
6
CONTINUOUS
10
-1.5485416177
20
68.9000000000
11
-1.2917708823
21
68.8382978797
0
LINE
5
3F1
100
AcDbEntity
8
0
100
AcDbLine
62
0
6
CONTINUOUS
10
3.1760414708
20
68.5297872782
11
2.9192710292
21
68.5914893985
0
LINE
5
3F2
100
AcDbEntity
8
0
100
AcDbLine
62
0
6
CONTINUOUS
10
-6.9266664708
20
82.4000000000
11
-6.6698960292
21
82.3382978797
0
LINE
5
3F3
100
AcDbEntity
8
0
100
AcDbLine
62
0
6
CONTINUOUS
10
1.6250002384
20
72.5638297852
11
1.8750000000
21
72.5000000000
0
LINE
5
3F4
100
AcDbEntity
8
0
100
AcDbLine
62
0
6
CONTINUOUS
10
-6.7212500000
20
81.9680851579
11
-6.9266664708
21
82.0297872782
0
LINE
5
3F5
100
AcDbEntity
8
0
100
AcDbLine
62
0
6
CONTINUOUS
10
3.0624997616
20
73.9042553306
11
2.7500002384
21
74.0319148898
0
LINE
5
3F6
100
AcDbEntity
8
0
100
AcDbLine
62
0
6
CONTINUOUS
10
1.3749997616
20
72.6914893612
11
1.6250002384
21
72.5638297852
0
LINE
5
3F7
100
AcDbEntity
8
0
100
AcDbLine
62
0
6
CONTINUOUS
10
1.6250002384
20
72.8829787225
11
1.5000000000
21
72.9468085021
0
LINE
5
3F8
100
AcDbEntity
8
0
100
AcDbLine
62
0
6
CONTINUOUS
10
2.8749997616
20
75.3085106611
11
2.6250000000
21
75.4361702204
0
LINE
5
3F9
100
AcDbEntity
8
0
100
AcDbLine
62
0
6
CONTINUOUS
10
-6.6698960292
20
82.3382978797
11
-6.4644789708
21
82.2148936391
0
LINE
5
3FA
100
AcDbEntity
8
0
100
AcDbLine
62
9
6
CONTINUOUS
10
264.8129388410
20
139.3026603517
11
265.0068476243
21
139.4965691350
0
LINE
5
3FB
100
AcDbEntity
8
0
100
AcDbLine
62
9
6
CONTINUOUS
10
272.3026603517
20
131.8129388410
11
272.4965691350
21
132.0068476243
0
LINE
5
3FC
100
AcDbEntity
8
0
100
AcDbLine
62
0
6
CONTINUOUS
10
13.3853953258
20
86.7095094051
11
12.0202437969
21
86.7095094051
0
LINE
5
3FD
100
AcDbEntity
8
0
100
AcDbLine
62
0
6
CONTINUOUS
10
9.8468613796
20
86.7095094051
11
8.4333240879
21
86.7095094051
0
LINE
5
3FE
100
AcDbEntity
8
0
100
AcDbLine
62
0
6
CONTINUOUS
10
8.0165640000
20
86.7095090000
11
6.5207350000
21
86.7095090000
0
LINE
5
3FF
100
AcDbEntity
8
0
100
AcDbLine
62
0
6
CONTINUOUS
10
3.8286720000
20
86.7095090000
11
2.4248220000
21
86.7095090000
0
LINE
5
400
100
AcDbEntity
8
0
100
AcDbLine
62
0
6
CONTINUOUS
10
2.2019620000
20
86.7095090000
11
0.8135610000
21
86.7095090000
0
LINE
5
401
100
AcDbEntity
8
0
100
AcDbLine
62
0
6
CONTINUOUS
10
-1.1655140000
20
86.7095090000
11
-1.3645630000
21
86.7095090000
0
LINE
5
402
100
AcDbEntity
8
0
100
AcDbLine
62
0
6
CONTINUOUS
10
-3.3357860000
20
86.7095090000
11
-4.6935450000
21
86.7095090000
0
LINE
5
403
100
AcDbEntity
8
0
100
AcDbLine
62
0
6
CONTINUOUS
10
-5.4575710000
20
86.7095090000
11
-6.8768190000
21
86.7095090000
0
LINE
5
404
100
AcDbEntity
8
0
100
AcDbLine
62
0
6
CONTINUOUS
10
-9.5890210000
20
86.7095090000
11
-10.8397350000
21
86.7095090000
0
LINE
5
405
100
AcDbEntity
8
0
100
AcDbLine
62
0
6
CONTINUOUS
10
6.1530750000
20
88.0668600000
11
4.2202960000
21
88.0668600000
0
LINE
5
406
100
AcDbEntity
8
0
100
AcDbLine
62
0
6
CONTINUOUS
10
4.5106100000
20
89.1171730000
11
5.8694400000
21
89.1171730000
0
LINE
5
407
100
AcDbEntity
8
0
100
AcDbLine
62
0
6
CONTINUOUS
10
10.6078281983
20
89.3703184747
11
9.8468613796
21
89.3703184747
0
LINE
5
408
100
AcDbEntity
8
0
100
AcDbLine
62
0
6
CONTINUOUS
10
9.7998012541
20
90.4838538395
11
10.6108873614
21
90.4838538395
0
LINE
5
409
100
AcDbEntity
8
0
100
AcDbLine
62
0
6
CONTINUOUS
10
-12.9951960000
20
93.5086520000
11
-11.4534540000
21
93.5086520000
0
LINE
5
40A
100
AcDbEntity
8
0
100
AcDbLine
62
0
6
CONTINUOUS
10
-8.8217830000
20
93.5086520000
11
-7.4035040000
21
93.5086520000
0
LINE
5
40B
100
AcDbEntity
8
0
100
AcDbLine
62
0
6
CONTINUOUS
10
-4.0796220000
20
93.5086520000
11
-2.6615470000
21
93.5086520000
0
LINE
5
40C
100
AcDbEntity
8
0
100
AcDbLine
62
0
6
CONTINUOUS
10
0.1619590000
20
93.5086520000
11
1.5661660000
21
93.5086520000
0
LINE
5
40D
100
AcDbEntity
8
0
100
AcDbLine
62
0
6
CONTINUOUS
10
4.5574660000
20
93.5086520000
11
5.9304190000
21
93.5086520000
0
LINE
5
40E
100
AcDbEntity
8
0
100
AcDbLine
62
0
6
CONTINUOUS
10
-6.8768190000
20
93.5090600000
11
-5.4575710000
21
93.5090600000
0
LINE
5
40F
100
AcDbEntity
8
CURVE
100
AcDbLine
62
0
6
CONTINUOUS
10
-16.0000000000
20
95.5000000000
11
16.0000000000
21
95.5000000000
0
LINE
5
410
100
AcDbEntity
8
0
100
AcDbLine
62
9
6
CONTINUOUS
10
264.8129388410
20
-139.3026603517
11
265.0068476243
21
-139.4965691350
0
LINE
5
411
100
AcDbEntity
8
0
100
AcDbLine
62
9
6
CONTINUOUS
10
272.3026603517
20
-131.8129388410
11
272.4965691350
21
-132.0068476243
0
LINE
5
412
100
AcDbEntity
8
0
100
AcDbLine
62
0
6
CONTINUOUS
10
-264.8129388410
20
139.3026603517
11
264.8129388410
21
139.3026603517
0
LINE
5
413
100
AcDbEntity
8
0
100
AcDbLine
62
0
6
CONTINUOUS
10
-265.0068476243
20
139.4965691350
11
265.0068476243
21
139.4965691350
0
LINE
5
414
100
AcDbEntity
8
0
100
AcDbLine
62
0
6
CONTINUOUS
10
265.0137046525
20
142.0000000000
11
-265.0137046525
21
142.0000000000
0
LINE
5
415
100
AcDbEntity
8
0
100
AcDbLine
62
0
6
CONTINUOUS
10
272.3026603517
20
131.8129388410
11
272.3026603517
21
-131.8129388410
0
LINE
5
416
100
AcDbEntity
8
0
100
AcDbLine
62
0
6
CONTINUOUS
10
272.4965691350
20
132.0068476243
11
272.4965691350
21
-132.0068476243
0
LINE
5
417
100
AcDbEntity
8
0
100
AcDbLine
62
0
6
CONTINUOUS
10
275.0000000000
20
132.0137046525
11
275.0000000000
21
-132.0137046525
0
ARC
5
418
100
AcDbEntity
8
0
100
AcDbCircle
62
0
6
CONTINUOUS
10
-0.9675540000
20
-76.0000000000
40
1.7999999246
100
AcDbArc
50
90.4941750873
51
273.1847386516
0
ARC
5
419
100
AcDbEntity
8
0
100
AcDbCircle
62
0
6
CONTINUOUS
10
-0.9675540000
20
-76.0000000000
40
2.5499985399
100
AcDbArc
50
87.7525290943
51
272.2474708969
0
ARC
5
41A
100
AcDbEntity
8
0
100
AcDbCircle
62
0
6
CONTINUOUS
10
3.4175560000
20
-76.0000000000
40
1.7999999246
100
AcDbArc
50
86.8152613297
51
167.9752999293
0
ARC
5
41B
100
AcDbEntity
8
0
100
AcDbCircle
62
0
6
CONTINUOUS
10
3.4175560000
20
-76.0000000000
40
2.5499986575
100
AcDbArc
50
87.7525289739
51
272.2474707935
0
ARC
5
41C
100
AcDbEntity
8
0
100
AcDbCircle
62
0
6
CONTINUOUS
10
3.4175560000
20
-76.0000000000
40
1.7999968808
100
AcDbArc
50
192.0247203293
51
273.1847445565
0
ARC
5
41D
100
AcDbEntity
8
0
100
AcDbCircle
62
0
6
CONTINUOUS
10
10.0000000000
20
67.5000000000
40
2.5716283267
100
AcDbArc
50
299.3041446576
51
44.9957783152
0
ARC
5
41E
100
AcDbEntity
8
0
100
AcDbCircle
62
0
6
CONTINUOUS
10
10.0000000000
20
67.5000000000
40
2.5716282219
100
AcDbArc
50
134.9002751525
51
240.6958553424
0
ARC
5
41F
100
AcDbEntity
8
0
100
AcDbCircle
62
0
6
CONTINUOUS
10
10.0000000000
20
67.5000000000
40
2.0603391911
100
AcDbArc
50
148.0267353487
51
240.6958433001
0
ARC
5
420
100
AcDbEntity
8
0
100
AcDbCircle
62
0
6
CONTINUOUS
10
10.0000000000
20
67.5000000000
40
2.0603387957
100
AcDbArc
50
299.3041566999
51
31.9732630566
0
ARC
5
421
100
AcDbEntity
8
0
100
AcDbCircle
62
0
6
CONTINUOUS
10
9.8964580000
20
61.0465270000
40
3.0518624790
100
AcDbArc
50
47.2312703930
51
84.2011509591
0
ARC
5
422
100
AcDbEntity
8
0
100
AcDbCircle
62
0
6
CONTINUOUS
10
10.1366380000
20
61.5408600000
40
3.0152382548
100
AcDbArc
50
45.4348897783
51
67.5658707806
0
CIRCLE
5
423
100
AcDbEntity
8
0
100
AcDbCircle
62
0
6
CONTINUOUS
10
10.0000000000
20
67.5000000000
40
2.8753830000
0
CIRCLE
5
424
100
AcDbEntity
8
0
100
AcDbCircle
62
0
6
CONTINUOUS
10
77.0000000000
20
119.5000000000
40
1.6500000000
0
CIRCLE
5
425
100
AcDbEntity
8
0
100
AcDbCircle
62
0
6
CONTINUOUS
10
-245.0000000000
20
-112.0000000000
40
1.6500000000
0
CIRCLE
5
426
100
AcDbEntity
8
0
100
AcDbCircle
62
0
6
CONTINUOUS
10
77.0000000000
20
-119.5000000000
40
1.6500000000
0
CIRCLE
5
427
100
AcDbEntity
8
0
100
AcDbCircle
62
0
6
CONTINUOUS
10
245.0000000000
20
-112.0000000000
40
1.6500000000
0
CIRCLE
5
428
100
AcDbEntity
8
0
100
AcDbCircle
62
0
6
CONTINUOUS
10
-77.0000000000
20
119.5000000000
40
1.6500000000
0
CIRCLE
5
429
100
AcDbEntity
8
0
100
AcDbCircle
62
0
6
CONTINUOUS
10
-245.0000000000
20
112.0000000000
40
1.6500000000
0
CIRCLE
5
42A
100
AcDbEntity
8
0
100
AcDbCircle
62
0
6
CONTINUOUS
10
-77.0000000000
20
-119.5000000000
40
1.6500000000
0
CIRCLE
5
42B
100
AcDbEntity
8
0
100
AcDbCircle
62
0
6
CONTINUOUS
10
245.0000000000
20
112.0000000000
40
1.6500000000
0
ARC
5
42C
100
AcDbEntity
8
0
100
AcDbCircle
62
0
6
CONTINUOUS
10
10.0000000000
20
67.5000000000
40
3.4233595751
100
AcDbArc
50
292.0885368799
51
273.4298427374
0
CIRCLE
5
42D
100
AcDbEntity
8
0
100
AcDbCircle
62
0
6
CONTINUOUS
10
77.0000000000
20
119.5000000000
40
3.2000000000
0
CIRCLE
5
42E
100
AcDbEntity
8
0
100
AcDbCircle
62
9
6
CONTINUOUS
10
77.0000000000
20
119.5000000000
40
3.6843241521
0
CIRCLE
5
42F
100
AcDbEntity
8
0
100
AcDbCircle
62
9
6
CONTINUOUS
10
-245.0000000000
20
112.0000000000
40
5.6694090952
0
CIRCLE
5
430
100
AcDbEntity
8
0
100
AcDbCircle
62
9
6
CONTINUOUS
10
-245.0000000000
20
-112.0000000000
40
5.6694090952
0
CIRCLE
5
431
100
AcDbEntity
8
0
100
AcDbCircle
62
9
6
CONTINUOUS
10
-77.0000000000
20
-119.5000000000
40
5.6694090952
0
CIRCLE
5
432
100
AcDbEntity
8
0
100
AcDbCircle
62
9
6
CONTINUOUS
10
-77.0000000000
20
119.5000000000
40
5.6694090952
0
CIRCLE
5
433
100
AcDbEntity
8
0
100
AcDbCircle
62
9
6
CONTINUOUS
10
77.0000000000
20
119.5000000000
40
5.6694090952
0
CIRCLE
5
434
100
AcDbEntity
8
0
100
AcDbCircle
62
9
6
CONTINUOUS
10
77.0000000000
20
-119.5000000000
40
5.6694090952
0
CIRCLE
5
435
100
AcDbEntity
8
0
100
AcDbCircle
62
9
6
CONTINUOUS
10
245.0000000000
20
-112.0000000000
40
5.6694090952
0
CIRCLE
5
436
100
AcDbEntity
8
0
100
AcDbCircle
62
9
6
CONTINUOUS
10
245.0000000000
20
112.0000000000
40
5.6694090952
0
CIRCLE
5
437
100
AcDbEntity
8
0
100
AcDbCircle
62
0
6
CONTINUOUS
10
-245.0000000000
20
-112.0000000000
40
3.2000000000
0
CIRCLE
5
438
100
AcDbEntity
8
0
100
AcDbCircle
62
9
6
CONTINUOUS
10
-245.0000000000
20
-112.0000000000
40
3.6843241521
0
CIRCLE
5
439
100
AcDbEntity
8
0
100
AcDbCircle
62
0
6
CONTINUOUS
10
77.0000000000
20
-119.5000000000
40
3.2000000000
0
CIRCLE
5
43A
100
AcDbEntity
8
0
100
AcDbCircle
62
9
6
CONTINUOUS
10
77.0000000000
20
-119.5000000000
40
3.6843241521
0
CIRCLE
5
43B
100
AcDbEntity
8
0
100
AcDbCircle
62
0
6
CONTINUOUS
10
245.0000000000
20
-112.0000000000
40
3.2000000000
0
CIRCLE
5
43C
100
AcDbEntity
8
0
100
AcDbCircle
62
9
6
CONTINUOUS
10
245.0000000000
20
-112.0000000000
40
3.6843241521
0
CIRCLE
5
43D
100
AcDbEntity
8
0
100
AcDbCircle
62
0
6
CONTINUOUS
10
-77.0000000000
20
119.5000000000
40
3.2000000000
0
CIRCLE
5
43E
100
AcDbEntity
8
0
100
AcDbCircle
62
9
6
CONTINUOUS
10
-77.0000000000
20
119.5000000000
40
3.6843241521
0
CIRCLE
5
43F
100
AcDbEntity
8
0
100
AcDbCircle
62
0
6
CONTINUOUS
10
-245.0000000000
20
112.0000000000
40
3.2000000000
0
CIRCLE
5
440
100
AcDbEntity
8
0
100
AcDbCircle
62
9
6
CONTINUOUS
10
-245.0000000000
20
112.0000000000
40
3.6843241521
0
CIRCLE
5
441
100
AcDbEntity
8
0
100
AcDbCircle
62
0
6
CONTINUOUS
10
-77.0000000000
20
-119.5000000000
40
3.2000000000
0
CIRCLE
5
442
100
AcDbEntity
8
0
100
AcDbCircle
62
9
6
CONTINUOUS
10
-77.0000000000
20
-119.5000000000
40
3.6843241521
0
CIRCLE
5
443
100
AcDbEntity
8
0
100
AcDbCircle
62
0
6
CONTINUOUS
10
245.0000000000
20
112.0000000000
40
3.2000000000
0
CIRCLE
5
444
100
AcDbEntity
8
0
100
AcDbCircle
62
9
6
CONTINUOUS
10
245.0000000000
20
112.0000000000
40
3.6843241521
0
SPLINE
5
445
100
AcDbEntity
8
0
100
AcDbSpline
62
0
6
CONTINUOUS
70
0
71
3
72
21
73
17
74
15
42
0.0000001000
43
0.0000001000
44
0.0000000001
12
15.6801426947
22
0.0000000000
32
0.0000000000
13
0.0000000000
23
15.6801426947
33
0.0000000000
40
0.0000000000
40
0.0000000000
40
0.0000000000
40
0.0000000000
40
0.0715435308
40
0.1430392900
40
0.2144909572
40
0.2859044388
40
0.3572874325
40
0.4286492217
40
0.5000001409
40
0.5713510480
40
0.6427128014
40
0.7140957418
40
0.7855091629
40
0.8569607730
40
0.9284564888
40
1.0000000000
40
1.0000000000
40
1.0000000000
40
1.0000000000
10
265.0137046525
20
-142.0000000000
30
0.0000000000
10
265.3876422429
20
-142.0000000000
30
0.0000000000
10
266.1359463914
20
-141.9580344511
30
0.0000000000
10
267.2434139698
20
-141.7699666082
30
0.0000000000
10
268.3223593055
20
-141.4592828531
30
0.0000000000
10
269.3591505401
20
-141.0299765606
30
0.0000000000
10
270.3409432935
20
-140.4874918760
30
0.0000000000
10
271.2555312202
20
-139.8386496400
30
0.0000000000
10
272.0915637257
20
-139.0915606797
30
0.0000000000
10
272.8386521976
20
-138.2555279901
30
0.0000000000
10
273.4874937633
20
-137.3409402399
30
0.0000000000
10
274.0299777470
20
-136.3591479984
30
0.0000000000
10
274.4592834502
20
-135.3223574935
30
0.0000000000
10
274.7699668156
20
-134.2434129276
30
0.0000000000
10
274.9580344810
20
-133.1359459600
30
0.0000000000
10
275.0000000000
20
-132.3876421409
30
0.0000000000
10
275.0000000000
20
-132.0137046525
30
0.0000000000
11
265.0137046525
21
-142.0000000000
31
0.0000000000
11
266.1337550668
21
-141.9371433105
31
0.0000000000
11
267.2389956633
21
-141.7494545862
31
0.0000000000
11
268.3156151093
21
-141.4394146778
31
0.0000000000
11
269.3501987214
21
-141.0110111030
31
0.0000000000
11
270.3298830690
21
-140.4696784358
31
0.0000000000
11
271.2425056067
21
-139.8222231218
31
0.0000000000
11
272.0767405385
21
-139.0767374102
31
0.0000000000
11
272.8222257622
21
-138.2425022954
31
0.0000000000
11
273.4696803900
21
-137.3298799583
31
0.0000000000
11
274.0110123335
21
-136.3501961656
31
0.0000000000
11
274.4394153006
21
-135.3156133290
31
0.0000000000
11
274.7494548060
21
-134.2389947000
31
0.0000000000
11
274.9371433449
21
-133.1337547621
31
0.0000000000
11
275.0000000000
21
-132.0137046525
31
0.0000000000
0
SPLINE
5
446
100
AcDbEntity
8
0
100
AcDbSpline
62
0
6
CONTINUOUS
70
0
71
3
72
21
73
17
74
15
42
0.0000001000
43
0.0000001000
44
0.0000000001
12
0.0000000000
22
-15.6801426947
32
0.0000000000
13
15.6801426947
23
0.0000000000
33
0.0000000000
40
0.0000000000
40
0.0000000000
40
0.0000000000
40
0.0000000000
40
0.0715435308
40
0.1430392900
40
0.2144909572
40
0.2859044388
40
0.3572874325
40
0.4286492217
40
0.5000001409
40
0.5713510480
40
0.6427128014
40
0.7140957418
40
0.7855091629
40
0.8569607730
40
0.9284564888
40
1.0000000000
40
1.0000000000
40
1.0000000000
40
1.0000000000
10
-275.0000000000
20
-132.0137046525
30
0.0000000000
10
-275.0000000000
20
-132.3876422429
30
0.0000000000
10
-274.9580344511
20
-133.1359463914
30
0.0000000000
10
-274.7699666082
20
-134.2434139698
30
0.0000000000
10
-274.4592828531
20
-135.3223593055
30
0.0000000000
10
-274.0299765606
20
-136.3591505401
30
0.0000000000
10
-273.4874918760
20
-137.3409432935
30
0.0000000000
10
-272.8386496400
20
-138.2555312202
30
0.0000000000
10
-272.0915606797
20
-139.0915637257
30
0.0000000000
10
-271.2555279901
20
-139.8386521976
30
0.0000000000
10
-270.3409402399
20
-140.4874937633
30
0.0000000000
10
-269.3591479984
20
-141.0299777470
30
0.0000000000
10
-268.3223574935
20
-141.4592834502
30
0.0000000000
10
-267.2434129276
20
-141.7699668156
30
0.0000000000
10
-266.1359459600
20
-141.9580344810
30
0.0000000000
10
-265.3876421409
20
-142.0000000000
30
0.0000000000
10
-265.0137046525
20
-142.0000000000
30
0.0000000000
11
-275.0000000000
21
-132.0137046525
31
0.0000000000
11
-274.9371433105
21
-133.1337550668
31
0.0000000000
11
-274.7494545862
21
-134.2389956633
31
0.0000000000
11
-274.4394146778
21
-135.3156151093
31
0.0000000000
11
-274.0110111030
21
-136.3501987214
31
0.0000000000
11
-273.4696784358
21
-137.3298830690
31
0.0000000000
11
-272.8222231218
21
-138.2425056067
31
0.0000000000
11
-272.0767374102
21
-139.0767405385
31
0.0000000000
11
-271.2425022954
21
-139.8222257622
31
0.0000000000
11
-270.3298799583
21
-140.4696803900
31
0.0000000000
11
-269.3501961656
21
-141.0110123335
31
0.0000000000
11
-268.3156133290
21
-141.4394153006
31
0.0000000000
11
-267.2389947000
21
-141.7494548060
31
0.0000000000
11
-266.1337547621
21
-141.9371433449
31
0.0000000000
11
-265.0137046525
21
-142.0000000000
31
0.0000000000
0
SPLINE
5
447
100
AcDbEntity
8
0
100
AcDbSpline
62
0
6
CONTINUOUS
70
0
71
3
72
21
73
17
74
15
42
0.0000001000
43
0.0000001000
44
0.0000000001
12
-15.6801426947
22
0.0000000000
32
0.0000000000
13
0.0000000000
23
-15.6801426947
33
0.0000000000
40
0.0000000000
40
0.0000000000
40
0.0000000000
40
0.0000000000
40
0.0715435308
40
0.1430392900
40
0.2144909572
40
0.2859044388
40
0.3572874325
40
0.4286492217
40
0.5000001409
40
0.5713510480
40
0.6427128014
40
0.7140957418
40
0.7855091629
40
0.8569607730
40
0.9284564888
40
1.0000000000
40
1.0000000000
40
1.0000000000
40
1.0000000000
10
-265.0137046525
20
142.0000000000
30
0.0000000000
10
-265.3876422429
20
142.0000000000
30
0.0000000000
10
-266.1359463914
20
141.9580344511
30
0.0000000000
10
-267.2434139698
20
141.7699666082
30
0.0000000000
10
-268.3223593055
20
141.4592828531
30
0.0000000000
10
-269.3591505401
20
141.0299765606
30
0.0000000000
10
-270.3409432935
20
140.4874918760
30
0.0000000000
10
-271.2555312202
20
139.8386496400
30
0.0000000000
10
-272.0915637257
20
139.0915606797
30
0.0000000000
10
-272.8386521976
20
138.2555279901
30
0.0000000000
10
-273.4874937633
20
137.3409402399
30
0.0000000000
10
-274.0299777470
20
136.3591479984
30
0.0000000000
10
-274.4592834502
20
135.3223574935
30
0.0000000000
10
-274.7699668156
20
134.2434129276
30
0.0000000000
10
-274.9580344810
20
133.1359459600
30
0.0000000000
10
-275.0000000000
20
132.3876421409
30
0.0000000000
10
-275.0000000000
20
132.0137046525
30
0.0000000000
11
-265.0137046525
21
142.0000000000
31
0.0000000000
11
-266.1337550668
21
141.9371433105
31
0.0000000000
11
-267.2389956633
21
141.7494545862
31
0.0000000000
11
-268.3156151093
21
141.4394146778
31
0.0000000000
11
-269.3501987214
21
141.0110111030
31
0.0000000000
11
-270.3298830690
21
140.4696784358
31
0.0000000000
11
-271.2425056067
21
139.8222231218
31
0.0000000000
11
-272.0767405385
21
139.0767374102
31
0.0000000000
11
-272.8222257622
21
138.2425022954
31
0.0000000000
11
-273.4696803900
21
137.3298799583
31
0.0000000000
11
-274.0110123335
21
136.3501961656
31
0.0000000000
11
-274.4394153006
21
135.3156133290
31
0.0000000000
11
-274.7494548060
21
134.2389947000
31
0.0000000000
11
-274.9371433449
21
133.1337547621
31
0.0000000000
11
-275.0000000000
21
132.0137046525
31
0.0000000000
0
SPLINE
5
448
100
AcDbEntity
8
0
100
AcDbSpline
62
0
6
CONTINUOUS
70
0
71
3
72
21
73
17
74
15
42
0.0000001000
43
0.0000001000
44
0.0000000001
12
0.0000000000
22
15.6801426947
32
0.0000000000
13
-15.6801426947
23
-0.0000000000
33
0.0000000000
40
0.0000000000
40
0.0000000000
40
0.0000000000
40
0.0000000000
40
0.0715435308
40
0.1430392900
40
0.2144909572
40
0.2859044388
40
0.3572874325
40
0.4286492217
40
0.5000001409
40
0.5713510480
40
0.6427128014
40
0.7140957418
40
0.7855091629
40
0.8569607730
40
0.9284564888
40
1.0000000000
40
1.0000000000
40
1.0000000000
40
1.0000000000
10
275.0000000000
20
132.0137046525
30
0.0000000000
10
275.0000000000
20
132.3876422429
30
0.0000000000
10
274.9580344511
20
133.1359463914
30
0.0000000000
10
274.7699666082
20
134.2434139698
30
0.0000000000
10
274.4592828531
20
135.3223593055
30
0.0000000000
10
274.0299765606
20
136.3591505401
30
0.0000000000
10
273.4874918760
20
137.3409432935
30
0.0000000000
10
272.8386496400
20
138.2555312202
30
0.0000000000
10
272.0915606797
20
139.0915637257
30
0.0000000000
10
271.2555279901
20
139.8386521976
30
0.0000000000
10
270.3409402399
20
140.4874937633
30
0.0000000000
10
269.3591479984
20
141.0299777470
30
0.0000000000
10
268.3223574935
20
141.4592834502
30
0.0000000000
10
267.2434129276
20
141.7699668156
30
0.0000000000
10
266.1359459600
20
141.9580344810
30
0.0000000000
10
265.3876421409
20
142.0000000000
30
0.0000000000
10
265.0137046525
20
142.0000000000
30
0.0000000000
11
275.0000000000
21
132.0137046525
31
0.0000000000
11
274.9371433105
21
133.1337550668
31
0.0000000000
11
274.7494545862
21
134.2389956633
31
0.0000000000
11
274.4394146778
21
135.3156151093
31
0.0000000000
11
274.0110111030
21
136.3501987214
31
0.0000000000
11
273.4696784358
21
137.3298830690
31
0.0000000000
11
272.8222231218
21
138.2425056067
31
0.0000000000
11
272.0767374102
21
139.0767405385
31
0.0000000000
11
271.2425022954
21
139.8222257622
31
0.0000000000
11
270.3298799583
21
140.4696803900
31
0.0000000000
11
269.3501961656
21
141.0110123335
31
0.0000000000
11
268.3156133290
21
141.4394153006
31
0.0000000000
11
267.2389947000
21
141.7494548060
31
0.0000000000
11
266.1337547621
21
141.9371433449
31
0.0000000000
11
265.0137046525
21
142.0000000000
31
0.0000000000
0
SPLINE
5
449
100
AcDbEntity
8
0
100
AcDbSpline
62
0
6
CONTINUOUS
70
0
71
3
72
9
73
5
74
3
42
0.0000001000
43
0.0000001000
44
0.0000000001
12
-1.1074776818
22
0.1285478466
32
0.0000000000
13
-1.0990282467
23
-0.1875320706
33
0.0000000000
40
0.0000000000
40
0.0000000000
40
0.0000000000
40
0.0000000000
40
0.7296046301
40
1.0000000000
40
1.0000000000
40
1.0000000000
40
1.0000000000
10
10.9116540792
20
92.3903752632
30
0.0000000000
10
10.6423137977
20
92.4216382979
30
0.0000000000
10
10.2663475665
20
92.4228451222
30
0.0000000000
10
9.8988586372
20
92.3672538140
30
0.0000000000
10
9.7998012541
20
92.3503512128
30
0.0000000000
11
10.9116540792
21
92.3903752632
31
0.0000000000
11
10.0982130537
21
92.3931643595
31
0.0000000000
11
9.7998012541
21
92.3503512128
31
0.0000000000
0
SPLINE
5
44A
100
AcDbEntity
8
0
100
AcDbSpline
62
0
6
CONTINUOUS
70
0
71
3
72
9
73
5
74
3
42
0.0000001000
43
0.0000001000
44
0.0000000001
12
-0.0195957554
22
1.2528863614
32
0.0000000000
13
-1.2446790621
23
0.1445069569
33
0.0000000000
40
0.0000000000
40
0.0000000000
40
0.0000000000
40
0.0000000000
40
0.4986489615
40
1.0000000000
40
1.0000000000
40
1.0000000000
40
1.0000000000
10
11.7133587529
20
91.5404377847
30
0.0000000000
10
11.7101016186
20
91.7486879457
30
0.0000000000
10
11.5403796766
20
92.1830452640
30
0.0000000000
10
11.1196611259
20
92.3662256922
30
0.0000000000
10
10.9116540792
20
92.3903752632
30
0.0000000000
11
11.7133587529
21
91.5404377847
31
0.0000000000
11
11.4784277741
21
92.1194162658
31
0.0000000000
11
10.9116540792
21
92.3903752632
31
0.0000000000
0
SPLINE
5
44B
100
AcDbEntity
8
0
100
AcDbSpline
62
0
6
CONTINUOUS
70
0
71
3
72
10
73
6
74
4
42
0.0000001000
43
0.0000001000
44
0.0000000001
12
1.7185088837
22
0.0383841479
32
0.0000000000
13
-0.0265205735
23
1.7187329011
33
0.0000000000
40
0.0000000000
40
0.0000000000
40
0.0000000000
40
0.0000000000
40
0.4724061958
40
0.7070789645
40
1.0000000000
40
1.0000000000
40
1.0000000000
40
1.0000000000
10
10.6108873614
20
90.4838538395
30
0.0000000000
10
10.8814987761
20
90.4898981426
30
0.0000000000
10
11.3240094269
20
90.5784610704
30
0.0000000000
10
11.6797509922
20
91.0607730218
30
0.0000000000
10
11.7159482309
20
91.3726201110
30
0.0000000000
10
11.7133587529
20
91.5404377847
30
0.0000000000
11
10.6108873614
21
90.4838538395
31
0.0000000000
11
11.3875451373
21
90.7209326057
31
0.0000000000
11
11.6290580967
21
91.0440320107
31
0.0000000000
11
11.7133587529
21
91.5404377847
31
0.0000000000
0
SPLINE
5
44C
100
AcDbEntity
8
0
100
AcDbSpline
62
0
6
CONTINUOUS
70
0
71
3
72
18
73
14
74
12
42
0.0000001000
43
0.0000001000
44
0.0000000001
12
3.9868585606
22
-1.4382733081
32
0.0000000000
13
-4.2035088076
23
-0.5423882333
33
0.0000000000
40
0.0000000000
40
0.0000000000
40
0.0000000000
40
0.0000000000
40
0.0799140229
40
0.1895498225
40
0.3222143239
40
0.3983801018
40
0.4831117482
40
0.5873905230
40
0.6786074442
40
0.7595526482
40
0.8313419760
40
0.9440537542
40
1.0000000000
40
1.0000000000
40
1.0000000000
40
1.0000000000
10
11.9358108956
20
93.3576316462
30
0.0000000000
10
12.0420128643
20
93.3193189108
30
0.0000000000
10
12.2791696013
20
93.1885179423
30
0.0000000000
10
12.6240940081
20
92.8852443758
30
0.0000000000
10
12.8683868008
20
92.4974229986
30
0.0000000000
10
12.9984575436
20
92.1017389728
30
0.0000000000
10
13.0521122128
20
91.7292112854
30
0.0000000000
10
13.0419796886
20
91.3310103104
30
0.0000000000
10
12.9556266765
20
90.9472722897
30
0.0000000000
10
12.8159778598
20
90.6308803547
30
0.0000000000
10
12.6077781452
20
90.3138883814
30
0.0000000000
10
12.3597351614
20
90.0906472455
30
0.0000000000
10
12.1605310424
20
89.9335810093
30
0.0000000000
10
12.0821408634
20
89.9234661474
30
0.0000000000
11
11.9358108956
21
93.3576316462
31
0.0000000000
11
12.2358956750
21
93.2005659279
31
0.0000000000
11
12.5843917102
21
92.8931997031
31
0.0000000000
11
12.8844191303
21
92.4176559874
31
0.0000000000
11
12.9859821499
21
92.1112310128
31
0.0000000000
11
13.0390980640
21
91.7560577965
31
0.0000000000
11
13.0261434245
21
91.3142770043
31
0.0000000000
11
12.9398489348
21
90.9374209737
31
0.0000000000
11
12.8016466615
21
90.6234140148
31
0.0000000000
11
12.6329686708
21
90.3701804377
31
0.0000000000
11
12.2899138032
21
90.0377306688
31
0.0000000000
11
12.0821408634
21
89.9234661474
31
0.0000000000
0
SPLINE
5
44D
100
AcDbEntity
8
0
100
AcDbSpline
62
0
6
CONTINUOUS
70
0
71
3
72
9
73
5
74
3
42
0.0000001000
43
0.0000001000
44
0.0000000001
12
3.4888140467
22
0.5132639537
32
0.0000000000
13
3.3165621841
23
-1.1981980712
33
0.0000000000
40
0.0000000000
40
0.0000000000
40
0.0000000000
40
0.0000000000
40
0.7042582166
40
1.0000000000
40
1.0000000000
40
1.0000000000
40
1.0000000000
10
8.4333240879
20
93.4292160625
30
0.0000000000
10
9.2523327407
20
93.5497061814
30
0.0000000000
10
10.4336796723
20
93.6682918620
30
0.0000000000
10
11.6088622239
20
93.4757507243
30
0.0000000000
10
11.9358108956
20
93.3576316462
30
0.0000000000
11
8.4333240879
21
93.4292160625
31
0.0000000000
11
10.9132219002
21
93.5624234953
31
0.0000000000
11
11.9358108956
21
93.3576316462
31
0.0000000000
0
SPLINE
5
44E
100
AcDbEntity
8
0
100
AcDbSpline
62
0
6
CONTINUOUS
70
0
71
3
72
9
73
5
74
3
42
0.0000001000
43
0.0000001000
44
0.0000000001
12
-0.3662837462
22
0.9760074332
32
0.0000000000
13
-1.0424750799
23
0.0000000000
33
0.0000000000
40
0.0000000000
40
0.0000000000
40
0.0000000000
40
0.0000000000
40
0.6440858369
40
1.0000000000
40
1.0000000000
40
1.0000000000
40
1.0000000000
10
11.3996415781
20
88.7712323696
30
0.0000000000
10
11.3210021870
20
88.9807765578
30
0.0000000000
10
11.0872915953
20
89.2954279974
30
0.0000000000
10
10.7315054135
20
89.3703184747
30
0.0000000000
10
10.6078281983
20
89.3703184747
30
0.0000000000
11
11.3996415781
21
88.7712323696
31
0.0000000000
11
10.9693001836
21
89.2866376177
31
0.0000000000
11
10.6078281983
21
89.3703184747
31
0.0000000000
0
SPLINE
5
44F
100
AcDbEntity
8
0
100
AcDbSpline
62
0
6
CONTINUOUS
70
0
71
3
72
9
73
5
74
3
42
0.0000001000
43
0.0000001000
44
0.0000000001
12
-0.5949444360
22
2.0693430495
32
0.0000000000
13
-0.7572407061
23
2.0156205128
33
0.0000000000
40
0.0000000000
40
0.0000000000
40
0.0000000000
40
0.0000000000
40
0.4413785828
40
1.0000000000
40
1.0000000000
40
1.0000000000
40
1.0000000000
10
12.0202437969
20
86.7095094051
30
0.0000000000
10
11.9327118862
20
87.0139639727
30
0.0000000000
10
11.7260775067
20
87.7009173195
30
0.0000000000
10
11.5406452035
20
88.3959094405
30
0.0000000000
10
11.3996415781
20
88.7712323696
30
0.0000000000
11
12.0202437969
21
86.7095094051
31
0.0000000000
11
11.7544343907
21
87.6219430363
31
0.0000000000
11
11.3996415781
21
88.7712323696
31
0.0000000000
0
SPLINE
5
450
100
AcDbEntity
8
0
100
AcDbSpline
62
0
6
CONTINUOUS
70
0
71
3
72
9
73
5
74
3
42
0.0000001000
43
0.0000001000
44
0.0000000001
12
0.5002624781
22
-1.8361981698
32
0.0000000000
13
0.4988132883
23
-1.8365923797
33
0.0000000000
40
0.0000000000
40
0.0000000000
40
0.0000000000
40
0.0000000000
40
0.8019858277
40
1.0000000000
40
1.0000000000
40
1.0000000000
40
1.0000000000
10
12.9002120597
20
88.5497489619
30
0.0000000000
10
13.0339465322
20
88.0588806589
30
0.0000000000
10
13.1913229012
20
87.4443066968
30
0.0000000000
10
13.3524712923
20
86.8307331785
30
0.0000000000
10
13.3853953258
20
86.7095094051
30
0.0000000000
11
12.9002120597
21
88.5497489619
31
0.0000000000
11
13.2887998613
21
87.0737649103
31
0.0000000000
11
13.3853953258
21
86.7095094051
31
0.0000000000
0
SPLINE
5
451
100
AcDbEntity
8
0
100
AcDbSpline
62
0
6
CONTINUOUS
70
0
71
3
72
9
73
5
74
3
42
0.0000001000
43
0.0000001000
44
0.0000000001
12
1.4705475591
22
-0.5863808392
32
0.0000000000
13
0.4161308905
23
-1.5274775592
33
0.0000000000
40
0.0000000000
40
0.0000000000
40
0.0000000000
40
0.0000000000
40
0.7573413784
40
1.0000000000
40
1.0000000000
40
1.0000000000
40
1.0000000000
10
12.0821408634
20
89.8832891389
30
0.0000000000
10
12.4533763685
20
89.7352589812
30
0.0000000000
10
12.7379796723
20
89.1722333736
30
0.0000000000
10
12.8665528103
20
88.6733008283
30
0.0000000000
10
12.9002120597
20
88.5497489619
30
0.0000000000
11
12.0821408634
21
89.8832891389
31
0.0000000000
11
12.7949664929
21
88.9192154008
31
0.0000000000
11
12.9002120597
21
88.5497489619
31
0.0000000000
0
SPLINE
5
452
100
AcDbEntity
8
0
100
AcDbSpline
62
0
6
CONTINUOUS
70
0
71
3
72
20
73
16
74
14
42
0.0000001000
43
0.0000001000
44
0.0000000001
12
-11.7591213055
22
0.0000000000
32
0.0000000000
13
-0.0000000000
23
11.7591213055
33
0.0000000000
40
0.0000000000
40
0.0000000000
40
0.0000000000
40
0.0000000000
40
0.0770348538
40
0.1540586751
40
0.2309427792
40
0.3079098304
40
0.3846943386
40
0.4616257778
40
0.5383741947
40
0.6153056407
40
0.6920901444
40
0.7690572071
40
0.8459413056
40
0.9229651413
40
1.0000000000
40
1.0000000000
40
1.0000000000
40
1.0000000000
10
-264.8129388410
20
-139.3026603517
30
0.0000000000
10
-265.1148929043
20
-139.3026603517
30
0.0000000000
10
-265.7193929470
20
-139.2661536219
30
0.0000000000
10
-266.6118727737
20
-139.1026727071
30
0.0000000000
10
-267.4780247511
20
-138.8329064070
30
0.0000000000
10
-268.3044542409
20
-138.4610728614
30
0.0000000000
10
-269.0801877951
20
-137.9922288991
30
0.0000000000
10
-269.7930581609
20
-137.4337858264
30
0.0000000000
10
-270.4337856297
20
-136.7930583855
30
0.0000000000
10
-270.9922287355
20
-136.0801880330
30
0.0000000000
10
-271.4610727540
20
-135.3044544494
30
0.0000000000
10
-271.8329063273
20
-134.4780249653
30
0.0000000000
10
-272.1026726734
20
-133.6118729195
30
0.0000000000
10
-272.2661536150
20
-132.7193930421
30
0.0000000000
10
-272.3026603517
20
-132.1148929237
30
0.0000000000
10
-272.3026603517
20
-131.8129388410
30
0.0000000000
11
-264.8129388410
21
-139.3026603517
31
0.0000000000
11
-265.7171510787
21
-139.2480111384
31
0.0000000000
11
-266.6080607632
21
-139.0848203886
31
0.0000000000
11
-267.4712458082
21
-138.8159534807
31
0.0000000000
11
-268.2966126582
21
-138.4445884022
31
0.0000000000
11
-269.0693539112
21
-137.9775418351
31
0.0000000000
11
-269.7815006928
21
-137.4196605101
31
0.0000000000
11
-270.4196602947
21
-136.7815009359
31
0.0000000000
11
-270.9775416967
21
-136.0693541117
31
0.0000000000
11
-271.4445882644
21
-135.2966129207
31
0.0000000000
11
-271.8159534237
21
-134.4712459585
31
0.0000000000
11
-272.0848203342
21
-133.6080609842
31
0.0000000000
11
-272.2480111314
21
-132.7171511364
31
0.0000000000
11
-272.3026603517
21
-131.8129388410
31
0.0000000000
0
SPLINE
5
453
100
AcDbEntity
8
0
100
AcDbSpline
62
0
6
CONTINUOUS
70
0
71
3
72
20
73
16
74
14
42
0.0000001000
43
0.0000001000
44
0.0000000001
12
0.0000000000
22
11.7591213055
32
0.0000000000
13
11.7591213055
23
0.0000000000
33
0.0000000000
40
0.0000000000
40
0.0000000000
40
0.0000000000
40
0.0000000000
40
0.0770348538
40
0.1540586751
40
0.2309427792
40
0.3079098304
40
0.3846943386
40
0.4616257778
40
0.5383741947
40
0.6153056407
40
0.6920901444
40
0.7690572071
40
0.8459413056
40
0.9229651413
40
1.0000000000
40
1.0000000000
40
1.0000000000
40
1.0000000000
10
-272.3026603517
20
131.8129388410
30
0.0000000000
10
-272.3026603517
20
132.1148929043
30
0.0000000000
10
-272.2661536219
20
132.7193929470
30
0.0000000000
10
-272.1026727071
20
133.6118727737
30
0.0000000000
10
-271.8329064070
20
134.4780247511
30
0.0000000000
10
-271.4610728614
20
135.3044542409
30
0.0000000000
10
-270.9922288991
20
136.0801877951
30
0.0000000000
10
-270.4337858264
20
136.7930581609
30
0.0000000000
10
-269.7930583855
20
137.4337856297
30
0.0000000000
10
-269.0801880330
20
137.9922287355
30
0.0000000000
10
-268.3044544494
20
138.4610727540
30
0.0000000000
10
-267.4780249653
20
138.8329063273
30
0.0000000000
10
-266.6118729195
20
139.1026726734
30
0.0000000000
10
-265.7193930421
20
139.2661536150
30
0.0000000000
10
-265.1148929237
20
139.3026603517
30
0.0000000000
10
-264.8129388410
20
139.3026603517
30
0.0000000000
11
-272.3026603517
21
131.8129388410
31
0.0000000000
11
-272.2480111384
21
132.7171510787
31
0.0000000000
11
-272.0848203886
21
133.6080607632
31
0.0000000000
11
-271.8159534807
21
134.4712458082
31
0.0000000000
11
-271.4445884022
21
135.2966126582
31
0.0000000000
11
-270.9775418351
21
136.0693539112
31
0.0000000000
11
-270.4196605101
21
136.7815006928
31
0.0000000000
11
-269.7815009359
21
137.4196602947
31
0.0000000000
11
-269.0693541117
21
137.9775416967
31
0.0000000000
11
-268.2966129207
21
138.4445882644
31
0.0000000000
11
-267.4712459585
21
138.8159534237
31
0.0000000000
11
-266.6080609842
21
139.0848203342
31
0.0000000000
11
-265.7171511364
21
139.2480111314
31
0.0000000000
11
-264.8129388410
21
139.3026603517
31
0.0000000000
0
SPLINE
5
454
100
AcDbEntity
8
0
100
AcDbSpline
62
0
6
CONTINUOUS
70
0
71
3
72
20
73
16
74
14
42
0.0000001000
43
0.0000001000
44
0.0000000001
12
11.7591213055
22
0.0000000000
32
0.0000000000
13
0.0000000000
23
-11.7591213055
33
0.0000000000
40
0.0000000000
40
0.0000000000
40
0.0000000000
40
0.0000000000
40
0.0770348538
40
0.1540586751
40
0.2309427792
40
0.3079098304
40
0.3846943386
40
0.4616257778
40
0.5383741947
40
0.6153056407
40
0.6920901444
40
0.7690572071
40
0.8459413056
40
0.9229651413
40
1.0000000000
40
1.0000000000
40
1.0000000000
40
1.0000000000
10
264.8129388410
20
139.3026603517
30
0.0000000000
10
265.1148929043
20
139.3026603517
30
0.0000000000
10
265.7193929470
20
139.2661536219
30
0.0000000000
10
266.6118727737
20
139.1026727071
30
0.0000000000
10
267.4780247511
20
138.8329064070
30
0.0000000000
10
268.3044542409
20
138.4610728614
30
0.0000000000
10
269.0801877951
20
137.9922288991
30
0.0000000000
10
269.7930581609
20
137.4337858264
30
0.0000000000
10
270.4337856297
20
136.7930583855
30
0.0000000000
10
270.9922287355
20
136.0801880330
30
0.0000000000
10
271.4610727540
20
135.3044544494
30
0.0000000000
10
271.8329063273
20
134.4780249653
30
0.0000000000
10
272.1026726734
20
133.6118729195
30
0.0000000000
10
272.2661536150
20
132.7193930421
30
0.0000000000
10
272.3026603517
20
132.1148929237
30
0.0000000000
10
272.3026603517
20
131.8129388410
30
0.0000000000
11
264.8129388410
21
139.3026603517
31
0.0000000000
11
265.7171510787
21
139.2480111384
31
0.0000000000
11
266.6080607632
21
139.0848203886
31
0.0000000000
11
267.4712458082
21
138.8159534807
31
0.0000000000
11
268.2966126582
21
138.4445884022
31
0.0000000000
11
269.0693539112
21
137.9775418351
31
0.0000000000
11
269.7815006928
21
137.4196605101
31
0.0000000000
11
270.4196602947
21
136.7815009359
31
0.0000000000
11
270.9775416967
21
136.0693541117
31
0.0000000000
11
271.4445882644
21
135.2966129207
31
0.0000000000
11
271.8159534237
21
134.4712459585
31
0.0000000000
11
272.0848203342
21
133.6080609842
31
0.0000000000
11
272.2480111314
21
132.7171511364
31
0.0000000000
11
272.3026603517
21
131.8129388410
31
0.0000000000
0
SPLINE
5
455
100
AcDbEntity
8
0
100
AcDbSpline
62
0
6
CONTINUOUS
70
0
71
3
72
20
73
16
74
14
42
0.0000001000
43
0.0000001000
44
0.0000000001
12
0.0000000000
22
-11.7591213055
32
0.0000000000
13
-11.7591213055
23
0.0000000000
33
0.0000000000
40
0.0000000000
40
0.0000000000
40
0.0000000000
40
0.0000000000
40
0.0770348538
40
0.1540586751
40
0.2309427792
40
0.3079098304
40
0.3846943386
40
0.4616257778
40
0.5383741947
40
0.6153056407
40
0.6920901444
40
0.7690572071
40
0.8459413056
40
0.9229651413
40
1.0000000000
40
1.0000000000
40
1.0000000000
40
1.0000000000
10
272.3026603517
20
-131.8129388410
30
0.0000000000
10
272.3026603517
20
-132.1148929043
30
0.0000000000
10
272.2661536219
20
-132.7193929470
30
0.0000000000
10
272.1026727071
20
-133.6118727737
30
0.0000000000
10
271.8329064070
20
-134.4780247511
30
0.0000000000
10
271.4610728614
20
-135.3044542409
30
0.0000000000
10
270.9922288991
20
-136.0801877951
30
0.0000000000
10
270.4337858264
20
-136.7930581609
30
0.0000000000
10
269.7930583855
20
-137.4337856297
30
0.0000000000
10
269.0801880330
20
-137.9922287355
30
0.0000000000
10
268.3044544494
20
-138.4610727540
30
0.0000000000
10
267.4780249653
20
-138.8329063273
30
0.0000000000
10
266.6118729195
20
-139.1026726734
30
0.0000000000
10
265.7193930421
20
-139.2661536150
30
0.0000000000
10
265.1148929237
20
-139.3026603517
30
0.0000000000
10
264.8129388410
20
-139.3026603517
30
0.0000000000
11
272.3026603517
21
-131.8129388410
31
0.0000000000
11
272.2480111384
21
-132.7171510787
31
0.0000000000
11
272.0848203886
21
-133.6080607632
31
0.0000000000
11
271.8159534807
21
-134.4712458082
31
0.0000000000
11
271.4445884022
21
-135.2966126582
31
0.0000000000
11
270.9775418351
21
-136.0693539112
31
0.0000000000
11
270.4196605101
21
-136.7815006928
31
0.0000000000
11
269.7815009359
21
-137.4196602947
31
0.0000000000
11
269.0693541117
21
-137.9775416967
31
0.0000000000
11
268.2966129207
21
-138.4445882644
31
0.0000000000
11
267.4712459585
21
-138.8159534237
31
0.0000000000
11
266.6080609842
21
-139.0848203342
31
0.0000000000
11
265.7171511364
21
-139.2480111314
31
0.0000000000
11
264.8129388410
21
-139.3026603517
31
0.0000000000
0
SPLINE
5
456
100
AcDbEntity
8
0
100
AcDbSpline
62
0
6
CONTINUOUS
70
0
71
3
72
20
73
16
74
14
42
0.0000001000
43
0.0000001000
44
0.0000000001
12
-11.7591213207
22
0.0000000000
32
0.0000000000
13
0.0000000000
23
-11.7591213207
33
0.0000000000
40
0.0000000000
40
0.0000000000
40
0.0000000000
40
0.0000000000
40
0.0770447870
40
0.1540344732
40
0.2309739965
40
0.3078711700
40
0.3847361697
40
0.4615811084
40
0.5384192142
40
0.6152641205
40
0.6921290599
40
0.7690261591
40
0.8459656092
40
0.9229552387
40
1.0000000000
40
1.0000000000
40
1.0000000000
40
1.0000000000
10
-265.0068476243
20
139.4965691350
30
0.0000000000
10
-265.3088406233
20
139.4965691350
30
0.0000000000
10
-265.9132462288
20
139.4600632893
30
0.0000000000
10
-266.8058456949
20
139.2965709407
30
0.0000000000
10
-267.6718183002
20
139.0268551580
30
0.0000000000
10
-268.4984812513
20
138.6549224819
30
0.0000000000
10
-269.2739642265
20
138.1862272643
30
0.0000000000
10
-269.9870889370
20
137.6275875506
30
0.0000000000
10
-270.6275899870
20
136.9870861751
30
0.0000000000
10
-271.1862291307
20
136.2739614832
30
0.0000000000
10
-271.6549236894
20
135.4984788809
30
0.0000000000
10
-272.0268557780
20
134.6718165656
30
0.0000000000
10
-272.2965711588
20
133.8058446801
30
0.0000000000
10
-272.4600633210
20
132.9132458045
30
0.0000000000
10
-272.4965691350
20
132.3088405227
30
0.0000000000
10
-272.4965691350
20
132.0068476243
30
0.0000000000
11
-265.0068476243
21
139.4965691350
31
0.0000000000
11
-265.9111760301
21
139.4419058250
31
0.0000000000
11
-266.8016927147
21
139.2787973809
31
0.0000000000
11
-267.6654984714
21
139.0097319003
31
0.0000000000
11
-268.4901181540
21
138.6387088137
31
0.0000000000
11
-269.2636682859
21
138.1711707171
31
0.0000000000
11
-269.9750155900
21
137.6139182551
31
0.0000000000
11
-270.6139207754
21
136.9750127450
31
0.0000000000
11
-271.1711726591
21
136.2636654722
31
0.0000000000
11
-271.6387100722
21
135.4901157557
31
0.0000000000
11
-272.0097325500
21
134.6654967577
31
0.0000000000
11
-272.2787976131
21
133.8016917722
31
0.0000000000
11
-272.4419058614
21
132.9111757298
31
0.0000000000
11
-272.4965691350
21
132.0068476243
31
0.0000000000
0
SPLINE
5
457
100
AcDbEntity
8
0
100
AcDbSpline
62
0
6
CONTINUOUS
70
0
71
3
72
20
73
16
74
14
42
0.0000001000
43
0.0000001000
44
0.0000000001
12
0.0000000000
22
-11.7591213208
32
0.0000000000
13
11.7591213207
23
-0.0000000000
33
0.0000000000
40
0.0000000000
40
0.0000000000
40
0.0000000000
40
0.0000000000
40
0.0770447870
40
0.1540344732
40
0.2309739965
40
0.3078711700
40
0.3847361697
40
0.4615811084
40
0.5384192142
40
0.6152641205
40
0.6921290599
40
0.7690261591
40
0.8459656092
40
0.9229552387
40
1.0000000000
40
1.0000000000
40
1.0000000000
40
1.0000000000
10
-272.4965691350
20
-132.0068476243
30
0.0000000000
10
-272.4965691350
20
-132.3088406233
30
0.0000000000
10
-272.4600632893
20
-132.9132462288
30
0.0000000000
10
-272.2965709407
20
-133.8058456949
30
0.0000000000
10
-272.0268551580
20
-134.6718183002
30
0.0000000000
10
-271.6549224819
20
-135.4984812513
30
0.0000000000
10
-271.1862272643
20
-136.2739642265
30
0.0000000000
10
-270.6275875506
20
-136.9870889370
30
0.0000000000
10
-269.9870861751
20
-137.6275899870
30
0.0000000000
10
-269.2739614832
20
-138.1862291307
30
0.0000000000
10
-268.4984788809
20
-138.6549236894
30
0.0000000000
10
-267.6718165656
20
-139.0268557780
30
0.0000000000
10
-266.8058446801
20
-139.2965711588
30
0.0000000000
10
-265.9132458045
20
-139.4600633210
30
0.0000000000
10
-265.3088405227
20
-139.4965691350
30
0.0000000000
10
-265.0068476243
20
-139.4965691350
30
0.0000000000
11
-272.4965691350
21
-132.0068476243
31
0.0000000000
11
-272.4419058250
21
-132.9111760301
31
0.0000000000
11
-272.2787973809
21
-133.8016927147
31
0.0000000000
11
-272.0097319003
21
-134.6654984714
31
0.0000000000
11
-271.6387088137
21
-135.4901181540
31
0.0000000000
11
-271.1711707171
21
-136.2636682859
31
0.0000000000
11
-270.6139182551
21
-136.9750155900
31
0.0000000000
11
-269.9750127450
21
-137.6139207754
31
0.0000000000
11
-269.2636654722
21
-138.1711726591
31
0.0000000000
11
-268.4901157557
21
-138.6387100722
31
0.0000000000
11
-267.6654967577
21
-139.0097325500
31
0.0000000000
11
-266.8016917722
21
-139.2787976131
31
0.0000000000
11
-265.9111757298
21
-139.4419058614
31
0.0000000000
11
-265.0068476243
21
-139.4965691350
31
0.0000000000
0
SPLINE
5
458
100
AcDbEntity
8
0
100
AcDbSpline
62
0
6
CONTINUOUS
70
0
71
3
72
20
73
16
74
14
42
0.0000001000
43
0.0000001000
44
0.0000000001
12
11.7591213208
22
0.0000000000
32
0.0000000000
13
0.0000000000
23
11.7591213207
33
0.0000000000
40
0.0000000000
40
0.0000000000
40
0.0000000000
40
0.0000000000
40
0.0770447870
40
0.1540344732
40
0.2309739965
40
0.3078711700
40
0.3847361697
40
0.4615811084
40
0.5384192142
40
0.6152641205
40
0.6921290599
40
0.7690261591
40
0.8459656092
40
0.9229552387
40
1.0000000000
40
1.0000000000
40
1.0000000000
40
1.0000000000
10
265.0068476243
20
-139.4965691350
30
0.0000000000
10
265.3088406233
20
-139.4965691350
30
0.0000000000
10
265.9132462288
20
-139.4600632893
30
0.0000000000
10
266.8058456949
20
-139.2965709407
30
0.0000000000
10
267.6718183002
20
-139.0268551580
30
0.0000000000
10
268.4984812513
20
-138.6549224819
30
0.0000000000
10
269.2739642265
20
-138.1862272643
30
0.0000000000
10
269.9870889370
20
-137.6275875506
30
0.0000000000
10
270.6275899870
20
-136.9870861751
30
0.0000000000
10
271.1862291307
20
-136.2739614832
30
0.0000000000
10
271.6549236894
20
-135.4984788809
30
0.0000000000
10
272.0268557780
20
-134.6718165656
30
0.0000000000
10
272.2965711588
20
-133.8058446801
30
0.0000000000
10
272.4600633210
20
-132.9132458045
30
0.0000000000
10
272.4965691350
20
-132.3088405227
30
0.0000000000
10
272.4965691350
20
-132.0068476243
30
0.0000000000
11
265.0068476243
21
-139.4965691350
31
0.0000000000
11
265.9111760301
21
-139.4419058250
31
0.0000000000
11
266.8016927147
21
-139.2787973809
31
0.0000000000
11
267.6654984714
21
-139.0097319003
31
0.0000000000
11
268.4901181540
21
-138.6387088137
31
0.0000000000
11
269.2636682859
21
-138.1711707171
31
0.0000000000
11
269.9750155900
21
-137.6139182551
31
0.0000000000
11
270.6139207754
21
-136.9750127450
31
0.0000000000
11
271.1711726591
21
-136.2636654722
31
0.0000000000
11
271.6387100722
21
-135.4901157557
31
0.0000000000
11
272.0097325500
21
-134.6654967577
31
0.0000000000
11
272.2787976131
21
-133.8016917722
31
0.0000000000
11
272.4419058614
21
-132.9111757298
31
0.0000000000
11
272.4965691350
21
-132.0068476243
31
0.0000000000
0
SPLINE
5
459
100
AcDbEntity
8
0
100
AcDbSpline
62
0
6
CONTINUOUS
70
0
71
3
72
20
73
16
74
14
42
0.0000001000
43
0.0000001000
44
0.0000000001
12
0.0000000000
22
11.7591213208
32
0.0000000000
13
-11.7591213208
23
0.0000000000
33
0.0000000000
40
0.0000000000
40
0.0000000000
40
0.0000000000
40
0.0000000000
40
0.0770447870
40
0.1540344732
40
0.2309739965
40
0.3078711700
40
0.3847361697
40
0.4615811084
40
0.5384192142
40
0.6152641205
40
0.6921290599
40
0.7690261591
40
0.8459656092
40
0.9229552387
40
1.0000000000
40
1.0000000000
40
1.0000000000
40
1.0000000000
10
272.4965691350
20
132.0068476243
30
0.0000000000
10
272.4965691350
20
132.3088406233
30
0.0000000000
10
272.4600632893
20
132.9132462288
30
0.0000000000
10
272.2965709407
20
133.8058456949
30
0.0000000000
10
272.0268551580
20
134.6718183002
30
0.0000000000
10
271.6549224819
20
135.4984812513
30
0.0000000000
10
271.1862272643
20
136.2739642265
30
0.0000000000
10
270.6275875506
20
136.9870889370
30
0.0000000000
10
269.9870861751
20
137.6275899870
30
0.0000000000
10
269.2739614832
20
138.1862291307
30
0.0000000000
10
268.4984788809
20
138.6549236894
30
0.0000000000
10
267.6718165656
20
139.0268557780
30
0.0000000000
10
266.8058446801
20
139.2965711588
30
0.0000000000
10
265.9132458045
20
139.4600633210
30
0.0000000000
10
265.3088405227
20
139.4965691350
30
0.0000000000
10
265.0068476243
20
139.4965691350
30
0.0000000000
11
272.4965691350
21
132.0068476243
31
0.0000000000
11
272.4419058250
21
132.9111760301
31
0.0000000000
11
272.2787973809
21
133.8016927147
31
0.0000000000
11
272.0097319003
21
134.6654984714
31
0.0000000000
11
271.6387088137
21
135.4901181540
31
0.0000000000
11
271.1711707171
21
136.2636682859
31
0.0000000000
11
270.6139182551
21
136.9750155900
31
0.0000000000
11
269.9750127450
21
137.6139207754
31
0.0000000000
11
269.2636654722
21
138.1711726591
31
0.0000000000
11
268.4901157557
21
138.6387100722
31
0.0000000000
11
267.6654967577
21
139.0097325500
31
0.0000000000
11
266.8016917722
21
139.2787976131
31
0.0000000000
11
265.9111757298
21
139.4419058614
31
0.0000000000
11
265.0068476243
21
139.4965691350
31
0.0000000000
0
ENDSEC
0
SECTION
2
OBJECTS
0
DICTIONARY
5
C
100
AcDbDictionary
280
0
281
1
3
ACAD_GROUP
350
D
3
ACAD_MLINESTYLE
350
17
3
ACAD_LAYOUT
350
1A
3
ACAD_PLOTSETTINGS
350
19
3
ACAD_PLOTSTYLENAME
350
E
0
DICTIONARY
5
D
102
{ACAD_REACTORS
330
C
102
}
100
AcDbDictionary
280
0
281
1
0
ACDBDICTIONARYWDFLT
5
E
102
{ACAD_REACTORS
330
C
102
}
100
AcDbDictionary
281
1
3
Normal
350
F
100
AcDbDictionaryWithDefault
340
F
0
DICTIONARY
5
17
102
{ACAD_REACTORS
330
C
102
}
100
AcDbDictionary
280
0
281
1
3
Standard
350
18
0
DICTIONARY
5
19
102
{ACAD_REACTORS
330
C
102
}
100
AcDbDictionary
281
1
0
DICTIONARY
5
1A
102
{ACAD_REACTORS
330
C
102
}
100
AcDbDictionary
281
1
3
Layout1
350
1E
3
Model
350
22
0
ACDBPLACEHOLDER
5
F
102
{ACAD_REACTORS
330
E
102
}
0
MLINESTYLE
5
18
102
{ACAD_REACTORS
330
17
102
}
100
AcDbMlineStyle
2
STANDARD
70
0
3

62
256
51
90.0
52
90.0
71
2
49
0.5
62
256
6
BYLAYER
49
-0.5
62
256
6
BYLAYER
0
LAYOUT
5
1E
102
{ACAD_REACTORS
330
1A
102
}
100
AcDbPlotSettings
1

2

4

6

40
0.0
41
0.0
42
0.0
43
0.0
44
0.0
45
0.0
46
0.0
47
0.0
48
0.0
49
0.0
140
0.0
141
0.0
142
1.0
143
1.0
70
0
72
0
73
0
74
0
7

75
0
147
1.0
148
0.0
149
0.0
100
AcDbLayout
1
Layout1
70
0
71
0
10
0.0
20
0.0
11
0.0
21
0.0
12
0.0
22
0.0
32
0.0
14
0.0
24
0.0
34
0.0
15
0.0
25
0.0
35
0.0
146
0.0
13
0.0
23
0.0
33
0.0
16
0.0
26
0.0
36
0.0
17
0.0
27
0.0
37
0.0
76
0
330
1B
331
0
345
0
346
0
0
LAYOUT
5
22
102
{ACAD_REACTORS
330
1A
102
}
100
AcDbPlotSettings
1

2

4

6

40
0.0
41
0.0
42
0.0
43
0.0
44
0.0
45
0.0
46
0.0
47
0.0
48
0.0
49
0.0
140
0.0
141
0.0
142
1.0
143
1.0
70
0
72
0
73
0
74
0
7

75
0
147
1.0
148
0.0
149
0.0
100
AcDbLayout
1
Model
70
0
71
0
10
0.0
20
0.0
11
0.0
21
0.0
12
0.0
22
0.0
32
0.0
14
0.0
24
0.0
34
0.0
15
0.0
25
0.0
35
0.0
146
0.0
13
0.0
23
0.0
33
0.0
16
0.0
26
0.0
36
0.0
17
0.0
27
0.0
37
0.0
76
0
330
1F
331
0
345
0
346
0
0
ENDSEC
0
EOF
