  0
SECTION
  2
HEADER
  9
$ACADVER
  1
AC1024
  9
$DWGCODEPAGE
  3
ANSI_1252
  9
$EXTMAX
 10
558.8
 20
431.8
 30
0.0
  9
$EXTMIN
 10
0.0
 20
0.0
 30
0.0
  9
$LIMMIN
 10
0.0
 20
0.0
  9
$LIMMAX
 10
558.8
 20
431.8
  9
$VIEWCTR
 10
279.4
 20
215.9
  9
$VIEWSIZE
 40
431.8
  9
$CLAYER
  8
0
  9
$LTSCALE
 40
30.734
  9
$CELTYPE
  6
BYLAYER
  9
$DIMSCALE
 40
1.0
  9
$DIMASZ
 40
3.0
  9
$DIMEXO
 40
0.5
  9
$DIMDLI
 40
21.2344
  9
$DIMEXE
 40
1.5
  9
$DIMCEN
 40
5.0292
  9
$DIMLFAC
 40
1.0
  9
$DIMBLK
  1
_FILLED
  9
$DIMALT
 70
0
  9
$DIMALTF
 40
0.0393700787
  9
$DIMTXT
 40
3.0
  9
$DIMTOL
 70
1
  9
$DIMLIM
 70
0
  9
$DIMTFAC
 40
1.0
  9
$DIMTP
 40
0.01
  9
$DIMTM
 40
0.01
  9
$DIMGAP
 40
0.625
  9
$DIMDSEP
 70
44
  9
$AUNITS
 70
0
  9
$PDMODE
 70
3
  9
$PDSIZE
 40
3.0
  9
$HANDSEED
  5
616
  9
$TILEMODE
 70
1
  9
$MEASUREMENT
 70
1
  9
$INSUNITS
 70
4
  0
ENDSEC
  0
SECTION
  2
CLASSES
  0
CLASS
  1
ACDBDICTIONARYWDFLT
  2
AcDbDictionaryWithDefault
  3
AutoCAD 2000
 90
0
 91
1
280
0
281
0
  0
CLASS
  1
ACDBPLACEHOLDER
  2
AcDbPlaceHolder
  3
AutoCAD 2000
 90
0
 91
1
280
0
281
0
  0
CLASS
  1
LAYOUT
  2
AcDbLayout
  3
AutoCAD 2000
 90
0
 91
0
280
0
281
0
  0
ENDSEC
  0
SECTION
  2
TABLES
  0
TABLE
  2
VPORT
  5
8
100
AcDbSymbolTable
 70
2
  0
VPORT
  5
1F4
100
AcDbSymbolTableRecord
100
AcDbViewportTableRecord
  2
*ACTIVE
 70
0
 10
0.0
 20
0.0
 11
1.0
 21
1.0
 12
279.4
 22
215.9
 13
0.0
 23
0.0
 14
1.0
 24
1.0
 15
0.0
 25
0.0
 16
0.0
 26
0.0
 36
1.0
 17
0.0
 27
0.0
 37
0.0
 40
431.8
 41
1.2941176471
 42
50.0
 43
0.0
 44
0.0
 50
0.0
 51
0.0
 71
0
 72
100
 73
1
 74
1
 75
0
 76
0
 77
0
 78
0
  0
ENDTAB
  0
TABLE
  2
LTYPE
  5
5
100
AcDbSymbolTable
 70
6
  0
LTYPE
  5
14
100
AcDbSymbolTableRecord
100
AcDbLinetypeTableRecord
  2
BYBLOCK
 70
0
  3

 72
65
 73
0
 40
0.0
  0
LTYPE
  5
15
100
AcDbSymbolTableRecord
100
AcDbLinetypeTableRecord
  2
BYLAYER
 70
0
  3

 72
65
 73
0
 40
0.0
  0
LTYPE
  5
16
100
AcDbSymbolTableRecord
100
AcDbLinetypeTableRecord
  2
CONTINUOUS
 70
64
  3
Solid line
 72
65
 73
0
 40
0.0
  0
LTYPE
  5
1F5
100
AcDbSymbolTableRecord
100
AcDbLinetypeTableRecord
  2
CENTER
 70
64
  3
____ _ ____ _ ____ _ ____ _ ____ _ ____ _ ____
 72
65
 73
4
 40
0.6
 49
0.375
 74
0
 49
-0.075
 74
0
 49
0.075
 74
0
 49
-0.075
 74
0
  0
LTYPE
  5
1F6
100
AcDbSymbolTableRecord
100
AcDbLinetypeTableRecord
  2
HIDDEN
 70
64
  3
- - - - - - - - - - - - - - - - - - - -
 72
65
 73
2
 40
0.2
 49
0.1
 74
0
 49
-0.1
 74
0
  0
LTYPE
  5
1F7
100
AcDbSymbolTableRecord
100
AcDbLinetypeTableRecord
  2
PHANTOM
 70
64
  3
_____ _ _ _____ _ _ _____ _ _ _____
 72
65
 73
6
 40
0.8
 49
0.45
 74
0
 49
-0.05
 74
0
 49
0.1
 74
0
 49
-0.05
 74
0
 49
0.1
 74
0
 49
-0.05
 74
0
  0
LTYPE
  5
1F8
100
AcDbSymbolTableRecord
100
AcDbLinetypeTableRecord
  2
DOT
 70
64
  3
. . . . . . . . . . . . . . . . . . . .
 72
65
 73
2
 40
0.2
 49
0.1
 74
0
 49
-0.1
 74
0
  0
LTYPE
  5
1F9
100
AcDbSymbolTableRecord
100
AcDbLinetypeTableRecord
  2
DASHED
 70
64
  3
- - - - - - - - - - - - - - - - - - - -
 72
65
 73
2
 40
0.2
 49
0.1
 74
0
 49
-0.1
 74
0
  0
ENDTAB
  0
TABLE
  2
LAYER
  5
2
100
AcDbSymbolTable
 70
36
  0
LAYER
  5
10
100
AcDbSymbolTableRecord
100
AcDbLayerTableRecord
  2
0
 70
0
 62
7
  6
CONTINUOUS
370
-3
390
F
  0
LAYER
  5
1FA
100
AcDbSymbolTableRecord
100
AcDbLayerTableRecord
  2
DEFAULT_1
 70
0
 62
7
  6
CENTER
370
-3
390
F
  0
LAYER
  5
1FB
100
AcDbSymbolTableRecord
100
AcDbLayerTableRecord
  2
DEFAULT_2
 70
0
 62
7
  6
HIDDEN
370
-3
390
F
  0
LAYER
  5
1FC
100
AcDbSymbolTableRecord
100
AcDbLayerTableRecord
  2
DEFAULT_3
 70
0
 62
7
  6
PHANTOM
370
-3
390
F
  0
LAYER
  5
1FD
100
AcDbSymbolTableRecord
100
AcDbLayerTableRecord
  2
ASSI
 70
0
 62
7
  6
CONTINUOUS
370
-3
390
F
  0
LAYER
  5
1FE
100
AcDbSymbolTableRecord
100
AcDbLayerTableRecord
  2
COORDINATE
 70
0
 62
7
  6
CONTINUOUS
370
-3
390
F
  0
LAYER
  5
1FF
100
AcDbSymbolTableRecord
100
AcDbLayerTableRecord
  2
COPY_PUBLISH
 70
0
 62
7
  6
CONTINUOUS
370
-3
390
F
  0
LAYER
  5
200
100
AcDbSymbolTableRecord
100
AcDbLayerTableRecord
  2
COSMETIC
 70
0
 62
7
  6
CONTINUOUS
370
-3
390
F
  0
LAYER
  5
201
100
AcDbSymbolTableRecord
100
AcDbLayerTableRecord
  2
CURVE
 70
0
 62
7
  6
CONTINUOUS
370
-3
390
F
  0
LAYER
  5
202
100
AcDbSymbolTableRecord
100
AcDbLayerTableRecord
  2
IMPORT_IGES
 70
0
 62
7
  6
CONTINUOUS
370
-3
390
F
  0
LAYER
  5
203
100
AcDbSymbolTableRecord
100
AcDbLayerTableRecord
  2
INTF_1
 70
0
 62
7
  6
CONTINUOUS
370
-3
390
F
  0
LAYER
  5
204
100
AcDbSymbolTableRecord
100
AcDbLayerTableRecord
  2
NOTE
 70
0
 62
7
  6
CONTINUOUS
370
-3
390
F
  0
LAYER
  5
205
100
AcDbSymbolTableRecord
100
AcDbLayerTableRecord
  2
PIANI
 70
0
 62
7
  6
CONTINUOUS
370
-3
390
F
  0
LAYER
  5
206
100
AcDbSymbolTableRecord
100
AcDbLayerTableRecord
  2
PUNTI
 70
0
 62
7
  6
CONTINUOUS
370
-3
390
F
  0
LAYER
  5
207
100
AcDbSymbolTableRecord
100
AcDbLayerTableRecord
  2
RACCORDO
 70
0
 62
7
  6
CONTINUOUS
370
-3
390
F
  0
LAYER
  5
208
100
AcDbSymbolTableRecord
100
AcDbLayerTableRecord
  2
RGB____0____0____0__
 70
0
 62
7
  6
CONTINUOUS
370
-3
390
F
  0
LAYER
  5
209
100
AcDbSymbolTableRecord
100
AcDbLayerTableRecord
  2
SNAPLINE
 70
0
 62
7
  6
CONTINUOUS
370
-3
390
F
  0
LAYER
  5
20A
100
AcDbSymbolTableRecord
100
AcDbLayerTableRecord
  2
TRASH
 70
0
 62
7
  6
CONTINUOUS
370
-3
390
F
  0
ENDTAB
  0
TABLE
  2
STYLE
  5
3
100
AcDbSymbolTable
 70
1
  0
STYLE
  5
11
100
AcDbSymbolTableRecord
100
AcDbTextStyleTableRecord
  2
STANDARD
 70
0
 40
0.0
 41
0.8
 50
0.0
 71
0
 42
0.2
  3
txt
  4

  0
STYLE
  5
20B
100
AcDbSymbolTableRecord
100
AcDbTextStyleTableRecord
  2
TEXTSTYLE_1
 70
0
 40
0.0
 41
0.8
 50
0.0
 71
0
 42
0.2
  3
gdt
  4

  0
ENDTAB
  0
TABLE
  2
VIEW
  5
6
100
AcDbSymbolTable
 70
0
  0
ENDTAB
  0
TABLE
  2
UCS
  5
7
100
AcDbSymbolTable
 70
0
  0
ENDTAB
  0
TABLE
  2
APPID
  5
9
100
AcDbSymbolTable
 70
1
  0
APPID
  5
20C
100
AcDbSymbolTableRecord
100
AcDbRegAppTableRecord
  2
ACAD
 70
0
  0
ENDTAB
  0
TABLE
  2
BLOCK_RECORD
  5
1
100
AcDbSymbolTable
 70
0
  0
BLOCK_RECORD
  5
20D
100
AcDbSymbolTableRecord
100
AcDbBlockTableRecord
  2
*Model_Space
  0
BLOCK_RECORD
  5
20E
100
AcDbSymbolTableRecord
100
AcDbBlockTableRecord
  2
*Paper_Space
  0
BLOCK_RECORD
  5
20F
100
AcDbSymbolTableRecord
100
AcDbBlockTableRecord
  2
_FILLED
  0
ENDTAB
  0
TABLE
  2
DIMSTYLE
  5
A
100
AcDbSymbolTable
 70
1
100
AcDbDimStyleTable
 71
0
  0
DIMSTYLE
105
210
100
AcDbSymbolTableRecord
100
AcDbDimStyleTableRecord
  2
STANDARD
 70
0
  3

  4

 40
1.0
 41
3.0
 42
0.5
 43
0.38
 44
1.5
 45
0.0
 46
0.0
 47
0.01
 48
0.01
140
3.0
141
0.09
142
0.0
143
25.4
144
1.0
145
0.0
146
1.0
147
0.625
 71
1.0
 72
0.0
 73
0
 74
0
 75
0
 76
0
 77
1
 78
8
 79
2
170
0
171
1
172
0
173
0
174
0
175
0
176
0
177
0
178
0
270
2
179
2
271
2
272
2
273
2
274
2
275
0
280
0
281
0
282
0
283
1
284
8
285
0
286
0
287
3
288
0
340
11
278
44
341
20F
342
20F
343
20F
344
20F
  0
ENDTAB
  0
ENDSEC
  0
SECTION
  2
BLOCKS
  0
BLOCK
  5
20
100
AcDbEntity
  8
0
100
AcDbBlockBegin
  2
*Model_Space
 70
0
 10
0.0
 20
0.0
 30
0.0
  3
*Model_Space
  1

  0
ENDBLK
  5
21
100
AcDbEntity
  8
0
100
AcDbBlockEnd
  0
BLOCK
  5
1C
100
AcDbEntity
  8
0
100
AcDbBlockBegin
  2
*Paper_Space
 70
0
 10
0.0
 20
0.0
 30
0.0
  3
*Paper_Space
  1

  0
ENDBLK
  5
1D
100
AcDbEntity
  8
0
100
AcDbBlockEnd
  0
BLOCK
  5
211
100
AcDbEntity
  8
0
100
AcDbBlockBegin
  2
_FILLED
 70
64
 10
0.0
 20
0.0
  3
_FILLED
  1

  0
SOLID
  5
212
100
AcDbEntity
  8
0
  6
BYBLOCK
 62
0
100
AcDbTrace
 10
0.0
 20
0.0
 11
-1.0
 21
0.3166666667
 12
-1.0
 22
-0.3166666667
 13
-1.0
 23
-0.3166666667
  0
ENDBLK
  5
213
100
AcDbEntity
  8
0
  6
BYBLOCK
 62
0
100
AcDbBlockEnd
  0
ENDSEC
  0
SECTION
  2
ENTITIES
  0
LINE
  5
214
100
AcDbEntity
  8
0
100
AcDbLine
 62
7
  6
CONTINUOUS
 10
-46.8
 20
-23.85
 11
-46.8
 21
23.85
  0
LINE
  5
215
100
AcDbEntity
  8
0
100
AcDbLine
 62
250
  6
CONTINUOUS
 10
-46.05
 20
-23.85
 11
-46.05
 21
23.85
  0
LINE
  5
216
100
AcDbEntity
  8
0
100
AcDbLine
 62
7
  6
CONTINUOUS
 10
-45.9
 20
-23.85
 11
-45.9
 21
23.85
  0
LINE
  5
217
100
AcDbEntity
  8
0
100
AcDbLine
 62
250
  6
CONTINUOUS
 10
-45.6
 20
-23.85
 11
-45.6
 21
23.85
  0
LINE
  5
218
100
AcDbEntity
  8
0
100
AcDbLine
 62
250
  6
CONTINUOUS
 10
-45.4173933632
 20
23.85
 11
-45.4173933632
 21
-23.85
  0
LINE
  5
219
100
AcDbEntity
  8
0
100
AcDbLine
 62
250
  6
CONTINUOUS
 10
-45.1174047863
 20
23.85
 11
-45.1174047863
 21
-23.85
  0
LINE
  5
21A
100
AcDbEntity
  8
0
100
AcDbLine
 62
7
  6
CONTINUOUS
 10
-45.114752456
 20
23.85
 11
-45.114752456
 21
-23.85
  0
LINE
  5
21B
100
AcDbEntity
  8
0
100
AcDbLine
 62
250
  6
CONTINUOUS
 10
-44.9647581676
 20
23.85
 11
-44.9647581676
 21
-23.85
  0
LINE
  5
21C
100
AcDbEntity
  8
0
100
AcDbLine
 62
7
  6
CONTINUOUS
 10
-44.8265451508
 20
-23.85
 11
-44.8265451508
 21
23.85
  0
LINE
  5
21D
100
AcDbEntity
  8
0
100
AcDbLine
 62
7
  6
CONTINUOUS
 10
-44.82
 20
-23.85
 11
-44.82
 21
23.85
  0
LINE
  5
21E
100
AcDbEntity
  8
0
100
AcDbLine
 62
250
  6
CONTINUOUS
 10
-43.8
 20
24.8765451508
 11
-43.8
 21
24.87
  0
LINE
  5
21F
100
AcDbEntity
  8
0
100
AcDbLine
 62
250
  6
CONTINUOUS
 10
-43.8
 20
-24.8765451508
 11
-43.8
 21
-24.87
  0
LINE
  5
220
100
AcDbEntity
  8
0
100
AcDbLine
 62
250
  6
CONTINUOUS
 10
-43.8
 20
-25.0147581676
 11
-43.8
 21
-25.4673933632
  0
LINE
  5
221
100
AcDbEntity
  8
0
100
AcDbLine
 62
250
  6
CONTINUOUS
 10
-43.8
 20
-25.65
 11
-43.8
 21
-26.1
  0
LINE
  5
222
100
AcDbEntity
  8
0
100
AcDbLine
 62
250
  6
CONTINUOUS
 10
-43.8
 20
25.0147581676
 11
-43.8
 21
25.4673933632
  0
LINE
  5
223
100
AcDbEntity
  8
0
100
AcDbLine
 62
250
  6
CONTINUOUS
 10
-43.8
 20
25.65
 11
-43.8
 21
26.1
  0
LINE
  5
224
100
AcDbEntity
  8
0
100
AcDbLine
 62
7
  6
CONTINUOUS
 10
43.8
 20
-26.85
 11
-43.8
 21
-26.85
  0
LINE
  5
225
100
AcDbEntity
  8
0
100
AcDbLine
 62
250
  6
CONTINUOUS
 10
43.8
 20
-26.1
 11
-43.8
 21
-26.1
  0
LINE
  5
226
100
AcDbEntity
  8
0
100
AcDbLine
 62
7
  6
CONTINUOUS
 10
43.8
 20
-25.95
 11
-43.8
 21
-25.95
  0
LINE
  5
227
100
AcDbEntity
  8
0
100
AcDbLine
 62
250
  6
CONTINUOUS
 10
43.8
 20
-25.65
 11
-43.8
 21
-25.65
  0
LINE
  5
228
100
AcDbEntity
  8
0
100
AcDbLine
 62
250
  6
CONTINUOUS
 10
-43.8
 20
-25.4673933632
 11
43.8
 21
-25.4673933632
  0
LINE
  5
229
100
AcDbEntity
  8
0
100
AcDbLine
 62
250
  6
CONTINUOUS
 10
-43.8
 20
-25.1674047863
 11
43.8
 21
-25.1674047863
  0
LINE
  5
22A
100
AcDbEntity
  8
0
100
AcDbLine
 62
7
  6
CONTINUOUS
 10
-43.8
 20
-25.164752456
 11
43.8
 21
-25.164752456
  0
LINE
  5
22B
100
AcDbEntity
  8
0
100
AcDbLine
 62
250
  6
CONTINUOUS
 10
-43.8
 20
-25.0147581676
 11
43.8
 21
-25.0147581676
  0
LINE
  5
22C
100
AcDbEntity
  8
0
100
AcDbLine
 62
7
  6
CONTINUOUS
 10
43.8
 20
-24.8765451508
 11
-43.8
 21
-24.8765451508
  0
LINE
  5
22D
100
AcDbEntity
  8
0
100
AcDbLine
 62
7
  6
CONTINUOUS
 10
43.8
 20
-24.87
 11
-43.8
 21
-24.87
  0
LINE
  5
22E
100
AcDbEntity
  8
0
100
AcDbLine
 62
250
  6
CONTINUOUS
 10
-44.8265451508
 20
-23.85
 11
-44.82
 21
-23.85
  0
LINE
  5
22F
100
AcDbEntity
  8
0
100
AcDbLine
 62
250
  6
CONTINUOUS
 10
44.8265451508
 20
-23.85
 11
44.82
 21
-23.85
  0
LINE
  5
230
100
AcDbEntity
  8
0
100
AcDbLine
 62
250
  6
CONTINUOUS
 10
-44.9647581676
 20
-23.85
 11
-45.4173933632
 21
-23.85
  0
LINE
  5
231
100
AcDbEntity
  8
0
100
AcDbLine
 62
250
  6
CONTINUOUS
 10
44.9647581676
 20
-23.85
 11
45.4173933632
 21
-23.85
  0
LINE
  5
232
100
AcDbEntity
  8
0
100
AcDbLine
 62
250
  6
CONTINUOUS
 10
45.6
 20
-23.85
 11
46.05
 21
-23.85
  0
LINE
  5
233
100
AcDbEntity
  8
0
100
AcDbLine
 62
250
  6
CONTINUOUS
 10
-45.6
 20
-23.85
 11
-46.05
 21
-23.85
  0
LINE
  5
234
100
AcDbEntity
  8
0
100
AcDbLine
 62
7
  6
CONTINUOUS
 10
5.5233965929
 20
-19.3643438293
 11
5.6235647153
 21
-19.3412937741
  0
LINE
  5
235
100
AcDbEntity
  8
0
100
AcDbLine
 62
7
  6
CONTINUOUS
 10
1.8280607698
 20
-18.2687987708
 11
1.9282288921
 21
-18.2457487156
  0
LINE
  5
236
100
AcDbEntity
  8
0
100
AcDbLine
 62
7
  6
CONTINUOUS
 10
-0.5777526777
 20
-19.676800118
 11
-0.6688146071
 21
-19.6904594074
  0
LINE
  5
237
100
AcDbEntity
  8
0
100
AcDbLine
 62
7
  6
CONTINUOUS
 10
-2.9089380706
 20
-19.676800118
 11
-3.0
 21
-19.6904594074
  0
LINE
  5
238
100
AcDbEntity
  8
0
100
AcDbLine
 62
7
  6
CONTINUOUS
 10
-0.8645977553
 20
-19.3262116898
 11
-0.7735358259
 21
-19.3171054968
  0
LINE
  5
239
100
AcDbEntity
  8
0
100
AcDbLine
 62
7
  6
CONTINUOUS
 10
-2.0301904518
 20
-19.3262116898
 11
-1.9391285224
 21
-19.3171054968
  0
LINE
  5
23A
100
AcDbEntity
  8
0
100
AcDbLine
 62
7
  6
CONTINUOUS
 10
3.4471846023
 20
-19.6358222498
 11
3.3515695765
 21
-19.6403753462
  0
LINE
  5
23B
100
AcDbEntity
  8
0
100
AcDbLine
 62
7
  6
CONTINUOUS
 10
3.8250916094
 20
-19.3489771721
 11
3.9252597318
 21
-19.3444240757
  0
LINE
  5
23C
100
AcDbEntity
  8
0
100
AcDbLine
 62
7
  6
CONTINUOUS
 10
-3.0
 20
-21.0
 11
-2.8998318776
 21
-21.0
  0
LINE
  5
23D
100
AcDbEntity
  8
0
100
AcDbLine
 62
7
  6
CONTINUOUS
 10
-2.5310310635
 20
-21.0
 11
-2.4308629412
 21
-21.0
  0
LINE
  5
23E
100
AcDbEntity
  8
0
100
AcDbLine
 62
7
  6
CONTINUOUS
 10
-2.1677792815
 20
-21.0
 11
-2.0620621271
 21
-21.0
  0
LINE
  5
23F
100
AcDbEntity
  8
0
100
AcDbLine
 62
7
  6
CONTINUOUS
 10
-1.3927569459
 20
-21.0
 11
-0.9192349129
 21
-21.0
  0
LINE
  5
240
100
AcDbEntity
  8
0
100
AcDbLine
 62
7
  6
CONTINUOUS
 10
-1.5794339012
 20
-21.0
 11
-1.4729341019
 21
-21.0
  0
LINE
  5
241
100
AcDbEntity
  8
0
100
AcDbLine
 62
7
  6
CONTINUOUS
 10
-0.5953959178
 20
-21.0
 11
-0.4952277954
 21
-21.0
  0
LINE
  5
242
100
AcDbEntity
  8
0
100
AcDbLine
 62
7
  6
CONTINUOUS
 10
-0.9192349129
 20
-20.9134911671
 11
-1.2925888235
 21
-20.9134911671
  0
LINE
  5
243
100
AcDbEntity
  8
0
100
AcDbLine
 62
7
  6
CONTINUOUS
 10
-1.9828809066
 20
-20.7723451765
 11
-1.6632392918
 21
-20.7723451765
  0
LINE
  5
244
100
AcDbEntity
  8
0
100
AcDbLine
 62
7
  6
CONTINUOUS
 10
-1.6934746731
 20
-20.69038944
 11
-1.9543528931
 21
-20.69038944
  0
LINE
  5
245
100
AcDbEntity
  8
0
100
AcDbLine
 62
7
  6
CONTINUOUS
 10
-2.7768982729
 20
-20.3352479153
 11
-2.5310310635
 21
-20.3352479153
  0
LINE
  5
246
100
AcDbEntity
  8
0
100
AcDbLine
 62
7
  6
CONTINUOUS
 10
-2.4308629412
 20
-20.3352479153
 11
-2.1849957318
 21
-20.3352479153
  0
LINE
  5
247
100
AcDbEntity
  8
0
100
AcDbLine
 62
7
  6
CONTINUOUS
 10
-0.1947234284
 20
-20.2487390824
 11
-0.3155938798
 21
-20.2487390824
  0
LINE
  5
248
100
AcDbEntity
  8
0
100
AcDbLine
 62
7
  6
CONTINUOUS
 10
-0.7630779118
 20
-20.2487390824
 11
-0.8822409954
 21
-20.2487390824
  0
LINE
  5
249
100
AcDbEntity
  8
0
100
AcDbLine
 62
7
  6
CONTINUOUS
 10
-1.2925888235
 20
-20.2487390824
 11
-1.3927569459
 21
-20.2487390824
  0
LINE
  5
24A
100
AcDbEntity
  8
0
100
AcDbLine
 62
7
  6
CONTINUOUS
 10
-1.7738653283
 20
-20.2487390824
 11
-1.8822147817
 21
-20.2487390824
  0
LINE
  5
24B
100
AcDbEntity
  8
0
100
AcDbLine
 62
7
  6
CONTINUOUS
 10
-2.1849957318
 20
-20.2487390824
 11
-2.7768982729
 21
-20.2487390824
  0
LINE
  5
24C
100
AcDbEntity
  8
0
100
AcDbLine
 62
7
  6
CONTINUOUS
 10
-2.8998318776
 20
-20.2487390824
 11
-3.0
 21
-20.2487390824
  0
LINE
  5
24D
100
AcDbEntity
  8
0
100
AcDbLine
 62
7
  6
CONTINUOUS
 10
0.5494944496
 20
-19.8862425557
 11
0.6347227047
 21
-19.8862425557
  0
LINE
  5
24E
100
AcDbEntity
  8
0
100
AcDbLine
 62
7
  6
CONTINUOUS
 10
0.2326984941
 20
-19.8862425557
 11
0.3328666165
 21
-19.8862425557
  0
LINE
  5
24F
100
AcDbEntity
  8
0
100
AcDbLine
 62
7
  6
CONTINUOUS
 10
1.0330475374
 20
-19.8862425557
 11
1.1387646918
 21
-19.8862425557
  0
LINE
  5
250
100
AcDbEntity
  8
0
100
AcDbLine
 62
7
  6
CONTINUOUS
 10
0.8564727106
 20
-19.8862425557
 11
0.9566408329
 21
-19.8862425557
  0
LINE
  5
251
100
AcDbEntity
  8
0
100
AcDbLine
 62
7
  6
CONTINUOUS
 10
1.6213929176
 20
-19.8862425557
 11
1.7278927169
 21
-19.8862425557
  0
LINE
  5
252
100
AcDbEntity
  8
0
100
AcDbLine
 62
7
  6
CONTINUOUS
 10
1.8171760659
 20
-19.8862425557
 11
1.9173441882
 21
-19.8862425557
  0
LINE
  5
253
100
AcDbEntity
  8
0
100
AcDbLine
 62
7
  6
CONTINUOUS
 10
2.3507420715
 20
-19.8862425557
 11
2.4684111476
 21
-19.8862425557
  0
LINE
  5
254
100
AcDbEntity
  8
0
100
AcDbLine
 62
7
  6
CONTINUOUS
 10
4.2712950635
 20
-19.8862425557
 11
4.3714631859
 21
-19.8862425557
  0
LINE
  5
255
100
AcDbEntity
  8
0
100
AcDbLine
 62
7
  6
CONTINUOUS
 10
4.731157807
 20
-19.8862425557
 11
4.8313259294
 21
-19.8862425557
  0
LINE
  5
256
100
AcDbEntity
  8
0
100
AcDbLine
 62
7
  6
CONTINUOUS
 10
5.6817590338
 20
-19.8862425557
 11
5.7874761882
 21
-19.8862425557
  0
LINE
  5
257
100
AcDbEntity
  8
0
100
AcDbLine
 62
7
  6
CONTINUOUS
 10
6.2701044141
 20
-19.8862425557
 11
6.3766042134
 21
-19.8862425557
  0
LINE
  5
258
100
AcDbEntity
  8
0
100
AcDbLine
 62
7
  6
CONTINUOUS
 10
6.9714947002
 20
-19.8862425557
 11
7.0792750774
 21
-19.8862425557
  0
LINE
  5
259
100
AcDbEntity
  8
0
100
AcDbLine
 62
7
  6
CONTINUOUS
 10
7.4630156894
 20
-19.8862425557
 11
7.5631838117
 21
-19.8862425557
  0
LINE
  5
25A
100
AcDbEntity
  8
0
100
AcDbLine
 62
7
  6
CONTINUOUS
 10
1.2179459122
 20
-19.6585877321
 11
1.537587527
 21
-19.6585877321
  0
LINE
  5
25B
100
AcDbEntity
  8
0
100
AcDbLine
 62
7
  6
CONTINUOUS
 10
5.8666574087
 20
-19.6585877321
 11
6.1862990234
 21
-19.6585877321
  0
LINE
  5
25C
100
AcDbEntity
  8
0
100
AcDbLine
 62
7
  6
CONTINUOUS
 10
6.1560636422
 20
-19.5766319957
 11
5.8951854222
 21
-19.5766319957
  0
LINE
  5
25D
100
AcDbEntity
  8
0
100
AcDbLine
 62
7
  6
CONTINUOUS
 10
1.5073521457
 20
-19.5766319957
 11
1.2464739257
 21
-19.5766319957
  0
LINE
  5
25E
100
AcDbEntity
  8
0
100
AcDbLine
 62
7
  6
CONTINUOUS
 10
1.9173441882
 20
-19.5538665133
 11
2.0315273161
 21
-19.5538665133
  0
LINE
  5
25F
100
AcDbEntity
  8
0
100
AcDbLine
 62
7
  6
CONTINUOUS
 10
2.1289209224
 20
-19.4673576804
 11
1.9173441882
 21
-19.4673576804
  0
LINE
  5
260
100
AcDbEntity
  8
0
100
AcDbLine
 62
7
  6
CONTINUOUS
 10
1.9173441882
 20
-19.221490471
 11
2.1528246963
 21
-19.221490471
  0
LINE
  5
261
100
AcDbEntity
  8
0
100
AcDbLine
 62
7
  6
CONTINUOUS
 10
4.3714631859
 20
-19.221490471
 11
4.6173303953
 21
-19.221490471
  0
LINE
  5
262
100
AcDbEntity
  8
0
100
AcDbLine
 62
7
  6
CONTINUOUS
 10
4.0254278541
 20
-19.221490471
 11
4.2712950635
 21
-19.221490471
  0
LINE
  5
263
100
AcDbEntity
  8
0
100
AcDbLine
 62
7
  6
CONTINUOUS
 10
7.5631838117
 20
-19.134981638
 11
7.4630156894
 21
-19.134981638
  0
LINE
  5
264
100
AcDbEntity
  8
0
100
AcDbLine
 62
7
  6
CONTINUOUS
 10
7.3789257259
 20
-19.134981638
 11
7.2717856376
 21
-19.134981638
  0
LINE
  5
265
100
AcDbEntity
  8
0
100
AcDbLine
 62
7
  6
CONTINUOUS
 10
6.7891574117
 20
-19.134981638
 11
6.682657682
 21
-19.134981638
  0
LINE
  5
266
100
AcDbEntity
  8
0
100
AcDbLine
 62
7
  6
CONTINUOUS
 10
6.075672987
 20
-19.134981638
 11
5.9673235335
 21
-19.134981638
  0
LINE
  5
267
100
AcDbEntity
  8
0
100
AcDbLine
 62
7
  6
CONTINUOUS
 10
4.8313259294
 20
-19.134981638
 11
4.731157807
 21
-19.134981638
  0
LINE
  5
268
100
AcDbEntity
  8
0
100
AcDbLine
 62
7
  6
CONTINUOUS
 10
4.6173303953
 20
-19.134981638
 11
4.0254278541
 21
-19.134981638
  0
LINE
  5
269
100
AcDbEntity
  8
0
100
AcDbLine
 62
7
  6
CONTINUOUS
 10
2.1487696023
 20
-19.134981638
 11
1.8171760659
 21
-19.134981638
  0
LINE
  5
26A
100
AcDbEntity
  8
0
100
AcDbLine
 62
7
  6
CONTINUOUS
 10
1.4269614905
 20
-19.134981638
 11
1.3186120371
 21
-19.134981638
  0
LINE
  5
26B
100
AcDbEntity
  8
0
100
AcDbLine
 62
7
  6
CONTINUOUS
 10
0.9566408329
 20
-19.134981638
 11
0.8263084725
 21
-19.134981638
  0
LINE
  5
26C
100
AcDbEntity
  8
0
100
AcDbLine
 62
7
  6
CONTINUOUS
 10
0.3853695471
 20
-19.134981638
 11
0.2326984941
 21
-19.134981638
  0
LINE
  5
26D
100
AcDbEntity
  8
0
100
AcDbLine
 62
7
  6
CONTINUOUS
 10
-2.7111629817
 20
-18.7906974972
 11
-2.6033826045
 21
-18.7906974972
  0
LINE
  5
26E
100
AcDbEntity
  8
0
100
AcDbLine
 62
7
  6
CONTINUOUS
 10
-2.0248547799
 20
-18.7906974972
 11
-1.9191376255
 21
-18.7906974972
  0
LINE
  5
26F
100
AcDbEntity
  8
0
100
AcDbLine
 62
7
  6
CONTINUOUS
 10
-2.2196419926
 20
-18.7906974972
 11
-2.1194738702
 21
-18.7906974972
  0
LINE
  5
270
100
AcDbEntity
  8
0
100
AcDbLine
 62
7
  6
CONTINUOUS
 10
-1.2498324443
 20
-18.7906974972
 11
-0.7763104114
 21
-18.7906974972
  0
LINE
  5
271
100
AcDbEntity
  8
0
100
AcDbLine
 62
7
  6
CONTINUOUS
 10
-1.4365093996
 20
-18.7906974972
 11
-1.3300096003
 21
-18.7906974972
  0
LINE
  5
272
100
AcDbEntity
  8
0
100
AcDbLine
 62
7
  6
CONTINUOUS
 10
-0.6579299031
 20
-18.7906974972
 11
-0.1024521337
 21
-18.7906974972
  0
LINE
  5
273
100
AcDbEntity
  8
0
100
AcDbLine
 62
7
  6
CONTINUOUS
 10
0.5443009947
 20
-18.7906974972
 11
0.6520813719
 21
-18.7906974972
  0
LINE
  5
274
100
AcDbEntity
  8
0
100
AcDbLine
 62
7
  6
CONTINUOUS
 10
1.0358219839
 20
-18.7906974972
 11
1.1359901063
 21
-18.7906974972
  0
LINE
  5
275
100
AcDbEntity
  8
0
100
AcDbLine
 62
7
  6
CONTINUOUS
 10
2.0739279792
 20
-18.7906974972
 11
2.6294057486
 21
-18.7906974972
  0
LINE
  5
276
100
AcDbEntity
  8
0
100
AcDbLine
 62
7
  6
CONTINUOUS
 10
2.7705517392
 20
-18.7906974972
 11
2.8707198616
 21
-18.7906974972
  0
LINE
  5
277
100
AcDbEntity
  8
0
100
AcDbLine
 62
7
  6
CONTINUOUS
 10
3.2468483576
 20
-18.7906974972
 11
3.3533480874
 21
-18.7906974972
  0
LINE
  5
278
100
AcDbEntity
  8
0
100
AcDbLine
 62
7
  6
CONTINUOUS
 10
3.4580693063
 20
-18.7906974972
 11
4.0545249439
 21
-18.7906974972
  0
LINE
  5
279
100
AcDbEntity
  8
0
100
AcDbLine
 62
7
  6
CONTINUOUS
 10
4.0762944907
 20
-18.7906974972
 11
4.1820116451
 21
-18.7906974972
  0
LINE
  5
27A
100
AcDbEntity
  8
0
100
AcDbLine
 62
7
  6
CONTINUOUS
 10
4.664639871
 20
-18.7906974972
 11
4.7711396702
 21
-18.7906974972
  0
LINE
  5
27B
100
AcDbEntity
  8
0
100
AcDbLine
 62
7
  6
CONTINUOUS
 10
5.3658167274
 20
-18.7906974972
 11
5.4568786568
 21
-18.7906974972
  0
LINE
  5
27C
100
AcDbEntity
  8
0
100
AcDbLine
 62
7
  6
CONTINUOUS
 10
5.9941440404
 20
-18.7906974972
 11
6.0852059698
 21
-18.7906974972
  0
LINE
  5
27D
100
AcDbEntity
  8
0
100
AcDbLine
 62
7
  6
CONTINUOUS
 10
4.0545249439
 20
-18.7041886643
 11
3.5715410714
 21
-18.7041886643
  0
LINE
  5
27E
100
AcDbEntity
  8
0
100
AcDbLine
 62
7
  6
CONTINUOUS
 10
2.6294057486
 20
-18.7041886643
 11
2.1740961016
 21
-18.7041886643
  0
LINE
  5
27F
100
AcDbEntity
  8
0
100
AcDbLine
 62
7
  6
CONTINUOUS
 10
-0.1024521337
 20
-18.7041886643
 11
-0.5577617808
 21
-18.7041886643
  0
LINE
  5
280
100
AcDbEntity
  8
0
100
AcDbLine
 62
7
  6
CONTINUOUS
 10
-0.7763104114
 20
-18.7041886643
 11
-1.149664322
 21
-18.7041886643
  0
LINE
  5
281
100
AcDbEntity
  8
0
100
AcDbLine
 62
7
  6
CONTINUOUS
 10
6.0852059698
 20
-18.6131267348
 11
6.1853740921
 21
-18.6131267348
  0
LINE
  5
282
100
AcDbEntity
  8
0
100
AcDbLine
 62
7
  6
CONTINUOUS
 10
5.661767998
 20
-18.6131267348
 11
5.9941440404
 21
-18.6131267348
  0
LINE
  5
283
100
AcDbEntity
  8
0
100
AcDbLine
 62
7
  6
CONTINUOUS
 10
-1.8399564051
 20
-18.5630426737
 11
-1.5203147903
 21
-18.5630426737
  0
LINE
  5
284
100
AcDbEntity
  8
0
100
AcDbLine
 62
7
  6
CONTINUOUS
 10
4.2611928655
 20
-18.5630426737
 11
4.5808344803
 21
-18.5630426737
  0
LINE
  5
285
100
AcDbEntity
  8
0
100
AcDbLine
 62
7
  6
CONTINUOUS
 10
6.1853740921
 20
-18.5266179019
 11
6.0852059698
 21
-18.5266179019
  0
LINE
  5
286
100
AcDbEntity
  8
0
100
AcDbLine
 62
7
  6
CONTINUOUS
 10
5.9941440404
 20
-18.5266179019
 11
5.7529722139
 21
-18.5266179019
  0
LINE
  5
287
100
AcDbEntity
  8
0
100
AcDbLine
 62
7
  6
CONTINUOUS
 10
4.550599099
 20
-18.4810869372
 11
4.2897208791
 21
-18.4810869372
  0
LINE
  5
288
100
AcDbEntity
  8
0
100
AcDbLine
 62
7
  6
CONTINUOUS
 10
-1.5505501716
 20
-18.4810869372
 11
-1.8114283915
 21
-18.4810869372
  0
LINE
  5
289
100
AcDbEntity
  8
0
100
AcDbLine
 62
7
  6
CONTINUOUS
 10
-0.5577617808
 20
-18.4446621654
 11
-0.1479830984
 21
-18.4446621654
  0
LINE
  5
28A
100
AcDbEntity
  8
0
100
AcDbLine
 62
7
  6
CONTINUOUS
 10
2.1740961016
 20
-18.4446621654
 11
2.5838747839
 21
-18.4446621654
  0
LINE
  5
28B
100
AcDbEntity
  8
0
100
AcDbLine
 62
7
  6
CONTINUOUS
 10
2.5838747839
 20
-18.3581533325
 11
2.1740961016
 21
-18.3581533325
  0
LINE
  5
28C
100
AcDbEntity
  8
0
100
AcDbLine
 62
7
  6
CONTINUOUS
 10
-0.1479830984
 20
-18.3581533325
 11
-0.5577617808
 21
-18.3581533325
  0
LINE
  5
28D
100
AcDbEntity
  8
0
100
AcDbLine
 62
7
  6
CONTINUOUS
 10
-0.5577617808
 20
-18.1259454125
 11
-0.1206645196
 21
-18.1259454125
  0
LINE
  5
28E
100
AcDbEntity
  8
0
100
AcDbLine
 62
7
  6
CONTINUOUS
 10
2.1740961016
 20
-18.1259454125
 11
2.6111933627
 21
-18.1259454125
  0
LINE
  5
28F
100
AcDbEntity
  8
0
100
AcDbLine
 62
7
  6
CONTINUOUS
 10
3.503600271
 20
-18.1259454125
 11
3.9199240599
 21
-18.1259454125
  0
LINE
  5
290
100
AcDbEntity
  8
0
100
AcDbLine
 62
7
  6
CONTINUOUS
 10
6.0852059698
 20
-18.0394365796
 11
6.0123564263
 21
-18.0394365796
  0
LINE
  5
291
100
AcDbEntity
  8
0
100
AcDbLine
 62
7
  6
CONTINUOUS
 10
4.4702084439
 20
-18.0394365796
 11
4.3618589904
 21
-18.0394365796
  0
LINE
  5
292
100
AcDbEntity
  8
0
100
AcDbLine
 62
7
  6
CONTINUOUS
 10
4.036312558
 20
-18.0394365796
 11
3.503600271
 21
-18.0394365796
  0
LINE
  5
293
100
AcDbEntity
  8
0
100
AcDbLine
 62
7
  6
CONTINUOUS
 10
3.3533480874
 20
-18.0394365796
 11
3.2531799651
 21
-18.0394365796
  0
LINE
  5
294
100
AcDbEntity
  8
0
100
AcDbLine
 62
7
  6
CONTINUOUS
 10
2.8770515385
 20
-18.0394365796
 11
2.7705517392
 21
-18.0394365796
  0
LINE
  5
295
100
AcDbEntity
  8
0
100
AcDbLine
 62
7
  6
CONTINUOUS
 10
2.6111933627
 20
-18.0394365796
 11
2.0739279792
 21
-18.0394365796
  0
LINE
  5
296
100
AcDbEntity
  8
0
100
AcDbLine
 62
7
  6
CONTINUOUS
 10
1.1359901063
 20
-18.0394365796
 11
1.0358219839
 21
-18.0394365796
  0
LINE
  5
297
100
AcDbEntity
  8
0
100
AcDbLine
 62
7
  6
CONTINUOUS
 10
0.9517320204
 20
-18.0394365796
 11
0.8445919321
 21
-18.0394365796
  0
LINE
  5
298
100
AcDbEntity
  8
0
100
AcDbLine
 62
7
  6
CONTINUOUS
 10
0.3619637063
 20
-18.0394365796
 11
0.2554639765
 21
-18.0394365796
  0
LINE
  5
299
100
AcDbEntity
  8
0
100
AcDbLine
 62
7
  6
CONTINUOUS
 10
-0.1206645196
 20
-18.0394365796
 11
-0.6579299031
 21
-18.0394365796
  0
LINE
  5
29A
100
AcDbEntity
  8
0
100
AcDbLine
 62
7
  6
CONTINUOUS
 10
-1.149664322
 20
-18.0394365796
 11
-1.2498324443
 21
-18.0394365796
  0
LINE
  5
29B
100
AcDbEntity
  8
0
100
AcDbLine
 62
7
  6
CONTINUOUS
 10
-1.6309408267
 20
-18.0394365796
 11
-1.7392902802
 21
-18.0394365796
  0
LINE
  5
29C
100
AcDbEntity
  8
0
100
AcDbLine
 62
7
  6
CONTINUOUS
 10
-2.1194738702
 20
-18.0394365796
 11
-2.2196419926
 21
-18.0394365796
  0
LINE
  5
29D
100
AcDbEntity
  8
0
100
AcDbLine
 62
7
  6
CONTINUOUS
 10
-2.3037319561
 20
-18.0394365796
 11
-2.4108720443
 21
-18.0394365796
  0
LINE
  5
29E
100
AcDbEntity
  8
0
100
AcDbLine
 62
7
  6
CONTINUOUS
 10
-2.8935002702
 20
-18.0394365796
 11
-3.0
 21
-18.0394365796
  0
LINE
  5
29F
100
AcDbEntity
  8
0
100
AcDbLine
 62
7
  6
CONTINUOUS
 10
5.4568786568
 20
-18.0348834831
 11
5.3981864052
 21
-18.0348834831
  0
LINE
  5
2A0
100
AcDbEntity
  8
0
100
AcDbLine
 62
7
  6
CONTINUOUS
 10
-2.7111629817
 20
-17.6905993423
 11
-2.6033826045
 21
-17.6905993423
  0
LINE
  5
2A1
100
AcDbEntity
  8
0
100
AcDbLine
 62
7
  6
CONTINUOUS
 10
-1.9510093008
 20
-17.6905993423
 11
-1.8508411784
 21
-17.6905993423
  0
LINE
  5
2A2
100
AcDbEntity
  8
0
100
AcDbLine
 62
7
  6
CONTINUOUS
 10
-2.2196419926
 20
-17.6905993423
 11
-2.1194738702
 21
-17.6905993423
  0
LINE
  5
2A3
100
AcDbEntity
  8
0
100
AcDbLine
 62
7
  6
CONTINUOUS
 10
-1.1506602575
 20
-17.6905993423
 11
-1.0449431031
 21
-17.6905993423
  0
LINE
  5
2A4
100
AcDbEntity
  8
0
100
AcDbLine
 62
7
  6
CONTINUOUS
 10
-1.3272350843
 20
-17.6905993423
 11
-1.227066962
 21
-17.6905993423
  0
LINE
  5
2A5
100
AcDbEntity
  8
0
100
AcDbLine
 62
7
  6
CONTINUOUS
 10
-1.6342133453
 20
-17.6905993423
 11
-1.5489850902
 21
-17.6905993423
  0
LINE
  5
2A6
100
AcDbEntity
  8
0
100
AcDbLine
 62
7
  6
CONTINUOUS
 10
-0.5623148773
 20
-17.6905993423
 11
-0.455815078
 21
-17.6905993423
  0
LINE
  5
2A7
100
AcDbEntity
  8
0
100
AcDbLine
 62
7
  6
CONTINUOUS
 10
-0.366531729
 20
-17.6905993423
 11
-0.2663636067
 21
-17.6905993423
  0
LINE
  5
2A8
100
AcDbEntity
  8
0
100
AcDbLine
 62
7
  6
CONTINUOUS
 10
0.1670342766
 20
-17.6905993423
 11
0.2847033527
 21
-17.6905993423
  0
LINE
  5
2A9
100
AcDbEntity
  8
0
100
AcDbLine
 62
7
  6
CONTINUOUS
 10
1.3773042192
 20
-17.6905993423
 11
1.4774723416
 21
-17.6905993423
  0
LINE
  5
2AA
100
AcDbEntity
  8
0
100
AcDbLine
 62
7
  6
CONTINUOUS
 10
1.9864232107
 20
-17.6905993423
 11
2.0921403651
 21
-17.6905993423
  0
LINE
  5
2AB
100
AcDbEntity
  8
0
100
AcDbLine
 62
7
  6
CONTINUOUS
 10
2.574768591
 20
-17.6905993423
 11
2.6812683902
 21
-17.6905993423
  0
LINE
  5
2AC
100
AcDbEntity
  8
0
100
AcDbLine
 62
7
  6
CONTINUOUS
 10
-2.9908938071
 20
-19.3262116898
 11
-2.8998318776
 21
-19.3398709792
  0
LINE
  5
2AD
100
AcDbEntity
  8
0
100
AcDbLine
 62
7
  6
CONTINUOUS
 10
-0.6597084141
 20
-19.3262116898
 11
-0.5686464847
 21
-19.3398709792
  0
LINE
  5
2AE
100
AcDbEntity
  8
0
100
AcDbLine
 62
7
  6
CONTINUOUS
 10
5.6417771012
 20
-19.6477029587
 11
5.5416089788
 21
-19.6225897502
  0
LINE
  5
2AF
100
AcDbEntity
  8
0
100
AcDbLine
 62
7
  6
CONTINUOUS
 10
1.946441278
 20
-18.5521579003
 11
1.8462731557
 21
-18.5270446917
  0
LINE
  5
2B0
100
AcDbEntity
  8
0
100
AcDbLine
 62
7
  6
CONTINUOUS
 10
0.7398707133
 20
-17.4401790364
 11
0.6442556874
 21
-17.4447321329
  0
LINE
  5
2B1
100
AcDbEntity
  8
0
100
AcDbLine
 62
7
  6
CONTINUOUS
 10
1.1177777204
 20
-17.1533339587
 11
1.2179458427
 21
-17.1487808623
  0
LINE
  5
2B2
100
AcDbEntity
  8
0
100
AcDbLine
 62
7
  6
CONTINUOUS
 10
-0.9657618827
 20
-17.4629445187
 11
-0.6461202679
 21
-17.4629445187
  0
LINE
  5
2B3
100
AcDbEntity
  8
0
100
AcDbLine
 62
7
  6
CONTINUOUS
 10
2.1713215855
 20
-17.4629445187
 11
2.4909632003
 21
-17.4629445187
  0
LINE
  5
2B4
100
AcDbEntity
  8
0
100
AcDbLine
 62
7
  6
CONTINUOUS
 10
2.460727819
 20
-17.3809887823
 11
2.1998495991
 21
-17.3809887823
  0
LINE
  5
2B5
100
AcDbEntity
  8
0
100
AcDbLine
 62
7
  6
CONTINUOUS
 10
-0.6763556492
 20
-17.3809887823
 11
-0.9372338692
 21
-17.3809887823
  0
LINE
  5
2B6
100
AcDbEntity
  8
0
100
AcDbLine
 62
7
  6
CONTINUOUS
 10
1.4774723416
 20
-17.3809887823
 11
1.6644338697
 21
-17.3809887823
  0
LINE
  5
2B7
100
AcDbEntity
  8
0
100
AcDbLine
 62
7
  6
CONTINUOUS
 10
-0.2663636067
 20
-17.3582232999
 11
-0.1521804788
 21
-17.3582232999
  0
LINE
  5
2B8
100
AcDbEntity
  8
0
100
AcDbLine
 62
7
  6
CONTINUOUS
 10
1.665501018
 20
-17.2944799493
 11
1.4774723416
 21
-17.2944799493
  0
LINE
  5
2B9
100
AcDbEntity
  8
0
100
AcDbLine
 62
7
  6
CONTINUOUS
 10
-0.0547868725
 20
-17.271714467
 11
-0.2663636067
 21
-17.271714467
  0
LINE
  5
2BA
100
AcDbEntity
  8
0
100
AcDbLine
 62
7
  6
CONTINUOUS
 10
-0.2663636067
 20
-17.0258472576
 11
-0.0308830987
 21
-17.0258472576
  0
LINE
  5
2BB
100
AcDbEntity
  8
0
100
AcDbLine
 62
7
  6
CONTINUOUS
 10
1.4774723416
 20
-17.0258472576
 11
1.6635090774
 21
-17.0258472576
  0
LINE
  5
2BC
100
AcDbEntity
  8
0
100
AcDbLine
 62
7
  6
CONTINUOUS
 10
2.3803371639
 20
-16.9393384246
 11
2.2719877104
 21
-16.9393384246
  0
LINE
  5
2BD
100
AcDbEntity
  8
0
100
AcDbLine
 62
7
  6
CONTINUOUS
 10
1.6540471683
 20
-16.9393384246
 11
1.3773042192
 21
-16.9393384246
  0
LINE
  5
2BE
100
AcDbEntity
  8
0
100
AcDbLine
 62
7
  6
CONTINUOUS
 10
-0.0349381926
 20
-16.9393384246
 11
-0.366531729
 21
-16.9393384246
  0
LINE
  5
2BF
100
AcDbEntity
  8
0
100
AcDbLine
 62
7
  6
CONTINUOUS
 10
-0.7567463044
 20
-16.9393384246
 11
-0.8650957578
 21
-16.9393384246
  0
LINE
  5
2C0
100
AcDbEntity
  8
0
100
AcDbLine
 62
7
  6
CONTINUOUS
 10
-1.227066962
 20
-16.9393384246
 11
-1.3573993224
 21
-16.9393384246
  0
LINE
  5
2C1
100
AcDbEntity
  8
0
100
AcDbLine
 62
7
  6
CONTINUOUS
 10
-1.7983382479
 20
-16.9393384246
 11
-1.9510093008
 21
-16.9393384246
  0
LINE
  5
2C2
100
AcDbEntity
  8
0
100
AcDbLine
 62
7
  6
CONTINUOUS
 10
-2.1194738702
 20
-16.9393384246
 11
-2.2196419926
 21
-16.9393384246
  0
LINE
  5
2C3
100
AcDbEntity
  8
0
100
AcDbLine
 62
7
  6
CONTINUOUS
 10
-2.3037319561
 20
-16.9393384246
 11
-2.4108720443
 21
-16.9393384246
  0
LINE
  5
2C4
100
AcDbEntity
  8
0
100
AcDbLine
 62
7
  6
CONTINUOUS
 10
-2.8935002702
 20
-16.9393384246
 11
-3.0
 21
-16.9393384246
  0
LINE
  5
2C5
100
AcDbEntity
  8
0
100
AcDbLine
 62
7
  6
CONTINUOUS
 10
-1.9306249452
 20
13.4690425531
 11
-1.873125
 21
13.5277659555
  0
LINE
  5
2C6
100
AcDbEntity
  8
0
100
AcDbLine
 62
7
  6
CONTINUOUS
 10
-3.6759999969
 20
10.9897970584
 11
-3.6369999969
 21
11.0229885438
  0
LINE
  5
2C7
100
AcDbEntity
  8
0
100
AcDbLine
 62
7
  6
CONTINUOUS
 10
-3.078
 20
10.9897970584
 11
-3.039
 21
11.0229885438
  0
LINE
  5
2C8
100
AcDbEntity
  8
0
100
AcDbLine
 62
7
  6
CONTINUOUS
 10
-3.0520000248
 20
11.1059672573
 11
-3.117
 21
11.0561800292
  0
LINE
  5
2C9
100
AcDbEntity
  8
0
100
AcDbLine
 62
7
  6
CONTINUOUS
 10
-1.959375
 20
13.5571276644
 11
-2.0025
 21
13.5277659555
  0
LINE
  5
2CA
100
AcDbEntity
  8
0
100
AcDbLine
 62
7
  6
CONTINUOUS
 10
0.6406778629
 20
12.765
 11
0.4805083715
 21
12.6622340548
  0
LINE
  5
2CB
100
AcDbEntity
  8
0
100
AcDbLine
 62
7
  6
CONTINUOUS
 10
-3.6500000031
 20
11.1059672573
 11
-3.702
 21
11.0727757719
  0
LINE
  5
2CC
100
AcDbEntity
  8
0
100
AcDbLine
 62
7
  6
CONTINUOUS
 10
-0.5072033908
 20
12.7062766027
 11
-0.5872881365
 21
12.6622340548
  0
LINE
  5
2CD
100
AcDbEntity
  8
0
100
AcDbLine
 62
7
  6
CONTINUOUS
 10
0.0800846428
 20
12.1337234024
 11
0.1601693885
 21
12.1777659555
  0
LINE
  5
2CE
100
AcDbEntity
  8
0
100
AcDbLine
 62
7
  6
CONTINUOUS
 10
1.2012710831
 20
12.7062766027
 11
1.1211863373
 21
12.6622340548
  0
LINE
  5
2CF
100
AcDbEntity
  8
0
100
AcDbLine
 62
7
  6
CONTINUOUS
 10
-1.9881250548
 20
13.4396808506
 11
-1.9306249452
 21
13.4690425531
  0
LINE
  5
2D0
100
AcDbEntity
  8
0
100
AcDbLine
 62
7
  6
CONTINUOUS
 10
-0.427118645
 20
12.6475532055
 11
-0.3470338993
 21
12.6769149041
  0
LINE
  5
2D1
100
AcDbEntity
  8
0
100
AcDbLine
 62
7
  6
CONTINUOUS
 10
-0.0000001029
 20
12.1924468048
 11
-0.0800848487
 21
12.1630851062
  0
LINE
  5
2D2
100
AcDbEntity
  8
0
100
AcDbLine
 62
7
  6
CONTINUOUS
 10
1.2813558288
 20
12.6475532055
 11
1.3614405745
 21
12.6769149041
  0
LINE
  5
2D3
100
AcDbEntity
  8
0
100
AcDbLine
 62
7
  6
CONTINUOUS
 10
1.7084746764
 20
12.1924468048
 11
1.6283899307
 21
12.1630851062
  0
LINE
  5
2D4
100
AcDbEntity
  8
0
100
AcDbLine
 62
7
  6
CONTINUOUS
 10
-0.3737287127
 20
12.7503191507
 11
-0.5072033908
 21
12.7062766027
  0
LINE
  5
2D5
100
AcDbEntity
  8
0
100
AcDbLine
 62
7
  6
CONTINUOUS
 10
1.3347457611
 20
12.7503191507
 11
1.2012710831
 21
12.7062766027
  0
LINE
  5
2D6
100
AcDbEntity
  8
0
100
AcDbLine
 62
7
  6
CONTINUOUS
 10
-0.0533897298
 20
12.0896808506
 11
0.0800846428
 21
12.1337234024
  0
LINE
  5
2D7
100
AcDbEntity
  8
0
100
AcDbLine
 62
7
  6
CONTINUOUS
 10
1.6550847441
 20
12.0896808506
 11
1.7885594221
 21
12.1337234024
  0
LINE
  5
2D8
100
AcDbEntity
  8
0
100
AcDbLine
 62
7
  6
CONTINUOUS
 10
-2.3240000496
 20
10.4587332105
 11
-2.376
 21
10.4421374678
  0
LINE
  5
2D9
100
AcDbEntity
  8
ASSI
100
AcDbLine
 62
7
  6
CONTINUOUS
 10
0.4971165
 20
-13.3125
 11
0.9352668
 21
-13.3125
  0
LINE
  5
2DA
100
AcDbEntity
  8
ASSI
100
AcDbLine
 62
7
  6
CONTINUOUS
 10
0.9352668
 20
-13.0875
 11
0.4971155796
 21
-13.0875
  0
LINE
  5
2DB
100
AcDbEntity
  8
0
100
AcDbLine
 62
7
  6
CONTINUOUS
 10
-0.8822409954
 20
-20.2487390824
 11
-0.5953959178
 21
-20.6817811801
  0
LINE
  5
2DC
100
AcDbEntity
  8
0
100
AcDbLine
 62
7
  6
CONTINUOUS
 10
-0.6183036866
 20
-20.4779589872
 11
-0.7630779118
 21
-20.2487390824
  0
LINE
  5
2DD
100
AcDbEntity
  8
0
100
AcDbLine
 62
7
  6
CONTINUOUS
 10
-2.3232729
 20
16.5300312
 11
-2.6681538
 21
15.4558386
  0
LINE
  5
2DE
100
AcDbEntity
  8
0
100
AcDbLine
 62
7
  6
CONTINUOUS
 10
-2.512146
 20
14.969961
 11
-2.0112573
 21
16.5300312
  0
LINE
  5
2DF
100
AcDbEntity
  8
0
100
AcDbLine
 62
7
  6
CONTINUOUS
 10
-2.9368749726
 20
13.6598936096
 11
-2.8074999726
 21
14.0562766027
  0
LINE
  5
2E0
100
AcDbEntity
  8
0
100
AcDbLine
 62
7
  6
CONTINUOUS
 10
-3.0087500274
 20
13.425
 11
-2.95125
 21
13.6011702123
  0
LINE
  5
2E1
100
AcDbEntity
  8
0
100
AcDbLine
 62
7
  6
CONTINUOUS
 10
-2.865
 20
14.115
 11
-3.0950000274
 21
13.425
  0
LINE
  5
2E2
100
AcDbEntity
  8
0
100
AcDbLine
 62
7
  6
CONTINUOUS
 10
-3.339375
 20
14.115
 11
-3.555
 21
13.4984042569
  0
LINE
  5
2E3
100
AcDbEntity
  8
0
100
AcDbLine
 62
7
  6
CONTINUOUS
 10
-3.4975000137
 20
13.425
 11
-3.29625
 21
13.9681915069
  0
LINE
  5
2E4
100
AcDbEntity
  8
0
100
AcDbLine
 62
7
  6
CONTINUOUS
 10
-3.39
 20
10.9068182984
 11
-3.4160000124
 21
10.8404353276
  0
LINE
  5
2E5
100
AcDbEntity
  8
0
100
AcDbLine
 62
7
  6
CONTINUOUS
 10
-3.156
 20
11.0063928011
 11
-3.1820000124
 21
10.9400098303
  0
LINE
  5
2E6
100
AcDbEntity
  8
0
100
AcDbLine
 62
7
  6
CONTINUOUS
 10
-1.873125
 20
13.5277659555
 11
-1.8443749452
 21
13.586489363
  0
LINE
  5
2E7
100
AcDbEntity
  8
0
100
AcDbLine
 62
7
  6
CONTINUOUS
 10
-3.702
 20
10.9400098303
 11
-3.6759999969
 21
10.9897970584
  0
LINE
  5
2E8
100
AcDbEntity
  8
0
100
AcDbLine
 62
7
  6
CONTINUOUS
 10
-3.351
 20
10.7906480995
 11
-3.3249999876
 21
10.8404353276
  0
LINE
  5
2E9
100
AcDbEntity
  8
0
100
AcDbLine
 62
7
  6
CONTINUOUS
 10
-3.1300000248
 20
10.8902225557
 11
-3.078
 21
10.9897970584
  0
LINE
  5
2EA
100
AcDbEntity
  8
0
100
AcDbLine
 62
7
  6
CONTINUOUS
 10
-2.8180000248
 20
10.5749034211
 11
-2.8699999752
 21
10.4753289532
  0
LINE
  5
2EB
100
AcDbEntity
  8
0
100
AcDbLine
 62
7
  6
CONTINUOUS
 10
-2.259
 20
10.5417119357
 11
-2.2850000496
 21
10.4919247076
  0
LINE
  5
2EC
100
AcDbEntity
  8
0
100
AcDbLine
 62
7
  6
CONTINUOUS
 10
-0.6406779161
 20
12.6035106575
 11
-0.6673728822
 21
12.5594680685
  0
LINE
  5
2ED
100
AcDbEntity
  8
0
100
AcDbLine
 62
7
  6
CONTINUOUS
 10
-2.5093220341
 20
12.075
 11
-2.0822034157
 21
12.765
  0
LINE
  5
2EE
100
AcDbEntity
  8
0
100
AcDbLine
 62
7
  6
CONTINUOUS
 10
-2.2423729071
 20
12.765
 11
-2.6161017078
 21
12.1630851062
  0
LINE
  5
2EF
100
AcDbEntity
  8
0
100
AcDbLine
 62
7
  6
CONTINUOUS
 10
-1.9306249452
 20
13.6011702123
 11
-1.959375
 21
13.5571276644
  0
LINE
  5
2F0
100
AcDbEntity
  8
0
100
AcDbLine
 62
7
  6
CONTINUOUS
 10
-3.702
 20
11.0727757719
 11
-3.7539999992
 21
11.0063928011
  0
LINE
  5
2F1
100
AcDbEntity
  8
0
100
AcDbLine
 62
7
  6
CONTINUOUS
 10
-3.117
 20
11.0561800292
 11
-3.156
 21
11.0063928011
  0
LINE
  5
2F2
100
AcDbEntity
  8
0
100
AcDbLine
 62
7
  6
CONTINUOUS
 10
-2.8309999752
 20
10.4089459766
 11
-2.7919999752
 21
10.4587332105
  0
LINE
  5
2F3
100
AcDbEntity
  8
0
100
AcDbLine
 62
7
  6
CONTINUOUS
 10
-2.259
 20
10.3923502339
 11
-2.2070000496
 21
10.4587332105
  0
LINE
  5
2F4
100
AcDbEntity
  8
0
100
AcDbLine
 62
7
  6
CONTINUOUS
 10
-1.0677966109
 20
12.6915957534
 11
-1.6016948649
 21
12.075
  0
LINE
  5
2F5
100
AcDbEntity
  8
0
100
AcDbLine
 62
7
  6
CONTINUOUS
 10
-1.4415253734
 20
12.075
 11
-0.9076271194
 21
12.6915957534
  0
LINE
  5
2F6
100
AcDbEntity
  8
0
100
AcDbLine
 62
7
  6
CONTINUOUS
 10
-3.4160000124
 20
10.8404353276
 11
-3.78
 21
10.4255417251
  0
LINE
  5
2F7
100
AcDbEntity
  8
0
100
AcDbLine
 62
7
  6
CONTINUOUS
 10
-3.6759999969
 20
10.4255417251
 11
-3.351
 21
10.7906480995
  0
LINE
  5
2F8
100
AcDbEntity
  8
0
100
AcDbLine
 62
7
  6
CONTINUOUS
 10
-0.5872881365
 20
12.6622340548
 11
-0.6406779161
 21
12.6035106575
  0
LINE
  5
2F9
100
AcDbEntity
  8
0
100
AcDbLine
 62
7
  6
CONTINUOUS
 10
0.1601693885
 20
12.1777659555
 11
0.2135593209
 21
12.236489363
  0
LINE
  5
2FA
100
AcDbEntity
  8
0
100
AcDbLine
 62
7
  6
CONTINUOUS
 10
1.1211863373
 20
12.6622340548
 11
1.0677967105
 21
12.6035106575
  0
LINE
  5
2FB
100
AcDbEntity
  8
0
100
AcDbLine
 62
7
  6
CONTINUOUS
 10
1.8686441679
 20
12.1777659555
 11
1.9220337947
 21
12.236489363
  0
LINE
  5
2FC
100
AcDbEntity
  8
0
100
AcDbLine
 62
7
  6
CONTINUOUS
 10
-2.8699999752
 20
10.4753289532
 11
-2.9089999752
 21
10.4421374678
  0
LINE
  5
2FD
100
AcDbEntity
  8
0
100
AcDbLine
 62
7
  6
CONTINUOUS
 10
-2.2850000496
 20
10.4919247076
 11
-2.3240000496
 21
10.4587332105
  0
LINE
  5
2FE
100
AcDbEntity
  8
ASSI
100
AcDbLine
 62
7
  6
CONTINUOUS
 10
2.4955649429
 20
11.1204845519
 11
2.0379558
 21
10.7348541
  0
LINE
  5
2FF
100
AcDbEntity
  8
ASSI
100
AcDbLine
 62
7
  6
CONTINUOUS
 10
2.0379558
 20
10.5345618
 11
2.4743327074
 21
10.902299322
  0
LINE
  5
300
100
AcDbEntity
  8
0
100
AcDbLine
 62
7
  6
CONTINUOUS
 10
-0.5338982042
 20
12.5594680685
 11
-0.427118645
 21
12.6475532055
  0
LINE
  5
301
100
AcDbEntity
  8
0
100
AcDbLine
 62
7
  6
CONTINUOUS
 10
0.1067797617
 20
12.280531911
 11
-0.0000001029
 21
12.1924468048
  0
LINE
  5
302
100
AcDbEntity
  8
0
100
AcDbLine
 62
7
  6
CONTINUOUS
 10
1.1745762697
 20
12.5594680685
 11
1.2813558288
 21
12.6475532055
  0
LINE
  5
303
100
AcDbEntity
  8
0
100
AcDbLine
 62
7
  6
CONTINUOUS
 10
1.8152542355
 20
12.280531911
 11
1.7084746764
 21
12.1924468048
  0
LINE
  5
304
100
AcDbEntity
  8
0
100
AcDbLine
 62
7
  6
CONTINUOUS
 10
-2.8960000248
 20
10.3591587442
 11
-2.8309999752
 21
10.4089459766
  0
LINE
  5
305
100
AcDbEntity
  8
0
100
AcDbLine
 62
7
  6
CONTINUOUS
 10
0.4805083715
 20
12.5447872192
 11
0.6406778629
 21
12.6475532055
  0
LINE
  5
306
100
AcDbEntity
  8
0
100
AcDbLine
 62
7
  6
CONTINUOUS
 10
-2.3109999504
 20
10.3591587442
 11
-2.259
 21
10.3923502339
  0
LINE
  5
307
100
AcDbEntity
  8
0
100
AcDbLine
 62
7
  6
CONTINUOUS
 10
1.7885594221
 20
12.1337234024
 11
1.8686441679
 21
12.1777659555
  0
LINE
  5
308
100
AcDbEntity
  8
0
100
AcDbLine
 62
7
  6
CONTINUOUS
 10
2.8707198616
 20
-18.2145173293
 11
3.2468483576
 21
-18.7906974972
  0
LINE
  5
309
100
AcDbEntity
  8
0
100
AcDbLine
 62
7
  6
CONTINUOUS
 10
3.2531799651
 20
-18.615616678
 11
2.8770515385
 21
-18.0394365796
  0
LINE
  5
30A
100
AcDbEntity
  8
0
100
AcDbLine
 62
7
  6
CONTINUOUS
 10
0.0685735915
 20
-17.5344423411
 11
0.1670342766
 21
-17.6905993423
  0
LINE
  5
30B
100
AcDbEntity
  8
0
100
AcDbLine
 62
7
  6
CONTINUOUS
 10
2.2522813864
 20
-19.7300855545
 11
2.3507420715
 21
-19.8862425557
  0
LINE
  5
30C
100
AcDbEntity
  8
0
100
AcDbLine
 62
7
  6
CONTINUOUS
 10
0.2847033527
 20
-17.6905993423
 11
0.1570743651
 21
-17.4863502206
  0
LINE
  5
30D
100
AcDbEntity
  8
0
100
AcDbLine
 62
7
  6
CONTINUOUS
 10
2.4684111476
 20
-19.8862425557
 11
2.34078216
 21
-19.681993434
  0
LINE
  5
30E
100
AcDbEntity
  8
0
100
AcDbLine
 62
7
  6
CONTINUOUS
 10
-1.4729341019
 20
-21.0
 11
-1.7738653283
 21
-20.2487390824
  0
LINE
  5
30F
100
AcDbEntity
  8
0
100
AcDbLine
 62
7
  6
CONTINUOUS
 10
-1.3300096003
 20
-18.7906974972
 11
-1.6309408267
 21
-18.0394365796
  0
LINE
  5
310
100
AcDbEntity
  8
0
100
AcDbLine
 62
7
  6
CONTINUOUS
 10
-0.455815078
 20
-17.6905993423
 11
-0.7567463044
 21
-16.9393384246
  0
LINE
  5
311
100
AcDbEntity
  8
0
100
AcDbLine
 62
7
  6
CONTINUOUS
 10
-1.7743633308
 20
-20.483934948
 11
-1.6934746731
 21
-20.69038944
  0
LINE
  5
312
100
AcDbEntity
  8
0
100
AcDbLine
 62
7
  6
CONTINUOUS
 10
-1.6314388292
 20
-18.2746324452
 11
-1.5505501716
 21
-18.4810869372
  0
LINE
  5
313
100
AcDbEntity
  8
0
100
AcDbLine
 62
7
  6
CONTINUOUS
 10
-0.7572443069
 20
-17.1745342903
 11
-0.6763556492
 21
-17.3809887823
  0
LINE
  5
314
100
AcDbEntity
  8
0
100
AcDbLine
 62
7
  6
CONTINUOUS
 10
-3.0
 20
-18.0394365796
 11
-2.7111629817
 21
-18.7906974972
  0
LINE
  5
315
100
AcDbEntity
  8
0
100
AcDbLine
 62
7
  6
CONTINUOUS
 10
-3.0
 20
-16.9393384246
 11
-2.7111629817
 21
-17.6905993423
  0
LINE
  5
316
100
AcDbEntity
  8
0
100
AcDbLine
 62
7
  6
CONTINUOUS
 10
-1.6632392918
 20
-20.7723451765
 11
-1.5794339012
 21
-21.0
  0
LINE
  5
317
100
AcDbEntity
  8
0
100
AcDbLine
 62
7
  6
CONTINUOUS
 10
-1.5203147903
 20
-18.5630426737
 11
-1.4365093996
 21
-18.7906974972
  0
LINE
  5
318
100
AcDbEntity
  8
0
100
AcDbLine
 62
7
  6
CONTINUOUS
 10
-2.6984284847
 20
-18.5838161459
 11
-2.8935002702
 21
-18.0394365796
  0
LINE
  5
319
100
AcDbEntity
  8
0
100
AcDbLine
 62
7
  6
CONTINUOUS
 10
-2.6984284847
 20
-17.483717991
 11
-2.8935002702
 21
-16.9393384246
  0
LINE
  5
31A
100
AcDbEntity
  8
0
100
AcDbLine
 62
7
  6
CONTINUOUS
 10
-1.8508411784
 20
-17.0531658364
 11
-1.6342133453
 21
-17.6905993423
  0
LINE
  5
31B
100
AcDbEntity
  8
0
100
AcDbLine
 62
7
  6
CONTINUOUS
 10
-1.6204117694
 20
-17.4701298448
 11
-1.7983382479
 21
-16.9393384246
  0
LINE
  5
31C
100
AcDbEntity
  8
0
100
AcDbLine
 62
7
  6
CONTINUOUS
 10
-4.05
 20
17.025
 11
-4.05
 21
8.925
  0
LINE
  5
31D
100
AcDbEntity
  8
0
100
AcDbLine
 62
7
  6
CONTINUOUS
 10
-3.9
 20
14.115
 11
-3.9
 21
13.425
  0
LINE
  5
31E
100
AcDbEntity
  8
0
100
AcDbLine
 62
7
  6
CONTINUOUS
 10
-3.81375
 20
13.425
 11
-3.81375
 21
13.9681915069
  0
LINE
  5
31F
100
AcDbEntity
  8
0
100
AcDbLine
 62
7
  6
CONTINUOUS
 10
-3.78
 20
10.4255417251
 11
-3.78
 21
10.342563
  0
LINE
  5
320
100
AcDbEntity
  8
0
100
AcDbLine
 62
7
  6
CONTINUOUS
 10
-3.39
 20
10.9400098303
 11
-3.39
 21
10.9068182984
  0
LINE
  5
321
100
AcDbEntity
  8
0
100
AcDbLine
 62
7
  6
CONTINUOUS
 10
-3.312
 20
10.342563
 11
-3.312
 21
10.4255417251
  0
LINE
  5
322
100
AcDbEntity
  8
0
100
AcDbLine
 62
7
  6
CONTINUOUS
 10
-3.312
 20
10.9068182984
 11
-3.312
 21
10.9400098303
  0
LINE
  5
323
100
AcDbEntity
  8
0
100
AcDbLine
 62
7
  6
CONTINUOUS
 10
-3.29625
 20
13.9681915069
 11
-3.29625
 21
13.425
  0
LINE
  5
324
100
AcDbEntity
  8
0
100
AcDbLine
 62
7
  6
CONTINUOUS
 10
-3.21
 20
13.425
 11
-3.21
 21
14.115
  0
LINE
  5
325
100
AcDbEntity
  8
0
100
AcDbLine
 62
7
  6
CONTINUOUS
 10
-3.2079999876
 20
10.8072438422
 11
-3.2079999876
 21
10.6578821578
  0
LINE
  5
326
100
AcDbEntity
  8
0
100
AcDbLine
 62
7
  6
CONTINUOUS
 10
-3.1429999752
 20
10.6744779005
 11
-3.1429999752
 21
10.7906480995
  0
LINE
  5
327
100
AcDbEntity
  8
0
100
AcDbLine
 62
7
  6
CONTINUOUS
 10
-3.1429999752
 20
10.7906480995
 11
-3.1300000248
 21
10.8902225557
  0
LINE
  5
328
100
AcDbEntity
  8
0
100
AcDbLine
 62
7
  6
CONTINUOUS
 10
-2.805
 20
10.6744779005
 11
-2.8180000248
 21
10.5749034211
  0
LINE
  5
329
100
AcDbEntity
  8
0
100
AcDbLine
 62
7
  6
CONTINUOUS
 10
-3.195
 20
10.8902225557
 11
-3.2079999876
 21
10.8072438422
  0
LINE
  5
32A
100
AcDbEntity
  8
0
100
AcDbLine
 62
7
  6
CONTINUOUS
 10
-2.7529999752
 20
10.5749034211
 11
-2.7400000248
 21
10.6578821578
  0
LINE
  5
32B
100
AcDbEntity
  8
0
100
AcDbLine
 62
7
  6
CONTINUOUS
 10
-2.181
 20
10.525116193
 11
-2.1680000496
 21
10.6080949065
  0
LINE
  5
32C
100
AcDbEntity
  8
0
100
AcDbLine
 62
7
  6
CONTINUOUS
 10
-3.7539999992
 20
11.0063928011
 11
-3.7669999996
 21
10.9400098303
  0
LINE
  5
32D
100
AcDbEntity
  8
0
100
AcDbLine
 62
7
  6
CONTINUOUS
 10
-3.3249999876
 20
10.8404353276
 11
-3.312
 21
10.9068182984
  0
LINE
  5
32E
100
AcDbEntity
  8
0
100
AcDbLine
 62
7
  6
CONTINUOUS
 10
-1.8443749452
 20
13.586489363
 11
-1.83
 21
13.6598936096
  0
LINE
  5
32F
100
AcDbEntity
  8
0
100
AcDbLine
 62
7
  6
CONTINUOUS
 10
-2.2460000496
 20
10.6080949065
 11
-2.259
 21
10.5417119357
  0
LINE
  5
330
100
AcDbEntity
  8
0
100
AcDbLine
 62
7
  6
CONTINUOUS
 10
-1.91625
 20
13.6598936096
 11
-1.9306249452
 21
13.6011702123
  0
LINE
  5
331
100
AcDbEntity
  8
0
100
AcDbLine
 62
7
  6
CONTINUOUS
 10
-3.1820000124
 20
10.9400098303
 11
-3.195
 21
10.8902225557
  0
LINE
  5
332
100
AcDbEntity
  8
0
100
AcDbLine
 62
7
  6
CONTINUOUS
 10
-2.766
 20
10.525116193
 11
-2.7529999752
 21
10.5749034211
  0
LINE
  5
333
100
AcDbEntity
  8
0
100
AcDbLine
 62
7
  6
CONTINUOUS
 10
-0.1249092
 20
16.5300312
 11
-0.4162353
 21
15.5140578
  0
LINE
  5
334
100
AcDbEntity
  8
0
100
AcDbLine
 62
7
  6
CONTINUOUS
 10
-0.2602353
 20
14.9699649
 11
0.0347529
 21
15.9987225
  0
LINE
  5
335
100
AcDbEntity
  8
0
100
AcDbLine
 62
7
  6
CONTINUOUS
 10
-0.5605933231
 20
12.4713829726
 11
-0.5338982042
 21
12.5594680685
  0
LINE
  5
336
100
AcDbEntity
  8
0
100
AcDbLine
 62
7
  6
CONTINUOUS
 10
0.1334745751
 20
12.3686170274
 11
0.1067797617
 21
12.280531911
  0
LINE
  5
337
100
AcDbEntity
  8
0
100
AcDbLine
 62
7
  6
CONTINUOUS
 10
1.0556559
 20
16.5300351
 11
0.554775
 21
14.969961
  0
LINE
  5
338
100
AcDbEntity
  8
0
100
AcDbLine
 62
7
  6
CONTINUOUS
 10
0.8667867
 20
14.9699649
 11
0.965289
 21
15.2767623
  0
LINE
  5
339
100
AcDbEntity
  8
0
100
AcDbLine
 62
7
  6
CONTINUOUS
 10
1.0604607
 20
15.573174
 11
1.2116676
 21
16.0441536
  0
LINE
  5
33A
100
AcDbEntity
  8
0
100
AcDbLine
 62
7
  6
CONTINUOUS
 10
-0.6673728822
 20
12.5594680685
 11
-0.6940678484
 21
12.4860638219
  0
LINE
  5
33B
100
AcDbEntity
  8
0
100
AcDbLine
 62
7
  6
CONTINUOUS
 10
0.2402541343
 20
12.280531911
 11
0.2669492532
 21
12.3539361781
  0
LINE
  5
33C
100
AcDbEntity
  8
0
100
AcDbLine
 62
7
  6
CONTINUOUS
 10
1.0411015916
 20
12.5594680685
 11
1.0144067782
 21
12.4860638219
  0
LINE
  5
33D
100
AcDbEntity
  8
0
100
AcDbLine
 62
7
  6
CONTINUOUS
 10
-2.7919999752
 20
10.4587332105
 11
-2.766
 21
10.525116193
  0
LINE
  5
33E
100
AcDbEntity
  8
0
100
AcDbLine
 62
7
  6
CONTINUOUS
 10
-2.2070000496
 20
10.4587332105
 11
-2.181
 21
10.525116193
  0
LINE
  5
33F
100
AcDbEntity
  8
ASSI
100
AcDbLine
 62
7
  6
CONTINUOUS
 10
1.5723984154
 20
9.9022359274
 11
1.6474727419
 21
10.0359943966
  0
LINE
  5
340
100
AcDbEntity
  8
0
100
AcDbLine
 62
7
  6
CONTINUOUS
 10
0.2135593209
 20
12.236489363
 11
0.2402541343
 21
12.280531911
  0
LINE
  5
341
100
AcDbEntity
  8
0
100
AcDbLine
 62
7
  6
CONTINUOUS
 10
1.0677967105
 20
12.6035106575
 11
1.0411015916
 21
12.5594680685
  0
LINE
  5
342
100
AcDbEntity
  8
0
100
AcDbLine
 62
7
  6
CONTINUOUS
 10
1.9220337947
 20
12.236489363
 11
1.9487289136
 21
12.280531911
  0
LINE
  5
343
100
AcDbEntity
  8
0
100
AcDbLine
 62
7
  6
CONTINUOUS
 10
3.8337497807
 20
14.115
 11
3.646875
 21
13.8360638219
  0
LINE
  5
344
100
AcDbEntity
  8
0
100
AcDbLine
 62
7
  6
CONTINUOUS
 10
3.69
 20
13.7773404247
 11
3.9199997807
 21
14.115
  0
LINE
  5
345
100
AcDbEntity
  8
0
100
AcDbLine
 62
7
  6
CONTINUOUS
 10
-0.4547619
 20
10.6056912
 11
-0.214005
 21
10.9485663
  0
LINE
  5
346
100
AcDbEntity
  8
ASSI
100
AcDbLine
 62
7
  6
CONTINUOUS
 10
2.5406391
 20
9.3110703
 11
2.6257467
 21
9.4317231
  0
LINE
  5
347
100
AcDbEntity
  8
0
100
AcDbLine
 62
7
  6
CONTINUOUS
 10
-0.1864806
 20
11.107437
 11
-0.5410365
 21
10.6163442
  0
LINE
  5
348
100
AcDbEntity
  8
0
100
AcDbLine
 62
7
  6
CONTINUOUS
 10
2.9898303027
 20
12.6915957534
 11
2.4559322014
 21
12.075
  0
LINE
  5
349
100
AcDbEntity
  8
0
100
AcDbLine
 62
7
  6
CONTINUOUS
 10
2.6161016929
 20
12.075
 11
3.1499997941
 21
12.6915957534
  0
LINE
  5
34A
100
AcDbEntity
  8
0
100
AcDbLine
 62
7
  6
CONTINUOUS
 10
1.7278927169
 20
-19.8862425557
 11
1.4269614905
 21
-19.134981638
  0
LINE
  5
34B
100
AcDbEntity
  8
0
100
AcDbLine
 62
7
  6
CONTINUOUS
 10
2.6812683902
 20
-17.6905993423
 11
2.3803371639
 21
-16.9393384246
  0
LINE
  5
34C
100
AcDbEntity
  8
0
100
AcDbLine
 62
7
  6
CONTINUOUS
 10
1.426463488
 20
-19.3701775037
 11
1.5073521457
 21
-19.5766319957
  0
LINE
  5
34D
100
AcDbEntity
  8
0
100
AcDbLine
 62
7
  6
CONTINUOUS
 10
2.3798391613
 20
-17.1745342903
 11
2.460727819
 21
-17.3809887823
  0
LINE
  5
34E
100
AcDbEntity
  8
0
100
AcDbLine
 62
7
  6
CONTINUOUS
 10
0.2554639765
 20
-18.0394365796
 11
0.5443009947
 21
-18.7906974972
  0
LINE
  5
34F
100
AcDbEntity
  8
0
100
AcDbLine
 62
7
  6
CONTINUOUS
 10
-0.6461202679
 20
-17.4629445187
 11
-0.5623148773
 21
-17.6905993423
  0
LINE
  5
350
100
AcDbEntity
  8
0
100
AcDbLine
 62
7
  6
CONTINUOUS
 10
1.537587527
 20
-19.6585877321
 11
1.6213929176
 21
-19.8862425557
  0
LINE
  5
351
100
AcDbEntity
  8
0
100
AcDbLine
 62
7
  6
CONTINUOUS
 10
2.4909632003
 20
-17.4629445187
 11
2.574768591
 21
-17.6905993423
  0
LINE
  5
352
100
AcDbEntity
  8
0
100
AcDbLine
 62
7
  6
CONTINUOUS
 10
0.5570354918
 20
-18.5838161459
 11
0.3619637063
 21
-18.0394365796
  0
LINE
  5
353
100
AcDbEntity
  8
0
100
AcDbLine
 62
7
  6
CONTINUOUS
 10
0.3328666165
 20
-19.2488090498
 11
0.5494944496
 21
-19.8862425557
  0
LINE
  5
354
100
AcDbEntity
  8
0
100
AcDbLine
 62
7
  6
CONTINUOUS
 10
0.5632960255
 20
-19.6657730582
 11
0.3853695471
 21
-19.134981638
  0
LINE
  5
355
100
AcDbEntity
  8
0
100
AcDbLine
 62
7
  6
CONTINUOUS
 10
-3.0
 20
-20.2487390824
 11
-3.0
 21
-21.0
  0
LINE
  5
356
100
AcDbEntity
  8
0
100
AcDbLine
 62
7
  6
CONTINUOUS
 10
-2.8998318776
 20
-21.0
 11
-2.8998318776
 21
-20.2487390824
  0
LINE
  5
357
100
AcDbEntity
  8
0
100
AcDbLine
 62
7
  6
CONTINUOUS
 10
-2.805
 20
10.7906480995
 11
-2.805
 21
10.6744779005
  0
LINE
  5
358
100
AcDbEntity
  8
0
100
AcDbLine
 62
7
  6
CONTINUOUS
 10
-2.7768982729
 20
-20.2487390824
 11
-2.7768982729
 21
-20.3352479153
  0
LINE
  5
359
100
AcDbEntity
  8
0
100
AcDbLine
 62
7
  6
CONTINUOUS
 10
-2.7400000248
 20
10.6578821578
 11
-2.7400000248
 21
10.8072438422
  0
LINE
  5
35A
100
AcDbEntity
  8
0
100
AcDbLine
 62
7
  6
CONTINUOUS
 10
-2.5310310635
 20
-20.3352479153
 11
-2.5310310635
 21
-21.0
  0
LINE
  5
35B
100
AcDbEntity
  8
0
100
AcDbLine
 62
7
  6
CONTINUOUS
 10
-2.4308629412
 20
-21.0
 11
-2.4308629412
 21
-20.3352479153
  0
LINE
  5
35C
100
AcDbEntity
  8
0
100
AcDbLine
 62
7
  6
CONTINUOUS
 10
-2.4049999452
 20
14.115
 11
-2.4049999452
 21
13.425
  0
LINE
  5
35D
100
AcDbEntity
  8
0
100
AcDbLine
 62
7
  6
CONTINUOUS
 10
-2.3187499452
 20
13.5130851062
 11
-2.3187499452
 21
14.0269149041
  0
LINE
  5
35E
100
AcDbEntity
  8
0
100
AcDbLine
 62
7
  6
CONTINUOUS
 10
-2.2460000496
 20
11.122563
 11
-2.2460000496
 21
10.6080949065
  0
LINE
  5
35F
100
AcDbEntity
  8
0
100
AcDbLine
 62
7
  6
CONTINUOUS
 10
-2.2196419926
 20
-16.9393384246
 11
-2.2196419926
 21
-17.6905993423
  0
LINE
  5
360
100
AcDbEntity
  8
0
100
AcDbLine
 62
7
  6
CONTINUOUS
 10
-2.2196419926
 20
-18.0394365796
 11
-2.2196419926
 21
-18.7906974972
  0
LINE
  5
361
100
AcDbEntity
  8
0
100
AcDbLine
 62
7
  6
CONTINUOUS
 10
-2.1849957318
 20
-20.3352479153
 11
-2.1849957318
 21
-20.2487390824
  0
LINE
  5
362
100
AcDbEntity
  8
0
100
AcDbLine
 62
7
  6
CONTINUOUS
 10
-2.1680000496
 20
10.6080949065
 11
-2.1680000496
 21
11.122563
  0
LINE
  5
363
100
AcDbEntity
  8
0
100
AcDbLine
 62
7
  6
CONTINUOUS
 10
-2.1194738702
 20
-18.7906974972
 11
-2.1194738702
 21
-18.0394365796
  0
LINE
  5
364
100
AcDbEntity
  8
0
100
AcDbLine
 62
7
  6
CONTINUOUS
 10
-2.1194738702
 20
-17.6905993423
 11
-2.1194738702
 21
-16.9393384246
  0
LINE
  5
365
100
AcDbEntity
  8
0
100
AcDbLine
 62
7
  6
CONTINUOUS
 10
-1.9510093008
 20
-16.9393384246
 11
-1.9510093008
 21
-17.6905993423
  0
LINE
  5
366
100
AcDbEntity
  8
0
100
AcDbLine
 62
7
  6
CONTINUOUS
 10
-1.91625
 20
13.8801063699
 11
-1.91625
 21
13.6598936096
  0
LINE
  5
367
100
AcDbEntity
  8
0
100
AcDbLine
 62
7
  6
CONTINUOUS
 10
-1.8686440682
 20
12.765
 11
-1.8686440682
 21
12.6915957534
  0
LINE
  5
368
100
AcDbEntity
  8
0
100
AcDbLine
 62
7
  6
CONTINUOUS
 10
-1.8508411784
 20
-17.6905993423
 11
-1.8508411784
 21
-17.0531658364
  0
LINE
  5
369
100
AcDbEntity
  8
0
100
AcDbLine
 62
7
  6
CONTINUOUS
 10
-1.83
 20
13.6598936096
 11
-1.83
 21
13.8801063699
  0
LINE
  5
36A
100
AcDbEntity
  8
0
100
AcDbLine
 62
7
  6
CONTINUOUS
 10
-1.8032508
 20
16.5300312
 11
-1.8032547
 21
14.9699571
  0
LINE
  5
36B
100
AcDbEntity
  8
0
100
AcDbLine
 62
7
  6
CONTINUOUS
 10
-1.7149999452
 20
14.115
 11
-1.7149999452
 21
13.425
  0
LINE
  5
36C
100
AcDbEntity
  8
0
100
AcDbLine
 62
7
  6
CONTINUOUS
 10
-1.6287499452
 20
13.8360638219
 11
-1.6287499452
 21
14.0269149041
  0
LINE
  5
36D
100
AcDbEntity
  8
0
100
AcDbLine
 62
7
  6
CONTINUOUS
 10
-1.6287499452
 20
13.5130851062
 11
-1.6287499452
 21
13.747978726
  0
LINE
  5
36E
100
AcDbEntity
  8
0
100
AcDbLine
 62
7
  6
CONTINUOUS
 10
-1.491243
 20
14.969961
 11
-1.4912391
 21
16.5300312
  0
LINE
  5
36F
100
AcDbEntity
  8
0
100
AcDbLine
 62
7
  6
CONTINUOUS
 10
-1.477446
 20
11.107437
 11
-1.477446
 21
10.342563
  0
LINE
  5
370
100
AcDbEntity
  8
0
100
AcDbLine
 62
7
  6
CONTINUOUS
 10
-1.3927569459
 20
-20.2487390824
 11
-1.3927569459
 21
-21.0
  0
LINE
  5
371
100
AcDbEntity
  8
0
100
AcDbLine
 62
7
  6
CONTINUOUS
 10
-1.3740981
 20
10.342563
 11
-1.3740981
 21
11.107437
  0
LINE
  5
372
100
AcDbEntity
  8
0
100
AcDbLine
 62
7
  6
CONTINUOUS
 10
-1.3272350843
 20
-17.0622720293
 11
-1.3272350843
 21
-17.6905993423
  0
LINE
  5
373
100
AcDbEntity
  8
0
100
AcDbLine
 62
7
  6
CONTINUOUS
 10
-1.2925888235
 20
-20.9134911671
 11
-1.2925888235
 21
-20.2487390824
  0
LINE
  5
374
100
AcDbEntity
  8
0
100
AcDbLine
 62
7
  6
CONTINUOUS
 10
-1.2550000548
 20
13.747978726
 11
-1.2550000548
 21
13.8360638219
  0
LINE
  5
375
100
AcDbEntity
  8
0
100
AcDbLine
 62
7
  6
CONTINUOUS
 10
-1.2498324443
 20
-18.0394365796
 11
-1.2498324443
 21
-18.7906974972
  0
LINE
  5
376
100
AcDbEntity
  8
0
100
AcDbLine
 62
7
  6
CONTINUOUS
 10
-1.227066962
 20
-17.6905993423
 11
-1.227066962
 21
-16.9393384246
  0
LINE
  5
377
100
AcDbEntity
  8
0
100
AcDbLine
 62
7
  6
CONTINUOUS
 10
-1.1974999452
 20
13.425
 11
-1.1974999452
 21
13.5130851062
  0
LINE
  5
378
100
AcDbEntity
  8
0
100
AcDbLine
 62
7
  6
CONTINUOUS
 10
-1.1974999452
 20
14.0269149041
 11
-1.1974999452
 21
14.115
  0
LINE
  5
379
100
AcDbEntity
  8
0
100
AcDbLine
 62
7
  6
CONTINUOUS
 10
-1.1866059
 20
11.107437
 11
-1.1866059
 21
10.342563
  0
LINE
  5
37A
100
AcDbEntity
  8
0
100
AcDbLine
 62
7
  6
CONTINUOUS
 10
-1.1792391
 20
16.5300312
 11
-1.1792391
 21
14.969961
  0
LINE
  5
37B
100
AcDbEntity
  8
0
100
AcDbLine
 62
7
  6
CONTINUOUS
 10
-1.149664322
 20
-18.7041886643
 11
-1.149664322
 21
-18.0394365796
  0
LINE
  5
37C
100
AcDbEntity
  8
0
100
AcDbLine
 62
7
  6
CONTINUOUS
 10
-1.0832865
 20
10.342563
 11
-1.0832865
 21
10.6653561
  0
LINE
  5
37D
100
AcDbEntity
  8
0
100
AcDbLine
 62
7
  6
CONTINUOUS
 10
-1.0832865
 20
10.7537643
 11
-1.0832865
 21
11.0190288
  0
LINE
  5
37E
100
AcDbEntity
  8
0
100
AcDbLine
 62
7
  6
CONTINUOUS
 10
-0.9192349129
 20
-21.0
 11
-0.9192349129
 21
-20.9134911671
  0
LINE
  5
37F
100
AcDbEntity
  8
0
100
AcDbLine
 62
7
  6
CONTINUOUS
 10
-0.9076271194
 20
12.6915957534
 11
-0.9076271194
 21
12.765
  0
LINE
  5
380
100
AcDbEntity
  8
0
100
AcDbLine
 62
7
  6
CONTINUOUS
 10
-0.8672274
 20
14.969961
 11
-0.8672274
 21
15.9987225
  0
LINE
  5
381
100
AcDbEntity
  8
0
100
AcDbLine
 62
7
  6
CONTINUOUS
 10
-0.7763104114
 20
-18.7906974972
 11
-0.7763104114
 21
-18.7041886643
  0
LINE
  5
382
100
AcDbEntity
  8
0
100
AcDbLine
 62
7
  6
CONTINUOUS
 10
-0.6940678484
 20
12.4860638219
 11
-0.6940678484
 21
12.3539361781
  0
LINE
  5
383
100
AcDbEntity
  8
0
100
AcDbLine
 62
7
  6
CONTINUOUS
 10
-0.6579299031
 20
-18.0394365796
 11
-0.6579299031
 21
-18.7906974972
  0
LINE
  5
384
100
AcDbEntity
  8
0
100
AcDbLine
 62
7
  6
CONTINUOUS
 10
-0.5953959178
 20
-20.6817811801
 11
-0.5953959178
 21
-21.0
  0
LINE
  5
385
100
AcDbEntity
  8
0
100
AcDbLine
 62
7
  6
CONTINUOUS
 10
-0.5605933231
 20
12.3686170274
 11
-0.5605933231
 21
12.4713829726
  0
LINE
  5
386
100
AcDbEntity
  8
0
100
AcDbLine
 62
7
  6
CONTINUOUS
 10
-0.5577617808
 20
-18.7041886643
 11
-0.5577617808
 21
-18.4446621654
  0
LINE
  5
387
100
AcDbEntity
  8
0
100
AcDbLine
 62
7
  6
CONTINUOUS
 10
-0.5577617808
 20
-18.3581533325
 11
-0.5577617808
 21
-18.1259454125
  0
LINE
  5
388
100
AcDbEntity
  8
0
100
AcDbLine
 62
7
  6
CONTINUOUS
 10
-0.5410365
 20
10.6163442
 11
-0.5410365
 21
10.5247371
  0
LINE
  5
389
100
AcDbEntity
  8
0
100
AcDbLine
 62
7
  6
CONTINUOUS
 10
-0.4952277954
 20
-21.0
 11
-0.4952277954
 21
-20.6817811801
  0
LINE
  5
38A
100
AcDbEntity
  8
0
100
AcDbLine
 62
7
  6
CONTINUOUS
 10
-0.3924998903
 20
14.115
 11
-0.3924998903
 21
13.425
  0
LINE
  5
38B
100
AcDbEntity
  8
0
100
AcDbLine
 62
7
  6
CONTINUOUS
 10
-0.366531729
 20
-16.9393384246
 11
-0.366531729
 21
-17.6905993423
  0
LINE
  5
38C
100
AcDbEntity
  8
0
100
AcDbLine
 62
7
  6
CONTINUOUS
 10
-0.3062498903
 20
13.425
 11
-0.3062498903
 21
14.115
  0
LINE
  5
38D
100
AcDbEntity
  8
0
100
AcDbLine
 62
7
  6
CONTINUOUS
 10
-0.2663636067
 20
-17.6905993423
 11
-0.2663636067
 21
-17.3582232999
  0
LINE
  5
38E
100
AcDbEntity
  8
0
100
AcDbLine
 62
7
  6
CONTINUOUS
 10
-0.2663636067
 20
-17.271714467
 11
-0.2663636067
 21
-17.0258472576
  0
LINE
  5
38F
100
AcDbEntity
  8
ASSI
100
AcDbLine
 62
7
  6
CONTINUOUS
 10
-0.2602662
 20
-13.9644111025
 11
-0.2602662
 21
-13.7391660026
  0
LINE
  5
390
100
AcDbEntity
  8
ASSI
100
AcDbLine
 62
7
  6
CONTINUOUS
 10
-0.2602662
 20
-12.660834
 11
-0.2602662
 21
-12.4355889
  0
LINE
  5
391
100
AcDbEntity
  8
0
100
AcDbLine
 62
7
  6
CONTINUOUS
 10
-0.214005
 20
10.9485663
 11
-0.214005
 21
10.6056912
  0
LINE
  5
392
100
AcDbEntity
  8
0
100
AcDbLine
 62
7
  6
CONTINUOUS
 10
-0.214005
 20
10.5247371
 11
-0.214005
 21
10.342563
  0
LINE
  5
393
100
AcDbEntity
  8
0
100
AcDbLine
 62
7
  6
CONTINUOUS
 10
-0.19125
 20
14.115
 11
-0.19125
 21
13.425
  0
LINE
  5
394
100
AcDbEntity
  8
0
100
AcDbLine
 62
7
  6
CONTINUOUS
 10
-0.1479830984
 20
-18.4446621654
 11
-0.1479830984
 21
-18.3581533325
  0
LINE
  5
395
100
AcDbEntity
  8
0
100
AcDbLine
 62
7
  6
CONTINUOUS
 10
-0.1206645196
 20
-18.1259454125
 11
-0.1206645196
 21
-18.0394365796
  0
LINE
  5
396
100
AcDbEntity
  8
0
100
AcDbLine
 62
7
  6
CONTINUOUS
 10
-0.1202589
 20
10.342563
 11
-0.1202589
 21
10.5247371
  0
LINE
  5
397
100
AcDbEntity
  8
0
100
AcDbLine
 62
7
  6
CONTINUOUS
 10
-0.1202589
 20
10.6056912
 11
-0.1202589
 21
11.107437
  0
LINE
  5
398
100
AcDbEntity
  8
0
100
AcDbLine
 62
7
  6
CONTINUOUS
 10
-0.105
 20
13.425
 11
-0.105
 21
14.0269149041
  0
LINE
  5
399
100
AcDbEntity
  8
0
100
AcDbLine
 62
7
  6
CONTINUOUS
 10
-0.1024521337
 20
-18.7906974972
 11
-0.1024521337
 21
-18.7041886643
  0
LINE
  5
39A
100
AcDbEntity
  8
0
100
AcDbLine
 62
7
  6
CONTINUOUS
 10
-0.0105192
 20
10.5247371
 11
-0.0105192
 21
10.6056912
  0
LINE
  5
39B
100
AcDbEntity
  8
0
100
AcDbLine
 62
7
  6
CONTINUOUS
 10
0.0347529
 20
15.9987225
 11
0.0347568
 21
14.969961
  0
LINE
  5
39C
100
AcDbEntity
  8
0
100
AcDbLine
 62
7
  6
CONTINUOUS
 10
0.1334745751
 20
12.4713829726
 11
0.1334745751
 21
12.3686170274
  0
LINE
  5
39D
100
AcDbEntity
  8
0
100
AcDbLine
 62
7
  6
CONTINUOUS
 10
0.2326984941
 20
-19.134981638
 11
0.2326984941
 21
-19.8862425557
  0
LINE
  5
39E
100
AcDbEntity
  8
0
100
AcDbLine
 62
7
  6
CONTINUOUS
 10
0.2669492532
 20
12.3539361781
 11
0.2669492532
 21
12.4860638219
  0
LINE
  5
39F
100
AcDbEntity
  8
0
100
AcDbLine
 62
7
  6
CONTINUOUS
 10
0.2975001097
 20
14.115
 11
0.2975001097
 21
13.5277659555
  0
LINE
  5
3A0
100
AcDbEntity
  8
0
100
AcDbLine
 62
7
  6
CONTINUOUS
 10
0.3328666165
 20
-19.8862425557
 11
0.3328666165
 21
-19.2488090498
  0
LINE
  5
3A1
100
AcDbEntity
  8
0
100
AcDbLine
 62
7
  6
CONTINUOUS
 10
0.3467685
 20
14.969961
 11
0.3467685
 21
16.5300312
  0
LINE
  5
3A2
100
AcDbEntity
  8
0
100
AcDbLine
 62
7
  6
CONTINUOUS
 10
0.3837501097
 20
13.425
 11
0.3837501097
 21
14.115
  0
LINE
  5
3A3
100
AcDbEntity
  8
0
100
AcDbLine
 62
7
  6
CONTINUOUS
 10
0.4805083715
 20
12.6622340548
 11
0.4805083715
 21
12.5447872192
  0
LINE
  5
3A4
100
AcDbEntity
  8
0
100
AcDbLine
 62
7
  6
CONTINUOUS
 10
-2.806422222
 20
-19.4491452945
 11
-2.8169512793
 21
-19.531101031
  0
LINE
  5
3A5
100
AcDbEntity
  8
0
100
AcDbLine
 62
7
  6
CONTINUOUS
 10
1.1478814563
 20
12.4713829726
 11
1.1745762697
 21
12.5594680685
  0
LINE
  5
3A6
100
AcDbEntity
  8
0
100
AcDbLine
 62
7
  6
CONTINUOUS
 10
1.841949049
 20
12.3686170274
 11
1.8152542355
 21
12.280531911
  0
LINE
  5
3A7
100
AcDbEntity
  8
0
100
AcDbLine
 62
7
  6
CONTINUOUS
 10
2.2093752193
 20
13.6598936096
 11
2.3387502193
 21
14.0562766027
  0
LINE
  5
3A8
100
AcDbEntity
  8
0
100
AcDbLine
 62
7
  6
CONTINUOUS
 10
2.1375
 20
13.425
 11
2.1949997807
 21
13.6011702123
  0
LINE
  5
3A9
100
AcDbEntity
  8
0
100
AcDbLine
 62
7
  6
CONTINUOUS
 10
2.2812497807
 20
14.115
 11
2.05125
 21
13.425
  0
LINE
  5
3AA
100
AcDbEntity
  8
0
100
AcDbLine
 62
7
  6
CONTINUOUS
 10
1.9487289136
 20
12.280531911
 11
1.975423727
 21
12.3539361781
  0
LINE
  5
3AB
100
AcDbEntity
  8
0
100
AcDbLine
 62
7
  6
CONTINUOUS
 10
4.7711396702
 20
-18.7906974972
 11
4.4702084439
 21
-18.0394365796
  0
LINE
  5
3AC
100
AcDbEntity
  8
0
100
AcDbLine
 62
7
  6
CONTINUOUS
 10
6.3766042134
 20
-19.8862425557
 11
6.075672987
 21
-19.134981638
  0
LINE
  5
3AD
100
AcDbEntity
  8
0
100
AcDbLine
 62
7
  6
CONTINUOUS
 10
4.4697104413
 20
-18.2746324452
 11
4.550599099
 21
-18.4810869372
  0
LINE
  5
3AE
100
AcDbEntity
  8
0
100
AcDbLine
 62
7
  6
CONTINUOUS
 10
6.0751749845
 20
-19.3701775037
 11
6.1560636422
 21
-19.5766319957
  0
LINE
  5
3AF
100
AcDbEntity
  8
0
100
AcDbLine
 62
7
  6
CONTINUOUS
 10
6.682657682
 20
-19.134981638
 11
6.9714947002
 21
-19.8862425557
  0
LINE
  5
3B0
100
AcDbEntity
  8
0
100
AcDbLine
 62
7
  6
CONTINUOUS
 10
4.5808344803
 20
-18.5630426737
 11
4.664639871
 21
-18.7906974972
  0
LINE
  5
3B1
100
AcDbEntity
  8
0
100
AcDbLine
 62
7
  6
CONTINUOUS
 10
6.1862990234
 20
-19.6585877321
 11
6.2701044141
 21
-19.8862425557
  0
LINE
  5
3B2
100
AcDbEntity
  8
0
100
AcDbLine
 62
7
  6
CONTINUOUS
 10
6.9842291973
 20
-19.6793612044
 11
6.7891574117
 21
-19.134981638
  0
LINE
  5
3B3
100
AcDbEntity
  8
0
100
AcDbLine
 62
7
  6
CONTINUOUS
 10
-3.195
 20
10.5749034211
 11
-3.1820000124
 21
10.525116193
  0
LINE
  5
3B4
100
AcDbEntity
  8
0
100
AcDbLine
 62
7
  6
CONTINUOUS
 10
-2.7529999752
 20
10.8902225557
 11
-2.766
 21
10.9400098303
  0
LINE
  5
3B5
100
AcDbEntity
  8
0
100
AcDbLine
 62
7
  6
CONTINUOUS
 10
-3.312
 20
10.9400098303
 11
-3.3249999876
 21
11.0063928011
  0
LINE
  5
3B6
100
AcDbEntity
  8
0
100
AcDbLine
 62
7
  6
CONTINUOUS
 10
-2.5450000248
 20
10.5417119357
 11
-2.5579999752
 21
10.6080949065
  0
LINE
  5
3B7
100
AcDbEntity
  8
0
100
AcDbLine
 62
7
  6
CONTINUOUS
 10
-3.2079999876
 20
10.6578821578
 11
-3.195
 21
10.5749034211
  0
LINE
  5
3B8
100
AcDbEntity
  8
0
100
AcDbLine
 62
7
  6
CONTINUOUS
 10
-2.7400000248
 20
10.8072438422
 11
-2.7529999752
 21
10.8902225557
  0
LINE
  5
3B9
100
AcDbEntity
  8
0
100
AcDbLine
 62
7
  6
CONTINUOUS
 10
-2.6359999752
 20
10.6080949065
 11
-2.6230000248
 21
10.525116193
  0
LINE
  5
3BA
100
AcDbEntity
  8
0
100
AcDbLine
 62
7
  6
CONTINUOUS
 10
-3.1300000248
 20
10.5749034211
 11
-3.1429999752
 21
10.6744779005
  0
LINE
  5
3BB
100
AcDbEntity
  8
0
100
AcDbLine
 62
7
  6
CONTINUOUS
 10
-2.8180000248
 20
10.8902225557
 11
-2.805
 21
10.7906480995
  0
LINE
  5
3BC
100
AcDbEntity
  8
0
100
AcDbLine
 62
7
  6
CONTINUOUS
 10
0.6406778629
 20
12.6475532055
 11
0.6406778629
 21
12.075
  0
LINE
  5
3BD
100
AcDbEntity
  8
0
100
AcDbLine
 62
7
  6
CONTINUOUS
 10
0.8008473544
 20
12.075
 11
0.8008473544
 21
12.765
  0
LINE
  5
3BE
100
AcDbEntity
  8
0
100
AcDbLine
 62
7
  6
CONTINUOUS
 10
0.8564727106
 20
-19.2579152427
 11
0.8564727106
 21
-19.8862425557
  0
LINE
  5
3BF
100
AcDbEntity
  8
ASSI
100
AcDbLine
 62
7
  6
CONTINUOUS
 10
0.9352668
 20
-13.3125
 11
0.9352668
 21
-13.0875
  0
LINE
  5
3C0
100
AcDbEntity
  8
0
100
AcDbLine
 62
7
  6
CONTINUOUS
 10
0.9566408329
 20
-19.8862425557
 11
0.9566408329
 21
-19.134981638
  0
LINE
  5
3C1
100
AcDbEntity
  8
0
100
AcDbLine
 62
7
  6
CONTINUOUS
 10
1.0144067782
 20
12.4860638219
 11
1.0144067782
 21
12.3539361781
  0
LINE
  5
3C2
100
AcDbEntity
  8
0
100
AcDbLine
 62
7
  6
CONTINUOUS
 10
1.0358219839
 20
-18.0394365796
 11
1.0358219839
 21
-18.7906974972
  0
LINE
  5
3C3
100
AcDbEntity
  8
ASSI
100
AcDbLine
 62
7
  6
CONTINUOUS
 10
1.0552668
 20
-13.9644111377
 11
1.0552668
 21
-13.7391650201
  0
LINE
  5
3C4
100
AcDbEntity
  8
ASSI
100
AcDbLine
 62
7
  6
CONTINUOUS
 10
1.0552668
 20
-12.660834
 11
1.0552668
 21
-12.4355889277
  0
LINE
  5
3C5
100
AcDbEntity
  8
0
100
AcDbLine
 62
7
  6
CONTINUOUS
 10
1.1359901063
 20
-18.7906974972
 11
1.1359901063
 21
-18.0394365796
  0
LINE
  5
3C6
100
AcDbEntity
  8
0
100
AcDbLine
 62
7
  6
CONTINUOUS
 10
1.1478814563
 20
12.3686170274
 11
1.1478814563
 21
12.4713829726
  0
LINE
  5
3C7
100
AcDbEntity
  8
0
100
AcDbLine
 62
7
  6
CONTINUOUS
 10
1.18875
 20
14.115
 11
1.18875
 21
13.425
  0
LINE
  5
3C8
100
AcDbEntity
  8
0
100
AcDbLine
 62
7
  6
CONTINUOUS
 10
1.275
 20
13.425
 11
1.275
 21
14.115
  0
LINE
  5
3C9
100
AcDbEntity
  8
0
100
AcDbLine
 62
7
  6
CONTINUOUS
 10
1.3773042192
 20
-16.9393384246
 11
1.3773042192
 21
-17.6905993423
  0
LINE
  5
3CA
100
AcDbEntity
  8
0
100
AcDbLine
 62
7
  6
CONTINUOUS
 10
1.3899998903
 20
14.115
 11
1.3899998903
 21
14.0415957534
  0
LINE
  5
3CB
100
AcDbEntity
  8
0
100
AcDbLine
 62
7
  6
CONTINUOUS
 10
1.4774723416
 20
-17.6905993423
 11
1.4774723416
 21
-17.3809887823
  0
LINE
  5
3CC
100
AcDbEntity
  8
0
100
AcDbLine
 62
7
  6
CONTINUOUS
 10
1.4774723416
 20
-17.2944799493
 11
1.4774723416
 21
-17.0258472576
  0
LINE
  5
3CD
100
AcDbEntity
  8
0
100
AcDbLine
 62
7
  6
CONTINUOUS
 10
1.62
 20
14.0415957534
 11
1.62
 21
13.425
  0
LINE
  5
3CE
100
AcDbEntity
  8
0
100
AcDbLine
 62
7
  6
CONTINUOUS
 10
1.70625
 20
13.425
 11
1.70625
 21
14.0415957534
  0
LINE
  5
3CF
100
AcDbEntity
  8
ASSI
100
AcDbLine
 62
7
  6
CONTINUOUS
 10
1.7196717
 20
9.991986
 11
1.7196717
 21
9.8288913
  0
LINE
  5
3D0
100
AcDbEntity
  8
ASSI
100
AcDbLine
 62
7
  6
CONTINUOUS
 10
1.7249979
 20
11.3146839
 11
1.7249979
 21
11.1506922
  0
LINE
  5
3D1
100
AcDbEntity
  8
0
100
AcDbLine
 62
7
  6
CONTINUOUS
 10
1.8171760659
 20
-19.134981638
 11
1.8171760659
 21
-19.8862425557
  0
LINE
  5
3D2
100
AcDbEntity
  8
0
100
AcDbLine
 62
7
  6
CONTINUOUS
 10
1.841949049
 20
12.4713829726
 11
1.841949049
 21
12.3686170274
  0
LINE
  5
3D3
100
AcDbEntity
  8
ASSI
100
AcDbLine
 62
7
  6
CONTINUOUS
 10
1.8642087
 20
11.1506922
 11
1.8642087
 21
10.7348541
  0
LINE
  5
3D4
100
AcDbEntity
  8
ASSI
100
AcDbLine
 62
7
  6
CONTINUOUS
 10
1.8642087
 20
10.5327378
 11
1.8642087
 21
9.991986
  0
LINE
  5
3D5
100
AcDbEntity
  8
0
100
AcDbLine
 62
7
  6
CONTINUOUS
 10
1.9173441882
 20
-19.8862425557
 11
1.9173441882
 21
-19.5538665133
  0
LINE
  5
3D6
100
AcDbEntity
  8
0
100
AcDbLine
 62
7
  6
CONTINUOUS
 10
1.9173441882
 20
-19.4673576804
 11
1.9173441882
 21
-19.221490471
  0
LINE
  5
3D7
100
AcDbEntity
  8
0
100
AcDbLine
 62
7
  6
CONTINUOUS
 10
1.9362497807
 20
14.0415957534
 11
1.9362497807
 21
14.115
  0
LINE
  5
3D8
100
AcDbEntity
  8
0
100
AcDbLine
 62
7
  6
CONTINUOUS
 10
1.975423727
 20
12.3539361781
 11
1.975423727
 21
12.4860638219
  0
LINE
  5
3D9
100
AcDbEntity
  8
ASSI
100
AcDbLine
 62
7
  6
CONTINUOUS
 10
2.0379558
 20
9.991986
 11
2.0379558
 21
10.5345618
  0
LINE
  5
3DA
100
AcDbEntity
  8
ASSI
100
AcDbLine
 62
7
  6
CONTINUOUS
 10
2.0379558
 20
10.7348541
 11
2.0379558
 21
11.1506922
  0
LINE
  5
3DB
100
AcDbEntity
  8
0
100
AcDbLine
 62
7
  6
CONTINUOUS
 10
2.0739279792
 20
-18.0394365796
 11
2.0739279792
 21
-18.7906974972
  0
LINE
  5
3DC
100
AcDbEntity
  8
0
100
AcDbLine
 62
7
  6
CONTINUOUS
 10
2.0765784
 20
16.5300351
 11
2.0765784
 21
14.9699649
  0
LINE
  5
3DD
100
AcDbEntity
  8
0
100
AcDbLine
 62
7
  6
CONTINUOUS
 10
2.1740961016
 20
-18.7041886643
 11
2.1740961016
 21
-18.4446621654
  0
LINE
  5
3DE
100
AcDbEntity
  8
0
100
AcDbLine
 62
7
  6
CONTINUOUS
 10
2.1740961016
 20
-18.3581533325
 11
2.1740961016
 21
-18.1259454125
  0
LINE
  5
3DF
100
AcDbEntity
  8
ASSI
100
AcDbLine
 62
7
  6
CONTINUOUS
 10
2.1771102
 20
11.1506922
 11
2.1771102
 21
11.3146839
  0
LINE
  5
3E0
100
AcDbEntity
  8
ASSI
100
AcDbLine
 62
7
  6
CONTINUOUS
 10
2.1824364
 20
9.8288913
 11
2.1824364
 21
9.991986
  0
LINE
  5
3E1
100
AcDbEntity
  8
0
100
AcDbLine
 62
7
  6
CONTINUOUS
 10
2.1889828453
 20
12.765
 11
2.1889828453
 21
12.6915957534
  0
LINE
  5
3E2
100
AcDbEntity
  8
0
100
AcDbLine
 62
7
  6
CONTINUOUS
 10
2.3842923
 20
15.8617896
 11
2.3842884
 21
16.2414234
  0
LINE
  5
3E3
100
AcDbEntity
  8
0
100
AcDbLine
 62
7
  6
CONTINUOUS
 10
2.5838747839
 20
-18.4446621654
 11
2.5838747839
 21
-18.3581533325
  0
LINE
  5
3E4
100
AcDbEntity
  8
0
100
AcDbLine
 62
7
  6
CONTINUOUS
 10
2.6111933627
 20
-18.1259454125
 11
2.6111933627
 21
-18.0394365796
  0
LINE
  5
3E5
100
AcDbEntity
  8
0
100
AcDbLine
 62
7
  6
CONTINUOUS
 10
2.6294057486
 20
-18.7906974972
 11
2.6294057486
 21
-18.7041886643
  0
LINE
  5
3E6
100
AcDbEntity
  8
0
100
AcDbLine
 62
7
  6
CONTINUOUS
 10
2.74125
 20
14.115
 11
2.74125
 21
13.425
  0
LINE
  5
3E7
100
AcDbEntity
  8
0
100
AcDbLine
 62
7
  6
CONTINUOUS
 10
2.7705517392
 20
-18.0394365796
 11
2.7705517392
 21
-18.7906974972
  0
LINE
  5
3E8
100
AcDbEntity
  8
0
100
AcDbLine
 62
7
  6
CONTINUOUS
 10
2.8275
 20
13.5130851062
 11
2.8275
 21
14.115
  0
LINE
  5
3E9
100
AcDbEntity
  8
0
100
AcDbLine
 62
7
  6
CONTINUOUS
 10
2.8707198616
 20
-18.7906974972
 11
2.8707198616
 21
-18.2145173293
  0
LINE
  5
3EA
100
AcDbEntity
  8
0
100
AcDbLine
 62
7
  6
CONTINUOUS
 10
3.1499997941
 20
12.6915957534
 11
3.1499997941
 21
12.765
  0
LINE
  5
3EB
100
AcDbEntity
  8
0
100
AcDbLine
 62
7
  6
CONTINUOUS
 10
3.2531799651
 20
-18.0394365796
 11
3.2531799651
 21
-18.615616678
  0
LINE
  5
3EC
100
AcDbEntity
  8
0
100
AcDbLine
 62
7
  6
CONTINUOUS
 10
3.25875
 20
13.425
 11
3.25875
 21
13.5130851062
  0
LINE
  5
3ED
100
AcDbEntity
  8
0
100
AcDbLine
 62
7
  6
CONTINUOUS
 10
3.3533480874
 20
-18.7906974972
 11
3.3533480874
 21
-18.0394365796
  0
LINE
  5
3EE
100
AcDbEntity
  8
0
100
AcDbLine
 62
7
  6
CONTINUOUS
 10
3.4580693063
 20
-18.7005603601
 11
3.4580693063
 21
-18.7906974972
  0
LINE
  5
3EF
100
AcDbEntity
  8
0
100
AcDbLine
 62
7
  6
CONTINUOUS
 10
3.503600271
 20
-18.0394365796
 11
3.503600271
 21
-18.1259454125
  0
LINE
  5
3F0
100
AcDbEntity
  8
0
100
AcDbLine
 62
7
  6
CONTINUOUS
 10
3.60375
 20
13.7773404247
 11
3.60375
 21
13.425
  0
LINE
  5
3F1
100
AcDbEntity
  8
0
100
AcDbLine
 62
7
  6
CONTINUOUS
 10
3.69
 20
13.425
 11
3.69
 21
13.7773404247
  0
LINE
  5
3F2
100
AcDbEntity
  8
0
100
AcDbLine
 62
7
  6
CONTINUOUS
 10
4.0254278541
 20
-19.134981638
 11
4.0254278541
 21
-19.221490471
  0
LINE
  5
3F3
100
AcDbEntity
  8
0
100
AcDbLine
 62
7
  6
CONTINUOUS
 10
4.036312558
 20
-18.1259454125
 11
4.036312558
 21
-18.0394365796
  0
LINE
  5
3F4
100
AcDbEntity
  8
0
100
AcDbLine
 62
7
  6
CONTINUOUS
 10
4.05
 20
8.925
 11
4.05
 21
17.025
  0
LINE
  5
3F5
100
AcDbEntity
  8
0
100
AcDbLine
 62
7
  6
CONTINUOUS
 10
4.0545249439
 20
-18.7906974972
 11
4.0545249439
 21
-18.7041886643
  0
LINE
  5
3F6
100
AcDbEntity
  8
0
100
AcDbLine
 62
7
  6
CONTINUOUS
 10
2.388594
 20
14.9699649
 11
2.3886291
 21
15.5731779
  0
LINE
  5
3F7
100
AcDbEntity
  8
0
100
AcDbLine
 62
7
  6
CONTINUOUS
 10
-0.4752368291
 20
-19.4491452945
 11
-0.4857658864
 21
-19.531101031
  0
LINE
  5
3F8
100
AcDbEntity
  8
0
100
AcDbLine
 62
7
  6
CONTINUOUS
 10
-2.4108720443
 20
-16.9393384246
 11
-2.6177533261
 21
-17.483717991
  0
LINE
  5
3F9
100
AcDbEntity
  8
0
100
AcDbLine
 62
7
  6
CONTINUOUS
 10
-3.156
 20
10.4587332105
 11
-3.117
 21
10.4089459766
  0
LINE
  5
3FA
100
AcDbEntity
  8
0
100
AcDbLine
 62
7
  6
CONTINUOUS
 10
-3.15
 20
12.765
 11
-2.7228813434
 21
12.075
  0
LINE
  5
3FB
100
AcDbEntity
  8
0
100
AcDbLine
 62
7
  6
CONTINUOUS
 10
-3.4160000124
 20
10.9897970584
 11
-3.39
 21
10.9400098303
  0
LINE
  5
3FC
100
AcDbEntity
  8
0
100
AcDbLine
 62
7
  6
CONTINUOUS
 10
-3.078
 20
10.4753289532
 11
-3.1300000248
 21
10.5749034211
  0
LINE
  5
3FD
100
AcDbEntity
  8
0
100
AcDbLine
 62
7
  6
CONTINUOUS
 10
-2.8699999752
 20
10.9897970584
 11
-2.8180000248
 21
10.8902225557
  0
LINE
  5
3FE
100
AcDbEntity
  8
0
100
AcDbLine
 62
7
  6
CONTINUOUS
 10
-2.5190000496
 20
10.4919247076
 11
-2.5450000248
 21
10.5417119357
  0
LINE
  5
3FF
100
AcDbEntity
  8
0
100
AcDbLine
 62
7
  6
CONTINUOUS
 10
-3.1820000124
 20
10.525116193
 11
-3.156
 21
10.4587332105
  0
LINE
  5
400
100
AcDbEntity
  8
0
100
AcDbLine
 62
7
  6
CONTINUOUS
 10
-2.6230000248
 20
10.525116193
 11
-2.5969999752
 21
10.4587332105
  0
LINE
  5
401
100
AcDbEntity
  8
0
100
AcDbLine
 62
7
  6
CONTINUOUS
 10
-2.766
 20
10.9400098303
 11
-2.7919999752
 21
11.0063928011
  0
LINE
  5
402
100
AcDbEntity
  8
0
100
AcDbLine
 62
7
  6
CONTINUOUS
 10
-3.81375
 20
13.9681915069
 11
-3.6125000069
 21
13.425
  0
LINE
  5
403
100
AcDbEntity
  8
0
100
AcDbLine
 62
7
  6
CONTINUOUS
 10
-0.6940678484
 20
12.3539361781
 11
-0.6673728822
 21
12.280531911
  0
LINE
  5
404
100
AcDbEntity
  8
0
100
AcDbLine
 62
7
  6
CONTINUOUS
 10
-3.555
 20
13.4984042569
 11
-3.770625
 21
14.115
  0
LINE
  5
405
100
AcDbEntity
  8
0
100
AcDbLine
 62
7
  6
CONTINUOUS
 10
-2.52
 20
13.425
 11
-2.7500000274
 21
14.115
  0
LINE
  5
406
100
AcDbEntity
  8
0
100
AcDbLine
 62
7
  6
CONTINUOUS
 10
-2.6637500274
 20
13.6011702123
 11
-2.60625
 21
13.425
  0
LINE
  5
407
100
AcDbEntity
  8
0
100
AcDbLine
 62
7
  6
CONTINUOUS
 10
-2.8074999726
 20
14.0562766027
 11
-2.6781249726
 21
13.6598936096
  0
LINE
  5
408
100
AcDbEntity
  8
0
100
AcDbLine
 62
7
  6
CONTINUOUS
 10
-3.3250542
 20
16.5300312
 11
-2.8241694
 21
14.9699571
  0
LINE
  5
409
100
AcDbEntity
  8
0
100
AcDbLine
 62
7
  6
CONTINUOUS
 10
-2.6681538
 20
15.4558386
 11
-3.0130386
 21
16.5300312
  0
LINE
  5
40A
100
AcDbEntity
  8
0
100
AcDbLine
 62
7
  6
CONTINUOUS
 10
-0.5338982042
 20
12.280531911
 11
-0.5605933231
 21
12.3686170274
  0
LINE
  5
40B
100
AcDbEntity
  8
0
100
AcDbLine
 62
7
  6
CONTINUOUS
 10
0.1067797617
 20
12.5594680685
 11
0.1334745751
 21
12.4713829726
  0
LINE
  5
40C
100
AcDbEntity
  8
0
100
AcDbLine
 62
7
  6
CONTINUOUS
 10
-0.8672274
 20
15.9987225
 11
-0.5722392
 21
14.969961
  0
LINE
  5
40D
100
AcDbEntity
  8
0
100
AcDbLine
 62
7
  6
CONTINUOUS
 10
-0.4162353
 20
15.5140578
 11
-0.7075614
 21
16.5300312
  0
LINE
  5
40E
100
AcDbEntity
  8
0
100
AcDbLine
 62
7
  6
CONTINUOUS
 10
-1.9306249452
 20
13.9388297671
 11
-1.91625
 21
13.8801063699
  0
LINE
  5
40F
100
AcDbEntity
  8
0
100
AcDbLine
 62
7
  6
CONTINUOUS
 10
-1.83
 20
13.8801063699
 11
-1.8443749452
 21
13.9535106575
  0
LINE
  5
410
100
AcDbEntity
  8
0
100
AcDbLine
 62
7
  6
CONTINUOUS
 10
4.2712950635
 20
-19.221490471
 11
4.2712950635
 21
-19.8862425557
  0
LINE
  5
411
100
AcDbEntity
  8
0
100
AcDbLine
 62
7
  6
CONTINUOUS
 10
4.3714631859
 20
-19.8862425557
 11
4.3714631859
 21
-19.221490471
  0
LINE
  5
412
100
AcDbEntity
  8
0
100
AcDbLine
 62
7
  6
CONTINUOUS
 10
4.6173303953
 20
-19.221490471
 11
4.6173303953
 21
-19.134981638
  0
LINE
  5
413
100
AcDbEntity
  8
0
100
AcDbLine
 62
7
  6
CONTINUOUS
 10
4.731157807
 20
-19.134981638
 11
4.731157807
 21
-19.8862425557
  0
LINE
  5
414
100
AcDbEntity
  8
0
100
AcDbLine
 62
7
  6
CONTINUOUS
 10
4.8313259294
 20
-19.8862425557
 11
4.8313259294
 21
-19.134981638
  0
LINE
  5
415
100
AcDbEntity
  8
0
100
AcDbLine
 62
7
  6
CONTINUOUS
 10
5.1791397721
 20
-18.2238369519
 11
5.1791397721
 21
-18.3131914441
  0
LINE
  5
416
100
AcDbEntity
  8
0
100
AcDbLine
 62
7
  6
CONTINUOUS
 10
5.3658167274
 20
-18.2017829017
 11
5.3658167274
 21
-18.7906974972
  0
LINE
  5
417
100
AcDbEntity
  8
0
100
AcDbLine
 62
7
  6
CONTINUOUS
 10
5.4568786568
 20
-18.7906974972
 11
5.4568786568
 21
-18.0348834831
  0
LINE
  5
418
100
AcDbEntity
  8
0
100
AcDbLine
 62
7
  6
CONTINUOUS
 10
5.661767998
 20
-18.5266179019
 11
5.661767998
 21
-18.6131267348
  0
LINE
  5
419
100
AcDbEntity
  8
0
100
AcDbLine
 62
7
  6
CONTINUOUS
 10
5.9941440404
 20
-18.6131267348
 11
5.9941440404
 21
-18.7906974972
  0
LINE
  5
41A
100
AcDbEntity
  8
0
100
AcDbLine
 62
7
  6
CONTINUOUS
 10
5.9941440404
 20
-18.1913961308
 11
5.9941440404
 21
-18.5266179019
  0
LINE
  5
41B
100
AcDbEntity
  8
0
100
AcDbLine
 62
7
  6
CONTINUOUS
 10
6.0852059698
 20
-18.7906974972
 11
6.0852059698
 21
-18.6131267348
  0
LINE
  5
41C
100
AcDbEntity
  8
0
100
AcDbLine
 62
7
  6
CONTINUOUS
 10
6.0852059698
 20
-18.5266179019
 11
6.0852059698
 21
-18.0394365796
  0
LINE
  5
41D
100
AcDbEntity
  8
0
100
AcDbLine
 62
7
  6
CONTINUOUS
 10
6.1853740921
 20
-18.6131267348
 11
6.1853740921
 21
-18.5266179019
  0
LINE
  5
41E
100
AcDbEntity
  8
0
100
AcDbLine
 62
7
  6
CONTINUOUS
 10
7.4630156894
 20
-19.134981638
 11
7.4630156894
 21
-19.8862425557
  0
LINE
  5
41F
100
AcDbEntity
  8
0
100
AcDbLine
 62
7
  6
CONTINUOUS
 10
7.5631838117
 20
-19.8862425557
 11
7.5631838117
 21
-19.134981638
  0
LINE
  5
420
100
AcDbEntity
  8
0
100
AcDbLine
 62
7
  6
CONTINUOUS
 10
-1.9191376255
 20
-18.7906974972
 11
-1.8399564051
 21
-18.5630426737
  0
LINE
  5
421
100
AcDbEntity
  8
0
100
AcDbLine
 62
7
  6
CONTINUOUS
 10
-1.0449431031
 20
-17.6905993423
 11
-0.9657618827
 21
-17.4629445187
  0
LINE
  5
422
100
AcDbEntity
  8
0
100
AcDbLine
 62
7
  6
CONTINUOUS
 10
-2.0620621271
 20
-21.0
 11
-1.9828809066
 21
-20.7723451765
  0
LINE
  5
423
100
AcDbEntity
  8
0
100
AcDbLine
 62
7
  6
CONTINUOUS
 10
1.1387646918
 20
-19.8862425557
 11
1.2179459122
 21
-19.6585877321
  0
LINE
  5
424
100
AcDbEntity
  8
0
100
AcDbLine
 62
7
  6
CONTINUOUS
 10
-1.5489850902
 20
-17.6905993423
 11
-1.3272350843
 21
-17.0622720293
  0
LINE
  5
425
100
AcDbEntity
  8
0
100
AcDbLine
 62
7
  6
CONTINUOUS
 10
0.6347227047
 20
-19.8862425557
 11
0.8564727106
 21
-19.2579152427
  0
LINE
  5
426
100
AcDbEntity
  8
0
100
AcDbLine
 62
7
  6
CONTINUOUS
 10
-1.3573993224
 20
-16.9393384246
 11
-1.5432225591
 21
-17.4608813654
  0
LINE
  5
427
100
AcDbEntity
  8
0
100
AcDbLine
 62
7
  6
CONTINUOUS
 10
0.8263084725
 20
-19.134981638
 11
0.6404852358
 21
-19.6565245788
  0
LINE
  5
428
100
AcDbEntity
  8
0
100
AcDbLine
 62
7
  6
CONTINUOUS
 10
-1.8114283915
 20
-18.4810869372
 11
-1.7302552305
 21
-18.2617557312
  0
LINE
  5
429
100
AcDbEntity
  8
0
100
AcDbLine
 62
7
  6
CONTINUOUS
 10
-0.9372338692
 20
-17.3809887823
 11
-0.8560607081
 21
-17.1616575763
  0
LINE
  5
42A
100
AcDbEntity
  8
0
100
AcDbLine
 62
7
  6
CONTINUOUS
 10
-1.9543528931
 20
-20.69038944
 11
-1.873179732
 21
-20.471058234
  0
LINE
  5
42B
100
AcDbEntity
  8
0
100
AcDbLine
 62
7
  6
CONTINUOUS
 10
-2.4108720443
 20
-18.0394365796
 11
-2.6177533261
 21
-18.5838161459
  0
LINE
  5
42C
100
AcDbEntity
  8
0
100
AcDbLine
 62
7
  6
CONTINUOUS
 10
-1.7392902802
 20
-18.0394365796
 11
-2.0248547799
 21
-18.7906974972
  0
LINE
  5
42D
100
AcDbEntity
  8
0
100
AcDbLine
 62
7
  6
CONTINUOUS
 10
-0.8650957578
 20
-16.9393384246
 11
-1.1506602575
 21
-17.6905993423
  0
LINE
  5
42E
100
AcDbEntity
  8
0
100
AcDbLine
 62
7
  6
CONTINUOUS
 10
-1.8822147817
 20
-20.2487390824
 11
-2.1677792815
 21
-21.0
  0
LINE
  5
42F
100
AcDbEntity
  8
0
100
AcDbLine
 62
7
  6
CONTINUOUS
 10
0.8445919321
 20
-18.0394365796
 11
0.6377106503
 21
-18.5838161459
  0
LINE
  5
430
100
AcDbEntity
  8
0
100
AcDbLine
 62
7
  6
CONTINUOUS
 10
-2.6033826045
 20
-17.6905993423
 11
-2.3037319561
 21
-16.9393384246
  0
LINE
  5
431
100
AcDbEntity
  8
0
100
AcDbLine
 62
7
  6
CONTINUOUS
 10
-2.6033826045
 20
-18.7906974972
 11
-2.3037319561
 21
-18.0394365796
  0
LINE
  5
432
100
AcDbEntity
  8
0
100
AcDbLine
 62
7
  6
CONTINUOUS
 10
0.6520813719
 20
-18.7906974972
 11
0.9517320204
 21
-18.0394365796
  0
LINE
  5
433
100
AcDbEntity
  8
0
100
AcDbLine
 62
7
  6
CONTINUOUS
 10
-2.5450000248
 20
10.3923502339
 11
-2.493
 21
10.3591587442
  0
LINE
  5
434
100
AcDbEntity
  8
0
100
AcDbLine
 62
7
  6
CONTINUOUS
 10
-3.3770000124
 20
11.0727757719
 11
-3.429
 21
11.1059672573
  0
LINE
  5
435
100
AcDbEntity
  8
0
100
AcDbLine
 62
7
  6
CONTINUOUS
 10
-3.117
 20
10.4089459766
 11
-3.0520000248
 21
10.3591587442
  0
LINE
  5
436
100
AcDbEntity
  8
0
100
AcDbLine
 62
7
  6
CONTINUOUS
 10
-2.8309999752
 20
11.0561800292
 11
-2.8960000248
 21
11.1059672573
  0
LINE
  5
437
100
AcDbEntity
  8
0
100
AcDbLine
 62
7
  6
CONTINUOUS
 10
-3.039
 20
10.4421374678
 11
-3.078
 21
10.4753289532
  0
LINE
  5
438
100
AcDbEntity
  8
0
100
AcDbLine
 62
7
  6
CONTINUOUS
 10
-3.4550000124
 20
11.0229885438
 11
-3.4160000124
 21
10.9897970584
  0
LINE
  5
439
100
AcDbEntity
  8
0
100
AcDbLine
 62
7
  6
CONTINUOUS
 10
-2.4800000496
 20
10.4587332105
 11
-2.5190000496
 21
10.4919247076
  0
LINE
  5
43A
100
AcDbEntity
  8
0
100
AcDbLine
 62
7
  6
CONTINUOUS
 10
-2.9089999752
 20
11.0229885438
 11
-2.8699999752
 21
10.9897970584
  0
LINE
  5
43B
100
AcDbEntity
  8
0
100
AcDbLine
 62
7
  6
CONTINUOUS
 10
-3.3249999876
 20
11.0063928011
 11
-3.3770000124
 21
11.0727757719
  0
LINE
  5
43C
100
AcDbEntity
  8
0
100
AcDbLine
 62
7
  6
CONTINUOUS
 10
-2.5969999752
 20
10.4587332105
 11
-2.5450000248
 21
10.3923502339
  0
LINE
  5
43D
100
AcDbEntity
  8
0
100
AcDbLine
 62
7
  6
CONTINUOUS
 10
-2.7919999752
 20
11.0063928011
 11
-2.8309999752
 21
11.0561800292
  0
LINE
  5
43E
100
AcDbEntity
  8
0
100
AcDbLine
 62
7
  6
CONTINUOUS
 10
-1.959375
 20
13.9828723562
 11
-1.9306249452
 21
13.9388297671
  0
LINE
  5
43F
100
AcDbEntity
  8
0
100
AcDbLine
 62
7
  6
CONTINUOUS
 10
-2.6161017078
 20
12.1630851062
 11
-2.9898305085
 21
12.765
  0
LINE
  5
440
100
AcDbEntity
  8
0
100
AcDbLine
 62
7
  6
CONTINUOUS
 10
0.2975001097
 20
13.5277659555
 11
-0.061875
 21
14.115
  0
LINE
  5
441
100
AcDbEntity
  8
0
100
AcDbLine
 62
7
  6
CONTINUOUS
 10
-0.6673728822
 20
12.280531911
 11
-0.6406779161
 21
12.236489363
  0
LINE
  5
442
100
AcDbEntity
  8
0
100
AcDbLine
 62
7
  6
CONTINUOUS
 10
0.2402541343
 20
12.5594680685
 11
0.2135593209
 21
12.6035106575
  0
LINE
  5
443
100
AcDbEntity
  8
0
100
AcDbLine
 62
7
  6
CONTINUOUS
 10
1.0411015916
 20
12.280531911
 11
1.0677967105
 21
12.236489363
  0
LINE
  5
444
100
AcDbEntity
  8
0
100
AcDbLine
 62
7
  6
CONTINUOUS
 10
-0.105
 20
14.0269149041
 11
0.2543751097
 21
13.425
  0
LINE
  5
445
100
AcDbEntity
  8
ASSI
100
AcDbLine
 62
7
  6
CONTINUOUS
 10
2.2525272
 20
10.0359945
 11
2.3276016
 21
9.9022359
  0
LINE
  5
446
100
AcDbEntity
  8
0
100
AcDbLine
 62
7
  6
CONTINUOUS
 10
-1.8443749452
 20
13.9535106575
 11
-1.873125
 21
14.0122340548
  0
LINE
  5
447
100
AcDbEntity
  8
0
100
AcDbLine
 62
7
  6
CONTINUOUS
 10
0.2669492532
 20
12.4860638219
 11
0.2402541343
 21
12.5594680685
  0
LINE
  5
448
100
AcDbEntity
  8
0
100
AcDbLine
 62
7
  6
CONTINUOUS
 10
1.0144067782
 20
12.3539361781
 11
1.0411015916
 21
12.280531911
  0
LINE
  5
449
100
AcDbEntity
  8
0
100
AcDbLine
 62
7
  6
CONTINUOUS
 10
1.975423727
 20
12.4860638219
 11
1.9487289136
 21
12.5594680685
  0
LINE
  5
44A
100
AcDbEntity
  8
0
100
AcDbLine
 62
7
  6
CONTINUOUS
 10
2.6262497807
 20
13.425
 11
2.39625
 21
14.115
  0
LINE
  5
44B
100
AcDbEntity
  8
0
100
AcDbLine
 62
7
  6
CONTINUOUS
 10
2.4825
 20
13.6011702123
 11
2.5399997807
 21
13.425
  0
LINE
  5
44C
100
AcDbEntity
  8
0
100
AcDbLine
 62
7
  6
CONTINUOUS
 10
2.3387502193
 20
14.0562766027
 11
2.4681252193
 21
13.6598936096
  0
LINE
  5
44D
100
AcDbEntity
  8
0
100
AcDbLine
 62
7
  6
CONTINUOUS
 10
1.4580579
 20
15.2767623
 11
1.5565563
 21
14.9699649
  0
LINE
  5
44E
100
AcDbEntity
  8
0
100
AcDbLine
 62
7
  6
CONTINUOUS
 10
1.2116676
 20
16.0441536
 11
1.3628823
 21
15.573174
  0
LINE
  5
44F
100
AcDbEntity
  8
0
100
AcDbLine
 62
7
  6
CONTINUOUS
 10
1.8685719
 20
14.969961
 11
1.3676832
 21
16.5300351
  0
LINE
  5
450
100
AcDbEntity
  8
0
100
AcDbLine
 62
7
  6
CONTINUOUS
 10
1.1745762697
 20
12.280531911
 11
1.1478814563
 21
12.3686170274
  0
LINE
  5
451
100
AcDbEntity
  8
0
100
AcDbLine
 62
7
  6
CONTINUOUS
 10
1.8152542355
 20
12.5594680685
 11
1.841949049
 21
12.4713829726
  0
LINE
  5
452
100
AcDbEntity
  8
0
100
AcDbLine
 62
7
  6
CONTINUOUS
 10
2.0921403651
 20
-17.6905993423
 11
2.1713215855
 21
-17.4629445187
  0
LINE
  5
453
100
AcDbEntity
  8
0
100
AcDbLine
 62
7
  6
CONTINUOUS
 10
4.1820116451
 20
-18.7906974972
 11
4.2611928655
 21
-18.5630426737
  0
LINE
  5
454
100
AcDbEntity
  8
0
100
AcDbLine
 62
7
  6
CONTINUOUS
 10
1.2464739257
 20
-19.5766319957
 11
1.3276470868
 21
-19.3573007897
  0
LINE
  5
455
100
AcDbEntity
  8
0
100
AcDbLine
 62
7
  6
CONTINUOUS
 10
2.1998495991
 20
-17.3809887823
 11
2.2810227601
 21
-17.1616575763
  0
LINE
  5
456
100
AcDbEntity
  8
0
100
AcDbLine
 62
7
  6
CONTINUOUS
 10
4.2897208791
 20
-18.4810869372
 11
4.3708940401
 21
-18.2617557312
  0
LINE
  5
457
100
AcDbEntity
  8
0
100
AcDbLine
 62
7
  6
CONTINUOUS
 10
1.3186120371
 20
-19.134981638
 11
1.0330475374
 21
-19.8862425557
  0
LINE
  5
458
100
AcDbEntity
  8
0
100
AcDbLine
 62
7
  6
CONTINUOUS
 10
2.2719877104
 20
-16.9393384246
 11
1.9864232107
 21
-17.6905993423
  0
LINE
  5
459
100
AcDbEntity
  8
0
100
AcDbLine
 62
7
  6
CONTINUOUS
 10
4.3618589904
 20
-18.0394365796
 11
4.0762944907
 21
-18.7906974972
  0
LINE
  5
45A
100
AcDbEntity
  8
0
100
AcDbLine
 62
7
  6
CONTINUOUS
 10
-2.376
 20
10.342563
 11
-2.3109999504
 21
10.3591587442
  0
LINE
  5
45B
100
AcDbEntity
  8
0
100
AcDbLine
 62
7
  6
CONTINUOUS
 10
-2.9089999752
 20
10.4421374678
 11
-2.9740000248
 21
10.4255417251
  0
LINE
  5
45C
100
AcDbEntity
  8
0
100
AcDbLine
 62
7
  6
CONTINUOUS
 10
-2.9740000248
 20
10.342563
 11
-2.8960000248
 21
10.3591587442
  0
LINE
  5
45D
100
AcDbEntity
  8
0
100
AcDbLine
 62
7
  6
CONTINUOUS
 10
-4.05
 20
8.925
 11
4.05
 21
8.925
  0
LINE
  5
45E
100
AcDbEntity
  8
ASSI
100
AcDbLine
 62
7
  6
CONTINUOUS
 10
1.7196717
 20
9.8288913
 11
2.1824364
 21
9.8288913
  0
LINE
  5
45F
100
AcDbEntity
  8
ASSI
100
AcDbLine
 62
7
  6
CONTINUOUS
 10
1.8642087
 20
9.991986
 11
1.7196717
 21
9.991986
  0
LINE
  5
460
100
AcDbEntity
  8
ASSI
100
AcDbLine
 62
7
  6
CONTINUOUS
 10
2.1824364
 20
9.991986
 11
2.0379558
 21
9.991986
  0
LINE
  5
461
100
AcDbEntity
  8
0
100
AcDbLine
 62
7
  6
CONTINUOUS
 10
-3.78
 20
10.342563
 11
-3.312
 21
10.342563
  0
LINE
  5
462
100
AcDbEntity
  8
0
100
AcDbLine
 62
7
  6
CONTINUOUS
 10
-2.4279999504
 20
10.342563
 11
-2.376
 21
10.342563
  0
LINE
  5
463
100
AcDbEntity
  8
0
100
AcDbLine
 62
7
  6
CONTINUOUS
 10
-1.477446
 20
10.342563
 11
-1.3740981
 21
10.342563
  0
LINE
  5
464
100
AcDbEntity
  8
0
100
AcDbLine
 62
7
  6
CONTINUOUS
 10
-1.1866059
 20
10.342563
 11
-1.0832865
 21
10.342563
  0
LINE
  5
465
100
AcDbEntity
  8
0
100
AcDbLine
 62
7
  6
CONTINUOUS
 10
-0.214005
 20
10.342563
 11
-0.1202589
 21
10.342563
  0
LINE
  5
466
100
AcDbEntity
  8
0
100
AcDbLine
 62
7
  6
CONTINUOUS
 10
-3.312
 20
10.4255417251
 11
-3.6759999969
 21
10.4255417251
  0
LINE
  5
467
100
AcDbEntity
  8
0
100
AcDbLine
 62
7
  6
CONTINUOUS
 10
-2.376
 20
10.4421374678
 11
-2.4279999504
 21
10.4421374678
  0
LINE
  5
468
100
AcDbEntity
  8
0
100
AcDbLine
 62
7
  6
CONTINUOUS
 10
-0.5410365
 20
10.5247371
 11
-0.214005
 21
10.5247371
  0
LINE
  5
469
100
AcDbEntity
  8
0
100
AcDbLine
 62
7
  6
CONTINUOUS
 10
-0.1202589
 20
10.5247371
 11
-0.0105192
 21
10.5247371
  0
LINE
  5
46A
100
AcDbEntity
  8
0
100
AcDbLine
 62
7
  6
CONTINUOUS
 10
-0.214005
 20
10.6056912
 11
-0.4547619
 21
10.6056912
  0
LINE
  5
46B
100
AcDbEntity
  8
0
100
AcDbLine
 62
7
  6
CONTINUOUS
 10
-0.0105192
 20
10.6056912
 11
-0.1202589
 21
10.6056912
  0
LINE
  5
46C
100
AcDbEntity
  8
0
100
AcDbLine
 62
7
  6
CONTINUOUS
 10
-2.5579999752
 20
10.6080949065
 11
-2.6359999752
 21
10.6080949065
  0
LINE
  5
46D
100
AcDbEntity
  8
0
100
AcDbLine
 62
7
  6
CONTINUOUS
 10
-1.0832865
 20
10.6653561
 11
-0.8427705919
 21
10.6653561
  0
LINE
  5
46E
100
AcDbEntity
  8
0
100
AcDbLine
 62
7
  6
CONTINUOUS
 10
-0.8668787307
 20
10.7537643
 11
-1.0832865
 21
10.7537643
  0
LINE
  5
46F
100
AcDbEntity
  8
0
100
AcDbLine
 62
7
  6
CONTINUOUS
 10
-3.7669999996
 20
10.9400098303
 11
-3.702
 21
10.9400098303
  0
LINE
  5
470
100
AcDbEntity
  8
0
100
AcDbLine
 62
7
  6
CONTINUOUS
 10
-1.0832865
 20
11.0190288
 11
-0.8668770153
 21
11.0190288
  0
LINE
  5
471
100
AcDbEntity
  8
0
100
AcDbLine
 62
7
  6
CONTINUOUS
 10
-3.5719999938
 20
11.0395842865
 11
-3.5200000062
 21
11.0395842865
  0
LINE
  5
472
100
AcDbEntity
  8
0
100
AcDbLine
 62
7
  6
CONTINUOUS
 10
-0.1202589
 20
11.107437
 11
-0.1864806
 21
11.107437
  0
LINE
  5
473
100
AcDbEntity
  8
0
100
AcDbLine
 62
7
  6
CONTINUOUS
 10
-1.3740981
 20
11.107437
 11
-1.477446
 21
11.107437
  0
LINE
  5
474
100
AcDbEntity
  8
0
100
AcDbLine
 62
7
  6
CONTINUOUS
 10
-0.8427690894
 20
11.107437
 11
-1.1866059
 21
11.107437
  0
LINE
  5
475
100
AcDbEntity
  8
0
100
AcDbLine
 62
7
  6
CONTINUOUS
 10
-2.1680000496
 20
11.122563
 11
-2.2460000496
 21
11.122563
  0
LINE
  5
476
100
AcDbEntity
  8
0
100
AcDbLine
 62
7
  6
CONTINUOUS
 10
-3.507
 20
11.122563
 11
-3.5590000062
 21
11.122563
  0
LINE
  5
477
100
AcDbEntity
  8
ASSI
100
AcDbLine
 62
7
  6
CONTINUOUS
 10
2.0379558
 20
11.1506922
 11
2.1771102
 21
11.1506922
  0
LINE
  5
478
100
AcDbEntity
  8
ASSI
100
AcDbLine
 62
7
  6
CONTINUOUS
 10
1.7249979
 20
11.1506922
 11
1.8642087
 21
11.1506922
  0
LINE
  5
479
100
AcDbEntity
  8
0
100
AcDbLine
 62
7
  6
CONTINUOUS
 10
-3.0520000248
 20
10.3591587442
 11
-2.9740000248
 21
10.342563
  0
LINE
  5
47A
100
AcDbEntity
  8
0
100
AcDbLine
 62
7
  6
CONTINUOUS
 10
-3.429
 20
11.1059672573
 11
-3.507
 21
11.122563
  0
LINE
  5
47B
100
AcDbEntity
  8
0
100
AcDbLine
 62
7
  6
CONTINUOUS
 10
-2.8960000248
 20
11.1059672573
 11
-2.9740000248
 21
11.122563
  0
LINE
  5
47C
100
AcDbEntity
  8
0
100
AcDbLine
 62
7
  6
CONTINUOUS
 10
-2.9740000248
 20
10.4255417251
 11
-3.039
 21
10.4421374678
  0
LINE
  5
47D
100
AcDbEntity
  8
0
100
AcDbLine
 62
7
  6
CONTINUOUS
 10
-2.493
 20
10.3591587442
 11
-2.4279999504
 21
10.342563
  0
LINE
  5
47E
100
AcDbEntity
  8
0
100
AcDbLine
 62
7
  6
CONTINUOUS
 10
-3.5200000062
 20
11.0395842865
 11
-3.4550000124
 21
11.0229885438
  0
LINE
  5
47F
100
AcDbEntity
  8
0
100
AcDbLine
 62
7
  6
CONTINUOUS
 10
-2.9740000248
 20
11.0395842865
 11
-2.9089999752
 21
11.0229885438
  0
LINE
  5
480
100
AcDbEntity
  8
0
100
AcDbLine
 62
7
  6
CONTINUOUS
 10
-2.4279999504
 20
10.4421374678
 11
-2.4800000496
 21
10.4587332105
  0
LINE
  5
481
100
AcDbEntity
  8
0
100
AcDbLine
 62
7
  6
CONTINUOUS
 10
-0.5872881365
 20
12.1777659555
 11
-0.5072033908
 21
12.1337234024
  0
LINE
  5
482
100
AcDbEntity
  8
0
100
AcDbLine
 62
7
  6
CONTINUOUS
 10
0.1601693885
 20
12.6622340548
 11
0.0800846428
 21
12.7062766027
  0
LINE
  5
483
100
AcDbEntity
  8
0
100
AcDbLine
 62
7
  6
CONTINUOUS
 10
1.1211863373
 20
12.1777659555
 11
1.2012710831
 21
12.1337234024
  0
LINE
  5
484
100
AcDbEntity
  8
0
100
AcDbLine
 62
7
  6
CONTINUOUS
 10
-2.0025
 20
14.0122340548
 11
-1.959375
 21
13.9828723562
  0
LINE
  5
485
100
AcDbEntity
  8
0
100
AcDbLine
 62
7
  6
CONTINUOUS
 10
-0.427118645
 20
12.1924468048
 11
-0.5338982042
 21
12.280531911
  0
LINE
  5
486
100
AcDbEntity
  8
0
100
AcDbLine
 62
7
  6
CONTINUOUS
 10
-0.0000001029
 20
12.6475532055
 11
0.1067797617
 21
12.5594680685
  0
LINE
  5
487
100
AcDbEntity
  8
0
100
AcDbLine
 62
7
  6
CONTINUOUS
 10
1.2813558288
 20
12.1924468048
 11
1.1745762697
 21
12.280531911
  0
LINE
  5
488
100
AcDbEntity
  8
0
100
AcDbLine
 62
7
  6
CONTINUOUS
 10
1.7084746764
 20
12.6475532055
 11
1.8152542355
 21
12.5594680685
  0
LINE
  5
489
100
AcDbEntity
  8
ASSI
100
AcDbLine
 62
7
  6
CONTINUOUS
 10
1.4256672
 20
10.9022994
 11
1.8642087
 21
10.5327378
  0
LINE
  5
48A
100
AcDbEntity
  8
ASSI
100
AcDbLine
 62
7
  6
CONTINUOUS
 10
1.8642087
 20
10.7348541
 11
1.4054256
 21
11.1214734
  0
LINE
  5
48B
100
AcDbEntity
  8
0
100
AcDbLine
 62
7
  6
CONTINUOUS
 10
-1.873125
 20
14.0122340548
 11
-1.9306249452
 21
14.0709574521
  0
LINE
  5
48C
100
AcDbEntity
  8
0
100
AcDbLine
 62
7
  6
CONTINUOUS
 10
-0.6406779161
 20
12.236489363
 11
-0.5872881365
 21
12.1777659555
  0
LINE
  5
48D
100
AcDbEntity
  8
0
100
AcDbLine
 62
7
  6
CONTINUOUS
 10
0.2135593209
 20
12.6035106575
 11
0.1601693885
 21
12.6622340548
  0
LINE
  5
48E
100
AcDbEntity
  8
0
100
AcDbLine
 62
7
  6
CONTINUOUS
 10
1.0677967105
 20
12.236489363
 11
1.1211863373
 21
12.1777659555
  0
LINE
  5
48F
100
AcDbEntity
  8
0
100
AcDbLine
 62
7
  6
CONTINUOUS
 10
1.9220337947
 20
12.6035106575
 11
1.8686441679
 21
12.6622340548
  0
LINE
  5
490
100
AcDbEntity
  8
0
100
AcDbLine
 62
7
  6
CONTINUOUS
 10
3.3737502193
 20
14.115
 11
3.60375
 21
13.7773404247
  0
LINE
  5
491
100
AcDbEntity
  8
0
100
AcDbLine
 62
7
  6
CONTINUOUS
 10
3.646875
 20
13.8360638219
 11
3.4600002193
 21
14.115
  0
LINE
  5
492
100
AcDbEntity
  8
0
100
AcDbLine
 62
7
  6
CONTINUOUS
 10
1.9487289136
 20
12.5594680685
 11
1.9220337947
 21
12.6035106575
  0
LINE
  5
493
100
AcDbEntity
  8
0
100
AcDbLine
 62
7
  6
CONTINUOUS
 10
2.6609466
 20
15.573174
 11
2.9736213
 21
14.9699649
  0
LINE
  5
494
100
AcDbEntity
  8
0
100
AcDbLine
 62
7
  6
CONTINUOUS
 10
3.3250542
 20
14.9699688
 11
2.9929334778
 21
15.6106971003
  0
LINE
  5
495
100
AcDbEntity
  8
0
100
AcDbLine
 62
7
  6
CONTINUOUS
 10
5.7874761882
 20
-19.8862425557
 11
5.8666574087
 21
-19.6585877321
  0
LINE
  5
496
100
AcDbEntity
  8
0
100
AcDbLine
 62
7
  6
CONTINUOUS
 10
5.8951854222
 20
-19.5766319957
 11
5.9763585833
 21
-19.3573007897
  0
LINE
  5
497
100
AcDbEntity
  8
0
100
AcDbLine
 62
7
  6
CONTINUOUS
 10
5.9673235335
 20
-19.134981638
 11
5.6817590338
 21
-19.8862425557
  0
LINE
  5
498
100
AcDbEntity
  8
0
100
AcDbLine
 62
7
  6
CONTINUOUS
 10
7.2717856376
 20
-19.134981638
 11
7.0649043558
 21
-19.6793612044
  0
LINE
  5
499
100
AcDbEntity
  8
0
100
AcDbLine
 62
7
  6
CONTINUOUS
 10
7.0792750774
 20
-19.8862425557
 11
7.3789257259
 21
-19.134981638
  0
LINE
  5
49A
100
AcDbEntity
  8
0
100
AcDbLine
 62
7
  6
CONTINUOUS
 10
-0.4952277954
 20
-20.6817811801
 11
-0.1947234284
 21
-20.2487390824
  0
LINE
  5
49B
100
AcDbEntity
  8
0
100
AcDbLine
 62
7
  6
CONTINUOUS
 10
3.8417388445
 20
-18.2159401936
 11
3.4580693063
 21
-18.7005603601
  0
LINE
  5
49C
100
AcDbEntity
  8
0
100
AcDbLine
 62
7
  6
CONTINUOUS
 10
-3.039
 20
11.0229885438
 11
-2.9740000248
 21
11.0395842865
  0
LINE
  5
49D
100
AcDbEntity
  8
0
100
AcDbLine
 62
7
  6
CONTINUOUS
 10
-3.6369999969
 20
11.0229885438
 11
-3.5719999938
 21
11.0395842865
  0
LINE
  5
49E
100
AcDbEntity
  8
0
100
AcDbLine
 62
7
  6
CONTINUOUS
 10
-2.0025
 20
13.5277659555
 11
-2.0599999452
 21
13.5130851062
  0
LINE
  5
49F
100
AcDbEntity
  8
0
100
AcDbLine
 62
7
  6
CONTINUOUS
 10
-2.9740000248
 20
11.122563
 11
-3.0520000248
 21
11.1059672573
  0
LINE
  5
4A0
100
AcDbEntity
  8
0
100
AcDbLine
 62
7
  6
CONTINUOUS
 10
-2.0599999452
 20
13.425
 11
-1.9881250548
 21
13.4396808506
  0
LINE
  5
4A1
100
AcDbEntity
  8
0
100
AcDbLine
 62
7
  6
CONTINUOUS
 10
-3.5590000062
 20
11.122563
 11
-3.6500000031
 21
11.1059672573
  0
LINE
  5
4A2
100
AcDbEntity
  8
0
100
AcDbLine
 62
7
  6
CONTINUOUS
 10
1.6283899307
 20
12.1630851062
 11
1.4949152526
 21
12.1484042569
  0
LINE
  5
4A3
100
AcDbEntity
  8
0
100
AcDbLine
 62
7
  6
CONTINUOUS
 10
-0.0800848487
 20
12.1630851062
 11
-0.2135592212
 21
12.1484042569
  0
LINE
  5
4A4
100
AcDbEntity
  8
0
100
AcDbLine
 62
7
  6
CONTINUOUS
 10
1.3614405745
 20
12.6769149041
 11
1.4949152526
 21
12.6915957534
  0
LINE
  5
4A5
100
AcDbEntity
  8
0
100
AcDbLine
 62
7
  6
CONTINUOUS
 10
-0.3470338993
 20
12.6769149041
 11
-0.2135592212
 21
12.6915957534
  0
LINE
  5
4A6
100
AcDbEntity
  8
0
100
AcDbLine
 62
7
  6
CONTINUOUS
 10
1.4949152526
 20
12.075
 11
1.6550847441
 21
12.0896808506
  0
LINE
  5
4A7
100
AcDbEntity
  8
0
100
AcDbLine
 62
7
  6
CONTINUOUS
 10
-0.2135592212
 20
12.075
 11
-0.0533897298
 21
12.0896808506
  0
LINE
  5
4A8
100
AcDbEntity
  8
0
100
AcDbLine
 62
7
  6
CONTINUOUS
 10
1.4949152526
 20
12.765
 11
1.3347457611
 21
12.7503191507
  0
LINE
  5
4A9
100
AcDbEntity
  8
0
100
AcDbLine
 62
7
  6
CONTINUOUS
 10
-0.2135592212
 20
12.765
 11
-0.3737287127
 21
12.7503191507
  0
LINE
  5
4AA
100
AcDbEntity
  8
ASSI
100
AcDbLine
 62
7
  6
CONTINUOUS
 10
2.1771102
 20
11.3146839
 11
1.7249979
 21
11.3146839
  0
LINE
  5
4AB
100
AcDbEntity
  8
0
100
AcDbLine
 62
7
  6
CONTINUOUS
 10
-2.7228813434
 20
12.075
 11
-2.5093220341
 21
12.075
  0
LINE
  5
4AC
100
AcDbEntity
  8
0
100
AcDbLine
 62
7
  6
CONTINUOUS
 10
-1.6016948649
 20
12.075
 11
-1.4415253734
 21
12.075
  0
LINE
  5
4AD
100
AcDbEntity
  8
0
100
AcDbLine
 62
7
  6
CONTINUOUS
 10
0.6406778629
 20
12.075
 11
0.8008473544
 21
12.075
  0
LINE
  5
4AE
100
AcDbEntity
  8
0
100
AcDbLine
 62
7
  6
CONTINUOUS
 10
2.4559322014
 20
12.075
 11
2.6161016929
 21
12.075
  0
LINE
  5
4AF
100
AcDbEntity
  8
0
100
AcDbLine
 62
7
  6
CONTINUOUS
 10
-1.8686440682
 20
12.6915957534
 11
-1.0677966109
 21
12.6915957534
  0
LINE
  5
4B0
100
AcDbEntity
  8
0
100
AcDbLine
 62
7
  6
CONTINUOUS
 10
2.1889828453
 20
12.6915957534
 11
2.9898303027
 21
12.6915957534
  0
LINE
  5
4B1
100
AcDbEntity
  8
0
100
AcDbLine
 62
7
  6
CONTINUOUS
 10
3.1499997941
 20
12.765
 11
2.1889828453
 21
12.765
  0
LINE
  5
4B2
100
AcDbEntity
  8
0
100
AcDbLine
 62
7
  6
CONTINUOUS
 10
0.8008473544
 20
12.765
 11
0.6406778629
 21
12.765
  0
LINE
  5
4B3
100
AcDbEntity
  8
0
100
AcDbLine
 62
7
  6
CONTINUOUS
 10
-0.9076271194
 20
12.765
 11
-1.8686440682
 21
12.765
  0
LINE
  5
4B4
100
AcDbEntity
  8
0
100
AcDbLine
 62
7
  6
CONTINUOUS
 10
-2.0822034157
 20
12.765
 11
-2.2423729071
 21
12.765
  0
LINE
  5
4B5
100
AcDbEntity
  8
0
100
AcDbLine
 62
7
  6
CONTINUOUS
 10
-2.9898305085
 20
12.765
 11
-3.15
 21
12.765
  0
LINE
  5
4B6
100
AcDbEntity
  8
0
100
AcDbLine
 62
7
  6
CONTINUOUS
 10
-3.6125000069
 20
13.425
 11
-3.4975000137
 21
13.425
  0
LINE
  5
4B7
100
AcDbEntity
  8
0
100
AcDbLine
 62
7
  6
CONTINUOUS
 10
-3.9
 20
13.425
 11
-3.81375
 21
13.425
  0
LINE
  5
4B8
100
AcDbEntity
  8
0
100
AcDbLine
 62
7
  6
CONTINUOUS
 10
-3.29625
 20
13.425
 11
-3.21
 21
13.425
  0
LINE
  5
4B9
100
AcDbEntity
  8
0
100
AcDbLine
 62
7
  6
CONTINUOUS
 10
-3.0950000274
 20
13.425
 11
-3.0087500274
 21
13.425
  0
LINE
  5
4BA
100
AcDbEntity
  8
0
100
AcDbLine
 62
7
  6
CONTINUOUS
 10
-2.60625
 20
13.425
 11
-2.52
 21
13.425
  0
LINE
  5
4BB
100
AcDbEntity
  8
0
100
AcDbLine
 62
7
  6
CONTINUOUS
 10
-2.4049999452
 20
13.425
 11
-2.0599999452
 21
13.425
  0
LINE
  5
4BC
100
AcDbEntity
  8
0
100
AcDbLine
 62
7
  6
CONTINUOUS
 10
-1.7149999452
 20
13.425
 11
-1.1974999452
 21
13.425
  0
LINE
  5
4BD
100
AcDbEntity
  8
0
100
AcDbLine
 62
7
  6
CONTINUOUS
 10
-0.3924998903
 20
13.425
 11
-0.3062498903
 21
13.425
  0
LINE
  5
4BE
100
AcDbEntity
  8
0
100
AcDbLine
 62
7
  6
CONTINUOUS
 10
-0.19125
 20
13.425
 11
-0.105
 21
13.425
  0
LINE
  5
4BF
100
AcDbEntity
  8
0
100
AcDbLine
 62
7
  6
CONTINUOUS
 10
0.2543751097
 20
13.425
 11
0.3837501097
 21
13.425
  0
LINE
  5
4C0
100
AcDbEntity
  8
0
100
AcDbLine
 62
7
  6
CONTINUOUS
 10
1.18875
 20
13.425
 11
1.275
 21
13.425
  0
LINE
  5
4C1
100
AcDbEntity
  8
0
100
AcDbLine
 62
7
  6
CONTINUOUS
 10
1.62
 20
13.425
 11
1.70625
 21
13.425
  0
LINE
  5
4C2
100
AcDbEntity
  8
0
100
AcDbLine
 62
7
  6
CONTINUOUS
 10
2.05125
 20
13.425
 11
2.1375
 21
13.425
  0
LINE
  5
4C3
100
AcDbEntity
  8
0
100
AcDbLine
 62
7
  6
CONTINUOUS
 10
2.5399997807
 20
13.425
 11
2.6262497807
 21
13.425
  0
LINE
  5
4C4
100
AcDbEntity
  8
0
100
AcDbLine
 62
7
  6
CONTINUOUS
 10
2.74125
 20
13.425
 11
3.25875
 21
13.425
  0
LINE
  5
4C5
100
AcDbEntity
  8
0
100
AcDbLine
 62
7
  6
CONTINUOUS
 10
3.60375
 20
13.425
 11
3.69
 21
13.425
  0
LINE
  5
4C6
100
AcDbEntity
  8
0
100
AcDbLine
 62
7
  6
CONTINUOUS
 10
3.25875
 20
13.5130851062
 11
2.8275
 21
13.5130851062
  0
LINE
  5
4C7
100
AcDbEntity
  8
0
100
AcDbLine
 62
7
  6
CONTINUOUS
 10
-1.1974999452
 20
13.5130851062
 11
-1.6287499452
 21
13.5130851062
  0
LINE
  5
4C8
100
AcDbEntity
  8
0
100
AcDbLine
 62
7
  6
CONTINUOUS
 10
-2.0599999452
 20
13.5130851062
 11
-2.3187499452
 21
13.5130851062
  0
LINE
  5
4C9
100
AcDbEntity
  8
0
100
AcDbLine
 62
7
  6
CONTINUOUS
 10
-2.95125
 20
13.6011702123
 11
-2.6637500274
 21
13.6011702123
  0
LINE
  5
4CA
100
AcDbEntity
  8
0
100
AcDbLine
 62
7
  6
CONTINUOUS
 10
2.1949997807
 20
13.6011702123
 11
2.4825
 21
13.6011702123
  0
LINE
  5
4CB
100
AcDbEntity
  8
0
100
AcDbLine
 62
7
  6
CONTINUOUS
 10
2.4681252193
 20
13.6598936096
 11
2.2093752193
 21
13.6598936096
  0
LINE
  5
4CC
100
AcDbEntity
  8
0
100
AcDbLine
 62
7
  6
CONTINUOUS
 10
-2.6781249726
 20
13.6598936096
 11
-2.9368749726
 21
13.6598936096
  0
LINE
  5
4CD
100
AcDbEntity
  8
0
100
AcDbLine
 62
7
  6
CONTINUOUS
 10
-1.6287499452
 20
13.747978726
 11
-1.2550000548
 21
13.747978726
  0
LINE
  5
4CE
100
AcDbEntity
  8
0
100
AcDbLine
 62
7
  6
CONTINUOUS
 10
-1.2550000548
 20
13.8360638219
 11
-1.6287499452
 21
13.8360638219
  0
LINE
  5
4CF
100
AcDbEntity
  8
0
100
AcDbLine
 62
7
  6
CONTINUOUS
 10
-2.3187499452
 20
14.0269149041
 11
-2.0599999452
 21
14.0269149041
  0
LINE
  5
4D0
100
AcDbEntity
  8
0
100
AcDbLine
 62
7
  6
CONTINUOUS
 10
-1.6287499452
 20
14.0269149041
 11
-1.1974999452
 21
14.0269149041
  0
LINE
  5
4D1
100
AcDbEntity
  8
0
100
AcDbLine
 62
7
  6
CONTINUOUS
 10
1.3899998903
 20
14.0415957534
 11
1.62
 21
14.0415957534
  0
LINE
  5
4D2
100
AcDbEntity
  8
0
100
AcDbLine
 62
7
  6
CONTINUOUS
 10
1.70625
 20
14.0415957534
 11
1.9362497807
 21
14.0415957534
  0
LINE
  5
4D3
100
AcDbEntity
  8
0
100
AcDbLine
 62
7
  6
CONTINUOUS
 10
3.9199997807
 20
14.115
 11
3.8337497807
 21
14.115
  0
LINE
  5
4D4
100
AcDbEntity
  8
0
100
AcDbLine
 62
7
  6
CONTINUOUS
 10
3.4600002193
 20
14.115
 11
3.3737502193
 21
14.115
  0
LINE
  5
4D5
100
AcDbEntity
  8
0
100
AcDbLine
 62
7
  6
CONTINUOUS
 10
2.39625
 20
14.115
 11
2.2812497807
 21
14.115
  0
LINE
  5
4D6
100
AcDbEntity
  8
0
100
AcDbLine
 62
7
  6
CONTINUOUS
 10
2.8275
 20
14.115
 11
2.74125
 21
14.115
  0
LINE
  5
4D7
100
AcDbEntity
  8
0
100
AcDbLine
 62
7
  6
CONTINUOUS
 10
1.275
 20
14.115
 11
1.18875
 21
14.115
  0
LINE
  5
4D8
100
AcDbEntity
  8
0
100
AcDbLine
 62
7
  6
CONTINUOUS
 10
1.9362497807
 20
14.115
 11
1.3899998903
 21
14.115
  0
LINE
  5
4D9
100
AcDbEntity
  8
0
100
AcDbLine
 62
7
  6
CONTINUOUS
 10
-0.3062498903
 20
14.115
 11
-0.3924998903
 21
14.115
  0
LINE
  5
4DA
100
AcDbEntity
  8
0
100
AcDbLine
 62
7
  6
CONTINUOUS
 10
-0.061875
 20
14.115
 11
-0.19125
 21
14.115
  0
LINE
  5
4DB
100
AcDbEntity
  8
0
100
AcDbLine
 62
7
  6
CONTINUOUS
 10
0.3837501097
 20
14.115
 11
0.2975001097
 21
14.115
  0
LINE
  5
4DC
100
AcDbEntity
  8
0
100
AcDbLine
 62
7
  6
CONTINUOUS
 10
-1.1974999452
 20
14.115
 11
-1.7149999452
 21
14.115
  0
LINE
  5
4DD
100
AcDbEntity
  8
0
100
AcDbLine
 62
7
  6
CONTINUOUS
 10
-2.0599999452
 20
14.115
 11
-2.4049999452
 21
14.115
  0
LINE
  5
4DE
100
AcDbEntity
  8
0
100
AcDbLine
 62
7
  6
CONTINUOUS
 10
-3.21
 20
14.115
 11
-3.339375
 21
14.115
  0
LINE
  5
4DF
100
AcDbEntity
  8
0
100
AcDbLine
 62
7
  6
CONTINUOUS
 10
-2.7500000274
 20
14.115
 11
-2.865
 21
14.115
  0
LINE
  5
4E0
100
AcDbEntity
  8
0
100
AcDbLine
 62
7
  6
CONTINUOUS
 10
-3.770625
 20
14.115
 11
-3.9
 21
14.115
  0
LINE
  5
4E1
100
AcDbEntity
  8
0
100
AcDbLine
 62
7
  6
CONTINUOUS
 10
-0.3737287127
 20
12.0896808506
 11
-0.2135592212
 21
12.075
  0
LINE
  5
4E2
100
AcDbEntity
  8
0
100
AcDbLine
 62
7
  6
CONTINUOUS
 10
1.3347457611
 20
12.0896808506
 11
1.4949152526
 21
12.075
  0
LINE
  5
4E3
100
AcDbEntity
  8
0
100
AcDbLine
 62
7
  6
CONTINUOUS
 10
-0.0533897298
 20
12.7503191507
 11
-0.2135592212
 21
12.765
  0
LINE
  5
4E4
100
AcDbEntity
  8
0
100
AcDbLine
 62
7
  6
CONTINUOUS
 10
1.6550847441
 20
12.7503191507
 11
1.4949152526
 21
12.765
  0
LINE
  5
4E5
100
AcDbEntity
  8
0
100
AcDbLine
 62
7
  6
CONTINUOUS
 10
-0.2135592212
 20
12.1484042569
 11
-0.3470338993
 21
12.1630851062
  0
LINE
  5
4E6
100
AcDbEntity
  8
0
100
AcDbLine
 62
7
  6
CONTINUOUS
 10
1.4949152526
 20
12.1484042569
 11
1.3614405745
 21
12.1630851062
  0
LINE
  5
4E7
100
AcDbEntity
  8
0
100
AcDbLine
 62
7
  6
CONTINUOUS
 10
-0.2135592212
 20
12.6915957534
 11
-0.0800848487
 21
12.6769149041
  0
LINE
  5
4E8
100
AcDbEntity
  8
0
100
AcDbLine
 62
7
  6
CONTINUOUS
 10
1.4949152526
 20
12.6915957534
 11
1.6283899307
 21
12.6769149041
  0
LINE
  5
4E9
100
AcDbEntity
  8
0
100
AcDbLine
 62
7
  6
CONTINUOUS
 10
-1.9881250548
 20
14.1003191507
 11
-2.0599999452
 21
14.115
  0
LINE
  5
4EA
100
AcDbEntity
  8
0
100
AcDbLine
 62
7
  6
CONTINUOUS
 10
-2.0599999452
 20
14.0269149041
 11
-2.0025
 21
14.0122340548
  0
LINE
  5
4EB
100
AcDbEntity
  8
0
100
AcDbLine
 62
7
  6
CONTINUOUS
 10
-0.5072033908
 20
12.1337234024
 11
-0.3737287127
 21
12.0896808506
  0
LINE
  5
4EC
100
AcDbEntity
  8
0
100
AcDbLine
 62
7
  6
CONTINUOUS
 10
1.2012710831
 20
12.1337234024
 11
1.3347457611
 21
12.0896808506
  0
LINE
  5
4ED
100
AcDbEntity
  8
0
100
AcDbLine
 62
7
  6
CONTINUOUS
 10
0.0800846428
 20
12.7062766027
 11
-0.0533897298
 21
12.7503191507
  0
LINE
  5
4EE
100
AcDbEntity
  8
0
100
AcDbLine
 62
7
  6
CONTINUOUS
 10
1.7885594221
 20
12.7062766027
 11
1.6550847441
 21
12.7503191507
  0
LINE
  5
4EF
100
AcDbEntity
  8
0
100
AcDbLine
 62
7
  6
CONTINUOUS
 10
-0.3470338993
 20
12.1630851062
 11
-0.427118645
 21
12.1924468048
  0
LINE
  5
4F0
100
AcDbEntity
  8
0
100
AcDbLine
 62
7
  6
CONTINUOUS
 10
-0.0800848487
 20
12.6769149041
 11
-0.0000001029
 21
12.6475532055
  0
LINE
  5
4F1
100
AcDbEntity
  8
0
100
AcDbLine
 62
7
  6
CONTINUOUS
 10
1.3614405745
 20
12.1630851062
 11
1.2813558288
 21
12.1924468048
  0
LINE
  5
4F2
100
AcDbEntity
  8
0
100
AcDbLine
 62
7
  6
CONTINUOUS
 10
1.6283899307
 20
12.6769149041
 11
1.7084746764
 21
12.6475532055
  0
LINE
  5
4F3
100
AcDbEntity
  8
0
100
AcDbLine
 62
7
  6
CONTINUOUS
 10
-1.9306249452
 20
14.0709574521
 11
-1.9881250548
 21
14.1003191507
  0
LINE
  5
4F4
100
AcDbEntity
  8
0
100
AcDbLine
 62
7
  6
CONTINUOUS
 10
1.8686441679
 20
12.6622340548
 11
1.7885594221
 21
12.7062766027
  0
LINE
  5
4F5
100
AcDbEntity
  8
0
100
AcDbLine
 62
7
  6
CONTINUOUS
 10
6.0123564263
 20
-18.0394365796
 11
5.661767998
 21
-18.5266179019
  0
LINE
  5
4F6
100
AcDbEntity
  8
0
100
AcDbLine
 62
7
  6
CONTINUOUS
 10
5.7529722139
 20
-18.5266179019
 11
5.9941440404
 21
-18.1913961308
  0
LINE
  5
4F7
100
AcDbEntity
  8
0
100
AcDbLine
 62
7
  6
CONTINUOUS
 10
2.9736213
 20
14.9699649
 11
3.3250542
 21
14.9699688
  0
LINE
  5
4F8
100
AcDbEntity
  8
0
100
AcDbLine
 62
7
  6
CONTINUOUS
 10
0.554775
 20
14.969961
 11
0.8667867
 21
14.9699649
  0
LINE
  5
4F9
100
AcDbEntity
  8
0
100
AcDbLine
 62
7
  6
CONTINUOUS
 10
-1.1792391
 20
14.969961
 11
-0.8672274
 21
14.969961
  0
LINE
  5
4FA
100
AcDbEntity
  8
0
100
AcDbLine
 62
7
  6
CONTINUOUS
 10
0.0347568
 20
14.969961
 11
0.3467685
 21
14.969961
  0
LINE
  5
4FB
100
AcDbEntity
  8
0
100
AcDbLine
 62
7
  6
CONTINUOUS
 10
2.0765784
 20
14.9699649
 11
2.388594
 21
14.9699649
  0
LINE
  5
4FC
100
AcDbEntity
  8
0
100
AcDbLine
 62
7
  6
CONTINUOUS
 10
-0.5722392
 20
14.969961
 11
-0.2602353
 21
14.9699649
  0
LINE
  5
4FD
100
AcDbEntity
  8
0
100
AcDbLine
 62
7
  6
CONTINUOUS
 10
-1.8032547
 20
14.9699571
 11
-1.491243
 21
14.969961
  0
LINE
  5
4FE
100
AcDbEntity
  8
0
100
AcDbLine
 62
7
  6
CONTINUOUS
 10
1.5565563
 20
14.9699649
 11
1.8685719
 21
14.969961
  0
LINE
  5
4FF
100
AcDbEntity
  8
0
100
AcDbLine
 62
7
  6
CONTINUOUS
 10
-2.8241694
 20
14.9699571
 11
-2.512146
 21
14.969961
  0
LINE
  5
500
100
AcDbEntity
  8
0
100
AcDbLine
 62
7
  6
CONTINUOUS
 10
0.965289
 20
15.2767623
 11
1.4580579
 21
15.2767623
  0
LINE
  5
501
100
AcDbEntity
  8
0
100
AcDbLine
 62
7
  6
CONTINUOUS
 10
1.3628823
 20
15.573174
 11
1.0604607
 21
15.573174
  0
LINE
  5
502
100
AcDbEntity
  8
0
100
AcDbLine
 62
7
  6
CONTINUOUS
 10
2.3886291
 20
15.5731779
 11
2.6609466
 21
15.573174
  0
LINE
  5
503
100
AcDbEntity
  8
0
100
AcDbLine
 62
7
  6
CONTINUOUS
 10
2.7639097838
 20
15.8617896
 11
2.3842923
 21
15.8617896
  0
LINE
  5
504
100
AcDbEntity
  8
0
100
AcDbLine
 62
7
  6
CONTINUOUS
 10
2.3842884
 20
16.2414234
 11
2.7638976
 21
16.2414234
  0
LINE
  5
505
100
AcDbEntity
  8
0
100
AcDbLine
 62
7
  6
CONTINUOUS
 10
0.3467685
 20
16.5300312
 11
-0.1249092
 21
16.5300312
  0
LINE
  5
506
100
AcDbEntity
  8
0
100
AcDbLine
 62
7
  6
CONTINUOUS
 10
-0.7075614
 20
16.5300312
 11
-1.1792391
 21
16.5300312
  0
LINE
  5
507
100
AcDbEntity
  8
0
100
AcDbLine
 62
7
  6
CONTINUOUS
 10
-1.4912391
 20
16.5300312
 11
-1.8032508
 21
16.5300312
  0
LINE
  5
508
100
AcDbEntity
  8
0
100
AcDbLine
 62
7
  6
CONTINUOUS
 10
-2.0112573
 20
16.5300312
 11
-2.3232729
 21
16.5300312
  0
LINE
  5
509
100
AcDbEntity
  8
0
100
AcDbLine
 62
7
  6
CONTINUOUS
 10
-3.0130386
 20
16.5300312
 11
-3.3250542
 21
16.5300312
  0
LINE
  5
50A
100
AcDbEntity
  8
0
100
AcDbLine
 62
7
  6
CONTINUOUS
 10
2.8072237765
 20
16.5300351
 11
2.0765784
 21
16.5300351
  0
LINE
  5
50B
100
AcDbEntity
  8
0
100
AcDbLine
 62
7
  6
CONTINUOUS
 10
1.3676832
 20
16.5300351
 11
1.0556559
 21
16.5300351
  0
LINE
  5
50C
100
AcDbEntity
  8
0
100
AcDbLine
 62
7
  6
CONTINUOUS
 10
4.05
 20
17.025
 11
-4.05
 21
17.025
  0
LINE
  5
50D
100
AcDbEntity
  8
0
100
AcDbLine
 62
250
  6
CONTINUOUS
 10
44.8265451508
 20
23.85
 11
44.82
 21
23.85
  0
LINE
  5
50E
100
AcDbEntity
  8
0
100
AcDbLine
 62
250
  6
CONTINUOUS
 10
-44.8265451508
 20
23.85
 11
-44.82
 21
23.85
  0
LINE
  5
50F
100
AcDbEntity
  8
0
100
AcDbLine
 62
250
  6
CONTINUOUS
 10
-44.9647581676
 20
23.85
 11
-45.4173933632
 21
23.85
  0
LINE
  5
510
100
AcDbEntity
  8
0
100
AcDbLine
 62
250
  6
CONTINUOUS
 10
44.9647581676
 20
23.85
 11
45.4173933632
 21
23.85
  0
LINE
  5
511
100
AcDbEntity
  8
0
100
AcDbLine
 62
250
  6
CONTINUOUS
 10
45.6
 20
23.85
 11
46.05
 21
23.85
  0
LINE
  5
512
100
AcDbEntity
  8
0
100
AcDbLine
 62
250
  6
CONTINUOUS
 10
-45.6
 20
23.85
 11
-46.05
 21
23.85
  0
LINE
  5
513
100
AcDbEntity
  8
0
100
AcDbLine
 62
7
  6
CONTINUOUS
 10
-43.8
 20
24.87
 11
43.8
 21
24.87
  0
LINE
  5
514
100
AcDbEntity
  8
0
100
AcDbLine
 62
7
  6
CONTINUOUS
 10
-43.8
 20
24.8765451508
 11
43.8
 21
24.8765451508
  0
LINE
  5
515
100
AcDbEntity
  8
0
100
AcDbLine
 62
250
  6
CONTINUOUS
 10
43.8
 20
25.0147581676
 11
-43.8
 21
25.0147581676
  0
LINE
  5
516
100
AcDbEntity
  8
0
100
AcDbLine
 62
7
  6
CONTINUOUS
 10
43.8
 20
25.164752456
 11
-43.8
 21
25.164752456
  0
LINE
  5
517
100
AcDbEntity
  8
0
100
AcDbLine
 62
250
  6
CONTINUOUS
 10
43.8
 20
25.1674047863
 11
-43.8
 21
25.1674047863
  0
LINE
  5
518
100
AcDbEntity
  8
0
100
AcDbLine
 62
250
  6
CONTINUOUS
 10
43.8
 20
25.4673933632
 11
-43.8
 21
25.4673933632
  0
LINE
  5
519
100
AcDbEntity
  8
0
100
AcDbLine
 62
250
  6
CONTINUOUS
 10
-43.8
 20
25.65
 11
43.8
 21
25.65
  0
LINE
  5
51A
100
AcDbEntity
  8
0
100
AcDbLine
 62
7
  6
CONTINUOUS
 10
-43.8
 20
25.95
 11
43.8
 21
25.95
  0
LINE
  5
51B
100
AcDbEntity
  8
0
100
AcDbLine
 62
250
  6
CONTINUOUS
 10
-43.8
 20
26.1
 11
43.8
 21
26.1
  0
LINE
  5
51C
100
AcDbEntity
  8
0
100
AcDbLine
 62
7
  6
CONTINUOUS
 10
-43.8
 20
26.85
 11
43.8
 21
26.85
  0
LINE
  5
51D
100
AcDbEntity
  8
0
100
AcDbLine
 62
250
  6
CONTINUOUS
 10
43.8
 20
24.8765451508
 11
43.8
 21
24.87
  0
LINE
  5
51E
100
AcDbEntity
  8
0
100
AcDbLine
 62
250
  6
CONTINUOUS
 10
43.8
 20
-24.8765451508
 11
43.8
 21
-24.87
  0
LINE
  5
51F
100
AcDbEntity
  8
0
100
AcDbLine
 62
250
  6
CONTINUOUS
 10
43.8
 20
-25.0147581676
 11
43.8
 21
-25.4673933632
  0
LINE
  5
520
100
AcDbEntity
  8
0
100
AcDbLine
 62
250
  6
CONTINUOUS
 10
43.8
 20
-25.65
 11
43.8
 21
-26.1
  0
LINE
  5
521
100
AcDbEntity
  8
0
100
AcDbLine
 62
250
  6
CONTINUOUS
 10
43.8
 20
25.0147581676
 11
43.8
 21
25.4673933632
  0
LINE
  5
522
100
AcDbEntity
  8
0
100
AcDbLine
 62
250
  6
CONTINUOUS
 10
43.8
 20
25.65
 11
43.8
 21
26.1
  0
LINE
  5
523
100
AcDbEntity
  8
0
100
AcDbLine
 62
7
  6
CONTINUOUS
 10
44.82
 20
23.85
 11
44.82
 21
-23.85
  0
LINE
  5
524
100
AcDbEntity
  8
0
100
AcDbLine
 62
7
  6
CONTINUOUS
 10
44.8265451508
 20
23.85
 11
44.8265451508
 21
-23.85
  0
LINE
  5
525
100
AcDbEntity
  8
0
100
AcDbLine
 62
250
  6
CONTINUOUS
 10
44.9647581676
 20
-23.85
 11
44.9647581676
 21
23.85
  0
LINE
  5
526
100
AcDbEntity
  8
0
100
AcDbLine
 62
7
  6
CONTINUOUS
 10
45.114752456
 20
-23.85
 11
45.114752456
 21
23.85
  0
LINE
  5
527
100
AcDbEntity
  8
0
100
AcDbLine
 62
250
  6
CONTINUOUS
 10
45.1174047863
 20
-23.85
 11
45.1174047863
 21
23.85
  0
LINE
  5
528
100
AcDbEntity
  8
0
100
AcDbLine
 62
250
  6
CONTINUOUS
 10
45.4173933632
 20
-23.85
 11
45.4173933632
 21
23.85
  0
LINE
  5
529
100
AcDbEntity
  8
0
100
AcDbLine
 62
250
  6
CONTINUOUS
 10
45.6
 20
23.85
 11
45.6
 21
-23.85
  0
LINE
  5
52A
100
AcDbEntity
  8
0
100
AcDbLine
 62
7
  6
CONTINUOUS
 10
45.9
 20
23.85
 11
45.9
 21
-23.85
  0
LINE
  5
52B
100
AcDbEntity
  8
0
100
AcDbLine
 62
250
  6
CONTINUOUS
 10
46.05
 20
23.85
 11
46.05
 21
-23.85
  0
LINE
  5
52C
100
AcDbEntity
  8
0
100
AcDbLine
 62
7
  6
CONTINUOUS
 10
46.8
 20
23.85
 11
46.8
 21
-23.85
  0
ARC
  5
52D
100
AcDbEntity
  8
0
100
AcDbCircle
 62
7
  6
CONTINUOUS
 10
-43.8
 20
-23.85
 40
3.0
100
AcDbArc
 50
180.0
 51
270.0
  0
ARC
  5
52E
100
AcDbEntity
  8
0
100
AcDbCircle
 62
250
  6
CONTINUOUS
 10
-43.8
 20
-23.85
 40
2.25
100
AcDbArc
 50
180.0
 51
270.0
  0
ARC
  5
52F
100
AcDbEntity
  8
0
100
AcDbCircle
 62
7
  6
CONTINUOUS
 10
-43.8
 20
-23.85
 40
2.1
100
AcDbArc
 50
180.0
 51
270.0
  0
ARC
  5
530
100
AcDbEntity
  8
0
100
AcDbCircle
 62
250
  6
CONTINUOUS
 10
-43.8
 20
-23.85
 40
1.8
100
AcDbArc
 50
180.0
 51
270.0
  0
ARC
  5
531
100
AcDbEntity
  8
0
100
AcDbCircle
 62
250
  6
CONTINUOUS
 10
-43.8
 20
-23.85
 40
1.6173933632
100
AcDbArc
 50
180.0
 51
270.0
  0
CIRCLE
  5
532
100
AcDbEntity
  8
RACCORDO
100
AcDbCircle
 62
250
  6
CONTINUOUS
 10
-12.3
 20
-20.85
 40
1.5567021034
  0
CIRCLE
  5
533
100
AcDbEntity
  8
RACCORDO
100
AcDbCircle
 62
250
  6
CONTINUOUS
 10
-40.8
 20
-20.85
 40
1.5567021034
  0
ARC
  5
534
100
AcDbEntity
  8
0
100
AcDbCircle
 62
7
  6
CONTINUOUS
 10
-1.1669247862
 20
-19.140179398
 40
1.5538479721
100
AcDbArc
 50
159.0191965858
 51
163.7921491218
  0
ARC
  5
535
100
AcDbEntity
  8
0
100
AcDbCircle
 62
7
  6
CONTINUOUS
 10
-1.1669247862
 20
-18.040081243
 40
1.5538479721
100
AcDbArc
 50
159.0191965858
 51
163.7921491218
  0
ARC
  5
536
100
AcDbEntity
  8
0
100
AcDbCircle
 62
250
  6
CONTINUOUS
 10
-43.8
 20
-23.85
 40
1.3174047863
100
AcDbArc
 50
180.0
 51
270.0
  0
ARC
  5
537
100
AcDbEntity
  8
0
100
AcDbCircle
 62
7
  6
CONTINUOUS
 10
-43.8
 20
-23.85
 40
1.314752456
100
AcDbArc
 50
180.0
 51
270.0
  0
ARC
  5
538
100
AcDbEntity
  8
0
100
AcDbCircle
 62
250
  6
CONTINUOUS
 10
-43.8
 20
-23.85
 40
1.1647581676
100
AcDbArc
 50
180.0
 51
270.0
  0
CIRCLE
  5
539
100
AcDbEntity
  8
RACCORDO
100
AcDbCircle
 62
250
  6
CONTINUOUS
 10
-12.3
 20
-20.85
 40
1.111823743
  0
CIRCLE
  5
53A
100
AcDbEntity
  8
RACCORDO
100
AcDbCircle
 62
250
  6
CONTINUOUS
 10
-40.8
 20
-20.85
 40
1.111823743
  0
ARC
  5
53B
100
AcDbEntity
  8
0
100
AcDbCircle
 62
7
  6
CONTINUOUS
 10
-43.8
 20
-23.85
 40
1.0265451508
100
AcDbArc
 50
180.0
 51
270.0
  0
ARC
  5
53C
100
AcDbEntity
  8
0
100
AcDbCircle
 62
7
  6
CONTINUOUS
 10
-43.8
 20
-23.85
 40
1.02
100
AcDbArc
 50
180.0
 51
270.0
  0
CIRCLE
  5
53D
100
AcDbEntity
  8
ASSI
100
AcDbCircle
 62
7
  6
CONTINUOUS
 10
-40.8
 20
-20.85
 40
0.96
  0
CIRCLE
  5
53E
100
AcDbEntity
  8
ASSI
100
AcDbCircle
 62
7
  6
CONTINUOUS
 10
-12.3
 20
-20.85
 40
0.96
  0
ARC
  5
53F
100
AcDbEntity
  8
0
100
AcDbCircle
 62
7
  6
CONTINUOUS
 10
-2.6601594418
 20
-20.1437793966
 40
0.8523194829
100
AcDbArc
 50
337.4191892411
 51
347.6454766647
  0
ARC
  5
540
100
AcDbEntity
  8
0
100
AcDbCircle
 62
7
  6
CONTINUOUS
 10
-2.5172349402
 20
-17.9344768938
 40
0.8523194829
100
AcDbArc
 50
337.4191892411
 51
347.6454766647
  0
ARC
  5
541
100
AcDbEntity
  8
0
100
AcDbCircle
 62
7
  6
CONTINUOUS
 10
-1.6430404179
 20
-16.8343787389
 40
0.8523194829
100
AcDbArc
 50
337.4191892411
 51
347.6454766647
  0
ARC
  5
542
100
AcDbEntity
  8
ASSI
100
AcDbCircle
 62
7
  6
CONTINUOUS
 10
-0.2902662
 20
-13.2
 40
0.764999562
100
AcDbArc
 50
87.7525290943
 51
272.2474708984
  0
ARC
  5
543
100
AcDbEntity
  8
ASSI
100
AcDbCircle
 62
7
  6
CONTINUOUS
 10
-0.2902662
 20
-13.2
 40
0.5399999774
100
AcDbArc
 50
86.8152613297
 51
273.1847386551
  0
CIRCLE
  5
544
100
AcDbEntity
  8
0
100
AcDbCircle
 62
7
  6
CONTINUOUS
 10
-40.8
 20
-20.85
 40
0.495
  0
CIRCLE
  5
545
100
AcDbEntity
  8
0
100
AcDbCircle
 62
7
  6
CONTINUOUS
 10
-12.3
 20
-20.85
 40
0.495
  0
ARC
  5
546
100
AcDbEntity
  8
0
100
AcDbCircle
 62
7
  6
CONTINUOUS
 10
-43.8
 20
23.85
 40
3.0
100
AcDbArc
 50
90.0
 51
180.0
  0
ARC
  5
547
100
AcDbEntity
  8
0
100
AcDbCircle
 62
250
  6
CONTINUOUS
 10
-43.8
 20
23.85
 40
2.25
100
AcDbArc
 50
90.0
 51
180.0
  0
ARC
  5
548
100
AcDbEntity
  8
0
100
AcDbCircle
 62
7
  6
CONTINUOUS
 10
-43.8
 20
23.85
 40
2.1
100
AcDbArc
 50
90.0
 51
180.0
  0
ARC
  5
549
100
AcDbEntity
  8
0
100
AcDbCircle
 62
250
  6
CONTINUOUS
 10
-43.8
 20
23.85
 40
1.8
100
AcDbArc
 50
90.0
 51
180.0
  0
ARC
  5
54A
100
AcDbEntity
  8
0
100
AcDbCircle
 62
250
  6
CONTINUOUS
 10
-43.8
 20
23.85
 40
1.6173933632
100
AcDbArc
 50
90.0
 51
180.0
  0
CIRCLE
  5
54B
100
AcDbEntity
  8
RACCORDO
100
AcDbCircle
 62
250
  6
CONTINUOUS
 10
-40.8
 20
20.85
 40
1.5567021033
  0
ARC
  5
54C
100
AcDbEntity
  8
0
100
AcDbCircle
 62
250
  6
CONTINUOUS
 10
-43.8
 20
23.85
 40
1.3174047863
100
AcDbArc
 50
90.0
 51
180.0
  0
ARC
  5
54D
100
AcDbEntity
  8
0
100
AcDbCircle
 62
7
  6
CONTINUOUS
 10
-43.8
 20
23.85
 40
1.314752456
100
AcDbArc
 50
90.0
 51
180.0
  0
ARC
  5
54E
100
AcDbEntity
  8
0
100
AcDbCircle
 62
250
  6
CONTINUOUS
 10
-43.8
 20
23.85
 40
1.1647581676
100
AcDbArc
 50
90.0
 51
180.0
  0
CIRCLE
  5
54F
100
AcDbEntity
  8
RACCORDO
100
AcDbCircle
 62
250
  6
CONTINUOUS
 10
-40.8
 20
20.85
 40
1.111823743
  0
ARC
  5
550
100
AcDbEntity
  8
0
100
AcDbCircle
 62
7
  6
CONTINUOUS
 10
-43.8
 20
23.85
 40
1.0265451508
100
AcDbArc
 50
90.0
 51
180.0
  0
ARC
  5
551
100
AcDbEntity
  8
0
100
AcDbCircle
 62
7
  6
CONTINUOUS
 10
-43.8
 20
23.85
 40
1.02
100
AcDbArc
 50
90.0
 51
180.0
  0
CIRCLE
  5
552
100
AcDbEntity
  8
ASSI
100
AcDbCircle
 62
7
  6
CONTINUOUS
 10
-40.8
 20
20.85
 40
0.96
  0
CIRCLE
  5
553
100
AcDbEntity
  8
0
100
AcDbCircle
 62
7
  6
CONTINUOUS
 10
-40.8
 20
20.85
 40
0.495
  0
ARC
  5
554
100
AcDbEntity
  8
0
100
AcDbCircle
 62
7
  6
CONTINUOUS
 10
43.8
 20
-23.85
 40
3.0
100
AcDbArc
 50
270.0
 51
360.0
  0
ARC
  5
555
100
AcDbEntity
  8
0
100
AcDbCircle
 62
250
  6
CONTINUOUS
 10
43.8
 20
-23.85
 40
2.25
100
AcDbArc
 50
270.0
 51
360.0
  0
ARC
  5
556
100
AcDbEntity
  8
0
100
AcDbCircle
 62
7
  6
CONTINUOUS
 10
43.8
 20
-23.85
 40
2.1
100
AcDbArc
 50
270.0
 51
360.0
  0
ARC
  5
557
100
AcDbEntity
  8
0
100
AcDbCircle
 62
250
  6
CONTINUOUS
 10
43.8
 20
-23.85
 40
1.8
100
AcDbArc
 50
270.0
 51
360.0
  0
ARC
  5
558
100
AcDbEntity
  8
0
100
AcDbCircle
 62
250
  6
CONTINUOUS
 10
43.8
 20
-23.85
 40
1.6173933632
100
AcDbArc
 50
270.0
 51
360.0
  0
CIRCLE
  5
559
100
AcDbEntity
  8
RACCORDO
100
AcDbCircle
 62
250
  6
CONTINUOUS
 10
40.8
 20
-20.85
 40
1.5567021033
  0
ARC
  5
55A
100
AcDbEntity
  8
0
100
AcDbCircle
 62
7
  6
CONTINUOUS
 10
8.5157328957
 20
-20.2357244564
 40
1.5538479721
100
AcDbArc
 50
159.0191965858
 51
163.7921491218
  0
ARC
  5
55B
100
AcDbEntity
  8
0
100
AcDbCircle
 62
7
  6
CONTINUOUS
 10
2.0885391902
 20
-19.140179398
 40
1.5538479721
100
AcDbArc
 50
159.0191965858
 51
163.7921491218
  0
ARC
  5
55C
100
AcDbEntity
  8
0
100
AcDbCircle
 62
250
  6
CONTINUOUS
 10
43.8
 20
-23.85
 40
1.3174047863
100
AcDbArc
 50
270.0
 51
360.0
  0
ARC
  5
55D
100
AcDbEntity
  8
0
100
AcDbCircle
 62
7
  6
CONTINUOUS
 10
43.8
 20
-23.85
 40
1.314752456
100
AcDbArc
 50
270.0
 51
360.0
  0
ARC
  5
55E
100
AcDbEntity
  8
0
100
AcDbCircle
 62
250
  6
CONTINUOUS
 10
43.8
 20
-23.85
 40
1.1647581676
100
AcDbArc
 50
270.0
 51
360.0
  0
CIRCLE
  5
55F
100
AcDbEntity
  8
RACCORDO
100
AcDbCircle
 62
250
  6
CONTINUOUS
 10
40.8
 20
-20.85
 40
1.111823743
  0
ARC
  5
560
100
AcDbEntity
  8
0
100
AcDbCircle
 62
7
  6
CONTINUOUS
 10
43.8
 20
-23.85
 40
1.0265451508
100
AcDbArc
 50
270.0
 51
360.0
  0
ARC
  5
561
100
AcDbEntity
  8
0
100
AcDbCircle
 62
7
  6
CONTINUOUS
 10
43.8
 20
-23.85
 40
1.02
100
AcDbArc
 50
270.0
 51
360.0
  0
CIRCLE
  5
562
100
AcDbEntity
  8
ASSI
100
AcDbCircle
 62
7
  6
CONTINUOUS
 10
40.8
 20
-20.85
 40
0.96
  0
ARC
  5
563
100
AcDbEntity
  8
0
100
AcDbCircle
 62
7
  6
CONTINUOUS
 10
5.1893788735
 20
-19.0300219523
 40
0.8523194829
100
AcDbArc
 50
337.4191892411
 51
347.6454766647
  0
ARC
  5
564
100
AcDbEntity
  8
0
100
AcDbCircle
 62
7
  6
CONTINUOUS
 10
0.5406673771
 20
-19.0300219523
 40
0.8523194829
100
AcDbArc
 50
337.4191892411
 51
347.6454766647
  0
ARC
  5
565
100
AcDbEntity
  8
0
100
AcDbCircle
 62
7
  6
CONTINUOUS
 10
3.5839143304
 20
-17.9344768938
 40
0.8523194829
100
AcDbArc
 50
337.4191892411
 51
347.6454766647
  0
ARC
  5
566
100
AcDbEntity
  8
0
100
AcDbCircle
 62
7
  6
CONTINUOUS
 10
1.4940430504
 20
-16.8343787389
 40
0.8523194829
100
AcDbArc
 50
337.4191892411
 51
347.6454766647
  0
ARC
  5
567
100
AcDbEntity
  8
ASSI
100
AcDbCircle
 62
7
  6
CONTINUOUS
 10
1.0252668
 20
-13.2
 40
0.7649995973
100
AcDbArc
 50
87.7525290129
 51
272.247470795
  0
ARC
  5
568
100
AcDbEntity
  8
ASSI
100
AcDbCircle
 62
7
  6
CONTINUOUS
 10
1.0252668
 20
-13.2
 40
0.5399999774
100
AcDbArc
 50
86.8152613297
 51
167.9753000153
  0
ARC
  5
569
100
AcDbEntity
  8
ASSI
100
AcDbCircle
 62
7
  6
CONTINUOUS
 10
1.0252668
 20
-13.2
 40
0.5399990642
100
AcDbArc
 50
192.0247203293
 51
273.1847444464
  0
CIRCLE
  5
56A
100
AcDbEntity
  8
0
100
AcDbCircle
 62
7
  6
CONTINUOUS
 10
40.8
 20
-20.85
 40
0.495
  0
ARC
  5
56B
100
AcDbEntity
  8
0
100
AcDbCircle
 62
7
  6
CONTINUOUS
 10
5.4706339184
 20
-19.5149141718
 40
0.4927471771
100
AcDbArc
 50
197.1771315698
 51
202.9212291975
  0
ARC
  5
56C
100
AcDbEntity
  8
0
100
AcDbCircle
 62
7
  6
CONTINUOUS
 10
1.7752980953
 20
-18.4193691134
 40
0.4927471771
100
AcDbArc
 50
197.1771315698
 51
202.9212291975
  0
ARC
  5
56D
100
AcDbEntity
  8
0
100
AcDbCircle
 62
7
  6
CONTINUOUS
 10
43.8
 20
23.85
 40
3.0
100
AcDbArc
 50
0.0
 51
90.0
  0
ARC
  5
56E
100
AcDbEntity
  8
0
100
AcDbCircle
 62
250
  6
CONTINUOUS
 10
43.8
 20
23.85
 40
2.25
100
AcDbArc
 50
0.0
 51
90.0
  0
ARC
  5
56F
100
AcDbEntity
  8
0
100
AcDbCircle
 62
7
  6
CONTINUOUS
 10
43.8
 20
23.85
 40
2.1
100
AcDbArc
 50
0.0
 51
90.0
  0
ARC
  5
570
100
AcDbEntity
  8
0
100
AcDbCircle
 62
250
  6
CONTINUOUS
 10
43.8
 20
23.85
 40
1.8
100
AcDbArc
 50
0.0
 51
90.0
  0
ARC
  5
571
100
AcDbEntity
  8
0
100
AcDbCircle
 62
250
  6
CONTINUOUS
 10
43.8
 20
23.85
 40
1.6173933632
100
AcDbArc
 50
0.0
 51
90.0
  0
CIRCLE
  5
572
100
AcDbEntity
  8
RACCORDO
100
AcDbCircle
 62
250
  6
CONTINUOUS
 10
40.8
 20
20.85
 40
1.5567021034
  0
CIRCLE
  5
573
100
AcDbEntity
  8
RACCORDO
100
AcDbCircle
 62
250
  6
CONTINUOUS
 10
12.3
 20
20.85
 40
1.5567021034
  0
ARC
  5
574
100
AcDbEntity
  8
0
100
AcDbCircle
 62
250
  6
CONTINUOUS
 10
43.8
 20
23.85
 40
1.3174047863
100
AcDbArc
 50
0.0
 51
90.0
  0
ARC
  5
575
100
AcDbEntity
  8
0
100
AcDbCircle
 62
7
  6
CONTINUOUS
 10
43.8
 20
23.85
 40
1.314752456
100
AcDbArc
 50
0.0
 51
90.0
  0
ARC
  5
576
100
AcDbEntity
  8
0
100
AcDbCircle
 62
250
  6
CONTINUOUS
 10
43.8
 20
23.85
 40
1.1647581676
100
AcDbArc
 50
0.0
 51
90.0
  0
CIRCLE
  5
577
100
AcDbEntity
  8
RACCORDO
100
AcDbCircle
 62
250
  6
CONTINUOUS
 10
12.3
 20
20.85
 40
1.111823743
  0
CIRCLE
  5
578
100
AcDbEntity
  8
RACCORDO
100
AcDbCircle
 62
250
  6
CONTINUOUS
 10
40.8
 20
20.85
 40
1.111823743
  0
ARC
  5
579
100
AcDbEntity
  8
ASSI
100
AcDbCircle
 62
7
  6
CONTINUOUS
 10
1.95
 20
10.575
 40
1.0270078725
100
AcDbArc
 50
292.0885367378
 51
273.4298412296
  0
ARC
  5
57A
100
AcDbEntity
  8
0
100
AcDbCircle
 62
7
  6
CONTINUOUS
 10
43.8
 20
23.85
 40
1.0265451508
100
AcDbArc
 50
0.0
 51
90.0
  0
ARC
  5
57B
100
AcDbEntity
  8
0
100
AcDbCircle
 62
7
  6
CONTINUOUS
 10
43.8
 20
23.85
 40
1.02
100
AcDbArc
 50
0.0
 51
90.0
  0
CIRCLE
  5
57C
100
AcDbEntity
  8
ASSI
100
AcDbCircle
 62
7
  6
CONTINUOUS
 10
40.8
 20
20.85
 40
0.96
  0
CIRCLE
  5
57D
100
AcDbEntity
  8
ASSI
100
AcDbCircle
 62
7
  6
CONTINUOUS
 10
12.3
 20
20.85
 40
0.96
  0
ARC
  5
57E
100
AcDbEntity
  8
ASSI
100
AcDbCircle
 62
7
  6
CONTINUOUS
 10
1.9189374
 20
8.6389581
 40
0.9155587437
100
AcDbArc
 50
47.231270393
 51
84.2011526035
  0
ARC
  5
57F
100
AcDbEntity
  8
ASSI
100
AcDbCircle
 62
7
  6
CONTINUOUS
 10
1.9909914
 20
8.787258
 40
0.9045714764
100
AcDbArc
 50
45.4348897783
 51
67.5658710222
  0
CIRCLE
  5
580
100
AcDbEntity
  8
ASSI
100
AcDbCircle
 62
7
  6
CONTINUOUS
 10
1.95
 20
10.575
 40
0.8626149
  0
ARC
  5
581
100
AcDbEntity
  8
ASSI
100
AcDbCircle
 62
7
  6
CONTINUOUS
 10
1.95
 20
10.575
 40
0.771488498
100
AcDbArc
 50
299.3041446576
 51
44.9957783161
  0
ARC
  5
582
100
AcDbEntity
  8
ASSI
100
AcDbCircle
 62
7
  6
CONTINUOUS
 10
1.95
 20
10.575
 40
0.7714884666
100
AcDbArc
 50
134.9002751525
 51
240.6958553424
  0
ARC
  5
583
100
AcDbEntity
  8
ASSI
100
AcDbCircle
 62
7
  6
CONTINUOUS
 10
1.95
 20
10.575
 40
0.6181017573
100
AcDbArc
 50
148.0267353487
 51
240.6958433001
  0
ARC
  5
584
100
AcDbEntity
  8
ASSI
100
AcDbCircle
 62
7
  6
CONTINUOUS
 10
1.95
 20
10.575
 40
0.6181016387
100
AcDbArc
 50
299.3041566999
 51
31.9732630604
  0
CIRCLE
  5
585
100
AcDbEntity
  8
0
100
AcDbCircle
 62
7
  6
CONTINUOUS
 10
40.8
 20
20.85
 40
0.495
  0
CIRCLE
  5
586
100
AcDbEntity
  8
0
100
AcDbCircle
 62
7
  6
CONTINUOUS
 10
12.3
 20
20.85
 40
0.495
  0
ARC
  5
587
100
AcDbEntity
  8
0
100
AcDbCircle
 62
7
  6
CONTINUOUS
 10
2.8072041
 20
16.0516059
 40
0.4784307908
100
AcDbArc
 50
292.8428777618
 51
89.9976435847
  0
ARC
  5
588
100
AcDbEntity
  8
0
100
AcDbCircle
 62
7
  6
CONTINUOUS
 10
2.7638976
 20
16.0516059
 40
0.1898175
100
AcDbArc
 50
270.003677664
 51
90.0
  0
SPLINE
  5
589
100
AcDbEntity
  8
0
100
AcDbSpline
 62
7
  6
CONTINUOUS
 70
0
 71
3
 72
13
 73
9
 74
0
 42
0.0000001
 43
0.0000001
 44
0.0000000001
 40
0.0
 40
0.0
 40
0.0
 40
0.0
 40
0.03034318
 40
0.4680446006
 40
0.623000273
 40
0.7370638945
 40
0.8909828904
 40
1.0
 40
1.0
 40
1.0
 40
1.0
 10
-0.7221369678
 20
10.8863966132
 30
0.0
 10
-0.7221369678
 20
10.8841561025
 30
0.0
 10
-0.7217427628
 20
10.8497131512
 30
0.0
 10
-0.7374055314
 20
10.7990626218
 30
0.0
 10
-0.782273384
 20
10.7702268087
 30
0.0
 10
-0.8120183228
 20
10.7604709703
 30
0.0
 10
-0.8393895597
 20
10.7548458462
 30
0.0
 10
-0.8588290157
 20
10.7537643564
 30
0.0
 10
-0.8668787307
 20
10.7537644138
 30
0.0
  0
SPLINE
  5
58A
100
AcDbEntity
  8
0
100
AcDbSpline
 62
7
  6
CONTINUOUS
 70
0
 71
3
 72
13
 73
9
 74
0
 42
0.0000001
 43
0.0000001
 44
0.0000000001
 40
0.0
 40
0.0
 40
0.0
 40
0.0
 40
0.1090102098
 40
0.2629303977
 40
0.3769949025
 40
0.5319517749
 40
0.969656585
 40
1.0
 40
1.0
 40
1.0
 40
1.0
 10
-0.8668770153
 20
11.0190288125
 30
0.0
 10
-0.8588278706
 20
11.0190288062
 30
0.0
 10
-0.8393889975
 20
11.0179472646
 30
0.0
 10
-0.8120183228
 20
11.012322256
 30
0.0
 10
-0.782273384
 20
11.0025664176
 30
0.0
 10
-0.7374055314
 20
10.9737306045
 30
0.0
 10
-0.7217427628
 20
10.9230800751
 30
0.0
 10
-0.7221369678
 20
10.8886371238
 30
0.0
 10
-0.7221369678
 20
10.8863966132
 30
0.0
  0
SPLINE
  5
58B
100
AcDbEntity
  8
0
100
AcDbSpline
 62
7
  6
CONTINUOUS
 70
0
 71
3
 72
14
 73
10
 74
0
 42
0.0000001
 43
0.0000001
 44
0.0000000001
 40
0.0
 40
0.0
 40
0.0
 40
0.0
 40
0.0943177976
 40
0.2454747721
 40
0.3513653646
 40
0.4920107436
 40
0.622766754
 40
0.9774610054
 40
1.0
 40
1.0
 40
1.0
 40
1.0
 10
-0.8427705919
 20
10.6653562046
 30
0.0
 10
-0.8316016746
 20
10.6653561546
 30
0.0
 10
-0.8025060379
 20
10.6671083721
 30
0.0
 10
-0.7616605641
 20
10.6762939826
 30
0.0
 10
-0.7177179739
 20
10.6937753779
 30
0.0
 10
-0.6808310608
 20
10.7200196944
 30
0.0
 10
-0.6320407521
 20
10.7765272506
 30
0.0
 10
-0.6152227745
 20
10.8391119745
 30
0.0
 10
-0.6156073626
 20
10.8837275921
 30
0.0
 10
-0.6156073626
 20
10.8863966132
 30
0.0
  0
SPLINE
  5
58C
100
AcDbEntity
  8
0
100
AcDbSpline
 62
7
  6
CONTINUOUS
 70
0
 71
3
 72
14
 73
10
 74
0
 42
0.0000001
 43
0.0000001
 44
0.0000000001
 40
0.0
 40
0.0
 40
0.0
 40
0.0
 40
0.0225390899
 40
0.3772348415
 40
0.5079914049
 40
0.6486373788
 40
0.7545284191
 40
0.905686033
 40
1.0
 40
1.0
 40
1.0
 40
1.0
 10
-0.6156073626
 20
10.8863966132
 30
0.0
 10
-0.6156073626
 20
10.8890656342
 30
0.0
 10
-0.6152227745
 20
10.9336812518
 30
0.0
 10
-0.6320407521
 20
10.9962659757
 30
0.0
 10
-0.6808310608
 20
11.0527735319
 30
0.0
 10
-0.7177179739
 20
11.0790178484
 30
0.0
 10
-0.7616605641
 20
11.0964992437
 30
0.0
 10
-0.8025055462
 20
11.1056847437
 30
0.0
 10
-0.831600672
 20
11.1074370113
 30
0.0
 10
-0.8427690894
 20
11.1074370217
 30
0.0
  0
SPLINE
  5
58D
100
AcDbEntity
  8
0
100
AcDbSpline
 62
7
  6
CONTINUOUS
 70
0
 71
3
 72
16
 73
12
 74
0
 42
0.0000001
 43
0.0000001
 44
0.0000000001
 40
0.0
 40
0.0
 40
0.0
 40
0.0
 40
0.081582199
 40
0.1574553967
 40
0.3066287736
 40
0.384848994
 40
0.5792892447
 40
0.6959714606
 40
0.8475957974
 40
0.961835767
 40
1.0
 40
1.0
 40
1.0
 40
1.0
 10
0.3207736637
 20
10.4267333568
 30
0.0
 10
0.3106241675
 20
10.4267333568
 30
0.0
 10
0.2909927804
 20
10.4292968251
 30
0.0
 10
0.2547999625
 20
10.4425048063
 30
0.0
 10
0.2261368664
 20
10.4690262741
 30
0.0
 10
0.1965898692
 20
10.5125336365
 30
0.0
 10
0.1823327988
 20
10.5597800614
 30
0.0
 10
0.1709711285
 20
10.6160801046
 30
0.0
 10
0.1653566359
 20
10.6634682514
 30
0.0
 10
0.16415105
 20
10.7012917058
 30
0.0
 10
0.1642375478
 20
10.7202520556
 30
0.0
 10
0.1642375478
 20
10.725
 30
0.0
  0
SPLINE
  5
58E
100
AcDbEntity
  8
0
100
AcDbSpline
 62
7
  6
CONTINUOUS
 70
0
 71
3
 72
16
 73
12
 74
0
 42
0.0000001
 43
0.0000001
 44
0.0000000001
 40
0.0
 40
0.0
 40
0.0
 40
0.0
 40
0.038164233
 40
0.1524042026
 40
0.3040285394
 40
0.4207107553
 40
0.615151006
 40
0.6933712264
 40
0.8425446033
 40
0.918417801
 40
1.0
 40
1.0
 40
1.0
 40
1.0
 10
0.1642375478
 20
10.725
 30
0.0
 10
0.1642375478
 20
10.7297479444
 30
0.0
 10
0.16415105
 20
10.7487082942
 30
0.0
 10
0.1653566359
 20
10.7865317486
 30
0.0
 10
0.1709711285
 20
10.8339198954
 30
0.0
 10
0.1823327988
 20
10.8902199386
 30
0.0
 10
0.1965898692
 20
10.9374663635
 30
0.0
 10
0.2261368664
 20
10.9809737259
 30
0.0
 10
0.2547999625
 20
11.0074951937
 30
0.0
 10
0.2909927804
 20
11.0207031749
 30
0.0
 10
0.3106241675
 20
11.0232666432
 30
0.0
 10
0.3207736637
 20
11.0232666432
 30
0.0
  0
SPLINE
  5
58F
100
AcDbEntity
  8
0
100
AcDbSpline
 62
7
  6
CONTINUOUS
 70
0
 71
3
 72
16
 73
12
 74
0
 42
0.0000001
 43
0.0000001
 44
0.0000000001
 40
0.0
 40
0.0
 40
0.0
 40
0.0
 40
0.081582199
 40
0.1574553967
 40
0.3066287736
 40
0.384848994
 40
0.5792892447
 40
0.6959714606
 40
0.8475957974
 40
0.961835767
 40
1.0
 40
1.0
 40
1.0
 40
1.0
 10
0.3207736637
 20
11.0232666432
 30
0.0
 10
0.33092316
 20
11.0232666432
 30
0.0
 10
0.3505545471
 20
11.0207031749
 30
0.0
 10
0.3867473649
 20
11.0074951937
 30
0.0
 10
0.4154104611
 20
10.9809737259
 30
0.0
 10
0.4449574583
 20
10.9374663635
 30
0.0
 10
0.4592145287
 20
10.8902199386
 30
0.0
 10
0.470576199
 20
10.8339198954
 30
0.0
 10
0.4761906916
 20
10.7865317486
 30
0.0
 10
0.4773962775
 20
10.7487082942
 30
0.0
 10
0.4773097796
 20
10.7297479444
 30
0.0
 10
0.4773097796
 20
10.725
 30
0.0
  0
SPLINE
  5
590
100
AcDbEntity
  8
0
100
AcDbSpline
 62
7
  6
CONTINUOUS
 70
0
 71
3
 72
16
 73
12
 74
0
 42
0.0000001
 43
0.0000001
 44
0.0000000001
 40
0.0
 40
0.0
 40
0.0
 40
0.0
 40
0.038164233
 40
0.1524042026
 40
0.3040285394
 40
0.4207107553
 40
0.615151006
 40
0.6933712264
 40
0.8425446033
 40
0.918417801
 40
1.0
 40
1.0
 40
1.0
 40
1.0
 10
0.4773097796
 20
10.725
 30
0.0
 10
0.4773097796
 20
10.7202520556
 30
0.0
 10
0.4773962775
 20
10.7012917058
 30
0.0
 10
0.4761906916
 20
10.6634682514
 30
0.0
 10
0.470576199
 20
10.6160801046
 30
0.0
 10
0.4592145287
 20
10.5597800614
 30
0.0
 10
0.4449574583
 20
10.5125336365
 30
0.0
 10
0.4154104611
 20
10.4690262741
 30
0.0
 10
0.3867473649
 20
10.4425048063
 30
0.0
 10
0.3505545471
 20
10.4292968251
 30
0.0
 10
0.33092316
 20
10.4267333568
 30
0.0
 10
0.3207736637
 20
10.4267333568
 30
0.0
  0
SPLINE
  5
591
100
AcDbEntity
  8
0
100
AcDbSpline
 62
7
  6
CONTINUOUS
 70
0
 71
3
 72
23
 73
19
 74
0
 42
0.0000001
 43
0.0000001
 44
0.0000000001
 40
0.0
 40
0.0
 40
0.0
 40
0.0
 40
0.1175716721
 40
0.2550368586
 40
0.3463162708
 40
0.4140846673
 40
0.5095606694
 40
0.6178461101
 40
0.6617319017
 40
0.7152414415
 40
0.7583771864
 40
0.8078403706
 40
0.8439461126
 40
0.889742133
 40
0.9288974336
 40
0.9679984913
 40
0.9901309194
 40
1.0
 40
1.0
 40
1.0
 40
1.0
 10
0.3207736637
 20
11.1074344211
 30
0.0
 10
0.3005374944
 20
11.1074344211
 30
0.0
 10
0.2565030778
 20
11.1018419851
 30
0.0
 10
0.2006700145
 20
11.0778731732
 30
0.0
 10
0.1613548036
 20
11.0446120327
 30
0.0
 10
0.1335530646
 20
11.0106337412
 30
0.0
 10
0.1088112746
 20
10.9707039998
 30
0.0
 10
0.093789073
 20
10.9305345602
 30
0.0
 10
0.0846308984
 20
10.896345017
 30
0.0
 10
0.079096375
 20
10.8727898923
 30
0.0
 10
0.0742903554
 20
10.8481014625
 30
0.0
 10
0.0708149882
 20
10.8262176809
 30
0.0
 10
0.0679993949
 20
10.8037809614
 30
0.0
 10
0.0660481352
 20
10.7830318293
 30
0.0
 10
0.0647389102
 20
10.7617175558
 30
0.0
 10
0.0641855523
 20
10.7444447931
 30
0.0
 10
0.0640937192
 20
10.732206661
 30
0.0
 10
0.0641012544
 20
10.7266986438
 30
0.0
 10
0.0641012544
 20
10.725
 30
0.0
  0
SPLINE
  5
592
100
AcDbEntity
  8
0
100
AcDbSpline
 62
7
  6
CONTINUOUS
 70
0
 71
3
 72
23
 73
19
 74
0
 42
0.0000001
 43
0.0000001
 44
0.0000000001
 40
0.0
 40
0.0
 40
0.0
 40
0.0
 40
0.0098690806
 40
0.0320015087
 40
0.0711025664
 40
0.110257867
 40
0.1560538874
 40
0.1921596294
 40
0.2416228136
 40
0.2847585585
 40
0.3382680983
 40
0.3821538899
 40
0.4904393306
 40
0.5859153327
 40
0.6536837292
 40
0.7449631414
 40
0.8824283279
 40
1.0
 40
1.0
 40
1.0
 40
1.0
 10
0.0641012544
 20
10.725
 30
0.0
 10
0.0641012544
 20
10.7233013562
 30
0.0
 10
0.0640937192
 20
10.717793339
 30
0.0
 10
0.0641855523
 20
10.7055552069
 30
0.0
 10
0.0647389102
 20
10.6882824442
 30
0.0
 10
0.0660481352
 20
10.6669681707
 30
0.0
 10
0.0679993949
 20
10.6462190386
 30
0.0
 10
0.0708149882
 20
10.6237823191
 30
0.0
 10
0.0742903554
 20
10.6018985375
 30
0.0
 10
0.079096375
 20
10.5772101077
 30
0.0
 10
0.0846308984
 20
10.553654983
 30
0.0
 10
0.093789073
 20
10.5194654398
 30
0.0
 10
0.1088112746
 20
10.4792960002
 30
0.0
 10
0.1335530646
 20
10.4393662588
 30
0.0
 10
0.1613548036
 20
10.4053879673
 30
0.0
 10
0.2006700145
 20
10.3721268268
 30
0.0
 10
0.2565030778
 20
10.3481580149
 30
0.0
 10
0.3005374944
 20
10.3425655789
 30
0.0
 10
0.3207736637
 20
10.3425655789
 30
0.0
  0
SPLINE
  5
593
100
AcDbEntity
  8
0
100
AcDbSpline
 62
7
  6
CONTINUOUS
 70
0
 71
3
 72
23
 73
19
 74
0
 42
0.0000001
 43
0.0000001
 44
0.0000000001
 40
0.0
 40
0.0
 40
0.0
 40
0.0
 40
0.1175716721
 40
0.2550368586
 40
0.3463162708
 40
0.4140846673
 40
0.5095606694
 40
0.6178461101
 40
0.6617319017
 40
0.7152414415
 40
0.7583771864
 40
0.8078403706
 40
0.8439461126
 40
0.889742133
 40
0.9288974336
 40
0.9679984913
 40
0.9901309194
 40
1.0
 40
1.0
 40
1.0
 40
1.0
 10
0.3207736637
 20
10.3425655789
 30
0.0
 10
0.3410098331
 20
10.3425655789
 30
0.0
 10
0.3850442497
 20
10.3481580149
 30
0.0
 10
0.440877313
 20
10.3721268268
 30
0.0
 10
0.4801925239
 20
10.4053879673
 30
0.0
 10
0.5079942629
 20
10.4393662588
 30
0.0
 10
0.5327360529
 20
10.4792960002
 30
0.0
 10
0.5477582545
 20
10.5194654398
 30
0.0
 10
0.5569164291
 20
10.553654983
 30
0.0
 10
0.5624509525
 20
10.5772101077
 30
0.0
 10
0.5672569721
 20
10.6018985375
 30
0.0
 10
0.5707323392
 20
10.6237823191
 30
0.0
 10
0.5735479326
 20
10.6462190386
 30
0.0
 10
0.5754991923
 20
10.6669681707
 30
0.0
 10
0.5768084173
 20
10.6882824442
 30
0.0
 10
0.5773617751
 20
10.7055552069
 30
0.0
 10
0.5774536082
 20
10.717793339
 30
0.0
 10
0.5774460731
 20
10.7233013562
 30
0.0
 10
0.5774460731
 20
10.725
 30
0.0
  0
SPLINE
  5
594
100
AcDbEntity
  8
0
100
AcDbSpline
 62
7
  6
CONTINUOUS
 70
0
 71
3
 72
23
 73
19
 74
0
 42
0.0000001
 43
0.0000001
 44
0.0000000001
 40
0.0
 40
0.0
 40
0.0
 40
0.0
 40
0.0098690806
 40
0.0320015087
 40
0.0711025664
 40
0.110257867
 40
0.1560538874
 40
0.1921596294
 40
0.2416228136
 40
0.2847585585
 40
0.3382680983
 40
0.3821538899
 40
0.4904393306
 40
0.5859153327
 40
0.6536837292
 40
0.7449631414
 40
0.8824283279
 40
1.0
 40
1.0
 40
1.0
 40
1.0
 10
0.5774460731
 20
10.725
 30
0.0
 10
0.5774460731
 20
10.7266986438
 30
0.0
 10
0.5774536082
 20
10.732206661
 30
0.0
 10
0.5773617751
 20
10.7444447931
 30
0.0
 10
0.5768084173
 20
10.7617175558
 30
0.0
 10
0.5754991923
 20
10.7830318293
 30
0.0
 10
0.5735479326
 20
10.8037809614
 30
0.0
 10
0.5707323392
 20
10.8262176809
 30
0.0
 10
0.5672569721
 20
10.8481014625
 30
0.0
 10
0.5624509525
 20
10.8727898923
 30
0.0
 10
0.5569164291
 20
10.896345017
 30
0.0
 10
0.5477582545
 20
10.9305345602
 30
0.0
 10
0.5327360529
 20
10.9707039998
 30
0.0
 10
0.5079942629
 20
11.0106337412
 30
0.0
 10
0.4801925239
 20
11.0446120327
 30
0.0
 10
0.440877313
 20
11.0778731732
 30
0.0
 10
0.3850442497
 20
11.1018419851
 30
0.0
 10
0.3410098331
 20
11.1074344211
 30
0.0
 10
0.3207736637
 20
11.1074344211
 30
0.0
  0
LINE
  5
595
100
AcDbEntity
  8
0
100
AcDbLine
 62
7
  6
CONTINUOUS
 10
-0.3155938798
 20
-20.2487390824
 11
-0.5418969822
 21
-20.5988295081
  0
SPLINE
  5
596
100
AcDbEntity
  8
0
100
AcDbSpline
 62
7
  6
CONTINUOUS
 70
0
 71
3
 72
9
 73
5
 74
0
 42
0.0000001
 43
0.0000001
 44
0.0000000001
 40
0.0
 40
0.0
 40
0.0
 40
0.0
 40
0.7394757627
 40
1.0
 40
1.0
 40
1.0
 40
1.0
 10
-0.5418969822
 20
-20.5988295081
 30
0.0
 10
-0.5586801611
 20
-20.5678195308
 30
0.0
 10
-0.583720058
 20
-20.5271161645
 30
0.0
 10
-0.6110423518
 20
-20.4880383221
 30
0.0
 10
-0.6183036866
 20
-20.4779589872
 30
0.0
  0
SPLINE
  5
597
100
AcDbEntity
  8
0
100
AcDbSpline
 62
7
  6
CONTINUOUS
 70
0
 71
3
 72
9
 73
5
 74
0
 42
0.0000001
 43
0.0000001
 44
0.0000000001
 40
0.0
 40
0.0
 40
0.0
 40
0.0
 40
0.7097160398
 40
1.0
 40
1.0
 40
1.0
 40
1.0
 10
-1.8275776241
 20
-20.3261417224
 30
0.0
 10
-1.8165279339
 20
-20.3639590599
 30
0.0
 10
-1.7987505735
 20
-20.4165915672
 30
0.0
 10
-1.7799158385
 20
-20.4688071886
 30
0.0
 10
-1.7743633308
 20
-20.483934948
 30
0.0
  0
SPLINE
  5
598
100
AcDbEntity
  8
0
100
AcDbSpline
 62
7
  6
CONTINUOUS
 70
0
 71
3
 72
9
 73
5
 74
0
 42
0.0000001
 43
0.0000001
 44
0.0000000001
 40
0.0
 40
0.0
 40
0.0
 40
0.0
 40
0.2354134851
 40
1.0
 40
1.0
 40
1.0
 40
1.0
 10
7.0236419147
 20
-19.8020102362
 30
0.0
 10
7.0209427575
 20
-19.7922666673
 30
0.0
 10
7.0090105844
 20
-19.7510069158
 30
0.0
 10
6.9953565968
 20
-19.7102557935
 30
0.0
 10
6.9842291973
 20
-19.6793612044
 30
0.0
  0
SPLINE
  5
599
100
AcDbEntity
  8
0
100
AcDbSpline
 62
7
  6
CONTINUOUS
 70
0
 71
3
 72
9
 73
5
 74
0
 42
0.0000001
 43
0.0000001
 44
0.0000000001
 40
0.0
 40
0.0
 40
0.0
 40
0.0
 40
0.7097160398
 40
1.0
 40
1.0
 40
1.0
 40
1.0
 10
6.0219606912
 20
-19.212384278
 30
0.0
 10
6.0330103814
 20
-19.2502016156
 30
0.0
 10
6.0507877418
 20
-19.3028341228
 30
0.0
 10
6.0696224768
 20
-19.3550497443
 30
0.0
 10
6.0751749845
 20
-19.3701775037
 30
0.0
  0
SPLINE
  5
59A
100
AcDbEntity
  8
0
100
AcDbSpline
 62
7
  6
CONTINUOUS
 70
0
 71
3
 72
15
 73
11
 74
0
 42
0.0000001
 43
0.0000001
 44
0.0000000001
 40
0.0
 40
0.0
 40
0.0
 40
0.0
 40
0.1678404711
 40
0.2512879759
 40
0.33511008
 40
0.4172449098
 40
0.4965963632
 40
0.6544390062
 40
0.8184759151
 40
1.0
 40
1.0
 40
1.0
 40
1.0
 10
5.0771931388
 20
-19.5044938148
 30
0.0
 10
5.0771931388
 20
-19.4800501751
 30
0.0
 10
5.0800456376
 20
-19.4433498702
 30
0.0
 10
5.089897456
 20
-19.3955162457
 30
0.0
 10
5.0998202581
 20
-19.360535396
 30
0.0
 10
5.1132905545
 20
-19.3273077081
 30
0.0
 10
5.1376316141
 20
-19.2874792492
 30
0.0
 10
5.1798335725
 20
-19.2454484616
 30
0.0
 10
5.2473136512
 20
-19.2133580854
 30
0.0
 10
5.2981890304
 20
-19.2078311815
 30
0.0
 10
5.324625499
 20
-19.2078311815
 30
0.0
  0
SPLINE
  5
59B
100
AcDbEntity
  8
0
100
AcDbSpline
 62
7
  6
CONTINUOUS
 70
0
 71
3
 72
9
 73
5
 74
0
 42
0.0000001
 43
0.0000001
 44
0.0000000001
 40
0.0
 40
0.0
 40
0.0
 40
0.0
 40
0.4786249203
 40
1.0
 40
1.0
 40
1.0
 40
1.0
 10
5.324625499
 20
-19.2078311815
 30
0.0
 10
5.3677138947
 20
-19.2078311815
 30
0.0
 10
5.4643623008
 20
-19.2313724376
 30
0.0
 10
5.5092679906
 20
-19.3195837562
 30
0.0
 10
5.5233965929
 20
-19.3643438293
 30
0.0
  0
SPLINE
  5
59C
100
AcDbEntity
  8
0
100
AcDbSpline
 62
7
  6
CONTINUOUS
 70
0
 71
3
 72
26
 73
22
 74
0
 42
0.0000001
 43
0.0000001
 44
0.0000000001
 40
0.0
 40
0.0
 40
0.0
 40
0.0
 40
0.0892141085
 40
0.1724369938
 40
0.2141881671
 40
0.2565529777
 40
0.3007890667
 40
0.3480047804
 40
0.3904332458
 40
0.4316625789
 40
0.4723533261
 40
0.5131921759
 40
0.5936811218
 40
0.6761169367
 40
0.7196344606
 40
0.7646491762
 40
0.811853608
 40
0.8618493694
 40
0.9084233662
 40
0.9538983076
 40
1.0
 40
1.0
 40
1.0
 40
1.0
 10
5.6235647153
 20
-19.3412937741
 30
0.0
 10
5.6142063515
 20
-19.3086947044
 30
0.0
 10
5.588078019
 20
-19.2472794963
 30
0.0
 10
5.5315073429
 20
-19.1862605304
 30
0.0
 10
5.4773124913
 20
-19.1523954482
 30
0.0
 10
5.4317568128
 20
-19.1342047614
 30
0.0
 10
5.3818097457
 20
-19.1234814307
 30
0.0
 10
5.3308522581
 20
-19.1203122846
 30
0.0
 10
5.2810716856
 20
-19.1231262455
 30
0.0
 10
5.2344389733
 20
-19.1316454378
 30
0.0
 10
5.1898899005
 20
-19.1460011479
 30
0.0
 10
5.1340096724
 20
-19.1722052226
 30
0.0
 10
5.0712621514
 20
-19.2198322368
 30
0.0
 10
5.0262742348
 20
-19.285659137
 30
0.0
 10
5.0008404925
 20
-19.3456046593
 30
0.0
 10
4.9869472651
 20
-19.3954555321
 30
0.0
 10
4.9787239595
 20
-19.4490032605
 30
0.0
 10
4.9761858599
 20
-19.5036904644
 30
0.0
 10
4.9786149268
 20
-19.5577188405
 30
0.0
 10
4.9861178056
 20
-19.6097598274
 30
0.0
 10
4.9946736109
 20
-19.6436539245
 30
0.0
 10
4.9998650828
 20
-19.6604355926
 30
0.0
  0
SPLINE
  5
59D
100
AcDbEntity
  8
0
100
AcDbSpline
 62
7
  6
CONTINUOUS
 70
0
 71
3
 72
11
 73
7
 74
0
 42
0.0000001
 43
0.0000001
 44
0.0000000001
 40
0.0
 40
0.0
 40
0.0
 40
0.0
 40
0.2450314628
 40
0.4753357612
 40
0.7174932177
 40
1.0
 40
1.0
 40
1.0
 40
1.0
 10
5.0167934847
 20
-19.7068220696
 30
0.0
 10
5.0292909041
 20
-19.7363553073
 30
0.0
 10
5.0606150897
 20
-19.7911625076
 30
0.0
 10
5.1310369963
 20
-19.8559022769
 30
0.0
 10
5.2242764934
 20
-19.8938858572
 30
0.0
 10
5.2934859294
 20
-19.8999018451
 30
0.0
 10
5.3304591734
 20
-19.8999018451
 30
0.0
  0
SPLINE
  5
59E
100
AcDbEntity
  8
0
100
AcDbSpline
 62
7
  6
CONTINUOUS
 70
0
 71
3
 72
11
 73
7
 74
0
 42
0.0000001
 43
0.0000001
 44
0.0000000001
 40
0.0
 40
0.0
 40
0.0
 40
0.0
 40
0.2525992429
 40
0.4888102636
 40
0.730558892
 40
1.0
 40
1.0
 40
1.0
 40
1.0
 10
5.3304591734
 20
-19.8999018451
 30
0.0
 10
5.3669951471
 20
-19.8999018451
 30
0.0
 10
5.4385176551
 20
-19.8906515998
 30
0.0
 10
5.5339691863
 20
-19.8399505038
 30
0.0
 10
5.6056851597
 20
-19.7558761233
 30
0.0
 10
5.6321657612
 20
-19.6854711669
 30
0.0
 10
5.6417771012
 20
-19.6477029587
 30
0.0
  0
SPLINE
  5
59F
100
AcDbEntity
  8
0
100
AcDbSpline
 62
7
  6
CONTINUOUS
 70
0
 71
3
 72
18
 73
14
 74
0
 42
0.0000001
 43
0.0000001
 44
0.0000000001
 40
0.0
 40
0.0
 40
0.0
 40
0.0
 40
0.1159164268
 40
0.217229043
 40
0.2661318292
 40
0.3148796945
 40
0.3650966775
 40
0.4182723816
 40
0.5929571957
 40
0.6821159461
 40
0.7765883123
 40
0.8819922264
 40
1.0
 40
1.0
 40
1.0
 40
1.0
 10
5.5416089788
 20
-19.6225897502
 30
0.0
 10
5.5353639341
 20
-19.651329985
 30
0.0
 10
5.5178779375
 20
-19.7045714744
 30
0.0
 10
5.4746759894
 20
-19.7587253408
 30
0.0
 10
5.4327295929
 20
-19.7873049867
 30
0.0
 10
5.3982408796
 20
-19.8025916508
 30
0.0
 10
5.3604652548
 20
-19.811541922
 30
0.0
 10
5.2900187949
 20
-19.8167207404
 30
0.0
 10
5.2074467018
 20
-19.7954234653
 30
0.0
 10
5.1368720946
 20
-19.735502127
 30
0.0
 10
5.1012208181
 20
-19.6698870413
 30
0.0
 10
5.0811580465
 20
-19.5912854548
 30
0.0
 10
5.0771931388
 20
-19.5344353529
 30
0.0
 10
5.0771931388
 20
-19.5044938148
 30
0.0
  0
SPLINE
  5
5A0
100
AcDbEntity
  8
0
100
AcDbSpline
 62
7
  6
CONTINUOUS
 70
0
 71
3
 72
12
 73
8
 74
0
 42
0.0000001
 43
0.0000001
 44
0.0000000001
 40
0.0
 40
0.0
 40
0.0
 40
0.0
 40
0.1606441131
 40
0.3160528741
 40
0.4695579901
 40
0.6257786262
 40
1.0
 40
1.0
 40
1.0
 40
1.0
 10
3.3515695765
 20
-19.6403753462
 30
0.0
 10
3.3522291322
 20
-19.6649604785
 30
0.0
 10
3.3592773596
 20
-19.7135103474
 30
0.0
 10
3.3893928858
 20
-19.7797833061
 30
0.0
 10
3.4364194306
 20
-19.8347041768
 30
0.0
 10
3.5271082249
 20
-19.8900863262
 30
0.0
 10
3.6112871507
 20
-19.8999018451
 30
0.0
 10
3.6685789616
 20
-19.8999018451
 30
0.0
  0
SPLINE
  5
5A1
100
AcDbEntity
  8
0
100
AcDbSpline
 62
7
  6
CONTINUOUS
 70
0
 71
3
 72
16
 73
12
 74
0
 42
0.0000001
 43
0.0000001
 44
0.0000000001
 40
0.0
 40
0.0
 40
0.0
 40
0.0
 40
0.1203129341
 40
0.2330202272
 40
0.338248294
 40
0.4376608643
 40
0.5333866397
 40
0.6266067036
 40
0.7177154286
 40
0.8050016052
 40
1.0
 40
1.0
 40
1.0
 40
1.0
 10
3.6685789616
 20
-19.8999018451
 30
0.0
 10
3.693906475
 20
-19.8999018451
 30
0.0
 10
3.7431832829
 20
-19.8955429175
 30
0.0
 10
3.8115075542
 20
-19.8735832164
 30
0.0
 10
3.8692991281
 20
-19.8383659442
 30
0.0
 10
3.9114957392
 20
-19.7900428995
 30
0.0
 10
3.9377033546
 20
-19.7343573855
 30
0.0
 10
3.9461121728
 20
-19.6751936738
 30
0.0
 10
3.9386919313
 20
-19.6177514057
 30
0.0
 10
3.9053185894
 20
-19.5450634076
 30
0.0
 10
3.8532852306
 20
-19.5083428647
 30
0.0
 10
3.8160565597
 20
-19.4910479551
 30
0.0
  0
SPLINE
  5
5A2
100
AcDbEntity
  8
0
100
AcDbSpline
 62
7
  6
CONTINUOUS
 70
0
 71
3
 72
9
 73
5
 74
0
 42
0.0000001
 43
0.0000001
 44
0.0000000001
 40
0.0
 40
0.0
 40
0.0
 40
0.0
 40
0.1708537376
 40
1.0
 40
1.0
 40
1.0
 40
1.0
 10
3.8160565597
 20
-19.4910479551
 30
0.0
 10
3.8072587679
 20
-19.4870261133
 30
0.0
 10
3.7542416511
 20
-19.4669210681
 30
0.0
 10
3.6990221977
 20
-19.4536108953
 30
0.0
 10
3.6533189498
 20
-19.4428847608
 30
0.0
  0
SPLINE
  5
5A3
100
AcDbEntity
  8
0
100
AcDbSpline
 62
7
  6
CONTINUOUS
 70
0
 71
3
 72
9
 73
5
 74
0
 42
0.0000001
 43
0.0000001
 44
0.0000000001
 40
0.0
 40
0.0
 40
0.0
 40
0.0
 40
0.6350560901
 40
1.0
 40
1.0
 40
1.0
 40
1.0
 10
3.6533189498
 20
-19.4428847608
 30
0.0
 10
3.6211093514
 20
-19.4353254625
 30
0.0
 10
3.5715818239
 20
-19.4217149645
 30
0.0
 10
3.5213218949
 20
-19.4018857305
 30
0.0
 10
3.5075131479
 20
-19.3888167489
 30
0.0
  0
SPLINE
  5
5A4
100
AcDbEntity
  8
0
100
AcDbSpline
 62
7
  6
CONTINUOUS
 70
0
 71
3
 72
16
 73
12
 74
0
 42
0.0000001
 43
0.0000001
 44
0.0000000001
 40
0.0
 40
0.0
 40
0.0
 40
0.0
 40
0.1219923656
 40
0.1832732458
 40
0.248197934
 40
0.323728273
 40
0.3974828774
 40
0.4735809367
 40
0.5557901273
 40
0.7471063308
 40
1.0
 40
1.0
 40
1.0
 40
1.0
 10
3.5075131479
 20
-19.3888167489
 30
0.0
 10
3.498514361
 20
-19.3804703835
 30
0.0
 10
3.4872279899
 20
-19.3649667129
 30
0.0
 10
3.4801388038
 20
-19.3408581585
 30
0.0
 10
3.4783899603
 20
-19.3205204675
 30
0.0
 10
3.480632698
 20
-19.2989094863
 30
0.0
 10
3.488375686
 20
-19.2773410028
 30
0.0
 10
3.5014121463
 20
-19.2577674833
 30
0.0
 10
3.5263792261
 20
-19.2325831607
 30
0.0
 10
3.5765994927
 20
-19.2107364344
 30
0.0
 10
3.6216506405
 20
-19.2078311815
 30
0.0
 10
3.6470940572
 20
-19.2078311815
 30
0.0
  0
SPLINE
  5
5A5
100
AcDbEntity
  8
0
100
AcDbSpline
 62
7
  6
CONTINUOUS
 70
0
 71
3
 72
9
 73
5
 74
0
 42
0.0000001
 43
0.0000001
 44
0.0000000001
 40
0.0
 40
0.0
 40
0.0
 40
0.0
 40
0.5306823676
 40
1.0
 40
1.0
 40
1.0
 40
1.0
 10
3.6470940572
 20
-19.2078311815
 30
0.0
 10
3.6911880921
 20
-19.2078311815
 30
0.0
 10
3.7850299979
 20
-19.2215776042
 30
0.0
 10
3.8209415221
 20
-19.3102033573
 30
0.0
 10
3.8250916094
 20
-19.3489771721
 30
0.0
  0
SPLINE
  5
5A6
100
AcDbEntity
  8
0
100
AcDbSpline
 62
7
  6
CONTINUOUS
 70
0
 71
3
 72
13
 73
9
 74
0
 42
0.0000001
 43
0.0000001
 44
0.0000000001
 40
0.0
 40
0.0
 40
0.0
 40
0.0
 40
0.1571016647
 40
0.3096608808
 40
0.4633596561
 40
0.6259608805
 40
0.8039640154
 40
1.0
 40
1.0
 40
1.0
 40
1.0
 10
3.9252597318
 20
-19.3444240757
 30
0.0
 10
3.9244400687
 20
-19.3233857992
 30
0.0
 10
3.9177682326
 20
-19.2818426665
 30
0.0
 10
3.8909018246
 20
-19.2249460218
 30
0.0
 10
3.8479239757
 20
-19.1776711363
 30
0.0
 10
3.7894134977
 20
-19.1446978749
 30
0.0
 10
3.7196840322
 20
-19.1251225095
 30
0.0
 10
3.6693821216
 20
-19.1213223486
 30
0.0
 10
3.643110037
 20
-19.1213223486
 30
0.0
  0
SPLINE
  5
5A7
100
AcDbEntity
  8
0
100
AcDbSpline
 62
7
  6
CONTINUOUS
 70
0
 71
3
 72
15
 73
11
 74
0
 42
0.0000001
 43
0.0000001
 44
0.0000000001
 40
0.0
 40
0.0
 40
0.0
 40
0.0
 40
0.1249524682
 40
0.2423294566
 40
0.350902176
 40
0.4524669683
 40
0.6444564726
 40
0.7304140431
 40
0.8144496174
 40
1.0
 40
1.0
 40
1.0
 40
1.0
 10
3.643110037
 20
-19.1213223486
 30
0.0
 10
3.6189096326
 20
-19.1213223486
 30
0.0
 10
3.5718149075
 20
-19.125211441
 30
0.0
 10
3.5060784417
 20
-19.1440165051
 30
0.0
 10
3.4498249309
 20
-19.1752749934
 30
0.0
 10
3.396657726
 20
-19.2337195221
 30
0.0
 10
3.3738900599
 20
-19.3087270252
 30
0.0
 10
3.3831796761
 20
-19.3789495633
 30
0.0
 10
3.4118624287
 20
-19.4427321793
 30
0.0
 10
3.4556602864
 20
-19.4769113972
 30
0.0
 10
3.4875933943
 20
-19.4933956813
 30
0.0
  0
SPLINE
  5
5A8
100
AcDbEntity
  8
0
100
AcDbSpline
 62
7
  6
CONTINUOUS
 70
0
 71
3
 72
9
 73
5
 74
0
 42
0.0000001
 43
0.0000001
 44
0.0000000001
 40
0.0
 40
0.0
 40
0.0
 40
0.0
 40
0.1806469784
 40
1.0
 40
1.0
 40
1.0
 40
1.0
 10
3.4875933943
 20
-19.4933956813
 30
0.0
 10
3.4956413473
 20
-19.4976022614
 30
0.0
 10
3.541800586
 20
-19.5177430915
 30
0.0
 10
3.5906568833
 20
-19.5306453698
 30
0.0
 10
3.6306246107
 20
-19.5405984769
 30
0.0
  0
SPLINE
  5
5A9
100
AcDbEntity
  8
0
100
AcDbSpline
 62
7
  6
CONTINUOUS
 70
0
 71
3
 72
9
 73
5
 74
0
 42
0.0000001
 43
0.0000001
 44
0.0000000001
 40
0.0
 40
0.0
 40
0.0
 40
0.0
 40
0.3500357027
 40
1.0
 40
1.0
 40
1.0
 40
1.0
 10
3.6306246107
 20
-19.5405984769
 30
0.0
 10
3.6459463442
 20
-19.5444140267
 30
0.0
 10
3.6895435436
 20
-19.5558013714
 30
0.0
 10
3.7335889026
 20
-19.5665887654
 30
0.0
 10
3.7607791825
 20
-19.577556788
 30
0.0
  0
SPLINE
  5
5AA
100
AcDbEntity
  8
0
100
AcDbSpline
 62
7
  6
CONTINUOUS
 70
0
 71
3
 72
21
 73
17
 74
0
 42
0.0000001
 43
0.0000001
 44
0.0000000001
 40
0.0
 40
0.0
 40
0.0
 40
0.0
 40
0.0874388932
 40
0.1571041086
 40
0.2201792754
 40
0.2866010327
 40
0.3542931985
 40
0.4239280616
 40
0.4986393325
 40
0.5826703213
 40
0.6768627142
 40
0.7273713472
 40
0.7807131575
 40
0.841078171
 40
0.8989178884
 40
1.0
 40
1.0
 40
1.0
 40
1.0
 10
3.7607791825
 20
-19.577556788
 30
0.0
 10
3.7743894504
 20
-19.5829375906
 30
0.0
 10
3.7983419463
 20
-19.5943634347
 30
0.0
 10
3.8261298171
 20
-19.6197799906
 30
0.0
 10
3.8404982167
 20
-19.6506381634
 30
0.0
 10
3.8448877773
 20
-19.6837728913
 30
0.0
 10
3.8397890934
 20
-19.7180047198
 30
0.0
 10
3.8237339735
 20
-19.7503064872
 30
0.0
 10
3.7966144088
 20
-19.7781506281
 30
0.0
 10
3.7587645144
 20
-19.798230039
 30
0.0
 10
3.7216387182
 20
-19.8085742277
 30
0.0
 10
3.6887098969
 20
-19.8127257633
 30
0.0
 10
3.661214301
 20
-19.8137880071
 30
0.0
 10
3.6324866402
 20
-19.8125012658
 30
0.0
 10
3.5961070393
 20
-19.8071816466
 30
0.0
 10
3.570535793
 20
-19.7991983998
 30
0.0
 10
3.5549468117
 20
-19.7924838079
 30
0.0
  0
SPLINE
  5
5AB
100
AcDbEntity
  8
0
100
AcDbSpline
 62
7
  6
CONTINUOUS
 70
0
 71
3
 72
17
 73
13
 74
0
 42
0.0000001
 43
0.0000001
 44
0.0000000001
 40
0.0
 40
0.0
 40
0.0
 40
0.0
 40
0.1581267217
 40
0.2374466125
 40
0.3214448005
 40
0.4041332889
 40
0.4826014484
 40
0.560340071
 40
0.6409347996
 40
0.7239082795
 40
0.8092205449
 40
1.0
 40
1.0
 40
1.0
 40
1.0
 10
3.0785616463
 20
-19.734638651
 30
0.0
 10
3.0556061441
 20
-19.7595155462
 30
0.0
 10
3.0129512988
 20
-19.7907513173
 30
0.0
 10
2.9465447914
 20
-19.8104059125
 30
0.0
 10
2.8937631655
 20
-19.8149176806
 30
0.0
 10
2.8411830975
 20
-19.8104443832
 30
0.0
 10
2.7917972785
 20
-19.7956694243
 30
0.0
 10
2.7472722903
 20
-19.7706120816
 30
0.0
 10
2.7082624079
 20
-19.7362242097
 30
0.0
 10
2.6759008194
 20
-19.6933770938
 30
0.0
 10
2.6440139088
 20
-19.6228481371
 30
0.0
 10
2.6367334306
 20
-19.5626923498
 30
0.0
 10
2.6367334306
 20
-19.5218525516
 30
0.0
  0
SPLINE
  5
5AC
100
AcDbEntity
  8
0
100
AcDbSpline
 62
7
  6
CONTINUOUS
 70
0
 71
3
 72
9
 73
5
 74
0
 42
0.0000001
 43
0.0000001
 44
0.0000000001
 40
0.0
 40
0.0
 40
0.0
 40
0.0
 40
0.7911658617
 40
1.0
 40
1.0
 40
1.0
 40
1.0
 10
2.6367334306
 20
-19.5218525516
 30
0.0
 10
2.6367334306
 20
-19.4538693386
 30
0.0
 10
2.6467453623
 20
-19.361749023
 30
0.0
 10
2.6999824762
 20
-19.2925719338
 30
0.0
 10
2.7129978138
 20
-19.2802182942
 30
0.0
  0
SPLINE
  5
5AD
100
AcDbEntity
  8
0
100
AcDbSpline
 62
7
  6
CONTINUOUS
 70
0
 71
3
 72
21
 73
17
 74
0
 42
0.0000001
 43
0.0000001
 44
0.0000000001
 40
0.0
 40
0.0
 40
0.0
 40
0.0
 40
0.1125495645
 40
0.1681371967
 40
0.2259536191
 40
0.26704625
 40
0.3067901304
 40
0.3852150722
 40
0.4635807736
 40
0.5444690013
 40
0.6321341933
 40
0.6793404105
 40
0.7294223519
 40
0.8066476434
 40
0.8761112543
 40
1.0
 40
1.0
 40
1.0
 40
1.0
 10
2.7129978138
 20
-19.2802182942
 30
0.0
 10
2.7371031894
 20
-19.2573384325
 30
0.0
 10
2.7797640896
 20
-19.228904181
 30
0.0
 10
2.8443181281
 20
-19.2106570276
 30
0.0
 10
2.8900461987
 20
-19.2067897298
 30
0.0
 10
2.9310163034
 20
-19.2093091778
 30
0.0
 10
2.9772488266
 20
-19.2186638527
 30
0.0
 10
3.0310875292
 20
-19.2425438612
 30
0.0
 10
3.0852424612
 20
-19.2888653642
 30
0.0
 10
3.1239858144
 20
-19.3518442981
 30
0.0
 10
3.1425956825
 20
-19.4133982329
 30
0.0
 10
3.1500591378
 20
-19.4675726372
 30
0.0
 10
3.152144421
 20
-19.5191155831
 30
0.0
 10
3.1486355667
 20
-19.5773454775
 30
0.0
 10
3.1317923177
 20
-19.6556103322
 30
0.0
 10
3.1033707851
 20
-19.7077529683
 30
0.0
 10
3.0785616463
 20
-19.734638651
 30
0.0
  0
SPLINE
  5
5AE
100
AcDbEntity
  8
0
100
AcDbSpline
 62
7
  6
CONTINUOUS
 70
0
 71
3
 72
18
 73
14
 74
0
 42
0.0000001
 43
0.0000001
 44
0.0000000001
 40
0.0
 40
0.0
 40
0.0
 40
0.0
 40
0.1519229241
 40
0.2688691096
 40
0.3698366199
 40
0.4199224095
 40
0.4728043776
 40
0.5460050487
 40
0.6198797209
 40
0.6954843994
 40
0.7757756407
 40
0.8738495482
 40
1.0
 40
1.0
 40
1.0
 40
1.0
 10
2.1528246963
 20
-19.221490471
 30
0.0
 10
2.1770544496
 20
-19.221490471
 30
0.0
 10
2.2204208993
 20
-19.2245737697
 30
0.0
 10
2.2755651501
 20
-19.2503916337
 30
0.0
 10
2.3022266877
 20
-19.2859835973
 30
0.0
 10
2.3119914937
 20
-19.3172274434
 30
0.0
 10
2.3145811157
 20
-19.3453880696
 30
0.0
 10
2.3101382443
 20
-19.3774178917
 30
0.0
 10
2.2948227427
 20
-19.4100410418
 30
0.0
 10
2.2695502115
 20
-19.437536015
 30
0.0
 10
2.2328160442
 20
-19.4562564287
 30
0.0
 10
2.1848494676
 20
-19.4657965723
 30
0.0
 10
2.1490402977
 20
-19.4673576804
 30
0.0
 10
2.1289209224
 20
-19.4673576804
 30
0.0
  0
SPLINE
  5
5AF
100
AcDbEntity
  8
0
100
AcDbSpline
 62
7
  6
CONTINUOUS
 70
0
 71
3
 72
9
 73
5
 74
0
 42
0.0000001
 43
0.0000001
 44
0.0000000001
 40
0.0
 40
0.0
 40
0.0
 40
0.0
 40
0.3222232674
 40
1.0
 40
1.0
 40
1.0
 40
1.0
 10
2.0315273161
 20
-19.5538665133
 30
0.0
 10
2.0374266348
 20
-19.5538665133
 30
0.0
 10
2.0557041167
 20
-19.5541387677
 30
0.0
 10
2.0741591653
 20
-19.5548195671
 30
0.0
 10
2.0863067602
 20
-19.5573524615
 30
0.0
  0
SPLINE
  5
5B0
100
AcDbEntity
  8
0
100
AcDbSpline
 62
7
  6
CONTINUOUS
 70
0
 71
3
 72
12
 73
8
 74
0
 42
0.0000001
 43
0.0000001
 44
0.0000000001
 40
0.0
 40
0.0
 40
0.0
 40
0.0
 40
0.0974412774
 40
0.2003948476
 40
0.4882068918
 40
0.7085912992
 40
1.0
 40
1.0
 40
1.0
 40
1.0
 10
2.0863067602
 20
-19.5573524615
 30
0.0
 10
2.0940519883
 20
-19.5592103558
 30
0.0
 10
2.1096095047
 20
-19.5645669396
 30
0.0
 10
2.1451935617
 20
-19.5832332455
 30
0.0
 10
2.1787728822
 20
-19.6219235984
 30
0.0
 10
2.2164900928
 20
-19.6749393659
 30
0.0
 10
2.2394560967
 20
-19.7100130442
 30
0.0
 10
2.2522813864
 20
-19.7300855545
 30
0.0
  0
SPLINE
  5
5B1
100
AcDbEntity
  8
0
100
AcDbSpline
 62
7
  6
CONTINUOUS
 70
0
 71
3
 72
9
 73
5
 74
0
 42
0.0000001
 43
0.0000001
 44
0.0000000001
 40
0.0
 40
0.0
 40
0.0
 40
0.0
 40
0.2659540588
 40
1.0
 40
1.0
 40
1.0
 40
1.0
 10
2.34078216
 20
-19.681993434
 30
0.0
 10
2.3345712518
 20
-19.6726132145
 30
0.0
 10
2.3104817362
 20
-19.637849354
 30
0.0
 10
2.2832245098
 20
-19.6051808891
 30
0.0
 10
2.2611741497
 20
-19.5833193192
 30
0.0
  0
SPLINE
  5
5B2
100
AcDbEntity
  8
0
100
AcDbSpline
 62
7
  6
CONTINUOUS
 70
0
 71
3
 72
9
 73
5
 74
0
 42
0.0000001
 43
0.0000001
 44
0.0000000001
 40
0.0
 40
0.0
 40
0.0
 40
0.0
 40
0.209446698
 40
1.0
 40
1.0
 40
1.0
 40
1.0
 10
2.2611741497
 20
-19.5833193192
 30
0.0
 10
2.2577206937
 20
-19.5799540914
 30
0.0
 10
2.2402646346
 20
-19.5648790704
 30
0.0
 10
2.2201957012
 20
-19.5531551679
 30
0.0
 10
2.2040470489
 20
-19.5447603204
 30
0.0
  0
SPLINE
  5
5B3
100
AcDbEntity
  8
0
100
AcDbSpline
 62
7
  6
CONTINUOUS
 70
0
 71
3
 72
21
 73
17
 74
0
 42
0.0000001
 43
0.0000001
 44
0.0000000001
 40
0.0
 40
0.0
 40
0.0
 40
0.0
 40
0.1365200578
 40
0.2486517489
 40
0.3509700259
 40
0.4027637157
 40
0.4573654021
 40
0.5004782595
 40
0.5423967131
 40
0.5839060152
 40
0.6258144236
 40
0.705942642
 40
0.782907869
 40
0.8256733927
 40
0.8758071331
 40
1.0
 40
1.0
 40
1.0
 40
1.0
 10
2.2040470489
 20
-19.5447603204
 30
0.0
 10
2.2358686503
 20
-19.540341234
 30
0.0
 10
2.2938000909
 20
-19.5271404143
 30
0.0
 10
2.3647115287
 20
-19.4806079011
 30
0.0
 10
2.3988854375
 20
-19.425776215
 30
0.0
 10
2.4116852945
 20
-19.3781193181
 30
0.0
 10
2.4144204817
 20
-19.342851807
 30
0.0
 10
2.4124032419
 20
-19.3099768149
 30
0.0
 10
2.4065897316
 20
-19.280672979
 30
0.0
 10
2.3968091959
 20
-19.2527340216
 30
0.0
 10
2.3791678549
 20
-19.2184516215
 30
0.0
 10
2.3493272821
 20
-19.181262742
 30
0.0
 10
2.3080271214
 20
-19.1566599761
 30
0.0
 10
2.2695684645
 20
-19.1453875769
 30
0.0
 10
2.2191627656
 20
-19.136605779
 30
0.0
 10
2.1779956473
 20
-19.134981638
 30
0.0
 10
2.1487696023
 20
-19.134981638
 30
0.0
  0
SPLINE
  5
5B4
100
AcDbEntity
  8
0
100
AcDbSpline
 62
7
  6
CONTINUOUS
 70
0
 71
3
 72
9
 73
5
 74
0
 42
0.0000001
 43
0.0000001
 44
0.0000000001
 40
0.0
 40
0.0
 40
0.0
 40
0.0
 40
0.7097160398
 40
1.0
 40
1.0
 40
1.0
 40
1.0
 10
1.3732491947
 20
-19.212384278
 30
0.0
 10
1.3842988849
 20
-19.2502016156
 30
0.0
 10
1.4020762453
 20
-19.3028341228
 30
0.0
 10
1.4209109803
 20
-19.3550497443
 30
0.0
 10
1.426463488
 20
-19.3701775037
 30
0.0
  0
SPLINE
  5
5B5
100
AcDbEntity
  8
0
100
AcDbSpline
 62
7
  6
CONTINUOUS
 70
0
 71
3
 72
9
 73
5
 74
0
 42
0.0000001
 43
0.0000001
 44
0.0000000001
 40
0.0
 40
0.0
 40
0.0
 40
0.0
 40
0.3106214921
 40
1.0
 40
1.0
 40
1.0
 40
1.0
 10
0.6404852358
 20
-19.6565245788
 30
0.0
 10
0.6360989654
 20
-19.6689263684
 30
0.0
 10
0.6220592082
 20
-19.7088797297
 30
0.0
 10
0.6082082294
 20
-19.748906101
 30
0.0
 10
0.5992227947
 20
-19.7766836675
 30
0.0
  0
SPLINE
  5
5B6
100
AcDbEntity
  8
0
100
AcDbSpline
 62
7
  6
CONTINUOUS
 70
0
 71
3
 72
9
 73
5
 74
0
 42
0.0000001
 43
0.0000001
 44
0.0000000001
 40
0.0
 40
0.0
 40
0.0
 40
0.0
 40
0.1862683768
 40
1.0
 40
1.0
 40
1.0
 40
1.0
 10
0.5992227947
 20
-19.7766836675
 30
0.0
 10
0.5970949197
 20
-19.7697647475
 30
0.0
 10
0.5854421112
 20
-19.732690475
 30
0.0
 10
0.5732615501
 20
-19.6957848986
 30
0.0
 10
0.5632960255
 20
-19.6657730582
 30
0.0
  0
SPLINE
  5
5B7
100
AcDbEntity
  8
0
100
AcDbSpline
 62
7
  6
CONTINUOUS
 70
0
 71
3
 72
17
 73
13
 74
0
 42
0.0000001
 43
0.0000001
 44
0.0000000001
 40
0.0
 40
0.0
 40
0.0
 40
0.0
 40
0.2752721262
 40
0.3947823884
 40
0.4562356547
 40
0.5215301736
 40
0.5872068469
 40
0.6484042185
 40
0.7073568031
 40
0.7665538661
 40
0.881399665
 40
1.0
 40
1.0
 40
1.0
 40
1.0
 10
-0.5686464847
 20
-19.3398709792
 30
0.0
 10
-0.5630601727
 20
-19.303870344
 30
0.0
 10
-0.543029041
 20
-19.2493677268
 30
0.0
 10
-0.4896409013
 20
-19.2172279817
 30
0.0
 10
-0.4579444099
 20
-19.2090706353
 30
0.0
 10
-0.4324275542
 20
-19.2071941793
 30
0.0
 10
-0.4069573233
 20
-19.2090587192
 30
0.0
 10
-0.3830010253
 20
-19.2152642646
 30
0.0
 10
-0.3615452227
 20
-19.2258437505
 30
0.0
 10
-0.3372241403
 20
-19.2450532639
 30
0.0
 10
-0.3142309589
 20
-19.2777453817
 30
0.0
 10
-0.3091199859
 20
-19.3092346968
 30
0.0
 10
-0.3091199859
 20
-19.3249311119
 30
0.0
  0
SPLINE
  5
5B8
100
AcDbEntity
  8
0
100
AcDbSpline
 62
7
  6
CONTINUOUS
 70
0
 71
3
 72
9
 73
5
 74
0
 42
0.0000001
 43
0.0000001
 44
0.0000000001
 40
0.0
 40
0.0
 40
0.0
 40
0.0
 40
0.5205318383
 40
1.0
 40
1.0
 40
1.0
 40
1.0
 10
-0.3091199859
 20
-19.3249311119
 30
0.0
 10
-0.3091199859
 20
-19.3438613694
 30
0.0
 10
-0.3150670212
 20
-19.3814512198
 30
0.0
 10
-0.3410603025
 20
-19.409906641
 30
0.0
 10
-0.3556113493
 20
-19.4195145611
 30
0.0
  0
SPLINE
  5
5B9
100
AcDbEntity
  8
0
100
AcDbSpline
 62
7
  6
CONTINUOUS
 70
0
 71
3
 72
8
 73
4
 74
0
 42
0.0000001
 43
0.0000001
 44
0.0000000001
 40
0.0
 40
0.0
 40
0.0
 40
0.0
 40
1.0
 40
1.0
 40
1.0
 40
1.0
 10
-0.3556113493
 20
-19.4195145611
 30
0.0
 10
-0.3859385109
 20
-19.4395393021
 30
0.0
 10
-0.4238840109
 20
-19.4502123733
 30
0.0
 10
-0.4602258186
 20
-19.4502123733
 30
0.0
  0
SPLINE
  5
5BA
100
AcDbEntity
  8
0
100
AcDbSpline
 62
7
  6
CONTINUOUS
 70
0
 71
3
 72
8
 73
4
 74
0
 42
0.0000001
 43
0.0000001
 44
0.0000000001
 40
0.0
 40
0.0
 40
0.0
 40
0.0
 40
1.0
 40
1.0
 40
1.0
 40
1.0
 10
-0.4602258186
 20
-19.4502123733
 30
0.0
 10
-0.4652421153
 20
-19.4502123733
 30
0.0
 10
-0.4702521311
 20
-19.4497074501
 30
0.0
 10
-0.4752368291
 20
-19.4491452945
 30
0.0
  0
SPLINE
  5
5BB
100
AcDbEntity
  8
0
100
AcDbSpline
 62
7
  6
CONTINUOUS
 70
0
 71
3
 72
9
 73
5
 74
0
 42
0.0000001
 43
0.0000001
 44
0.0000000001
 40
0.0
 40
0.0
 40
0.0
 40
0.0
 40
0.290916541
 40
1.0
 40
1.0
 40
1.0
 40
1.0
 10
-0.4857658864
 20
-19.531101031
 30
0.0
 10
-0.4794094301
 20
-19.5294723299
 30
0.0
 10
-0.4574740914
 20
-19.5243238815
 30
0.0
 10
-0.4349571844
 20
-19.5208565465
 30
0.0
 10
-0.4189633774
 20
-19.5208565465
 30
0.0
  0
SPLINE
  5
5BC
100
AcDbEntity
  8
0
100
AcDbSpline
 62
7
  6
CONTINUOUS
 70
0
 71
3
 72
23
 73
19
 74
0
 42
0.0000001
 43
0.0000001
 44
0.0000000001
 40
0.0
 40
0.0
 40
0.0
 40
0.0
 40
0.1225555461
 40
0.180347263
 40
0.2387940891
 40
0.2968280752
 40
0.3534306039
 40
0.4111628802
 40
0.4724446224
 40
0.5368601794
 40
0.5980361804
 40
0.6584470833
 40
0.7206587082
 40
0.7831248813
 40
0.8444220211
 40
0.9072182083
 40
0.9740020992
 40
1.0
 40
1.0
 40
1.0
 40
1.0
 10
-0.4189633774
 20
-19.5208565465
 30
0.0
 10
-0.3987076843
 20
-19.5208565465
 30
0.0
 10
-0.36833875
 20
-19.5253875512
 30
0.0
 10
-0.3328231581
 20
-19.5431800875
 30
0.0
 10
-0.3101317654
 20
-19.5612317172
 30
0.0
 10
-0.2913881073
 20
-19.583094628
 30
0.0
 10
-0.2777643155
 20
-19.6083726653
 30
0.0
 10
-0.2697320291
 20
-19.636487854
 30
0.0
 10
-0.2672955619
 20
-19.6668615376
 30
0.0
 10
-0.2698479989
 20
-19.6978028796
 30
0.0
 10
-0.2783185565
 20
-19.7275811534
 30
0.0
 10
-0.2926749122
 20
-19.7546088798
 30
0.0
 10
-0.3123488656
 20
-19.778278801
 30
0.0
 10
-0.336163433
 20
-19.7980281553
 30
0.0
 10
-0.3637285976
 20
-19.8123712964
 30
0.0
 10
-0.3943488051
 20
-19.820815363
 30
0.0
 10
-0.4201075207
 20
-19.822853187
 30
0.0
 10
-0.4354688859
 20
-19.822354131
 30
0.0
 10
-0.4397606257
 20
-19.822061796
 30
0.0
  0
SPLINE
  5
5BD
100
AcDbEntity
  8
0
100
AcDbSpline
 62
7
  6
CONTINUOUS
 70
0
 71
3
 72
23
 73
19
 74
0
 42
0.0000001
 43
0.0000001
 44
0.0000000001
 40
0.0
 40
0.0
 40
0.0
 40
0.0
 40
0.1140768343
 40
0.1688769773
 40
0.2247765246
 40
0.2811038746
 40
0.3372732014
 40
0.3953991475
 40
0.4573964651
 40
0.5261419191
 40
0.590684867
 40
0.6533939764
 40
0.7168436279
 40
0.7793447925
 40
0.8391011298
 40
0.8987478439
 40
0.9609340766
 40
1.0
 40
1.0
 40
1.0
 40
1.0
 10
-0.6688146071
 20
-19.6904594074
 30
0.0
 10
-0.6659272746
 20
-19.719421553
 30
0.0
 10
-0.6548442949
 20
-19.7623639032
 30
0.0
 10
-0.6243326062
 20
-19.8113053393
 30
0.0
 10
-0.5950490857
 20
-19.8426177505
 30
0.0
 10
-0.5602851398
 20
-19.8683065042
 30
0.0
 10
-0.5205642749
 20
-19.8868145287
 30
0.0
 10
-0.476664681
 20
-19.8977335739
 30
0.0
 10
-0.4284110879
 20
-19.9011184706
 30
0.0
 10
-0.3785018991
 20
-19.8973400989
 30
0.0
 10
-0.3298467493
 20
-19.8845011688
 30
0.0
 10
-0.2859483112
 20
-19.862701559
 30
0.0
 10
-0.24795631
 20
-19.8326547868
 30
0.0
 10
-0.2165207081
 20
-19.7968257122
 30
0.0
 10
-0.1934809679
 20
-19.7561264004
 30
0.0
 10
-0.1798376988
 20
-19.7114715383
 30
0.0
 10
-0.1761991874
 20
-19.6703214195
 30
0.0
 10
-0.1776311627
 20
-19.6444604187
 30
0.0
 10
-0.178838921
 20
-19.6345617326
 30
0.0
  0
SPLINE
  5
5BE
100
AcDbEntity
  8
0
100
AcDbSpline
 62
7
  6
CONTINUOUS
 70
0
 71
3
 72
19
 73
15
 74
0
 42
0.0000001
 43
0.0000001
 44
0.0000000001
 40
0.0
 40
0.0
 40
0.0
 40
0.0
 40
0.1579388526
 40
0.3041480239
 40
0.4632899941
 40
0.5464113002
 40
0.6331562041
 40
0.6783708897
 40
0.7235534147
 40
0.7693826484
 40
0.8165095208
 40
0.8834982196
 40
0.9464411059
 40
1.0
 40
1.0
 40
1.0
 40
1.0
 10
-0.3213564109
 20
-19.4792383893
 30
0.0
 10
-0.2910552651
 20
-19.4652046141
 30
0.0
 10
-0.2363974311
 20
-19.4234920904
 30
0.0
 10
-0.2087371352
 20
-19.3234651009
 30
0.0
 10
-0.2329804773
 20
-19.2405221162
 30
0.0
 10
-0.2771472739
 20
-19.1857548161
 30
0.0
 10
-0.3153809102
 20
-19.159952989
 30
0.0
 10
-0.3496819384
 20
-19.1447852776
 30
0.0
 10
-0.3773360202
 20
-19.136449064
 30
0.0
 10
-0.4061889333
 20
-19.1314754298
 30
0.0
 10
-0.4400202057
 20
-19.1296997133
 30
0.0
 10
-0.4775172563
 20
-19.1323584753
 30
0.0
 10
-0.515418089
 20
-19.141557909
 30
0.0
 10
-0.5380689146
 20
-19.151559992
 30
0.0
 10
-0.548023485
 20
-19.1569904159
 30
0.0
  0
SPLINE
  5
5BF
100
AcDbEntity
  8
0
100
AcDbSpline
 62
7
  6
CONTINUOUS
 70
0
 71
3
 72
12
 73
8
 74
0
 42
0.0000001
 43
0.0000001
 44
0.0000000001
 40
0.0
 40
0.0
 40
0.0
 40
0.0
 40
0.2240836447
 40
0.4505791617
 40
0.5918779795
 40
0.7268035565
 40
1.0
 40
1.0
 40
1.0
 40
1.0
 10
-1.0721904693
 20
-19.2324463181
 30
0.0
 10
-1.0606330369
 20
-19.2244804493
 30
0.0
 10
-1.0348495992
 20
-19.2117292936
 30
0.0
 10
-0.9975562475
 20
-19.2065970068
 30
0.0
 10
-0.9660195319
 20
-19.2093487159
 30
0.0
 10
-0.9328361219
 20
-19.2193137227
 30
0.0
 10
-0.9113951551
 20
-19.2349163841
 30
0.0
 10
-0.8995996627
 20
-19.2473150422
 30
0.0
  0
SPLINE
  5
5C0
100
AcDbEntity
  8
0
100
AcDbSpline
 62
7
  6
CONTINUOUS
 70
0
 71
3
 72
9
 73
5
 74
0
 42
0.0000001
 43
0.0000001
 44
0.0000000001
 40
0.0
 40
0.0
 40
0.0
 40
0.0
 40
0.203826354
 40
1.0
 40
1.0
 40
1.0
 40
1.0
 10
-0.8995996627
 20
-19.2473150422
 30
0.0
 10
-0.8955984766
 20
-19.2516559446
 30
0.0
 10
-0.8783600411
 20
-19.2751670904
 30
0.0
 10
-0.8697185916
 20
-19.3037270358
 30
0.0
 10
-0.8645977553
 20
-19.3262116898
 30
0.0
  0
SPLINE
  5
5C1
100
AcDbEntity
  8
0
100
AcDbSpline
 62
7
  6
CONTINUOUS
 70
0
 71
3
 72
25
 73
21
 74
0
 42
0.0000001
 43
0.0000001
 44
0.0000000001
 40
0.0
 40
0.0
 40
0.0
 40
0.0
 40
0.0824117082
 40
0.1579683374
 40
0.195818311
 40
0.2340448548
 40
0.2740724314
 40
0.3171471945
 40
0.3746536355
 40
0.4282956832
 40
0.4808752389
 40
0.5353583731
 40
0.6034004564
 40
0.6807736571
 40
0.7702739682
 40
0.8201880633
 40
0.8737548886
 40
0.9215792753
 40
0.9660292398
 40
1.0
 40
1.0
 40
1.0
 40
1.0
 10
-0.7735358259
 20
-19.3171054968
 30
0.0
 10
-0.7769865057
 20
-19.2902643569
 30
0.0
 10
-0.7903905435
 20
-19.2389315333
 30
0.0
 10
-0.8304676934
 20
-19.1863251689
 30
0.0
 10
-0.8712024174
 20
-19.1572007798
 30
0.0
 10
-0.9062125317
 20
-19.1414827757
 30
0.0
 10
-0.9451928509
 20
-19.1322523863
 30
0.0
 10
-0.9914109734
 20
-19.1291814285
 30
0.0
 10
-1.0421908046
 20
-19.1336042283
 30
0.0
 10
-1.0939426106
 20
-19.1499184814
 30
0.0
 10
-1.1393676127
 20
-19.1777715435
 30
0.0
 10
-1.1804128563
 20
-19.2187539264
 30
0.0
 10
-1.2146264351
 20
-19.2755606048
 30
0.0
 10
-1.239153526
 20
-19.3491716859
 30
0.0
 10
-1.2506766136
 20
-19.4196518516
 30
0.0
 10
-1.2554072528
 20
-19.4828650116
 30
0.0
 10
-1.2565341392
 20
-19.5325584057
 30
0.0
 10
-1.2554927447
 20
-19.580458706
 30
0.0
 10
-1.252338441
 20
-19.6218062654
 30
0.0
 10
-1.2489365799
 20
-19.6473704042
 30
0.0
 10
-1.2471303207
 20
-19.6583888437
 30
0.0
  0
SPLINE
  5
5C2
100
AcDbEntity
  8
0
100
AcDbSpline
 62
7
  6
CONTINUOUS
 70
0
 71
3
 72
23
 73
19
 74
0
 42
0.0000001
 43
0.0000001
 44
0.0000000001
 40
0.0
 40
0.0
 40
0.0
 40
0.0
 40
0.1331451487
 40
0.1992940927
 40
0.2693363445
 40
0.3111561317
 40
0.3513672639
 40
0.4297702144
 40
0.5081491736
 40
0.590224637
 40
0.633035488
 40
0.6757022977
 40
0.7188299636
 40
0.7630044553
 40
0.8283595396
 40
0.8891962824
 40
0.9476965257
 40
1.0
 40
1.0
 40
1.0
 40
1.0
 10
-1.1833500451
 20
-19.8148158417
 30
0.0
 10
-1.1605834346
 20
-19.841419513
 30
0.0
 10
-1.1176624849
 20
-19.8753085976
 30
0.0
 10
-1.0495902449
 20
-19.8966710567
 30
0.0
 10
-1.0026294984
 20
-19.900937398
 30
0.0
 10
-0.9626171373
 20
-19.8986459155
 30
0.0
 10
-0.9210722508
 20
-19.8906545458
 30
0.0
 10
-0.8726637103
 20
-19.8701687085
 30
0.0
 10
-0.8235911278
 20
-19.8294990179
 30
0.0
 10
-0.7938619355
 20
-19.7842236633
 30
0.0
 10
-0.7764299376
 20
-19.743687225
 30
0.0
 10
-0.7668230882
 20
-19.7111677644
 30
0.0
 10
-0.7610896802
 20
-19.6773892631
 30
0.0
 10
-0.758999729
 20
-19.6372299527
 30
0.0
 10
-0.7622789486
 20
-19.5923378032
 30
0.0
 10
-0.7744016486
 20
-19.5450051127
 30
0.0
 10
-0.7942996022
 20
-19.5041083082
 30
0.0
 10
-0.8121475689
 20
-19.4808699602
 30
0.0
 10
-0.8214344048
 20
-19.4706855036
 30
0.0
  0
SPLINE
  5
5C3
100
AcDbEntity
  8
0
100
AcDbSpline
 62
7
  6
CONTINUOUS
 70
0
 71
3
 72
11
 73
7
 74
0
 42
0.0000001
 43
0.0000001
 44
0.0000000001
 40
0.0
 40
0.0
 40
0.0
 40
0.0
 40
0.3426107936
 40
0.6044566108
 40
0.8143265955
 40
1.0
 40
1.0
 40
1.0
 40
1.0
 10
-1.1651021224
 20
-19.4987313531
 30
0.0
 10
-1.1648073791
 20
-19.4654469143
 30
0.0
 10
-1.1618758874
 20
-19.4066156455
 30
0.0
 10
-1.1435263883
 20
-19.328903506
 30
0.0
 10
-1.1130235969
 20
-19.272083198
 30
0.0
 10
-1.086505758
 20
-19.2434221889
 30
0.0
 10
-1.0721904693
 20
-19.2324463181
 30
0.0
  0
SPLINE
  5
5C4
100
AcDbEntity
  8
0
100
AcDbSpline
 62
7
  6
CONTINUOUS
 70
0
 71
3
 72
13
 73
9
 74
0
 42
0.0000001
 43
0.0000001
 44
0.0000000001
 40
0.0
 40
0.0
 40
0.0
 40
0.0
 40
0.2418297111
 40
0.3587506684
 40
0.4819025475
 40
0.6099630364
 40
0.7339475358
 40
1.0
 40
1.0
 40
1.0
 40
1.0
 10
-1.6953243968
 20
-19.2616146206
 30
0.0
 10
-1.6830366081
 20
-19.2451729059
 30
0.0
 10
-1.6594652987
 20
-19.2236497679
 30
0.0
 10
-1.6205276441
 20
-19.209877232
 30
0.0
 10
-1.5891929424
 20
-19.2067089667
 30
0.0
 10
-1.5572347616
 20
-19.2101915677
 30
0.0
 10
-1.515767164
 20
-19.2262465135
 30
0.0
 10
-1.4910367173
 20
-19.250498806
 30
0.0
 10
-1.4778073429
 20
-19.2687999814
 30
0.0
  0
SPLINE
  5
5C5
100
AcDbEntity
  8
0
100
AcDbSpline
 62
7
  6
CONTINUOUS
 70
0
 71
3
 72
17
 73
13
 74
0
 42
0.0000001
 43
0.0000001
 44
0.0000000001
 40
0.0
 40
0.0
 40
0.0
 40
0.0
 40
0.0844580526
 40
0.1939587312
 40
0.3316668575
 40
0.4116386184
 40
0.4991820578
 40
0.5872976204
 40
0.6677250704
 40
0.8060064882
 40
0.915671004
 40
1.0
 40
1.0
 40
1.0
 40
1.0
 10
-1.4778073429
 20
-19.2687999814
 30
0.0
 10
-1.469440623
 20
-19.2803742859
 30
0.0
 10
-1.4555082068
 20
-19.310639675
 30
0.0
 10
-1.4426732931
 20
-19.3653609537
 30
0.0
 10
-1.4366771102
 20
-19.4204795593
 30
0.0
 10
-1.4341327494
 20
-19.4720307054
 30
0.0
 10
-1.4335255957
 20
-19.5152618818
 30
0.0
 10
-1.4341374158
 20
-19.5585703092
 30
0.0
 10
-1.4367124126
 20
-19.6103908152
 30
0.0
 10
-1.4427772893
 20
-19.6657084203
 30
0.0
 10
-1.4557621894
 20
-19.7205018982
 30
0.0
 10
-1.4698942875
 20
-19.7507078534
 30
0.0
 10
-1.4783764886
 20
-19.7621706595
 30
0.0
  0
SPLINE
  5
5C6
100
AcDbEntity
  8
0
100
AcDbSpline
 62
7
  6
CONTINUOUS
 70
0
 71
3
 72
13
 73
9
 74
0
 42
0.0000001
 43
0.0000001
 44
0.0000000001
 40
0.0
 40
0.0
 40
0.0
 40
0.0
 40
0.2591154171
 40
0.3783560512
 40
0.500277571
 40
0.6221918694
 40
0.7413669728
 40
1.0
 40
1.0
 40
1.0
 40
1.0
 10
-1.4783764886
 20
-19.7621706595
 30
0.0
 10
-1.491726618
 20
-19.7802119606
 30
0.0
 10
-1.5162040583
 20
-19.8041137331
 30
0.0
 10
-1.5569846443
 20
-19.8201191999
 30
0.0
 10
-1.5885397015
 20
-19.8237001109
 30
0.0
 10
-1.620087664
 20
-19.8201289739
 30
0.0
 10
-1.6608442168
 20
-19.804206884
 30
0.0
 10
-1.6853427745
 20
-19.7804009662
 30
0.0
 10
-1.6987036649
 20
-19.7624196607
 30
0.0
  0
SPLINE
  5
5C7
100
AcDbEntity
  8
0
100
AcDbSpline
 62
7
  6
CONTINUOUS
 70
0
 71
3
 72
9
 73
5
 74
0
 42
0.0000001
 43
0.0000001
 44
0.0000000001
 40
0.0
 40
0.0
 40
0.0
 40
0.0
 40
0.3855604367
 40
1.0
 40
1.0
 40
1.0
 40
1.0
 10
-1.6987036649
 20
-19.7624196607
 30
0.0
 10
-1.7181400582
 20
-19.7362618439
 30
0.0
 10
-1.7398745239
 20
-19.6506819738
 30
0.0
 10
-1.7433453741
 20
-19.5670989395
 30
0.0
 10
-1.7433453741
 20
-19.5151651586
 30
0.0
  0
SPLINE
  5
5C8
100
AcDbEntity
  8
0
100
AcDbSpline
 62
7
  6
CONTINUOUS
 70
0
 71
3
 72
9
 73
5
 74
0
 42
0.0000001
 43
0.0000001
 44
0.0000000001
 40
0.0
 40
0.0
 40
0.0
 40
0.0
 40
0.6001364234
 40
1.0
 40
1.0
 40
1.0
 40
1.0
 10
-1.7433453741
 20
-19.5151651586
 30
0.0
 10
-1.7433453741
 20
-19.4630656374
 30
0.0
 10
-1.7394366751
 20
-19.3767498615
 30
0.0
 10
-1.7152212698
 20
-19.2900597595
 30
0.0
 10
-1.6953243968
 20
-19.2616146206
 30
0.0
  0
SPLINE
  5
5C9
100
AcDbEntity
  8
0
100
AcDbSpline
 62
7
  6
CONTINUOUS
 70
0
 71
3
 72
12
 73
8
 74
0
 42
0.0000001
 43
0.0000001
 44
0.0000000001
 40
0.0
 40
0.0
 40
0.0
 40
0.0
 40
0.2240836447
 40
0.4505791617
 40
0.5918779795
 40
0.7268035565
 40
1.0
 40
1.0
 40
1.0
 40
1.0
 10
-2.2377831657
 20
-19.2324463181
 30
0.0
 10
-2.2262257334
 20
-19.2244804493
 30
0.0
 10
-2.2004422957
 20
-19.2117292936
 30
0.0
 10
-2.1631489439
 20
-19.2065970068
 30
0.0
 10
-2.1316122284
 20
-19.2093487159
 30
0.0
 10
-2.0984288183
 20
-19.2193137227
 30
0.0
 10
-2.0769878516
 20
-19.2349163841
 30
0.0
 10
-2.0651923592
 20
-19.2473150422
 30
0.0
  0
SPLINE
  5
5CA
100
AcDbEntity
  8
0
100
AcDbSpline
 62
7
  6
CONTINUOUS
 70
0
 71
3
 72
9
 73
5
 74
0
 42
0.0000001
 43
0.0000001
 44
0.0000000001
 40
0.0
 40
0.0
 40
0.0
 40
0.0
 40
0.203826354
 40
1.0
 40
1.0
 40
1.0
 40
1.0
 10
-2.0651923592
 20
-19.2473150422
 30
0.0
 10
-2.061191173
 20
-19.2516559446
 30
0.0
 10
-2.0439527376
 20
-19.2751670904
 30
0.0
 10
-2.0353112881
 20
-19.3037270358
 30
0.0
 10
-2.0301904518
 20
-19.3262116898
 30
0.0
  0
SPLINE
  5
5CB
100
AcDbEntity
  8
0
100
AcDbSpline
 62
7
  6
CONTINUOUS
 70
0
 71
3
 72
25
 73
21
 74
0
 42
0.0000001
 43
0.0000001
 44
0.0000000001
 40
0.0
 40
0.0
 40
0.0
 40
0.0
 40
0.0824117082
 40
0.1579683374
 40
0.195818311
 40
0.2340448548
 40
0.2740724314
 40
0.3171471945
 40
0.3746536355
 40
0.4282956832
 40
0.4808752389
 40
0.5353583731
 40
0.6034004564
 40
0.6807736571
 40
0.7702739682
 40
0.8201880633
 40
0.8737548886
 40
0.9215792753
 40
0.9660292398
 40
1.0
 40
1.0
 40
1.0
 40
1.0
 10
-1.9391285224
 20
-19.3171054968
 30
0.0
 10
-1.9425792022
 20
-19.2902643569
 30
0.0
 10
-1.95598324
 20
-19.2389315333
 30
0.0
 10
-1.9960603899
 20
-19.1863251689
 30
0.0
 10
-2.0367951139
 20
-19.1572007798
 30
0.0
 10
-2.0718052281
 20
-19.1414827757
 30
0.0
 10
-2.1107855474
 20
-19.1322523863
 30
0.0
 10
-2.1570036699
 20
-19.1291814285
 30
0.0
 10
-2.2077835011
 20
-19.1336042283
 30
0.0
 10
-2.259535307
 20
-19.1499184814
 30
0.0
 10
-2.3049603092
 20
-19.1777715435
 30
0.0
 10
-2.3460055528
 20
-19.2187539264
 30
0.0
 10
-2.3802191316
 20
-19.2755606048
 30
0.0
 10
-2.4047462224
 20
-19.3491716859
 30
0.0
 10
-2.4162693101
 20
-19.4196518516
 30
0.0
 10
-2.4209999493
 20
-19.4828650116
 30
0.0
 10
-2.4221268356
 20
-19.5325584057
 30
0.0
 10
-2.4210854412
 20
-19.580458706
 30
0.0
 10
-2.4179311375
 20
-19.6218062654
 30
0.0
 10
-2.4145292764
 20
-19.6473704042
 30
0.0
 10
-2.4127230172
 20
-19.6583888437
 30
0.0
  0
SPLINE
  5
5CC
100
AcDbEntity
  8
0
100
AcDbSpline
 62
7
  6
CONTINUOUS
 70
0
 71
3
 72
23
 73
19
 74
0
 42
0.0000001
 43
0.0000001
 44
0.0000000001
 40
0.0
 40
0.0
 40
0.0
 40
0.0
 40
0.1331451487
 40
0.1992940927
 40
0.2693363445
 40
0.3111561317
 40
0.3513672639
 40
0.4297702144
 40
0.5081491736
 40
0.590224637
 40
0.633035488
 40
0.6757022977
 40
0.7188299636
 40
0.7630044553
 40
0.8283595396
 40
0.8891962824
 40
0.9476965257
 40
1.0
 40
1.0
 40
1.0
 40
1.0
 10
-2.3489427416
 20
-19.8148158417
 30
0.0
 10
-2.3261761311
 20
-19.841419513
 30
0.0
 10
-2.2832551814
 20
-19.8753085976
 30
0.0
 10
-2.2151829413
 20
-19.8966710567
 30
0.0
 10
-2.1682221949
 20
-19.900937398
 30
0.0
 10
-2.1282098338
 20
-19.8986459155
 30
0.0
 10
-2.0866649473
 20
-19.8906545458
 30
0.0
 10
-2.0382564068
 20
-19.8701687085
 30
0.0
 10
-1.9891838243
 20
-19.8294990179
 30
0.0
 10
-1.9594546319
 20
-19.7842236633
 30
0.0
 10
-1.9420226341
 20
-19.743687225
 30
0.0
 10
-1.9324157847
 20
-19.7111677644
 30
0.0
 10
-1.9266823767
 20
-19.6773892631
 30
0.0
 10
-1.9245924255
 20
-19.6372299527
 30
0.0
 10
-1.927871645
 20
-19.5923378032
 30
0.0
 10
-1.9399943451
 20
-19.5450051127
 30
0.0
 10
-1.9598922987
 20
-19.5041083082
 30
0.0
 10
-1.9777402653
 20
-19.4808699602
 30
0.0
 10
-1.9870271013
 20
-19.4706855036
 30
0.0
  0
SPLINE
  5
5CD
100
AcDbEntity
  8
0
100
AcDbSpline
 62
7
  6
CONTINUOUS
 70
0
 71
3
 72
11
 73
7
 74
0
 42
0.0000001
 43
0.0000001
 44
0.0000000001
 40
0.0
 40
0.0
 40
0.0
 40
0.0
 40
0.3426107936
 40
0.6044566108
 40
0.8143265955
 40
1.0
 40
1.0
 40
1.0
 40
1.0
 10
-2.3306948188
 20
-19.4987313531
 30
0.0
 10
-2.3304000756
 20
-19.4654469143
 30
0.0
 10
-2.3274685839
 20
-19.4066156455
 30
0.0
 10
-2.3091190848
 20
-19.328903506
 30
0.0
 10
-2.2786162933
 20
-19.272083198
 30
0.0
 10
-2.2520984545
 20
-19.2434221889
 30
0.0
 10
-2.2377831657
 20
-19.2324463181
 30
0.0
  0
SPLINE
  5
5CE
100
AcDbEntity
  8
0
100
AcDbSpline
 62
7
  6
CONTINUOUS
 70
0
 71
3
 72
17
 73
13
 74
0
 42
0.0000001
 43
0.0000001
 44
0.0000000001
 40
0.0
 40
0.0
 40
0.0
 40
0.0
 40
0.2752721262
 40
0.3947823884
 40
0.4562356547
 40
0.5215301736
 40
0.5872068469
 40
0.6484042185
 40
0.7073568031
 40
0.7665538661
 40
0.881399665
 40
1.0
 40
1.0
 40
1.0
 40
1.0
 10
-2.8998318776
 20
-19.3398709792
 30
0.0
 10
-2.8942455657
 20
-19.303870344
 30
0.0
 10
-2.8742144339
 20
-19.2493677268
 30
0.0
 10
-2.8208262943
 20
-19.2172279817
 30
0.0
 10
-2.7891298028
 20
-19.2090706353
 30
0.0
 10
-2.7636129471
 20
-19.2071941793
 30
0.0
 10
-2.7381427162
 20
-19.2090587192
 30
0.0
 10
-2.7141864182
 20
-19.2152642646
 30
0.0
 10
-2.6927306156
 20
-19.2258437505
 30
0.0
 10
-2.6684095332
 20
-19.2450532639
 30
0.0
 10
-2.6454163518
 20
-19.2777453817
 30
0.0
 10
-2.6403053788
 20
-19.3092346968
 30
0.0
 10
-2.6403053788
 20
-19.3249311119
 30
0.0
  0
SPLINE
  5
5CF
100
AcDbEntity
  8
0
100
AcDbSpline
 62
7
  6
CONTINUOUS
 70
0
 71
3
 72
9
 73
5
 74
0
 42
0.0000001
 43
0.0000001
 44
0.0000000001
 40
0.0
 40
0.0
 40
0.0
 40
0.0
 40
0.5205318383
 40
1.0
 40
1.0
 40
1.0
 40
1.0
 10
-2.6403053788
 20
-19.3249311119
 30
0.0
 10
-2.6403053788
 20
-19.3438613694
 30
0.0
 10
-2.6462524142
 20
-19.3814512198
 30
0.0
 10
-2.6722456954
 20
-19.409906641
 30
0.0
 10
-2.6867967422
 20
-19.4195145611
 30
0.0
  0
SPLINE
  5
5D0
100
AcDbEntity
  8
0
100
AcDbSpline
 62
7
  6
CONTINUOUS
 70
0
 71
3
 72
8
 73
4
 74
0
 42
0.0000001
 43
0.0000001
 44
0.0000000001
 40
0.0
 40
0.0
 40
0.0
 40
0.0
 40
1.0
 40
1.0
 40
1.0
 40
1.0
 10
-2.6867967422
 20
-19.4195145611
 30
0.0
 10
-2.7171239038
 20
-19.4395393021
 30
0.0
 10
-2.7550694038
 20
-19.4502123733
 30
0.0
 10
-2.7914112115
 20
-19.4502123733
 30
0.0
  0
SPLINE
  5
5D1
100
AcDbEntity
  8
0
100
AcDbSpline
 62
7
  6
CONTINUOUS
 70
0
 71
3
 72
8
 73
4
 74
0
 42
0.0000001
 43
0.0000001
 44
0.0000000001
 40
0.0
 40
0.0
 40
0.0
 40
0.0
 40
1.0
 40
1.0
 40
1.0
 40
1.0
 10
-2.7914112115
 20
-19.4502123733
 30
0.0
 10
-2.7964275082
 20
-19.4502123733
 30
0.0
 10
-2.8014375241
 20
-19.4497074501
 30
0.0
 10
-2.806422222
 20
-19.4491452945
 30
0.0
  0
SPLINE
  5
5D2
100
AcDbEntity
  8
0
100
AcDbSpline
 62
7
  6
CONTINUOUS
 70
0
 71
3
 72
9
 73
5
 74
0
 42
0.0000001
 43
0.0000001
 44
0.0000000001
 40
0.0
 40
0.0
 40
0.0
 40
0.0
 40
0.290916541
 40
1.0
 40
1.0
 40
1.0
 40
1.0
 10
-2.8169512793
 20
-19.531101031
 30
0.0
 10
-2.8105948231
 20
-19.5294723299
 30
0.0
 10
-2.7886594843
 20
-19.5243238815
 30
0.0
 10
-2.7661425774
 20
-19.5208565465
 30
0.0
 10
-2.7501487704
 20
-19.5208565465
 30
0.0
  0
SPLINE
  5
5D3
100
AcDbEntity
  8
0
100
AcDbSpline
 62
7
  6
CONTINUOUS
 70
0
 71
3
 72
23
 73
19
 74
0
 42
0.0000001
 43
0.0000001
 44
0.0000000001
 40
0.0
 40
0.0
 40
0.0
 40
0.0
 40
0.1225555461
 40
0.180347263
 40
0.2387940891
 40
0.2968280752
 40
0.3534306039
 40
0.4111628802
 40
0.4724446224
 40
0.5368601794
 40
0.5980361804
 40
0.6584470833
 40
0.7206587082
 40
0.7831248813
 40
0.8444220211
 40
0.9072182083
 40
0.9740020992
 40
1.0
 40
1.0
 40
1.0
 40
1.0
 10
-2.7501487704
 20
-19.5208565465
 30
0.0
 10
-2.7298930773
 20
-19.5208565465
 30
0.0
 10
-2.6995241429
 20
-19.5253875512
 30
0.0
 10
-2.6640085511
 20
-19.5431800875
 30
0.0
 10
-2.6413171583
 20
-19.5612317172
 30
0.0
 10
-2.6225735003
 20
-19.583094628
 30
0.0
 10
-2.6089497085
 20
-19.6083726653
 30
0.0
 10
-2.600917422
 20
-19.636487854
 30
0.0
 10
-2.5984809548
 20
-19.6668615376
 30
0.0
 10
-2.6010333918
 20
-19.6978028796
 30
0.0
 10
-2.6095039494
 20
-19.7275811534
 30
0.0
 10
-2.6238603052
 20
-19.7546088798
 30
0.0
 10
-2.6435342586
 20
-19.778278801
 30
0.0
 10
-2.6673488259
 20
-19.7980281553
 30
0.0
 10
-2.6949139906
 20
-19.8123712964
 30
0.0
 10
-2.725534198
 20
-19.820815363
 30
0.0
 10
-2.7512929136
 20
-19.822853187
 30
0.0
 10
-2.7666542788
 20
-19.822354131
 30
0.0
 10
-2.7709460187
 20
-19.822061796
 30
0.0
  0
SPLINE
  5
5D4
100
AcDbEntity
  8
0
100
AcDbSpline
 62
7
  6
CONTINUOUS
 70
0
 71
3
 72
23
 73
19
 74
0
 42
0.0000001
 43
0.0000001
 44
0.0000000001
 40
0.0
 40
0.0
 40
0.0
 40
0.0
 40
0.1140768343
 40
0.1688769773
 40
0.2247765246
 40
0.2811038746
 40
0.3372732014
 40
0.3953991475
 40
0.4573964651
 40
0.5261419191
 40
0.590684867
 40
0.6533939764
 40
0.7168436279
 40
0.7793447925
 40
0.8391011298
 40
0.8987478439
 40
0.9609340766
 40
1.0
 40
1.0
 40
1.0
 40
1.0
 10
-3.0
 20
-19.6904594074
 30
0.0
 10
-2.9971126675
 20
-19.719421553
 30
0.0
 10
-2.9860296878
 20
-19.7623639032
 30
0.0
 10
-2.9555179992
 20
-19.8113053393
 30
0.0
 10
-2.9262344786
 20
-19.8426177505
 30
0.0
 10
-2.8914705327
 20
-19.8683065042
 30
0.0
 10
-2.8517496678
 20
-19.8868145287
 30
0.0
 10
-2.8078500739
 20
-19.8977335739
 30
0.0
 10
-2.7595964808
 20
-19.9011184706
 30
0.0
 10
-2.709687292
 20
-19.8973400989
 30
0.0
 10
-2.6610321423
 20
-19.8845011688
 30
0.0
 10
-2.6171337042
 20
-19.862701559
 30
0.0
 10
-2.5791417029
 20
-19.8326547868
 30
0.0
 10
-2.5477061011
 20
-19.7968257122
 30
0.0
 10
-2.5246663609
 20
-19.7561264004
 30
0.0
 10
-2.5110230917
 20
-19.7114715383
 30
0.0
 10
-2.5073845804
 20
-19.6703214195
 30
0.0
 10
-2.5088165556
 20
-19.6444604187
 30
0.0
 10
-2.5100243139
 20
-19.6345617326
 30
0.0
  0
SPLINE
  5
5D5
100
AcDbEntity
  8
0
100
AcDbSpline
 62
7
  6
CONTINUOUS
 70
0
 71
3
 72
19
 73
15
 74
0
 42
0.0000001
 43
0.0000001
 44
0.0000000001
 40
0.0
 40
0.0
 40
0.0
 40
0.0
 40
0.1579388526
 40
0.3041480239
 40
0.4632899941
 40
0.5464113002
 40
0.6331562041
 40
0.6783708897
 40
0.7235534147
 40
0.7693826484
 40
0.8165095208
 40
0.8834982196
 40
0.9464411059
 40
1.0
 40
1.0
 40
1.0
 40
1.0
 10
-2.6525418039
 20
-19.4792383893
 30
0.0
 10
-2.622240658
 20
-19.4652046141
 30
0.0
 10
-2.567582824
 20
-19.4234920904
 30
0.0
 10
-2.5399225281
 20
-19.3234651009
 30
0.0
 10
-2.5641658702
 20
-19.2405221162
 30
0.0
 10
-2.6083326668
 20
-19.1857548161
 30
0.0
 10
-2.6465663031
 20
-19.159952989
 30
0.0
 10
-2.6808673314
 20
-19.1447852776
 30
0.0
 10
-2.7085214131
 20
-19.136449064
 30
0.0
 10
-2.7373743262
 20
-19.1314754298
 30
0.0
 10
-2.7712055986
 20
-19.1296997133
 30
0.0
 10
-2.8087026492
 20
-19.1323584753
 30
0.0
 10
-2.8466034819
 20
-19.141557909
 30
0.0
 10
-2.8692543076
 20
-19.151559992
 30
0.0
 10
-2.879208878
 20
-19.1569904159
 30
0.0
  0
SPLINE
  5
5D6
100
AcDbEntity
  8
0
100
AcDbSpline
 62
7
  6
CONTINUOUS
 70
0
 71
3
 72
11
 73
7
 74
0
 42
0.0000001
 43
0.0000001
 44
0.0000000001
 40
0.0
 40
0.0
 40
0.0
 40
0.0
 40
0.2023283395
 40
0.445343536
 40
0.7157738534
 40
1.0
 40
1.0
 40
1.0
 40
1.0
 10
5.3981864052
 20
-18.0348834831
 30
0.0
 10
5.38936837
 20
-18.0526230179
 30
0.0
 10
5.3643114041
 20
-18.0888450836
 30
0.0
 10
5.3146805563
 20
-18.1386212496
 30
0.0
 10
5.252251165
 20
-18.1860121061
 30
0.0
 10
5.2043574277
 20
-18.2120671816
 30
0.0
 10
5.1791397721
 20
-18.2238369519
 30
0.0
  0
SPLINE
  5
5D7
100
AcDbEntity
  8
0
100
AcDbSpline
 62
7
  6
CONTINUOUS
 70
0
 71
3
 72
9
 73
5
 74
0
 42
0.0000001
 43
0.0000001
 44
0.0000000001
 40
0.0
 40
0.0
 40
0.0
 40
0.0
 40
0.2212493112
 40
1.0
 40
1.0
 40
1.0
 40
1.0
 10
5.1791397721
 20
-18.3131914441
 30
0.0
 10
5.1867115102
 20
-18.3104200975
 30
0.0
 10
5.2205421223
 20
-18.2968209234
 30
0.0
 10
5.2528580546
 20
-18.2796935896
 30
0.0
 10
5.2773870971
 20
-18.2654195375
 30
0.0
  0
SPLINE
  5
5D8
100
AcDbEntity
  8
0
100
AcDbSpline
 62
7
  6
CONTINUOUS
 70
0
 71
3
 72
9
 73
5
 74
0
 42
0.0000001
 43
0.0000001
 44
0.0000000001
 40
0.0
 40
0.0
 40
0.0
 40
0.0
 40
0.2798369702
 40
1.0
 40
1.0
 40
1.0
 40
1.0
 10
5.2773870971
 20
-18.2654195375
 30
0.0
 10
5.2861802452
 20
-18.2603025887
 30
0.0
 10
5.317204944
 20
-18.2413897692
 30
0.0
 10
5.3467687737
 20
-18.2197458667
 30
0.0
 10
5.3658167274
 20
-18.2017829017
 30
0.0
  0
SPLINE
  5
5D9
100
AcDbEntity
  8
0
100
AcDbSpline
 62
7
  6
CONTINUOUS
 70
0
 71
3
 72
9
 73
5
 74
0
 42
0.0000001
 43
0.0000001
 44
0.0000000001
 40
0.0
 40
0.0
 40
0.0
 40
0.0
 40
0.7097160398
 40
1.0
 40
1.0
 40
1.0
 40
1.0
 10
4.4164961481
 20
-18.1168392196
 30
0.0
 10
4.4275458382
 20
-18.1546565571
 30
0.0
 10
4.4453231986
 20
-18.2072890644
 30
0.0
 10
4.4641579336
 20
-18.2595046858
 30
0.0
 10
4.4697104413
 20
-18.2746324452
 30
0.0
  0
SPLINE
  5
5DA
100
AcDbEntity
  8
0
100
AcDbSpline
 62
7
  6
CONTINUOUS
 70
0
 71
3
 72
9
 73
5
 74
0
 42
0.0000001
 43
0.0000001
 44
0.0000000001
 40
0.0
 40
0.0
 40
0.0
 40
0.0
 40
0.2319301259
 40
1.0
 40
1.0
 40
1.0
 40
1.0
 10
3.9199240599
 20
-18.1259454125
 30
0.0
 10
3.9135597829
 20
-18.1326139018
 30
0.0
 10
3.8865018816
 20
-18.1617311116
 30
0.0
 10
3.8608574117
 20
-18.192141554
 30
0.0
 10
3.8417388445
 20
-18.2159401936
 30
0.0
  0
LINE
  5
5DB
100
AcDbEntity
  8
0
100
AcDbLine
 62
7
  6
CONTINUOUS
 10
3.5715410714
 20
-18.7041886643
 11
4.036312558
 21
-18.1259454125
  0
SPLINE
  5
5DC
100
AcDbEntity
  8
0
100
AcDbSpline
 62
7
  6
CONTINUOUS
 70
0
 71
3
 72
18
 73
14
 74
0
 42
0.0000001
 43
0.0000001
 44
0.0000000001
 40
0.0
 40
0.0
 40
0.0
 40
0.0
 40
0.1159164268
 40
0.217229043
 40
0.2661318292
 40
0.3148796945
 40
0.3650966775
 40
0.4182723816
 40
0.5929571957
 40
0.6821159461
 40
0.7765883123
 40
0.8819922264
 40
1.0
 40
1.0
 40
1.0
 40
1.0
 10
1.8462731557
 20
-18.5270446917
 30
0.0
 10
1.8400281109
 20
-18.5557849265
 30
0.0
 10
1.8225421144
 20
-18.6090264159
 30
0.0
 10
1.7793401662
 20
-18.6631802823
 30
0.0
 10
1.7373937697
 20
-18.6917599283
 30
0.0
 10
1.7029050565
 20
-18.7070465924
 30
0.0
 10
1.6651294317
 20
-18.7159968635
 30
0.0
 10
1.5946829717
 20
-18.721175682
 30
0.0
 10
1.5121108786
 20
-18.6998784069
 30
0.0
 10
1.4415362715
 20
-18.6399570685
 30
0.0
 10
1.4058849949
 20
-18.5743419828
 30
0.0
 10
1.3858222233
 20
-18.4957403963
 30
0.0
 10
1.3818573157
 20
-18.4388902945
 30
0.0
 10
1.3818573157
 20
-18.4089487564
 30
0.0
  0
SPLINE
  5
5DD
100
AcDbEntity
  8
0
100
AcDbSpline
 62
7
  6
CONTINUOUS
 70
0
 71
3
 72
15
 73
11
 74
0
 42
0.0000001
 43
0.0000001
 44
0.0000000001
 40
0.0
 40
0.0
 40
0.0
 40
0.0
 40
0.1678404711
 40
0.2512879759
 40
0.33511008
 40
0.4172449098
 40
0.4965963632
 40
0.6544390062
 40
0.8184759151
 40
1.0
 40
1.0
 40
1.0
 40
1.0
 10
1.3818573157
 20
-18.4089487564
 30
0.0
 10
1.3818573157
 20
-18.3845051166
 30
0.0
 10
1.3847098144
 20
-18.3478048118
 30
0.0
 10
1.3945616329
 20
-18.2999711873
 30
0.0
 10
1.4044844349
 20
-18.2649903375
 30
0.0
 10
1.4179547314
 20
-18.2317626496
 30
0.0
 10
1.4422957909
 20
-18.1919341907
 30
0.0
 10
1.4844977493
 20
-18.1499034032
 30
0.0
 10
1.5519778281
 20
-18.1178130269
 30
0.0
 10
1.6028532073
 20
-18.1122861231
 30
0.0
 10
1.6292896759
 20
-18.1122861231
 30
0.0
  0
SPLINE
  5
5DE
100
AcDbEntity
  8
0
100
AcDbSpline
 62
7
  6
CONTINUOUS
 70
0
 71
3
 72
9
 73
5
 74
0
 42
0.0000001
 43
0.0000001
 44
0.0000000001
 40
0.0
 40
0.0
 40
0.0
 40
0.0
 40
0.4786249203
 40
1.0
 40
1.0
 40
1.0
 40
1.0
 10
1.6292896759
 20
-18.1122861231
 30
0.0
 10
1.6723780716
 20
-18.1122861231
 30
0.0
 10
1.7690264777
 20
-18.1358273791
 30
0.0
 10
1.8139321675
 20
-18.2240386977
 30
0.0
 10
1.8280607698
 20
-18.2687987708
 30
0.0
  0
SPLINE
  5
5DF
100
AcDbEntity
  8
0
100
AcDbSpline
 62
7
  6
CONTINUOUS
 70
0
 71
3
 72
26
 73
22
 74
0
 42
0.0000001
 43
0.0000001
 44
0.0000000001
 40
0.0
 40
0.0
 40
0.0
 40
0.0
 40
0.0892141085
 40
0.1724369938
 40
0.2141881671
 40
0.2565529777
 40
0.3007890667
 40
0.3480047804
 40
0.3904332458
 40
0.4316625789
 40
0.4723533261
 40
0.5131921759
 40
0.5936811218
 40
0.6761169367
 40
0.7196344606
 40
0.7646491762
 40
0.811853608
 40
0.8618493694
 40
0.9084233662
 40
0.9538983076
 40
1.0
 40
1.0
 40
1.0
 40
1.0
 10
1.9282288921
 20
-18.2457487156
 30
0.0
 10
1.9188705284
 20
-18.213149646
 30
0.0
 10
1.8927421959
 20
-18.1517344379
 30
0.0
 10
1.8361715198
 20
-18.0907154719
 30
0.0
 10
1.7819766681
 20
-18.0568503898
 30
0.0
 10
1.7364209896
 20
-18.038659703
 30
0.0
 10
1.6864739225
 20
-18.0279363722
 30
0.0
 10
1.635516435
 20
-18.0247672262
 30
0.0
 10
1.5857358625
 20
-18.0275811871
 30
0.0
 10
1.5391031501
 20
-18.0361003793
 30
0.0
 10
1.4945540774
 20
-18.0504560895
 30
0.0
 10
1.4386738492
 20
-18.0766601641
 30
0.0
 10
1.3759263283
 20
-18.1242871783
 30
0.0
 10
1.3309384117
 20
-18.1901140785
 30
0.0
 10
1.3055046693
 20
-18.2500596008
 30
0.0
 10
1.2916114419
 20
-18.2999104736
 30
0.0
 10
1.2833881364
 20
-18.3534582021
 30
0.0
 10
1.2808500367
 20
-18.408145406
 30
0.0
 10
1.2832791037
 20
-18.4621737821
 30
0.0
 10
1.2907819825
 20
-18.5142147689
 30
0.0
 10
1.2993377878
 20
-18.548108866
 30
0.0
 10
1.3045292597
 20
-18.5648905342
 30
0.0
  0
SPLINE
  5
5E0
100
AcDbEntity
  8
0
100
AcDbSpline
 62
7
  6
CONTINUOUS
 70
0
 71
3
 72
11
 73
7
 74
0
 42
0.0000001
 43
0.0000001
 44
0.0000000001
 40
0.0
 40
0.0
 40
0.0
 40
0.0
 40
0.2450314628
 40
0.4753357612
 40
0.7174932177
 40
1.0
 40
1.0
 40
1.0
 40
1.0
 10
1.3214576616
 20
-18.6112770112
 30
0.0
 10
1.333955081
 20
-18.6408102488
 30
0.0
 10
1.3652792666
 20
-18.6956174491
 30
0.0
 10
1.4357011732
 20
-18.7603572185
 30
0.0
 10
1.5289406703
 20
-18.7983407988
 30
0.0
 10
1.5981501063
 20
-18.8043567866
 30
0.0
 10
1.6351233503
 20
-18.8043567866
 30
0.0
  0
SPLINE
  5
5E1
100
AcDbEntity
  8
0
100
AcDbSpline
 62
7
  6
CONTINUOUS
 70
0
 71
3
 72
11
 73
7
 74
0
 42
0.0000001
 43
0.0000001
 44
0.0000000001
 40
0.0
 40
0.0
 40
0.0
 40
0.0
 40
0.2525992429
 40
0.4888102636
 40
0.730558892
 40
1.0
 40
1.0
 40
1.0
 40
1.0
 10
1.6351233503
 20
-18.8043567866
 30
0.0
 10
1.6716593239
 20
-18.8043567866
 30
0.0
 10
1.7431818319
 20
-18.7951065414
 30
0.0
 10
1.8386333632
 20
-18.7444054453
 30
0.0
 10
1.9103493365
 20
-18.6603310649
 30
0.0
 10
1.936829938
 20
-18.5899261085
 30
0.0
 10
1.946441278
 20
-18.5521579003
 30
0.0
  0
SPLINE
  5
5E2
100
AcDbEntity
  8
0
100
AcDbSpline
 62
7
  6
CONTINUOUS
 70
0
 71
3
 72
9
 73
5
 74
0
 42
0.0000001
 43
0.0000001
 44
0.0000000001
 40
0.0
 40
0.0
 40
0.0
 40
0.0
 40
0.2354134851
 40
1.0
 40
1.0
 40
1.0
 40
1.0
 10
0.5964482092
 20
-18.7064651778
 30
0.0
 10
0.593749052
 20
-18.6967216088
 30
0.0
 10
0.5818168789
 20
-18.6554618574
 30
0.0
 10
0.5681628913
 20
-18.6147107351
 30
0.0
 10
0.5570354918
 20
-18.5838161459
 30
0.0
  0
SPLINE
  5
5E3
100
AcDbEntity
  8
0
100
AcDbSpline
 62
7
  6
CONTINUOUS
 70
0
 71
3
 72
9
 73
5
 74
0
 42
0.0000001
 43
0.0000001
 44
0.0000000001
 40
0.0
 40
0.0
 40
0.0
 40
0.0
 40
0.7097160398
 40
1.0
 40
1.0
 40
1.0
 40
1.0
 10
-1.6846531225
 20
-18.1168392196
 30
0.0
 10
-1.6736034323
 20
-18.1546565571
 30
0.0
 10
-1.6558260719
 20
-18.2072890644
 30
0.0
 10
-1.6369913369
 20
-18.2595046858
 30
0.0
 10
-1.6314388292
 20
-18.2746324452
 30
0.0
  0
SPLINE
  5
5E4
100
AcDbEntity
  8
0
100
AcDbSpline
 62
7
  6
CONTINUOUS
 70
0
 71
3
 72
9
 73
5
 74
0
 42
0.0000001
 43
0.0000001
 44
0.0000000001
 40
0.0
 40
0.0
 40
0.0
 40
0.0
 40
0.2354134851
 40
1.0
 40
1.0
 40
1.0
 40
1.0
 10
-2.6590157672
 20
-18.7064651778
 30
0.0
 10
-2.6617149245
 20
-18.6967216088
 30
0.0
 10
-2.6736470976
 20
-18.6554618574
 30
0.0
 10
-2.6873010852
 20
-18.6147107351
 30
0.0
 10
-2.6984284847
 20
-18.5838161459
 30
0.0
  0
SPLINE
  5
5E5
100
AcDbEntity
  8
0
100
AcDbSpline
 62
7
  6
CONTINUOUS
 70
0
 71
3
 72
9
 73
5
 74
0
 42
0.0000001
 43
0.0000001
 44
0.0000000001
 40
0.0
 40
0.0
 40
0.0
 40
0.0
 40
0.7097160398
 40
1.0
 40
1.0
 40
1.0
 40
1.0
 10
2.3266248681
 20
-17.0167410646
 30
0.0
 10
2.3376745582
 20
-17.0545584022
 30
0.0
 10
2.3554519187
 20
-17.1071909094
 30
0.0
 10
2.3742866536
 20
-17.1594065309
 30
0.0
 10
2.3798391613
 20
-17.1745342903
 30
0.0
  0
SPLINE
  5
5E6
100
AcDbEntity
  8
0
100
AcDbSpline
 62
7
  6
CONTINUOUS
 70
0
 71
3
 72
16
 73
12
 74
0
 42
0.0000001
 43
0.0000001
 44
0.0000000001
 40
0.0
 40
0.0
 40
0.0
 40
0.0
 40
0.1817932221
 40
0.2741774579
 40
0.3715723252
 40
0.4293106645
 40
0.4852515918
 40
0.5943674147
 40
0.6975878083
 40
0.7935522041
 40
1.0
 40
1.0
 40
1.0
 40
1.0
 10
1.8781804026
 20
-17.3152534216
 30
0.0
 10
1.8972330131
 20
-17.2940812984
 30
0.0
 10
1.9204375549
 20
-17.2563012429
 30
0.0
 10
1.9350596529
 20
-17.1996901215
 30
0.0
 10
1.938060295
 20
-17.1608221837
 30
0.0
 10
1.9364561786
 20
-17.1277446099
 30
0.0
 10
1.9309707938
 20
-17.0931994535
 30
0.0
 10
1.9171238274
 20
-17.0531150751
 30
0.0
 10
1.8915785403
 20
-17.0115859632
 30
0.0
 10
1.844749311
 20
-16.9674393028
 30
0.0
 10
1.7975653456
 20
-16.9518246008
 30
0.0
 10
1.7656691403
 20
-16.9464526075
 30
0.0
  0
SPLINE
  5
5E7
100
AcDbEntity
  8
0
100
AcDbSpline
 62
7
  6
CONTINUOUS
 70
0
 71
3
 72
9
 73
5
 74
0
 42
0.0000001
 43
0.0000001
 44
0.0000000001
 40
0.0
 40
0.0
 40
0.0
 40
0.0
 40
0.1935112737
 40
1.0
 40
1.0
 40
1.0
 40
1.0
 10
1.7656691403
 20
-16.9464526075
 30
0.0
 10
1.7585687207
 20
-16.9451425713
 30
0.0
 10
1.7215698657
 20
-16.9400643134
 30
0.0
 10
1.6841387393
 20
-16.9393384246
 30
0.0
 10
1.6540471683
 20
-16.9393384246
 30
0.0
  0
SPLINE
  5
5E8
100
AcDbEntity
  8
0
100
AcDbSpline
 62
7
  6
CONTINUOUS
 70
0
 71
3
 72
9
 73
5
 74
0
 42
0.0000001
 43
0.0000001
 44
0.0000000001
 40
0.0
 40
0.0
 40
0.0
 40
0.0
 40
0.3152731366
 40
1.0
 40
1.0
 40
1.0
 40
1.0
 10
1.6644338697
 20
-17.3809887823
 30
0.0
 10
1.6882503103
 20
-17.3809887823
 30
0.0
 10
1.7625414264
 20
-17.3777546808
 30
0.0
 10
1.8435799717
 20
-17.3537029865
 30
0.0
 10
1.8781804026
 20
-17.3152534216
 30
0.0
  0
SPLINE
  5
5E9
100
AcDbEntity
  8
0
100
AcDbSpline
 62
7
  6
CONTINUOUS
 70
0
 71
3
 72
9
 73
5
 74
0
 42
0.0000001
 43
0.0000001
 44
0.0000000001
 40
0.0
 40
0.0
 40
0.0
 40
0.0
 40
0.8336714283
 40
1.0
 40
1.0
 40
1.0
 40
1.0
 10
1.6635090774
 20
-17.0258472576
 30
0.0
 10
1.6885647073
 20
-17.0258472576
 30
0.0
 10
1.718787373
 20
-17.0259812418
 30
0.0
 10
1.7484712429
 20
-17.0312061337
 30
0.0
 10
1.7532904289
 20
-17.0325345811
 30
0.0
  0
SPLINE
  5
5EA
100
AcDbEntity
  8
0
100
AcDbSpline
 62
7
  6
CONTINUOUS
 70
0
 71
3
 72
17
 73
13
 74
0
 42
0.0000001
 43
0.0000001
 44
0.0000000001
 40
0.0
 40
0.0
 40
0.0
 40
0.0
 40
0.09176738
 40
0.1854935455
 40
0.2845714694
 40
0.3366875922
 40
0.3919669409
 40
0.4667558016
 40
0.5348276636
 40
0.6616161808
 40
0.8052527647
 40
1.0
 40
1.0
 40
1.0
 40
1.0
 10
1.7532904289
 20
-17.0325345811
 30
0.0
 10
1.7654134994
 20
-17.0359885188
 30
0.0
 10
1.7890188359
 20
-17.0472165736
 30
0.0
 10
1.8162769585
 20
-17.0762775732
 30
0.0
 10
1.8306902585
 20
-17.107337313
 30
0.0
 10
1.8362951904
 20
-17.1352369442
 30
0.0
 10
1.8377454994
 20
-17.1602766578
 30
0.0
 10
1.8357534535
 20
-17.1875704472
 30
0.0
 10
1.8263694288
 20
-17.2235371594
 30
0.0
 10
1.7997047125
 20
-17.2642914643
 30
0.0
 10
1.7390828045
 20
-17.2915448934
 30
0.0
 10
1.6922521954
 20
-17.2944799493
 30
0.0
 10
1.665501018
 20
-17.2944799493
 30
0.0
  0
SPLINE
  5
5EB
100
AcDbEntity
  8
0
100
AcDbSpline
 62
7
  6
CONTINUOUS
 70
0
 71
3
 72
9
 73
5
 74
0
 42
0.0000001
 43
0.0000001
 44
0.0000000001
 40
0.0
 40
0.0
 40
0.0
 40
0.0
 40
0.6350560901
 40
1.0
 40
1.0
 40
1.0
 40
1.0
 10
0.9460050608
 20
-17.2472415474
 30
0.0
 10
0.9137954624
 20
-17.2396822491
 30
0.0
 10
0.8642679349
 20
-17.2260717511
 30
0.0
 10
0.8140080059
 20
-17.2062425171
 30
0.0
 10
0.8001992589
 20
-17.1931735355
 30
0.0
  0
SPLINE
  5
5EC
100
AcDbEntity
  8
0
100
AcDbSpline
 62
7
  6
CONTINUOUS
 70
0
 71
3
 72
16
 73
12
 74
0
 42
0.0000001
 43
0.0000001
 44
0.0000000001
 40
0.0
 40
0.0
 40
0.0
 40
0.0
 40
0.1219923656
 40
0.1832732458
 40
0.248197934
 40
0.323728273
 40
0.3974828774
 40
0.4735809367
 40
0.5557901273
 40
0.7471063308
 40
1.0
 40
1.0
 40
1.0
 40
1.0
 10
0.8001992589
 20
-17.1931735355
 30
0.0
 10
0.791200472
 20
-17.1848271701
 30
0.0
 10
0.7799141009
 20
-17.1693234995
 30
0.0
 10
0.7728249148
 20
-17.1452149451
 30
0.0
 10
0.7710760713
 20
-17.1248772541
 30
0.0
 10
0.773318809
 20
-17.1032662729
 30
0.0
 10
0.7810617969
 20
-17.0816977894
 30
0.0
 10
0.7940982573
 20
-17.0621242699
 30
0.0
 10
0.8190653371
 20
-17.0369399473
 30
0.0
 10
0.8692856037
 20
-17.015093221
 30
0.0
 10
0.9143367514
 20
-17.0121879682
 30
0.0
 10
0.9397801682
 20
-17.0121879682
 30
0.0
  0
SPLINE
  5
5ED
100
AcDbEntity
  8
0
100
AcDbSpline
 62
7
  6
CONTINUOUS
 70
0
 71
3
 72
9
 73
5
 74
0
 42
0.0000001
 43
0.0000001
 44
0.0000000001
 40
0.0
 40
0.0
 40
0.0
 40
0.0
 40
0.5306823676
 40
1.0
 40
1.0
 40
1.0
 40
1.0
 10
0.9397801682
 20
-17.0121879682
 30
0.0
 10
0.9838742031
 20
-17.0121879682
 30
0.0
 10
1.0777161089
 20
-17.0259343908
 30
0.0
 10
1.1136276331
 20
-17.1145601439
 30
0.0
 10
1.1177777204
 20
-17.1533339587
 30
0.0
  0
SPLINE
  5
5EE
100
AcDbEntity
  8
0
100
AcDbSpline
 62
7
  6
CONTINUOUS
 70
0
 71
3
 72
13
 73
9
 74
0
 42
0.0000001
 43
0.0000001
 44
0.0000000001
 40
0.0
 40
0.0
 40
0.0
 40
0.0
 40
0.1571016647
 40
0.3096608808
 40
0.4633596561
 40
0.6259608805
 40
0.8039640154
 40
1.0
 40
1.0
 40
1.0
 40
1.0
 10
1.2179458427
 20
-17.1487808623
 30
0.0
 10
1.2171261797
 20
-17.1277425858
 30
0.0
 10
1.2104543436
 20
-17.0861994531
 30
0.0
 10
1.1835879356
 20
-17.0293028084
 30
0.0
 10
1.1406100867
 20
-16.9820279229
 30
0.0
 10
1.0820996086
 20
-16.9490546615
 30
0.0
 10
1.0123701432
 20
-16.9294792961
 30
0.0
 10
0.9620682326
 20
-16.9256791352
 30
0.0
 10
0.935796148
 20
-16.9256791352
 30
0.0
  0
SPLINE
  5
5EF
100
AcDbEntity
  8
0
100
AcDbSpline
 62
7
  6
CONTINUOUS
 70
0
 71
3
 72
15
 73
11
 74
0
 42
0.0000001
 43
0.0000001
 44
0.0000000001
 40
0.0
 40
0.0
 40
0.0
 40
0.0
 40
0.1249524682
 40
0.2423294566
 40
0.350902176
 40
0.4524669683
 40
0.6444564726
 40
0.7304140431
 40
0.8144496174
 40
1.0
 40
1.0
 40
1.0
 40
1.0
 10
0.935796148
 20
-16.9256791352
 30
0.0
 10
0.9115957435
 20
-16.9256791352
 30
0.0
 10
0.8645010185
 20
-16.9295682276
 30
0.0
 10
0.7987645527
 20
-16.9483732917
 30
0.0
 10
0.7425110419
 20
-16.97963178
 30
0.0
 10
0.689343837
 20
-17.0380763087
 30
0.0
 10
0.6665761709
 20
-17.1130838118
 30
0.0
 10
0.6758657871
 20
-17.1833063499
 30
0.0
 10
0.7045485397
 20
-17.2470889659
 30
0.0
 10
0.7483463974
 20
-17.2812681838
 30
0.0
 10
0.7802795053
 20
-17.2977524679
 30
0.0
  0
SPLINE
  5
5F0
100
AcDbEntity
  8
0
100
AcDbSpline
 62
7
  6
CONTINUOUS
 70
0
 71
3
 72
9
 73
5
 74
0
 42
0.0000001
 43
0.0000001
 44
0.0000000001
 40
0.0
 40
0.0
 40
0.0
 40
0.0
 40
0.1806469784
 40
1.0
 40
1.0
 40
1.0
 40
1.0
 10
0.7802795053
 20
-17.2977524679
 30
0.0
 10
0.7883274583
 20
-17.301959048
 30
0.0
 10
0.834486697
 20
-17.3220998781
 30
0.0
 10
0.8833429943
 20
-17.3350021564
 30
0.0
 10
0.9233107217
 20
-17.3449552635
 30
0.0
  0
SPLINE
  5
5F1
100
AcDbEntity
  8
0
100
AcDbSpline
 62
7
  6
CONTINUOUS
 70
0
 71
3
 72
9
 73
5
 74
0
 42
0.0000001
 43
0.0000001
 44
0.0000000001
 40
0.0
 40
0.0
 40
0.0
 40
0.0
 40
0.3500357027
 40
1.0
 40
1.0
 40
1.0
 40
1.0
 10
0.9233107217
 20
-17.3449552635
 30
0.0
 10
0.9386324552
 20
-17.3487708133
 30
0.0
 10
0.9822296546
 20
-17.360158158
 30
0.0
 10
1.0262750135
 20
-17.370945552
 30
0.0
 10
1.0534652935
 20
-17.3819135746
 30
0.0
  0
SPLINE
  5
5F2
100
AcDbEntity
  8
0
100
AcDbSpline
 62
7
  6
CONTINUOUS
 70
0
 71
3
 72
21
 73
17
 74
0
 42
0.0000001
 43
0.0000001
 44
0.0000000001
 40
0.0
 40
0.0
 40
0.0
 40
0.0
 40
0.0874388932
 40
0.1571041086
 40
0.2201792754
 40
0.2866010327
 40
0.3542931985
 40
0.4239280616
 40
0.4986393325
 40
0.5826703213
 40
0.6768627142
 40
0.7273713472
 40
0.7807131575
 40
0.841078171
 40
0.8989178884
 40
1.0
 40
1.0
 40
1.0
 40
1.0
 10
1.0534652935
 20
-17.3819135746
 30
0.0
 10
1.0670755614
 20
-17.3872943773
 30
0.0
 10
1.0910280573
 20
-17.3987202213
 30
0.0
 10
1.118815928
 20
-17.4241367772
 30
0.0
 10
1.1331843277
 20
-17.45499495
 30
0.0
 10
1.1375738883
 20
-17.4881296779
 30
0.0
 10
1.1324752043
 20
-17.5223615064
 30
0.0
 10
1.1164200844
 20
-17.5546632738
 30
0.0
 10
1.0893005198
 20
-17.5825074147
 30
0.0
 10
1.0514506254
 20
-17.6025868256
 30
0.0
 10
1.0143248292
 20
-17.6129310143
 30
0.0
 10
0.9813960078
 20
-17.61708255
 30
0.0
 10
0.953900412
 20
-17.6181447937
 30
0.0
 10
0.9251727512
 20
-17.6168580525
 30
0.0
 10
0.8887931503
 20
-17.6115384332
 30
0.0
 10
0.863221904
 20
-17.6035551864
 30
0.0
 10
0.8476329227
 20
-17.5968405945
 30
0.0
  0
SPLINE
  5
5F3
100
AcDbEntity
  8
0
100
AcDbSpline
 62
7
  6
CONTINUOUS
 70
0
 71
3
 72
12
 73
8
 74
0
 42
0.0000001
 43
0.0000001
 44
0.0000000001
 40
0.0
 40
0.0
 40
0.0
 40
0.0
 40
0.1606441131
 40
0.3160528741
 40
0.4695579901
 40
0.6257786262
 40
1.0
 40
1.0
 40
1.0
 40
1.0
 10
0.6442556874
 20
-17.4447321329
 30
0.0
 10
0.6449152432
 20
-17.4693172652
 30
0.0
 10
0.6519634706
 20
-17.517867134
 30
0.0
 10
0.6820789968
 20
-17.5841400927
 30
0.0
 10
0.7291055416
 20
-17.6390609634
 30
0.0
 10
0.8197943358
 20
-17.6944431128
 30
0.0
 10
0.9039732617
 20
-17.7042586317
 30
0.0
 10
0.9612650726
 20
-17.7042586317
 30
0.0
  0
SPLINE
  5
5F4
100
AcDbEntity
  8
0
100
AcDbSpline
 62
7
  6
CONTINUOUS
 70
0
 71
3
 72
16
 73
12
 74
0
 42
0.0000001
 43
0.0000001
 44
0.0000000001
 40
0.0
 40
0.0
 40
0.0
 40
0.0
 40
0.1203129341
 40
0.2330202272
 40
0.338248294
 40
0.4376608643
 40
0.5333866397
 40
0.6266067036
 40
0.7177154286
 40
0.8050016052
 40
1.0
 40
1.0
 40
1.0
 40
1.0
 10
0.9612650726
 20
-17.7042586317
 30
0.0
 10
0.986592586
 20
-17.7042586317
 30
0.0
 10
1.0358693939
 20
-17.6998997041
 30
0.0
 10
1.1041936651
 20
-17.677940003
 30
0.0
 10
1.1619852391
 20
-17.6427227308
 30
0.0
 10
1.2041818502
 20
-17.5943996861
 30
0.0
 10
1.2303894656
 20
-17.5387141721
 30
0.0
 10
1.2387982838
 20
-17.4795504605
 30
0.0
 10
1.2313780423
 20
-17.4221081923
 30
0.0
 10
1.1980047003
 20
-17.3494201943
 30
0.0
 10
1.1459713416
 20
-17.3126996513
 30
0.0
 10
1.1087426707
 20
-17.2954047417
 30
0.0
  0
SPLINE
  5
5F5
100
AcDbEntity
  8
0
100
AcDbSpline
 62
7
  6
CONTINUOUS
 70
0
 71
3
 72
9
 73
5
 74
0
 42
0.0000001
 43
0.0000001
 44
0.0000000001
 40
0.0
 40
0.0
 40
0.0
 40
0.0
 40
0.1708537376
 40
1.0
 40
1.0
 40
1.0
 40
1.0
 10
1.1087426707
 20
-17.2954047417
 30
0.0
 10
1.0999448789
 20
-17.2913828999
 30
0.0
 10
1.046927762
 20
-17.2712778548
 30
0.0
 10
0.9917083086
 20
-17.2579676819
 30
0.0
 10
0.9460050608
 20
-17.2472415474
 30
0.0
  0
SPLINE
  5
5F6
100
AcDbEntity
  8
0
100
AcDbSpline
 62
7
  6
CONTINUOUS
 70
0
 71
3
 72
18
 73
14
 74
0
 42
0.0000001
 43
0.0000001
 44
0.0000000001
 40
0.0
 40
0.0
 40
0.0
 40
0.0
 40
0.1519229241
 40
0.2688691096
 40
0.3698366199
 40
0.4199224095
 40
0.4728043776
 40
0.5460050487
 40
0.6198797209
 40
0.6954843994
 40
0.7757756407
 40
0.8738495482
 40
1.0
 40
1.0
 40
1.0
 40
1.0
 10
-0.0308830987
 20
-17.0258472576
 30
0.0
 10
-0.0066533453
 20
-17.0258472576
 30
0.0
 10
0.0367131044
 20
-17.0289305563
 30
0.0
 10
0.0918573552
 20
-17.0547484203
 30
0.0
 10
0.1185188928
 20
-17.0903403839
 30
0.0
 10
0.1282836988
 20
-17.12158423
 30
0.0
 10
0.1308733208
 20
-17.1497448562
 30
0.0
 10
0.1264304494
 20
-17.1817746783
 30
0.0
 10
0.1111149478
 20
-17.2143978284
 30
0.0
 10
0.0858424166
 20
-17.2418928017
 30
0.0
 10
0.0491082493
 20
-17.2606132153
 30
0.0
 10
0.0011416727
 20
-17.270153359
 30
0.0
 10
-0.0346674972
 20
-17.271714467
 30
0.0
 10
-0.0547868725
 20
-17.271714467
 30
0.0
  0
SPLINE
  5
5F7
100
AcDbEntity
  8
0
100
AcDbSpline
 62
7
  6
CONTINUOUS
 70
0
 71
3
 72
21
 73
17
 74
0
 42
0.0000001
 43
0.0000001
 44
0.0000000001
 40
0.0
 40
0.0
 40
0.0
 40
0.0
 40
0.1365200578
 40
0.2486517489
 40
0.3509700259
 40
0.4027637157
 40
0.4573654021
 40
0.5004782595
 40
0.5423967131
 40
0.5839060152
 40
0.6258144236
 40
0.705942642
 40
0.782907869
 40
0.8256733927
 40
0.8758071331
 40
1.0
 40
1.0
 40
1.0
 40
1.0
 10
0.020339254
 20
-17.349117107
 30
0.0
 10
0.0521608554
 20
-17.3446980206
 30
0.0
 10
0.110092296
 20
-17.3314972009
 30
0.0
 10
0.1810037338
 20
-17.2849646877
 30
0.0
 10
0.2151776426
 20
-17.2301330016
 30
0.0
 10
0.2279774995
 20
-17.1824761047
 30
0.0
 10
0.2307126868
 20
-17.1472085936
 30
0.0
 10
0.228695447
 20
-17.1143336015
 30
0.0
 10
0.2228819367
 20
-17.0850297656
 30
0.0
 10
0.213101401
 20
-17.0570908082
 30
0.0
 10
0.19546006
 20
-17.0228084081
 30
0.0
 10
0.1656194872
 20
-16.9856195286
 30
0.0
 10
0.1243193265
 20
-16.9610167627
 30
0.0
 10
0.0858606696
 20
-16.9497443635
 30
0.0
 10
0.0354549707
 20
-16.9409625656
 30
0.0
 10
-0.0057121476
 20
-16.9393384246
 30
0.0
 10
-0.0349381926
 20
-16.9393384246
 30
0.0
  0
SPLINE
  5
5F8
100
AcDbEntity
  8
0
100
AcDbSpline
 62
7
  6
CONTINUOUS
 70
0
 71
3
 72
9
 73
5
 74
0
 42
0.0000001
 43
0.0000001
 44
0.0000000001
 40
0.0
 40
0.0
 40
0.0
 40
0.0
 40
0.3222232674
 40
1.0
 40
1.0
 40
1.0
 40
1.0
 10
-0.1521804788
 20
-17.3582232999
 30
0.0
 10
-0.1462811601
 20
-17.3582232999
 30
0.0
 10
-0.1280036782
 20
-17.3584955543
 30
0.0
 10
-0.1095486296
 20
-17.3591763537
 30
0.0
 10
-0.0974010347
 20
-17.3617092481
 30
0.0
  0
SPLINE
  5
5F9
100
AcDbEntity
  8
0
100
AcDbSpline
 62
7
  6
CONTINUOUS
 70
0
 71
3
 72
12
 73
8
 74
0
 42
0.0000001
 43
0.0000001
 44
0.0000000001
 40
0.0
 40
0.0
 40
0.0
 40
0.0
 40
0.0974412774
 40
0.2003948476
 40
0.4882068918
 40
0.7085912992
 40
1.0
 40
1.0
 40
1.0
 40
1.0
 10
-0.0974010347
 20
-17.3617092481
 30
0.0
 10
-0.0896558066
 20
-17.3635671424
 30
0.0
 10
-0.0740982902
 20
-17.3689237262
 30
0.0
 10
-0.0385142332
 20
-17.3875900321
 30
0.0
 10
-0.0049349127
 20
-17.4262803851
 30
0.0
 10
0.0327822979
 20
-17.4792961525
 30
0.0
 10
0.0557483018
 20
-17.5143698308
 30
0.0
 10
0.0685735915
 20
-17.5344423411
 30
0.0
  0
SPLINE
  5
5FA
100
AcDbEntity
  8
0
100
AcDbSpline
 62
7
  6
CONTINUOUS
 70
0
 71
3
 72
9
 73
5
 74
0
 42
0.0000001
 43
0.0000001
 44
0.0000000001
 40
0.0
 40
0.0
 40
0.0
 40
0.0
 40
0.2659540588
 40
1.0
 40
1.0
 40
1.0
 40
1.0
 10
0.1570743651
 20
-17.4863502206
 30
0.0
 10
0.1508634569
 20
-17.4769700011
 30
0.0
 10
0.1267739412
 20
-17.4422061406
 30
0.0
 10
0.0995167149
 20
-17.4095376758
 30
0.0
 10
0.0774663548
 20
-17.3876761058
 30
0.0
  0
SPLINE
  5
5FB
100
AcDbEntity
  8
0
100
AcDbSpline
 62
7
  6
CONTINUOUS
 70
0
 71
3
 72
9
 73
5
 74
0
 42
0.0000001
 43
0.0000001
 44
0.0000000001
 40
0.0
 40
0.0
 40
0.0
 40
0.0
 40
0.209446698
 40
1.0
 40
1.0
 40
1.0
 40
1.0
 10
0.0774663548
 20
-17.3876761058
 30
0.0
 10
0.0740128988
 20
-17.3843108781
 30
0.0
 10
0.0565568397
 20
-17.369235857
 30
0.0
 10
0.0364879063
 20
-17.3575119545
 30
0.0
 10
0.020339254
 20
-17.349117107
 30
0.0
  0
SPLINE
  5
5FC
100
AcDbEntity
  8
0
100
AcDbSpline
 62
7
  6
CONTINUOUS
 70
0
 71
3
 72
9
 73
5
 74
0
 42
0.0000001
 43
0.0000001
 44
0.0000000001
 40
0.0
 40
0.0
 40
0.0
 40
0.0
 40
0.7097160398
 40
1.0
 40
1.0
 40
1.0
 40
1.0
 10
-0.8104586002
 20
-17.0167410646
 30
0.0
 10
-0.79940891
 20
-17.0545584022
 30
0.0
 10
-0.7816315496
 20
-17.1071909094
 30
0.0
 10
-0.7627968146
 20
-17.1594065309
 30
0.0
 10
-0.7572443069
 20
-17.1745342903
 30
0.0
  0
SPLINE
  5
5FD
100
AcDbEntity
  8
0
100
AcDbSpline
 62
7
  6
CONTINUOUS
 70
0
 71
3
 72
9
 73
5
 74
0
 42
0.0000001
 43
0.0000001
 44
0.0000000001
 40
0.0
 40
0.0
 40
0.0
 40
0.0
 40
0.3106214921
 40
1.0
 40
1.0
 40
1.0
 40
1.0
 10
-1.5432225591
 20
-17.4608813654
 30
0.0
 10
-1.5476088295
 20
-17.473283155
 30
0.0
 10
-1.5616485868
 20
-17.5132365163
 30
0.0
 10
-1.5754995655
 20
-17.5532628876
 30
0.0
 10
-1.5844850002
 20
-17.5810404541
 30
0.0
  0
SPLINE
  5
5FE
100
AcDbEntity
  8
0
100
AcDbSpline
 62
7
  6
CONTINUOUS
 70
0
 71
3
 72
9
 73
5
 74
0
 42
0.0000001
 43
0.0000001
 44
0.0000000001
 40
0.0
 40
0.0
 40
0.0
 40
0.0
 40
0.1862683768
 40
1.0
 40
1.0
 40
1.0
 40
1.0
 10
-1.5844850002
 20
-17.5810404541
 30
0.0
 10
-1.5866128752
 20
-17.5741215341
 30
0.0
 10
-1.5982656837
 20
-17.5370472616
 30
0.0
 10
-1.6104462448
 20
-17.5001416852
 30
0.0
 10
-1.6204117694
 20
-17.4701298448
 30
0.0
  0
SPLINE
  5
5FF
100
AcDbEntity
  8
0
100
AcDbSpline
 62
7
  6
CONTINUOUS
 70
0
 71
3
 72
9
 73
5
 74
0
 42
0.0000001
 43
0.0000001
 44
0.0000000001
 40
0.0
 40
0.0
 40
0.0
 40
0.0
 40
0.2354134851
 40
1.0
 40
1.0
 40
1.0
 40
1.0
 10
-2.6590157672
 20
-17.6063670228
 30
0.0
 10
-2.6617149245
 20
-17.5966234539
 30
0.0
 10
-2.6736470976
 20
-17.5553637024
 30
0.0
 10
-2.6873010852
 20
-17.5146125801
 30
0.0
 10
-2.6984284847
 20
-17.483717991
 30
0.0
  0
SPLINE
  5
600
100
AcDbEntity
  8
0
100
AcDbSpline
 62
7
  6
CONTINUOUS
 70
0
 71
3
 72
32
 73
28
 74
0
 42
0.0000001
 43
0.0000001
 44
0.0000000001
 40
0.0
 40
0.0
 40
0.0
 40
0.0
 40
0.0367788149
 40
0.08110934
 40
0.1239547692
 40
0.1659201554
 40
0.2464563924
 40
0.2860313132
 40
0.3262207684
 40
0.366702269
 40
0.4071188602
 40
0.4482590224
 40
0.4908710886
 40
0.5546466371
 40
0.6144434839
 40
0.672822725
 40
0.7325281631
 40
0.7937695176
 40
0.8250316359
 40
0.8570923783
 40
0.8903456461
 40
0.9250864287
 40
0.943096711
 40
0.9615686879
 40
0.9805282153
 40
0.9901987435
 40
1.0
 40
1.0
 40
1.0
 40
1.0
 10
3.2512918436
 20
-19.5005125865
 30
0.0
 10
3.2510054786
 20
-19.4859573887
 30
0.0
 10
3.2491257548
 20
-19.4538866006
 30
0.0
 10
3.2416081437
 20
-19.4053247956
 30
0.0
 10
3.2279375936
 20
-19.3559578639
 30
0.0
 10
3.2029965748
 20
-19.2953723488
 30
0.0
 10
3.1670125859
 20
-19.2410635822
 30
0.0
 10
3.1207121506
 20
-19.1974184996
 30
0.0
 10
3.0815523119
 20
-19.1701169397
 30
0.0
 10
3.038730491
 20
-19.1483006135
 30
0.0
 10
2.9929010177
 20
-19.1326124693
 30
0.0
 10
2.9445109291
 20
-19.123263612
 30
0.0
 10
2.8861171071
 20
-19.1198970905
 30
0.0
 10
2.8202166832
 20
-19.1252799783
 30
0.0
 10
2.750487848
 20
-19.1451947379
 30
0.0
 10
2.6881901401
 20
-19.1791498917
 30
0.0
 10
2.6342364408
 20
-19.2260036048
 30
0.0
 10
2.5976643405
 20
-19.2744803645
 30
0.0
 10
2.5748278056
 20
-19.3182452681
 30
0.0
 10
2.5607977092
 20
-19.3538580337
 30
0.0
 10
2.5499124598
 20
-19.3919741917
 30
0.0
 10
2.5435259625
 20
-19.425440862
 30
0.0
 10
2.5399305046
 20
-19.453394025
 30
0.0
 10
2.5379826264
 20
-19.4752473115
 30
0.0
 10
2.5370164626
 20
-19.4938615093
 30
0.0
 10
2.5366309317
 20
-19.5090616898
 30
0.0
 10
2.5365618868
 20
-19.5167654184
 30
0.0
 10
2.5365653082
 20
-19.5206431169
 30
0.0
  0
SPLINE
  5
601
100
AcDbEntity
  8
0
100
AcDbSpline
 62
7
  6
CONTINUOUS
 70
0
 71
3
 72
35
 73
31
 74
0
 42
0.0000001
 43
0.0000001
 44
0.0000000001
 40
0.0
 40
0.0
 40
0.0
 40
0.0
 40
0.0052067616
 40
0.0103981029
 40
0.0207377112
 40
0.0412680365
 40
0.0819253126
 40
0.1225430005
 40
0.1636383418
 40
0.2044038377
 40
0.244239094
 40
0.2839752345
 40
0.324449489
 40
0.3652859943
 40
0.4061424581
 40
0.4478622272
 40
0.4912383226
 40
0.5316428322
 40
0.5712615201
 40
0.6107398321
 40
0.6507300117
 40
0.6906804145
 40
0.7302593841
 40
0.7704099143
 40
0.8120361729
 40
0.8548388589
 40
0.8984099954
 40
0.9434040879
 40
0.9904162484
 40
1.0
 40
1.0
 40
1.0
 40
1.0
 10
2.5365653082
 20
-19.5206431169
 30
0.0
 10
2.5365671258
 20
-19.5227030825
 30
0.0
 10
2.5365922707
 20
-19.5268168983
 30
0.0
 10
2.5367605821
 20
-19.5350198456
 30
0.0
 10
2.5373426459
 20
-19.54927668
 30
0.0
 10
2.5396690592
 20
-19.57749155
 30
0.0
 10
2.5463600455
 20
-19.6173064618
 30
0.0
 10
2.5598751501
 20
-19.6638999649
 30
0.0
 10
2.5784580245
 20
-19.7087588726
 30
0.0
 10
2.6021416702
 20
-19.7508457094
 30
0.0
 10
2.6314010276
 20
-19.7886254582
 30
0.0
 10
2.665778263
 20
-19.8216368739
 30
0.0
 10
2.7048526679
 20
-19.8495943331
 30
0.0
 10
2.7477981628
 20
-19.8721233755
 30
0.0
 10
2.7940555903
 20
-19.8882895555
 30
0.0
 10
2.843113611
 20
-19.8978916552
 30
0.0
 10
2.8928087647
 20
-19.9008841678
 30
0.0
 10
2.9416608086
 20
-19.8980395274
 30
0.0
 10
2.9882613547
 20
-19.8892919477
 30
0.0
 10
3.0331635756
 20
-19.8746109847
 30
0.0
 10
3.0759986885
 20
-19.8543867741
 30
0.0
 10
3.11582075
 20
-19.8285652452
 30
0.0
 10
3.1511098845
 20
-19.7966972709
 30
0.0
 10
3.1815014665
 20
-19.7592932352
 30
0.0
 10
3.2066945341
 20
-19.7167464429
 30
0.0
 10
3.2267053025
 20
-19.6700816807
 30
0.0
 10
3.2410804392
 20
-19.6199992606
 30
0.0
 10
3.2496233377
 20
-19.5669230948
 30
0.0
 10
3.2515801755
 20
-19.5267082817
 30
0.0
 10
3.251366464
 20
-19.5043053514
 30
0.0
 10
3.2512918436
 20
-19.5005125865
 30
0.0
  0
SPLINE
  5
602
100
AcDbEntity
  8
0
100
AcDbSpline
 62
7
  6
CONTINUOUS
 70
0
 71
3
 72
22
 73
18
 74
0
 42
0.0000001
 43
0.0000001
 44
0.0000000001
 40
0.0
 40
0.0
 40
0.0
 40
0.0
 40
0.0569420517
 40
0.125484894
 40
0.1893387342
 40
0.2509995384
 40
0.310181327
 40
0.3663511204
 40
0.4222237488
 40
0.480555548
 40
0.5621237871
 40
0.6432412676
 40
0.7266600561
 40
0.8156789651
 40
0.9079997862
 40
0.9538453978
 40
1.0
 40
1.0
 40
1.0
 40
1.0
 10
-0.8510734827
 20
-19.6572534112
 30
0.0
 10
-0.851368196
 20
-19.666922686
 30
0.0
 10
-0.8531024972
 20
-19.6881893109
 30
0.0
 10
-0.8600808019
 20
-19.7197142846
 30
0.0
 10
-0.8731418479
 20
-19.7501995346
 30
0.0
 10
-0.8914813609
 20
-19.7758985358
 30
0.0
 10
-0.9135221765
 20
-19.7966008337
 30
0.0
 10
-0.9386020877
 20
-19.8117459481
 30
0.0
 10
-0.9663684678
 20
-19.8206960372
 30
0.0
 10
-0.999649938
 20
-19.8238021188
 30
0.0
 10
-1.0373408351
 20
-19.8188189398
 30
0.0
 10
-1.0758973022
 20
-19.8012826306
 30
0.0
 10
-1.1088386073
 20
-19.7725806175
 30
0.0
 10
-1.132657701
 20
-19.7338648072
 30
0.0
 10
-1.1454131683
 20
-19.6971630672
 30
0.0
 10
-1.1506234517
 20
-19.666255524
 30
0.0
 10
-1.1514377356
 20
-19.6506308693
 30
0.0
 10
-1.1514428329
 20
-19.6427941462
 30
0.0
  0
SPLINE
  5
603
100
AcDbEntity
  8
0
100
AcDbSpline
 62
7
  6
CONTINUOUS
 70
0
 71
3
 72
25
 73
21
 74
0
 42
0.0000001
 43
0.0000001
 44
0.0000000001
 40
0.0
 40
0.0
 40
0.0
 40
0.0
 40
0.0347427519
 40
0.0680113954
 40
0.1310452939
 40
0.1915853726
 40
0.2522801628
 40
0.3120846078
 40
0.3696195524
 40
0.4273192643
 40
0.4875980526
 40
0.5498557323
 40
0.608045323
 40
0.6647337522
 40
0.7226877622
 40
0.7821834807
 40
0.8435730499
 40
0.9093833809
 40
0.9816793135
 40
1.0
 40
1.0
 40
1.0
 40
1.0
 10
-1.1514428329
 20
-19.6427941462
 30
0.0
 10
-1.1514466699
 20
-19.6368950741
 30
0.0
 10
-1.1510067103
 20
-19.6253492669
 30
0.0
 10
-1.1483115813
 20
-19.6032530923
 30
0.0
 10
-1.1415491638
 20
-19.5773256183
 30
0.0
 10
-1.1274703198
 20
-19.5491249736
 30
0.0
 10
-1.107948121
 20
-19.5251210945
 30
0.0
 10
-1.0847010563
 20
-19.5055407093
 30
0.0
 10
-1.058436156
 20
-19.4912101014
 30
0.0
 10
-1.0296499417
 20
-19.4827225455
 30
0.0
 10
-0.9990046367
 20
-19.4801511131
 30
0.0
 10
-0.968274947
 20
-19.4826778134
 30
0.0
 10
-0.9391680855
 20
-19.4910694934
 30
0.0
 10
-0.9132832558
 20
-19.5053887769
 30
0.0
 10
-0.8910395173
 20
-19.5251836673
 30
0.0
 10
-0.8728918792
 20
-19.5498018478
 30
0.0
 10
-0.8599687226
 20
-19.5789821798
 30
0.0
 10
-0.8523944822
 20
-19.6121640738
 30
0.0
 10
-0.8507617096
 20
-19.6387451507
 30
0.0
 10
-0.8509786608
 20
-19.6541423932
 30
0.0
 10
-0.8510734827
 20
-19.6572534112
 30
0.0
  0
SPLINE
  5
604
100
AcDbEntity
  8
0
100
AcDbSpline
 62
7
  6
CONTINUOUS
 70
0
 71
3
 72
28
 73
24
 74
0
 42
0.0000001
 43
0.0000001
 44
0.0000000001
 40
0.0
 40
0.0
 40
0.0
 40
0.0
 40
0.0513630746
 40
0.0973992876
 40
0.1380867478
 40
0.1736132071
 40
0.2056746106
 40
0.2358714497
 40
0.2912743591
 40
0.3421492876
 40
0.392346354
 40
0.4442692697
 40
0.4715335497
 40
0.5001405869
 40
0.5384111228
 40
0.5740628046
 40
0.6411773468
 40
0.7101562827
 40
0.7880294795
 40
0.882583899
 40
0.9382719977
 40
0.9683772648
 40
1.0
 40
1.0
 40
1.0
 40
1.0
 10
-1.3426727933
 20
-19.5152936979
 30
0.0
 10
-1.342663573
 20
-19.4976245341
 30
0.0
 10
-1.3432710952
 20
-19.4641154654
 30
0.0
 10
-1.3463196011
 20
-19.4166954284
 30
0.0
 10
-1.3514049101
 20
-19.3749169781
 30
0.0
 10
-1.3588869874
 20
-19.3383855231
 30
0.0
 10
-1.3683347944
 20
-19.3060690205
 30
0.0
 10
-1.3821449494
 20
-19.2680141486
 30
0.0
 10
-1.4027216662
 20
-19.225541192
 30
0.0
 10
-1.436657075
 20
-19.1829604183
 30
0.0
 10
-1.4804026562
 20
-19.1524563582
 30
0.0
 10
-1.5227898129
 20
-19.1373035201
 30
0.0
 10
-1.559462798
 20
-19.1313704042
 30
0.0
 10
-1.5918615904
 20
-19.1297927807
 30
0.0
 10
-1.6271819519
 20
-19.1320446557
 30
0.0
 10
-1.6747539279
 20
-19.1423933846
 30
0.0
 10
-1.7284301524
 20
-19.1704492858
 30
0.0
 10
-1.7775235004
 20
-19.2271263201
 30
0.0
 10
-1.8119170671
 20
-19.3036722224
 30
0.0
 10
-1.8271303986
 20
-19.3811587348
 30
0.0
 10
-1.8324961605
 20
-19.44297338
 30
0.0
 10
-1.8341405402
 20
-19.4833377513
 30
0.0
 10
-1.8344097182
 20
-19.5045716906
 30
0.0
 10
-1.8344073035
 20
-19.5154497314
 30
0.0
  0
SPLINE
  5
605
100
AcDbEntity
  8
0
100
AcDbSpline
 62
7
  6
CONTINUOUS
 70
0
 71
3
 72
28
 73
24
 74
0
 42
0.0000001
 43
0.0000001
 44
0.0000000001
 40
0.0
 40
0.0
 40
0.0
 40
0.0
 40
0.0252784054
 40
0.0496940235
 40
0.0959870923
 40
0.1390100497
 40
0.178926355
 40
0.2159556052
 40
0.2504018002
 40
0.3127095735
 40
0.358779705
 40
0.403751782
 40
0.4501801417
 40
0.5003973864
 40
0.5388817654
 40
0.5746968283
 40
0.6420254247
 40
0.711110357
 40
0.7889540505
 40
0.8832121718
 40
0.9385981474
 40
0.9684776893
 40
1.0
 40
1.0
 40
1.0
 40
1.0
 10
-1.8344073035
 20
-19.5154497314
 30
0.0
 10
-1.8344053733
 20
-19.524145359
 30
0.0
 10
-1.8342253199
 20
-19.5412399115
 30
0.0
 10
-1.8330984188
 20
-19.5742411593
 30
0.0
 10
-1.8303212161
 20
-19.613284172
 30
0.0
 10
-1.8245919838
 20
-19.6573976614
 30
0.0
 10
-1.8165132625
 20
-19.6978993831
 30
0.0
 10
-1.8060491755
 20
-19.7348242995
 30
0.0
 10
-1.7896101029
 20
-19.7778028732
 30
0.0
 10
-1.7654835756
 20
-19.8213713242
 30
0.0
 10
-1.7272056846
 20
-19.8584743538
 30
0.0
 10
-1.6862182987
 20
-19.8829090279
 30
0.0
 10
-1.6391662698
 20
-19.897151387
 30
0.0
 10
-1.5925715563
 20
-19.9009970823
 30
0.0
 10
-1.5496986253
 20
-19.8982813729
 30
0.0
 10
-1.5019203732
 20
-19.8878802715
 30
0.0
 10
-1.4481284075
 20
-19.8596635091
 30
0.0
 10
-1.3990837753
 20
-19.8028008209
 30
0.0
 10
-1.364943513
 20
-19.7262264076
 30
0.0
 10
-1.3498853727
 20
-19.6489415349
 30
0.0
 10
-1.3445710199
 20
-19.5874074076
 30
0.0
 10
-1.3429312859
 20
-19.5472588502
 30
0.0
 10
-1.3426784519
 20
-19.5261375362
 30
0.0
 10
-1.3426727933
 20
-19.5152936979
 30
0.0
  0
SPLINE
  5
606
100
AcDbEntity
  8
0
100
AcDbSpline
 62
7
  6
CONTINUOUS
 70
0
 71
3
 72
22
 73
18
 74
0
 42
0.0000001
 43
0.0000001
 44
0.0000000001
 40
0.0
 40
0.0
 40
0.0
 40
0.0
 40
0.0569420517
 40
0.125484894
 40
0.1893387342
 40
0.2509995384
 40
0.310181327
 40
0.3663511204
 40
0.4222237488
 40
0.480555548
 40
0.5621237871
 40
0.6432412676
 40
0.7266600561
 40
0.8156789651
 40
0.9079997862
 40
0.9538453978
 40
1.0
 40
1.0
 40
1.0
 40
1.0
 10
-2.0166661792
 20
-19.6572534112
 30
0.0
 10
-2.0169608925
 20
-19.666922686
 30
0.0
 10
-2.0186951936
 20
-19.6881893109
 30
0.0
 10
-2.0256734984
 20
-19.7197142846
 30
0.0
 10
-2.0387345444
 20
-19.7501995346
 30
0.0
 10
-2.0570740574
 20
-19.7758985358
 30
0.0
 10
-2.0791148729
 20
-19.7966008337
 30
0.0
 10
-2.1041947841
 20
-19.8117459481
 30
0.0
 10
-2.1319611643
 20
-19.8206960372
 30
0.0
 10
-2.1652426345
 20
-19.8238021188
 30
0.0
 10
-2.2029335316
 20
-19.8188189398
 30
0.0
 10
-2.2414899987
 20
-19.8012826306
 30
0.0
 10
-2.2744313038
 20
-19.7725806175
 30
0.0
 10
-2.2982503975
 20
-19.7338648072
 30
0.0
 10
-2.3110058648
 20
-19.6971630672
 30
0.0
 10
-2.3162161482
 20
-19.666255524
 30
0.0
 10
-2.3170304321
 20
-19.6506308693
 30
0.0
 10
-2.3170355294
 20
-19.6427941462
 30
0.0
  0
SPLINE
  5
607
100
AcDbEntity
  8
0
100
AcDbSpline
 62
7
  6
CONTINUOUS
 70
0
 71
3
 72
25
 73
21
 74
0
 42
0.0000001
 43
0.0000001
 44
0.0000000001
 40
0.0
 40
0.0
 40
0.0
 40
0.0
 40
0.0347427519
 40
0.0680113954
 40
0.1310452939
 40
0.1915853726
 40
0.2522801628
 40
0.3120846078
 40
0.3696195524
 40
0.4273192643
 40
0.4875980526
 40
0.5498557323
 40
0.608045323
 40
0.6647337522
 40
0.7226877622
 40
0.7821834807
 40
0.8435730499
 40
0.9093833809
 40
0.9816793135
 40
1.0
 40
1.0
 40
1.0
 40
1.0
 10
-2.3170355294
 20
-19.6427941462
 30
0.0
 10
-2.3170393664
 20
-19.6368950741
 30
0.0
 10
-2.3165994068
 20
-19.6253492669
 30
0.0
 10
-2.3139042777
 20
-19.6032530923
 30
0.0
 10
-2.3071418603
 20
-19.5773256183
 30
0.0
 10
-2.2930630163
 20
-19.5491249736
 30
0.0
 10
-2.2735408174
 20
-19.5251210945
 30
0.0
 10
-2.2502937528
 20
-19.5055407093
 30
0.0
 10
-2.2240288524
 20
-19.4912101014
 30
0.0
 10
-2.1952426382
 20
-19.4827225455
 30
0.0
 10
-2.1645973331
 20
-19.4801511131
 30
0.0
 10
-2.1338676435
 20
-19.4826778134
 30
0.0
 10
-2.104760782
 20
-19.4910694934
 30
0.0
 10
-2.0788759522
 20
-19.5053887769
 30
0.0
 10
-2.0566322137
 20
-19.5251836673
 30
0.0
 10
-2.0384845757
 20
-19.5498018478
 30
0.0
 10
-2.0255614191
 20
-19.5789821798
 30
0.0
 10
-2.0179871787
 20
-19.6121640738
 30
0.0
 10
-2.0163544061
 20
-19.6387451507
 30
0.0
 10
-2.0165713573
 20
-19.6541423932
 30
0.0
 10
-2.0166661792
 20
-19.6572534112
 30
0.0
  0
SPLINE
  5
608
100
AcDbEntity
  8
0
100
AcDbSpline
 62
7
  6
CONTINUOUS
 70
0
 71
3
 72
12
 73
8
 74
0
 42
0.0000001
 43
0.0000001
 44
0.0000000001
 40
0.0
 40
0.0
 40
0.0
 40
0.0
 40
0.0236760656
 40
0.2759912256
 40
0.5007045364
 40
0.7323355458
 40
1.0
 40
1.0
 40
1.0
 40
1.0
 10
3.5549468117
 20
-19.7924838079
 30
0.0
 10
3.5534884455
 20
-19.7918556505
 30
0.0
 10
3.5365572349
 20
-19.7843662462
 30
0.0
 10
3.5073696992
 20
-19.7672540794
 30
0.0
 10
3.4748460881
 20
-19.7316283704
 30
0.0
 10
3.4554512611
 20
-19.6865848241
 30
0.0
 10
3.4491774722
 20
-19.653604694
 30
0.0
 10
3.4471846023
 20
-19.6358222498
 30
0.0
  0
SPLINE
  5
609
100
AcDbEntity
  8
0
100
AcDbSpline
 62
7
  6
CONTINUOUS
 70
0
 71
3
 72
12
 73
8
 74
0
 42
0.0000001
 43
0.0000001
 44
0.0000000001
 40
0.0
 40
0.0
 40
0.0
 40
0.0
 40
0.0699145943
 40
0.1906555204
 40
0.4217446011
 40
0.6774609394
 40
1.0
 40
1.0
 40
1.0
 40
1.0
 10
-0.4397606257
 20
-19.822061796
 30
0.0
 10
-0.4448155244
 20
-19.8217174778
 30
0.0
 10
-0.4585524982
 20
-19.8202016287
 30
0.0
 10
-0.4883148048
 20
-19.8128874236
 30
0.0
 10
-0.5275447739
 20
-19.7900490102
 30
0.0
 10
-0.5612207608
 20
-19.740266766
 30
0.0
 10
-0.5729438332
 20
-19.6996473228
 30
0.0
 10
-0.5777526777
 20
-19.676800118
 30
0.0
  0
SPLINE
  5
60A
100
AcDbEntity
  8
0
100
AcDbSpline
 62
7
  6
CONTINUOUS
 70
0
 71
3
 72
12
 73
8
 74
0
 42
0.0000001
 43
0.0000001
 44
0.0000000001
 40
0.0
 40
0.0
 40
0.0
 40
0.0
 40
0.0226299827
 40
0.1680851532
 40
0.4435374605
 40
0.7147707657
 40
1.0
 40
1.0
 40
1.0
 40
1.0
 10
-0.178838921
 20
-19.6345617326
 30
0.0
 10
-0.1790442881
 20
-19.632878561
 30
0.0
 10
-0.1807103829
 20
-19.6203937442
 30
0.0
 10
-0.1879373673
 20
-19.5878356819
 30
0.0
 10
-0.2128424722
 20
-19.5409554157
 30
0.0
 10
-0.2607630306
 20
-19.4991064639
 30
0.0
 10
-0.3005438362
 20
-19.4840515809
 30
0.0
 10
-0.3213564109
 20
-19.4792383893
 30
0.0
  0
SPLINE
  5
60B
100
AcDbEntity
  8
0
100
AcDbSpline
 62
7
  6
CONTINUOUS
 70
0
 71
3
 72
11
 73
7
 74
0
 42
0.0000001
 43
0.0000001
 44
0.0000000001
 40
0.0
 40
0.0
 40
0.0
 40
0.0
 40
0.0221750488
 40
0.2070836741
 40
0.5832036907
 40
1.0
 40
1.0
 40
1.0
 40
1.0
 10
-0.548023485
 20
-19.1569904159
 30
0.0
 10
-0.5493825962
 20
-19.1577318391
 30
0.0
 10
-0.5619949447
 20
-19.164800556
 30
0.0
 10
-0.5953151548
 20
-19.188488512
 30
0.0
 10
-0.6382752293
 20
-19.2436773799
 30
0.0
 10
-0.654581085
 20
-19.2976078083
 30
0.0
 10
-0.6597084141
 20
-19.3262116898
 30
0.0
  0
SPLINE
  5
60C
100
AcDbEntity
  8
0
100
AcDbSpline
 62
7
  6
CONTINUOUS
 70
0
 71
3
 72
10
 73
6
 74
0
 42
0.0000001
 43
0.0000001
 44
0.0000000001
 40
0.0
 40
0.0
 40
0.0
 40
0.0
 40
0.2619583673
 40
0.6554965019
 40
1.0
 40
1.0
 40
1.0
 40
1.0
 10
-1.2471303207
 20
-19.6583888437
 30
0.0
 10
-1.2447168362
 20
-19.6731114444
 30
0.0
 10
-1.2371916009
 20
-19.7097033613
 30
0.0
 10
-1.2186273119
 20
-19.7638252753
 30
0.0
 10
-1.19609513
 20
-19.7999227136
 30
0.0
 10
-1.1833500451
 20
-19.8148158417
 30
0.0
  0
SPLINE
  5
60D
100
AcDbEntity
  8
0
100
AcDbSpline
 62
7
  6
CONTINUOUS
 70
0
 71
3
 72
14
 73
10
 74
0
 42
0.0000001
 43
0.0000001
 44
0.0000000001
 40
0.0
 40
0.0
 40
0.0
 40
0.0
 40
0.0125485919
 40
0.1268989203
 40
0.2359493553
 40
0.3444763897
 40
0.4573229984
 40
0.7200709122
 40
1.0
 40
1.0
 40
1.0
 40
1.0
 10
-0.8214344048
 20
-19.4706855036
 30
0.0
 10
-0.82255366
 20
-19.4694580666
 30
0.0
 10
-0.8339988496
 20
-19.457160778
 30
0.0
 10
-0.8575758901
 20
-19.4364903547
 30
0.0
 10
-0.8959660578
 20
-19.4146242528
 30
0.0
 10
-0.938042075
 20
-19.4017170771
 30
0.0
 10
-1.0019934423
 20
-19.3957628704
 30
0.0
 10
-1.0900369819
 20
-19.4158268779
 30
0.0
 10
-1.1447393195
 20
-19.4678615341
 30
0.0
 10
-1.1651021224
 20
-19.4987313531
 30
0.0
  0
SPLINE
  5
60E
100
AcDbEntity
  8
0
100
AcDbSpline
 62
7
  6
CONTINUOUS
 70
0
 71
3
 72
10
 73
6
 74
0
 42
0.0000001
 43
0.0000001
 44
0.0000000001
 40
0.0
 40
0.0
 40
0.0
 40
0.0
 40
0.2619583673
 40
0.6554965019
 40
1.0
 40
1.0
 40
1.0
 40
1.0
 10
-2.4127230172
 20
-19.6583888437
 30
0.0
 10
-2.4103095327
 20
-19.6731114444
 30
0.0
 10
-2.4027842974
 20
-19.7097033613
 30
0.0
 10
-2.3842200084
 20
-19.7638252753
 30
0.0
 10
-2.3616878264
 20
-19.7999227136
 30
0.0
 10
-2.3489427416
 20
-19.8148158417
 30
0.0
  0
SPLINE
  5
60F
100
AcDbEntity
  8
0
100
AcDbSpline
 62
7
  6
CONTINUOUS
 70
0
 71
3
 72
14
 73
10
 74
0
 42
0.0000001
 43
0.0000001
 44
0.0000000001
 40
0.0
 40
0.0
 40
0.0
 40
0.0
 40
0.0125485919
 40
0.1268989203
 40
0.2359493553
 40
0.3444763897
 40
0.4573229984
 40
0.7200709122
 40
1.0
 40
1.0
 40
1.0
 40
1.0
 10
-1.9870271013
 20
-19.4706855036
 30
0.0
 10
-1.9881463564
 20
-19.4694580666
 30
0.0
 10
-1.999591546
 20
-19.457160778
 30
0.0
 10
-2.0231685866
 20
-19.4364903547
 30
0.0
 10
-2.0615587543
 20
-19.4146242528
 30
0.0
 10
-2.1036347715
 20
-19.4017170771
 30
0.0
 10
-2.1675861388
 20
-19.3957628704
 30
0.0
 10
-2.2556296783
 20
-19.4158268779
 30
0.0
 10
-2.3103320159
 20
-19.4678615341
 30
0.0
 10
-2.3306948188
 20
-19.4987313531
 30
0.0
  0
SPLINE
  5
610
100
AcDbEntity
  8
0
100
AcDbSpline
 62
7
  6
CONTINUOUS
 70
0
 71
3
 72
12
 73
8
 74
0
 42
0.0000001
 43
0.0000001
 44
0.0000000001
 40
0.0
 40
0.0
 40
0.0
 40
0.0
 40
0.0699145943
 40
0.1906555204
 40
0.4217446011
 40
0.6774609394
 40
1.0
 40
1.0
 40
1.0
 40
1.0
 10
-2.7709460187
 20
-19.822061796
 30
0.0
 10
-2.7760009173
 20
-19.8217174778
 30
0.0
 10
-2.7897378911
 20
-19.8202016287
 30
0.0
 10
-2.8195001977
 20
-19.8128874236
 30
0.0
 10
-2.8587301668
 20
-19.7900490102
 30
0.0
 10
-2.8924061538
 20
-19.740266766
 30
0.0
 10
-2.9041292261
 20
-19.6996473228
 30
0.0
 10
-2.9089380706
 20
-19.676800118
 30
0.0
  0
SPLINE
  5
611
100
AcDbEntity
  8
0
100
AcDbSpline
 62
7
  6
CONTINUOUS
 70
0
 71
3
 72
12
 73
8
 74
0
 42
0.0000001
 43
0.0000001
 44
0.0000000001
 40
0.0
 40
0.0
 40
0.0
 40
0.0
 40
0.0226299827
 40
0.1680851532
 40
0.4435374605
 40
0.7147707657
 40
1.0
 40
1.0
 40
1.0
 40
1.0
 10
-2.5100243139
 20
-19.6345617326
 30
0.0
 10
-2.510229681
 20
-19.632878561
 30
0.0
 10
-2.5118957758
 20
-19.6203937442
 30
0.0
 10
-2.5191227602
 20
-19.5878356819
 30
0.0
 10
-2.5440278651
 20
-19.5409554157
 30
0.0
 10
-2.5919484236
 20
-19.4991064639
 30
0.0
 10
-2.6317292291
 20
-19.4840515809
 30
0.0
 10
-2.6525418039
 20
-19.4792383893
 30
0.0
  0
SPLINE
  5
612
100
AcDbEntity
  8
0
100
AcDbSpline
 62
7
  6
CONTINUOUS
 70
0
 71
3
 72
11
 73
7
 74
0
 42
0.0000001
 43
0.0000001
 44
0.0000000001
 40
0.0
 40
0.0
 40
0.0
 40
0.0
 40
0.0221750488
 40
0.2070836741
 40
0.5832036907
 40
1.0
 40
1.0
 40
1.0
 40
1.0
 10
-2.879208878
 20
-19.1569904159
 30
0.0
 10
-2.8805679892
 20
-19.1577318391
 30
0.0
 10
-2.8931803377
 20
-19.164800556
 30
0.0
 10
-2.9265005478
 20
-19.188488512
 30
0.0
 10
-2.9694606223
 20
-19.2436773799
 30
0.0
 10
-2.9857664779
 20
-19.2976078083
 30
0.0
 10
-2.9908938071
 20
-19.3262116898
 30
0.0
  0
SPLINE
  5
613
100
AcDbEntity
  8
0
100
AcDbSpline
 62
7
  6
CONTINUOUS
 70
0
 71
3
 72
12
 73
8
 74
0
 42
0.0000001
 43
0.0000001
 44
0.0000000001
 40
0.0
 40
0.0
 40
0.0
 40
0.0
 40
0.0236760656
 40
0.2759912256
 40
0.5007045364
 40
0.7323355458
 40
1.0
 40
1.0
 40
1.0
 40
1.0
 10
0.8476329227
 20
-17.5968405945
 30
0.0
 10
0.8461745565
 20
-17.5962124371
 30
0.0
 10
0.8292433459
 20
-17.5887230328
 30
0.0
 10
0.8000558102
 20
-17.571610866
 30
0.0
 10
0.767532199
 20
-17.535985157
 30
0.0
 10
0.7481373721
 20
-17.4909416107
 30
0.0
 10
0.7418635832
 20
-17.4579614806
 30
0.0
 10
0.7398707133
 20
-17.4401790364
 30
0.0
  0
ENDSEC
  0
SECTION
  2
OBJECTS
  0
DICTIONARY
  5
C
100
AcDbDictionary
280
0
281
1
  3
ACAD_GROUP
350
D
  3
ACAD_MLINESTYLE
350
17
  3
ACAD_LAYOUT
350
1A
  3
ACAD_PLOTSETTINGS
350
19
  3
ACAD_PLOTSTYLENAME
350
E
  0
DICTIONARY
  5
D
102
{ACAD_REACTORS
330
C
102
}
100
AcDbDictionary
280
0
281
1
  0
ACDBDICTIONARYWDFLT
  5
E
102
{ACAD_REACTORS
330
C
102
}
100
AcDbDictionary
281
1
  3
Normal
350
F
100
AcDbDictionaryWithDefault
340
F
  0
DICTIONARY
  5
17
102
{ACAD_REACTORS
330
C
102
}
100
AcDbDictionary
280
0
281
1
  3
Standard
350
18
  0
DICTIONARY
  5
19
102
{ACAD_REACTORS
330
C
102
}
100
AcDbDictionary
281
1
  0
DICTIONARY
  5
1A
102
{ACAD_REACTORS
330
C
102
}
100
AcDbDictionary
281
1
  3
Model
350
614
  3
Layout1
350
615
  0
ACDBPLACEHOLDER
  5
F
102
{ACAD_REACTORS
330
E
102
}
  0
MLINESTYLE
  5
18
102
{ACAD_REACTORS
330
17
102
}
100
AcDbMlineStyle
  2
STANDARD
 70
0
  3

 62
256
 51
90.0
 52
90.0
 71
2
 49
0.5
 62
256
  6
BYLAYER
 49
-0.5
 62
256
  6
BYLAYER
  0
LAYOUT
  5
614
102
{ACAD_REACTORS
330
1A
102
}
100
AcDbPlotSettings
  1

  2
none_device
  4
ANSI_C_(22.00_x_17.00_Inches)
  6

 40
0.0
 41
0.0
 42
0.0
 43
0.0
 44
558.8
 45
431.8
 46
0.0
 47
0.0
 48
0.0
 49
0.0
140
0.0
141
0.0
142
1.0
143
1.0
 70
1024
 72
1
 73
0
 74
0
  7

 75
0
147
1.0
148
0.0
149
0.0
100
AcDbLayout
  1
Model
 70
0
 71
0
 10
0.0
 20
0.0
 11
558.8
 21
431.8
 12
0.0
 22
0.0
 32
0.0
 14
0.0
 24
0.0
 34
0.0
 15
0.0
 25
0.0
 35
0.0
146
0.0
 13
0.0
 23
0.0
 33
0.0
 16
1.0
 26
0.0
 36
0.0
 17
0.0
 27
1.0
 37
0.0
 76
0
330
20D
345
0
346
0
  0
LAYOUT
  5
615
102
{ACAD_REACTORS
330
1A
102
}
100
AcDbPlotSettings
  1

  2
none_device
  4
ANSI_C_(22.00_x_17.00_Inches)
  6

 40
0.0
 41
0.0
 42
0.0
 43
0.0
 44
558.8
 45
431.8
 46
0.0
 47
0.0
 48
0.0
 49
0.0
140
0.0
141
0.0
142
1.0
143
1.0
 70
0
 72
1
 73
0
 74
0
  7

 75
0
147
1.0
148
0.0
149
0.0
100
AcDbLayout
  1
Layout1
 70
0
 71
1
 10
0.0
 20
0.0
 11
558.8
 21
431.8
 12
0.0
 22
0.0
 32
0.0
 14
0.0
 24
0.0
 34
0.0
 15
0.0
 25
0.0
 35
0.0
146
0.0
 13
0.0
 23
0.0
 33
0.0
 16
1.0
 26
0.0
 36
0.0
 17
0.0
 27
1.0
 37
0.0
 76
0
330
20E
345
0
346
0
  0
ENDSEC
  0
EOF
