  0
SECTION
  2
HEADER
  9
$ACADVER
  1
AC1021
  9
$DWGCODEPAGE
  3
ANSI_1252
  9
$EXTMAX
 10
297.0
 20
210.0
 30
0.0
  9
$EXTMIN
 10
0.0
 20
0.0
 30
0.0
  9
$LIMMIN
 10
0.0
 20
0.0
  9
$LIMMAX
 10
297.0
 20
210.0
  9
$VIEWCTR
 10
148.5
 20
105.0
  9
$VIEWSIZE
 40
210.0
  9
$CLAYER
  8
0
  9
$LTSCALE
 40
16.335
  9
$CELTYPE
  6
BYLAYER
  9
$DIMSCALE
 40
1.0
  9
$DIMASZ
 40
3.0
  9
$DIMEXO
 40
0.5
  9
$DIMDLI
 40
11.286
  9
$DIMEXE
 40
1.5
  9
$DIMCEN
 40
2.673
  9
$DIMLFAC
 40
1.0
  9
$DIMBLK
  1
_FILLED
  9
$DIMALT
 70
0
  9
$DIMALTF
 40
0.0393700787
  9
$DIMTXT
 40
3.0
  9
$DIMTOL
 70
1
  9
$DIMLIM
 70
0
  9
$DIMTFAC
 40
1.0
  9
$DIMTP
 40
0.01
  9
$DIMTM
 40
0.01
  9
$DIMGAP
 40
0.625
  9
$DIMDSEP
 70
44
  9
$AUNITS
 70
0
  9
$PDMODE
 70
3
  9
$PDSIZE
 40
3.0
  9
$HANDSEED
  5
328
  9
$TILEMODE
 70
1
  9
$MEASUREMENT
 70
1
  9
$INSUNITS
 70
4
  0
ENDSEC
  0
SECTION
  2
CLASSES
  0
CLASS
  1
ACDBDICTIONARYWDFLT
  2
AcDbDictionaryWithDefault
  3
AutoCAD 2000
 90
0
 91
1
280
0
281
0
  0
CLASS
  1
ACDBPLACEHOLDER
  2
AcDbPlaceHolder
  3
AutoCAD 2000
 90
0
 91
1
280
0
281
0
  0
CLASS
  1
LAYOUT
  2
AcDbLayout
  3
AutoCAD 2000
 90
0
 91
0
280
0
281
0
  0
ENDSEC
  0
SECTION
  2
TABLES
  0
TABLE
  2
VPORT
  5
8
100
AcDbSymbolTable
 70
2
  0
VPORT
  5
1F4
100
AcDbSymbolTableRecord
100
AcDbViewportTableRecord
  2
*ACTIVE
 70
0
 10
0.0
 20
0.0
 11
1.0
 21
1.0
 12
148.5
 22
105.0
 13
0.0
 23
0.0
 14
1.0
 24
1.0
 15
0.0
 25
0.0
 16
0.0
 26
0.0
 36
1.0
 17
0.0
 27
0.0
 37
0.0
 40
210.0
 41
1.4142857143
 42
50.0
 43
0.0
 44
0.0
 50
0.0
 51
0.0
 71
0
 72
100
 73
1
 74
1
 75
0
 76
0
 77
0
 78
0
  0
ENDTAB
  0
TABLE
  2
LTYPE
  5
5
100
AcDbSymbolTable
 70
6
  0
LTYPE
  5
14
100
AcDbSymbolTableRecord
100
AcDbLinetypeTableRecord
  2
BYBLOCK
 70
0
  3

 72
65
 73
0
 40
0.0
  0
LTYPE
  5
15
100
AcDbSymbolTableRecord
100
AcDbLinetypeTableRecord
  2
BYLAYER
 70
0
  3

 72
65
 73
0
 40
0.0
  0
LTYPE
  5
16
100
AcDbSymbolTableRecord
100
AcDbLinetypeTableRecord
  2
CONTINUOUS
 70
64
  3
Solid line
 72
65
 73
0
 40
0.0
  0
LTYPE
  5
1F5
100
AcDbSymbolTableRecord
100
AcDbLinetypeTableRecord
  2
CENTER
 70
64
  3
____ _ ____ _ ____ _ ____ _ ____ _ ____ _ ____
 72
65
 73
4
 40
0.6
 49
0.375
 74
0
 49
-0.075
 74
0
 49
0.075
 74
0
 49
-0.075
 74
0
  0
LTYPE
  5
1F6
100
AcDbSymbolTableRecord
100
AcDbLinetypeTableRecord
  2
HIDDEN
 70
64
  3
- - - - - - - - - - - - - - - - - - - -
 72
65
 73
2
 40
0.2
 49
0.1
 74
0
 49
-0.1
 74
0
  0
LTYPE
  5
1F7
100
AcDbSymbolTableRecord
100
AcDbLinetypeTableRecord
  2
PHANTOM
 70
64
  3
_____ _ _ _____ _ _ _____ _ _ _____
 72
65
 73
6
 40
0.8
 49
0.45
 74
0
 49
-0.05
 74
0
 49
0.1
 74
0
 49
-0.05
 74
0
 49
0.1
 74
0
 49
-0.05
 74
0
  0
LTYPE
  5
1F8
100
AcDbSymbolTableRecord
100
AcDbLinetypeTableRecord
  2
DOT
 70
64
  3
. . . . . . . . . . . . . . . . . . . .
 72
65
 73
2
 40
0.2
 49
0.1
 74
0
 49
-0.1
 74
0
  0
LTYPE
  5
1F9
100
AcDbSymbolTableRecord
100
AcDbLinetypeTableRecord
  2
DASHED
 70
64
  3
- - - - - - - - - - - - - - - - - - - -
 72
65
 73
2
 40
0.2
 49
0.1
 74
0
 49
-0.1
 74
0
  0
ENDTAB
  0
TABLE
  2
LAYER
  5
2
100
AcDbSymbolTable
 70
36
  0
LAYER
  5
10
100
AcDbSymbolTableRecord
100
AcDbLayerTableRecord
  2
0
 70
0
 62
7
  6
CONTINUOUS
370
-3
390
F
  0
LAYER
  5
1FA
100
AcDbSymbolTableRecord
100
AcDbLayerTableRecord
  2
DEFAULT_1
 70
0
 62
7
  6
CENTER
370
-3
390
F
  0
LAYER
  5
1FB
100
AcDbSymbolTableRecord
100
AcDbLayerTableRecord
  2
DEFAULT_2
 70
0
 62
7
  6
HIDDEN
370
-3
390
F
  0
LAYER
  5
1FC
100
AcDbSymbolTableRecord
100
AcDbLayerTableRecord
  2
DEFAULT_3
 70
0
 62
7
  6
PHANTOM
370
-3
390
F
  0
LAYER
  5
1FD
100
AcDbSymbolTableRecord
100
AcDbLayerTableRecord
  2
ASSI
 70
0
 62
7
  6
CONTINUOUS
370
-3
390
F
  0
LAYER
  5
1FE
100
AcDbSymbolTableRecord
100
AcDbLayerTableRecord
  2
COORDINATE
 70
0
 62
7
  6
CONTINUOUS
370
-3
390
F
  0
LAYER
  5
1FF
100
AcDbSymbolTableRecord
100
AcDbLayerTableRecord
  2
COPY_PUBLISH
 70
0
 62
7
  6
CONTINUOUS
370
-3
390
F
  0
LAYER
  5
200
100
AcDbSymbolTableRecord
100
AcDbLayerTableRecord
  2
COSMETICI
 70
0
 62
7
  6
CONTINUOUS
370
-3
390
F
  0
LAYER
  5
201
100
AcDbSymbolTableRecord
100
AcDbLayerTableRecord
  2
CURVE
 70
0
 62
7
  6
CONTINUOUS
370
-3
390
F
  0
LAYER
  5
202
100
AcDbSymbolTableRecord
100
AcDbLayerTableRecord
  2
DRAFT
 70
0
 62
7
  6
CONTINUOUS
370
-3
390
F
  0
LAYER
  5
203
100
AcDbSymbolTableRecord
100
AcDbLayerTableRecord
  2
IMPORT_IGES
 70
0
 62
7
  6
CONTINUOUS
370
-3
390
F
  0
LAYER
  5
204
100
AcDbSymbolTableRecord
100
AcDbLayerTableRecord
  2
INTF_1
 70
0
 62
7
  6
CONTINUOUS
370
-3
390
F
  0
LAYER
  5
205
100
AcDbSymbolTableRecord
100
AcDbLayerTableRecord
  2
INTF_RED
 70
0
 62
7
  6
CONTINUOUS
370
-3
390
F
  0
LAYER
  5
206
100
AcDbSymbolTableRecord
100
AcDbLayerTableRecord
  2
NOTE
 70
0
 62
7
  6
CONTINUOUS
370
-3
390
F
  0
LAYER
  5
207
100
AcDbSymbolTableRecord
100
AcDbLayerTableRecord
  2
PIANI
 70
0
 62
7
  6
CONTINUOUS
370
-3
390
F
  0
LAYER
  5
208
100
AcDbSymbolTableRecord
100
AcDbLayerTableRecord
  2
PUNTI
 70
0
 62
7
  6
CONTINUOUS
370
-3
390
F
  0
LAYER
  5
209
100
AcDbSymbolTableRecord
100
AcDbLayerTableRecord
  2
RACCORDO
 70
0
 62
7
  6
CONTINUOUS
370
-3
390
F
  0
LAYER
  5
20A
100
AcDbSymbolTableRecord
100
AcDbLayerTableRecord
  2
SIMBOLI
 70
0
 62
7
  6
CONTINUOUS
370
-3
390
F
  0
LAYER
  5
20B
100
AcDbSymbolTableRecord
100
AcDbLayerTableRecord
  2
SMUSSO
 70
0
 62
7
  6
CONTINUOUS
370
-3
390
F
  0
LAYER
  5
20C
100
AcDbSymbolTableRecord
100
AcDbLayerTableRecord
  2
SNAPLINE
 70
0
 62
7
  6
CONTINUOUS
370
-3
390
F
  0
LAYER
  5
20D
100
AcDbSymbolTableRecord
100
AcDbLayerTableRecord
  2
SUPERFICI
 70
0
 62
7
  6
CONTINUOUS
370
-3
390
F
  0
LAYER
  5
20E
100
AcDbSymbolTableRecord
100
AcDbLayerTableRecord
  2
TRASH
 70
0
 62
7
  6
CONTINUOUS
370
-3
390
F
  0
LAYER
  5
20F
100
AcDbSymbolTableRecord
100
AcDbLayerTableRecord
  2
WHITE
 70
0
 62
7
  6
CONTINUOUS
370
-3
390
F
  0
ENDTAB
  0
TABLE
  2
STYLE
  5
3
100
AcDbSymbolTable
 70
1
  0
STYLE
  5
11
100
AcDbSymbolTableRecord
100
AcDbTextStyleTableRecord
  2
STANDARD
 70
0
 40
0.0
 41
0.8
 50
0.0
 71
0
 42
0.2
  3
txt
  4

  0
STYLE
  5
210
100
AcDbSymbolTableRecord
100
AcDbTextStyleTableRecord
  2
TEXTSTYLE_1
 70
0
 40
0.0
 41
0.8
 50
0.0
 71
0
 42
0.2
  3
gdt
  4

  0
ENDTAB
  0
TABLE
  2
VIEW
  5
6
100
AcDbSymbolTable
 70
0
  0
ENDTAB
  0
TABLE
  2
UCS
  5
7
100
AcDbSymbolTable
 70
0
  0
ENDTAB
  0
TABLE
  2
APPID
  5
9
100
AcDbSymbolTable
 70
1
  0
APPID
  5
211
100
AcDbSymbolTableRecord
100
AcDbRegAppTableRecord
  2
ACAD
 70
0
  0
ENDTAB
  0
TABLE
  2
BLOCK_RECORD
  5
1
100
AcDbSymbolTable
 70
0
  0
BLOCK_RECORD
  5
212
100
AcDbSymbolTableRecord
100
AcDbBlockTableRecord
  2
*Model_Space
  0
BLOCK_RECORD
  5
213
100
AcDbSymbolTableRecord
100
AcDbBlockTableRecord
  2
*Paper_Space
  0
ENDTAB
  0
TABLE
  2
DIMSTYLE
  5
A
100
AcDbSymbolTable
 70
1
100
AcDbDimStyleTable
 71
0
  0
DIMSTYLE
105
214
100
AcDbSymbolTableRecord
100
AcDbDimStyleTableRecord
  2
STANDARD
 70
0
  3

  4

 40
1.0
 41
3.0
 42
0.5
 43
0.38
 44
1.5
 45
0.0
 46
0.0
 47
0.01
 48
0.01
140
3.0
141
0.09
142
0.0
143
25.4
144
1.0
145
0.0
146
1.0
147
0.625
 71
1.0
 72
0.0
 73
0
 74
0
 75
0
 76
0
 77
1
 78
8
170
0
171
2
172
0
173
0
174
0
175
0
176
0
177
0
178
0
270
2
271
2
272
2
273
2
274
2
275
0
280
0
281
0
282
0
283
1
284
8
285
0
286
0
287
3
288
0
340
11
278
44
  0
ENDTAB
  0
ENDSEC
  0
SECTION
  2
BLOCKS
  0
BLOCK
  5
20
100
AcDbEntity
  8
0
100
AcDbBlockBegin
  2
*Model_Space
 70
0
 10
0.0
 20
0.0
 30
0.0
  3
*Model_Space
  1

  0
ENDBLK
  5
21
100
AcDbEntity
  8
0
100
AcDbBlockEnd
  0
BLOCK
  5
1C
100
AcDbEntity
  8
0
100
AcDbBlockBegin
  2
*Paper_Space
 70
0
 10
0.0
 20
0.0
 30
0.0
  3
*Paper_Space
  1

  0
ENDBLK
  5
1D
100
AcDbEntity
  8
0
100
AcDbBlockEnd
  0
ENDSEC
  0
SECTION
  2
ENTITIES
  0
LWPOLYLINE
  5
215
100
AcDbEntity
  8
RACCORDO
100
AcDbPolyline
 62
7
  6
CONTINUOUS
 90
3
 70
0
 10
22.3735863954
 20
-88.3673335646
 10
22.1726050446
 20
-88.3785285499
 10
21.910993921
 20
-88.3837514867
  0
LINE
  5
216
100
AcDbEntity
  8
RACCORDO
100
AcDbLine
 62
7
  6
CONTINUOUS
 10
21.9103590333
 20
-88.3837743991
 11
21.9109818409
 21
-88.3837522158
  0
LWPOLYLINE
  5
217
100
AcDbEntity
  8
DRAFT
100
AcDbPolyline
 62
7
  6
CONTINUOUS
 90
40
 70
0
 10
22.2238264166
 20
-88.6837745653
 10
22.4855433961
 20
-88.6785109752
 10
22.746240207
 20
-88.6627700105
 10
23.0059168491
 20
-88.6365516695
 10
23.2650902753
 20
-88.5997735342
 10
23.5232435323
 20
-88.5525180158
 10
23.7788257615
 20
-88.4950323552
 10
24.0316852528
 20
-88.42728715
 10
24.281973718
 20
-88.3493117895
 10
24.5285954328
 20
-88.2614417008
 10
24.7716498209
 20
-88.1635726449
 10
25.0110374617
 20
-88.0558088424
 10
25.2453643657
 20
-87.9387984087
 10
25.4744445081
 20
-87.8125834242
 10
25.6984639185
 20
-87.6771217864
 10
25.9165866909
 20
-87.5329353363
 10
26.1289608551
 20
-87.3798504009
 10
26.3354383868
 20
-87.2180406277
 10
26.5347392993
 20
-87.0485488397
 10
26.7266046834
 20
-86.8715551362
 10
26.9112934552
 20
-86.6868793923
 10
27.0883023669
 20
-86.495024097
 10
27.2578117211
 20
-86.2957300593
 10
27.4196412218
 20
-86.0892564431
 10
27.5727467243
 20
-85.8768832722
 10
27.7169543923
 20
-85.6587587011
 10
27.8524380689
 20
-85.4347345518
 10
27.9786751282
 20
-85.2056463538
 10
28.0957076913
 20
-84.9713081042
 10
28.2034936432
 20
-84.731905784
 10
28.301384004
 20
-84.488832903
 10
28.3892746982
 20
-84.2421881556
 10
28.4672698064
 20
-83.9918728316
 10
28.5350325823
 20
-83.7389843389
 10
28.5925333821
 20
-83.4833713373
 10
28.6398018532
 20
-83.2251851558
 10
28.6765901861
 20
-82.965977213
 10
28.7028157783
 20
-82.7062646489
 10
28.7185612341
 20
-82.4455303208
 10
28.7238265541
 20
-82.183774227
  0
LINE
  5
218
100
AcDbEntity
  8
RACCORDO
100
AcDbLine
 62
7
  6
CONTINUOUS
 10
-12.4633287331
 20
-88.3837522158
 11
-12.4627246603
 21
-88.3837744004
  0
LWPOLYLINE
  5
219
100
AcDbEntity
  8
RACCORDO
100
AcDbPolyline
 62
7
  6
CONTINUOUS
 90
4
 70
0
 10
-12.9272677641
 20
-88.3671839649
 10
-12.8692393059
 20
-88.3710727822
 10
-12.6288211807
 20
-88.3816520392
 10
-12.4627376077
 20
-88.3837697628
  0
LWPOLYLINE
  5
21A
100
AcDbEntity
  8
RACCORDO
100
AcDbPolyline
 62
7
  6
CONTINUOUS
 90
39
 70
0
 10
-12.9272715507
 20
-88.3672369324
 10
-12.9857054643
 20
-88.3627910005
 10
-13.2455976833
 20
-88.3365410437
 10
-13.505264097
 20
-88.2996728381
 10
-13.7640723155
 20
-88.2522913696
 10
-14.0201251707
 20
-88.1947116025
 10
-14.2731937568
 20
-88.126881296
 10
-14.5235069815
 20
-88.0488526782
 10
-14.7698543987
 20
-87.9610974157
 10
-15.011988059
 20
-87.863719697
 10
-15.2501559152
 20
-87.7566153158
 10
-15.4838913762
 20
-87.639943346
 10
-15.7135894546
 20
-87.5134543607
 10
-15.9388551415
 20
-87.3773977637
 10
-16.158036814
 20
-87.2326808745
 10
-16.3709980391
 20
-87.0792385325
 10
-16.5778752556
 20
-86.9171358731
 10
-16.7774261496
 20
-86.7474756615
 10
-16.9693125656
 20
-86.5705495704
 10
-17.1538726661
 20
-86.3860659022
 10
-17.3308786147
 20
-86.1942523682
 10
-17.5006209645
 20
-85.99477333
 10
-17.6628091688
 20
-85.7879643982
 10
-17.816343742
 20
-85.5750601597
 10
-17.9611622326
 20
-85.3559208317
 10
-18.097327099
 20
-85.130686172
 10
-18.223926221
 20
-84.9010100838
 10
-18.3407096888
 20
-84.6672860349
 10
-18.4479274187
 20
-84.4291205394
 10
-18.5454170305
 20
-84.1869870739
 10
-18.6332810263
 20
-83.9406424248
 10
-18.711416909
 20
-83.6903297881
 10
-18.7793547999
 20
-83.4372522582
 10
-18.8370438504
 20
-83.1811801043
 10
-18.8845349126
 20
-82.9223430449
 10
-18.9215106586
 20
-82.6626333553
 10
-18.9478653133
 20
-82.4026817951
 10
-18.9637046536
 20
-82.1418576028
 10
-18.9690286803
 20
-81.8801607772
  0
LWPOLYLINE
  5
21B
100
AcDbEntity
  8
RACCORDO
100
AcDbPolyline
 62
253
  6
CONTINUOUS
 90
34
 70
0
 10
17.9593608435
 20
-82.1170686308
 10
18.2044695887
 20
-82.0893406626
 10
18.4430648207
 20
-82.0527165138
 10
18.6748831431
 20
-82.0073938886
 10
18.8993516892
 20
-81.953443
 10
19.1165760861
 20
-81.8912049592
 10
19.3273353095
 20
-81.821260558
 10
19.5315333849
 20
-81.7438326554
 10
19.7288927565
 20
-81.659063049
 10
19.9199321429
 20
-81.5673689469
 10
20.1045350493
 20
-81.4689657821
 10
20.2825141962
 20
-81.3639834135
 10
20.4542852001
 20
-81.2526788216
 10
20.6196506488
 20
-81.1353484731
 10
20.7785561553
 20
-81.0120269189
 10
20.9316119383
 20
-80.8825304585
 10
21.0786998338
 20
-80.7471188989
 10
21.2196840035
 20
-80.6058141266
 10
21.3550927396
 20
-80.4580091195
 10
21.4848841583
 20
-80.3038442786
 10
21.6087930545
 20
-80.1434194509
 10
21.7269417238
 20
-79.9760144254
 10
21.8393002528
 20
-79.8016419123
 10
21.9455276547
 20
-79.6205390962
 10
22.0452339557
 20
-79.4323100581
 10
22.1383077091
 20
-79.2370157419
 10
22.2244781979
 20
-79.0349201852
 10
22.3031184658
 20
-78.8259537219
 10
22.3740910492
 20
-78.6102240131
 10
22.4371921632
 20
-78.3880489158
 10
22.49174209
 20
-78.1597073465
 10
22.5374474223
 20
-77.9254687574
 10
22.574368468
 20
-77.6855857214
 10
22.6023974641
 20
-77.4403364304
  0
LWPOLYLINE
  5
21C
100
AcDbEntity
  8
RACCORDO
100
AcDbPolyline
 62
7
  6
CONTINUOUS
 90
40
 70
0
 10
21.4766429615
 20
-87.3798251163
 10
21.7262968799
 20
-87.3747773226
 10
21.974634919
 20
-87.3598493348
 10
22.2213092776
 20
-87.3350858388
 10
22.4659486602
 20
-87.3005234582
 10
22.7082412512
 20
-87.2562565425
 10
22.9479339748
 20
-87.2024321417
 10
23.1846961407
 20
-87.1391564778
 10
23.4182018872
 20
-87.0665245366
 10
23.6482102291
 20
-86.9846757661
 10
23.8744171779
 20
-86.8937442789
 10
24.0964994732
 20
-86.7938619076
 10
24.3141926003
 20
-86.6851742513
 10
24.5271955361
 20
-86.5678569056
 10
24.7352180279
 20
-86.4420695757
 10
24.9380171296
 20
-86.3079433965
 10
25.1353202853
 20
-86.1656799671
 10
25.3268459275
 20
-86.0154746532
 10
25.5123424273
 20
-85.8574574331
 10
25.6915524665
 20
-85.6918684482
 10
25.8642225473
 20
-85.5189282596
 10
26.0301112537
 20
-85.3387459183
 10
26.1889834682
 20
-85.1515971441
 10
26.3406092158
 20
-84.9577279352
 10
26.4847563774
 20
-84.7572098205
 10
26.6212174791
 20
-84.5503487644
 10
26.7497812063
 20
-84.3374200675
 10
26.8702084217
 20
-84.1184568146
 10
26.9823127016
 20
-83.8938162172
 10
27.0859128083
 20
-83.6637857708
 10
27.1807702501
 20
-83.4283027531
 10
27.266729901
 20
-83.1877609837
 10
27.3436255572
 20
-82.9424776153
 10
27.4111867947
 20
-82.6922874572
 10
27.4692855638
 20
-82.4376627197
 10
27.5177791687
 20
-82.1789215086
 10
27.5563471764
 20
-81.9156887016
 10
27.5847910165
 20
-81.6481373852
 10
27.6030705277
 20
-81.3769870597
 10
27.6111001859
 20
-81.1027104219
  0
LWPOLYLINE
  5
21D
100
AcDbEntity
  8
RACCORDO
100
AcDbPolyline
 62
7
  6
CONTINUOUS
 90
4
 70
0
 10
21.9103973033
 20
-88.3837709684
 10
22.074032298
 20
-88.3817151726
 10
22.3120121084
 20
-88.3713775494
 10
22.3735826466
 20
-88.3672809715
  0
LINE
  5
21E
100
AcDbEntity
  8
DRAFT
100
AcDbLine
 62
7
  6
CONTINUOUS
 10
22.2238264166
 20
-88.6837745653
 11
-12.7761733084
 21
-88.6837745647
  0
LINE
  5
21F
100
AcDbEntity
  8
ASSI
100
AcDbLine
 62
7
  6
CONTINUOUS
 10
-12.4627296271
 20
-88.383774401
 11
21.9103846482
 21
-88.383774401
  0
LINE
  5
220
100
AcDbEntity
  8
SMUSSO
100
AcDbLine
 62
7
  6
CONTINUOUS
 10
21.4238265541
 20
-88.3736794441
 11
14.2738265541
 21
-88.3736794441
  0
LINE
  5
221
100
AcDbEntity
  8
SMUSSO
100
AcDbLine
 62
7
  6
CONTINUOUS
 10
-4.8261734459
 20
-88.3736794441
 11
-11.9761734459
 21
-88.3736794441
  0
LINE
  5
222
100
AcDbEntity
  8
DRAFT
100
AcDbLine
 62
7
  6
CONTINUOUS
 10
-1.2391687082
 20
-87.8872585026
 11
10.6868218165
 21
-87.8872585026
  0
LINE
  5
223
100
AcDbEntity
  8
SMUSSO
100
AcDbLine
 62
7
  6
CONTINUOUS
 10
-11.9761734459
 20
-87.633774401
 11
-4.8261734459
 21
-87.633774401
  0
LINE
  5
224
100
AcDbEntity
  8
SMUSSO
100
AcDbLine
 62
7
  6
CONTINUOUS
 10
14.2738265541
 20
-87.633774401
 11
21.4238265541
 21
-87.633774401
  0
LINE
  5
225
100
AcDbEntity
  8
RACCORDO
100
AcDbLine
 62
7
  6
CONTINUOUS
 10
-12.0289888359
 20
-87.3798268353
 11
-1.2674459134
 21
-87.3798268353
  0
LINE
  5
226
100
AcDbEntity
  8
RACCORDO
100
AcDbLine
 62
7
  6
CONTINUOUS
 10
10.7150990217
 20
-87.3798268353
 11
21.4766430765
 21
-87.3798268353
  0
LINE
  5
227
100
AcDbEntity
  8
RACCORDO
100
AcDbLine
 62
7
  6
CONTINUOUS
 10
10.5684179237
 20
-87.183774401
 11
21.9935703331
 21
-87.183774401
  0
LINE
  5
228
100
AcDbEntity
  8
RACCORDO
100
AcDbLine
 62
7
  6
CONTINUOUS
 10
-1.1207648154
 20
-87.183774401
 11
-12.5458918406
 21
-87.183774401
  0
LINE
  5
229
100
AcDbEntity
  8
DRAFT
100
AcDbLine
 62
7
  6
CONTINUOUS
 10
-1.0870792674
 20
-86.3667696633
 11
10.5347323757
 21
-86.3667696633
  0
LINE
  5
22A
100
AcDbEntity
  8
DRAFT
100
AcDbLine
 62
7
  6
CONTINUOUS
 10
10.5331813465
 20
-86.3225448116
 11
-1.0855282382
 21
-86.3225448116
  0
LINE
  5
22B
100
AcDbEntity
  8
DRAFT
100
AcDbLine
 62
7
  6
CONTINUOUS
 10
-1.0261734459
 20
-84.2724071165
 11
10.4738265541
 21
-84.2724071165
  0
LINE
  5
22C
100
AcDbEntity
  8
RACCORDO
100
AcDbLine
 62
253
  6
CONTINUOUS
 10
-8.5117081707
 20
-82.1170655831
 11
17.9593607125
 21
-82.1170655188
  0
LWPOLYLINE
  5
22D
100
AcDbEntity
  8
RACCORDO
100
AcDbPolyline
 62
7
  6
CONTINUOUS
 90
3
 70
0
 10
-12.463346443
 20
-88.3837511469
 10
-12.7249550508
 20
-88.378527701
 10
-12.9272715507
 20
-88.3672369324
  0
LWPOLYLINE
  5
22E
100
AcDbEntity
  8
RACCORDO
100
AcDbPolyline
 62
7
  6
CONTINUOUS
 90
37
 70
0
 10
-12.5458918406
 20
-87.183774401
 10
-12.7879958365
 20
-87.1558520905
 10
-13.0276166078
 20
-87.118916824
 10
-13.2647541543
 20
-87.0729686015
 10
-13.4997108433
 20
-87.0179323928
 10
-13.7321843075
 20
-86.9538832281
 10
-13.9612674454
 20
-86.881046198
 10
-14.187055155
 20
-86.7993245094
 10
-14.4094525382
 20
-86.7088149555
 10
-14.6272677986
 20
-86.6100330064
 10
-14.8405761096
 20
-86.5028052806
 10
-15.0493022977
 20
-86.3873051597
 10
-15.2520290463
 20
-86.264568259
 10
-15.4485613256
 20
-86.1345682902
 10
-15.6390941653
 20
-85.9973315416
 10
-15.822795338
 20
-85.8539724937
 10
-15.9992804627
 20
-85.7048310322
 10
-16.1689339203
 20
-85.5495672714
 10
-16.3320766266
 20
-85.3882760348
 10
-16.4889593798
 20
-85.2207915103
 10
-16.6393313817
 20
-85.04727951
 10
-16.7827611529
 20
-84.8683322937
 10
-16.9192708679
 20
-84.6838817749
 10
-17.0488383523
 20
-84.49399604
 10
-17.1709656041
 20
-84.2994716078
 10
-17.2855829147
 20
-84.100391395
 10
-17.3927599927
 20
-83.8966724849
 10
-17.4922079612
 20
-83.6888626458
 10
-17.5839413723
 20
-83.4769191668
 10
-17.6679456741
 20
-83.2608847588
 10
-17.7438883338
 20
-83.041435323
 10
-17.8117848516
 20
-82.8182388597
 10
-17.8716197275
 20
-82.5916273687
 10
-17.9230139281
 20
-82.3632727498
 10
-17.9658411092
 20
-82.1337323031
 10
-18.0002276152
 20
-81.9024487286
 10
-18.0261734459
 20
-81.6694220262
  0
LWPOLYLINE
  5
22F
100
AcDbEntity
  8
RACCORDO
100
AcDbPolyline
 62
253
  6
CONTINUOUS
 90
10
 70
0
 10
-18.9690286908
 20
-81.8801606044
 10
-18.9592205056
 20
-81.8835991632
 10
-18.9453193392
 20
-81.8813695358
 10
-18.927387868
 20
-81.8734717223
 10
-18.9055138625
 20
-81.8598819537
 10
-18.879744145
 20
-81.8406239991
 10
-18.8500429378
 20
-81.815769165
 10
-18.8163995959
 20
-81.7853412204
 10
-18.7788702147
 20
-81.7493163963
 10
-18.7374824932
 20
-81.7076946929
  0
LWPOLYLINE
  5
230
100
AcDbEntity
  8
RACCORDO
100
AcDbPolyline
 62
253
  6
CONTINUOUS
 90
10
 70
0
 10
21.9103739074
 20
78.516225599
 10
21.9019473248
 20
78.5129665823
 10
21.8906482195
 20
78.5021410551
 10
21.8770845253
 20
78.4838060759
 10
21.8612495236
 20
78.4580777575
 10
21.8431499331
 20
78.4250249381
 10
21.8228059092
 20
78.3845843004
 10
21.8002241707
 20
78.3367124284
 10
21.7753979989
 20
78.2814705656
 10
21.7483273939
 20
78.2188812953
  0
LWPOLYLINE
  5
231
100
AcDbEntity
  8
RACCORDO
100
AcDbPolyline
 62
253
  6
CONTINUOUS
 90
34
 70
0
 10
17.9593605231
 20
-80.7014663514
 10
18.1437197691
 20
-80.6968848932
 10
18.3220930662
 20
-80.6852270141
 10
18.4944804146
 20
-80.6664927141
 10
18.6607459788
 20
-80.6404023777
 10
18.8210255943
 20
-80.6072356204
 10
18.9757267671
 20
-80.5678312883
 10
19.1249077576
 20
-80.5222522032
 10
19.2685103055
 20
-80.4704355433
 10
19.4067671354
 20
-80.4130316884
 10
19.5397002121
 20
-80.350094473
 10
19.6672875708
 20
-80.2815700626
 10
19.7896960416
 20
-80.2079473337
 10
19.9068863011
 20
-80.1293473025
 10
20.0188976727
 20
-80.0456489527
 10
20.1260149572
 20
-79.9569781124
 10
20.2282797386
 20
-79.8634600747
 10
20.3256504329
 20
-79.7649695465
 10
20.4182870889
 20
-79.6612564767
 10
20.5063131904
 20
-79.5523681031
 10
20.5896052535
 20
-79.438257188
 10
20.6679528755
 20
-79.3185319672
 10
20.7414924714
 20
-79.1931176085
 10
20.8100876261
 20
-79.0620889442
 10
20.8731186916
 20
-78.9252787067
 10
20.9306404903
 20
-78.7825956246
 10
20.9825981997
 20
-78.6341309693
 10
21.0282077042
 20
-78.4799912878
 10
21.0674629691
 20
-78.3200585492
 10
21.100370029
 20
-78.1544507844
 10
21.126162872
 20
-77.9836286337
 10
21.1445861609
 20
-77.8077456438
 10
21.155895233
 20
-77.6266482679
 10
21.1600900882
 20
-77.4403365061
  0
LWPOLYLINE
  5
232
100
AcDbEntity
  8
RACCORDO
100
AcDbPolyline
 62
253
  6
CONTINUOUS
 90
3
 70
0
 10
27.6110997044
 20
-81.1027104175
 10
27.5846628878
 20
-81.1027593722
 10
27.4738265541
 20
-81.1031573047
  0
LINE
  5
233
100
AcDbEntity
  8
RACCORDO
100
AcDbLine
 62
253
  6
CONTINUOUS
 10
-18.1637564525
 20
-81.036186495
 11
-18.0261734459
 21
-81.0361865149
  0
LINE
  5
234
100
AcDbEntity
  8
RACCORDO
100
AcDbLine
 62
253
  6
CONTINUOUS
 10
27.6114095877
 20
-81.0361930469
 11
27.4738265541
 21
-81.0361929754
  0
LINE
  5
235
100
AcDbEntity
  8
RACCORDO
100
AcDbLine
 62
253
  6
CONTINUOUS
 10
-8.5117078973
 20
-80.7014661353
 11
17.9593605231
 21
-80.7014663514
  0
LINE
  5
236
100
AcDbEntity
  8
RACCORDO
100
AcDbLine
 62
253
  6
CONTINUOUS
 10
-11.712437188
 20
-77.440336919
 11
-13.1547448934
 21
-77.4403367014
  0
LINE
  5
237
100
AcDbEntity
  8
RACCORDO
100
AcDbLine
 62
253
  6
CONTINUOUS
 10
21.1600900882
 20
-77.4403365061
 11
22.6023981293
 21
-77.440336462
  0
LWPOLYLINE
  5
238
100
AcDbEntity
  8
RACCORDO
100
AcDbPolyline
 62
253
  6
CONTINUOUS
 90
3
 70
0
 10
-18.1634458333
 20
-81.1027098298
 10
-18.0294542273
 20
-81.103135938
 10
-18.0261734459
 20
-81.1031569116
  0
LINE
  5
239
100
AcDbEntity
  8
RACCORDO
100
AcDbLine
 62
253
  6
CONTINUOUS
 10
19.6238265541
 20
-69.083774401
 11
13.8238265541
 21
-69.083774401
  0
LINE
  5
23A
100
AcDbEntity
  8
RACCORDO
100
AcDbLine
 62
253
  6
CONTINUOUS
 10
-4.3761734459
 20
-69.083774401
 11
-10.1761734459
 21
-69.083774401
  0
LINE
  5
23B
100
AcDbEntity
  8
RACCORDO
100
AcDbLine
 62
7
  6
CONTINUOUS
 10
19.4738265541
 20
-68.933774401
 11
13.9738265541
 21
-68.933774401
  0
LINE
  5
23C
100
AcDbEntity
  8
RACCORDO
100
AcDbLine
 62
7
  6
CONTINUOUS
 10
-4.5261734459
 20
-68.933774401
 11
-10.0261734459
 21
-68.933774401
  0
LINE
  5
23D
100
AcDbEntity
  8
RACCORDO
100
AcDbLine
 62
253
  6
CONTINUOUS
 10
-10.0261734459
 20
-60.9626617615
 11
-4.5261734459
 21
-60.9626617615
  0
LINE
  5
23E
100
AcDbEntity
  8
RACCORDO
100
AcDbLine
 62
253
  6
CONTINUOUS
 10
13.9738265541
 20
-60.9626617615
 11
19.4738265541
 21
-60.9626617615
  0
LINE
  5
23F
100
AcDbEntity
  8
RACCORDO
100
AcDbLine
 62
253
  6
CONTINUOUS
 10
-10.0261734459
 20
-60.9069531601
 11
-4.5261734459
 21
-60.9069531601
  0
LINE
  5
240
100
AcDbEntity
  8
RACCORDO
100
AcDbLine
 62
253
  6
CONTINUOUS
 10
13.9738265541
 20
-60.9069531601
 11
19.4738265541
 21
-60.9069531601
  0
LINE
  5
241
100
AcDbEntity
  8
RACCORDO
100
AcDbLine
 62
253
  6
CONTINUOUS
 10
-10.1204648444
 20
-55.9605956419
 11
-4.4318820473
 21
-55.9605956419
  0
LINE
  5
242
100
AcDbEntity
  8
RACCORDO
100
AcDbLine
 62
253
  6
CONTINUOUS
 10
13.8795351556
 20
-55.9605956419
 11
19.5681179527
 21
-55.9605956419
  0
LINE
  5
243
100
AcDbEntity
  8
RACCORDO
100
AcDbLine
 62
253
  6
CONTINUOUS
 10
-10.1761734459
 20
-55.9048870404
 11
-4.3761734459
 21
-55.9048870404
  0
LINE
  5
244
100
AcDbEntity
  8
RACCORDO
100
AcDbLine
 62
253
  6
CONTINUOUS
 10
13.8238265541
 20
-55.9048870404
 11
19.6238265541
 21
-55.9048870404
  0
LINE
  5
245
100
AcDbEntity
  8
RACCORDO
100
AcDbLine
 62
7
  6
CONTINUOUS
 10
-4.4678782588
 20
-68.9920813158
 11
-4.3853887676
 21
-69.0744894886
  0
LINE
  5
246
100
AcDbEntity
  8
RACCORDO
100
AcDbLine
 62
7
  6
CONTINUOUS
 10
-4.4761477925
 20
-68.9837618073
 11
-4.4678782588
 21
-68.9920813158
  0
LINE
  5
247
100
AcDbEntity
  8
RACCORDO
100
AcDbLine
 62
7
  6
CONTINUOUS
 10
-4.3853887676
 20
-69.0744894886
 11
-4.3761734459
 21
-69.083774401
  0
LWPOLYLINE
  5
248
100
AcDbEntity
  8
RACCORDO
100
AcDbPolyline
 62
7
  6
CONTINUOUS
 90
3
 70
0
 10
-4.4986217898
 20
-68.9612704457
 10
-4.4916037449
 20
-68.9683563722
 10
-4.4761477925
 20
-68.9837618073
  0
LINE
  5
249
100
AcDbEntity
  8
RACCORDO
100
AcDbLine
 62
253
  6
CONTINUOUS
 10
27.4738266998
 20
71.1669658557
 11
26.4317339686
 21
70.3944006608
  0
LINE
  5
24A
100
AcDbEntity
  8
RACCORDO
100
AcDbLine
 62
253
  6
CONTINUOUS
 10
26.4317339686
 20
70.3944006608
 11
22.6023981032
 21
67.5727881578
  0
LINE
  5
24B
100
AcDbEntity
  8
RACCORDO
100
AcDbLine
 62
253
  6
CONTINUOUS
 10
22.6023981293
 20
-77.4403364732
 11
26.4509536402
 21
-80.2761638802
  0
LINE
  5
24C
100
AcDbEntity
  8
RACCORDO
100
AcDbLine
 62
253
  6
CONTINUOUS
 10
26.4509536402
 20
-80.2761638802
 11
27.4738268347
 21
-81.0345147645
  0
LINE
  5
24D
100
AcDbEntity
  8
RACCORDO
100
AcDbLine
 62
7
  6
CONTINUOUS
 10
-10.1204648444
 20
-55.9605956419
 11
-10.1761734459
 21
-55.9048870404
  0
LWPOLYLINE
  5
24E
100
AcDbEntity
  8
RACCORDO
100
AcDbPolyline
 62
7
  6
CONTINUOUS
 90
7
 70
0
 10
-4.5261734459
 20
-68.933774401
 10
-4.5254633893
 20
-68.9347366731
 10
-4.5234313774
 20
-68.9367184202
 10
-4.5202282046
 20
-68.9397196422
 10
-4.516018787
 20
-68.9438616179
 10
-4.5109472145
 20
-68.9490230685
 10
-4.4986217898
 20
-68.9612704457
  0
LWPOLYLINE
  5
24F
100
AcDbEntity
  8
RACCORDO
100
AcDbPolyline
 62
253
  6
CONTINUOUS
 90
12
 70
0
 10
28.1851392969
 20
71.840149659
 10
28.1513816317
 20
71.8051277462
 10
28.1153314518
 20
71.7666839907
 10
28.0769788028
 20
71.7248183924
 10
28.0364337089
 20
71.6797685583
 10
27.9935797057
 20
71.6312968814
 10
27.9480098096
 20
71.5786905409
 10
27.8995577692
 20
71.5219394079
 10
27.8482460163
 20
71.4610536112
 10
27.7938755978
 20
71.3953507167
 10
27.7363156567
 20
71.3246032464
 10
27.611409624
 20
71.1686570125
  0
LINE
  5
250
100
AcDbEntity
  8
RACCORDO
100
AcDbLine
 62
7
  6
CONTINUOUS
 10
19.5321217412
 20
-68.9920813158
 11
19.6146112324
 21
-69.0744894886
  0
LINE
  5
251
100
AcDbEntity
  8
RACCORDO
100
AcDbLine
 62
7
  6
CONTINUOUS
 10
19.5238522075
 20
-68.9837618073
 11
19.5321217412
 21
-68.9920813158
  0
LINE
  5
252
100
AcDbEntity
  8
RACCORDO
100
AcDbLine
 62
7
  6
CONTINUOUS
 10
19.6146112324
 20
-69.0744894886
 11
19.6238265541
 21
-69.083774401
  0
LWPOLYLINE
  5
253
100
AcDbEntity
  8
RACCORDO
100
AcDbPolyline
 62
7
  6
CONTINUOUS
 90
3
 70
0
 10
19.5013782102
 20
-68.9612704457
 10
19.5083962551
 20
-68.9683563722
 10
19.5238522075
 20
-68.9837618073
  0
LWPOLYLINE
  5
254
100
AcDbEntity
  8
RACCORDO
100
AcDbPolyline
 62
253
  6
CONTINUOUS
 90
10
 70
0
 10
28.1851356443
 20
-81.7076947404
 10
28.2250665394
 20
-81.7480514615
 10
28.2616424046
 20
-81.7832216739
 10
28.2947668585
 20
-81.8132053776
 10
28.3241973481
 20
-81.8381518435
 10
28.350023073
 20
-81.8579118007
 10
28.3724617178
 20
-81.8720374367
 10
28.3913107274
 20
-81.8803794805
 10
28.4061507448
 20
-81.8830872031
 10
28.4166817989
 20
-81.8801606044
  0
LWPOLYLINE
  5
255
100
AcDbEntity
  8
RACCORDO
100
AcDbPolyline
 62
7
  6
CONTINUOUS
 90
34
 70
0
 10
-18.0261734459
 20
71.8018857583
 10
-17.9958110308
 20
72.0659889891
 10
-17.9552635512
 20
72.3262484936
 10
-17.9045310071
 20
72.582664272
 10
-17.8434472986
 20
72.8355065688
 10
-17.7721785255
 20
73.0845051395
 10
-17.6912229879
 20
73.3288492498
 10
-17.6006408157
 20
73.5684324818
 10
-17.5003718788
 20
73.8033612534
 10
-17.390734088
 20
74.0331440846
 10
-17.2716007513
 20
74.2580042352
 10
-17.1430985605
 20
74.4777184454
 10
-17.0059255021
 20
74.6911254558
 10
-16.8599528349
 20
74.8982395322
 10
-16.7053093001
 20
75.0990464089
 10
-16.5430791074
 20
75.2923420289
 10
-16.373468538
 20
75.477841119
 10
-16.1962713108
 20
75.6558289524
 10
-16.0119527924
 20
75.8259572917
 10
-15.820530468
 20
75.9882771662
 10
-15.6219868525
 20
76.1427375467
 10
-15.4167348571
 20
76.2888371079
 10
-15.2044346507
 20
76.4267474337
 10
-14.9854260643
 20
76.5562969402
 10
-14.7611415028
 20
76.6764695504
 10
-14.5316494941
 20
76.7871075906
 10
-14.2968815102
 20
76.8883687344
 10
-14.0580643723
 20
76.9797099264
 10
-13.8154835344
 20
77.0610289027
 10
-13.5688535426
 20
77.1324279272
 10
-13.3185448562
 20
77.1936707354
 10
-13.0646809616
 20
77.2446785728
 10
-12.8071383724
 20
77.285530194
 10
-12.5459170885
 20
77.316225599
  0
LINE
  5
256
100
AcDbEntity
  8
RACCORDO
100
AcDbLine
 62
253
  6
CONTINUOUS
 10
21.3539223602
 20
77.3162262658
 11
21.2714469353
 21
77.1909217818
  0
LINE
  5
257
100
AcDbEntity
  8
RACCORDO
100
AcDbLine
 62
253
  6
CONTINUOUS
 10
21.2714469353
 20
77.1909217818
 11
20.86541827
 21
76.5822237459
  0
LINE
  5
258
100
AcDbEntity
  8
RACCORDO
100
AcDbLine
 62
253
  6
CONTINUOUS
 10
18.4608067869
 20
72.9979664672
 11
17.9593609506
 21
72.2495170157
  0
LINE
  5
259
100
AcDbEntity
  8
RACCORDO
100
AcDbLine
 62
253
  6
CONTINUOUS
 10
20.86541827
 20
76.5822237459
 11
18.4608067869
 21
72.9979664672
  0
LINE
  5
25A
100
AcDbEntity
  8
RACCORDO
100
AcDbLine
 62
7
  6
CONTINUOUS
 10
13.8795351556
 20
-55.9605956419
 11
13.8238265541
 21
-55.9048870404
  0
LWPOLYLINE
  5
25B
100
AcDbEntity
  8
RACCORDO
100
AcDbPolyline
 62
253
  6
CONTINUOUS
 90
13
 70
0
 10
27.611409624
 20
-81.0362041266
 10
27.6731246191
 20
-81.1137266717
 10
27.7320840153
 20
-81.1870421193
 10
27.7883256446
 20
-81.2561504692
 10
27.8417663423
 20
-81.3208310005
 10
27.8925761604
 20
-81.3813044341
 10
27.9411247958
 20
-81.4382329338
 10
27.9874943578
 20
-81.4917998096
 10
28.0315740952
 20
-81.5418217514
 10
28.0733903728
 20
-81.5884109921
 10
28.112939089
 20
-81.6316049427
 10
28.1501925051
 20
-81.6713661921
 10
28.1851356443
 20
-81.7076947404
  0
LINE
  5
25C
100
AcDbEntity
  8
RACCORDO
100
AcDbLine
 62
253
  6
CONTINUOUS
 10
17.9593607125
 20
-82.1170655188
 11
20.4870333235
 21
-85.8842607951
  0
LWPOLYLINE
  5
25D
100
AcDbEntity
  8
RACCORDO
100
AcDbPolyline
 62
253
  6
CONTINUOUS
 90
3
 70
0
 10
20.4870333235
 20
-85.8842607951
 10
21.2735714281
 20
-87.0616258818
 10
21.3539220226
 20
-87.1837745923
  0
LINE
  5
25E
100
AcDbEntity
  8
SMUSSO
100
AcDbLine
 62
7
  6
CONTINUOUS
 10
-4.8261734459
 20
-88.3736794441
 11
-5.0261734459
 21
-87.673215381
  0
LWPOLYLINE
  5
25F
100
AcDbEntity
  8
RACCORDO
100
AcDbPolyline
 62
7
  6
CONTINUOUS
 90
40
 70
0
 10
-18.1634463279
 20
-81.1027098344
 10
-18.1554171888
 20
-81.3769836342
 10
-18.1371383869
 20
-81.6481315367
 10
-18.1086952484
 20
-81.915680815
 10
-18.0701278322
 20
-82.1789119487
 10
-18.0216347342
 20
-82.4376519038
 10
-17.9635363597
 20
-82.6922758879
 10
-17.8959753621
 20
-82.942465893
 10
-17.8190797886
 20
-83.1877496227
 10
-17.733120083
 20
-83.4282920658
 10
-17.6382623663
 20
-83.663776197
 10
-17.5346617972
 20
-83.8938080517
 10
-17.4225571317
 20
-84.1184497632
 10
-17.3021298491
 20
-84.3374134906
 10
-17.1735662196
 20
-84.5503424097
 10
-17.0371050529
 20
-84.7572039423
 10
-16.8929573
 20
-84.957723218
 10
-16.7413307202
 20
-85.1515937837
 10
-16.5824581131
 20
-85.3387432698
 10
-16.4165700329
 20
-85.5189251832
 10
-16.2439011766
 20
-85.691864439
 10
-16.064692136
 20
-85.8574528293
 10
-15.8791958781
 20
-86.0154701822
 10
-15.6876701646
 20
-86.1656758754
 10
-15.4903672293
 20
-86.3079394421
 10
-15.2875690174
 20
-86.4420653131
 10
-15.0795477665
 20
-86.5678521832
 10
-14.8665460012
 20
-86.6851691956
 10
-14.6488538279
 20
-86.7938567041
 10
-14.4267723923
 20
-86.8937390256
 10
-14.2005661632
 20
-86.9846705705
 10
-13.9705583011
 20
-87.0665195164
 10
-13.7370528749
 20
-87.1391517027
 10
-13.5002911003
 20
-87.2024276225
 10
-13.2605994861
 20
-87.2562521719
 10
-13.0183080808
 20
-87.300519305
 10
-12.7736682301
 20
-87.3350822
 10
-12.5269911479
 20
-87.3598463885
 10
-12.2786486929
 20
-87.374774979
 10
-12.028988671
 20
-87.3798231103
  0
LWPOLYLINE
  5
260
100
AcDbEntity
  8
DRAFT
100
AcDbPolyline
 62
7
  6
CONTINUOUS
 90
40
 70
0
 10
-19.2761743062
 20
-82.1837742277
 10
-19.2709085536
 20
-82.4455304681
 10
-19.2551628177
 20
-82.7062647352
 10
-19.228937098
 20
-82.9659770306
 10
-19.1921487717
 20
-83.225184556
 10
-19.1448804596
 20
-83.4833701125
 10
-19.0873800261
 20
-83.7389821051
 10
-19.019618003
 20
-83.9918687308
 10
-18.9416238549
 20
-84.2421818038
 10
-18.8537338457
 20
-84.4888251613
 10
-18.755843665
 20
-84.7318982122
 10
-18.6480576181
 20
-84.9713015634
 10
-18.5310248914
 20
-85.2056408559
 10
-18.4047875635
 20
-85.4347299537
 10
-18.2693035498
 20
-85.6587550146
 10
-18.1250957918
 20
-85.8768801243
 10
-17.9719906742
 20
-86.0892531545
 10
-17.8101618055
 20
-86.2957262572
 10
-17.640652963
 20
-86.4950199434
 10
-17.4636443342
 20
-86.6868752416
 10
-17.2789557249
 20
-86.8715511505
 10
-17.087090341
 20
-87.0485451391
 10
-16.8877890741
 20
-87.2180374408
 10
-16.6813110258
 20
-87.3798478479
 10
-16.4689367179
 20
-87.5329331696
 10
-16.2508144814
 20
-87.6771195309
 10
-16.0267959797
 20
-87.8125808324
 10
-15.797716734
 20
-87.9387955489
 10
-15.5633908696
 20
-88.0558058195
 10
-15.3240042564
 20
-88.1635695274
 10
-15.0809500335
 20
-88.2614387636
 10
-14.834326922
 20
-88.3493095377
 10
-14.5840361978
 20
-88.4272858586
 10
-14.3311748347
 20
-88.4950318161
 10
-14.0755915961
 20
-88.5525178152
 10
-13.8174377169
 20
-88.5997734639
 10
-13.55826388
 20
-88.6365516546
 10
-13.29858698
 20
-88.6627700207
 10
-13.0378901228
 20
-88.6785109356
 10
-12.7761733084
 20
-88.683774401
  0
LINE
  5
261
100
AcDbEntity
  8
RACCORDO
100
AcDbLine
 62
7
  6
CONTINUOUS
 10
-18.1636936837
 20
-81.0657746187
 11
-18.1634463279
 21
-81.1027098344
  0
LINE
  5
262
100
AcDbEntity
  8
RACCORDO
100
AcDbLine
 62
7
  6
CONTINUOUS
 10
-18.9727267137
 20
-69.0646924817
 11
-18.9690286908
 21
-81.8801606044
  0
LINE
  5
263
100
AcDbEntity
  8
DRAFT
100
AcDbLine
 62
7
  6
CONTINUOUS
 10
-19.2761743062
 20
-82.1837742277
 11
-19.2761743036
 21
72.3162254257
  0
LINE
  5
264
100
AcDbEntity
  8
RACCORDO
100
AcDbLine
 62
7
  6
CONTINUOUS
 10
-18.9757261878
 20
-43.4235462815
 11
-18.9727267137
 21
-69.0646924817
  0
LINE
  5
265
100
AcDbEntity
  8
RACCORDO
100
AcDbLine
 62
7
  6
CONTINUOUS
 10
-18.0261734459
 20
-81.6694220262
 11
-18.0261734459
 21
71.8018857583
  0
LINE
  5
266
100
AcDbEntity
  8
RACCORDO
100
AcDbLine
 62
7
  6
CONTINUOUS
 10
-18.974761321
 20
46.3748276621
 11
-18.9757261878
 21
-43.4235462815
  0
LINE
  5
267
100
AcDbEntity
  8
RACCORDO
100
AcDbLine
 62
7
  6
CONTINUOUS
 10
-18.9690286906
 20
72.0126118024
 11
-18.974761321
 21
46.3748276621
  0
LINE
  5
268
100
AcDbEntity
  8
RACCORDO
100
AcDbLine
 62
7
  6
CONTINUOUS
 10
-18.1637517984
 20
71.1760514125
 11
-18.1636936837
 21
-81.0657746187
  0
LINE
  5
269
100
AcDbEntity
  8
RACCORDO
100
AcDbLine
 62
7
  6
CONTINUOUS
 10
-18.1636186113
 20
71.2130113941
 11
-18.1637517984
 21
71.1760514125
  0
LINE
  5
26A
100
AcDbEntity
  8
RACCORDO
100
AcDbLine
 62
7
  6
CONTINUOUS
 10
-18.1634472664
 20
71.2351617746
 11
-18.1636186113
 21
71.2130113941
  0
LWPOLYLINE
  5
26B
100
AcDbEntity
  8
RACCORDO
100
AcDbPolyline
 62
7
  6
CONTINUOUS
 90
39
 70
0
 10
-18.9690284467
 20
72.0126158214
 10
-18.9637041763
 20
72.2743109963
 10
-18.9478646629
 20
72.5351339838
 10
-18.9215099061
 20
72.7950847853
 10
-18.8845341549
 20
73.0547943079
 10
-18.8370431584
 20
73.3136316464
 10
-18.7793541653
 20
73.5697040883
 10
-18.7114162962
 20
73.8227817734
 10
-18.633280427
 20
74.0730945743
 10
-18.5454164391
 20
74.3194393845
 10
-18.4479268302
 20
74.5615730052
 10
-18.3407090978
 20
74.799738653
 10
-18.2239256233
 20
75.0334628476
 10
-18.0973264895
 20
75.2631390762
 10
-17.9611616072
 20
75.4883738699
 10
-17.8163431003
 20
75.7075133196
 10
-17.6628085102
 20
75.9204176658
 10
-17.5006202888
 20
76.127226693
 10
-17.3308779252
 20
76.3267058136
 10
-17.1538719667
 20
76.5185194162
 10
-16.9693118596
 20
76.7030031401
 10
-16.7774254426
 20
76.8799292755
 10
-16.5778745536
 20
77.04958952
 10
-16.3709973476
 20
77.211692201
 10
-16.1580361399
 20
77.3651345551
 10
-15.9388544927
 20
77.5098514466
 10
-15.7135888378
 20
77.6459080364
 10
-15.4838907968
 20
77.7723970082
 10
-15.2501553771
 20
77.8890689588
 10
-15.0119875674
 20
77.9961733144
 10
-14.7698539618
 20
78.0935510022
 10
-14.5235066127
 20
78.1813062272
 10
-14.2731934641
 20
78.2593348022
 10
-14.0201249484
 20
78.3271650649
 10
-13.7640724585
 20
78.3847448444
 10
-13.5052645995
 20
78.4321263244
 10
-13.2455976236
 20
78.4689943742
 10
-12.9857036153
 20
78.4952439523
 10
-12.9262472524
 20
78.4997627893
  0
LWPOLYLINE
  5
26C
100
AcDbEntity
  8
RACCORDO
100
AcDbPolyline
 62
7
  6
CONTINUOUS
 90
7
 70
0
 10
19.4738265541
 20
-68.933774401
 10
19.4745366107
 20
-68.9347366731
 10
19.4765686226
 20
-68.9367184202
 10
19.4797717954
 20
-68.9397196422
 10
19.483981213
 20
-68.9438616179
 10
19.4890527855
 20
-68.9490230685
 10
19.5013782102
 20
-68.9612704457
  0
LWPOLYLINE
  5
26D
100
AcDbEntity
  8
RACCORDO
100
AcDbPolyline
 62
253
  6
CONTINUOUS
 90
34
 70
0
 10
-13.1547444984
 20
-77.4403367312
 10
-13.1267157278
 20
-77.6855851616
 10
-13.0897949772
 20
-77.9254675626
 10
-13.0440899657
 20
-78.1597057244
 10
-12.9895403133
 20
-78.3880470854
 10
-12.9264394103
 20
-78.6102221403
 10
-12.8554670256
 20
-78.8259518587
 10
-12.7768269227
 20
-79.0349183164
 10
-12.6906565297
 20
-79.2370138798
 10
-12.5975828497
 20
-79.4323082484
 10
-12.4978765839
 20
-79.6205373801
 10
-12.3916491528
 20
-79.8016403018
 10
-12.2792905703
 20
-79.9760129339
 10
-12.1611418097
 20
-80.1434180874
 10
-12.0372327742
 20
-80.3038430331
 10
-11.9074412225
 20
-80.4580079671
 10
-11.7720323597
 20
-80.6058130394
 10
-11.6310480635
 20
-80.7471178428
 10
-11.4839600957
 20
-80.8825293868
 10
-11.3309043363
 20
-81.0120257679
 10
-11.1719989171
 20
-81.135347204
 10
-11.0066335639
 20
-81.252677449
 10
-10.8348627124
 20
-81.3639819568
 10
-10.6568837422
 20
-81.4689642708
 10
-10.4722808579
 20
-81.5673674627
 10
-10.2812412855
 20
-81.6590617278
 10
-10.0838815959
 20
-81.7438315868
 10
-9.879683091
 20
-81.8212597339
 10
-9.668923238
 20
-81.8912044212
 10
-9.451698149
 20
-81.9534427705
 10
-9.2272292243
 20
-82.0073938291
 10
-8.9954109918
 20
-82.0527164811
 10
-8.7568162413
 20
-82.0893406319
 10
-8.5117084062
 20
-82.1170686331
  0
LWPOLYLINE
  5
26E
100
AcDbEntity
  8
RACCORDO
100
AcDbPolyline
 62
253
  6
CONTINUOUS
 90
34
 70
0
 10
-11.712437188
 20
-77.440336919
 10
-11.7082424688
 20
-77.6266482046
 10
-11.6969335146
 20
-77.8077451693
 10
-11.6785103253
 20
-77.9836278131
 10
-11.6527175605
 20
-78.1544496843
 10
-11.6198105607
 20
-78.3200572345
 10
-11.580555347
 20
-78.4799898185
 10
-11.5349458892
 20
-78.63412941
 10
-11.4829882174
 20
-78.7825940353
 10
-11.4254664434
 20
-78.9252771274
 10
-11.3624353876
 20
-79.0620874165
 10
-11.2938402295
 20
-79.1931161724
 10
-11.2203006194
 20
-79.3185306373
 10
-11.1419529663
 20
-79.4382559811
 10
-11.0586608613
 20
-79.5523670339
 10
-10.9706347272
 20
-79.6612555279
 10
-10.8779980438
 20
-79.7649686958
 10
-10.7806273314
 20
-79.863459305
 10
-10.6783625744
 20
-79.9569773893
 10
-10.57124538
 20
-80.0456482233
 10
-10.4592341411
 20
-80.1293465324
 10
-10.3420440203
 20
-80.2079465266
 10
-10.2196357227
 20
-80.2815692228
 10
-10.0920485432
 20
-80.350093604
 10
-9.9591155294
 20
-80.4130308291
 10
-9.8208585943
 20
-80.4704347605
 10
-9.6772558249
 20
-80.5222515357
 10
-9.5280745298
 20
-80.5678307265
 10
-9.3733728651
 20
-80.6072351383
 10
-9.2130926746
 20
-80.6404019656
 10
-9.0468267986
 20
-80.6664923635
 10
-8.8744395171
 20
-80.6852267169
 10
-8.69606655
 20
-80.6968846409
 10
-8.5117078973
 20
-80.7014661353
  0
LINE
  5
26F
100
AcDbEntity
  8
RACCORDO
100
AcDbLine
 62
253
  6
CONTINUOUS
 10
-12.0289783624
 20
77.5122779471
 11
-12.0272648685
 21
77.316225599
  0
LINE
  5
270
100
AcDbEntity
  8
RACCORDO
100
AcDbLine
 62
253
  6
CONTINUOUS
 10
-13.1547449777
 20
67.572787778
 11
-13.1547450315
 21
-77.4403368344
  0
LINE
  5
271
100
AcDbEntity
  8
SMUSSO
100
AcDbLine
 62
7
  6
CONTINUOUS
 10
-11.9761734459
 20
-88.3736794441
 11
-11.9761734459
 21
-87.633774401
  0
LINE
  5
272
100
AcDbEntity
  8
RACCORDO
100
AcDbLine
 62
253
  6
CONTINUOUS
 10
-11.9761734414
 20
-87.3798249815
 11
-11.9761734429
 21
-87.183774401
  0
LINE
  5
273
100
AcDbEntity
  8
RACCORDO
100
AcDbLine
 62
253
  6
CONTINUOUS
 10
-11.9761734472
 20
77.5122779448
 11
-11.9761734467
 21
77.316225599
  0
LINE
  5
274
100
AcDbEntity
  8
SMUSSO
100
AcDbLine
 62
7
  6
CONTINUOUS
 10
-11.7761734459
 20
-87.673215381
 11
-11.7761734459
 21
-87.633774401
  0
LINE
  5
275
100
AcDbEntity
  8
RACCORDO
100
AcDbLine
 62
253
  6
CONTINUOUS
 10
-11.7124369698
 20
67.57278783
 11
-11.712437188
 21
-77.440336919
  0
LINE
  5
276
100
AcDbEntity
  8
RACCORDO
100
AcDbLine
 62
253
  6
CONTINUOUS
 10
-10.1761734459
 20
-55.9048870404
 11
-10.1761734459
 21
-69.083774401
  0
LINE
  5
277
100
AcDbEntity
  8
RACCORDO
100
AcDbLine
 62
7
  6
CONTINUOUS
 10
-10.0261734459
 20
-56.308774401
 11
-10.0261734459
 21
-68.933774401
  0
LINE
  5
278
100
AcDbEntity
  8
RACCORDO
100
AcDbLine
 62
253
  6
CONTINUOUS
 10
-8.5117078973
 20
-80.7014661353
 11
-8.5117081994
 21
-82.1170655831
  0
LINE
  5
279
100
AcDbEntity
  8
RACCORDO
100
AcDbLine
 62
253
  6
CONTINUOUS
 10
-8.5117069945
 20
70.8339175811
 11
-8.5117075902
 21
72.2495173266
  0
LINE
  5
27A
100
AcDbEntity
  8
RACCORDO
100
AcDbLine
 62
253
  6
CONTINUOUS
 10
-12.0289887587
 20
-87.3798249724
 11
-12.0272751425
 21
-87.183774401
  0
LWPOLYLINE
  5
27B
100
AcDbEntity
  8
RACCORDO
100
AcDbPolyline
 62
253
  6
CONTINUOUS
 90
10
 70
0
 10
21.7483273939
 20
78.2188812953
 10
21.7246591789
 20
78.1623930092
 10
21.6994348399
 20
78.1007338358
 10
21.672654377
 20
78.0338496926
 10
21.6444159608
 20
77.9619035303
 10
21.6146214207
 20
77.884658172
 10
21.5829762447
 20
77.8013339552
 10
21.5493822621
 20
77.7114971717
 10
21.5139376436
 20
77.6152027975
 10
21.4766423892
 20
77.5122780333
  0
LWPOLYLINE
  5
27C
100
AcDbEntity
  8
RACCORDO
100
AcDbPolyline
 62
7
  6
CONTINUOUS
 90
7
 70
0
 10
-6.4616449826
 20
8.8943995756
 10
-6.4626489713
 20
8.8933374151
 10
-6.4654400255
 20
8.8911232603
 10
-6.4698394876
 20
8.8877383334
 10
-6.4756752614
 20
8.8830248085
 10
-6.4827598244
 20
8.8771027141
 10
-6.499955499
 20
8.8628613338
  0
LWPOLYLINE
  5
27D
100
AcDbEntity
  8
RACCORDO
100
AcDbPolyline
 62
7
  6
CONTINUOUS
 90
16
 70
0
 10
-6.5546317982
 20
8.8155676969
 10
-6.5668185525
 20
8.8046893268
 10
-6.5792346269
 20
8.7933847168
 10
-6.5918429523
 20
8.7817903234
 10
-6.6045865798
 20
8.7699080391
 10
-6.6174008719
 20
8.7577231923
 10
-6.6302525114
 20
8.7453489997
 10
-6.6431011469
 20
8.7327819645
 10
-6.6558956597
 20
8.7200159696
 10
-6.6685955203
 20
8.7071612406
 10
-6.681169884
 20
8.6942139601
 10
-6.6935812654
 20
8.6811707638
 10
-6.705784896
 20
8.6681431588
 10
-6.7177497134
 20
8.6551666179
 10
-6.7294583208
 20
8.6422005752
 10
-6.7408911345
 20
8.6292429723
  0
LINE
  5
27E
100
AcDbEntity
  8
RACCORDO
100
AcDbLine
 62
7
  6
CONTINUOUS
 10
-6.5312768427
 20
8.8361139958
 11
-6.5546317982
 21
8.8155676969
  0
LINE
  5
27F
100
AcDbEntity
  8
RACCORDO
100
AcDbLine
 62
7
  6
CONTINUOUS
 10
-6.499955499
 20
8.8628613338
 11
-6.5312768427
 21
8.8361139958
  0
LWPOLYLINE
  5
280
100
AcDbEntity
  8
RACCORDO
100
AcDbPolyline
 62
253
  6
CONTINUOUS
 90
10
 70
0
 10
21.7483247309
 20
-88.0864237635
 10
21.7746765954
 20
-88.1472516416
 10
21.7989734134
 20
-88.2014408964
 10
21.8212151848
 20
-88.248856213
 10
21.841421465
 20
-88.2892139591
 10
21.8595726986
 20
-88.3225915815
 10
21.8756102196
 20
-88.349133962
 10
21.8895144727
 20
-88.3685044602
 10
21.9013050131
 20
-88.3801792888
 10
21.910353212
 20
-88.383774401
  0
LINE
  5
281
100
AcDbEntity
  8
SMUSSO
100
AcDbLine
 62
7
  6
CONTINUOUS
 10
-5.0261734459
 20
-87.633774401
 11
-5.0261734459
 21
-87.673215381
  0
LINE
  5
282
100
AcDbEntity
  8
SMUSSO
100
AcDbLine
 62
7
  6
CONTINUOUS
 10
-4.8261734459
 20
-87.633774401
 11
-4.8261734459
 21
-88.3736794441
  0
LINE
  5
283
100
AcDbEntity
  8
RACCORDO
100
AcDbLine
 62
7
  6
CONTINUOUS
 10
-4.5261734459
 20
-68.933774401
 11
-4.5261734459
 21
-56.308774401
  0
LINE
  5
284
100
AcDbEntity
  8
RACCORDO
100
AcDbLine
 62
253
  6
CONTINUOUS
 10
-4.3761734459
 20
-69.083774401
 11
-4.3761734459
 21
-55.9048870404
  0
LINE
  5
285
100
AcDbEntity
  8
RACCORDO
100
AcDbLine
 62
253
  6
CONTINUOUS
 10
-7.6041140448
 20
0.416225599
 11
-6.8887167049
 21
7.2227766198
  0
LINE
  5
286
100
AcDbEntity
  8
RACCORDO
100
AcDbLine
 62
253
  6
CONTINUOUS
 10
-6.7408911345
 20
8.6292429723
 11
-6.001274457
 21
15.666225599
  0
LINE
  5
287
100
AcDbEntity
  8
RACCORDO
100
AcDbLine
 62
7
  6
CONTINUOUS
 10
-7.3016180968
 20
0.9025892354
 11
-6.6707019091
 21
6.9053557848
  0
LINE
  5
288
100
AcDbEntity
  8
RACCORDO
100
AcDbLine
 62
7
  6
CONTINUOUS
 10
-6.4616449826
 20
8.8943995756
 11
-5.7761734459
 21
15.416225599
  0
LWPOLYLINE
  5
289
100
AcDbEntity
  8
RACCORDO
100
AcDbPolyline
 62
7
  6
CONTINUOUS
 90
7
 70
0
 10
15.2238265541
 20
15.416225599
 10
15.2247844271
 20
15.4170646965
 10
15.2269349169
 20
15.4194970002
 10
15.2302780233
 20
15.4233906814
 10
15.2349232625
 20
15.4286031342
 10
15.2407611185
 20
15.435000804
 10
15.2550031501
 20
15.4509031595
  0
LWPOLYLINE
  5
28A
100
AcDbEntity
  8
RACCORDO
100
AcDbPolyline
 62
253
  6
CONTINUOUS
 90
8
 70
0
 10
21.5476150547
 20
-87.5741347179
 10
21.5808179249
 20
-87.6631456764
 10
21.6124893362
 20
-87.7467029342
 10
21.6426386683
 20
-87.8249109512
 10
21.6712940598
 20
-87.8979728649
 10
21.6984648906
 20
-87.9659409685
 10
21.724141781
 20
-88.0287567328
 10
21.7483247309
 20
-88.0864237635
  0
LINE
  5
28B
100
AcDbEntity
  8
RACCORDO
100
AcDbLine
 62
253
  6
CONTINUOUS
 10
21.4766430765
 20
-87.3798268353
 11
21.5476150547
 21
-87.5741347179
  0
LINE
  5
28C
100
AcDbEntity
  8
SMUSSO
100
AcDbLine
 62
7
  6
CONTINUOUS
 10
21.4238265541
 20
-88.3736794441
 11
21.2238265541
 21
-87.673215381
  0
LINE
  5
28D
100
AcDbEntity
  8
DRAFT
100
AcDbLine
 62
7
  6
CONTINUOUS
 10
-1.2391687082
 20
-87.183774401
 11
-1.2391687082
 21
-87.8872585026
  0
LINE
  5
28E
100
AcDbEntity
  8
0
100
AcDbLine
 62
7
  6
CONTINUOUS
 10
1.7796118384
 20
34.2594688423
 11
1.7796118384
 21
36.1094688423
  0
LINE
  5
28F
100
AcDbEntity
  8
0
100
AcDbLine
 62
7
  6
CONTINUOUS
 10
1.7796118384
 20
51.5229823558
 11
1.7796118384
 21
53.3729823558
  0
LINE
  5
290
100
AcDbEntity
  8
RACCORDO
100
AcDbLine
 62
7
  6
CONTINUOUS
 10
15.2922598638
 20
15.4922107778
 11
15.4364684816
 21
15.6524687224
  0
LINE
  5
291
100
AcDbEntity
  8
RACCORDO
100
AcDbLine
 62
7
  6
CONTINUOUS
 10
15.2820356826
 20
15.4809151083
 11
15.2922598638
 21
15.4922107778
  0
LINE
  5
292
100
AcDbEntity
  8
RACCORDO
100
AcDbLine
 62
7
  6
CONTINUOUS
 10
15.4364684816
 20
15.6524687224
 11
15.4489275652
 21
15.666225599
  0
LWPOLYLINE
  5
293
100
AcDbEntity
  8
RACCORDO
100
AcDbPolyline
 62
7
  6
CONTINUOUS
 90
3
 70
0
 10
15.2550031501
 20
15.4509031595
 10
15.2634073257
 20
15.4601635879
 10
15.2820356826
 20
15.4809151083
  0
LINE
  5
294
100
AcDbEntity
  8
RACCORDO
100
AcDbLine
 62
7
  6
CONTINUOUS
 10
-6.6877591213
 20
6.9266646908
 11
-6.7016180797
 21
6.9441700446
  0
LINE
  5
295
100
AcDbEntity
  8
RACCORDO
100
AcDbLine
 62
7
  6
CONTINUOUS
 10
-6.7016180797
 20
6.9441700446
 11
-6.7266938926
 21
6.9768449626
  0
LWPOLYLINE
  5
296
100
AcDbEntity
  8
RACCORDO
100
AcDbPolyline
 62
7
  6
CONTINUOUS
 90
17
 70
0
 10
-6.7266938926
 20
6.9768449626
 10
-6.7452666705
 20
7.0017980439
 10
-6.7549253747
 20
7.0149724642
 10
-6.7647197675
 20
7.0286114884
 10
-6.7746419608
 20
7.0425739347
 10
-6.7846366437
 20
7.0568461116
 10
-6.7946375407
 20
7.0714289315
 10
-6.8046356017
 20
7.0862047244
 10
-6.8145906301
 20
7.1011685213
 10
-6.8244513525
 20
7.1163156774
 10
-6.8342010422
 20
7.1315299491
 10
-6.8438087349
 20
7.1468086577
 10
-6.8532370649
 20
7.1621473002
 10
-6.8624654255
 20
7.1774274982
 10
-6.8714708084
 20
7.1926080959
 10
-6.8802277627
 20
7.2077251559
 10
-6.8887167049
 20
7.2227766198
  0
LWPOLYLINE
  5
297
100
AcDbEntity
  8
RACCORDO
100
AcDbPolyline
 62
7
  6
CONTINUOUS
 90
6
 70
0
 10
-6.6707019091
 20
6.9053557848
 10
-6.6714631227
 20
6.9066034755
 10
-6.673732837
 20
6.9093495386
 10
-6.6773323944
 20
6.9135751963
 10
-6.6820606456
 20
6.9193990449
 10
-6.6877591213
 20
6.9266646908
  0
LINE
  5
298
100
AcDbEntity
  8
0
100
AcDbLine
 62
7
  6
CONTINUOUS
 10
7.6680412698
 20
53.3729823558
 11
7.6680412698
 21
51.5229823558
  0
LINE
  5
299
100
AcDbEntity
  8
0
100
AcDbLine
 62
7
  6
CONTINUOUS
 10
7.6680412698
 20
36.1094688423
 11
7.6680412698
 21
34.2594688423
  0
LINE
  5
29A
100
AcDbEntity
  8
DRAFT
100
AcDbLine
 62
7
  6
CONTINUOUS
 10
10.6868218165
 20
-87.8872585026
 11
10.6868218165
 21
-87.183774401
  0
LINE
  5
29B
100
AcDbEntity
  8
SMUSSO
100
AcDbLine
 62
7
  6
CONTINUOUS
 10
-11.7761734459
 20
-87.673215381
 11
-11.9761734459
 21
-88.3736794441
  0
LWPOLYLINE
  5
29C
100
AcDbEntity
  8
RACCORDO
100
AcDbPolyline
 62
7
  6
CONTINUOUS
 90
7
 70
0
 10
16.1183550174
 20
6.9053557848
 10
16.119116231
 20
6.9066034755
 10
16.1213859453
 20
6.9093495386
 10
16.1249855027
 20
6.9135751963
 10
16.1297137538
 20
6.9193990449
 10
16.1354122295
 20
6.9266646908
 10
16.1492711879
 20
6.9441700446
  0
LWPOLYLINE
  5
29D
100
AcDbEntity
  8
RACCORDO
100
AcDbPolyline
 62
7
  6
CONTINUOUS
 90
16
 70
0
 10
16.1929197787
 20
7.0017980439
 10
16.2025784829
 20
7.0149724642
 10
16.2123728758
 20
7.0286114884
 10
16.222295069
 20
7.0425739347
 10
16.2322897519
 20
7.0568461116
 10
16.2422906489
 20
7.0714289315
 10
16.2522887099
 20
7.0862047244
 10
16.2622437384
 20
7.1011685213
 10
16.2721044607
 20
7.1163156774
 10
16.2818541505
 20
7.1315299491
 10
16.2914618432
 20
7.1468086577
 10
16.3008901731
 20
7.1621473002
 10
16.3101185338
 20
7.1774274982
 10
16.3191239167
 20
7.1926080959
 10
16.327880871
 20
7.2077251559
 10
16.3363698132
 20
7.2227766198
  0
LINE
  5
29E
100
AcDbEntity
  8
RACCORDO
100
AcDbLine
 62
7
  6
CONTINUOUS
 10
16.1743470008
 20
6.9768449626
 11
16.1929197787
 21
7.0017980439
  0
LINE
  5
29F
100
AcDbEntity
  8
RACCORDO
100
AcDbLine
 62
7
  6
CONTINUOUS
 10
16.1492711879
 20
6.9441700446
 11
16.1743470008
 21
6.9768449626
  0
LINE
  5
2A0
100
AcDbEntity
  8
RACCORDO
100
AcDbLine
 62
7
  6
CONTINUOUS
 10
17.051767153
 20
0.416225599
 11
-7.6041140448
 21
0.416225599
  0
LINE
  5
2A1
100
AcDbEntity
  8
RACCORDO
100
AcDbLine
 62
7
  6
CONTINUOUS
 10
-5.8445891412
 20
15.4922266379
 11
-5.9888952708
 21
15.6523967824
  0
LINE
  5
2A2
100
AcDbEntity
  8
RACCORDO
100
AcDbLine
 62
7
  6
CONTINUOUS
 10
-5.8344240685
 20
15.4808777468
 11
-5.8445891412
 21
15.4922266379
  0
LINE
  5
2A3
100
AcDbEntity
  8
RACCORDO
100
AcDbLine
 62
7
  6
CONTINUOUS
 10
-5.9888952708
 20
15.6523967824
 11
-6.001274457
 21
15.666225599
  0
LWPOLYLINE
  5
2A4
100
AcDbEntity
  8
RACCORDO
100
AcDbPolyline
 62
7
  6
CONTINUOUS
 90
3
 70
0
 10
-5.8074021974
 20
15.4508561984
 10
-5.8157334206
 20
15.4601823135
 10
-5.8344240685
 20
15.4808777468
  0
LWPOLYLINE
  5
2A5
100
AcDbEntity
  8
RACCORDO
100
AcDbPolyline
 62
7
  6
CONTINUOUS
 90
7
 70
0
 10
-5.7761734459
 20
15.416225599
 10
-5.7769078217
 20
15.4172659343
 10
-5.7791020136
 20
15.4196588884
 10
-5.7826249151
 20
15.4233906814
 10
-5.7873232537
 20
15.4285553232
 10
-5.7930756544
 20
15.4350299374
 10
-5.8074021974
 20
15.4508561984
  0
LINE
  5
2A6
100
AcDbEntity
  8
RACCORDO
100
AcDbLine
 62
7
  6
CONTINUOUS
 10
15.2238265541
 20
15.416225599
 11
15.9092980909
 21
8.8943995756
  0
LINE
  5
2A7
100
AcDbEntity
  8
RACCORDO
100
AcDbLine
 62
7
  6
CONTINUOUS
 10
16.1183550174
 20
6.9053557848
 11
16.749271205
 21
0.9025892354
  0
LINE
  5
2A8
100
AcDbEntity
  8
RACCORDO
100
AcDbLine
 62
253
  6
CONTINUOUS
 10
15.4489275652
 20
15.666225599
 11
16.1885442428
 21
8.6292429723
  0
LINE
  5
2A9
100
AcDbEntity
  8
RACCORDO
100
AcDbLine
 62
253
  6
CONTINUOUS
 10
16.3363698132
 20
7.2227766198
 11
17.051767153
 21
0.416225599
  0
LINE
  5
2AA
100
AcDbEntity
  8
RACCORDO
100
AcDbLine
 62
253
  6
CONTINUOUS
 10
13.8238265541
 20
-55.9048870404
 11
13.8238265541
 21
-69.083774401
  0
LINE
  5
2AB
100
AcDbEntity
  8
RACCORDO
100
AcDbLine
 62
7
  6
CONTINUOUS
 10
13.9738265541
 20
-56.308774401
 11
13.9738265541
 21
-68.933774401
  0
LINE
  5
2AC
100
AcDbEntity
  8
SMUSSO
100
AcDbLine
 62
7
  6
CONTINUOUS
 10
14.2738265541
 20
-88.3736794441
 11
14.2738265541
 21
-87.633774401
  0
LINE
  5
2AD
100
AcDbEntity
  8
SMUSSO
100
AcDbLine
 62
7
  6
CONTINUOUS
 10
14.4738265541
 20
-87.673215381
 11
14.4738265541
 21
-87.633774401
  0
LINE
  5
2AE
100
AcDbEntity
  8
RACCORDO
100
AcDbLine
 62
253
  6
CONTINUOUS
 10
17.9593605645
 20
70.8339173125
 11
17.9593610117
 21
72.2495170157
  0
LINE
  5
2AF
100
AcDbEntity
  8
RACCORDO
100
AcDbLine
 62
253
  6
CONTINUOUS
 10
17.9593605231
 20
-80.7014663514
 11
17.9593609119
 21
-82.1170657909
  0
LINE
  5
2B0
100
AcDbEntity
  8
RACCORDO
100
AcDbLine
 62
7
  6
CONTINUOUS
 10
19.4738265541
 20
-68.933774401
 11
19.4738265541
 21
-56.308774401
  0
LINE
  5
2B1
100
AcDbEntity
  8
RACCORDO
100
AcDbLine
 62
253
  6
CONTINUOUS
 10
19.6238265541
 20
-69.083774401
 11
19.6238265541
 21
-55.9048870404
  0
LWPOLYLINE
  5
2B2
100
AcDbEntity
  8
RACCORDO
100
AcDbPolyline
 62
253
  6
CONTINUOUS
 90
8
 70
0
 10
-12.0999353277
 20
77.7065093019
 10
-12.1331352285
 20
77.7955171074
 10
-12.164814187
 20
77.8790995642
 10
-12.194978024
 20
77.9573471884
 10
-12.2236442016
 20
78.0304350385
 10
-12.2508185406
 20
78.0984096454
 10
-12.2764952202
 20
78.1612231942
 10
-12.3006742405
 20
78.2188811991
  0
LINE
  5
2B3
100
AcDbEntity
  8
RACCORDO
100
AcDbLine
 62
253
  6
CONTINUOUS
 10
-12.0289901616
 20
77.5122780333
 11
-12.0999353277
 21
77.7065093019
  0
LWPOLYLINE
  5
2B4
100
AcDbEntity
  8
RACCORDO
100
AcDbPolyline
 62
253
  6
CONTINUOUS
 90
34
 70
0
 10
21.1600903107
 20
67.5727882646
 10
21.1558956083
 20
67.759099522
 10
21.1445866641
 20
67.9401964619
 10
21.1261634782
 20
68.1160790843
 10
21.1003707092
 20
68.2869009366
 10
21.0674636986
 20
68.4525084714
 10
21.02820847
 20
68.6124410461
 10
20.9825989928
 20
68.766580637
 10
20.9306412977
 20
68.9150452679
 10
20.8731195
 20
69.0577283675
 10
20.81008842
 20
69.1945386661
 10
20.7414932374
 20
69.3255674335
 10
20.6679536058
 20
69.4509819077
 10
20.589605937
 20
69.5707072561
 10
20.5063138192
 20
69.6848183114
 10
20.4182876698
 20
69.7937068094
 10
20.3256509696
 20
69.897419984
 10
20.2282802378
 20
69.9959106013
 10
20.1260154497
 20
70.0894286955
 10
20.0188982066
 20
70.1780995449
 10
19.9068869071
 20
70.2617978713
 10
19.7896967221
 20
70.3403978739
 10
19.6672883523
 20
70.4140205672
 10
19.5397010969
 20
70.4825449368
 10
19.4067680249
 20
70.545482139
 10
19.2685110565
 20
70.6028860299
 10
19.1249082714
 20
70.6547027535
 10
18.9757269782
 20
70.7002818973
 10
18.8210253389
 20
70.7396862666
 10
18.6607451914
 20
70.7728530563
 10
18.494479358
 20
70.7989434385
 10
18.3220921127
 20
70.8176778039
 10
18.1437191816
 20
70.829335762
 10
17.9593605645
 20
70.8339173125
  0
LINE
  5
2B5
100
AcDbEntity
  8
RACCORDO
100
AcDbLine
 62
253
  6
CONTINUOUS
 10
21.4766296164
 20
-87.3798267368
 11
21.4749161635
 21
-87.183774401
  0
LINE
  5
2B6
100
AcDbEntity
  8
RACCORDO
100
AcDbLine
 62
253
  6
CONTINUOUS
 10
21.1600900882
 20
-77.4403365061
 11
21.1600903107
 21
67.5727882646
  0
LINE
  5
2B7
100
AcDbEntity
  8
SMUSSO
100
AcDbLine
 62
7
  6
CONTINUOUS
 10
21.2238265541
 20
-87.633774401
 11
21.2238265541
 21
-87.673215381
  0
LINE
  5
2B8
100
AcDbEntity
  8
RACCORDO
100
AcDbLine
 62
253
  6
CONTINUOUS
 10
21.4238265528
 20
77.512276273
 11
21.4238265533
 21
77.316225599
  0
LINE
  5
2B9
100
AcDbEntity
  8
RACCORDO
100
AcDbLine
 62
253
  6
CONTINUOUS
 10
21.4238265539
 20
-87.3798267378
 11
21.423826554
 21
-87.183774401
  0
LINE
  5
2BA
100
AcDbEntity
  8
SMUSSO
100
AcDbLine
 62
7
  6
CONTINUOUS
 10
21.4238265541
 20
-87.633774401
 11
21.4238265541
 21
-88.3736794441
  0
LINE
  5
2BB
100
AcDbEntity
  8
RACCORDO
100
AcDbLine
 62
253
  6
CONTINUOUS
 10
22.6023981293
 20
-77.4403364732
 11
22.6023981032
 21
67.5727881578
  0
LINE
  5
2BC
100
AcDbEntity
  8
RACCORDO
100
AcDbLine
 62
253
  6
CONTINUOUS
 10
21.4766423161
 20
77.5122762704
 11
21.4749286848
 21
77.316225599
  0
LWPOLYLINE
  5
2BD
100
AcDbEntity
  8
RACCORDO
100
AcDbPolyline
 62
253
  6
CONTINUOUS
 90
10
 70
0
 10
-12.3006715886
 20
-88.0864236899
 10
-12.2770503504
 20
-88.0300395571
 10
-12.2518612565
 20
-87.9684709897
 10
-12.2251043069
 20
-87.9016568746
 10
-12.1968776054
 20
-87.8297489044
 10
-12.1670830482
 20
-87.7525064948
 10
-12.1354263238
 20
-87.6691571536
 10
-12.1018093284
 20
-87.5792674949
 10
-12.0663301657
 20
-87.4828832605
 10
-12.0289888359
 20
-87.3798268353
  0
LINE
  5
2BE
100
AcDbEntity
  8
RACCORDO
100
AcDbLine
 62
253
  6
CONTINUOUS
 10
15.4553753398
 20
13.2131860635
 11
-6.0077222315
 21
13.2131860635
  0
LINE
  5
2BF
100
AcDbEntity
  8
RACCORDO
100
AcDbLine
 62
253
  6
CONTINUOUS
 10
15.4457654453
 20
13.3046181017
 11
-5.9981123371
 21
13.3046181017
  0
LINE
  5
2C0
100
AcDbEntity
  8
DRAFT
100
AcDbLine
 62
7
  6
CONTINUOUS
 10
15.2973995188
 20
14.716225599
 11
-5.8497464106
 21
14.716225599
  0
LINE
  5
2C1
100
AcDbEntity
  8
RACCORDO
100
AcDbLine
 62
7
  6
CONTINUOUS
 10
15.2238265541
 20
15.416225599
 11
-5.7761734459
 21
15.416225599
  0
LINE
  5
2C2
100
AcDbEntity
  8
RACCORDO
100
AcDbLine
 62
253
  6
CONTINUOUS
 10
15.4489275652
 20
15.666225599
 11
-6.001274457
 21
15.666225599
  0
LINE
  5
2C3
100
AcDbEntity
  8
RACCORDO
100
AcDbLine
 62
7
  6
CONTINUOUS
 10
15.9304129326
 20
8.8771027141
 11
15.9476086073
 21
8.8628613338
  0
LINE
  5
2C4
100
AcDbEntity
  8
RACCORDO
100
AcDbLine
 62
7
  6
CONTINUOUS
 10
15.9476086073
 20
8.8628613338
 11
15.9789299509
 21
8.8361139958
  0
LWPOLYLINE
  5
2C5
100
AcDbEntity
  8
RACCORDO
100
AcDbPolyline
 62
7
  6
CONTINUOUS
 90
17
 70
0
 10
15.9789299509
 20
8.8361139958
 10
16.0022849064
 20
8.8155676969
 10
16.0144716607
 20
8.8046893268
 10
16.0268877352
 20
8.7933847168
 10
16.0394960605
 20
8.7817903234
 10
16.052239688
 20
8.7699080391
 10
16.0650539802
 20
8.7577231923
 10
16.0779056197
 20
8.7453489997
 10
16.0907542552
 20
8.7327819645
 10
16.1035487679
 20
8.7200159696
 10
16.1162486285
 20
8.7071612406
 10
16.1288229922
 20
8.6942139601
 10
16.1412343737
 20
8.6811707638
 10
16.1534380043
 20
8.6681431588
 10
16.1654028217
 20
8.6551666179
 10
16.177111429
 20
8.6422005752
 10
16.1885442428
 20
8.6292429723
  0
LWPOLYLINE
  5
2C6
100
AcDbEntity
  8
RACCORDO
100
AcDbPolyline
 62
7
  6
CONTINUOUS
 90
6
 70
0
 10
15.9092980909
 20
8.8943995756
 10
15.9103020796
 20
8.8933374151
 10
15.9130931338
 20
8.8911232603
 10
15.9174925959
 20
8.8877383334
 10
15.9233283696
 20
8.8830248085
 10
15.9304129326
 20
8.8771027141
  0
LWPOLYLINE
  5
2C7
100
AcDbEntity
  8
RACCORDO
100
AcDbPolyline
 62
253
  6
CONTINUOUS
 90
10
 70
0
 10
-12.3006742405
 20
78.2188811991
 10
-12.3269791021
 20
78.2795877156
 10
-12.3512440474
 20
78.3337149218
 10
-12.3734690763
 20
78.3811153437
 10
-12.3936783473
 20
78.4214963762
 10
-12.4118477019
 20
78.4549180639
 10
-12.4279046652
 20
78.4815063342
 10
-12.4418250789
 20
78.5009163153
 10
-12.4536331014
 20
78.5126198618
 10
-12.4626996445
 20
78.516225599
  0
LWPOLYLINE
  5
2C8
100
AcDbEntity
  8
RACCORDO
100
AcDbPolyline
 62
7
  6
CONTINUOUS
 90
40
 70
0
 10
27.6110997019
 20
71.2351612566
 10
27.603070537
 20
71.5094340258
 10
27.5847916706
 20
71.7805812904
 10
27.5563484535
 20
72.0481303445
 10
27.5177809497
 20
72.3113618639
 10
27.4692877096
 20
72.5701026219
 10
27.411189205
 20
72.8247272731
 10
27.3436281435
 20
73.0749176083
 10
27.2667325391
 20
73.3202015296
 10
27.1807728246
 20
73.5607440818
 10
27.0859151269
 20
73.7962282397
 10
26.9823146093
 20
74.0262600412
 10
26.8702100058
 20
74.2509016783
 10
26.7497827926
 20
74.4698653201
 10
26.6212192457
 20
74.6827941345
 10
26.4847581588
 20
74.8896555713
 10
26.3406104783
 20
75.0901747657
 10
26.1889839667
 20
75.284045259
 10
26.0301114151
 20
75.4711946909
 10
25.8642233725
 20
75.6513765719
 10
25.6915545382
 20
75.8243158117
 10
25.5123455071
 20
75.9899041976
 10
25.3268492444
 20
76.147921558
 10
25.135323512
 20
76.2981272687
 10
24.9380205508
 20
76.4403908562
 10
24.7352223052
 20
76.5745167518
 10
24.527201013
 20
76.700303649
 10
24.3141992098
 20
76.817620684
 10
24.0965070028
 20
76.9263082111
 10
23.8744255375
 20
77.0261905475
 10
23.6482192933
 20
77.1171220995
 10
23.4182114325
 20
77.1989710451
 10
23.184706023
 20
77.2716032259
 10
22.9479442877
 20
77.3348791334
 10
22.7082527509
 20
77.3887036632
 10
22.4659614462
 20
77.4329707749
 10
22.22132168
 20
77.467533652
 10
21.9746446524
 20
77.4922978246
 10
21.7263022348
 20
77.5072263977
 10
21.4766422331
 20
77.5122745082
  0
LWPOLYLINE
  5
2C9
100
AcDbEntity
  8
DRAFT
100
AcDbPolyline
 62
7
  6
CONTINUOUS
 90
40
 70
0
 10
28.7238274144
 20
72.3162254257
 10
28.7185616619
 20
72.5779816662
 10
28.702815926
 20
72.8387159332
 10
28.6765902062
 20
73.0984282287
 10
28.6398018799
 20
73.3576357541
 10
28.5925335678
 20
73.6158213106
 10
28.5350331344
 20
73.8714333032
 10
28.4672711113
 20
74.1243199288
 10
28.3892769632
 20
74.3746330018
 10
28.3013869539
 20
74.6212763594
 10
28.2034967733
 20
74.8643494102
 10
28.0957107263
 20
75.1037527615
 10
27.9786779996
 20
75.3380920539
 10
27.8524406718
 20
75.5671811517
 10
27.716956658
 20
75.7912062126
 10
27.5727489
 20
76.0093313224
 10
27.4196437825
 20
76.2217043525
 10
27.2578149138
 20
76.4281774553
 10
27.0883060713
 20
76.6274711414
 10
26.9112974424
 20
76.8193264396
 10
26.7266088331
 20
77.0040023485
 10
26.5347434493
 20
77.1809963372
 10
26.3354421824
 20
77.3504886389
 10
26.128964134
 20
77.5122990459
 10
25.9165898261
 20
77.6653843677
 10
25.6984675896
 20
77.8095707289
 10
25.474449088
 20
77.9450320304
 10
25.2453698423
 20
78.071246747
 10
25.0110439779
 20
78.1882570176
 10
24.7716573646
 20
78.2960207255
 10
24.5286031418
 20
78.3938899617
 10
24.2819800302
 20
78.4817607358
 10
24.031689306
 20
78.5597370567
 10
23.778827943
 20
78.6274830141
 10
23.5232447044
 20
78.6849690133
 10
23.2650908252
 20
78.7322246619
 10
23.0059169882
 20
78.7690028527
 10
22.7462400883
 20
78.7952212188
 10
22.485543231
 20
78.8109621337
 10
22.2238264166
 20
78.816225599
  0
LINE
  5
2CA
100
AcDbEntity
  8
RACCORDO
100
AcDbLine
 62
7
  6
CONTINUOUS
 10
27.6113470773
 20
71.198227503
 11
27.6110997019
 21
71.2351612566
  0
LINE
  5
2CB
100
AcDbEntity
  8
RACCORDO
100
AcDbLine
 62
7
  6
CONTINUOUS
 10
27.4738265541
 20
-81.6694344873
 11
27.4738265541
 21
71.8018728599
  0
LINE
  5
2CC
100
AcDbEntity
  8
RACCORDO
100
AcDbLine
 62
7
  6
CONTINUOUS
 10
28.423379296
 20
33.5559984424
 11
28.416681799
 21
72.0126118025
  0
LINE
  5
2CD
100
AcDbEntity
  8
DRAFT
100
AcDbLine
 62
7
  6
CONTINUOUS
 10
28.7238274144
 20
72.3162254257
 11
28.7238274118
 21
-82.1837742277
  0
LINE
  5
2CE
100
AcDbEntity
  8
RACCORDO
100
AcDbLine
 62
7
  6
CONTINUOUS
 10
28.4224144293
 20
-56.2423757257
 11
28.423379296
 21
33.5559984424
  0
LINE
  5
2CF
100
AcDbEntity
  8
RACCORDO
100
AcDbLine
 62
7
  6
CONTINUOUS
 10
28.4166817989
 20
-81.8801606044
 11
28.4224144293
 21
-56.2423757257
  0
LINE
  5
2D0
100
AcDbEntity
  8
RACCORDO
100
AcDbLine
 62
7
  6
CONTINUOUS
 10
27.6114047023
 20
-81.0435996707
 11
27.6113470773
 21
71.198227503
  0
LINE
  5
2D1
100
AcDbEntity
  8
RACCORDO
100
AcDbLine
 62
7
  6
CONTINUOUS
 10
27.6112715203
 20
-81.0805595014
 11
27.6114047023
 21
-81.0435996707
  0
LINE
  5
2D2
100
AcDbEntity
  8
RACCORDO
100
AcDbLine
 62
7
  6
CONTINUOUS
 10
27.6111001859
 20
-81.1027104219
 11
27.6112715203
 21
-81.0805595014
  0
LWPOLYLINE
  5
2D3
100
AcDbEntity
  8
RACCORDO
100
AcDbPolyline
 62
7
  6
CONTINUOUS
 90
39
 70
0
 10
28.4166816202
 20
-81.8801635496
 10
28.4113574298
 20
-82.141859206
 10
28.3955179765
 20
-82.4026825478
 10
28.3691632598
 20
-82.6626335764
 10
28.3321875216
 20
-82.9223431579
 10
28.2846965181
 20
-83.181180428
 10
28.2270075203
 20
-83.4372527972
 10
28.1590696568
 20
-83.6903304451
 10
28.0809337954
 20
-83.9406432044
 10
27.9930698162
 20
-84.1869879727
 10
27.8955802167
 20
-84.429121552
 10
27.7883624944
 20
-84.667287158
 10
27.6715790302
 20
-84.9010113118
 10
27.5449799065
 20
-85.1306875001
 10
27.4088150345
 20
-85.3559222544
 10
27.2639965374
 20
-85.5750616682
 10
27.110461957
 20
-85.7879659827
 10
26.9482737448
 20
-85.9947749815
 10
26.7785313889
 20
-86.1942540773
 10
26.6015254365
 20
-86.3860676589
 10
26.4169653338
 20
-86.5705513653
 10
26.2250789186
 20
-86.7474774862
 10
26.0255280283
 20
-86.9171377195
 10
25.8186508185
 20
-87.0792403923
 10
25.6056896038
 20
-87.2326827403
 10
25.3865079459
 20
-87.3773996281
 10
25.1612422773
 20
-87.5134562163
 10
24.9315442201
 20
-87.6399451874
 10
24.6978087823
 20
-87.7566171379
 10
24.459640952
 20
-87.8637214944
 10
24.2175073225
 20
-87.9610991835
 10
23.9711599447
 20
-88.0488544107
 10
23.7208467641
 20
-88.1268829885
 10
23.4677782168
 20
-88.1947132532
 10
23.2117256016
 20
-88.252293016
 10
22.9529176177
 20
-88.2996744786
 10
22.6932508034
 20
-88.3365425621
 10
22.4333573389
 20
-88.3627922423
 10
22.3735863954
 20
-88.3673335646
  0
LWPOLYLINE
  5
2D4
100
AcDbEntity
  8
RACCORDO
100
AcDbPolyline
 62
253
  6
CONTINUOUS
 90
34
 70
0
 10
22.6023975477
 20
67.5727880273
 10
22.5743688084
 20
67.8180364682
 10
22.5374480861
 20
68.0579188813
 10
22.4917431003
 20
68.2921570604
 10
22.4371934732
 20
68.5204984508
 10
22.3740925912
 20
68.7426735441
 10
22.3031202142
 20
68.9584032974
 10
22.2244800984
 20
69.1673697831
 10
22.1383096757
 20
69.3694653689
 10
22.0452359567
 20
69.5647597489
 10
21.9455296408
 20
69.7529888747
 10
21.8393021478
 20
69.9340917747
 10
21.7269435014
 20
70.1084643762
 10
21.6087946773
 20
70.2758694835
 10
21.4848855749
 20
70.4362943693
 10
21.3550939525
 20
70.5904592496
 10
21.2196850154
 20
70.7382642745
 10
21.0787006395
 20
70.8795690328
 10
20.9316125822
 20
71.0149805473
 10
20.778556715
 20
71.1444769209
 10
20.6196511768
 20
71.2677983625
 10
20.4542857134
 20
71.3851286177
 10
20.2825147583
 20
71.4964331445
 10
20.1045356952
 20
71.6014154852
 10
19.9199327589
 20
71.6998186992
 10
19.7288931908
 20
71.7915129836
 10
19.5315335514
 20
71.8762828681
 10
19.3273351352
 20
71.9537110494
 10
19.1165754292
 20
72.0236557996
 10
18.8993505298
 20
72.0858942333
 10
18.6748817777
 20
72.1398453589
 10
18.4430636817
 20
72.1851680504
 10
18.2044690528
 20
72.2217922312
 10
17.9593613246
 20
72.2495202529
  0
LWPOLYLINE
  5
2D5
100
AcDbEntity
  8
RACCORDO
100
AcDbPolyline
 62
7
  6
CONTINUOUS
 90
34
 70
0
 10
27.4738265541
 20
-81.6694344873
 10
27.4434591434
 20
-81.9335362619
 10
27.4029170851
 20
-82.1937711632
 10
27.352200379
 20
-82.4501391911
 10
27.2911475662
 20
-82.7028943154
 10
27.2199201057
 20
-82.9517825663
 10
27.139002375
 20
-83.1960420353
 10
27.0484515476
 20
-83.4355855149
 10
26.9482104499
 20
-83.6705002125
 10
26.8385919386
 20
-83.9002858424
 10
26.719466857
 20
-84.1251671521
 10
26.5909643617
 20
-84.3449193939
 10
26.4537847787
 20
-84.558368039
 10
26.307799757
 20
-84.7655243514
 10
26.1531376476
 20
-84.9663770671
 10
25.9908838298
 20
-85.1597178649
 10
25.8212442633
 20
-85.345260971
 10
25.6440129883
 20
-85.5232921592
 10
25.459657505
 20
-85.6934604292
 10
25.2681948288
 20
-85.8558165251
 10
25.0696079441
 20
-86.0103097028
 10
24.8643133048
 20
-86.1564367307
 10
24.6519709758
 20
-86.2943685958
 10
24.4329208921
 20
-86.423934311
 10
24.2085993127
 20
-86.5441176828
 10
23.9790713058
 20
-86.6547612736
 10
23.7442718032
 20
-86.756022521
 10
23.5054418587
 20
-86.8473575448
 10
23.2628742193
 20
-86.9286611562
 10
23.0162761381
 20
-87.000038544
 10
22.7660104276
 20
-87.0612613938
 10
22.5121980254
 20
-87.1122536008
 10
22.2547179939
 20
-87.1530912699
 10
21.9935703331
 20
-87.183774401
  0
LINE
  5
2D6
100
AcDbEntity
  8
SMUSSO
100
AcDbLine
 62
7
  6
CONTINUOUS
 10
14.4738265541
 20
-87.673215381
 11
14.2738265541
 21
-88.3736794441
  0
LINE
  5
2D7
100
AcDbEntity
  8
RACCORDO
100
AcDbLine
 62
253
  6
CONTINUOUS
 10
-11.9062692273
 20
-87.1837750329
 11
-11.8237571889
 21
-87.0584131484
  0
LINE
  5
2D8
100
AcDbEntity
  8
RACCORDO
100
AcDbLine
 62
253
  6
CONTINUOUS
 10
-11.8237571889
 20
-87.0584131484
 11
-11.0242866391
 21
-85.8619047632
  0
LINE
  5
2D9
100
AcDbEntity
  8
RACCORDO
100
AcDbLine
 62
253
  6
CONTINUOUS
 10
-11.0242866391
 20
-85.8619047632
 11
-8.5117081707
 21
-82.1170655831
  0
LINE
  5
2DA
100
AcDbEntity
  8
RACCORDO
100
AcDbLine
 62
7
  6
CONTINUOUS
 10
-4.4318820473
 20
-55.9605956419
 11
-4.3761734459
 21
-55.9048870404
  0
LINE
  5
2DB
100
AcDbEntity
  8
RACCORDO
100
AcDbLine
 62
7
  6
CONTINUOUS
 10
-10.0844803607
 20
-68.992069588
 11
-10.1668885336
 21
-69.0745590793
  0
LINE
  5
2DC
100
AcDbEntity
  8
RACCORDO
100
AcDbLine
 62
7
  6
CONTINUOUS
 10
-10.0761608522
 20
-68.9838000544
 11
-10.0844803607
 21
-68.992069588
  0
LINE
  5
2DD
100
AcDbEntity
  8
RACCORDO
100
AcDbLine
 62
7
  6
CONTINUOUS
 10
-10.1668885336
 20
-69.0745590793
 11
-10.1761734459
 21
-69.083774401
  0
LWPOLYLINE
  5
2DE
100
AcDbEntity
  8
RACCORDO
100
AcDbPolyline
 62
7
  6
CONTINUOUS
 90
3
 70
0
 10
-10.0536694906
 20
-68.961326057
 10
-10.0607554172
 20
-68.968344102
 10
-10.0761608522
 20
-68.9838000544
  0
LWPOLYLINE
  5
2DF
100
AcDbEntity
  8
RACCORDO
100
AcDbPolyline
 62
253
  6
CONTINUOUS
 90
13
 70
0
 10
-18.1637565157
 20
71.1686552208
 10
-18.2253853246
 20
71.2460770868
 10
-18.2842849556
 20
71.319318988
 10
-18.340490795
 20
71.3883809243
 10
-18.3939181603
 20
71.4530467438
 10
-18.4447336952
 20
71.5135325984
 10
-18.493302216
 20
71.570486944
 10
-18.539709296
 20
71.6240962526
 10
-18.5838360838
 20
71.6741740523
 10
-18.6256899787
 20
71.7208093824
 10
-18.6652624252
 20
71.7640319228
 10
-18.7025325113
 20
71.8038119937
 10
-18.7374861327
 20
71.840149595
  0
LINE
  5
2E0
100
AcDbEntity
  8
RACCORDO
100
AcDbLine
 62
253
  6
CONTINUOUS
 10
-8.5117072634
 20
72.2495169096
 11
-10.3762171637
 21
75.0283699422
  0
LINE
  5
2E1
100
AcDbEntity
  8
RACCORDO
100
AcDbLine
 62
253
  6
CONTINUOUS
 10
-10.3762171637
 20
75.0283699422
 11
-11.4288003114
 21
76.5986598166
  0
LWPOLYLINE
  5
2E2
100
AcDbEntity
  8
RACCORDO
100
AcDbPolyline
 62
253
  6
CONTINUOUS
 90
3
 70
0
 10
-11.4288003114
 20
76.5986598166
 10
-11.8259152966
 20
77.1940798133
 10
-11.9062689077
 20
77.3162257809
  0
LWPOLYLINE
  5
2E3
100
AcDbEntity
  8
RACCORDO
100
AcDbPolyline
 62
253
  6
CONTINUOUS
 90
12
 70
0
 10
-18.7374824932
 20
-81.7076946929
 10
-18.703798335
 20
-81.6727582662
 10
-18.6678124465
 20
-81.6343840548
 10
-18.6295115397
 20
-81.5925720589
 10
-18.5889997125
 20
-81.5475610055
 10
-18.5461594689
 20
-81.4991121675
 10
-18.5005890585
 20
-81.4465093634
 10
-18.4521179554
 20
-81.3897368696
 10
-18.4007683239
 20
-81.3288104097
 10
-18.3463557951
 20
-81.2630609733
 10
-18.2887552975
 20
-81.1922655567
 10
-18.1637565157
 20
-81.0362057939
  0
LWPOLYLINE
  5
2E4
100
AcDbEntity
  8
RACCORDO
100
AcDbPolyline
 62
7
  6
CONTINUOUS
 90
7
 70
0
 10
-10.0261734459
 20
-68.933774401
 10
-10.027135718
 20
-68.9344844576
 10
-10.0291174651
 20
-68.9365164694
 10
-10.0321186871
 20
-68.9397196422
 10
-10.0362606628
 20
-68.9439290598
 10
-10.0414221134
 20
-68.9490006324
 10
-10.0536694906
 20
-68.961326057
  0
LWPOLYLINE
  5
2E5
100
AcDbEntity
  8
RACCORDO
100
AcDbPolyline
 62
253
  6
CONTINUOUS
 90
10
 70
0
 10
-18.7374861327
 20
71.840149595
 10
-18.7773326329
 20
71.8804401841
 10
-18.8138627334
 20
71.9155679918
 10
-18.8469730508
 20
71.9455330181
 10
-18.8764174838
 20
71.9704942618
 10
-18.902273332
 20
71.990292724
 10
-18.9247430908
 20
72.0044514089
 10
-18.9436191292
 20
72.0128113175
 10
-18.9584820705
 20
72.0155314487
 10
-18.9690286906
 20
72.0126118024
  0
LINE
  5
2E6
100
AcDbEntity
  8
RACCORDO
100
AcDbLine
 62
7
  6
CONTINUOUS
 10
19.5681179527
 20
-55.9605956419
 11
19.6238265541
 21
-55.9048870404
  0
LINE
  5
2E7
100
AcDbEntity
  8
RACCORDO
100
AcDbLine
 62
253
  6
CONTINUOUS
 10
-18.0261735734
 20
-81.0345146432
 11
-16.9834166562
 21
-80.2614564572
  0
LINE
  5
2E8
100
AcDbEntity
  8
RACCORDO
100
AcDbLine
 62
253
  6
CONTINUOUS
 10
-15.4879874691
 20
-79.1598738017
 11
-15.0589707172
 21
-78.8439702114
  0
LINE
  5
2E9
100
AcDbEntity
  8
RACCORDO
100
AcDbLine
 62
253
  6
CONTINUOUS
 10
-15.0589707172
 20
-78.8439702114
 11
-13.1547450315
 21
-77.4403368344
  0
LINE
  5
2EA
100
AcDbEntity
  8
RACCORDO
100
AcDbLine
 62
253
  6
CONTINUOUS
 10
-16.9834166562
 20
-80.2614564572
 11
-15.4879874691
 21
-79.1598738017
  0
LINE
  5
2EB
100
AcDbEntity
  8
RACCORDO
100
AcDbLine
 62
253
  6
CONTINUOUS
 10
-13.1547449777
 20
67.572787778
 11
-17.1849042652
 21
70.5429518196
  0
LWPOLYLINE
  5
2EC
100
AcDbEntity
  8
RACCORDO
100
AcDbPolyline
 62
253
  6
CONTINUOUS
 90
4
 70
0
 10
-17.1849042652
 20
70.5429518196
 10
-17.6528888912
 20
70.8894366532
 10
-17.7871099538
 20
70.989608147
 10
-18.0261737213
 20
71.1669659585
  0
LINE
  5
2ED
100
AcDbEntity
  8
RACCORDO
100
AcDbLine
 62
7
  6
CONTINUOUS
 10
13.9155196393
 20
-68.992069588
 11
13.8331114664
 21
-69.0745590793
  0
LINE
  5
2EE
100
AcDbEntity
  8
RACCORDO
100
AcDbLine
 62
7
  6
CONTINUOUS
 10
13.9238391478
 20
-68.9838000544
 11
13.9155196393
 21
-68.992069588
  0
LINE
  5
2EF
100
AcDbEntity
  8
RACCORDO
100
AcDbLine
 62
7
  6
CONTINUOUS
 10
13.8331114664
 20
-69.0745590793
 11
13.8238265541
 21
-69.083774401
  0
LWPOLYLINE
  5
2F0
100
AcDbEntity
  8
RACCORDO
100
AcDbPolyline
 62
7
  6
CONTINUOUS
 90
3
 70
0
 10
13.9463305094
 20
-68.961326057
 10
13.9392445828
 20
-68.968344102
 10
13.9238391478
 20
-68.9838000544
  0
LWPOLYLINE
  5
2F1
100
AcDbEntity
  8
RACCORDO
100
AcDbPolyline
 62
7
  6
CONTINUOUS
 90
7
 70
0
 10
13.9738265541
 20
-68.933774401
 10
13.972864282
 20
-68.9344844576
 10
13.9708825349
 20
-68.9365164694
 10
13.9678813129
 20
-68.9397196422
 10
13.9637393372
 20
-68.9439290598
 10
13.9585778866
 20
-68.9490006324
 10
13.9463305094
 20
-68.961326057
  0
LWPOLYLINE
  5
2F2
100
AcDbEntity
  8
RACCORDO
100
AcDbPolyline
 62
253
  6
CONTINUOUS
 90
10
 70
0
 10
-12.4627214257
 20
-88.383774401
 10
-12.45431046
 20
-88.380523293
 10
-12.4430221137
 20
-88.3697168194
 10
-12.4294636942
 20
-88.3514027589
 10
-12.413626685
 20
-88.3256832016
 10
-12.3955196026
 20
-88.2926202549
 10
-12.3751679968
 20
-88.2521632068
 10
-12.3525803842
 20
-88.2042788538
 10
-12.3277482481
 20
-88.1490242248
 10
-12.3006715886
 20
-88.0864236899
  0
LWPOLYLINE
  5
2F3
100
AcDbEntity
  8
RACCORDO
100
AcDbPolyline
 62
253
  6
CONTINUOUS
 90
34
 70
0
 10
-8.5117074929
 20
72.2495202017
 10
-8.7568158442
 20
72.2217923116
 10
-8.9954107816
 20
72.1851682205
 10
-9.2272289096
 20
72.1398456262
 10
-9.4516973899
 20
72.0858947149
 10
-9.6689218197
 20
72.0236566063
 10
-9.879681089
 20
71.9537121432
 10
-10.0838791978
 20
71.8762841986
 10
-10.2812386142
 20
71.7915145519
 10
-10.4722780454
 20
71.6998204227
 10
-10.6568809901
 20
71.601417248
 10
-10.8348601746
 20
71.49643488
 10
-11.006631223
 20
71.3851302951
 10
-11.1719967278
 20
71.2677999575
 10
-11.3309022963
 20
71.1444784188
 10
-11.4839581402
 20
71.0149819789
 10
-11.6310460948
 20
70.8795704465
 10
-11.7720303226
 20
70.7382657072
 10
-11.9074391112
 20
70.5904607372
 10
-12.037230576
 20
70.4362959412
 10
-12.1611395138
 20
70.2758711648
 10
-12.2792882211
 20
70.1084661879
 10
-12.3916467843
 20
69.9340937233
 10
-12.4978742178
 20
69.7529909555
 10
-12.5975805495
 20
69.5647619506
 10
-12.6906543332
 20
69.3694676504
 10
-12.7768248512
 20
69.1673720959
 10
-12.8554651456
 20
68.9584056137
 10
-12.9264377489
 20
68.7426758626
 10
-12.9895388791
 20
68.5205007014
 10
-13.0440888255
 20
68.292159045
 10
-13.0897941821
 20
68.0579203439
 10
-13.1267152518
 20
67.8180371695
 10
-13.1547442696
 20
67.5727877118
  0
LWPOLYLINE
  5
2F4
100
AcDbEntity
  8
RACCORDO
100
AcDbPolyline
 62
253
  6
CONTINUOUS
 90
34
 70
0
 10
-8.5117069945
 20
70.8339175811
 10
-8.6960659663
 20
70.8293361321
 10
-8.8744390735
 20
70.8176782643
 10
-9.0468263162
 20
70.7989439774
 10
-9.2130918864
 20
70.7728536569
 10
-9.373371592
 20
70.7396869174
 10
-9.5280728568
 20
70.7002826034
 10
-9.6772539177
 20
70.654703536
 10
-9.8208565378
 20
70.6028868941
 10
-9.959113431
 20
70.5454830579
 10
-10.0920465563
 20
70.4825458633
 10
-10.2196339547
 20
70.4140214745
 10
-10.3420424633
 20
70.3403987637
 10
-10.4592327616
 20
70.2617987447
 10
-10.5712441701
 20
70.1781004038
 10
-10.6783614878
 20
70.0894295718
 10
-10.7806262978
 20
69.9959115412
 10
-10.8779970168
 20
69.8974210195
 10
-10.9706336944
 20
69.7937079595
 10
-11.0586598135
 20
69.6848196005
 10
-11.141951891
 20
69.5707087033
 10
-11.220299528
 20
69.4509835031
 10
-11.2938391402
 20
69.3255691695
 10
-11.3624343117
 20
69.194540533
 10
-11.4254653965
 20
69.0577303198
 10
-11.4829872187
 20
68.9150472594
 10
-11.5349449541
 20
68.7665826223
 10
-11.5805544842
 20
68.6124429472
 10
-11.6198097751
 20
68.4525102043
 10
-11.6527168608
 20
68.2869024234
 10
-11.6785097247
 20
68.1160802327
 10
-11.6969330281
 20
67.9401971749
 10
-11.7082421098
 20
67.7590997073
 10
-11.7124369698
 20
67.57278783
  0
LWPOLYLINE
  5
2F5
100
AcDbEntity
  8
RACCORDO
100
AcDbPolyline
 62
253
  6
CONTINUOUS
 90
3
 70
0
 10
-18.1634467386
 20
71.2351617697
 10
-18.1370099042
 20
71.2352107172
 10
-18.0261734459
 20
71.2356085923
  0
LINE
  5
2F6
100
AcDbEntity
  8
RACCORDO
100
AcDbLine
 62
253
  6
CONTINUOUS
 10
-11.7124369698
 20
67.57278783
 11
-13.1547449777
 21
67.5727877611
  0
LINE
  5
2F7
100
AcDbEntity
  8
RACCORDO
100
AcDbLine
 62
253
  6
CONTINUOUS
 10
21.1600903107
 20
67.5727882646
 11
22.6023979286
 21
67.5727879896
  0
LINE
  5
2F8
100
AcDbEntity
  8
RACCORDO
100
AcDbLine
 62
253
  6
CONTINUOUS
 10
17.9593605645
 20
70.8339173125
 11
-8.5117069945
 21
70.8339175811
  0
LINE
  5
2F9
100
AcDbEntity
  8
RACCORDO
100
AcDbLine
 62
253
  6
CONTINUOUS
 10
27.6114095696
 20
71.1686404081
 11
27.4738265541
 21
71.1686403527
  0
LINE
  5
2FA
100
AcDbEntity
  8
RACCORDO
100
AcDbLine
 62
253
  6
CONTINUOUS
 10
-18.1637564859
 20
71.1686461048
 11
-18.0261734459
 21
71.1686460353
  0
LINE
  5
2FB
100
AcDbEntity
  8
RACCORDO
100
AcDbLine
 62
253
  6
CONTINUOUS
 10
17.9593609506
 20
72.2495170157
 11
-8.5117072634
 21
72.2495169096
  0
LWPOLYLINE
  5
2FC
100
AcDbEntity
  8
RACCORDO
100
AcDbPolyline
 62
253
  6
CONTINUOUS
 90
3
 70
0
 10
27.611099146
 20
71.2351612515
 10
27.4771073984
 20
71.2355872723
 10
27.4738265541
 20
71.2356082419
  0
LWPOLYLINE
  5
2FD
100
AcDbEntity
  8
RACCORDO
100
AcDbPolyline
 62
7
  6
CONTINUOUS
 90
3
 70
0
 10
-12.9262472524
 20
78.4997627893
 10
-12.7249504908
 20
78.5109801069
 10
-12.4633382503
 20
78.5162028395
  0
LINE
  5
2FE
100
AcDbEntity
  8
RACCORDO
100
AcDbLine
 62
7
  6
CONTINUOUS
 10
-12.4627052706
 20
78.5162255973
 11
-12.4633287325
 21
78.5162034138
  0
LWPOLYLINE
  5
2FF
100
AcDbEntity
  8
RACCORDO
100
AcDbPolyline
 62
7
  6
CONTINUOUS
 90
40
 70
0
 10
-12.0289900608
 20
77.5122765265
 10
-12.2786446054
 20
77.5072286976
 10
-12.5269830465
 20
77.4923006448
 10
-12.7736575823
 20
77.4675370774
 10
-13.0182968344
 20
77.4329746536
 10
-13.2605890759
 20
77.3887077403
 10
-13.5002814854
 20
77.3348833582
 10
-13.7370434597
 20
77.2716077046
 10
-13.9705490492
 20
77.1989757777
 10
-14.2005572568
 20
77.1171270281
 10
-14.4267640942
 20
77.0261955664
 10
-14.6488463009
 20
76.9263132234
 10
-14.8665393496
 20
76.8176256032
 10
-15.0795422177
 20
76.7003083013
 10
-15.2875646528
 20
76.5745210217
 10
-15.4903636975
 20
76.4403949062
 10
-15.6876667968
 20
76.2981315543
 10
-15.879192384
 20
76.1479263317
 10
-16.0646888199
 20
75.9899092255
 10
-16.2438987864
 20
75.8243203796
 10
-16.416568789
 20
75.6513803545
 10
-16.5824574076
 20
75.471198207
 10
-16.7413295243
 20
75.2840496608
 10
-16.8929551691
 20
75.0901807118
 10
-17.0371022278
 20
74.8896628856
 10
-17.1735632245
 20
74.6828021517
 10
-17.3021268506
 20
74.4698738053
 10
-17.422553983
 20
74.2509109098
 10
-17.5346581922
 20
74.0262706872
 10
-17.6382582473
 20
73.7962406198
 10
-17.7331156809
 20
73.5607579253
 10
-17.8190753548
 20
73.3202164498
 10
-17.8959710715
 20
73.0749333147
 10
-17.9635324406
 20
72.8247431776
 10
-18.0216314145
 20
72.5701181868
 10
-18.0701252646
 20
72.311376507
 10
-18.108693535
 20
72.0481430467
 10
-18.1371376544
 20
71.780590909
 10
-18.1554174466
 20
71.5094395902
 10
-18.1634472664
 20
71.2351617746
  0
LWPOLYLINE
  5
300
100
AcDbEntity
  8
DRAFT
100
AcDbPolyline
 62
7
  6
CONTINUOUS
 90
40
 70
0
 10
-12.7761733084
 20
78.8162257633
 10
-13.0378902879
 20
78.8109621733
 10
-13.2985870987
 20
78.7952212086
 10
-13.5582637408
 20
78.7690028676
 10
-13.817437167
 20
78.7322247322
 10
-14.075590424
 20
78.6849692139
 10
-14.3311726532
 20
78.6274835532
 10
-14.5840321445
 20
78.559738348
 10
-14.8343206097
 20
78.4817629876
 10
-15.0809423246
 20
78.3938928989
 10
-15.3239967127
 20
78.296023843
 10
-15.5633843535
 20
78.1882600404
 10
-15.7977112575
 20
78.0712496067
 10
-16.0267913998
 20
77.9450346223
 10
-16.2508108103
 20
77.8095729844
 10
-16.4689335826
 20
77.6653865344
 10
-16.6813077469
 20
77.512301599
 10
-16.8877852786
 20
77.3504918258
 10
-17.0870861911
 20
77.1810000378
 10
-17.2789515752
 20
77.0040063343
 10
-17.463640347
 20
76.8193305903
 10
-17.6406492586
 20
76.6274752951
 10
-17.8101586128
 20
76.4281812574
 10
-17.9719881136
 20
76.2217076411
 10
-18.125093616
 20
76.0093344703
 10
-18.269301284
 20
75.7912098992
 10
-18.4047849607
 20
75.5671857499
 10
-18.53102202
 20
75.3380975518
 10
-18.6480545831
 20
75.1037593023
 10
-18.755840535
 20
74.8643569821
 10
-18.8537308957
 20
74.621284101
 10
-18.9416215899
 20
74.3746393537
 10
-19.0196166981
 20
74.1243240296
 10
-19.087379474
 20
73.871435537
 10
-19.1448802738
 20
73.6158225354
 10
-19.192148745
 20
73.3576363538
 10
-19.2289370779
 20
73.098428411
 10
-19.25516267
 20
72.8387158469
 10
-19.2709081259
 20
72.5779815189
 10
-19.2761734459
 20
72.316225425
  0
LWPOLYLINE
  5
301
100
AcDbEntity
  8
RACCORDO
100
AcDbPolyline
 62
7
  6
CONTINUOUS
 90
4
 70
0
 10
-12.4627438499
 20
78.5162228033
 10
-12.6263826939
 20
78.5141669139
 10
-12.8643661987
 20
78.5038289202
 10
-12.9262435149
 20
78.4997103899
  0
LINE
  5
302
100
AcDbEntity
  8
RACCORDO
100
AcDbLine
 62
7
  6
CONTINUOUS
 10
-12.5459170885
 20
77.316225599
 11
21.9935448061
 21
77.316225599
  0
LINE
  5
303
100
AcDbEntity
  8
RACCORDO
100
AcDbLine
 62
7
  6
CONTINUOUS
 10
21.4766423892
 20
77.5122780333
 11
-12.0289901616
 21
77.5122780333
  0
LINE
  5
304
100
AcDbEntity
  8
ASSI
100
AcDbLine
 62
7
  6
CONTINUOUS
 10
-12.4627315761
 20
78.516225599
 11
21.9103831021
 21
78.516225599
  0
LINE
  5
305
100
AcDbEntity
  8
DRAFT
100
AcDbLine
 62
7
  6
CONTINUOUS
 10
-12.7761733084
 20
78.8162257633
 11
22.2238264166
 21
78.8162257627
  0
LWPOLYLINE
  5
306
100
AcDbEntity
  8
RACCORDO
100
AcDbPolyline
 62
7
  6
CONTINUOUS
 90
3
 70
0
 10
21.91099758
 20
78.516202464
 10
22.1726070686
 20
78.5109791873
 10
22.3747463744
 20
78.4997012321
  0
LINE
  5
307
100
AcDbEntity
  8
RACCORDO
100
AcDbLine
 62
7
  6
CONTINUOUS
 10
21.9109818412
 20
78.5162034138
 11
21.9103775131
 21
78.5162255983
  0
LWPOLYLINE
  5
308
100
AcDbEntity
  8
RACCORDO
100
AcDbPolyline
 62
7
  6
CONTINUOUS
 90
4
 70
0
 10
22.3747425991
 20
78.4996484026
 10
22.3169112538
 20
78.503523293
 10
22.0764840424
 20
78.5141034583
 10
21.9103918042
 20
78.5162214132
  0
LWPOLYLINE
  5
309
100
AcDbEntity
  8
RACCORDO
100
AcDbPolyline
 62
7
  6
CONTINUOUS
 90
39
 70
0
 10
22.3747463744
 20
78.4997012321
 10
22.4333581414
 20
78.4952426158
 10
22.693250798
 20
78.4689927476
 10
22.9529173544
 20
78.4321245769
 10
23.2117254939
 20
78.3847431029
 10
23.4677782689
 20
78.32716333
 10
23.720846846
 20
78.2593330311
 10
23.9711600604
 20
78.1813044206
 10
24.2175074694
 20
78.0935491639
 10
24.4596411251
 20
77.9961714492
 10
24.6978089789
 20
77.8890670704
 10
24.9315444382
 20
77.7723951015
 10
25.1612425155
 20
77.6459061158
 10
25.3865082021
 20
77.5098495168
 10
25.6056898751
 20
77.3651326238
 10
25.8186511015
 20
77.2116902763
 10
26.02552832
 20
77.0495876096
 10
26.2250792163
 20
76.8799273891
 10
26.4169656349
 20
76.7030012874
 10
26.6015257383
 20
76.518517607
 10
26.7785316899
 20
76.326704059
 10
26.948274043
 20
76.127225005
 10
27.1104622507
 20
75.9204160556
 10
27.2639968273
 20
75.7075117975
 10
27.4088153212
 20
75.488372448
 10
27.5449801907
 20
75.2631377649
 10
27.6715793152
 20
75.0334616519
 10
27.7883627845
 20
74.799737577
 10
27.8955805152
 20
74.561572054
 10
27.9930701266
 20
74.3194385598
 10
28.0809341206
 20
74.0730938808
 10
28.1590700003
 20
73.822781213
 10
28.227007886
 20
73.5697036512
 10
28.2846969262
 20
73.31363145
 10
28.3321879761
 20
73.0547943426
 10
28.369163716
 20
72.7950846493
 10
28.3955183734
 20
72.5351331446
 10
28.4113577227
 20
72.2743090522
 10
28.4166817645
 20
72.0126123707
  0
LWPOLYLINE
  5
30A
100
AcDbEntity
  8
RACCORDO
100
AcDbPolyline
 62
7
  6
CONTINUOUS
 90
37
 70
0
 10
21.9935448061
 20
77.316225599
 10
22.2356488087
 20
77.2883033146
 10
22.4752695881
 20
77.2513680706
 10
22.7124071444
 20
77.2054198669
 10
22.9473638449
 20
77.1503836735
 10
23.1798373223
 20
77.0863345204
 10
23.4089204744
 20
77.0134974979
 10
23.6347081984
 20
76.9317758131
 10
23.8571055971
 20
76.8412662589
 10
24.0749208767
 20
76.7424843043
 10
24.2882292114
 20
76.6352565676
 10
24.4969554271
 20
76.5197564306
 10
24.6996822067
 20
76.3970195077
 10
24.8962145222
 20
76.2670195092
 10
25.0867474016
 20
76.1297827247
 10
25.2704486127
 20
75.9864236374
 10
25.4469337735
 20
75.8372821334
 10
25.6165872659
 20
75.6820183266
 10
25.7797300034
 20
75.5207270423
 10
25.9366127843
 20
75.3532424681
 10
26.0869848103
 20
75.1797304163
 10
26.2304146002
 20
75.0007831496
 10
26.3669243283
 20
74.8163325808
 10
26.4964918203
 20
74.626446797
 10
26.6186190724
 20
74.4319223219
 10
26.7332363752
 20
74.2328420727
 10
26.8404134381
 20
74.0291231323
 10
26.9398613853
 20
73.8213132735
 10
27.0315947677
 20
73.6093697873
 10
27.1155990343
 20
73.3933353826
 10
27.191541657
 20
73.1738859591
 10
27.2594381356
 20
72.9506895191
 10
27.3192729701
 20
72.7240780603
 10
27.3706671321
 20
72.4957234757
 10
27.4134942787
 20
72.266183063
 10
27.4478807527
 20
72.0348995243
 10
27.4738265541
 20
71.8018728599
  0
LWPOLYLINE
  5
30B
100
AcDbEntity
  8
RACCORDO
100
AcDbPolyline
 62
253
  6
CONTINUOUS
 90
10
 70
0
 10
28.416681799
 20
72.0126118025
 10
28.4068533506
 20
72.0160341672
 10
28.3929272683
 20
72.0137922738
 10
28.3749736735
 20
72.0058861221
 10
28.353092996
 20
71.992291643
 10
28.3273358011
 20
71.9730329058
 10
28.2976523042
 20
71.948182118
 10
28.2640231461
 20
71.9177633488
 10
28.226509832
 20
71.8817525292
 10
28.1851392969
 20
71.840149659
  0
CIRCLE
  5
30C
100
AcDbEntity
  8
RACCORDO
100
AcDbCircle
 62
253
  6
CONTINUOUS
 10
4.7238265541
 20
43.816225599
 40
12.5095779829
  0
CIRCLE
  5
30D
100
AcDbEntity
  8
RACCORDO
100
AcDbCircle
 62
253
  6
CONTINUOUS
 10
4.7238265541
 20
43.816225599
 40
12.4904658497
  0
ARC
  5
30E
100
AcDbEntity
  8
0
100
AcDbCircle
 62
7
  6
CONTINUOUS
 10
4.7238265541
 20
43.816225599
 40
10.0
100
AcDbArc
 50
287.1228495255
 51
72.8771504745
  0
ARC
  5
30F
100
AcDbEntity
  8
0
100
AcDbCircle
 62
7
  6
CONTINUOUS
 10
4.7238265541
 20
43.816225599
 40
10.0
100
AcDbArc
 50
107.1228495255
 51
252.8771504745
  0
ARC
  5
310
100
AcDbEntity
  8
0
100
AcDbCircle
 62
7
  6
CONTINUOUS
 10
4.7238265541
 20
43.816225599
 40
8.25
100
AcDbArc
 50
290.9083726436
 51
69.0916273564
  0
ARC
  5
311
100
AcDbEntity
  8
0
100
AcDbCircle
 62
7
  6
CONTINUOUS
 10
4.7238265541
 20
43.816225599
 40
8.25
100
AcDbArc
 50
110.9083726436
 51
249.0916273564
  0
CIRCLE
  5
312
100
AcDbEntity
  8
RACCORDO
100
AcDbCircle
 62
253
  6
CONTINUOUS
 10
4.7238265541
 20
-51.283774401
 40
2.0121320344
  0
CIRCLE
  5
313
100
AcDbEntity
  8
RACCORDO
100
AcDbCircle
 62
253
  6
CONTINUOUS
 10
4.7238265541
 20
-51.283774401
 40
1.9060660172
  0
ARC
  5
314
100
AcDbEntity
  8
RACCORDO
100
AcDbCircle
 62
7
  6
CONTINUOUS
 10
16.0138265541
 20
7.8998776802
 40
1.0
100
AcDbArc
 50
96.0
 51
276.0
  0
ARC
  5
315
100
AcDbEntity
  8
RACCORDO
100
AcDbCircle
 62
7
  6
CONTINUOUS
 10
-6.5661734459
 20
7.8998776802
 40
1.0
100
AcDbArc
 50
264.0
 51
84.0
  0
CIRCLE
  5
316
100
AcDbEntity
  8
SMUSSO
100
AcDbCircle
 62
7
  6
CONTINUOUS
 10
4.7238265541
 20
-51.283774401
 40
0.95
  0
CIRCLE
  5
317
100
AcDbEntity
  8
0
100
AcDbCircle
 62
7
  6
CONTINUOUS
 10
4.7238265541
 20
43.816225599
 40
0.95
  0
ARC
  5
318
100
AcDbEntity
  8
RACCORDO
100
AcDbCircle
 62
253
  6
CONTINUOUS
 10
16.0138265541
 20
7.8998776802
 40
0.75
100
AcDbArc
 50
76.5287793655
 51
295.4712206345
  0
ARC
  5
319
100
AcDbEntity
  8
RACCORDO
100
AcDbCircle
 62
253
  6
CONTINUOUS
 10
-6.5661734459
 20
7.8998776802
 40
0.75
100
AcDbArc
 50
244.5287793655
 51
103.4712206345
  0
ELLIPSE
  5
31A
100
AcDbEntity
  8
RACCORDO
100
AcDbEllipse
 62
7
  6
CONTINUOUS
 10
-1.1702706389
 20
-72.4460558593
 30
0.0
 11
-0.0
 21
15.9377185417
 31
0.0
 40
0.0174550649
 41
-3.4984248105
 42
-3.391859015
  0
ELLIPSE
  5
31B
100
AcDbEntity
  8
RACCORDO
100
AcDbEllipse
 62
7
  6
CONTINUOUS
 10
10.6179237471
 20
-72.4460558593
 30
0.0
 11
-0.0
 21
15.9377185417
 31
0.0
 40
0.0174550649
 41
-2.8913262922
 42
-2.7847604967
  0
ELLIPSE
  5
31C
100
AcDbEntity
  8
RACCORDO
100
AcDbEllipse
 62
7
  6
CONTINUOUS
 10
-1.2726631617
 20
-87.4055408329
 30
0.0
 11
0.0
 21
0.3
 31
0.0
 40
0.0174550649
 41
-1.4849777
 42
-0.7385379231
  0
ELLIPSE
  5
31D
100
AcDbEntity
  8
RACCORDO
100
AcDbEllipse
 62
7
  6
CONTINUOUS
 10
10.7203162699
 20
-87.4055408329
 30
0.0
 11
-0.0
 21
0.3
 31
0.0
 40
0.0174550649
 41
0.7385379244
 42
1.4849777001
  0
ELLIPSE
  5
31E
100
AcDbEntity
  8
DRAFT
100
AcDbEllipse
 62
7
  6
CONTINUOUS
 10
10.7007423982
 20
-66.573774401
 30
0.0
 11
-0.0
 21
21.96
 31
0.0
 40
0.0174550649
 41
-3.7751127392
 42
-3.4940577304
  0
ELLIPSE
  5
31F
100
AcDbEntity
  8
DRAFT
100
AcDbEllipse
 62
7
  6
CONTINUOUS
 10
-1.2530892899
 20
-66.573774401
 30
0.0
 11
-0.0
 21
21.96
 31
0.0
 40
0.0174550649
 41
-2.7891275768
 42
-2.508072568
  0
ELLIPSE
  5
320
100
AcDbEntity
  8
RACCORDO
100
AcDbEllipse
 62
7
  6
CONTINUOUS
 10
-7.5529951667
 20
0.9025892354
 30
0.0
 11
0.0691961486
 21
0.4850855891
 31
0.0
 40
0.5092154667
 41
-3.0690817942
 42
-1.4982854674
  0
ELLIPSE
  5
321
100
AcDbEntity
  8
RACCORDO
100
AcDbEllipse
 62
7
  6
CONTINUOUS
 10
-4.3761734459
 20
-56.308774401
 30
0.0
 11
-0.0
 21
0.375
 31
0.0
 40
0.4
 41
0.3805063771
 42
1.5707963268
  0
ELLIPSE
  5
322
100
AcDbEntity
  8
RACCORDO
100
AcDbEllipse
 62
7
  6
CONTINUOUS
 10
19.6238265541
 20
-56.308774401
 30
0.0
 11
0.0
 21
0.375
 31
0.0
 40
0.4
 41
0.3805063771
 42
1.5707963268
  0
ELLIPSE
  5
323
100
AcDbEntity
  8
RACCORDO
100
AcDbEllipse
 62
7
  6
CONTINUOUS
 10
-10.1761734459
 20
-56.308774401
 30
0.0
 11
0.0
 21
0.375
 31
0.0
 40
0.4
 41
-1.5707963268
 42
-0.3805063771
  0
ELLIPSE
  5
324
100
AcDbEntity
  8
RACCORDO
100
AcDbEllipse
 62
7
  6
CONTINUOUS
 10
13.8238265541
 20
-56.308774401
 30
0.0
 11
0.0
 21
0.375
 31
0.0
 40
0.4
 41
-1.5707963268
 42
-0.3805063771
  0
ELLIPSE
  5
325
100
AcDbEntity
  8
RACCORDO
100
AcDbEllipse
 62
7
  6
CONTINUOUS
 10
17.0006482749
 20
0.9025892354
 30
0.0
 11
-0.0691961486
 21
0.4850855891
 31
0.0
 40
0.5092154667
 41
1.4982854674
 42
3.0690817942
  0
ENDSEC
  0
SECTION
  2
OBJECTS
  0
DICTIONARY
  5
C
100
AcDbDictionary
280
0
281
1
  3
ACAD_GROUP
350
D
  3
ACAD_MLINESTYLE
350
17
  3
ACAD_LAYOUT
350
1A
  3
ACAD_PLOTSETTINGS
350
19
  3
ACAD_PLOTSTYLENAME
350
E
  0
DICTIONARY
  5
D
102
{ACAD_REACTORS
330
C
102
}
100
AcDbDictionary
280
0
281
1
  0
ACDBDICTIONARYWDFLT
  5
E
102
{ACAD_REACTORS
330
C
102
}
100
AcDbDictionary
281
1
  3
Normal
350
F
100
AcDbDictionaryWithDefault
340
F
  0
DICTIONARY
  5
17
102
{ACAD_REACTORS
330
C
102
}
100
AcDbDictionary
280
0
281
1
  3
Standard
350
18
  0
DICTIONARY
  5
19
102
{ACAD_REACTORS
330
C
102
}
100
AcDbDictionary
281
1
  0
DICTIONARY
  5
1A
102
{ACAD_REACTORS
330
C
102
}
100
AcDbDictionary
281
1
  3
Model
350
326
  3
Layout1
350
327
  0
ACDBPLACEHOLDER
  5
F
102
{ACAD_REACTORS
330
E
102
}
  0
MLINESTYLE
  5
18
102
{ACAD_REACTORS
330
17
102
}
100
AcDbMlineStyle
  2
STANDARD
 70
0
  3

 62
256
 51
90.0
 52
90.0
 71
2
 49
0.5
 62
256
  6
BYLAYER
 49
-0.5
 62
256
  6
BYLAYER
  0
LAYOUT
  5
326
102
{ACAD_REACTORS
330
1A
102
}
100
AcDbPlotSettings
  1

  2
none_device
  4
ISO_A4_(297.00_x_210.00_MM)
  6

 40
0.0
 41
0.0
 42
0.0
 43
0.0
 44
297.0
 45
210.0
 46
0.0
 47
0.0
 48
0.0
 49
0.0
140
0.0
141
0.0
142
1.0
143
1.0
 70
1024
 72
1
 73
0
 74
0
  7

 75
0
147
1.0
148
0.0
149
0.0
100
AcDbLayout
  1
Model
 70
0
 71
0
 10
0.0
 20
0.0
 11
297.0
 21
210.0
 12
0.0
 22
0.0
 32
0.0
 14
0.0
 24
0.0
 34
0.0
 15
0.0
 25
0.0
 35
0.0
146
0.0
 13
0.0
 23
0.0
 33
0.0
 16
1.0
 26
0.0
 36
0.0
 17
0.0
 27
1.0
 37
0.0
 76
0
330
212
345
0
346
0
  0
LAYOUT
  5
327
102
{ACAD_REACTORS
330
1A
102
}
100
AcDbPlotSettings
  1

  2
none_device
  4
ISO_A4_(297.00_x_210.00_MM)
  6

 40
0.0
 41
0.0
 42
0.0
 43
0.0
 44
297.0
 45
210.0
 46
0.0
 47
0.0
 48
0.0
 49
0.0
140
0.0
141
0.0
142
1.0
143
1.0
 70
0
 72
1
 73
0
 74
0
  7

 75
0
147
1.0
148
0.0
149
0.0
100
AcDbLayout
  1
Layout1
 70
0
 71
1
 10
0.0
 20
0.0
 11
297.0
 21
210.0
 12
0.0
 22
0.0
 32
0.0
 14
0.0
 24
0.0
 34
0.0
 15
0.0
 25
0.0
 35
0.0
146
0.0
 13
0.0
 23
0.0
 33
0.0
 16
1.0
 26
0.0
 36
0.0
 17
0.0
 27
1.0
 37
0.0
 76
0
330
213
345
0
346
0
  0
ENDSEC
  0
EOF
