  0
SECTION
  2
HEADER
  9
$ACADVER
  1
AC1024
  9
$DWGCODEPAGE
  3
ANSI_1252
  9
$EXTMAX
 10
558.8
 20
431.8
 30
0.0
  9
$EXTMIN
 10
0.0
 20
0.0
 30
0.0
  9
$LIMMIN
 10
0.0
 20
0.0
  9
$LIMMAX
 10
558.8
 20
431.8
  9
$VIEWCTR
 10
279.4
 20
215.9
  9
$VIEWSIZE
 40
431.8
  9
$CLAYER
  8
0
  9
$LTSCALE
 40
30.734
  9
$CELTYPE
  6
BYLAYER
  9
$DIMSCALE
 40
1.0
  9
$DIMASZ
 40
3.0
  9
$DIMEXO
 40
0.5
  9
$DIMDLI
 40
21.2344
  9
$DIMEXE
 40
1.5
  9
$DIMCEN
 40
5.0292
  9
$DIMLFAC
 40
1.0
  9
$DIMBLK
  1
_FILLED
  9
$DIMALT
 70
0
  9
$DIMALTF
 40
0.0393700787
  9
$DIMTXT
 40
3.0
  9
$DIMTOL
 70
1
  9
$DIMLIM
 70
0
  9
$DIMTFAC
 40
1.0
  9
$DIMTP
 40
0.01
  9
$DIMTM
 40
0.01
  9
$DIMGAP
 40
0.625
  9
$DIMDSEP
 70
44
  9
$AUNITS
 70
0
  9
$PDMODE
 70
3
  9
$PDSIZE
 40
3.0
  9
$HANDSEED
  5
6D8
  9
$TILEMODE
 70
1
  9
$MEASUREMENT
 70
1
  9
$INSUNITS
 70
4
  0
ENDSEC
  0
SECTION
  2
CLASSES
  0
CLASS
  1
ACDBDICTIONARYWDFLT
  2
AcDbDictionaryWithDefault
  3
AutoCAD 2000
 90
0
 91
1
280
0
281
0
  0
CLASS
  1
ACDBPLACEHOLDER
  2
AcDbPlaceHolder
  3
AutoCAD 2000
 90
0
 91
1
280
0
281
0
  0
CLASS
  1
LAYOUT
  2
AcDbLayout
  3
AutoCAD 2000
 90
0
 91
0
280
0
281
0
  0
ENDSEC
  0
SECTION
  2
TABLES
  0
TABLE
  2
VPORT
  5
8
100
AcDbSymbolTable
 70
2
  0
VPORT
  5
1F4
100
AcDbSymbolTableRecord
100
AcDbViewportTableRecord
  2
*ACTIVE
 70
0
 10
0.0
 20
0.0
 11
1.0
 21
1.0
 12
279.4
 22
215.9
 13
0.0
 23
0.0
 14
1.0
 24
1.0
 15
0.0
 25
0.0
 16
0.0
 26
0.0
 36
1.0
 17
0.0
 27
0.0
 37
0.0
 40
431.8
 41
1.2941176471
 42
50.0
 43
0.0
 44
0.0
 50
0.0
 51
0.0
 71
0
 72
100
 73
1
 74
1
 75
0
 76
0
 77
0
 78
0
  0
ENDTAB
  0
TABLE
  2
LTYPE
  5
5
100
AcDbSymbolTable
 70
6
  0
LTYPE
  5
14
100
AcDbSymbolTableRecord
100
AcDbLinetypeTableRecord
  2
BYBLOCK
 70
0
  3

 72
65
 73
0
 40
0.0
  0
LTYPE
  5
15
100
AcDbSymbolTableRecord
100
AcDbLinetypeTableRecord
  2
BYLAYER
 70
0
  3

 72
65
 73
0
 40
0.0
  0
LTYPE
  5
16
100
AcDbSymbolTableRecord
100
AcDbLinetypeTableRecord
  2
CONTINUOUS
 70
64
  3
Solid line
 72
65
 73
0
 40
0.0
  0
LTYPE
  5
1F5
100
AcDbSymbolTableRecord
100
AcDbLinetypeTableRecord
  2
CENTER
 70
64
  3
____ _ ____ _ ____ _ ____ _ ____ _ ____ _ ____
 72
65
 73
4
 40
0.6
 49
0.375
 74
0
 49
-0.075
 74
0
 49
0.075
 74
0
 49
-0.075
 74
0
  0
LTYPE
  5
1F6
100
AcDbSymbolTableRecord
100
AcDbLinetypeTableRecord
  2
HIDDEN
 70
64
  3
- - - - - - - - - - - - - - - - - - - -
 72
65
 73
2
 40
0.2
 49
0.1
 74
0
 49
-0.1
 74
0
  0
LTYPE
  5
1F7
100
AcDbSymbolTableRecord
100
AcDbLinetypeTableRecord
  2
PHANTOM
 70
64
  3
_____ _ _ _____ _ _ _____ _ _ _____
 72
65
 73
6
 40
0.8
 49
0.45
 74
0
 49
-0.05
 74
0
 49
0.1
 74
0
 49
-0.05
 74
0
 49
0.1
 74
0
 49
-0.05
 74
0
  0
LTYPE
  5
1F8
100
AcDbSymbolTableRecord
100
AcDbLinetypeTableRecord
  2
DOT
 70
64
  3
. . . . . . . . . . . . . . . . . . . .
 72
65
 73
2
 40
0.2
 49
0.1
 74
0
 49
-0.1
 74
0
  0
LTYPE
  5
1F9
100
AcDbSymbolTableRecord
100
AcDbLinetypeTableRecord
  2
DASHED
 70
64
  3
- - - - - - - - - - - - - - - - - - - -
 72
65
 73
2
 40
0.2
 49
0.1
 74
0
 49
-0.1
 74
0
  0
ENDTAB
  0
TABLE
  2
LAYER
  5
2
100
AcDbSymbolTable
 70
36
  0
LAYER
  5
10
100
AcDbSymbolTableRecord
100
AcDbLayerTableRecord
  2
0
 70
0
 62
7
  6
CONTINUOUS
370
-3
390
F
  0
LAYER
  5
1FA
100
AcDbSymbolTableRecord
100
AcDbLayerTableRecord
  2
DEFAULT_1
 70
0
 62
7
  6
CENTER
370
-3
390
F
  0
LAYER
  5
1FB
100
AcDbSymbolTableRecord
100
AcDbLayerTableRecord
  2
DEFAULT_2
 70
0
 62
7
  6
HIDDEN
370
-3
390
F
  0
LAYER
  5
1FC
100
AcDbSymbolTableRecord
100
AcDbLayerTableRecord
  2
DEFAULT_3
 70
0
 62
7
  6
PHANTOM
370
-3
390
F
  0
LAYER
  5
1FD
100
AcDbSymbolTableRecord
100
AcDbLayerTableRecord
  2
ASSI
 70
0
 62
7
  6
CONTINUOUS
370
-3
390
F
  0
LAYER
  5
1FE
100
AcDbSymbolTableRecord
100
AcDbLayerTableRecord
  2
COLOR5
 70
0
 62
7
  6
CONTINUOUS
370
-3
390
F
  0
LAYER
  5
1FF
100
AcDbSymbolTableRecord
100
AcDbLayerTableRecord
  2
COORDINATE
 70
0
 62
7
  6
CONTINUOUS
370
-3
390
F
  0
LAYER
  5
200
100
AcDbSymbolTableRecord
100
AcDbLayerTableRecord
  2
COORD_ORIGINE
 70
0
 62
7
  6
CONTINUOUS
370
-3
390
F
  0
LAYER
  5
201
100
AcDbSymbolTableRecord
100
AcDbLayerTableRecord
  2
COPY_PUBLISH
 70
0
 62
7
  6
CONTINUOUS
370
-3
390
F
  0
LAYER
  5
202
100
AcDbSymbolTableRecord
100
AcDbLayerTableRecord
  2
COSMETICI
 70
0
 62
7
  6
CONTINUOUS
370
-3
390
F
  0
LAYER
  5
203
100
AcDbSymbolTableRecord
100
AcDbLayerTableRecord
  2
CURVE
 70
0
 62
7
  6
CONTINUOUS
370
-3
390
F
  0
LAYER
  5
204
100
AcDbSymbolTableRecord
100
AcDbLayerTableRecord
  2
DRAFT
 70
0
 62
7
  6
CONTINUOUS
370
-3
390
F
  0
LAYER
  5
205
100
AcDbSymbolTableRecord
100
AcDbLayerTableRecord
  2
IMPORT_IGES
 70
0
 62
7
  6
CONTINUOUS
370
-3
390
F
  0
LAYER
  5
206
100
AcDbSymbolTableRecord
100
AcDbLayerTableRecord
  2
INTF_1
 70
0
 62
7
  6
CONTINUOUS
370
-3
390
F
  0
LAYER
  5
207
100
AcDbSymbolTableRecord
100
AcDbLayerTableRecord
  2
INTF_11
 70
0
 62
7
  6
CONTINUOUS
370
-3
390
F
  0
LAYER
  5
208
100
AcDbSymbolTableRecord
100
AcDbLayerTableRecord
  2
INTF_12
 70
0
 62
7
  6
CONTINUOUS
370
-3
390
F
  0
LAYER
  5
209
100
AcDbSymbolTableRecord
100
AcDbLayerTableRecord
  2
INTF_2
 70
0
 62
7
  6
CONTINUOUS
370
-3
390
F
  0
LAYER
  5
20A
100
AcDbSymbolTableRecord
100
AcDbLayerTableRecord
  2
NOTE
 70
0
 62
7
  6
CONTINUOUS
370
-3
390
F
  0
LAYER
  5
20B
100
AcDbSymbolTableRecord
100
AcDbLayerTableRecord
  2
PIANI
 70
0
 62
7
  6
CONTINUOUS
370
-3
390
F
  0
LAYER
  5
20C
100
AcDbSymbolTableRecord
100
AcDbLayerTableRecord
  2
PIANI_ORIGINE
 70
0
 62
7
  6
CONTINUOUS
370
-3
390
F
  0
LAYER
  5
20D
100
AcDbSymbolTableRecord
100
AcDbLayerTableRecord
  2
PUNTI
 70
0
 62
7
  6
CONTINUOUS
370
-3
390
F
  0
LAYER
  5
20E
100
AcDbSymbolTableRecord
100
AcDbLayerTableRecord
  2
RACCORDO
 70
0
 62
7
  6
CONTINUOUS
370
-3
390
F
  0
LAYER
  5
20F
100
AcDbSymbolTableRecord
100
AcDbLayerTableRecord
  2
RGB____0____0____0__
 70
0
 62
7
  6
CONTINUOUS
370
-3
390
F
  0
LAYER
  5
210
100
AcDbSymbolTableRecord
100
AcDbLayerTableRecord
  2
SIMBOLI
 70
0
 62
7
  6
CONTINUOUS
370
-3
390
F
  0
LAYER
  5
211
100
AcDbSymbolTableRecord
100
AcDbLayerTableRecord
  2
SMUSSO
 70
0
 62
7
  6
CONTINUOUS
370
-3
390
F
  0
LAYER
  5
212
100
AcDbSymbolTableRecord
100
AcDbLayerTableRecord
  2
SNAPLINE
 70
0
 62
7
  6
CONTINUOUS
370
-3
390
F
  0
LAYER
  5
213
100
AcDbSymbolTableRecord
100
AcDbLayerTableRecord
  2
SUPERFICI
 70
0
 62
7
  6
CONTINUOUS
370
-3
390
F
  0
LAYER
  5
214
100
AcDbSymbolTableRecord
100
AcDbLayerTableRecord
  2
TRASH
 70
0
 62
7
  6
CONTINUOUS
370
-3
390
F
  0
ENDTAB
  0
TABLE
  2
STYLE
  5
3
100
AcDbSymbolTable
 70
1
  0
STYLE
  5
11
100
AcDbSymbolTableRecord
100
AcDbTextStyleTableRecord
  2
STANDARD
 70
0
 40
0.0
 41
0.8
 50
0.0
 71
0
 42
0.2
  3
txt
  4

  0
STYLE
  5
215
100
AcDbSymbolTableRecord
100
AcDbTextStyleTableRecord
  2
TEXTSTYLE_1
 70
0
 40
0.0
 41
0.8
 50
0.0
 71
0
 42
0.2
  3
gdt
  4

  0
ENDTAB
  0
TABLE
  2
VIEW
  5
6
100
AcDbSymbolTable
 70
0
  0
ENDTAB
  0
TABLE
  2
UCS
  5
7
100
AcDbSymbolTable
 70
0
  0
ENDTAB
  0
TABLE
  2
APPID
  5
9
100
AcDbSymbolTable
 70
1
  0
APPID
  5
216
100
AcDbSymbolTableRecord
100
AcDbRegAppTableRecord
  2
ACAD
 70
0
  0
ENDTAB
  0
TABLE
  2
BLOCK_RECORD
  5
1
100
AcDbSymbolTable
 70
0
  0
BLOCK_RECORD
  5
217
100
AcDbSymbolTableRecord
100
AcDbBlockTableRecord
  2
*Model_Space
  0
BLOCK_RECORD
  5
218
100
AcDbSymbolTableRecord
100
AcDbBlockTableRecord
  2
*Paper_Space
  0
BLOCK_RECORD
  5
219
100
AcDbSymbolTableRecord
100
AcDbBlockTableRecord
  2
_FILLED
  0
ENDTAB
  0
TABLE
  2
DIMSTYLE
  5
A
100
AcDbSymbolTable
 70
1
100
AcDbDimStyleTable
 71
0
  0
DIMSTYLE
105
21A
100
AcDbSymbolTableRecord
100
AcDbDimStyleTableRecord
  2
STANDARD
 70
0
  3

  4

 40
1.0
 41
3.0
 42
0.5
 43
0.38
 44
1.5
 45
0.0
 46
0.0
 47
0.01
 48
0.01
140
3.0
141
0.09
142
0.0
143
25.4
144
1.0
145
0.0
146
1.0
147
0.625
 71
1.0
 72
0.0
 73
0
 74
0
 75
0
 76
0
 77
1
 78
8
 79
2
170
0
171
1
172
0
173
0
174
0
175
0
176
0
177
0
178
0
270
2
179
2
271
2
272
2
273
2
274
2
275
0
280
0
281
0
282
0
283
1
284
8
285
0
286
0
287
3
288
0
340
11
278
44
341
219
342
219
343
219
344
219
  0
ENDTAB
  0
ENDSEC
  0
SECTION
  2
BLOCKS
  0
BLOCK
  5
20
100
AcDbEntity
  8
0
100
AcDbBlockBegin
  2
*Model_Space
 70
0
 10
0.0
 20
0.0
 30
0.0
  3
*Model_Space
  1

  0
ENDBLK
  5
21
100
AcDbEntity
  8
0
100
AcDbBlockEnd
  0
BLOCK
  5
1C
100
AcDbEntity
  8
0
100
AcDbBlockBegin
  2
*Paper_Space
 70
0
 10
0.0
 20
0.0
 30
0.0
  3
*Paper_Space
  1

  0
ENDBLK
  5
1D
100
AcDbEntity
  8
0
100
AcDbBlockEnd
  0
BLOCK
  5
21B
100
AcDbEntity
  8
0
100
AcDbBlockBegin
  2
_FILLED
 70
64
 10
0.0
 20
0.0
  3
_FILLED
  1

  0
SOLID
  5
21C
100
AcDbEntity
  8
0
  6
BYBLOCK
 62
0
100
AcDbTrace
 10
0.0
 20
0.0
 11
-1.0
 21
0.1333333333
 12
-1.0
 22
-0.1333333333
 13
-1.0
 23
-0.1333333333
  0
ENDBLK
  5
21D
100
AcDbEntity
  8
0
  6
BYBLOCK
 62
0
100
AcDbBlockEnd
  0
ENDSEC
  0
SECTION
  2
ENTITIES
  0
LINE
  5
21E
100
AcDbEntity
  8
RACCORDO
100
AcDbLine
 62
7
  6
CONTINUOUS
 10
-70.0
 20
-42.2500190385
 11
-70.0
 21
46.7500190385
  0
LINE
  5
21F
100
AcDbEntity
  8
RACCORDO
100
AcDbLine
 62
250
  6
CONTINUOUS
 10
-69.8375155797
 20
-16.2413486316
 11
-69.8375155797
 21
20.7413486316
  0
LINE
  5
220
100
AcDbEntity
  8
RACCORDO
100
AcDbLine
 62
250
  6
CONTINUOUS
 10
-69.7327851902
 20
-41.9828613426
 11
-69.7327851902
 21
-16.3460790211
  0
LINE
  5
221
100
AcDbEntity
  8
RACCORDO
100
AcDbLine
 62
250
  6
CONTINUOUS
 10
-69.7327851902
 20
20.8460790211
 11
-69.7327851902
 21
46.4828613426
  0
LINE
  5
222
100
AcDbEntity
  8
RACCORDO
100
AcDbLine
 62
250
  6
CONTINUOUS
 10
-69.3375917321
 20
-15.7500735289
 11
-69.3375917321
 21
20.2500735289
  0
LINE
  5
223
100
AcDbEntity
  8
RACCORDO
100
AcDbLine
 62
250
  6
CONTINUOUS
 10
-69.2328613426
 20
-42.4827851902
 11
-69.2328613426
 21
-15.8461551735
  0
LINE
  5
224
100
AcDbEntity
  8
RACCORDO
100
AcDbLine
 62
250
  6
CONTINUOUS
 10
-69.2328613426
 20
20.3461551735
 11
-69.2328613426
 21
46.9827851902
  0
LINE
  5
225
100
AcDbEntity
  8
DRAFT
100
AcDbLine
 62
7
  6
CONTINUOUS
 10
-67.7144766957
 20
20.25
 11
-67.7144766957
 21
15.9691991091
  0
LINE
  5
226
100
AcDbEntity
  8
DRAFT
100
AcDbLine
 62
7
  6
CONTINUOUS
 10
-67.601182142
 20
20.2552365195
 11
-67.601182142
 21
15.9691991091
  0
LINE
  5
227
100
AcDbEntity
  8
RACCORDO
100
AcDbLine
 62
7
  6
CONTINUOUS
 10
-67.4
 20
16.752016385
 11
-67.4
 21
20.2743362033
  0
LINE
  5
228
100
AcDbEntity
  8
RACCORDO
100
AcDbLine
 62
250
  6
CONTINUOUS
 10
-67.3555872406
 20
17.1364801696
 11
-67.3296938201
 21
20.3463677772
  0
LINE
  5
229
100
AcDbEntity
  8
RACCORDO
100
AcDbLine
 62
250
  6
CONTINUOUS
 10
-66.855663393
 20
17.0189275692
 11
-66.8300586891
 21
20.1930243173
  0
LINE
  5
22A
100
AcDbEntity
  8
DRAFT
100
AcDbLine
 62
7
  6
CONTINUOUS
 10
-67.7144766957
 20
20.25
 11
-67.7118586353
 21
20.2552365195
  0
LINE
  5
22B
100
AcDbEntity
  8
RACCORDO
100
AcDbLine
 62
7
  6
CONTINUOUS
 10
-67.3298350253
 20
20.3461551735
 11
-67.4
 21
20.2743362033
  0
LINE
  5
22C
100
AcDbEntity
  8
RACCORDO
100
AcDbLine
 62
250
  6
CONTINUOUS
 10
-69.8375155797
 20
20.7413486316
 11
-69.7327851902
 21
20.8460790211
  0
LINE
  5
22D
100
AcDbEntity
  8
RACCORDO
100
AcDbLine
 62
250
  6
CONTINUOUS
 10
-69.3290165161
 20
20.25
 11
-69.2328613426
 21
20.3461551735
  0
LINE
  5
22E
100
AcDbEntity
  8
RACCORDO
100
AcDbLine
 62
250
  6
CONTINUOUS
 10
-59.1699413109
 20
20.1930243173
 11
-59.144336607
 21
17.0189275692
  0
LINE
  5
22F
100
AcDbEntity
  8
RACCORDO
100
AcDbLine
 62
250
  6
CONTINUOUS
 10
-58.6703061799
 20
20.3463677772
 11
-58.6444127594
 21
17.1364801696
  0
LINE
  5
230
100
AcDbEntity
  8
RACCORDO
100
AcDbLine
 62
7
  6
CONTINUOUS
 10
-58.6
 20
16.752016385
 11
-58.6
 21
20.2743362033
  0
LINE
  5
231
100
AcDbEntity
  8
DRAFT
100
AcDbLine
 62
7
  6
CONTINUOUS
 10
-58.3191991091
 20
20.25
 11
-58.3191991091
 21
15.9691991091
  0
LINE
  5
232
100
AcDbEntity
  8
RACCORDO
100
AcDbLine
 62
250
  6
CONTINUOUS
 10
-69.7327851902
 20
-16.3460790211
 11
-69.8375155797
 21
-16.2413486316
  0
LINE
  5
233
100
AcDbEntity
  8
RACCORDO
100
AcDbLine
 62
250
  6
CONTINUOUS
 10
-69.2328613426
 20
-15.8461551735
 11
-69.3290165161
 21
-15.75
  0
LINE
  5
234
100
AcDbEntity
  8
RACCORDO
100
AcDbLine
 62
7
  6
CONTINUOUS
 10
20.500030461
 20
-47.25
 11
10.899969539
 21
-47.25
  0
LINE
  5
235
100
AcDbEntity
  8
DRAFT
100
AcDbLine
 62
7
  6
CONTINUOUS
 10
12.55
 20
-44.75
 11
18.85
 21
-44.75
  0
LINE
  5
236
100
AcDbEntity
  8
RACCORDO
100
AcDbLine
 62
7
  6
CONTINUOUS
 10
18.85
 20
-42.75
 11
12.55
 21
-42.75
  0
LINE
  5
237
100
AcDbEntity
  8
RACCORDO
100
AcDbLine
 62
7
  6
CONTINUOUS
 10
-69.5000761524
 20
-42.75
 11
-3.8
 21
-42.75
  0
LINE
  5
238
100
AcDbEntity
  8
DRAFT
100
AcDbLine
 62
7
  6
CONTINUOUS
 10
-3.8
 20
-42.75
 11
3.8
 21
-42.75
  0
LINE
  5
239
100
AcDbEntity
  8
RACCORDO
100
AcDbLine
 62
7
  6
CONTINUOUS
 10
3.8
 20
-42.75
 11
10.7
 21
-42.75
  0
LINE
  5
23A
100
AcDbEntity
  8
RACCORDO
100
AcDbLine
 62
7
  6
CONTINUOUS
 10
20.7
 20
-42.75
 11
69.5000190385
 21
-42.75
  0
LINE
  5
23B
100
AcDbEntity
  8
RACCORDO
100
AcDbLine
 62
250
  6
CONTINUOUS
 10
21.2842530472
 20
-42.6398807745
 11
20.7
 21
-42.6398807745
  0
LINE
  5
23C
100
AcDbEntity
  8
RACCORDO
100
AcDbLine
 62
250
  6
CONTINUOUS
 10
18.85
 20
-42.6398807745
 11
12.55
 21
-42.6398807745
  0
LINE
  5
23D
100
AcDbEntity
  8
RACCORDO
100
AcDbLine
 62
250
  6
CONTINUOUS
 10
10.7
 20
-42.6398807745
 11
10.1157469528
 21
-42.6398807745
  0
LINE
  5
23E
100
AcDbEntity
  8
RACCORDO
100
AcDbLine
 62
250
  6
CONTINUOUS
 10
69.2328613426
 20
-42.4827851902
 11
21.4413486316
 21
-42.4827851902
  0
LINE
  5
23F
100
AcDbEntity
  8
RACCORDO
100
AcDbLine
 62
250
  6
CONTINUOUS
 10
9.9586513684
 20
-42.4827851902
 11
-69.2328613426
 21
-42.4827851902
  0
LINE
  5
240
100
AcDbEntity
  8
DRAFT
100
AcDbLine
 62
7
  6
CONTINUOUS
 10
18.85
 20
-42.45
 11
12.55
 21
-42.45
  0
LINE
  5
241
100
AcDbEntity
  8
RACCORDO
100
AcDbLine
 62
250
  6
CONTINUOUS
 10
20.7929779446
 20
-42.1399569269
 11
20.7
 21
-42.1399569269
  0
LINE
  5
242
100
AcDbEntity
  8
RACCORDO
100
AcDbLine
 62
250
  6
CONTINUOUS
 10
10.7
 20
-42.1399569269
 11
10.6070220554
 21
-42.1399569269
  0
LINE
  5
243
100
AcDbEntity
  8
RACCORDO
100
AcDbLine
 62
250
  6
CONTINUOUS
 10
69.7327851902
 20
-41.9828613426
 11
20.9500735289
 21
-41.9828613426
  0
LINE
  5
244
100
AcDbEntity
  8
RACCORDO
100
AcDbLine
 62
250
  6
CONTINUOUS
 10
10.4499264711
 20
-41.9828613426
 11
-69.7327851902
 21
-41.9828613426
  0
LINE
  5
245
100
AcDbEntity
  8
DRAFT
100
AcDbLine
 62
7
  6
CONTINUOUS
 10
20.7929044156
 20
-40.390657299
 11
20.7
 21
-40.390657299
  0
LINE
  5
246
100
AcDbEntity
  8
DRAFT
100
AcDbLine
 62
7
  6
CONTINUOUS
 10
10.7
 20
-40.390657299
 11
10.6070955844
 21
-40.390657299
  0
LINE
  5
247
100
AcDbEntity
  8
DRAFT
100
AcDbLine
 62
7
  6
CONTINUOUS
 10
16.9412724675
 20
-40.3435241039
 11
14.4587275325
 21
-40.3435241039
  0
LINE
  5
248
100
AcDbEntity
  8
DRAFT
100
AcDbLine
 62
7
  6
CONTINUOUS
 10
20.9081078442
 20
-40.3347965715
 11
16.95
 21
-40.3347965715
  0
LINE
  5
249
100
AcDbEntity
  8
DRAFT
100
AcDbLine
 62
7
  6
CONTINUOUS
 10
14.45
 20
-40.3347965715
 11
10.4918921558
 21
-40.3347965715
  0
LINE
  5
24A
100
AcDbEntity
  8
RACCORDO
100
AcDbLine
 62
250
  6
CONTINUOUS
 10
10.4534300864
 20
-40.2963345021
 11
20.9465699136
 21
-40.2963345021
  0
LINE
  5
24B
100
AcDbEntity
  8
RACCORDO
100
AcDbLine
 62
250
  6
CONTINUOUS
 10
10.45
 20
-40.096364963
 11
20.95
 21
-40.096364963
  0
LINE
  5
24C
100
AcDbEntity
  8
DRAFT
100
AcDbLine
 62
7
  6
CONTINUOUS
 10
-58.3191991091
 20
20.25
 11
-58.3218171695
 21
20.2552365195
  0
LWPOLYLINE
  5
24D
100
AcDbEntity
  8
0
100
AcDbPolyline
 62
7
  6
CONTINUOUS
 90
30
 70
0
 10
14.7309408003
 20
-30.5078337858
 10
14.5625234367
 20
-30.5503651738
 10
14.3972096015
 20
-30.5928732923
 10
14.2359460641
 20
-30.6352266845
 10
14.0791056787
 20
-30.6774325938
 10
13.9270316825
 20
-30.7195007404
 10
13.7804900294
 20
-30.7613123154
 10
13.6397376606
 20
-30.8028763995
 10
13.5049657544
 20
-30.8442139582
 10
13.3766698861
 20
-30.8852393666
 10
13.2550020009
 20
-30.9259567117
 10
13.1399511064
 20
-30.9664162806
 10
13.0315964288
 20
-31.0066309031
 10
12.9299160789
 20
-31.0466421032
 10
12.8348247716
 20
-31.0865128043
 10
12.7461509692
 20
-31.1263451947
 10
12.6638034313
 20
-31.1662117304
 10
12.5875776439
 20
-31.2062462383
 10
12.5170220673
 20
-31.2467515166
 10
12.45204509
 20
-31.2878818217
 10
12.3924705272
 20
-31.3298794506
 10
12.3377420229
 20
-31.3733784357
 10
12.2878364138
 20
-31.4188071651
 10
12.2430099262
 20
-31.4664687686
 10
12.2032353193
 20
-31.5170369248
 10
12.1682654626
 20
-31.5719696065
 10
12.1395255193
 20
-31.6305592917
 10
12.1187350239
 20
-31.6896655099
 10
12.1058683917
 20
-31.7477133727
 10
12.1002881263
 20
-31.8052448868
  0
LWPOLYLINE
  5
24E
100
AcDbEntity
  8
0
100
AcDbPolyline
 62
7
  6
CONTINUOUS
 90
29
 70
0
 10
16.6132811338
 20
-30.648964582
 10
16.7817580214
 20
-30.6066425314
 10
16.9477508005
 20
-30.5642310355
 10
17.1108016941
 20
-30.52172486
 10
17.2704733693
 20
-30.479114502
 10
17.4262128125
 20
-30.4364238641
 10
17.5777284807
 20
-30.3936077573
 10
17.7245118905
 20
-30.3506831116
 10
17.8658068581
 20
-30.3077509049
 10
18.0014345791
 20
-30.2647492942
 10
18.1310022249
 20
-30.2216859863
 10
18.2536838585
 20
-30.1787363834
 10
18.3693418
 20
-30.1358687032
 10
18.4779630006
 20
-30.0930094898
 10
18.5792437614
 20
-30.0502116513
 10
18.6732375955
 20
-30.007400471
 10
18.7601331416
 20
-29.964435223
 10
18.8401280078
 20
-29.9211516282
 10
18.9134434213
 20
-29.8773444019
 10
18.9802733054
 20
-29.8327850701
 10
19.0409521406
 20
-29.7870789037
 10
19.0955171164
 20
-29.739949992
 10
19.1440950109
 20
-29.6909357967
 10
19.1870600905
 20
-29.6390929698
 10
19.2246503242
 20
-29.5831148105
 10
19.2556422259
 20
-29.5234612987
 10
19.2785649198
 20
-29.4623357414
 10
19.2931682091
 20
-29.4009743716
 10
19.2996539022
 20
-29.3391581868
  0
LINE
  5
24F
100
AcDbEntity
  8
0
100
AcDbLine
 62
7
  6
CONTINUOUS
 10
14.7477499203
 20
-31.105135759
 11
15.075051171
 21
-31.0233582814
  0
LINE
  5
250
100
AcDbEntity
  8
0
100
AcDbLine
 62
7
  6
CONTINUOUS
 10
16.6270360591
 20
-30.0441089508
 11
16.2933454868
 21
-30.127285927
  0
LINE
  5
251
100
AcDbEntity
  8
0
100
AcDbLine
 62
7
  6
CONTINUOUS
 10
15.0751906919
 20
-30.4227072529
 11
14.7309408003
 21
-30.5078337858
  0
LINE
  5
252
100
AcDbEntity
  8
0
100
AcDbLine
 62
7
  6
CONTINUOUS
 10
16.2712805261
 20
-30.7332248779
 11
16.6132811338
 21
-30.648964582
  0
LINE
  5
253
100
AcDbEntity
  8
0
100
AcDbLine
 62
7
  6
CONTINUOUS
 10
15.075051171
 20
-31.0233582814
 11
15.410970474
 21
-30.9412803383
  0
LINE
  5
254
100
AcDbEntity
  8
0
100
AcDbLine
 62
7
  6
CONTINUOUS
 10
16.2933454868
 20
-30.127285927
 11
15.9499146187
 21
-30.2110580716
  0
LINE
  5
255
100
AcDbEntity
  8
0
100
AcDbLine
 62
7
  6
CONTINUOUS
 10
15.410970474
 20
-30.9412803383
 11
16.2712805261
 21
-30.7332248779
  0
LINE
  5
256
100
AcDbEntity
  8
0
100
AcDbLine
 62
7
  6
CONTINUOUS
 10
15.9499146187
 20
-30.2110580716
 11
15.0751906919
 21
-30.4227072529
  0
LWPOLYLINE
  5
257
100
AcDbEntity
  8
0
100
AcDbPolyline
 62
7
  6
CONTINUOUS
 90
13
 70
0
 10
12.4917685565
 20
-34.4303520517
 10
12.4921514979
 20
-34.4302734214
 10
12.4933455886
 20
-34.4300419958
 10
12.4951802333
 20
-34.4297070531
 10
12.4976434036
 20
-34.4292820177
 10
12.5007693795
 20
-34.4287711891
 10
12.5044512412
 20
-34.4282001617
 10
12.5086843449
 20
-34.4275755275
 10
12.5134883989
 20
-34.4268997723
 10
12.5187872767
 20
-34.4261878857
 10
12.5245720807
 20
-34.425444134
 10
12.5308594215
 20
-34.4246692143
 10
12.537608273
 20
-34.4238705609
  0
LWPOLYLINE
  5
258
100
AcDbEntity
  8
0
100
AcDbPolyline
 62
7
  6
CONTINUOUS
 90
13
 70
0
 10
18.9082238844
 20
-33.569649555
 10
18.9077482227
 20
-33.5697466436
 10
18.9064331321
 20
-33.5699994959
 10
18.9044533118
 20
-33.5703577302
 10
18.9018196886
 20
-33.5708077379
 10
18.8984973183
 20
-33.5713449179
 10
18.89459972
 20
-33.5719425767
 10
18.8901393273
 20
-33.5725929261
 10
18.8850896309
 20
-33.5732944447
 10
18.879509133
 20
-33.5740345047
 10
18.8734032742
 20
-33.5748089444
 10
18.8667522969
 20
-33.575617075
 10
18.8595743388
 20
-33.5764538193
  0
LWPOLYLINE
  5
259
100
AcDbEntity
  8
0
100
AcDbPolyline
 62
7
  6
CONTINUOUS
 90
35
 70
0
 10
18.9196696036
 20
-34.173081289
 10
18.930273243
 20
-34.1718709125
 10
18.940561151
 20
-34.170645113
 10
18.950538158
 20
-34.1694020798
 10
18.9602138491
 20
-34.1681392387
 10
18.9696308046
 20
-34.1668491423
 10
18.9787860745
 20
-34.1655298567
 10
18.9877035584
 20
-34.1641753007
 10
18.9964722115
 20
-34.1627678429
 10
19.0050787164
 20
-34.1613042591
 10
19.0135608849
 20
-34.1597720594
 10
19.0220881607
 20
-34.158130629
 10
19.030622364
 20
-34.1563739369
 10
19.0392243829
 20
-34.1544742396
 10
19.0482118024
 20
-34.1523352004
 10
19.0575221508
 20
-34.1499348804
 10
19.0672254974
 20
-34.1472127539
 10
19.0778307093
 20
-34.1439548352
 10
19.0893108227
 20
-34.1400637135
 10
19.1016495289
 20
-34.1354202762
 10
19.1153410936
 20
-34.129656579
 10
19.1305267307
 20
-34.1224381775
 10
19.1468374846
 20
-34.1136108132
 10
19.1639502039
 20
-34.1029979272
 10
19.181763777
 20
-34.0902461655
 10
19.1998543014
 20
-34.0751596204
 10
19.2174256752
 20
-34.0579169046
 10
19.2341520582
 20
-34.038437141
 10
19.249781603
 20
-34.0166464766
 10
19.2637677831
 20
-33.9929747596
 10
19.275829457
 20
-33.9676340036
 10
19.2857689732
 20
-33.9406759207
 10
19.2932762134
 20
-33.9124337578
 10
19.2980961799
 20
-33.8831802945
 10
19.2999985157
 20
-33.8509180081
  0
LWPOLYLINE
  5
25A
100
AcDbEntity
  8
0
100
AcDbPolyline
 62
7
  6
CONTINUOUS
 90
17
 70
0
 10
12.4876065371
 20
-33.8261163409
 10
12.4765975896
 20
-33.8273390263
 10
12.4659171408
 20
-33.8285767753
 10
12.4555577167
 20
-33.8298317337
 10
12.445514662
 20
-33.8311058867
 10
12.4357346121
 20
-33.8324080009
 10
12.4262150279
 20
-33.8337410549
 10
12.4169425329
 20
-33.8351098771
 10
12.4078408495
 20
-33.8365299266
 10
12.3989230448
 20
-33.8380044567
 10
12.3901520873
 20
-33.8395455795
 10
12.3813692015
 20
-33.8411908677
 10
12.3726100736
 20
-33.8429464439
 10
12.3638132777
 20
-33.8448392161
 10
12.3546716699
 20
-33.8469603259
 10
12.3452474342
 20
-33.8493303449
 10
12.342801576
 20
-33.85
  0
LINE
  5
25B
100
AcDbEntity
  8
0
100
AcDbLine
 62
7
  6
CONTINUOUS
 10
12.537608273
 20
-34.4238705609
 11
12.5524896234
 21
-34.4222094126
  0
LINE
  5
25C
100
AcDbEntity
  8
0
100
AcDbLine
 62
7
  6
CONTINUOUS
 10
18.8595743388
 20
-33.5764538193
 11
18.8436099286
 21
-33.5782065557
  0
LINE
  5
25D
100
AcDbEntity
  8
0
100
AcDbLine
 62
7
  6
CONTINUOUS
 10
18.8974268208
 20
-34.1754694678
 11
18.9196696036
 21
-34.173081289
  0
LINE
  5
25E
100
AcDbEntity
  8
0
100
AcDbLine
 62
7
  6
CONTINUOUS
 10
12.5107938688
 20
-33.8236930539
 11
12.4876065371
 21
-33.8261163409
  0
LINE
  5
25F
100
AcDbEntity
  8
0
100
AcDbLine
 62
7
  6
CONTINUOUS
 10
12.5524896234
 20
-34.4222094126
 11
12.5691911033
 21
-34.420476066
  0
LINE
  5
260
100
AcDbEntity
  8
0
100
AcDbLine
 62
7
  6
CONTINUOUS
 10
18.8436099286
 20
-33.5782065557
 11
18.8254512136
 21
-33.5800557011
  0
LINE
  5
261
100
AcDbEntity
  8
0
100
AcDbLine
 62
7
  6
CONTINUOUS
 10
18.8737221274
 20
-34.1778268784
 11
18.8974268208
 21
-34.1754694678
  0
LINE
  5
262
100
AcDbEntity
  8
0
100
AcDbLine
 62
7
  6
CONTINUOUS
 10
12.5691911033
 20
-34.420476066
 11
12.5877093497
 21
-34.4186809051
  0
LINE
  5
263
100
AcDbEntity
  8
0
100
AcDbLine
 62
7
  6
CONTINUOUS
 10
12.5356179958
 20
-33.8212893014
 11
12.5107938688
 21
-33.8236930539
  0
LINE
  5
264
100
AcDbEntity
  8
0
100
AcDbLine
 62
7
  6
CONTINUOUS
 10
18.8254512136
 20
-33.5800557011
 11
18.805014978
 21
-33.5819939219
  0
LINE
  5
265
100
AcDbEntity
  8
0
100
AcDbLine
 62
7
  6
CONTINUOUS
 10
18.8483503893
 20
-34.1801758374
 11
18.8737221274
 21
-34.1778268784
  0
LINE
  5
266
100
AcDbEntity
  8
0
100
AcDbLine
 62
7
  6
CONTINUOUS
 10
12.5877093497
 20
-34.4186809051
 11
12.6080366752
 21
-34.4168328246
  0
LINE
  5
267
100
AcDbEntity
  8
0
100
AcDbLine
 62
7
  6
CONTINUOUS
 10
12.5622262992
 20
-33.8188902612
 11
12.5356179958
 21
-33.8212893014
  0
LINE
  5
268
100
AcDbEntity
  8
0
100
AcDbLine
 62
7
  6
CONTINUOUS
 10
18.805014978
 20
-33.5819939219
 11
18.7821870408
 21
-33.5840175841
  0
LINE
  5
269
100
AcDbEntity
  8
0
100
AcDbLine
 62
7
  6
CONTINUOUS
 10
18.8211937246
 20
-34.1825265784
 11
18.8483503893
 21
-34.1801758374
  0
LINE
  5
26A
100
AcDbEntity
  8
0
100
AcDbLine
 62
7
  6
CONTINUOUS
 10
12.6080366752
 20
-34.4168328246
 11
12.6301892762
 21
-34.4149371197
  0
LINE
  5
26B
100
AcDbEntity
  8
0
100
AcDbLine
 62
7
  6
CONTINUOUS
 10
12.5907430711
 20
-33.8164859189
 11
12.5622262992
 21
-33.8188902612
  0
LINE
  5
26C
100
AcDbEntity
  8
0
100
AcDbLine
 62
7
  6
CONTINUOUS
 10
18.7821870408
 20
-33.5840175841
 11
18.7568599897
 21
-33.5861228012
  0
LINE
  5
26D
100
AcDbEntity
  8
0
100
AcDbLine
 62
7
  6
CONTINUOUS
 10
18.7921481529
 20
-34.1848863978
 11
18.8211937246
 21
-34.1825265784
  0
LINE
  5
26E
100
AcDbEntity
  8
0
100
AcDbLine
 62
7
  6
CONTINUOUS
 10
12.6301892762
 20
-34.4149371197
 11
12.6541940667
 21
-34.4129973688
  0
LINE
  5
26F
100
AcDbEntity
  8
0
100
AcDbLine
 62
7
  6
CONTINUOUS
 10
12.6212722686
 20
-33.8140696275
 11
12.5907430711
 21
-33.8164859189
  0
LINE
  5
270
100
AcDbEntity
  8
0
100
AcDbLine
 62
7
  6
CONTINUOUS
 10
18.7568599897
 20
-33.5861228012
 11
18.7289347308
 21
-33.5883055284
  0
LINE
  5
271
100
AcDbEntity
  8
0
100
AcDbLine
 62
7
  6
CONTINUOUS
 10
12.6541940667
 20
-34.4129973688
 11
12.6937416092
 21
-34.4100109936
  0
LINE
  5
272
100
AcDbEntity
  8
0
100
AcDbLine
 62
7
  6
CONTINUOUS
 10
18.7447763576
 20
-34.1884586829
 11
18.7921481529
 21
-34.1848863978
  0
LINE
  5
273
100
AcDbEntity
  8
0
100
AcDbLine
 62
7
  6
CONTINUOUS
 10
12.6710954511
 20
-33.810408797
 11
12.6212722686
 21
-33.8140696275
  0
LINE
  5
274
100
AcDbEntity
  8
0
100
AcDbLine
 62
7
  6
CONTINUOUS
 10
18.7289347308
 20
-33.5883055284
 11
18.6820416616
 21
-33.5917117616
  0
LINE
  5
275
100
AcDbEntity
  8
0
100
AcDbLine
 62
7
  6
CONTINUOUS
 10
12.6937416092
 20
-34.4100109936
 11
12.7376620327
 21
-34.4069368353
  0
LINE
  5
276
100
AcDbEntity
  8
0
100
AcDbLine
 62
7
  6
CONTINUOUS
 10
18.6925180325
 20
-34.1920846327
 11
18.7447763576
 21
-34.1884586829
  0
LINE
  5
277
100
AcDbEntity
  8
0
100
AcDbLine
 62
7
  6
CONTINUOUS
 10
12.7260667377
 20
-33.8066913259
 11
12.6710954511
 21
-33.810408797
  0
LINE
  5
278
100
AcDbEntity
  8
0
100
AcDbLine
 62
7
  6
CONTINUOUS
 10
18.6820416616
 20
-33.5917117616
 11
18.628950088
 21
-33.5952630551
  0
LINE
  5
279
100
AcDbEntity
  8
0
100
AcDbLine
 62
7
  6
CONTINUOUS
 10
18.6350083994
 20
-34.1957776172
 11
18.6925180325
 21
-34.1920846327
  0
LINE
  5
27A
100
AcDbEntity
  8
0
100
AcDbLine
 62
7
  6
CONTINUOUS
 10
12.7376620327
 20
-34.4069368353
 11
12.8033087466
 21
-34.4027053418
  0
LINE
  5
27B
100
AcDbEntity
  8
0
100
AcDbLine
 62
7
  6
CONTINUOUS
 10
12.7865336585
 20
-33.80290556
 11
12.7260667377
 21
-33.8066913259
  0
LINE
  5
27C
100
AcDbEntity
  8
0
100
AcDbLine
 62
7
  6
CONTINUOUS
 10
18.628950088
 20
-33.5952630551
 11
18.5694620488
 21
-33.5989468283
  0
LINE
  5
27D
100
AcDbEntity
  8
0
100
AcDbLine
 62
7
  6
CONTINUOUS
 10
12.8033087466
 20
-34.4027053418
 11
12.8773992539
 21
-34.3983264136
  0
LINE
  5
27E
100
AcDbEntity
  8
0
100
AcDbLine
 62
7
  6
CONTINUOUS
 10
18.5495682462
 20
-34.2008221049
 11
18.6350083994
 21
-34.1957776172
  0
LINE
  5
27F
100
AcDbEntity
  8
0
100
AcDbLine
 62
7
  6
CONTINUOUS
 10
12.8761993817
 20
-33.7977410995
 11
12.7865336585
 21
-33.80290556
  0
LINE
  5
280
100
AcDbEntity
  8
0
100
AcDbLine
 62
7
  6
CONTINUOUS
 10
18.5694620488
 20
-33.5989468283
 11
18.4797920308
 21
-33.604052574
  0
LINE
  5
281
100
AcDbEntity
  8
0
100
AcDbLine
 62
7
  6
CONTINUOUS
 10
18.453506021
 20
-34.2060142565
 11
18.5495682462
 21
-34.2008221049
  0
LINE
  5
282
100
AcDbEntity
  8
0
100
AcDbLine
 62
7
  6
CONTINUOUS
 10
12.8773992539
 20
-34.3983264136
 11
12.9822751415
 21
-34.3926588569
  0
LINE
  5
283
100
AcDbEntity
  8
0
100
AcDbLine
 62
7
  6
CONTINUOUS
 10
13.0033801271
 20
-33.7910989365
 11
12.8761993817
 21
-33.7977410995
  0
LINE
  5
284
100
AcDbEntity
  8
0
100
AcDbLine
 62
7
  6
CONTINUOUS
 10
18.4797920308
 20
-33.604052574
 11
18.3502631844
 21
-33.6107334999
  0
LINE
  5
285
100
AcDbEntity
  8
0
100
AcDbLine
 62
7
  6
CONTINUOUS
 10
18.3175799698
 20
-34.212723104
 11
18.453506021
 21
-34.2060142565
  0
LINE
  5
286
100
AcDbEntity
  8
0
100
AcDbLine
 62
7
  6
CONTINUOUS
 10
12.9822751415
 20
-34.3926588569
 11
13.1266222097
 21
-34.3855926924
  0
LINE
  5
287
100
AcDbEntity
  8
0
100
AcDbLine
 62
7
  6
CONTINUOUS
 10
13.1787551276
 20
-33.7828666331
 11
13.0033801271
 21
-33.7910989365
  0
LINE
  5
288
100
AcDbEntity
  8
0
100
AcDbLine
 62
7
  6
CONTINUOUS
 10
18.3502631844
 20
-33.6107334999
 11
18.1679402446
 21
-33.6191715879
  0
LINE
  5
289
100
AcDbEntity
  8
0
100
AcDbLine
 62
7
  6
CONTINUOUS
 10
18.1298747571
 20
-34.221107715
 11
18.3175799698
 21
-34.212723104
  0
LINE
  5
28A
100
AcDbEntity
  8
0
100
AcDbLine
 62
7
  6
CONTINUOUS
 10
13.1266222097
 20
-34.3855926924
 11
13.321096112
 21
-34.3770086431
  0
LINE
  5
28B
100
AcDbEntity
  8
0
100
AcDbLine
 62
7
  6
CONTINUOUS
 10
13.4151096808
 20
-33.7729238057
 11
13.1787551276
 21
-33.7828666331
  0
LINE
  5
28C
100
AcDbEntity
  8
0
100
AcDbLine
 62
7
  6
CONTINUOUS
 10
18.1679402446
 20
-33.6191715879
 11
17.9160094734
 21
-33.6295942751
  0
LINE
  5
28D
100
AcDbEntity
  8
0
100
AcDbLine
 62
7
  6
CONTINUOUS
 10
17.8336728162
 20
-34.2329462449
 11
18.1298747571
 21
-34.221107715
  0
LINE
  5
28E
100
AcDbEntity
  8
0
100
AcDbLine
 62
7
  6
CONTINUOUS
 10
13.321096112
 20
-34.3770086431
 11
13.6125536208
 21
-34.3654785774
  0
LINE
  5
28F
100
AcDbEntity
  8
0
100
AcDbLine
 62
7
  6
CONTINUOUS
 10
17.9160094734
 20
-33.6295942751
 11
17.5717920665
 21
-33.6423501368
  0
LINE
  5
290
100
AcDbEntity
  8
0
100
AcDbLine
 62
7
  6
CONTINUOUS
 10
13.813242217
 20
-33.7580623869
 11
13.4151096808
 21
-33.7729238057
  0
LINE
  5
291
100
AcDbEntity
  8
0
100
AcDbLine
 62
7
  6
CONTINUOUS
 10
13.6125536208
 20
-34.3654785774
 11
13.9893054181
 21
-34.3520846857
  0
LINE
  5
292
100
AcDbEntity
  8
0
100
AcDbLine
 62
7
  6
CONTINUOUS
 10
17.3259228735
 20
-34.2508405994
 11
17.8336728162
 21
-34.2329462449
  0
LINE
  5
293
100
AcDbEntity
  8
0
100
AcDbLine
 62
7
  6
CONTINUOUS
 10
17.5717920665
 20
-33.6423501368
 11
17.1653440146
 21
-33.6560337377
  0
LINE
  5
294
100
AcDbEntity
  8
0
100
AcDbLine
 62
7
  6
CONTINUOUS
 10
13.9893054181
 20
-34.3520846857
 11
14.4623487035
 21
-34.3367314204
  0
LINE
  5
295
100
AcDbEntity
  8
0
100
AcDbLine
 62
7
  6
CONTINUOUS
 10
14.5976172559
 20
-33.732510257
 11
13.813242217
 21
-33.7580623869
  0
LINE
  5
296
100
AcDbEntity
  8
0
100
AcDbLine
 62
7
  6
CONTINUOUS
 10
14.4623487035
 20
-34.3367314204
 11
14.6950879425
 21
-34.3295608643
  0
LINE
  5
297
100
AcDbEntity
  8
0
100
AcDbLine
 62
7
  6
CONTINUOUS
 10
17.1653440146
 20
-33.6560337377
 11
16.5876631364
 21
-33.6739838613
  0
LINE
  5
298
100
AcDbEntity
  8
0
100
AcDbLine
 62
7
  6
CONTINUOUS
 10
16.5405044326
 20
-34.2754153813
 11
17.3259228735
 21
-34.2508405994
  0
LINE
  5
299
100
AcDbEntity
  8
0
100
AcDbLine
 62
7
  6
CONTINUOUS
 10
14.9348486549
 20
-33.7223379802
 11
14.5976172559
 21
-33.732510257
  0
LINE
  5
29A
100
AcDbEntity
  8
0
100
AcDbLine
 62
7
  6
CONTINUOUS
 10
16.5876631364
 20
-33.6739838613
 11
16.342629326
 21
-33.6812797828
  0
LINE
  5
29B
100
AcDbEntity
  8
0
100
AcDbLine
 62
7
  6
CONTINUOUS
 10
14.6950879425
 20
-34.3295608643
 11
16.5405044326
 21
-34.2754153813
  0
LINE
  5
29C
100
AcDbEntity
  8
0
100
AcDbLine
 62
7
  6
CONTINUOUS
 10
16.342629326
 20
-33.6812797828
 11
14.9348486549
 21
-33.7223379802
  0
LINE
  5
29D
100
AcDbEntity
  8
RACCORDO
100
AcDbLine
 62
7
  6
CONTINUOUS
 10
19.7
 20
-37.85
 11
11.7
 21
-37.85
  0
LINE
  5
29E
100
AcDbEntity
  8
DRAFT
100
AcDbLine
 62
7
  6
CONTINUOUS
 10
32.0
 20
-37.75
 11
33.8615988572
 21
-37.75
  0
LINE
  5
29F
100
AcDbEntity
  8
0
100
AcDbLine
 62
7
  6
CONTINUOUS
 10
37.0
 20
-37.75
 11
39.5
 21
-37.75
  0
LINE
  5
2A0
100
AcDbEntity
  8
0
100
AcDbLine
 62
7
  6
CONTINUOUS
 10
42.0
 20
-37.75
 11
44.5
 21
-37.75
  0
LINE
  5
2A1
100
AcDbEntity
  8
0
100
AcDbLine
 62
7
  6
CONTINUOUS
 10
47.0
 20
-37.75
 11
49.5
 21
-37.75
  0
LINE
  5
2A2
100
AcDbEntity
  8
0
100
AcDbLine
 62
7
  6
CONTINUOUS
 10
52.0
 20
-37.75
 11
54.5
 21
-37.75
  0
LINE
  5
2A3
100
AcDbEntity
  8
0
100
AcDbLine
 62
7
  6
CONTINUOUS
 10
49.5
 20
-36.75
 11
47.0
 21
-36.75
  0
LINE
  5
2A4
100
AcDbEntity
  8
0
100
AcDbLine
 62
7
  6
CONTINUOUS
 10
44.5
 20
-36.75
 11
42.0
 21
-36.75
  0
LINE
  5
2A5
100
AcDbEntity
  8
0
100
AcDbLine
 62
7
  6
CONTINUOUS
 10
39.5
 20
-36.75
 11
37.0
 21
-36.75
  0
LINE
  5
2A6
100
AcDbEntity
  8
0
100
AcDbLine
 62
7
  6
CONTINUOUS
 10
33.8615988572
 20
-36.75
 11
32.0
 21
-36.75
  0
LINE
  5
2A7
100
AcDbEntity
  8
DRAFT
100
AcDbLine
 62
7
  6
CONTINUOUS
 10
52.4629881757
 20
-35.5870118243
 11
52.0
 21
-35.5870118243
  0
LINE
  5
2A8
100
AcDbEntity
  8
DRAFT
100
AcDbLine
 62
7
  6
CONTINUOUS
 10
52.6
 20
-35.45
 11
52.0
 21
-35.45
  0
LINE
  5
2A9
100
AcDbEntity
  8
RACCORDO
100
AcDbLine
 62
7
  6
CONTINUOUS
 10
34.0615683962
 20
-34.4615988572
 11
34.5
 21
-34.4615988572
  0
LINE
  5
2AA
100
AcDbEntity
  8
RACCORDO
100
AcDbLine
 62
250
  6
CONTINUOUS
 10
7.1851452856
 20
-34.3919683198
 11
12.2
 21
-34.3919683198
  0
LINE
  5
2AB
100
AcDbEntity
  8
RACCORDO
100
AcDbLine
 62
250
  6
CONTINUOUS
 10
19.2
 20
-34.3919683198
 11
24.2148547144
 21
-34.3919683198
  0
LINE
  5
2AC
100
AcDbEntity
  8
RACCORDO
100
AcDbLine
 62
250
  6
CONTINUOUS
 10
23.7149118277
 20
-33.8920444723
 11
19.7
 21
-33.8920444723
  0
LINE
  5
2AD
100
AcDbEntity
  8
RACCORDO
100
AcDbLine
 62
250
  6
CONTINUOUS
 10
11.7
 20
-33.8920444723
 11
7.6850881723
 21
-33.8920444723
  0
LINE
  5
2AE
100
AcDbEntity
  8
RACCORDO
100
AcDbLine
 62
250
  6
CONTINUOUS
 10
19.2999985157
 20
-33.8627574501
 11
19.7
 21
-33.8627574501
  0
LINE
  5
2AF
100
AcDbEntity
  8
DRAFT
100
AcDbLine
 62
7
  6
CONTINUOUS
 10
19.2999985157
 20
-33.85
 11
23.7
 21
-33.85
  0
LINE
  5
2B0
100
AcDbEntity
  8
RACCORDO
100
AcDbLine
 62
7
  6
CONTINUOUS
 10
23.6668379024
 20
-33.75
 11
23.5
 21
-33.75
  0
LINE
  5
2B1
100
AcDbEntity
  8
RACCORDO
100
AcDbLine
 62
7
  6
CONTINUOUS
 10
19.95
 20
-33.75
 11
19.4229020938
 21
-33.75
  0
LINE
  5
2B2
100
AcDbEntity
  8
RACCORDO
100
AcDbLine
 62
7
  6
CONTINUOUS
 10
11.9770979062
 20
-33.75
 11
11.45
 21
-33.75
  0
LINE
  5
2B3
100
AcDbEntity
  8
RACCORDO
100
AcDbLine
 62
7
  6
CONTINUOUS
 10
7.9
 20
-33.75
 11
7.7331620976
 21
-33.75
  0
LWPOLYLINE
  5
2B4
100
AcDbEntity
  8
0
100
AcDbPolyline
 62
7
  6
CONTINUOUS
 90
30
 70
0
 10
14.7474877962
 20
-25.5036903615
 10
14.5785535781
 20
-25.5462848634
 10
14.4124750412
 20
-25.5889111258
 10
14.2502916616
 20
-25.6314180279
 10
14.0923890747
 20
-25.6738135245
 10
13.9391297987
 20
-25.7161068471
 10
13.7913743676
 20
-25.7581576945
 10
13.6493936347
 20
-25.7999748
 10
13.5133895533
 20
-25.8415797297
 10
13.3839331856
 20
-25.8828667697
 10
13.2611900982
 20
-25.9238368352
 10
13.1451414991
 20
-25.9645436445
 10
13.0358959787
 20
-26.0049898586
 10
12.9334357938
 20
-26.0452140827
 10
12.8376626359
 20
-26.085282506
 10
12.7484015504
 20
-26.1252966277
 10
12.6655566087
 20
-26.1653283779
 10
12.5889140789
 20
-26.2055129011
 10
12.5180110482
 20
-26.2461556168
 10
12.4527489339
 20
-26.2874117495
 10
12.3929448596
 20
-26.3295244258
 10
12.3380329045
 20
-26.3731308905
 10
12.2879808885
 20
-26.4186646626
 10
12.2430452543
 20
-26.4664270059
 10
12.2032018515
 20
-26.517083078
 10
12.1681954176
 20
-26.5720930868
 10
12.1394471325
 20
-26.6307453395
 10
12.1186750184
 20
-26.6898752851
 10
12.105839159
 20
-26.7478968681
 10
12.1002841476
 20
-26.8053578869
  0
LWPOLYLINE
  5
2B5
100
AcDbEntity
  8
0
100
AcDbPolyline
 62
7
  6
CONTINUOUS
 90
25
 70
0
 10
16.6176164115
 20
-25.6478824793
 10
16.7857866204
 20
-25.6056212623
 10
16.951123497
 20
-25.5633599196
 10
17.1127231494
 20
-25.5212173184
 10
17.2702164656
 20
-25.4791830101
 10
17.4232329925
 20
-25.4372515404
 10
17.570991509
 20
-25.395540818
 10
17.7132189642
 20
-25.3540413587
 10
17.8496972717
 20
-25.3127345059
 10
17.9798923806
 20
-25.2717100042
 10
18.1036581371
 20
-25.2309542899
 10
18.2209434698
 20
-25.1904299751
 10
18.3315388197
 20
-25.1501642814
 10
18.4354140607
 20
-25.1101345037
 10
18.5326844
 20
-25.0702671497
 10
18.62352239
 20
-25.0304603414
 10
18.7080176545
 20
-24.9906420096
 10
18.7863476399
 20
-24.9506934211
 10
18.8589308442
 20
-24.9103405433
 10
18.9258623735
 20
-24.8694394291
 10
18.9873254765
 20
-24.8277619577
 10
19.0438679454
 20
-24.7847235003
 10
19.095370553
 20
-24.740085646
 10
19.1418237833
 20
-24.6934207029
 10
19.1782707489
 20
-24.65
  0
LINE
  5
2B6
100
AcDbEntity
  8
0
100
AcDbLine
 62
7
  6
CONTINUOUS
 10
16.6381632163
 20
-25.0412915744
 11
16.30579505
 21
-25.1242196795
  0
LINE
  5
2B7
100
AcDbEntity
  8
0
100
AcDbLine
 62
7
  6
CONTINUOUS
 10
14.9013201646
 20
-26.0664786007
 11
15.23630429
 21
-25.9837845205
  0
LINE
  5
2B8
100
AcDbEntity
  8
0
100
AcDbLine
 62
7
  6
CONTINUOUS
 10
15.0918737636
 20
-25.4186277964
 11
14.7474877962
 21
-25.5036903615
  0
LINE
  5
2B9
100
AcDbEntity
  8
0
100
AcDbLine
 62
7
  6
CONTINUOUS
 10
16.27465196
 20
-25.7324014649
 11
16.6176164115
 21
-25.6478824793
  0
LINE
  5
2BA
100
AcDbEntity
  8
0
100
AcDbLine
 62
7
  6
CONTINUOUS
 10
16.30579505
 20
-25.1242196795
 11
15.9637352727
 21
-25.2077086978
  0
LINE
  5
2BB
100
AcDbEntity
  8
0
100
AcDbLine
 62
7
  6
CONTINUOUS
 10
15.23630429
 20
-25.9837845205
 11
16.27465196
 21
-25.7324014649
  0
LINE
  5
2BC
100
AcDbEntity
  8
0
100
AcDbLine
 62
7
  6
CONTINUOUS
 10
15.9637352727
 20
-25.2077086978
 11
15.0918737636
 21
-25.4186277964
  0
LINE
  5
2BD
100
AcDbEntity
  8
0
100
AcDbLine
 62
7
  6
CONTINUOUS
 10
11.2
 20
-32.442087388
 11
10.9639836222
 21
-32.442087388
  0
LINE
  5
2BE
100
AcDbEntity
  8
DRAFT
100
AcDbLine
 62
7
  6
CONTINUOUS
 10
32.0
 20
-31.7700717959
 11
34.5
 21
-31.7700717959
  0
LINE
  5
2BF
100
AcDbEntity
  8
DRAFT
100
AcDbLine
 62
7
  6
CONTINUOUS
 10
37.0
 20
-31.7700717959
 11
39.5
 21
-31.7700717959
  0
LINE
  5
2C0
100
AcDbEntity
  8
DRAFT
100
AcDbLine
 62
7
  6
CONTINUOUS
 10
42.0
 20
-31.7700717959
 11
44.5
 21
-31.7700717959
  0
LINE
  5
2C1
100
AcDbEntity
  8
DRAFT
100
AcDbLine
 62
7
  6
CONTINUOUS
 10
47.0
 20
-31.7700717959
 11
49.5
 21
-31.7700717959
  0
LINE
  5
2C2
100
AcDbEntity
  8
0
100
AcDbLine
 62
7
  6
CONTINUOUS
 10
9.2259208679
 20
-30.6085265636
 11
9.4619372606
 21
-30.6085265636
  0
LINE
  5
2C3
100
AcDbEntity
  8
DRAFT
100
AcDbLine
 62
7
  6
CONTINUOUS
 10
54.5
 20
-29.75
 11
52.0
 21
-29.75
  0
LINE
  5
2C4
100
AcDbEntity
  8
DRAFT
100
AcDbLine
 62
7
  6
CONTINUOUS
 10
49.5
 20
-29.75
 11
47.0
 21
-29.75
  0
LINE
  5
2C5
100
AcDbEntity
  8
DRAFT
100
AcDbLine
 62
7
  6
CONTINUOUS
 10
44.5
 20
-29.75
 11
42.0
 21
-29.75
  0
LINE
  5
2C6
100
AcDbEntity
  8
DRAFT
100
AcDbLine
 62
7
  6
CONTINUOUS
 10
39.5
 20
-29.75
 11
37.0
 21
-29.75
  0
LINE
  5
2C7
100
AcDbEntity
  8
DRAFT
100
AcDbLine
 62
7
  6
CONTINUOUS
 10
34.5
 20
-29.75
 11
32.0
 21
-29.75
  0
LINE
  5
2C8
100
AcDbEntity
  8
ASSI
100
AcDbLine
 62
7
  6
CONTINUOUS
 10
54.5
 20
-29.6025159343
 11
52.0
 21
-29.6025159343
  0
LINE
  5
2C9
100
AcDbEntity
  8
ASSI
100
AcDbLine
 62
7
  6
CONTINUOUS
 10
49.5
 20
-29.6025159343
 11
47.0
 21
-29.6025159343
  0
LINE
  5
2CA
100
AcDbEntity
  8
ASSI
100
AcDbLine
 62
7
  6
CONTINUOUS
 10
44.5
 20
-29.6025159343
 11
42.0
 21
-29.6025159343
  0
LINE
  5
2CB
100
AcDbEntity
  8
ASSI
100
AcDbLine
 62
7
  6
CONTINUOUS
 10
39.5
 20
-29.6025159343
 11
37.0
 21
-29.6025159343
  0
LINE
  5
2CC
100
AcDbEntity
  8
ASSI
100
AcDbLine
 62
7
  6
CONTINUOUS
 10
34.5
 20
-29.6025159343
 11
32.0
 21
-29.6025159343
  0
LINE
  5
2CD
100
AcDbEntity
  8
0
100
AcDbLine
 62
7
  6
CONTINUOUS
 10
9.4169167995
 20
-29.3138471603
 11
9.2259208679
 21
-29.3138471603
  0
LINE
  5
2CE
100
AcDbEntity
  8
0
100
AcDbLine
 62
7
  6
CONTINUOUS
 10
10.3527967453
 20
-29.0982948303
 11
10.5997271657
 21
-29.0982948303
  0
LINE
  5
2CF
100
AcDbEntity
  8
DRAFT
100
AcDbLine
 62
7
  6
CONTINUOUS
 10
17.95
 20
-28.65
 11
13.45
 21
-28.65
  0
LINE
  5
2D0
100
AcDbEntity
  8
0
100
AcDbLine
 62
7
  6
CONTINUOUS
 10
10.5997271657
 20
-28.3438607216
 11
10.3527967453
 21
-28.3438607216
  0
LINE
  5
2D1
100
AcDbEntity
  8
0
100
AcDbLine
 62
7
  6
CONTINUOUS
 10
18.5438884644
 20
-33.4205193829
 11
17.5972535872
 21
-33.2174308488
  0
LINE
  5
2D2
100
AcDbEntity
  8
0
100
AcDbLine
 62
7
  6
CONTINUOUS
 10
18.6608723592
 20
-33.4461733007
 11
18.5438884644
 21
-33.4205193829
  0
LINE
  5
2D3
100
AcDbEntity
  8
0
100
AcDbLine
 62
7
  6
CONTINUOUS
 10
17.5972535872
 20
-33.2174308488
 11
17.3462653165
 21
-33.1622196216
  0
LINE
  5
2D4
100
AcDbEntity
  8
0
100
AcDbLine
 62
7
  6
CONTINUOUS
 10
17.3462653165
 20
-33.1622196216
 11
17.1304651439
 21
-33.1137859704
  0
LINE
  5
2D5
100
AcDbEntity
  8
0
100
AcDbLine
 62
7
  6
CONTINUOUS
 10
18.7418166368
 20
-33.4643184117
 11
18.6608723592
 21
-33.4461733007
  0
LINE
  5
2D6
100
AcDbEntity
  8
0
100
AcDbLine
 62
7
  6
CONTINUOUS
 10
18.7957582319
 20
-33.4766852493
 11
18.7418166368
 21
-33.4643184117
  0
LINE
  5
2D7
100
AcDbEntity
  8
0
100
AcDbLine
 62
7
  6
CONTINUOUS
 10
17.1304651439
 20
-33.1137859704
 11
16.9022602266
 21
-33.0614171358
  0
LINE
  5
2D8
100
AcDbEntity
  8
0
100
AcDbLine
 62
7
  6
CONTINUOUS
 10
16.9022602266
 20
-33.0614171358
 11
16.7236326278
 21
-33.019485014
  0
LINE
  5
2D9
100
AcDbEntity
  8
0
100
AcDbLine
 62
7
  6
CONTINUOUS
 10
18.8443296396
 20
-33.4880876355
 11
18.7957582319
 21
-33.4766852493
  0
LINE
  5
2DA
100
AcDbEntity
  8
0
100
AcDbLine
 62
7
  6
CONTINUOUS
 10
16.7401831413
 20
-33.6250181967
 11
16.9055736569
 21
-33.6642673907
  0
LINE
  5
2DB
100
AcDbEntity
  8
0
100
AcDbLine
 62
7
  6
CONTINUOUS
 10
18.8739273372
 20
-33.495200039
 11
18.8443296396
 21
-33.4880876355
  0
LINE
  5
2DC
100
AcDbEntity
  8
0
100
AcDbLine
 62
7
  6
CONTINUOUS
 10
16.7236326278
 20
-33.019485014
 11
16.539223704
 21
-32.9752266956
  0
LINE
  5
2DD
100
AcDbEntity
  8
0
100
AcDbLine
 62
7
  6
CONTINUOUS
 10
15.075004257
 20
-33.2201049411
 11
15.9475791589
 21
-33.4312339193
  0
LINE
  5
2DE
100
AcDbEntity
  8
0
100
AcDbLine
 62
7
  6
CONTINUOUS
 10
16.551894008
 20
-33.5794308001
 11
16.7401831413
 21
-33.6250181967
  0
LINE
  5
2DF
100
AcDbEntity
  8
0
100
AcDbLine
 62
7
  6
CONTINUOUS
 10
15.9475791589
 20
-33.4312339193
 11
16.2891651343
 21
-33.5145429763
  0
LINE
  5
2E0
100
AcDbEntity
  8
0
100
AcDbLine
 62
7
  6
CONTINUOUS
 10
16.539223704
 20
-32.9752266956
 11
15.2803428017
 21
-32.6698193647
  0
LINE
  5
2E1
100
AcDbEntity
  8
0
100
AcDbLine
 62
7
  6
CONTINUOUS
 10
18.9014344206
 20
-33.5019532568
 11
18.8739273372
 21
-33.495200039
  0
LWPOLYLINE
  5
2E2
100
AcDbEntity
  8
0
100
AcDbPolyline
 62
7
  6
CONTINUOUS
 90
24
 70
0
 10
15.2803428017
 20
-32.6698193647
 10
14.9514340759
 20
-32.5888768771
 10
14.790751654
 20
-32.5486043607
 10
14.6331454148
 20
-32.5084713601
 10
14.4790945362
 20
-32.4685029208
 10
14.3289338701
 20
-32.4286912765
 10
14.1830957467
 20
-32.3890588006
 10
14.0421870231
 20
-32.3496841882
 10
13.9064971195
 20
-32.310568176
 10
13.7763792269
 20
-32.2717367715
 10
13.6524874641
 20
-32.2333211836
 10
13.5349669562
 20
-32.1953138452
 10
13.4241346406
 20
-32.1577726385
 10
13.320797661
 20
-32.1209540061
 10
13.2249964854
 20
-32.0848844388
 10
13.136841758
 20
-32.0496340822
 10
13.0570715375
 20
-32.0155762877
 10
12.9856593795
 20
-31.9828395554
 10
12.922356001
 20
-31.9514828419
 10
12.8674315975
 20
-31.9218770508
 10
12.8206509035
 20
-31.8942202944
 10
12.7816451428
 20
-31.8686885591
 10
12.7504221102
 20
-31.8458089491
 10
12.7262666013
 20
-31.8257204235
  0
LINE
  5
2E3
100
AcDbEntity
  8
0
100
AcDbLine
 62
7
  6
CONTINUOUS
 10
16.2891651343
 20
-33.5145429763
 11
16.551894008
 21
-33.5794308001
  0
LINE
  5
2E4
100
AcDbEntity
  8
0
100
AcDbLine
 62
7
  6
CONTINUOUS
 10
18.9269804694
 20
-33.5083789236
 11
18.9014344206
 21
-33.5019532568
  0
LINE
  5
2E5
100
AcDbEntity
  8
0
100
AcDbLine
 62
7
  6
CONTINUOUS
 10
18.9507281004
 20
-33.5145187644
 11
18.9269804694
 21
-33.5083789236
  0
LINE
  5
2E6
100
AcDbEntity
  8
DRAFT
100
AcDbLine
 62
7
  6
CONTINUOUS
 10
10.6070955844
 20
-40.390657299
 11
10.4953656201
 21
-40.3347965715
  0
LINE
  5
2E7
100
AcDbEntity
  8
RACCORDO
100
AcDbLine
 62
7
  6
CONTINUOUS
 10
-58.6701649747
 20
20.3461551735
 11
-58.6
 21
20.2743362033
  0
LINE
  5
2E8
100
AcDbEntity
  8
ASSI
100
AcDbLine
 62
7
  6
CONTINUOUS
 10
-23.2311885412
 20
-7.0471419438
 11
-23.2311885412
 21
-8.75
  0
LINE
  5
2E9
100
AcDbEntity
  8
ASSI
100
AcDbLine
 62
7
  6
CONTINUOUS
 10
-23.0041408003
 20
-8.75
 11
-23.0041408003
 21
-7.0471419438
  0
LINE
  5
2EA
100
AcDbEntity
  8
ASSI
100
AcDbLine
 62
7
  6
CONTINUOUS
 10
-22.6222877817
 20
-7.0471419438
 11
-22.6222877817
 21
-8.75
  0
LINE
  5
2EB
100
AcDbEntity
  8
ASSI
100
AcDbLine
 62
7
  6
CONTINUOUS
 10
-22.3952400408
 20
-8.75
 11
-22.3952400408
 21
-7.3051507402
  0
LINE
  5
2EC
100
AcDbEntity
  8
DRAFT
100
AcDbLine
 62
7
  6
CONTINUOUS
 10
19.95
 20
-26.85
 11
18.45
 21
-26.85
  0
LINE
  5
2ED
100
AcDbEntity
  8
DRAFT
100
AcDbLine
 62
7
  6
CONTINUOUS
 10
12.95
 20
-26.85
 11
11.45
 21
-26.85
  0
LINE
  5
2EE
100
AcDbEntity
  8
0
100
AcDbLine
 62
7
  6
CONTINUOUS
 10
11.2
 20
-26.85
 11
10.9639836222
 21
-26.85
  0
LINE
  5
2EF
100
AcDbEntity
  8
RACCORDO
100
AcDbLine
 62
7
  6
CONTINUOUS
 10
23.6668379024
 20
-24.75
 11
23.5
 21
-24.75
  0
LINE
  5
2F0
100
AcDbEntity
  8
RACCORDO
100
AcDbLine
 62
7
  6
CONTINUOUS
 10
7.9
 20
-24.75
 11
7.7331620976
 21
-24.75
  0
LINE
  5
2F1
100
AcDbEntity
  8
DRAFT
100
AcDbLine
 62
7
  6
CONTINUOUS
 10
23.7
 20
-24.65
 11
19.1782707489
 21
-24.65
  0
LINE
  5
2F2
100
AcDbEntity
  8
DRAFT
100
AcDbLine
 62
7
  6
CONTINUOUS
 10
17.9975980495
 20
-24.65
 11
7.7
 21
-24.65
  0
LINE
  5
2F3
100
AcDbEntity
  8
RACCORDO
100
AcDbLine
 62
250
  6
CONTINUOUS
 10
7.6850881723
 20
-24.6079555277
 11
23.7149118277
 21
-24.6079555277
  0
LINE
  5
2F4
100
AcDbEntity
  8
RACCORDO
100
AcDbLine
 62
250
  6
CONTINUOUS
 10
7.1851452856
 20
-24.1080316802
 11
24.2148547144
 21
-24.1080316802
  0
LWPOLYLINE
  5
2F5
100
AcDbEntity
  8
0
100
AcDbPolyline
 62
7
  6
CONTINUOUS
 90
21
 70
0
 10
16.8271656206
 20
-28.65
 10
16.8574347339
 20
-28.6577888718
 10
17.0112267851
 20
-28.6981899562
 10
17.1606988361
 20
-28.7384003188
 10
17.3052959742
 20
-28.7783615829
 10
17.4447328328
 20
-28.8180809256
 10
17.5786063798
 20
-28.8575254157
 10
17.706228604
 20
-28.8965622125
 10
17.827391358
 20
-28.935185276
 10
17.9418061841
 20
-28.9733523377
 10
18.0487518086
 20
-29.0108491775
 10
18.1481454446
 20
-29.0476479167
 10
18.2398456493
 20
-29.0836817904
 10
18.3231688007
 20
-29.1186237322
 10
18.3982020859
 20
-29.1524022325
 10
18.4649840632
 20
-29.184894511
 10
18.5229333961
 20
-29.2155911674
 10
18.5722841673
 20
-29.2442814414
 10
18.6134321303
 20
-29.2707877571
 10
18.6462591748
 20
-29.2944790417
 10
18.6714917356
 20
-29.3151494598
  0
LINE
  5
2F6
100
AcDbEntity
  8
RACCORDO
100
AcDbLine
 62
250
  6
CONTINUOUS
 10
10.1157469528
 20
-42.6398807745
 11
9.9586513684
 21
-42.4827851902
  0
LINE
  5
2F7
100
AcDbEntity
  8
RACCORDO
100
AcDbLine
 62
250
  6
CONTINUOUS
 10
10.6070955844
 20
-42.1313817109
 11
10.45
 21
-41.9742861266
  0
LINE
  5
2F8
100
AcDbEntity
  8
ASSI
100
AcDbLine
 62
7
  6
CONTINUOUS
 10
-25.0
 20
-7.0471419438
 11
-24.3453027677
 21
-8.75
  0
LINE
  5
2F9
100
AcDbEntity
  8
ASSI
100
AcDbLine
 62
7
  6
CONTINUOUS
 10
-24.3164379081
 20
-8.2810689437
 11
-24.7586006158
 21
-7.0471419438
  0
LINE
  5
2FA
100
AcDbEntity
  8
ASSI
100
AcDbLine
 62
7
  6
CONTINUOUS
 10
-22.3952400408
 20
-7.3051507402
 11
-21.9042169592
 21
-8.75
  0
LINE
  5
2FB
100
AcDbEntity
  8
ASSI
100
AcDbLine
 62
7
  6
CONTINUOUS
 10
-21.8729333877
 20
-8.250269146
 11
-22.2762333998
 21
-7.0471419438
  0
LINE
  5
2FC
100
AcDbEntity
  8
ASSI
100
AcDbLine
 62
7
  6
CONTINUOUS
 10
-21.2083995774
 20
-7.3257914439
 11
-21.2083995774
 21
-8.75
  0
LINE
  5
2FD
100
AcDbEntity
  8
ASSI
100
AcDbLine
 62
7
  6
CONTINUOUS
 10
-20.9813518366
 20
-8.75
 11
-20.9813518366
 21
-7.0471419438
  0
LINE
  5
2FE
100
AcDbEntity
  8
ASSI
100
AcDbLine
 62
7
  6
CONTINUOUS
 10
-19.0308053358
 20
-7.0471419438
 11
-19.0308053358
 21
-8.75
  0
LINE
  5
2FF
100
AcDbEntity
  8
ASSI
100
AcDbLine
 62
7
  6
CONTINUOUS
 10
-18.803757595
 20
-8.75
 11
-18.803757595
 21
-7.9966143145
  0
LINE
  5
300
100
AcDbEntity
  8
ASSI
100
AcDbLine
 62
7
  6
CONTINUOUS
 10
-18.803757595
 20
-7.8005276293
 11
-18.803757595
 21
-7.243228629
  0
LINE
  5
301
100
AcDbEntity
  8
ASSI
100
AcDbLine
 62
7
  6
CONTINUOUS
 10
-20.5685377624
 20
-8.75
 11
-20.3890603318
 21
-8.2339824072
  0
LINE
  5
302
100
AcDbEntity
  8
ASSI
100
AcDbLine
 62
7
  6
CONTINUOUS
 10
-21.7110329171
 20
-8.75
 11
-21.2083995774
 21
-7.3257914439
  0
LINE
  5
303
100
AcDbEntity
  8
ASSI
100
AcDbLine
 62
7
  6
CONTINUOUS
 10
-21.2767718494
 20
-7.0471419438
 11
-21.69797118
 21
-8.2293059264
  0
LINE
  5
304
100
AcDbEntity
  8
ASSI
100
AcDbLine
 62
7
  6
CONTINUOUS
 10
-20.3243968354
 20
-8.0482160738
 11
-20.1404043396
 21
-7.5510653472
  0
LINE
  5
305
100
AcDbEntity
  8
ASSI
100
AcDbLine
 62
7
  6
CONTINUOUS
 10
-23.6646433191
 20
-7.0471419438
 11
-24.133574218
 21
-8.2810689437
  0
LINE
  5
306
100
AcDbEntity
  8
ASSI
100
AcDbLine
 62
7
  6
CONTINUOUS
 10
-20.1608837853
 20
-7.0471419438
 11
-20.808163309
 21
-8.75
  0
LINE
  5
307
100
AcDbEntity
  8
ASSI
100
AcDbLine
 62
7
  6
CONTINUOUS
 10
-24.1010005828
 20
-8.75
 11
-23.4217924558
 21
-7.0471419438
  0
LINE
  5
308
100
AcDbEntity
  8
RACCORDO
100
AcDbLine
 62
250
  6
CONTINUOUS
 10
-70.0
 20
-42.2500761524
 11
-69.7327851902
 21
-41.9828613426
  0
LINE
  5
309
100
AcDbEntity
  8
RACCORDO
100
AcDbLine
 62
250
  6
CONTINUOUS
 10
-69.5000761524
 20
-42.75
 11
-69.2328613426
 21
-42.4827851902
  0
LINE
  5
30A
100
AcDbEntity
  8
0
100
AcDbLine
 62
7
  6
CONTINUOUS
 10
54.5
 20
-20.75
 11
52.0
 21
-20.75
  0
LINE
  5
30B
100
AcDbEntity
  8
0
100
AcDbLine
 62
7
  6
CONTINUOUS
 10
49.5
 20
-20.75
 11
47.0
 21
-20.75
  0
LINE
  5
30C
100
AcDbEntity
  8
0
100
AcDbLine
 62
7
  6
CONTINUOUS
 10
44.5
 20
-20.75
 11
42.0
 21
-20.75
  0
LINE
  5
30D
100
AcDbEntity
  8
0
100
AcDbLine
 62
7
  6
CONTINUOUS
 10
39.5
 20
-20.75
 11
37.0
 21
-20.75
  0
LINE
  5
30E
100
AcDbEntity
  8
0
100
AcDbLine
 62
7
  6
CONTINUOUS
 10
34.5
 20
-20.75
 11
32.0
 21
-20.75
  0
LINE
  5
30F
100
AcDbEntity
  8
RACCORDO
100
AcDbLine
 62
250
  6
CONTINUOUS
 10
23.2149689409
 20
-20.5919683198
 11
8.1850310591
 21
-20.5919683198
  0
LINE
  5
310
100
AcDbEntity
  8
RACCORDO
100
AcDbLine
 62
250
  6
CONTINUOUS
 10
23.2149689409
 20
-20.0920444723
 11
8.1850310591
 21
-20.0920444723
  0
LINE
  5
311
100
AcDbEntity
  8
RACCORDO
100
AcDbLine
 62
7
  6
CONTINUOUS
 10
8.2060516942
 20
-20.05
 11
23.1939483058
 21
-20.05
  0
LINE
  5
312
100
AcDbEntity
  8
RACCORDO
100
AcDbLine
 62
250
  6
CONTINUOUS
 10
24.2148547144
 20
-19.5919683141
 11
23.7148737529
 21
-19.5919683141
  0
LINE
  5
313
100
AcDbEntity
  8
RACCORDO
100
AcDbLine
 62
250
  6
CONTINUOUS
 10
7.6851262471
 20
-19.5919683141
 11
7.1851452856
 21
-19.5919683141
  0
LINE
  5
314
100
AcDbEntity
  8
DRAFT
100
AcDbLine
 62
7
  6
CONTINUOUS
 10
7.9
 20
-19.45
 11
23.5
 21
-19.45
  0
LINE
  5
315
100
AcDbEntity
  8
DRAFT
100
AcDbLine
 62
7
  6
CONTINUOUS
 10
23.4615988572
 20
-17.85
 11
7.9384011428
 21
-17.85
  0
LINE
  5
316
100
AcDbEntity
  8
RACCORDO
100
AcDbLine
 62
250
  6
CONTINUOUS
 10
-69.7327851902
 20
-16.3460790211
 11
7.6851262471
 21
-16.3460790211
  0
LINE
  5
317
100
AcDbEntity
  8
RACCORDO
100
AcDbLine
 62
250
  6
CONTINUOUS
 10
23.7148737529
 20
-16.3460790211
 11
69.7327851902
 21
-16.3460790211
  0
LWPOLYLINE
  5
318
100
AcDbEntity
  8
0
100
AcDbPolyline
 62
7
  6
CONTINUOUS
 90
7
 70
0
 10
12.95
 20
-26.9654279097
 10
12.9468026361
 20
-26.9638959176
 10
12.8868462521
 20
-26.9326448148
 10
12.8356412295
 20
-26.90337973
 10
12.7927795114
 20
-26.8762636905
 10
12.7582866868
 20
-26.8518380374
 10
12.755999664
 20
-26.85
  0
LINE
  5
319
100
AcDbEntity
  8
RACCORDO
100
AcDbLine
 62
7
  6
CONTINUOUS
 10
10.4918921558
 20
-40.3347965715
 11
10.4534300864
 21
-40.2963345021
  0
LINE
  5
31A
100
AcDbEntity
  8
DRAFT
100
AcDbLine
 62
7
  6
CONTINUOUS
 10
14.4587275325
 20
-40.3435241039
 11
14.45
 21
-40.3347965715
  0
LINE
  5
31B
100
AcDbEntity
  8
RACCORDO
100
AcDbLine
 62
250
  6
CONTINUOUS
 10
-69.7327851902
 20
46.4828613426
 11
-70.0
 21
46.7500761524
  0
LINE
  5
31C
100
AcDbEntity
  8
ASSI
100
AcDbLine
 62
7
  6
CONTINUOUS
 10
-18.044566623
 20
-8.3960441357
 11
-17.8213890732
 21
-8.75
  0
LINE
  5
31D
100
AcDbEntity
  8
ASSI
100
AcDbLine
 62
7
  6
CONTINUOUS
 10
-19.233180924
 20
-8.75
 11
-19.9152916942
 21
-7.0471419438
  0
LINE
  5
31E
100
AcDbEntity
  8
ASSI
100
AcDbLine
 62
7
  6
CONTINUOUS
 10
-19.6645393485
 20
-8.2339824072
 11
-19.4745804656
 21
-8.75
  0
LINE
  5
31F
100
AcDbEntity
  8
ASSI
100
AcDbLine
 62
7
  6
CONTINUOUS
 10
-15.078110575
 20
-7.0471419438
 11
-15.078110575
 21
-8.75
  0
LINE
  5
320
100
AcDbEntity
  8
ASSI
100
AcDbLine
 62
7
  6
CONTINUOUS
 10
-14.8510628342
 20
-8.75
 11
-14.8510628342
 21
-8.0482160738
  0
LINE
  5
321
100
AcDbEntity
  8
ASSI
100
AcDbLine
 62
7
  6
CONTINUOUS
 10
-14.8510628342
 20
-7.8521293885
 11
-14.8510628342
 21
-7.243228629
  0
LINE
  5
322
100
AcDbEntity
  8
ASSI
100
AcDbLine
 62
7
  6
CONTINUOUS
 10
29.5780519053
 20
-7.5670295701
 11
29.8050996461
 21
-7.514782779
  0
LINE
  5
323
100
AcDbEntity
  8
ASSI
100
AcDbLine
 62
7
  6
CONTINUOUS
 10
15.7487804184
 20
-8.2752638146
 11
15.5423733813
 21
-8.3062248702
  0
LINE
  5
324
100
AcDbEntity
  8
RACCORDO
100
AcDbLine
 62
250
  6
CONTINUOUS
 10
-69.2328613426
 20
-15.8461551735
 11
7.1851452856
 21
-15.8461551735
  0
LINE
  5
325
100
AcDbEntity
  8
RACCORDO
100
AcDbLine
 62
250
  6
CONTINUOUS
 10
69.2328613426
 20
-15.8461551735
 11
24.2148547144
 21
-15.8461551735
  0
LINE
  5
326
100
AcDbEntity
  8
RACCORDO
100
AcDbLine
 62
7
  6
CONTINUOUS
 10
69.3290165161
 20
-15.75
 11
24.1667807892
 21
-15.75
  0
LINE
  5
327
100
AcDbEntity
  8
RACCORDO
100
AcDbLine
 62
7
  6
CONTINUOUS
 10
7.2332192108
 20
-15.75
 11
-69.3290165161
 21
-15.75
  0
LINE
  5
328
100
AcDbEntity
  8
RACCORDO
100
AcDbLine
 62
250
  6
CONTINUOUS
 10
7.9130754665
 20
-15.0268402567
 11
23.4869245335
 21
-15.0268402567
  0
LINE
  5
329
100
AcDbEntity
  8
RACCORDO
100
AcDbLine
 62
250
  6
CONTINUOUS
 10
7.9054653726
 20
-14.7554653726
 11
23.4945346274
 21
-14.7554653726
  0
LINE
  5
32A
100
AcDbEntity
  8
DRAFT
100
AcDbLine
 62
7
  6
CONTINUOUS
 10
23.5
 20
-14.75
 11
7.9
 21
-14.75
  0
LINE
  5
32B
100
AcDbEntity
  8
0
100
AcDbLine
 62
7
  6
CONTINUOUS
 10
12.7262666013
 20
-31.8257204235
 11
12.7218774934
 21
-31.821503571
  0
LINE
  5
32C
100
AcDbEntity
  8
RACCORDO
100
AcDbLine
 62
250
  6
CONTINUOUS
 10
-69.2328613426
 20
46.9827851902
 11
-69.5000761524
 21
47.25
  0
LINE
  5
32D
100
AcDbEntity
  8
ASSI
100
AcDbLine
 62
7
  6
CONTINUOUS
 10
-12.1224584953
 20
-8.75
 11
-12.8045692655
 21
-7.0471419438
  0
LINE
  5
32E
100
AcDbEntity
  8
ASSI
100
AcDbLine
 62
7
  6
CONTINUOUS
 10
-11.4287373095
 20
-7.0471419438
 11
-10.7740400773
 21
-8.75
  0
LINE
  5
32F
100
AcDbEntity
  8
ASSI
100
AcDbLine
 62
7
  6
CONTINUOUS
 10
-12.5538169198
 20
-8.2339824072
 11
-12.3638580369
 21
-8.75
  0
LINE
  5
330
100
AcDbEntity
  8
ASSI
100
AcDbLine
 62
7
  6
CONTINUOUS
 10
-10.7451752177
 20
-8.2810689437
 11
-11.1873379254
 21
-7.0471419438
  0
LINE
  5
331
100
AcDbEntity
  8
ASSI
100
AcDbLine
 62
7
  6
CONTINUOUS
 10
-9.6599258507
 20
-7.0471419438
 11
-9.6599258507
 21
-8.75
  0
LINE
  5
332
100
AcDbEntity
  8
ASSI
100
AcDbLine
 62
7
  6
CONTINUOUS
 10
-9.4328781099
 20
-8.75
 11
-9.4328781099
 21
-7.0471419438
  0
LINE
  5
333
100
AcDbEntity
  8
ASSI
100
AcDbLine
 62
7
  6
CONTINUOUS
 10
-7.4616909054
 20
-7.0471419438
 11
-7.4616909054
 21
-8.75
  0
LINE
  5
334
100
AcDbEntity
  8
ASSI
100
AcDbLine
 62
7
  6
CONTINUOUS
 10
-7.2346431646
 20
-8.5539133147
 11
-7.2346431646
 21
-7.0471419438
  0
LINE
  5
335
100
AcDbEntity
  8
ASSI
100
AcDbLine
 62
7
  6
CONTINUOUS
 10
-6.3883743124
 20
-8.75
 11
-6.3883743124
 21
-8.5539133147
  0
LINE
  5
336
100
AcDbEntity
  8
ASSI
100
AcDbLine
 62
7
  6
CONTINUOUS
 10
-6.1200451641
 20
-7.0471419438
 11
-6.1200451641
 21
-8.75
  0
LINE
  5
337
100
AcDbEntity
  8
ASSI
100
AcDbLine
 62
7
  6
CONTINUOUS
 10
-5.8929974233
 20
-8.5539133147
 11
-5.8929974233
 21
-7.965653259
  0
LINE
  5
338
100
AcDbEntity
  8
ASSI
100
AcDbLine
 62
7
  6
CONTINUOUS
 10
-5.8929974233
 20
-7.7695665737
 11
-5.8929974233
 21
-7.243228629
  0
LINE
  5
339
100
AcDbEntity
  8
ASSI
100
AcDbLine
 62
7
  6
CONTINUOUS
 10
-4.9641657563
 20
-7.965653259
 11
-4.9641657563
 21
-7.7695665737
  0
LINE
  5
33A
100
AcDbEntity
  8
ASSI
100
AcDbLine
 62
7
  6
CONTINUOUS
 10
-4.9022436452
 20
-7.243228629
 11
-4.9022436452
 21
-7.0471419438
  0
LINE
  5
33B
100
AcDbEntity
  8
ASSI
100
AcDbLine
 62
7
  6
CONTINUOUS
 10
-13.4578153337
 20
-8.75
 11
-13.2783379032
 21
-8.2339824072
  0
LINE
  5
33C
100
AcDbEntity
  8
ASSI
100
AcDbLine
 62
7
  6
CONTINUOUS
 10
-8.9787826282
 20
-8.75
 11
-8.7993051977
 21
-8.2339824072
  0
LINE
  5
33D
100
AcDbEntity
  8
ASSI
100
AcDbLine
 62
7
  6
CONTINUOUS
 10
-13.2136744067
 20
-8.0482160738
 11
-13.0296819109
 21
-7.5510653472
  0
LINE
  5
33E
100
AcDbEntity
  8
ASSI
100
AcDbLine
 62
7
  6
CONTINUOUS
 10
-8.7346417013
 20
-8.0482160738
 11
-8.5506492054
 21
-7.5510653472
  0
LINE
  5
33F
100
AcDbEntity
  8
ASSI
100
AcDbLine
 62
7
  6
CONTINUOUS
 10
-13.0501613566
 20
-7.0471419438
 11
-13.6974408803
 21
-8.75
  0
LINE
  5
340
100
AcDbEntity
  8
ASSI
100
AcDbLine
 62
7
  6
CONTINUOUS
 10
-10.0933806287
 20
-7.0471419438
 11
-10.5623115275
 21
-8.2810689437
  0
LINE
  5
341
100
AcDbEntity
  8
ASSI
100
AcDbLine
 62
7
  6
CONTINUOUS
 10
-8.5711286512
 20
-7.0471419438
 11
-9.2184081748
 21
-8.75
  0
LINE
  5
342
100
AcDbEntity
  8
ASSI
100
AcDbLine
 62
7
  6
CONTINUOUS
 10
-10.5297378924
 20
-8.75
 11
-9.8505297654
 21
-7.0471419438
  0
LINE
  5
343
100
AcDbEntity
  8
ASSI
100
AcDbLine
 62
7
  6
CONTINUOUS
 10
-0.4851330508
 20
-7.5670295701
 11
-0.25808531
 21
-7.514782779
  0
LINE
  5
344
100
AcDbEntity
  8
ASSI
100
AcDbLine
 62
7
  6
CONTINUOUS
 10
10.4647602682
 20
-8.2752638146
 11
10.2583532311
 21
-8.3062248702
  0
LINE
  5
345
100
AcDbEntity
  8
ASSI
100
AcDbLine
 62
7
  6
CONTINUOUS
 10
15.0985982515
 20
-7.4805967217
 11
15.3050052886
 21
-7.459956018
  0
LINE
  5
346
100
AcDbEntity
  8
ASSI
100
AcDbLine
 62
7
  6
CONTINUOUS
 10
12.4565881764
 20
-7.4805967217
 11
12.6629952135
 21
-7.459956018
  0
LINE
  5
347
100
AcDbEntity
  8
ASSI
100
AcDbLine
 62
7
  6
CONTINUOUS
 10
24.871971459
 20
-8.1823806479
 11
24.65524407
 21
-8.1927009998
  0
LINE
  5
348
100
AcDbEntity
  8
ASSI
100
AcDbLine
 62
7
  6
CONTINUOUS
 10
-16.5229598349
 20
-8.1823806479
 11
-16.7396872238
 21
-8.1927009998
  0
LINE
  5
349
100
AcDbEntity
  8
ASSI
100
AcDbLine
 62
7
  6
CONTINUOUS
 10
25.7285606631
 20
-7.532198481
 11
25.9556084039
 21
-7.5218781292
  0
LINE
  5
34A
100
AcDbEntity
  8
ASSI
100
AcDbLine
 62
7
  6
CONTINUOUS
 10
-15.6663706308
 20
-7.532198481
 11
-15.43932289
 21
-7.5218781292
  0
LINE
  5
34B
100
AcDbEntity
  8
ASSI
100
AcDbLine
 62
7
  6
CONTINUOUS
 10
-24.3453027677
 20
-8.75
 11
-24.1010005828
 21
-8.75
  0
LINE
  5
34C
100
AcDbEntity
  8
ASSI
100
AcDbLine
 62
7
  6
CONTINUOUS
 10
-23.2311885412
 20
-8.75
 11
-23.0041408003
 21
-8.75
  0
LINE
  5
34D
100
AcDbEntity
  8
ASSI
100
AcDbLine
 62
7
  6
CONTINUOUS
 10
-22.6222877817
 20
-8.75
 11
-22.3952400408
 21
-8.75
  0
LINE
  5
34E
100
AcDbEntity
  8
ASSI
100
AcDbLine
 62
7
  6
CONTINUOUS
 10
-21.9042169592
 20
-8.75
 11
-21.7110329171
 21
-8.75
  0
LINE
  5
34F
100
AcDbEntity
  8
ASSI
100
AcDbLine
 62
7
  6
CONTINUOUS
 10
-20.808163309
 20
-8.75
 11
-20.5685377624
 21
-8.75
  0
LINE
  5
350
100
AcDbEntity
  8
ASSI
100
AcDbLine
 62
7
  6
CONTINUOUS
 10
-21.2083995774
 20
-8.75
 11
-20.9813518366
 21
-8.75
  0
LINE
  5
351
100
AcDbEntity
  8
ASSI
100
AcDbLine
 62
7
  6
CONTINUOUS
 10
-19.0308053358
 20
-8.75
 11
-18.803757595
 21
-8.75
  0
LINE
  5
352
100
AcDbEntity
  8
ASSI
100
AcDbLine
 62
7
  6
CONTINUOUS
 10
-19.4745804656
 20
-8.75
 11
-19.233180924
 21
-8.75
  0
LINE
  5
353
100
AcDbEntity
  8
ASSI
100
AcDbLine
 62
7
  6
CONTINUOUS
 10
-17.8213890732
 20
-8.75
 11
-17.5546725045
 21
-8.75
  0
LINE
  5
354
100
AcDbEntity
  8
ASSI
100
AcDbLine
 62
7
  6
CONTINUOUS
 10
-15.078110575
 20
-8.75
 11
-14.8510628342
 21
-8.75
  0
LINE
  5
355
100
AcDbEntity
  8
ASSI
100
AcDbLine
 62
7
  6
CONTINUOUS
 10
-13.6974408803
 20
-8.75
 11
-13.4578153337
 21
-8.75
  0
LINE
  5
356
100
AcDbEntity
  8
ASSI
100
AcDbLine
 62
7
  6
CONTINUOUS
 10
-12.3638580369
 20
-8.75
 11
-12.1224584953
 21
-8.75
  0
LINE
  5
357
100
AcDbEntity
  8
ASSI
100
AcDbLine
 62
7
  6
CONTINUOUS
 10
-10.7740400773
 20
-8.75
 11
-10.5297378924
 21
-8.75
  0
LINE
  5
358
100
AcDbEntity
  8
ASSI
100
AcDbLine
 62
7
  6
CONTINUOUS
 10
-9.6599258507
 20
-8.75
 11
-9.4328781099
 21
-8.75
  0
LINE
  5
359
100
AcDbEntity
  8
ASSI
100
AcDbLine
 62
7
  6
CONTINUOUS
 10
-9.2184081748
 20
-8.75
 11
-8.9787826282
 21
-8.75
  0
LINE
  5
35A
100
AcDbEntity
  8
ASSI
100
AcDbLine
 62
7
  6
CONTINUOUS
 10
-7.8848253315
 20
-8.75
 11
-7.6434257899
 21
-8.75
  0
LINE
  5
35B
100
AcDbEntity
  8
ASSI
100
AcDbLine
 62
7
  6
CONTINUOUS
 10
-7.4616909054
 20
-8.75
 11
-6.3883743124
 21
-8.75
  0
LINE
  5
35C
100
AcDbEntity
  8
ASSI
100
AcDbLine
 62
7
  6
CONTINUOUS
 10
-6.1200451641
 20
-8.75
 11
-4.8609622377
 21
-8.75
  0
LINE
  5
35D
100
AcDbEntity
  8
ASSI
100
AcDbLine
 62
7
  6
CONTINUOUS
 10
-3.3949885003
 20
-8.75
 11
-3.1506863154
 21
-8.75
  0
LINE
  5
35E
100
AcDbEntity
  8
ASSI
100
AcDbLine
 62
7
  6
CONTINUOUS
 10
-2.2808742738
 20
-8.75
 11
-2.0538265329
 21
-8.75
  0
LINE
  5
35F
100
AcDbEntity
  8
ASSI
100
AcDbLine
 62
7
  6
CONTINUOUS
 10
0.0721659494
 20
-8.75
 11
1.3312488758
 21
-8.75
  0
LINE
  5
360
100
AcDbEntity
  8
ASSI
100
AcDbLine
 62
7
  6
CONTINUOUS
 10
1.6511797833
 20
-8.75
 11
1.8782275242
 21
-8.75
  0
LINE
  5
361
100
AcDbEntity
  8
ASSI
100
AcDbLine
 62
7
  6
CONTINUOUS
 10
2.7307854367
 20
-8.75
 11
2.9721848209
 21
-8.75
  0
LINE
  5
362
100
AcDbEntity
  8
ASSI
100
AcDbLine
 62
7
  6
CONTINUOUS
 10
3.2095529136
 20
-8.75
 11
4.5615190067
 21
-8.75
  0
LINE
  5
363
100
AcDbEntity
  8
ASSI
100
AcDbLine
 62
7
  6
CONTINUOUS
 10
4.610863312
 20
-8.75
 11
4.8504888586
 21
-8.75
  0
LINE
  5
364
100
AcDbEntity
  8
ASSI
100
AcDbLine
 62
7
  6
CONTINUOUS
 10
5.9444461554
 20
-8.75
 11
6.185845697
 21
-8.75
  0
LINE
  5
365
100
AcDbEntity
  8
ASSI
100
AcDbLine
 62
7
  6
CONTINUOUS
 10
7.5337803412
 20
-8.75
 11
7.7401873783
 21
-8.75
  0
LINE
  5
366
100
AcDbEntity
  8
ASSI
100
AcDbLine
 62
7
  6
CONTINUOUS
 10
8.9579888973
 20
-8.75
 11
9.1643959344
 21
-8.75
  0
LINE
  5
367
100
AcDbEntity
  8
ASSI
100
AcDbLine
 62
7
  6
CONTINUOUS
 10
17.5858030488
 20
-8.75
 11
17.8128507896
 21
-8.75
  0
LINE
  5
368
100
AcDbEntity
  8
ASSI
100
AcDbLine
 62
7
  6
CONTINUOUS
 10
18.3038738713
 20
-8.75
 11
18.4970579133
 21
-8.75
  0
LINE
  5
369
100
AcDbEntity
  8
ASSI
100
AcDbLine
 62
7
  6
CONTINUOUS
 10
19.3999275215
 20
-8.75
 11
19.6395530681
 21
-8.75
  0
LINE
  5
36A
100
AcDbEntity
  8
ASSI
100
AcDbLine
 62
7
  6
CONTINUOUS
 10
18.999691253
 20
-8.75
 11
19.2267389939
 21
-8.75
  0
LINE
  5
36B
100
AcDbEntity
  8
ASSI
100
AcDbLine
 62
7
  6
CONTINUOUS
 10
21.1772854946
 20
-8.75
 11
21.4043332354
 21
-8.75
  0
LINE
  5
36C
100
AcDbEntity
  8
ASSI
100
AcDbLine
 62
7
  6
CONTINUOUS
 10
20.7335103648
 20
-8.75
 11
20.9749099065
 21
-8.75
  0
LINE
  5
36D
100
AcDbEntity
  8
ASSI
100
AcDbLine
 62
7
  6
CONTINUOUS
 10
22.3867017573
 20
-8.75
 11
22.6534183259
 21
-8.75
  0
LINE
  5
36E
100
AcDbEntity
  8
ASSI
100
AcDbLine
 62
7
  6
CONTINUOUS
 10
26.7399551449
 20
-8.75
 11
26.9670028858
 21
-8.75
  0
LINE
  5
36F
100
AcDbEntity
  8
ASSI
100
AcDbLine
 62
7
  6
CONTINUOUS
 10
27.7823106824
 20
-8.75
 11
28.0093584232
 21
-8.75
  0
LINE
  5
370
100
AcDbEntity
  8
ASSI
100
AcDbLine
 62
7
  6
CONTINUOUS
 10
29.9370067663
 20
-8.75
 11
30.1766323129
 21
-8.75
  0
LINE
  5
371
100
AcDbEntity
  8
ASSI
100
AcDbLine
 62
7
  6
CONTINUOUS
 10
31.2705896097
 20
-8.75
 11
31.5119891513
 21
-8.75
  0
LINE
  5
372
100
AcDbEntity
  8
ASSI
100
AcDbLine
 62
7
  6
CONTINUOUS
 10
32.8604075693
 20
-8.75
 11
33.1047097542
 21
-8.75
  0
LINE
  5
373
100
AcDbEntity
  8
ASSI
100
AcDbLine
 62
7
  6
CONTINUOUS
 10
33.9745217959
 20
-8.75
 11
34.2015695367
 21
-8.75
  0
LINE
  5
374
100
AcDbEntity
  8
ASSI
100
AcDbLine
 62
7
  6
CONTINUOUS
 10
35.2955268334
 20
-8.75
 11
35.5225745743
 21
-8.75
  0
LINE
  5
375
100
AcDbEntity
  8
ASSI
100
AcDbLine
 62
7
  6
CONTINUOUS
 10
36.3585230746
 20
-8.75
 11
36.5855708154
 21
-8.75
  0
LINE
  5
376
100
AcDbEntity
  8
ASSI
100
AcDbLine
 62
7
  6
CONTINUOUS
 10
37.1818937691
 20
-8.75
 11
37.4215193158
 21
-8.75
  0
LINE
  5
377
100
AcDbEntity
  8
ASSI
100
AcDbLine
 62
7
  6
CONTINUOUS
 10
38.5154766125
 20
-8.75
 11
38.7568761541
 21
-8.75
  0
LINE
  5
378
100
AcDbEntity
  8
ASSI
100
AcDbLine
 62
7
  6
CONTINUOUS
 10
38.9386110386
 20
-8.75
 11
40.0119276316
 21
-8.75
  0
LINE
  5
379
100
AcDbEntity
  8
ASSI
100
AcDbLine
 62
7
  6
CONTINUOUS
 10
40.745962677
 20
-8.75
 11
40.9730104178
 21
-8.75
  0
LINE
  5
37A
100
AcDbEntity
  8
ASSI
100
AcDbLine
 62
7
  6
CONTINUOUS
 10
40.0119276316
 20
-8.5539133147
 11
39.1656587794
 21
-8.5539133147
  0
LINE
  5
37B
100
AcDbEntity
  8
ASSI
100
AcDbLine
 62
7
  6
CONTINUOUS
 10
4.5615190067
 20
-8.5539133147
 11
3.4667555776
 21
-8.5539133147
  0
LINE
  5
37C
100
AcDbEntity
  8
ASSI
100
AcDbLine
 62
7
  6
CONTINUOUS
 10
1.3312488758
 20
-8.5539133147
 11
0.2992136902
 21
-8.5539133147
  0
LINE
  5
37D
100
AcDbEntity
  8
ASSI
100
AcDbLine
 62
7
  6
CONTINUOUS
 10
-4.8609622377
 20
-8.5539133147
 11
-5.8929974233
 21
-8.5539133147
  0
LINE
  5
37E
100
AcDbEntity
  8
ASSI
100
AcDbLine
 62
7
  6
CONTINUOUS
 10
-6.3883743124
 20
-8.5539133147
 11
-7.2346431646
 21
-8.5539133147
  0
LINE
  5
37F
100
AcDbEntity
  8
ASSI
100
AcDbLine
 62
7
  6
CONTINUOUS
 10
8.2046032118
 20
-8.3475062776
 11
8.9579888973
 21
-8.3475062776
  0
LINE
  5
380
100
AcDbEntity
  8
ASSI
100
AcDbLine
 62
7
  6
CONTINUOUS
 10
9.1643959344
 20
-8.3475062776
 11
9.3914436752
 21
-8.3475062776
  0
LINE
  5
381
100
AcDbEntity
  8
ASSI
100
AcDbLine
 62
7
  6
CONTINUOUS
 10
-20.3890603318
 20
-8.2339824072
 11
-19.6645393485
 21
-8.2339824072
  0
LINE
  5
382
100
AcDbEntity
  8
ASSI
100
AcDbLine
 62
7
  6
CONTINUOUS
 10
-13.2783379032
 20
-8.2339824072
 11
-12.5538169198
 21
-8.2339824072
  0
LINE
  5
383
100
AcDbEntity
  8
ASSI
100
AcDbLine
 62
7
  6
CONTINUOUS
 10
-8.7993051977
 20
-8.2339824072
 11
-8.0747842143
 21
-8.2339824072
  0
LINE
  5
384
100
AcDbEntity
  8
ASSI
100
AcDbLine
 62
7
  6
CONTINUOUS
 10
5.0299662891
 20
-8.2339824072
 11
5.7544872725
 21
-8.2339824072
  0
LINE
  5
385
100
AcDbEntity
  8
ASSI
100
AcDbLine
 62
7
  6
CONTINUOUS
 10
19.8190304986
 20
-8.2339824072
 11
20.543551482
 21
-8.2339824072
  0
LINE
  5
386
100
AcDbEntity
  8
ASSI
100
AcDbLine
 62
7
  6
CONTINUOUS
 10
30.3561097434
 20
-8.2339824072
 11
31.0806307268
 21
-8.2339824072
  0
LINE
  5
387
100
AcDbEntity
  8
ASSI
100
AcDbLine
 62
7
  6
CONTINUOUS
 10
37.6009967463
 20
-8.2339824072
 11
38.3255177296
 21
-8.2339824072
  0
LINE
  5
388
100
AcDbEntity
  8
ASSI
100
AcDbLine
 62
7
  6
CONTINUOUS
 10
9.3914436752
 20
-8.1514195924
 11
9.1643959344
 21
-8.1514195924
  0
LINE
  5
389
100
AcDbEntity
  8
ASSI
100
AcDbLine
 62
7
  6
CONTINUOUS
 10
8.9579888973
 20
-8.1514195924
 11
8.4113327648
 21
-8.1514195924
  0
LINE
  5
38A
100
AcDbEntity
  8
ASSI
100
AcDbLine
 62
7
  6
CONTINUOUS
 10
38.2569841997
 20
-8.0482160738
 11
37.6656602427
 21
-8.0482160738
  0
LINE
  5
38B
100
AcDbEntity
  8
ASSI
100
AcDbLine
 62
7
  6
CONTINUOUS
 10
31.0120971969
 20
-8.0482160738
 11
30.4207732399
 21
-8.0482160738
  0
LINE
  5
38C
100
AcDbEntity
  8
ASSI
100
AcDbLine
 62
7
  6
CONTINUOUS
 10
20.475017952
 20
-8.0482160738
 11
19.883693995
 21
-8.0482160738
  0
LINE
  5
38D
100
AcDbEntity
  8
ASSI
100
AcDbLine
 62
7
  6
CONTINUOUS
 10
-14.8510628342
 20
-8.0482160738
 11
-14.4272833763
 21
-8.0482160738
  0
LINE
  5
38E
100
AcDbEntity
  8
ASSI
100
AcDbLine
 62
7
  6
CONTINUOUS
 10
5.6859537426
 20
-8.0482160738
 11
5.0946297856
 21
-8.0482160738
  0
LINE
  5
38F
100
AcDbEntity
  8
ASSI
100
AcDbLine
 62
7
  6
CONTINUOUS
 10
-8.1433177443
 20
-8.0482160738
 11
-8.7346417013
 21
-8.0482160738
  0
LINE
  5
390
100
AcDbEntity
  8
ASSI
100
AcDbLine
 62
7
  6
CONTINUOUS
 10
-12.6223504497
 20
-8.0482160738
 11
-13.2136744067
 21
-8.0482160738
  0
LINE
  5
391
100
AcDbEntity
  8
ASSI
100
AcDbLine
 62
7
  6
CONTINUOUS
 10
-19.7330728784
 20
-8.0482160738
 11
-20.3243968354
 21
-8.0482160738
  0
LINE
  5
392
100
AcDbEntity
  8
ASSI
100
AcDbLine
 62
7
  6
CONTINUOUS
 10
-18.803757595
 20
-7.9966143145
 11
-18.5449425088
 21
-7.9966143145
  0
LINE
  5
393
100
AcDbEntity
  8
ASSI
100
AcDbLine
 62
7
  6
CONTINUOUS
 10
21.4043332354
 20
-7.9966143145
 11
21.6631483216
 21
-7.9966143145
  0
LINE
  5
394
100
AcDbEntity
  8
ASSI
100
AcDbLine
 62
7
  6
CONTINUOUS
 10
-5.8929974233
 20
-7.965653259
 11
-4.9641657563
 21
-7.965653259
  0
LINE
  5
395
100
AcDbEntity
  8
ASSI
100
AcDbLine
 62
7
  6
CONTINUOUS
 10
0.2992136902
 20
-7.965653259
 11
1.2280453572
 21
-7.965653259
  0
LINE
  5
396
100
AcDbEntity
  8
ASSI
100
AcDbLine
 62
7
  6
CONTINUOUS
 10
-14.4248645069
 20
-7.8521293885
 11
-14.8510628342
 21
-7.8521293885
  0
LINE
  5
397
100
AcDbEntity
  8
ASSI
100
AcDbLine
 62
7
  6
CONTINUOUS
 10
21.8839071596
 20
-7.8005276293
 11
21.4043332354
 21
-7.8005276293
  0
LINE
  5
398
100
AcDbEntity
  8
ASSI
100
AcDbLine
 62
7
  6
CONTINUOUS
 10
-18.3241836709
 20
-7.8005276293
 11
-18.803757595
 21
-7.8005276293
  0
LINE
  5
399
100
AcDbEntity
  8
ASSI
100
AcDbLine
 62
7
  6
CONTINUOUS
 10
1.2280453572
 20
-7.7695665737
 11
0.2992136902
 21
-7.7695665737
  0
LINE
  5
39A
100
AcDbEntity
  8
ASSI
100
AcDbLine
 62
7
  6
CONTINUOUS
 10
-4.9641657563
 20
-7.7695665737
 11
-5.8929974233
 21
-7.7695665737
  0
LINE
  5
39B
100
AcDbEntity
  8
ASSI
100
AcDbLine
 62
7
  6
CONTINUOUS
 10
-18.803757595
 20
-7.243228629
 11
-18.2700017843
 21
-7.243228629
  0
LINE
  5
39C
100
AcDbEntity
  8
ASSI
100
AcDbLine
 62
7
  6
CONTINUOUS
 10
-14.8510628342
 20
-7.243228629
 11
-14.4293795723
 21
-7.243228629
  0
LINE
  5
39D
100
AcDbEntity
  8
ASSI
100
AcDbLine
 62
7
  6
CONTINUOUS
 10
-5.8929974233
 20
-7.243228629
 11
-4.9022436452
 21
-7.243228629
  0
LINE
  5
39E
100
AcDbEntity
  8
ASSI
100
AcDbLine
 62
7
  6
CONTINUOUS
 10
0.2992136902
 20
-7.243228629
 11
1.2899674684
 21
-7.243228629
  0
LINE
  5
39F
100
AcDbEntity
  8
ASSI
100
AcDbLine
 62
7
  6
CONTINUOUS
 10
3.3127564321
 20
-7.243228629
 11
4.2564236738
 21
-7.243228629
  0
LINE
  5
3A0
100
AcDbEntity
  8
ASSI
100
AcDbLine
 62
7
  6
CONTINUOUS
 10
21.4043332354
 20
-7.243228629
 11
21.9380890462
 21
-7.243228629
  0
LINE
  5
3A1
100
AcDbEntity
  8
ASSI
100
AcDbLine
 62
7
  6
CONTINUOUS
 10
26.1826561447
 20
-7.243228629
 11
26.7399551449
 21
-7.243228629
  0
LINE
  5
3A2
100
AcDbEntity
  8
ASSI
100
AcDbLine
 62
7
  6
CONTINUOUS
 10
26.9670028858
 20
-7.243228629
 11
27.524301886
 21
-7.243228629
  0
LINE
  5
3A3
100
AcDbEntity
  8
ASSI
100
AcDbLine
 62
7
  6
CONTINUOUS
 10
35.8012240744
 20
-7.243228629
 11
36.3585230746
 21
-7.243228629
  0
LINE
  5
3A4
100
AcDbEntity
  8
ASSI
100
AcDbLine
 62
7
  6
CONTINUOUS
 10
36.5855708154
 20
-7.243228629
 11
37.1428698156
 21
-7.243228629
  0
LINE
  5
3A5
100
AcDbEntity
  8
ASSI
100
AcDbLine
 62
7
  6
CONTINUOUS
 10
41.6541536403
 20
-7.0471419438
 11
41.380180621
 21
-7.0471419438
  0
LINE
  5
3A6
100
AcDbEntity
  8
ASSI
100
AcDbLine
 62
7
  6
CONTINUOUS
 10
40.3658834959
 20
-7.0471419438
 11
40.0957805101
 21
-7.0471419438
  0
LINE
  5
3A7
100
AcDbEntity
  8
ASSI
100
AcDbLine
 62
7
  6
CONTINUOUS
 10
39.1656587794
 20
-7.0471419438
 11
38.9386110386
 21
-7.0471419438
  0
LINE
  5
3A8
100
AcDbEntity
  8
ASSI
100
AcDbLine
 62
7
  6
CONTINUOUS
 10
38.0747653839
 20
-7.0471419438
 11
37.8291732928
 21
-7.0471419438
  0
LINE
  5
3A9
100
AcDbEntity
  8
ASSI
100
AcDbLine
 62
7
  6
CONTINUOUS
 10
37.1428698156
 20
-7.0471419438
 11
35.8012240744
 21
-7.0471419438
  0
LINE
  5
3AA
100
AcDbEntity
  8
ASSI
100
AcDbLine
 62
7
  6
CONTINUOUS
 10
35.5225745743
 20
-7.0471419438
 11
35.2955268334
 21
-7.0471419438
  0
LINE
  5
3AB
100
AcDbEntity
  8
ASSI
100
AcDbLine
 62
7
  6
CONTINUOUS
 10
34.2015695367
 20
-7.0471419438
 11
33.9745217959
 21
-7.0471419438
  0
LINE
  5
3AC
100
AcDbEntity
  8
ASSI
100
AcDbLine
 62
7
  6
CONTINUOUS
 10
33.7839178812
 20
-7.0471419438
 11
33.5410670179
 21
-7.0471419438
  0
LINE
  5
3AD
100
AcDbEntity
  8
ASSI
100
AcDbLine
 62
7
  6
CONTINUOUS
 10
32.4471097212
 20
-7.0471419438
 11
32.2057103371
 21
-7.0471419438
  0
LINE
  5
3AE
100
AcDbEntity
  8
ASSI
100
AcDbLine
 62
7
  6
CONTINUOUS
 10
30.8298783811
 20
-7.0471419438
 11
30.58428629
 21
-7.0471419438
  0
LINE
  5
3AF
100
AcDbEntity
  8
ASSI
100
AcDbLine
 62
7
  6
CONTINUOUS
 10
28.0093584232
 20
-7.0471419438
 11
27.7823106824
 21
-7.0471419438
  0
LINE
  5
3B0
100
AcDbEntity
  8
ASSI
100
AcDbLine
 62
7
  6
CONTINUOUS
 10
27.524301886
 20
-7.0471419438
 11
26.1826561447
 21
-7.0471419438
  0
LINE
  5
3B1
100
AcDbEntity
  8
ASSI
100
AcDbLine
 62
7
  6
CONTINUOUS
 10
21.9288975
 20
-7.0471419438
 11
21.1772854946
 21
-7.0471419438
  0
LINE
  5
3B2
100
AcDbEntity
  8
ASSI
100
AcDbLine
 62
7
  6
CONTINUOUS
 10
20.2927991362
 20
-7.0471419438
 11
20.0472070451
 21
-7.0471419438
  0
LINE
  5
3B3
100
AcDbEntity
  8
ASSI
100
AcDbLine
 62
7
  6
CONTINUOUS
 10
19.2267389939
 20
-7.0471419438
 11
18.931318981
 21
-7.0471419438
  0
LINE
  5
3B4
100
AcDbEntity
  8
ASSI
100
AcDbLine
 62
7
  6
CONTINUOUS
 10
17.9318574306
 20
-7.0471419438
 11
17.5858030488
 21
-7.0471419438
  0
LINE
  5
3B5
100
AcDbEntity
  8
ASSI
100
AcDbLine
 62
7
  6
CONTINUOUS
 10
9.1643959344
 20
-7.0471419438
 11
8.9992703047
 21
-7.0471419438
  0
LINE
  5
3B6
100
AcDbEntity
  8
ASSI
100
AcDbLine
 62
7
  6
CONTINUOUS
 10
5.5037349268
 20
-7.0471419438
 11
5.2581428357
 21
-7.0471419438
  0
LINE
  5
3B7
100
AcDbEntity
  8
ASSI
100
AcDbLine
 62
7
  6
CONTINUOUS
 10
4.5202375993
 20
-7.0471419438
 11
3.3127564321
 21
-7.0471419438
  0
LINE
  5
3B8
100
AcDbEntity
  8
ASSI
100
AcDbLine
 62
7
  6
CONTINUOUS
 10
2.9721848209
 20
-7.0471419438
 11
2.74513708
 21
-7.0471419438
  0
LINE
  5
3B9
100
AcDbEntity
  8
ASSI
100
AcDbLine
 62
7
  6
CONTINUOUS
 10
1.892579325
 20
-7.0471419438
 11
1.6511797833
 21
-7.0471419438
  0
LINE
  5
3BA
100
AcDbEntity
  8
ASSI
100
AcDbLine
 62
7
  6
CONTINUOUS
 10
1.2899674684
 20
-7.0471419438
 11
0.0721659494
 21
-7.0471419438
  0
LINE
  5
3BB
100
AcDbEntity
  8
ASSI
100
AcDbLine
 62
7
  6
CONTINUOUS
 10
-2.0538265329
 20
-7.0471419438
 11
-2.2808742738
 21
-7.0471419438
  0
LINE
  5
3BC
100
AcDbEntity
  8
ASSI
100
AcDbLine
 62
7
  6
CONTINUOUS
 10
-2.4714781884
 20
-7.0471419438
 11
-2.7143290517
 21
-7.0471419438
  0
LINE
  5
3BD
100
AcDbEntity
  8
ASSI
100
AcDbLine
 62
7
  6
CONTINUOUS
 10
-3.8082863484
 20
-7.0471419438
 11
-4.0496857326
 21
-7.0471419438
  0
LINE
  5
3BE
100
AcDbEntity
  8
ASSI
100
AcDbLine
 62
7
  6
CONTINUOUS
 10
-4.9022436452
 20
-7.0471419438
 11
-6.1200451641
 21
-7.0471419438
  0
LINE
  5
3BF
100
AcDbEntity
  8
ASSI
100
AcDbLine
 62
7
  6
CONTINUOUS
 10
-7.2346431646
 20
-7.0471419438
 11
-7.4616909054
 21
-7.0471419438
  0
LINE
  5
3C0
100
AcDbEntity
  8
ASSI
100
AcDbLine
 62
7
  6
CONTINUOUS
 10
-8.3255365601
 20
-7.0471419438
 11
-8.5711286512
 21
-7.0471419438
  0
LINE
  5
3C1
100
AcDbEntity
  8
ASSI
100
AcDbLine
 62
7
  6
CONTINUOUS
 10
-9.4328781099
 20
-7.0471419438
 11
-9.6599258507
 21
-7.0471419438
  0
LINE
  5
3C2
100
AcDbEntity
  8
ASSI
100
AcDbLine
 62
7
  6
CONTINUOUS
 10
-9.8505297654
 20
-7.0471419438
 11
-10.0933806287
 21
-7.0471419438
  0
LINE
  5
3C3
100
AcDbEntity
  8
ASSI
100
AcDbLine
 62
7
  6
CONTINUOUS
 10
-11.1873379254
 20
-7.0471419438
 11
-11.4287373095
 21
-7.0471419438
  0
LINE
  5
3C4
100
AcDbEntity
  8
ASSI
100
AcDbLine
 62
7
  6
CONTINUOUS
 10
-12.8045692655
 20
-7.0471419438
 11
-13.0501613566
 21
-7.0471419438
  0
LINE
  5
3C5
100
AcDbEntity
  8
ASSI
100
AcDbLine
 62
7
  6
CONTINUOUS
 10
-14.4508265658
 20
-7.0471419438
 11
-15.078110575
 21
-7.0471419438
  0
LINE
  5
3C6
100
AcDbEntity
  8
ASSI
100
AcDbLine
 62
7
  6
CONTINUOUS
 10
-18.2791933304
 20
-7.0471419438
 11
-19.0308053358
 21
-7.0471419438
  0
LINE
  5
3C7
100
AcDbEntity
  8
ASSI
100
AcDbLine
 62
7
  6
CONTINUOUS
 10
-19.9152916942
 20
-7.0471419438
 11
-20.1608837853
 21
-7.0471419438
  0
LINE
  5
3C8
100
AcDbEntity
  8
ASSI
100
AcDbLine
 62
7
  6
CONTINUOUS
 10
-20.9813518366
 20
-7.0471419438
 11
-21.2767718494
 21
-7.0471419438
  0
LINE
  5
3C9
100
AcDbEntity
  8
ASSI
100
AcDbLine
 62
7
  6
CONTINUOUS
 10
-22.2762333998
 20
-7.0471419438
 11
-22.6222877817
 21
-7.0471419438
  0
LINE
  5
3CA
100
AcDbEntity
  8
ASSI
100
AcDbLine
 62
7
  6
CONTINUOUS
 10
-23.0041408003
 20
-7.0471419438
 11
-23.2311885412
 21
-7.0471419438
  0
LINE
  5
3CB
100
AcDbEntity
  8
ASSI
100
AcDbLine
 62
7
  6
CONTINUOUS
 10
-23.4217924558
 20
-7.0471419438
 11
-23.6646433191
 21
-7.0471419438
  0
LINE
  5
3CC
100
AcDbEntity
  8
ASSI
100
AcDbLine
 62
7
  6
CONTINUOUS
 10
-24.7586006158
 20
-7.0471419438
 11
-25.0
 21
-7.0471419438
  0
LINE
  5
3CD
100
AcDbEntity
  8
ASSI
100
AcDbLine
 62
7
  6
CONTINUOUS
 10
7.7401873783
 20
-7.0368215919
 11
7.6071516099
 21
-7.0368215919
  0
LINE
  5
3CE
100
AcDbEntity
  8
ASSI
100
AcDbLine
 62
7
  6
CONTINUOUS
 10
10.2789939348
 20
-7.4805967217
 11
10.4854009719
 21
-7.5115577773
  0
LINE
  5
3CF
100
AcDbEntity
  8
ASSI
100
AcDbLine
 62
7
  6
CONTINUOUS
 10
15.563014085
 20
-7.4805967217
 11
15.7694211221
 21
-7.5115577773
  0
LINE
  5
3D0
100
AcDbEntity
  8
ASSI
100
AcDbLine
 62
7
  6
CONTINUOUS
 10
-0.2168039026
 20
-8.2093102545
 11
-0.4438516434
 21
-8.1523869826
  0
LINE
  5
3D1
100
AcDbEntity
  8
0
100
AcDbLine
 62
7
  6
CONTINUOUS
 10
18.6714917356
 20
-29.3151494598
 11
18.6781022134
 21
-29.3213999338
  0
LINE
  5
3D2
100
AcDbEntity
  8
ASSI
100
AcDbLine
 62
7
  6
CONTINUOUS
 10
-7.6434257899
 20
-8.75
 11
-8.3255365601
 21
-7.0471419438
  0
LINE
  5
3D3
100
AcDbEntity
  8
ASSI
100
AcDbLine
 62
7
  6
CONTINUOUS
 10
-4.0496857326
 20
-7.0471419438
 11
-3.3949885003
 21
-8.75
  0
LINE
  5
3D4
100
AcDbEntity
  8
ASSI
100
AcDbLine
 62
7
  6
CONTINUOUS
 10
-8.0747842143
 20
-8.2339824072
 11
-7.8848253315
 21
-8.75
  0
LINE
  5
3D5
100
AcDbEntity
  8
ASSI
100
AcDbLine
 62
7
  6
CONTINUOUS
 10
-3.3661236407
 20
-8.2810689437
 11
-3.8082863484
 21
-7.0471419438
  0
LINE
  5
3D6
100
AcDbEntity
  8
ASSI
100
AcDbLine
 62
7
  6
CONTINUOUS
 10
-4.8609622377
 20
-8.75
 11
-4.8609622377
 21
-8.5539133147
  0
LINE
  5
3D7
100
AcDbEntity
  8
ASSI
100
AcDbLine
 62
7
  6
CONTINUOUS
 10
-2.2808742738
 20
-7.0471419438
 11
-2.2808742738
 21
-8.75
  0
LINE
  5
3D8
100
AcDbEntity
  8
ASSI
100
AcDbLine
 62
7
  6
CONTINUOUS
 10
-2.0538265329
 20
-8.75
 11
-2.0538265329
 21
-7.0471419438
  0
LINE
  5
3D9
100
AcDbEntity
  8
ASSI
100
AcDbLine
 62
7
  6
CONTINUOUS
 10
0.0721659494
 20
-7.0471419438
 11
0.0721659494
 21
-8.75
  0
LINE
  5
3DA
100
AcDbEntity
  8
ASSI
100
AcDbLine
 62
7
  6
CONTINUOUS
 10
0.2992136902
 20
-8.5539133147
 11
0.2992136902
 21
-7.965653259
  0
LINE
  5
3DB
100
AcDbEntity
  8
ASSI
100
AcDbLine
 62
7
  6
CONTINUOUS
 10
0.2992136902
 20
-7.7695665737
 11
0.2992136902
 21
-7.243228629
  0
LINE
  5
3DC
100
AcDbEntity
  8
ASSI
100
AcDbLine
 62
7
  6
CONTINUOUS
 10
-2.7143290517
 20
-7.0471419438
 11
-3.1832599506
 21
-8.2810689437
  0
LINE
  5
3DD
100
AcDbEntity
  8
ASSI
100
AcDbLine
 62
7
  6
CONTINUOUS
 10
-3.1506863154
 20
-8.75
 11
-2.4714781884
 21
-7.0471419438
  0
LINE
  5
3DE
100
AcDbEntity
  8
DRAFT
100
AcDbLine
 62
7
  6
CONTINUOUS
 10
33.7709444827
 20
34.1025159343
 11
33.8634492813
 21
34.1950207329
  0
LINE
  5
3DF
100
AcDbEntity
  8
0
100
AcDbLine
 62
7
  6
CONTINUOUS
 10
32.09
 20
-4.55
 11
39.09
 21
-4.55
  0
LINE
  5
3E0
100
AcDbEntity
  8
0
100
AcDbLine
 62
7
  6
CONTINUOUS
 10
39.09
 20
-2.55
 11
32.09
 21
-2.55
  0
LINE
  5
3E1
100
AcDbEntity
  8
ASSI
100
AcDbLine
 62
7
  6
CONTINUOUS
 10
12.7124015748
 20
-0.8
 11
13.7290675115
 21
-0.8
  0
LINE
  5
3E2
100
AcDbEntity
  8
ASSI
100
AcDbLine
 62
7
  6
CONTINUOUS
 10
33.840866
 20
-0.265034
 11
34.48172
 21
-0.265034
  0
LINE
  5
3E3
100
AcDbEntity
  8
0
100
AcDbLine
 62
7
  6
CONTINUOUS
 10
34.271506
 20
-0.05482
 11
34.05108
 21
-0.05482
  0
LINE
  5
3E4
100
AcDbEntity
  8
0
100
AcDbLine
 62
7
  6
CONTINUOUS
 10
34.05108
 20
0.486034
 11
34.271506
 21
0.486034
  0
LINE
  5
3E5
100
AcDbEntity
  8
ASSI
100
AcDbLine
 62
7
  6
CONTINUOUS
 10
34.48172
 20
0.58944
 11
36.259084
 21
0.58944
  0
LINE
  5
3E6
100
AcDbEntity
  8
ASSI
100
AcDbLine
 62
7
  6
CONTINUOUS
 10
29.8463810535
 20
-8.2093102545
 11
29.6193333127
 21
-8.1523869826
  0
LINE
  5
3E7
100
AcDbEntity
  8
RACCORDO
100
AcDbLine
 62
7
  6
CONTINUOUS
 10
7.9054653726
 20
-14.7554653726
 11
7.9
 21
-14.75
  0
LWPOLYLINE
  5
3E8
100
AcDbEntity
  8
0
100
AcDbPolyline
 62
7
  6
CONTINUOUS
 90
28
 70
0
 10
19.2561290952
 20
-33.6934320064
 10
19.2420785298
 20
-33.6719977227
 10
19.227168044
 20
-33.6528562213
 10
19.211765773
 20
-33.6359881269
 10
19.1960843221
 20
-33.621190572
 10
19.1808013728
 20
-33.6086040781
 10
19.1663989631
 20
-33.5981045069
 10
19.1528899397
 20
-33.5892769304
 10
19.1402354819
 20
-33.5817874539
 10
19.1286392507
 20
-33.5755089107
 10
19.1180729521
 20
-33.5702214457
 10
19.1080882025
 20
-33.5655644246
 10
19.0986904157
 20
-33.5614505053
 10
19.0899161563
 20
-33.5578198794
 10
19.081336503
 20
-33.5544446355
 10
19.0728812889
 20
-33.5512684582
 10
19.0646139022
 20
-33.5482902778
 10
19.0562949657
 20
-33.5454057444
 10
19.047878976
 20
-33.5425884164
 10
19.0393920193
 20
-33.5398376486
 10
19.0307003149
 20
-33.5371031092
 10
19.0217738793
 20
-33.5343711395
 10
19.012620317
 20
-33.5316403217
 10
19.0031637714
 20
-33.5288851991
 10
18.9933835562
 20
-33.5260979808
 10
18.9832790655
 20
-33.5232769201
 10
18.9728077303
 20
-33.5204089082
 10
18.9507281004
 20
-33.5145187644
  0
LINE
  5
3E9
100
AcDbEntity
  8
ASSI
100
AcDbLine
 62
7
  6
CONTINUOUS
 10
1.8782275242
 20
-7.4439916376
 11
2.7307854367
 21
-8.75
  0
LINE
  5
3EA
100
AcDbEntity
  8
ASSI
100
AcDbLine
 62
7
  6
CONTINUOUS
 10
2.74513708
 20
-8.3531501487
 11
1.892579325
 21
-7.0471419438
  0
LINE
  5
3EB
100
AcDbEntity
  8
DRAFT
100
AcDbLine
 62
7
  6
CONTINUOUS
 10
7.7331620976
 20
-24.75
 11
7.7
 21
-24.6836707533
  0
LINE
  5
3EC
100
AcDbEntity
  8
RACCORDO
100
AcDbLine
 62
7
  6
CONTINUOUS
 10
7.7
 20
-24.6377814546
 11
7.6850881723
 21
-24.6079555277
  0
LINE
  5
3ED
100
AcDbEntity
  8
ASSI
100
AcDbLine
 62
7
  6
CONTINUOUS
 10
1.2280453572
 20
-7.965653259
 11
1.2280453572
 21
-7.7695665737
  0
LINE
  5
3EE
100
AcDbEntity
  8
ASSI
100
AcDbLine
 62
7
  6
CONTINUOUS
 10
1.2899674684
 20
-7.243228629
 11
1.2899674684
 21
-7.0471419438
  0
LINE
  5
3EF
100
AcDbEntity
  8
ASSI
100
AcDbLine
 62
7
  6
CONTINUOUS
 10
1.3312488758
 20
-8.75
 11
1.3312488758
 21
-8.5539133147
  0
LINE
  5
3F0
100
AcDbEntity
  8
ASSI
100
AcDbLine
 62
7
  6
CONTINUOUS
 10
1.6511797833
 20
-7.0471419438
 11
1.6511797833
 21
-8.75
  0
LINE
  5
3F1
100
AcDbEntity
  8
ASSI
100
AcDbLine
 62
7
  6
CONTINUOUS
 10
1.8782275242
 20
-8.75
 11
1.8782275242
 21
-7.4439916376
  0
LINE
  5
3F2
100
AcDbEntity
  8
ASSI
100
AcDbLine
 62
7
  6
CONTINUOUS
 10
2.74513708
 20
-7.0471419438
 11
2.74513708
 21
-8.3531501487
  0
LINE
  5
3F3
100
AcDbEntity
  8
ASSI
100
AcDbLine
 62
7
  6
CONTINUOUS
 10
2.9721848209
 20
-8.75
 11
2.9721848209
 21
-7.0471419438
  0
LINE
  5
3F4
100
AcDbEntity
  8
ASSI
100
AcDbLine
 62
7
  6
CONTINUOUS
 10
3.2095529136
 20
-8.5456891589
 11
3.2095529136
 21
-8.75
  0
LINE
  5
3F5
100
AcDbEntity
  8
ASSI
100
AcDbLine
 62
7
  6
CONTINUOUS
 10
3.3127564321
 20
-7.0471419438
 11
3.3127564321
 21
-7.243228629
  0
LINE
  5
3F6
100
AcDbEntity
  8
ASSI
100
AcDbLine
 62
7
  6
CONTINUOUS
 10
4.23541
 20
-0.28723
 11
4.23541
 21
0.483296
  0
LINE
  5
3F7
100
AcDbEntity
  8
ASSI
100
AcDbLine
 62
7
  6
CONTINUOUS
 10
4.23541
 20
4.01668
 11
4.23541
 21
4.787206
  0
LINE
  5
3F8
100
AcDbEntity
  8
ASSI
100
AcDbLine
 62
7
  6
CONTINUOUS
 10
4.5202375993
 20
-7.243228629
 11
4.5202375993
 21
-7.0471419438
  0
LINE
  5
3F9
100
AcDbEntity
  8
ASSI
100
AcDbLine
 62
7
  6
CONTINUOUS
 10
4.5615190067
 20
-8.75
 11
4.5615190067
 21
-8.5539133147
  0
LINE
  5
3FA
100
AcDbEntity
  8
DRAFT
100
AcDbLine
 62
7
  6
CONTINUOUS
 10
38.7709444827
 20
34.1025159343
 11
38.8634492813
 21
34.1950207329
  0
LINE
  5
3FB
100
AcDbEntity
  8
0
100
AcDbLine
 62
7
  6
CONTINUOUS
 10
36.2925656273
 20
0.896248
 11
34.1220017271
 21
0.896248
  0
LINE
  5
3FC
100
AcDbEntity
  8
ASSI
100
AcDbLine
 62
7
  6
CONTINUOUS
 10
6.571874
 20
1.867488
 11
8.06041
 21
1.867488
  0
LINE
  5
3FD
100
AcDbEntity
  8
ASSI
100
AcDbLine
 62
7
  6
CONTINUOUS
 10
8.06041
 20
2.632488
 11
6.5718735346
 21
2.632488
  0
LINE
  5
3FE
100
AcDbEntity
  8
0
100
AcDbLine
 62
7
  6
CONTINUOUS
 10
37.9708154787
 20
6.196916
 11
38.740868
 21
6.196916
  0
LINE
  5
3FF
100
AcDbEntity
  8
0
100
AcDbLine
 62
7
  6
CONTINUOUS
 10
37.3880000761
 20
6.199052
 11
33.791998
 21
6.199052
  0
LINE
  5
400
100
AcDbEntity
  8
RACCORDO
100
AcDbLine
 62
7
  6
CONTINUOUS
 10
23.7
 20
-33.8622185454
 11
23.7149118277
 21
-33.8920444723
  0
LWPOLYLINE
  5
401
100
AcDbEntity
  8
0
100
AcDbPolyline
 62
7
  6
CONTINUOUS
 90
3
 70
0
 10
19.279290243
 20
-33.7408888345
 10
19.2686150722
 20
-33.7164690358
 10
19.2561290952
 20
-33.6934320064
  0
LINE
  5
402
100
AcDbEntity
  8
ASSI
100
AcDbLine
 62
7
  6
CONTINUOUS
 10
6.185845697
 20
-8.75
 11
5.5037349268
 21
-7.0471419438
  0
LINE
  5
403
100
AcDbEntity
  8
ASSI
100
AcDbLine
 62
7
  6
CONTINUOUS
 10
5.7544872725
 20
-8.2339824072
 11
5.9444461554
 21
-8.75
  0
LWPOLYLINE
  5
404
100
AcDbEntity
  8
0
100
AcDbPolyline
 62
7
  6
CONTINUOUS
 90
17
 70
0
 10
12.101615163
 20
-26.85
 10
12.1052016192
 20
-26.8908189779
 10
12.117585835
 20
-26.9490968436
 10
12.1381022322
 20
-27.0088737276
 10
12.1668994874
 20
-27.0684503763
 10
12.2022464428
 20
-27.1244279312
 10
12.2427222833
 20
-27.1760551288
 10
12.2886292449
 20
-27.2248265796
 10
12.339944491
 20
-27.2713420381
 10
12.3964024372
 20
-27.3159029645
 10
12.4580837973
 20
-27.3589825756
 10
12.525565456
 20
-27.4012181909
 10
12.5990547421
 20
-27.4428630357
 10
12.678676487
 20
-27.484082176
 10
12.7648835996
 20
-27.5251704445
 10
12.8579129109
 20
-27.5662719734
 10
12.95
 20
-27.6042190158
  0
LINE
  5
405
100
AcDbEntity
  8
0
100
AcDbLine
 62
7
  6
CONTINUOUS
 10
9.7088676214
 20
-31.1487720966
 11
9.6897680283
 21
-30.9045701981
  0
LWPOLYLINE
  5
406
100
AcDbEntity
  8
0
100
AcDbPolyline
 62
7
  6
CONTINUOUS
 90
31
 70
0
 10
12.1000050251
 20
-31.8200994123
 10
12.1004659583
 20
-31.8420348337
 10
12.1077057897
 20
-31.9059194338
 10
12.123361705
 20
-31.9685040161
 10
12.1472850945
 20
-32.0299110573
 10
12.1789566374
 20
-32.0890939655
 10
12.2168530441
 20
-32.1442555949
 10
12.2596333823
 20
-32.1950048466
 10
12.3074093715
 20
-32.2426619903
 10
12.3606777177
 20
-32.2883881014
 10
12.4195118206
 20
-32.332633133
 10
12.4838541759
 20
-32.3756377346
 10
12.5542236594
 20
-32.4179324454
 10
12.6308529512
 20
-32.4597553352
 10
12.7138913746
 20
-32.5012624925
 10
12.8036715234
 20
-32.5426733186
 10
12.9003973416
 20
-32.5841172317
 10
13.0041549688
 20
-32.6256652281
 10
13.114900104
 20
-32.667341406
 10
13.2326857612
 20
-32.7092136939
 10
13.357455442
 20
-32.7513141773
 10
13.4887574215
 20
-32.7935574461
 10
13.6264568156
 20
-32.8359793737
 10
13.7703357496
 20
-32.8785960869
 10
13.9195850337
 20
-32.9212645401
 10
14.0738281922
 20
-32.9639854652
 10
14.2327680345
 20
-33.0067865481
 10
14.3955376287
 20
-33.0495502478
 10
14.5616080065
 20
-33.092259507
 10
14.7306334706
 20
-33.1349470507
 10
15.075004257
 20
-33.2201049411
  0
LINE
  5
407
100
AcDbEntity
  8
RACCORDO
100
AcDbLine
 62
7
  6
CONTINUOUS
 10
7.9384011428
 20
-17.85
 11
7.9130754665
 21
-15.0268402567
  0
LINE
  5
408
100
AcDbEntity
  8
ASSI
100
AcDbLine
 62
7
  6
CONTINUOUS
 10
7.1106459151
 20
-7.4651161152
 11
7.1106459151
 21
-7.6676529613
  0
LINE
  5
409
100
AcDbEntity
  8
RACCORDO
100
AcDbLine
 62
250
  6
CONTINUOUS
 10
7.1851452856
 20
-34.3919683198
 11
7.1851452856
 21
-24.1080316802
  0
LINE
  5
40A
100
AcDbEntity
  8
RACCORDO
100
AcDbLine
 62
250
  6
CONTINUOUS
 10
7.1851452856
 20
-19.591968314
 11
7.1851452856
 21
-15.8461551735
  0
LINE
  5
40B
100
AcDbEntity
  8
ASSI
100
AcDbLine
 62
7
  6
CONTINUOUS
 10
7.5337803412
 20
-7.4151269355
 11
7.5337803412
 21
-8.75
  0
LINE
  5
40C
100
AcDbEntity
  8
RACCORDO
100
AcDbLine
 62
7
  6
CONTINUOUS
 10
7.6851262471
 20
-33.8919683169
 11
7.6851262471
 21
-24.6080316831
  0
LINE
  5
40D
100
AcDbEntity
  8
RACCORDO
100
AcDbLine
 62
7
  6
CONTINUOUS
 10
7.6851262471
 20
-19.591968314
 11
7.6851262471
 21
-16.3460790211
  0
LINE
  5
40E
100
AcDbEntity
  8
DRAFT
100
AcDbLine
 62
7
  6
CONTINUOUS
 10
7.7
 20
-24.6836707533
 11
7.7
 21
-24.6377814546
  0
LINE
  5
40F
100
AcDbEntity
  8
DRAFT
100
AcDbLine
 62
7
  6
CONTINUOUS
 10
7.7
 20
-33.85
 11
7.7
 21
-33.8622185454
  0
LINE
  5
410
100
AcDbEntity
  8
RACCORDO
100
AcDbLine
 62
7
  6
CONTINUOUS
 10
7.7331620976
 20
-16.2500000029
 11
7.7331620976
 21
-19.7111475757
  0
LINE
  5
411
100
AcDbEntity
  8
DRAFT
100
AcDbLine
 62
7
  6
CONTINUOUS
 10
7.7331620976
 20
-24.75
 11
7.7331620976
 21
-33.75
  0
LINE
  5
412
100
AcDbEntity
  8
ASSI
100
AcDbLine
 62
7
  6
CONTINUOUS
 10
7.7401873783
 20
-8.75
 11
7.7401873783
 21
-7.0368215919
  0
LINE
  5
413
100
AcDbEntity
  8
DRAFT
100
AcDbLine
 62
7
  6
CONTINUOUS
 10
7.9
 20
-14.75
 11
7.9
 21
-19.45
  0
LINE
  5
414
100
AcDbEntity
  8
RACCORDO
100
AcDbLine
 62
7
  6
CONTINUOUS
 10
7.9
 20
-33.85
 11
7.9
 21
-24.65
  0
LINE
  5
415
100
AcDbEntity
  8
RACCORDO
100
AcDbLine
 62
7
  6
CONTINUOUS
 10
7.9
 20
-19.9450949415
 11
7.9
 21
-19.45
  0
LINE
  5
416
100
AcDbEntity
  8
DRAFT
100
AcDbLine
 62
7
  6
CONTINUOUS
 10
7.9384011428
 20
-19.45
 11
7.9384011428
 21
-17.85
  0
LINE
  5
417
100
AcDbEntity
  8
ASSI
100
AcDbLine
 62
7
  6
CONTINUOUS
 10
8.06041
 20
1.867488
 11
8.06041
 21
2.632488
  0
LINE
  5
418
100
AcDbEntity
  8
RACCORDO
100
AcDbLine
 62
250
  6
CONTINUOUS
 10
8.1850310588
 20
-20.5919683198
 11
8.1850310589
 21
-20.0920444723
  0
LINE
  5
419
100
AcDbEntity
  8
ASSI
100
AcDbLine
 62
7
  6
CONTINUOUS
 10
8.2046032118
 20
-8.1514195924
 11
8.2046032118
 21
-8.3475062776
  0
LINE
  5
41A
100
AcDbEntity
  8
ASSI
100
AcDbLine
 62
7
  6
CONTINUOUS
 10
8.57041
 20
-0.28723
 11
8.57041
 21
0.4832964439
  0
LINE
  5
41B
100
AcDbEntity
  8
ASSI
100
AcDbLine
 62
7
  6
CONTINUOUS
 10
8.57041
 20
4.01668
 11
8.57041
 21
4.787206
  0
LINE
  5
41C
100
AcDbEntity
  8
ASSI
100
AcDbLine
 62
7
  6
CONTINUOUS
 10
8.9579888973
 20
-7.3915835885
 11
8.9579888973
 21
-8.1514195924
  0
LINE
  5
41D
100
AcDbEntity
  8
ASSI
100
AcDbLine
 62
7
  6
CONTINUOUS
 10
8.9579888973
 20
-8.3475062776
 11
8.9579888973
 21
-8.75
  0
LINE
  5
41E
100
AcDbEntity
  8
ASSI
100
AcDbLine
 62
7
  6
CONTINUOUS
 10
9.1643959344
 20
-8.75
 11
9.1643959344
 21
-8.3475062776
  0
LINE
  5
41F
100
AcDbEntity
  8
ASSI
100
AcDbLine
 62
7
  6
CONTINUOUS
 10
9.1643959344
 20
-8.1514195924
 11
9.1643959344
 21
-7.0471419438
  0
LINE
  5
420
100
AcDbEntity
  8
0
100
AcDbLine
 62
7
  6
CONTINUOUS
 10
9.2259208679
 20
-29.3138471603
 11
9.2259208679
 21
-30.6085265636
  0
LINE
  5
421
100
AcDbEntity
  8
ASSI
100
AcDbLine
 62
7
  6
CONTINUOUS
 10
9.3914436752
 20
-8.3475062776
 11
9.3914436752
 21
-8.1514195924
  0
LINE
  5
422
100
AcDbEntity
  8
0
100
AcDbLine
 62
7
  6
CONTINUOUS
 10
9.4619372606
 20
-30.6085265636
 11
9.4619372606
 21
-29.6289902687
  0
LINE
  5
423
100
AcDbEntity
  8
0
100
AcDbLine
 62
7
  6
CONTINUOUS
 10
10.3527967453
 20
-28.3438607216
 11
10.3527967453
 21
-29.0982948303
  0
LINE
  5
424
100
AcDbEntity
  8
RACCORDO
100
AcDbLine
 62
7
  6
CONTINUOUS
 10
10.45
 20
-41.9742861266
 11
10.45
 21
-40.096364963
  0
LINE
  5
425
100
AcDbEntity
  8
0
100
AcDbLine
 62
7
  6
CONTINUOUS
 10
10.5997271657
 20
-29.0982948303
 11
10.5997271657
 21
-28.3438607216
  0
LINE
  5
426
100
AcDbEntity
  8
RACCORDO
100
AcDbLine
 62
7
  6
CONTINUOUS
 10
10.6070955844
 20
-40.390657299
 11
10.6070955844
 21
-42.1313817109
  0
LINE
  5
427
100
AcDbEntity
  8
RACCORDO
100
AcDbLine
 62
7
  6
CONTINUOUS
 10
10.7
 20
-47.050030461
 11
10.7
 21
-40.3347965715
  0
LINE
  5
428
100
AcDbEntity
  8
0
100
AcDbLine
 62
7
  6
CONTINUOUS
 10
10.9639836222
 20
-26.85
 11
10.9639836222
 21
-27.8309002876
  0
LINE
  5
429
100
AcDbEntity
  8
0
100
AcDbLine
 62
7
  6
CONTINUOUS
 10
10.9639836222
 20
-32.442087388
 11
10.9639836222
 21
-33.4229877353
  0
LINE
  5
42A
100
AcDbEntity
  8
0
100
AcDbLine
 62
7
  6
CONTINUOUS
 10
11.2
 20
-33.764051868
 11
11.2
 21
-32.442087388
  0
LINE
  5
42B
100
AcDbEntity
  8
0
100
AcDbLine
 62
7
  6
CONTINUOUS
 10
11.2
 20
-30.328853941
 11
11.2
 21
-30.0764666557
  0
LINE
  5
42C
100
AcDbEntity
  8
0
100
AcDbLine
 62
7
  6
CONTINUOUS
 10
11.2
 20
-28.1719647408
 11
11.2
 21
-26.85
  0
LINE
  5
42D
100
AcDbEntity
  8
DRAFT
100
AcDbLine
 62
7
  6
CONTINUOUS
 10
11.45
 20
-26.85
 11
11.45
 21
-33.85
  0
LINE
  5
42E
100
AcDbEntity
  8
RACCORDO
100
AcDbLine
 62
250
  6
CONTINUOUS
 10
11.7
 20
-33.8627574501
 11
11.7
 21
-37.85
  0
LINE
  5
42F
100
AcDbEntity
  8
RACCORDO
100
AcDbLine
 62
250
  6
CONTINUOUS
 10
11.9770979062
 20
-33.75
 11
11.9770979062
 21
-26.85
  0
LINE
  5
430
100
AcDbEntity
  8
ASSI
100
AcDbLine
 62
7
  6
CONTINUOUS
 10
10.6971295217
 20
-7.7592462218
 11
10.6732636588
 21
-7.9450125552
  0
LINE
  5
431
100
AcDbEntity
  8
ASSI
100
AcDbLine
 62
7
  6
CONTINUOUS
 10
4.8504888586
 20
-8.75
 11
5.0299662891
 21
-8.2339824072
  0
LINE
  5
432
100
AcDbEntity
  8
ASSI
100
AcDbLine
 62
7
  6
CONTINUOUS
 10
5.0946297856
 20
-8.0482160738
 11
5.2786222814
 21
-7.5510653472
  0
LINE
  5
433
100
AcDbEntity
  8
ASSI
100
AcDbLine
 62
7
  6
CONTINUOUS
 10
5.2581428357
 20
-7.0471419438
 11
4.610863312
 21
-8.75
  0
LINE
  5
434
100
AcDbEntity
  8
ASSI
100
AcDbLine
 62
7
  6
CONTINUOUS
 10
14.3714513735
 20
2.8761252653
 11
13.8187252987
 21
1.6513941147
  0
LINE
  5
435
100
AcDbEntity
  8
ASSI
100
AcDbLine
 62
7
  6
CONTINUOUS
 10
13.2855004023
 20
0.4698736077
 11
12.7124015748
 21
-0.8
  0
LINE
  5
436
100
AcDbEntity
  8
ASSI
100
AcDbLine
 62
7
  6
CONTINUOUS
 10
8.9992703047
 20
-7.0471419438
 11
8.2046032118
 21
-8.1514195924
  0
LINE
  5
437
100
AcDbEntity
  8
ASSI
100
AcDbLine
 62
7
  6
CONTINUOUS
 10
8.4113327648
 20
-8.1514195924
 11
8.9579888973
 21
-7.3915835885
  0
LINE
  5
438
100
AcDbEntity
  8
ASSI
100
AcDbLine
 62
7
  6
CONTINUOUS
 10
4.0792038547
 20
-7.4472167968
 11
3.2095529136
 21
-8.5456891589
  0
LINE
  5
439
100
AcDbEntity
  8
DRAFT
100
AcDbLine
 62
7
  6
CONTINUOUS
 10
43.7709444827
 20
34.1025159343
 11
43.8634492813
 21
34.1950207329
  0
LINE
  5
43A
100
AcDbEntity
  8
DRAFT
100
AcDbLine
 62
7
  6
CONTINUOUS
 10
48.7709444827
 20
34.1025159343
 11
48.8634492813
 21
34.1950207329
  0
LINE
  5
43B
100
AcDbEntity
  8
ASSI
100
AcDbLine
 62
7
  6
CONTINUOUS
 10
38.560766
 20
7.371816
 11
37.888062
 21
7.371816
  0
LINE
  5
43C
100
AcDbEntity
  8
0
100
AcDbLine
 62
7
  6
CONTINUOUS
 10
37.5800808355
 20
7.371816
 11
37.459158
 21
7.371816
  0
LINE
  5
43D
100
AcDbEntity
  8
0
100
AcDbLine
 62
7
  6
CONTINUOUS
 10
33.5355855954
 20
7.599052
 11
37.5999614232
 21
7.599052
  0
LINE
  5
43E
100
AcDbEntity
  8
ASSI
100
AcDbLine
 62
7
  6
CONTINUOUS
 10
32.332324
 20
7.799052
 11
33.210106
 21
7.799052
  0
LINE
  5
43F
100
AcDbEntity
  8
ASSI
100
AcDbLine
 62
7
  6
CONTINUOUS
 10
37.92544
 20
7.799052
 11
38.260226
 21
7.799052
  0
LINE
  5
440
100
AcDbEntity
  8
ASSI
100
AcDbLine
 62
7
  6
CONTINUOUS
 10
33.172728
 20
8.226288
 11
32.332324
 21
8.226288
  0
LINE
  5
441
100
AcDbEntity
  8
ASSI
100
AcDbLine
 62
7
  6
CONTINUOUS
 10
33.987864
 20
9.134166
 11
33.453818
 21
9.134166
  0
LINE
  5
442
100
AcDbEntity
  8
ASSI
100
AcDbLine
 62
7
  6
CONTINUOUS
 10
36.551282
 20
9.29438
 11
35.10936
 21
9.29438
  0
LINE
  5
443
100
AcDbEntity
  8
RACCORDO
100
AcDbLine
 62
250
  6
CONTINUOUS
 10
23.1939483058
 20
-20.05
 11
23.2149689409
 21
-20.0920444723
  0
LINE
  5
444
100
AcDbEntity
  8
DRAFT
100
AcDbLine
 62
7
  6
CONTINUOUS
 10
23.7
 20
-33.85
 11
23.6668379024
 21
-33.75
  0
LWPOLYLINE
  5
445
100
AcDbEntity
  8
0
100
AcDbPolyline
 62
7
  6
CONTINUOUS
 90
19
 70
0
 10
19.2997138669
 20
-29.3053016088
 10
19.2941462371
 20
-29.2478053469
 10
19.2812949995
 20
-29.1897706286
 10
19.2605137115
 20
-29.130652577
 10
19.2317696211
 20
-29.0720316382
 10
19.1967814599
 20
-29.0170602503
 10
19.1569723464
 20
-28.9664479938
 10
19.1120910821
 20
-28.9187358188
 10
19.0621119803
 20
-28.8732543371
 10
19.0072913695
 20
-28.8297013571
 10
18.9476015586
 20
-28.7876459177
 10
18.8824814056
 20
-28.7464523852
 10
18.8117513612
 20
-28.7058780424
 10
18.7353163221
 20
-28.6657681508
 10
18.6527190887
 20
-28.6258186175
 10
18.5637505062
 20
-28.5858949426
 10
18.4683170118
 20
-28.5459249445
 10
18.3662455001
 20
-28.505806834
 10
18.3181350261
 20
-28.4879731046
  0
LWPOLYLINE
  5
446
100
AcDbEntity
  8
0
100
AcDbPolyline
 62
7
  6
CONTINUOUS
 90
5
 70
0
 10
19.2999988268
 20
-33.8491838895
 10
19.2984702392
 20
-33.8202655594
 10
19.2944456933
 20
-33.7932483794
 10
19.2880051136
 20
-33.7666751301
 10
19.279290243
 20
-33.7408888345
  0
LINE
  5
447
100
AcDbEntity
  8
CURVE
100
AcDbLine
 62
250
  6
CONTINUOUS
 10
12.1
 20
-33.85
 11
12.1
 21
-26.85
  0
LINE
  5
448
100
AcDbEntity
  8
RACCORDO
100
AcDbLine
 62
250
  6
CONTINUOUS
 10
12.196092147
 20
-33.7477411092
 11
12.196092147
 21
-32.1140362414
  0
LINE
  5
449
100
AcDbEntity
  8
RACCORDO
100
AcDbLine
 62
250
  6
CONTINUOUS
 10
12.196092147
 20
-31.5282578347
 11
12.196092147
 21
-27.1146816199
  0
LINE
  5
44A
100
AcDbEntity
  8
RACCORDO
100
AcDbLine
 62
7
  6
CONTINUOUS
 10
12.2
 20
-36.7777465397
 11
12.2
 21
-34.3723900883
  0
LINE
  5
44B
100
AcDbEntity
  8
DRAFT
100
AcDbLine
 62
7
  6
CONTINUOUS
 10
12.55
 20
-42.45
 11
12.55
 21
-44.75
  0
LINE
  5
44C
100
AcDbEntity
  8
DRAFT
100
AcDbLine
 62
7
  6
CONTINUOUS
 10
12.95
 20
-28.15
 11
12.95
 21
-26.85
  0
LINE
  5
44D
100
AcDbEntity
  8
ASSI
100
AcDbLine
 62
7
  6
CONTINUOUS
 10
15.762401574
 20
-0.8
 11
15.762401574
 21
0.2166670313
  0
LINE
  5
44E
100
AcDbEntity
  8
ASSI
100
AcDbLine
 62
7
  6
CONTINUOUS
 10
15.762401574
 20
4.2833340618
 11
15.762401574
 21
5.2999999985
  0
LINE
  5
44F
100
AcDbEntity
  8
ASSI
100
AcDbLine
 62
7
  6
CONTINUOUS
 10
17.5858030488
 20
-7.0471419438
 11
17.5858030488
 21
-8.75
  0
LINE
  5
450
100
AcDbEntity
  8
0
100
AcDbLine
 62
7
  6
CONTINUOUS
 10
12.1002841476
 20
-26.8053578869
 11
12.1000203119
 21
-26.8215719269
  0
LINE
  5
451
100
AcDbEntity
  8
0
100
AcDbLine
 62
7
  6
CONTINUOUS
 10
12.1002881263
 20
-31.8052448868
 11
12.1000272303
 21
-31.8211561388
  0
LINE
  5
452
100
AcDbEntity
  8
0
100
AcDbLine
 62
7
  6
CONTINUOUS
 10
9.7702592134
 20
-28.1255799294
 11
9.7961800814
 21
-27.8731924057
  0
LINE
  5
453
100
AcDbEntity
  8
0
100
AcDbLine
 62
7
  6
CONTINUOUS
 10
9.7702592134
 20
-33.7176671535
 11
9.7961800814
 21
-33.4652797043
  0
LINE
  5
454
100
AcDbEntity
  8
ASSI
100
AcDbLine
 62
7
  6
CONTINUOUS
 10
15.9811496719
 20
-7.7592462218
 11
15.957283809
 21
-7.9450125552
  0
LINE
  5
455
100
AcDbEntity
  8
ASSI
100
AcDbLine
 62
7
  6
CONTINUOUS
 10
14.4505354188
 20
0.6964203239
 11
14.6810453012
 21
1.1745268551
  0
LINE
  5
456
100
AcDbEntity
  8
ASSI
100
AcDbLine
 62
7
  6
CONTINUOUS
 10
13.7290675115
 20
-0.8
 11
13.9994550129
 21
-0.2391807672
  0
LINE
  5
457
100
AcDbEntity
  8
RACCORDO
100
AcDbLine
 62
250
  6
CONTINUOUS
 10
7.1851452856
 20
-15.8461551735
 11
7.2332192108
 21
-15.75
  0
LINE
  5
458
100
AcDbEntity
  8
RACCORDO
100
AcDbLine
 62
250
  6
CONTINUOUS
 10
7.6851262471
 20
-16.3460790211
 11
7.7331620976
 21
-16.2500000029
  0
LINE
  5
459
100
AcDbEntity
  8
RACCORDO
100
AcDbLine
 62
250
  6
CONTINUOUS
 10
7.6851262471
 20
-19.591968314
 11
7.7061088075
 21
-19.5499999971
  0
LINE
  5
45A
100
AcDbEntity
  8
RACCORDO
100
AcDbLine
 62
250
  6
CONTINUOUS
 10
8.1850310591
 20
-20.0920444723
 11
8.2060516942
 21
-20.05
  0
LINE
  5
45B
100
AcDbEntity
  8
DRAFT
100
AcDbLine
 62
7
  6
CONTINUOUS
 10
53.7709444827
 20
34.1025159343
 11
53.8634492813
 21
34.1950207329
  0
LINE
  5
45C
100
AcDbEntity
  8
0
100
AcDbLine
 62
7
  6
CONTINUOUS
 10
30.4911219462
 20
8.9149899462
 11
30.783592
 21
9.20746
  0
LINE
  5
45D
100
AcDbEntity
  8
RACCORDO
100
AcDbLine
 62
250
  6
CONTINUOUS
 10
69.5000761524
 20
47.25
 11
69.2328613426
 21
46.9827851902
  0
LINE
  5
45E
100
AcDbEntity
  8
RACCORDO
100
AcDbLine
 62
250
  6
CONTINUOUS
 10
70.0
 20
46.7500761524
 11
69.7327851902
 21
46.4828613426
  0
LINE
  5
45F
100
AcDbEntity
  8
DRAFT
100
AcDbLine
 62
7
  6
CONTINUOUS
 10
67.7144766957
 20
15.9691991091
 11
58.3191991091
 21
15.9691991091
  0
LINE
  5
460
100
AcDbEntity
  8
DRAFT
100
AcDbLine
 62
7
  6
CONTINUOUS
 10
-58.3191991091
 20
15.9691991091
 11
-67.7144766957
 21
15.9691991091
  0
LINE
  5
461
100
AcDbEntity
  8
RACCORDO
100
AcDbLine
 62
7
  6
CONTINUOUS
 10
59.1020928562
 20
16.25
 11
66.8979071438
 21
16.25
  0
LINE
  5
462
100
AcDbEntity
  8
RACCORDO
100
AcDbLine
 62
7
  6
CONTINUOUS
 10
-59.1020928562
 20
16.25
 11
-66.8979071438
 21
16.25
  0
LINE
  5
463
100
AcDbEntity
  8
RACCORDO
100
AcDbLine
 62
250
  6
CONTINUOUS
 10
-67.4
 20
16.752016385
 11
-67.3653994613
 21
16.752016385
  0
LINE
  5
464
100
AcDbEntity
  8
RACCORDO
100
AcDbLine
 62
250
  6
CONTINUOUS
 10
-58.6346005387
 20
16.752016385
 11
-58.6
 21
16.752016385
  0
LINE
  5
465
100
AcDbEntity
  8
RACCORDO
100
AcDbLine
 62
250
  6
CONTINUOUS
 10
58.6
 20
16.752016385
 11
58.6346005387
 21
16.752016385
  0
LINE
  5
466
100
AcDbEntity
  8
RACCORDO
100
AcDbLine
 62
250
  6
CONTINUOUS
 10
67.3653994613
 20
16.752016385
 11
67.4
 21
16.752016385
  0
LINE
  5
467
100
AcDbEntity
  8
RACCORDO
100
AcDbLine
 62
250
  6
CONTINUOUS
 10
66.855663393
 20
17.0189275692
 11
59.144336607
 21
17.0189275692
  0
LINE
  5
468
100
AcDbEntity
  8
RACCORDO
100
AcDbLine
 62
250
  6
CONTINUOUS
 10
-59.144336607
 20
17.0189275692
 11
-66.855663393
 21
17.0189275692
  0
LINE
  5
469
100
AcDbEntity
  8
ASSI
100
AcDbLine
 62
7
  6
CONTINUOUS
 10
22.1635242074
 20
-8.3960441357
 11
22.3867017573
 21
-8.75
  0
LINE
  5
46A
100
AcDbEntity
  8
RACCORDO
100
AcDbLine
 62
250
  6
CONTINUOUS
 10
23.6938911925
 20
-19.5499999971
 11
23.7148737529
 21
-19.591968314
  0
LINE
  5
46B
100
AcDbEntity
  8
RACCORDO
100
AcDbLine
 62
250
  6
CONTINUOUS
 10
23.6668379024
 20
-16.2500000029
 11
23.7148737529
 21
-16.3460790211
  0
LINE
  5
46C
100
AcDbEntity
  8
RACCORDO
100
AcDbLine
 62
250
  6
CONTINUOUS
 10
24.1667807892
 20
-15.75
 11
24.2148547144
 21
-15.8461551735
  0
LINE
  5
46D
100
AcDbEntity
  8
ASSI
100
AcDbLine
 62
7
  6
CONTINUOUS
 10
20.9749099065
 20
-8.75
 11
20.2927991362
 21
-7.0471419438
  0
LINE
  5
46E
100
AcDbEntity
  8
ASSI
100
AcDbLine
 62
7
  6
CONTINUOUS
 10
20.543551482
 20
-8.2339824072
 11
20.7335103648
 21
-8.75
  0
LINE
  5
46F
100
AcDbEntity
  8
ASSI
100
AcDbLine
 62
7
  6
CONTINUOUS
 10
17.8128507896
 20
-7.3051507402
 11
18.3038738713
 21
-8.75
  0
LINE
  5
470
100
AcDbEntity
  8
ASSI
100
AcDbLine
 62
7
  6
CONTINUOUS
 10
18.3351574428
 20
-8.250269146
 11
17.9318574306
 21
-7.0471419438
  0
LINE
  5
471
100
AcDbEntity
  8
0
100
AcDbLine
 62
7
  6
CONTINUOUS
 10
19.2999961953
 20
-29.3225857951
 11
19.2997138669
 21
-29.3053016088
  0
LINE
  5
472
100
AcDbEntity
  8
0
100
AcDbLine
 62
7
  6
CONTINUOUS
 10
19.2999988268
 20
-33.8491838895
 11
19.3
 21
-33.85
  0
LINE
  5
473
100
AcDbEntity
  8
ASSI
100
AcDbLine
 62
7
  6
CONTINUOUS
 10
17.8128507896
 20
-8.75
 11
17.8128507896
 21
-7.3051507402
  0
LINE
  5
474
100
AcDbEntity
  8
DRAFT
100
AcDbLine
 62
7
  6
CONTINUOUS
 10
18.45
 20
-26.85
 11
18.45
 21
-28.15
  0
LINE
  5
475
100
AcDbEntity
  8
DRAFT
100
AcDbLine
 62
7
  6
CONTINUOUS
 10
18.85
 20
-44.75
 11
18.85
 21
-42.45
  0
LINE
  5
476
100
AcDbEntity
  8
ASSI
100
AcDbLine
 62
7
  6
CONTINUOUS
 10
18.999691253
 20
-7.3257914439
 11
18.999691253
 21
-8.75
  0
LINE
  5
477
100
AcDbEntity
  8
RACCORDO
100
AcDbLine
 62
7
  6
CONTINUOUS
 10
19.2
 20
-34.3723900883
 11
19.2
 21
-36.7777465397
  0
LINE
  5
478
100
AcDbEntity
  8
RACCORDO
100
AcDbLine
 62
250
  6
CONTINUOUS
 10
19.203907853
 20
-33.628573124
 11
19.203907853
 21
-29.6140038272
  0
LINE
  5
479
100
AcDbEntity
  8
RACCORDO
100
AcDbLine
 62
250
  6
CONTINUOUS
 10
19.203907853
 20
-29.0282568294
 11
19.203907853
 21
-26.85
  0
LINE
  5
47A
100
AcDbEntity
  8
ASSI
100
AcDbLine
 62
7
  6
CONTINUOUS
 10
19.2267389939
 20
-8.75
 11
19.2267389939
 21
-7.0471419438
  0
LINE
  5
47B
100
AcDbEntity
  8
CURVE
100
AcDbLine
 62
2
  6
CONTINUOUS
 10
19.3
 20
-33.85
 11
19.3
 21
-29.75
  0
LINE
  5
47C
100
AcDbEntity
  8
RACCORDO
100
AcDbLine
 62
250
  6
CONTINUOUS
 10
19.4229020938
 20
-33.75
 11
19.4229020938
 21
-26.85
  0
LINE
  5
47D
100
AcDbEntity
  8
RACCORDO
100
AcDbLine
 62
250
  6
CONTINUOUS
 10
19.7
 20
-33.8627574501
 11
19.7
 21
-37.85
  0
LINE
  5
47E
100
AcDbEntity
  8
DRAFT
100
AcDbLine
 62
7
  6
CONTINUOUS
 10
19.95
 20
-33.85
 11
19.95
 21
-26.85
  0
LINE
  5
47F
100
AcDbEntity
  8
RACCORDO
100
AcDbLine
 62
7
  6
CONTINUOUS
 10
20.7
 20
-47.050030461
 11
20.7
 21
-40.3347965715
  0
LINE
  5
480
100
AcDbEntity
  8
RACCORDO
100
AcDbLine
 62
7
  6
CONTINUOUS
 10
20.7929044156
 20
-42.1313817109
 11
20.7929044156
 21
-40.390657299
  0
LINE
  5
481
100
AcDbEntity
  8
RACCORDO
100
AcDbLine
 62
7
  6
CONTINUOUS
 10
20.95
 20
-40.096364963
 11
20.95
 21
-41.9742861266
  0
LINE
  5
482
100
AcDbEntity
  8
ASSI
100
AcDbLine
 62
7
  6
CONTINUOUS
 10
21.1772854946
 20
-7.0471419438
 11
21.1772854946
 21
-8.75
  0
LINE
  5
483
100
AcDbEntity
  8
ASSI
100
AcDbLine
 62
7
  6
CONTINUOUS
 10
21.4043332354
 20
-8.75
 11
21.4043332354
 21
-7.9966143145
  0
LINE
  5
484
100
AcDbEntity
  8
ASSI
100
AcDbLine
 62
7
  6
CONTINUOUS
 10
21.4043332354
 20
-7.8005276293
 11
21.4043332354
 21
-7.243228629
  0
LINE
  5
485
100
AcDbEntity
  8
RACCORDO
100
AcDbLine
 62
250
  6
CONTINUOUS
 10
23.2149689411
 20
-20.0920444723
 11
23.2149689412
 21
-20.5919683198
  0
LINE
  5
486
100
AcDbEntity
  8
0
100
AcDbLine
 62
7
  6
CONTINUOUS
 10
19.2996539022
 20
-29.3391581868
 11
19.2999744938
 21
-29.3212572273
  0
LINE
  5
487
100
AcDbEntity
  8
DRAFT
100
AcDbLine
 62
7
  6
CONTINUOUS
 10
7.7
 20
-33.85
 11
7.7331620976
 21
-33.75
  0
LINE
  5
488
100
AcDbEntity
  8
ASSI
100
AcDbLine
 62
7
  6
CONTINUOUS
 10
19.6395530681
 20
-8.75
 11
19.8190304986
 21
-8.2339824072
  0
LINE
  5
489
100
AcDbEntity
  8
ASSI
100
AcDbLine
 62
7
  6
CONTINUOUS
 10
18.4970579133
 20
-8.75
 11
18.999691253
 21
-7.3257914439
  0
LINE
  5
48A
100
AcDbEntity
  8
ASSI
100
AcDbLine
 62
7
  6
CONTINUOUS
 10
18.931318981
 20
-7.0471419438
 11
18.5101196505
 21
-8.2293059264
  0
LINE
  5
48B
100
AcDbEntity
  8
ASSI
100
AcDbLine
 62
7
  6
CONTINUOUS
 10
19.883693995
 20
-8.0482160738
 11
20.0676864909
 21
-7.5510653472
  0
LINE
  5
48C
100
AcDbEntity
  8
ASSI
100
AcDbLine
 62
7
  6
CONTINUOUS
 10
20.0472070451
 20
-7.0471419438
 11
19.3999275215
 21
-8.75
  0
LWPOLYLINE
  5
48D
100
AcDbEntity
  8
0
100
AcDbPolyline
 62
7
  6
CONTINUOUS
 90
5
 70
0
 10
12.6945118174
 20
-26.85
 10
12.6941023383
 20
-26.8510540006
 10
12.694557256
 20
-26.8507339312
 10
12.6995265725
 20
-26.8442812704
 10
12.7113318513
 20
-26.8313104273
  0
LINE
  5
48E
100
AcDbEntity
  8
RACCORDO
100
AcDbLine
 62
7
  6
CONTINUOUS
 10
7.6850881723
 20
-33.8920444723
 11
7.7
 21
-33.8622185454
  0
LINE
  5
48F
100
AcDbEntity
  8
0
100
AcDbLine
 62
7
  6
CONTINUOUS
 10
35.2975292356
 20
4.1085794055
 11
33.9581411791
 21
2.7691929574
  0
LINE
  5
490
100
AcDbEntity
  8
ASSI
100
AcDbLine
 62
7
  6
CONTINUOUS
 10
33.67494
 20
2.48599
 11
30.63254
 21
-0.556408
  0
LINE
  5
491
100
AcDbEntity
  8
0
100
AcDbLine
 62
7
  6
CONTINUOUS
 10
37.459158
 20
6.27021
 11
37.3880000761
 21
6.199052
  0
LINE
  5
492
100
AcDbEntity
  8
ASSI
100
AcDbLine
 62
7
  6
CONTINUOUS
 10
40.396408
 20
9.20746
 11
38.560766
 21
7.371816
  0
LINE
  5
493
100
AcDbEntity
  8
0
100
AcDbLine
 62
7
  6
CONTINUOUS
 10
30.9250133562
 20
-0.8488813562
 11
33.7219988342
 21
1.9481022297
  0
LINE
  5
494
100
AcDbEntity
  8
0
100
AcDbLine
 62
7
  6
CONTINUOUS
 10
34.0052001613
 20
2.2313033651
 11
35.5900031557
 21
3.8161052875
  0
LINE
  5
495
100
AcDbEntity
  8
0
100
AcDbLine
 62
7
  6
CONTINUOUS
 10
35.882474033
 20
4.108575967
 11
37.4299727235
 21
5.6560736107
  0
LINE
  5
496
100
AcDbEntity
  8
0
100
AcDbLine
 62
7
  6
CONTINUOUS
 10
37.7674826849
 20
5.9935833437
 11
37.9708154787
 21
6.196916
  0
LINE
  5
497
100
AcDbEntity
  8
0
100
AcDbLine
 62
7
  6
CONTINUOUS
 10
38.740868
 20
6.9669680003
 11
40.6888846587
 21
8.9149833413
  0
LINE
  5
498
100
AcDbEntity
  8
RACCORDO
100
AcDbLine
 62
250
  6
CONTINUOUS
 10
-66.8300586891
 20
20.1930243173
 11
-59.1699413109
 21
20.1930243173
  0
LINE
  5
499
100
AcDbEntity
  8
RACCORDO
100
AcDbLine
 62
250
  6
CONTINUOUS
 10
59.1699413109
 20
20.1930243173
 11
66.8300586891
 21
20.1930243173
  0
LINE
  5
49A
100
AcDbEntity
  8
RACCORDO
100
AcDbLine
 62
7
  6
CONTINUOUS
 10
-69.3290165161
 20
20.25
 11
-67.7144766957
 21
20.25
  0
LINE
  5
49B
100
AcDbEntity
  8
DRAFT
100
AcDbLine
 62
7
  6
CONTINUOUS
 10
-58.3191991091
 20
20.25
 11
58.3191991091
 21
20.25
  0
LINE
  5
49C
100
AcDbEntity
  8
RACCORDO
100
AcDbLine
 62
7
  6
CONTINUOUS
 10
67.7144766957
 20
20.25
 11
69.3290165161
 21
20.25
  0
LINE
  5
49D
100
AcDbEntity
  8
DRAFT
100
AcDbLine
 62
7
  6
CONTINUOUS
 10
67.7118586353
 20
20.2552365195
 11
67.4
 21
20.2552365195
  0
LINE
  5
49E
100
AcDbEntity
  8
DRAFT
100
AcDbLine
 62
7
  6
CONTINUOUS
 10
58.6
 20
20.2552365195
 11
58.3218171695
 21
20.2552365195
  0
LINE
  5
49F
100
AcDbEntity
  8
DRAFT
100
AcDbLine
 62
7
  6
CONTINUOUS
 10
-58.3218171695
 20
20.2552365195
 11
-58.6
 21
20.2552365195
  0
LINE
  5
4A0
100
AcDbEntity
  8
DRAFT
100
AcDbLine
 62
7
  6
CONTINUOUS
 10
-67.4
 20
20.2552365195
 11
-67.7118586353
 21
20.2552365195
  0
LINE
  5
4A1
100
AcDbEntity
  8
RACCORDO
100
AcDbLine
 62
250
  6
CONTINUOUS
 10
-66.9446916822
 20
20.3085605327
 11
-59.0553083178
 21
20.3085605327
  0
LINE
  5
4A2
100
AcDbEntity
  8
RACCORDO
100
AcDbLine
 62
250
  6
CONTINUOUS
 10
59.0553083178
 20
20.3085605327
 11
66.9446916822
 21
20.3085605327
  0
LINE
  5
4A3
100
AcDbEntity
  8
RACCORDO
100
AcDbLine
 62
250
  6
CONTINUOUS
 10
-69.2328613426
 20
20.3461551735
 11
-67.3298350253
 21
20.3461551735
  0
LINE
  5
4A4
100
AcDbEntity
  8
RACCORDO
100
AcDbLine
 62
250
  6
CONTINUOUS
 10
69.2328613426
 20
20.3461551735
 11
67.3298350253
 21
20.3461551735
  0
LINE
  5
4A5
100
AcDbEntity
  8
RACCORDO
100
AcDbLine
 62
250
  6
CONTINUOUS
 10
58.6701649747
 20
20.3461551735
 11
-58.6701649747
 21
20.3461551735
  0
LINE
  5
4A6
100
AcDbEntity
  8
RACCORDO
100
AcDbLine
 62
250
  6
CONTINUOUS
 10
-69.7327851902
 20
20.8460790211
 11
-67.169682191
 21
20.8460790211
  0
LINE
  5
4A7
100
AcDbEntity
  8
RACCORDO
100
AcDbLine
 62
250
  6
CONTINUOUS
 10
-58.830317809
 20
20.8460790211
 11
58.830317809
 21
20.8460790211
  0
LINE
  5
4A8
100
AcDbEntity
  8
RACCORDO
100
AcDbLine
 62
250
  6
CONTINUOUS
 10
67.169682191
 20
20.8460790211
 11
69.7327851902
 21
20.8460790211
  0
LINE
  5
4A9
100
AcDbEntity
  8
RACCORDO
100
AcDbLine
 62
250
  6
CONTINUOUS
 10
69.2328613426
 20
-42.4827851902
 11
69.5000761524
 21
-42.75
  0
LINE
  5
4AA
100
AcDbEntity
  8
RACCORDO
100
AcDbLine
 62
250
  6
CONTINUOUS
 10
69.7327851902
 20
-41.9828613426
 11
70.0
 21
-42.2500761524
  0
LINE
  5
4AB
100
AcDbEntity
  8
0
100
AcDbLine
 62
7
  6
CONTINUOUS
 10
30.9250133562
 20
-0.8488813562
 11
30.63254
 21
-0.556408
  0
LINE
  5
4AC
100
AcDbEntity
  8
DRAFT
100
AcDbLine
 62
7
  6
CONTINUOUS
 10
23.4615988572
 20
-19.45
 11
23.4615988572
 21
-17.85
  0
LINE
  5
4AD
100
AcDbEntity
  8
DRAFT
100
AcDbLine
 62
7
  6
CONTINUOUS
 10
23.5
 20
-14.75
 11
23.5
 21
-19.45
  0
LINE
  5
4AE
100
AcDbEntity
  8
RACCORDO
100
AcDbLine
 62
7
  6
CONTINUOUS
 10
23.5
 20
-33.85
 11
23.5
 21
-24.65
  0
LINE
  5
4AF
100
AcDbEntity
  8
RACCORDO
100
AcDbLine
 62
7
  6
CONTINUOUS
 10
23.5
 20
-19.9450949415
 11
23.5
 21
-19.45
  0
LINE
  5
4B0
100
AcDbEntity
  8
RACCORDO
100
AcDbLine
 62
7
  6
CONTINUOUS
 10
23.6668379024
 20
-16.2500000029
 11
23.6668379024
 21
-19.7111475757
  0
LINE
  5
4B1
100
AcDbEntity
  8
DRAFT
100
AcDbLine
 62
7
  6
CONTINUOUS
 10
23.6668379024
 20
-24.75
 11
23.6668379024
 21
-33.75
  0
LINE
  5
4B2
100
AcDbEntity
  8
DRAFT
100
AcDbLine
 62
7
  6
CONTINUOUS
 10
23.7
 20
-24.6836707533
 11
23.7
 21
-24.6377814546
  0
LINE
  5
4B3
100
AcDbEntity
  8
DRAFT
100
AcDbLine
 62
7
  6
CONTINUOUS
 10
23.7
 20
-33.85
 11
23.7
 21
-33.8622185454
  0
LINE
  5
4B4
100
AcDbEntity
  8
RACCORDO
100
AcDbLine
 62
7
  6
CONTINUOUS
 10
23.7148737529
 20
-16.3460790211
 11
23.7148737529
 21
-19.591968314
  0
LINE
  5
4B5
100
AcDbEntity
  8
RACCORDO
100
AcDbLine
 62
7
  6
CONTINUOUS
 10
23.7148737529
 20
-24.6080316831
 11
23.7148737529
 21
-33.8919683169
  0
LINE
  5
4B6
100
AcDbEntity
  8
RACCORDO
100
AcDbLine
 62
250
  6
CONTINUOUS
 10
24.2148547144
 20
-24.1080316802
 11
24.2148547144
 21
-34.3919683198
  0
LINE
  5
4B7
100
AcDbEntity
  8
RACCORDO
100
AcDbLine
 62
250
  6
CONTINUOUS
 10
24.2148547144
 20
-19.591968314
 11
24.2148547144
 21
-15.8461551735
  0
LINE
  5
4B8
100
AcDbEntity
  8
ASSI
100
AcDbLine
 62
7
  6
CONTINUOUS
 10
26.1826561447
 20
-7.0471419438
 11
26.1826561447
 21
-7.243228629
  0
LINE
  5
4B9
100
AcDbEntity
  8
ASSI
100
AcDbLine
 62
7
  6
CONTINUOUS
 10
26.7399551449
 20
-7.243228629
 11
26.7399551449
 21
-8.75
  0
LINE
  5
4BA
100
AcDbEntity
  8
ASSI
100
AcDbLine
 62
7
  6
CONTINUOUS
 10
26.9670028858
 20
-8.75
 11
26.9670028858
 21
-7.243228629
  0
LINE
  5
4BB
100
AcDbEntity
  8
ASSI
100
AcDbLine
 62
7
  6
CONTINUOUS
 10
27.524301886
 20
-7.243228629
 11
27.524301886
 21
-7.0471419438
  0
LINE
  5
4BC
100
AcDbEntity
  8
ASSI
100
AcDbLine
 62
7
  6
CONTINUOUS
 10
27.7823106824
 20
-7.0471419438
 11
27.7823106824
 21
-8.75
  0
LINE
  5
4BD
100
AcDbEntity
  8
ASSI
100
AcDbLine
 62
7
  6
CONTINUOUS
 10
28.0093584232
 20
-8.75
 11
28.0093584232
 21
-7.0471419438
  0
LINE
  5
4BE
100
AcDbEntity
  8
RACCORDO
100
AcDbLine
 62
7
  6
CONTINUOUS
 10
23.4615988572
 20
-17.85
 11
23.4869245335
 21
-15.0268402567
  0
LWPOLYLINE
  5
4BF
100
AcDbEntity
  8
0
100
AcDbPolyline
 62
7
  6
CONTINUOUS
 90
27
 70
0
 10
18.704005636
 20
-24.2967684967
 10
18.704259517
 20
-24.2960334853
 10
18.7058666324
 20
-24.2918676298
 10
18.7054141836
 20
-24.2921650963
 10
18.7003643454
 20
-24.2987070272
 10
18.6883338287
 20
-24.3118849854
 10
18.6688108378
 20
-24.3300461181
 10
18.6420391786
 20
-24.3515920575
 10
18.6076497233
 20
-24.3759761716
 10
18.5649010059
 20
-24.4030535227
 10
18.5138263286
 20
-24.4322775225
 10
18.4540204276
 20
-24.463484388
 10
18.3852751412
 20
-24.4964581715
 10
18.3080093333
 20
-24.5307716022
 10
18.2220487294
 20
-24.5663483044
 10
18.1273683082
 20
-24.6030782113
 10
18.024771845
 20
-24.6405884277
 10
17.9144324949
 20
-24.6788041701
 10
17.7964170197
 20
-24.7177068414
 10
17.6715367126
 20
-24.7570600547
 10
17.540126431
 20
-24.7968146751
 10
17.402394099
 20
-24.8369721238
 10
17.2590600358
 20
-24.877398537
 10
17.1105381299
 20
-24.9180651101
 10
16.9571517405
 20
-24.9589754086
 10
16.7995330192
 20
-25.000058353
 10
16.6381632163
 20
-25.0412915744
  0
LWPOLYLINE
  5
4C0
100
AcDbEntity
  8
0
100
AcDbPolyline
 62
7
  6
CONTINUOUS
 90
6
 70
0
 10
18.7040407245
 20
-29.296665563
 10
18.7042944593
 20
-29.295934939
 10
18.705878109
 20
-29.2918394898
 10
18.7053578245
 20
-29.2922466481
 10
18.7002027682
 20
-29.2989026471
 10
18.6880363833
 20
-29.3121864143
  0
LWPOLYLINE
  5
4C1
100
AcDbEntity
  8
0
100
AcDbPolyline
 62
7
  6
CONTINUOUS
 90
28
 70
0
 10
12.6945397803
 20
-31.8499580102
 10
12.6942955855
 20
-31.8505298181
 10
12.6935164011
 20
-31.8522874028
 10
12.6955990068
 20
-31.8492980305
 10
12.7017966288
 20
-31.8415968455
 10
12.7135722326
 20
-31.8290616898
 10
12.7314394084
 20
-31.812594702
 10
12.7554477037
 20
-31.7931722672
 10
12.7862103215
 20
-31.7710319085
 10
12.8242806681
 20
-31.7463908069
 10
12.8693587345
 20
-31.719895574
 10
12.9215863051
 20
-31.6917729225
 10
12.9812341905
 20
-31.6621312761
 10
13.0479689564
 20
-31.6313240257
 10
13.1216148623
 20
-31.5995501444
 10
13.2024597537
 20
-31.5667783656
 10
13.2909441825
 20
-31.5329242082
 10
13.3873057639
 20
-31.4979866439
 10
13.4915238868
 20
-31.4620441168
 10
13.6037934575
 20
-31.4250825193
 10
13.7246831177
 20
-31.3869643002
 10
13.8537280008
 20
-31.3478682105
 10
13.9894167137
 20
-31.3082343756
 10
14.1314973974
 20
-31.2680837936
 10
14.2797278108
 20
-31.2274234431
 10
14.4323031008
 20
-31.1866628811
 10
14.588296746
 20
-31.1459404148
 10
14.7477499203
 20
-31.105135759
  0
LINE
  5
4C2
100
AcDbEntity
  8
RACCORDO
100
AcDbLine
 62
7
  6
CONTINUOUS
 10
58.6701649747
 20
20.3461551735
 11
58.6
 21
20.2743362033
  0
LINE
  5
4C3
100
AcDbEntity
  8
RACCORDO
100
AcDbLine
 62
7
  6
CONTINUOUS
 10
23.4945346274
 20
-14.7554653726
 11
23.5
 21
-14.75
  0
LINE
  5
4C4
100
AcDbEntity
  8
0
100
AcDbLine
 62
7
  6
CONTINUOUS
 10
12.7113318513
 20
-26.8313104273
 11
12.730477481
 21
-26.813427086
  0
LWPOLYLINE
  5
4C5
100
AcDbEntity
  8
0
100
AcDbPolyline
 62
7
  6
CONTINUOUS
 90
22
 70
0
 10
12.730477481
 20
-26.813427086
 10
12.7567475125
 20
-26.7921824606
 10
12.7905188138
 20
-26.7681102615
 10
12.8325304632
 20
-26.7413523387
 10
12.8827774854
 20
-26.71243869
 10
12.9416846704
 20
-26.6815254478
 10
13.0094617722
 20
-26.6488323173
 10
13.0856862161
 20
-26.614793264
 10
13.1705313092
 20
-26.579487329
 10
13.2640334312
 20
-26.5430224784
 10
13.3653966851
 20
-26.5057729399
 10
13.4744572392
 20
-26.4678130302
 10
13.5911531038
 20
-26.429162413
 10
13.714672288
 20
-26.39006122
 10
13.8446813293
 20
-26.350560483
 10
13.9809842561
 20
-26.3106573356
 10
14.1228754503
 20
-26.2704842971
 10
14.2699564823
 20
-26.230068475
 10
14.4219061772
 20
-26.1894082503
 10
14.5780867254
 20
-26.1485787734
 10
14.7380096141
 20
-26.1076064564
 10
14.9013201646
 20
-26.0664786007
  0
LINE
  5
4C6
100
AcDbEntity
  8
0
100
AcDbLine
 62
7
  6
CONTINUOUS
 10
32.0
 20
25.25
 11
34.5
 21
25.25
  0
LINE
  5
4C7
100
AcDbEntity
  8
0
100
AcDbLine
 62
7
  6
CONTINUOUS
 10
37.0
 20
25.25
 11
39.5
 21
25.25
  0
LINE
  5
4C8
100
AcDbEntity
  8
0
100
AcDbLine
 62
7
  6
CONTINUOUS
 10
42.0
 20
25.25
 11
44.5
 21
25.25
  0
LINE
  5
4C9
100
AcDbEntity
  8
0
100
AcDbLine
 62
7
  6
CONTINUOUS
 10
47.0
 20
25.25
 11
49.5
 21
25.25
  0
LINE
  5
4CA
100
AcDbEntity
  8
0
100
AcDbLine
 62
7
  6
CONTINUOUS
 10
52.0
 20
25.25
 11
54.5
 21
25.25
  0
LINE
  5
4CB
100
AcDbEntity
  8
0
100
AcDbLine
 62
7
  6
CONTINUOUS
 10
54.5
 20
27.25
 11
53.7709444827
 21
27.25
  0
LINE
  5
4CC
100
AcDbEntity
  8
0
100
AcDbLine
 62
7
  6
CONTINUOUS
 10
49.5
 20
27.25
 11
48.7709444827
 21
27.25
  0
LINE
  5
4CD
100
AcDbEntity
  8
0
100
AcDbLine
 62
7
  6
CONTINUOUS
 10
44.5
 20
27.25
 11
43.7709444827
 21
27.25
  0
LINE
  5
4CE
100
AcDbEntity
  8
0
100
AcDbLine
 62
7
  6
CONTINUOUS
 10
39.5
 20
27.25
 11
38.7709444827
 21
27.25
  0
LINE
  5
4CF
100
AcDbEntity
  8
0
100
AcDbLine
 62
7
  6
CONTINUOUS
 10
34.5
 20
27.25
 11
33.7709444827
 21
27.25
  0
LINE
  5
4D0
100
AcDbEntity
  8
0
100
AcDbLine
 62
7
  6
CONTINUOUS
 10
30.4911219462
 20
8.9149899462
 11
33.3638018577
 21
6.0423080915
  0
LINE
  5
4D1
100
AcDbEntity
  8
0
100
AcDbLine
 62
7
  6
CONTINUOUS
 10
33.7013103093
 20
5.7047994116
 11
35.2975292356
 21
4.1085794055
  0
LINE
  5
4D2
100
AcDbEntity
  8
0
100
AcDbLine
 62
7
  6
CONTINUOUS
 10
35.5900031557
 20
3.8161052875
 11
37.13392077
 21
2.2721866288
  0
LINE
  5
4D3
100
AcDbEntity
  8
0
100
AcDbLine
 62
7
  6
CONTINUOUS
 10
37.4171254948
 20
1.9889817124
 11
40.2549866438
 21
-0.8488813562
  0
LINE
  5
4D4
100
AcDbEntity
  8
ASSI
100
AcDbLine
 62
7
  6
CONTINUOUS
 10
40.54746
 20
-0.556408
 11
37.464184
 21
2.526866
  0
LINE
  5
4D5
100
AcDbEntity
  8
0
100
AcDbLine
 62
7
  6
CONTINUOUS
 10
37.18097954
 20
2.81007046
 11
35.882474033
 21
4.108575967
  0
LINE
  5
4D6
100
AcDbEntity
  8
0
100
AcDbLine
 62
7
  6
CONTINUOUS
 10
33.791998
 20
6.199052
 11
33.6452284481
 21
6.3458215519
  0
LINE
  5
4D7
100
AcDbEntity
  8
ASSI
100
AcDbLine
 62
7
  6
CONTINUOUS
 10
33.30772
 20
6.683332
 11
30.783592
 21
9.20746
  0
LINE
  5
4D8
100
AcDbEntity
  8
ASSI
100
AcDbLine
 62
7
  6
CONTINUOUS
 10
31.5119891513
 20
-8.75
 11
30.8298783811
 21
-7.0471419438
  0
LINE
  5
4D9
100
AcDbEntity
  8
ASSI
100
AcDbLine
 62
7
  6
CONTINUOUS
 10
32.2057103371
 20
-7.0471419438
 11
32.8604075693
 21
-8.75
  0
LINE
  5
4DA
100
AcDbEntity
  8
ASSI
100
AcDbLine
 62
7
  6
CONTINUOUS
 10
31.0806307268
 20
-8.2339824072
 11
31.2705896097
 21
-8.75
  0
LINE
  5
4DB
100
AcDbEntity
  8
ASSI
100
AcDbLine
 62
7
  6
CONTINUOUS
 10
32.8892724289
 20
-8.2810689437
 11
32.4471097212
 21
-7.0471419438
  0
LINE
  5
4DC
100
AcDbEntity
  8
0
100
AcDbLine
 62
7
  6
CONTINUOUS
 10
33.3638018577
 20
6.0423080915
 11
33.67494
 21
2.48599
  0
LINE
  5
4DD
100
AcDbEntity
  8
0
100
AcDbLine
 62
7
  6
CONTINUOUS
 10
33.7219988342
 20
1.9481022297
 11
33.840866
 21
0.58944
  0
LINE
  5
4DE
100
AcDbEntity
  8
ASSI
100
AcDbLine
 62
7
  6
CONTINUOUS
 10
33.1403521284
 20
8.5963445329
 11
33.172728
 21
8.226288
  0
LINE
  5
4DF
100
AcDbEntity
  8
ASSI
100
AcDbLine
 62
7
  6
CONTINUOUS
 10
33.210106
 20
7.799052
 11
33.30772
 21
6.683332
  0
LINE
  5
4E0
100
AcDbEntity
  8
0
100
AcDbLine
 62
7
  6
CONTINUOUS
 10
34.1220017271
 20
0.896248
 11
34.0052001613
 21
2.2313033651
  0
LINE
  5
4E1
100
AcDbEntity
  8
0
100
AcDbLine
 62
7
  6
CONTINUOUS
 10
33.9581411791
 20
2.7691929574
 11
33.7013103093
 21
5.7047994116
  0
LINE
  5
4E2
100
AcDbEntity
  8
0
100
AcDbLine
 62
7
  6
CONTINUOUS
 10
33.6452284481
 20
6.3458215519
 11
33.5355855954
 21
7.599052
  0
LINE
  5
4E3
100
AcDbEntity
  8
0
100
AcDbLine
 62
7
  6
CONTINUOUS
 10
32.0
 20
42.25
 11
32.0
 21
25.25
  0
LINE
  5
4E4
100
AcDbEntity
  8
0
100
AcDbLine
 62
7
  6
CONTINUOUS
 10
32.0
 20
-20.75
 11
32.0
 21
-37.75
  0
LINE
  5
4E5
100
AcDbEntity
  8
0
100
AcDbLine
 62
7
  6
CONTINUOUS
 10
32.09
 20
-2.55
 11
32.09
 21
-4.55
  0
LINE
  5
4E6
100
AcDbEntity
  8
ASSI
100
AcDbLine
 62
7
  6
CONTINUOUS
 10
32.332324
 20
8.226288
 11
32.332324
 21
7.799052
  0
LINE
  5
4E7
100
AcDbEntity
  8
ASSI
100
AcDbLine
 62
7
  6
CONTINUOUS
 10
33.453818
 20
9.134166
 11
33.453818
 21
8.716024
  0
LINE
  5
4E8
100
AcDbEntity
  8
DRAFT
100
AcDbLine
 62
7
  6
CONTINUOUS
 10
33.7709444827
 20
34.1025159343
 11
33.7709444827
 21
27.25
  0
LINE
  5
4E9
100
AcDbEntity
  8
ASSI
100
AcDbLine
 62
7
  6
CONTINUOUS
 10
33.840866
 20
0.58944
 11
33.840866
 21
-0.265034
  0
LINE
  5
4EA
100
AcDbEntity
  8
RACCORDO
100
AcDbLine
 62
7
  6
CONTINUOUS
 10
33.8615988572
 20
-37.75
 11
33.8615988572
 21
-34.6615683962
  0
LINE
  5
4EB
100
AcDbEntity
  8
RACCORDO
100
AcDbLine
 62
7
  6
CONTINUOUS
 10
33.8615988572
 20
39.1615683962
 11
33.8615988572
 21
42.25
  0
LINE
  5
4EC
100
AcDbEntity
  8
ASSI
100
AcDbLine
 62
7
  6
CONTINUOUS
 10
33.9745217959
 20
-7.0471419438
 11
33.9745217959
 21
-8.75
  0
LINE
  5
4ED
100
AcDbEntity
  8
ASSI
100
AcDbLine
 62
7
  6
CONTINUOUS
 10
33.987864
 20
8.87257169
 11
33.987864
 21
9.134166
  0
LINE
  5
4EE
100
AcDbEntity
  8
0
100
AcDbLine
 62
7
  6
CONTINUOUS
 10
34.05108
 20
-0.05482
 11
34.05108
 21
0.486034
  0
LINE
  5
4EF
100
AcDbEntity
  8
ASSI
100
AcDbLine
 62
7
  6
CONTINUOUS
 10
34.2015695367
 20
-8.75
 11
34.2015695367
 21
-7.0471419438
  0
LINE
  5
4F0
100
AcDbEntity
  8
0
100
AcDbLine
 62
7
  6
CONTINUOUS
 10
34.271506
 20
0.486034
 11
34.271506
 21
-0.05482
  0
LINE
  5
4F1
100
AcDbEntity
  8
ASSI
100
AcDbLine
 62
7
  6
CONTINUOUS
 10
34.48172
 20
-0.265034
 11
34.48172
 21
0.58944
  0
LINE
  5
4F2
100
AcDbEntity
  8
DRAFT
100
AcDbLine
 62
7
  6
CONTINUOUS
 10
34.5
 20
-34.4615988572
 11
34.5
 21
-20.75
  0
LINE
  5
4F3
100
AcDbEntity
  8
DRAFT
100
AcDbLine
 62
7
  6
CONTINUOUS
 10
34.5
 20
25.25
 11
34.5
 21
38.9615988572
  0
LINE
  5
4F4
100
AcDbEntity
  8
ASSI
100
AcDbLine
 62
7
  6
CONTINUOUS
 10
30.1766323129
 20
-8.75
 11
30.3561097434
 21
-8.2339824072
  0
LINE
  5
4F5
100
AcDbEntity
  8
ASSI
100
AcDbLine
 62
7
  6
CONTINUOUS
 10
30.4207732399
 20
-8.0482160738
 11
30.6047657357
 21
-7.5510653472
  0
LINE
  5
4F6
100
AcDbEntity
  8
ASSI
100
AcDbLine
 62
7
  6
CONTINUOUS
 10
30.58428629
 20
-7.0471419438
 11
29.9370067663
 21
-8.75
  0
LINE
  5
4F7
100
AcDbEntity
  8
ASSI
100
AcDbLine
 62
7
  6
CONTINUOUS
 10
33.5410670179
 20
-7.0471419438
 11
33.0721361191
 21
-8.2810689437
  0
LINE
  5
4F8
100
AcDbEntity
  8
ASSI
100
AcDbLine
 62
7
  6
CONTINUOUS
 10
33.1047097542
 20
-8.75
 11
33.7839178812
 21
-7.0471419438
  0
LINE
  5
4F9
100
AcDbEntity
  8
RACCORDO
100
AcDbLine
 62
7
  6
CONTINUOUS
 10
23.7149118277
 20
-24.6079555277
 11
23.7
 21
-24.6377814546
  0
LINE
  5
4FA
100
AcDbEntity
  8
DRAFT
100
AcDbLine
 62
7
  6
CONTINUOUS
 10
23.6668379024
 20
-24.75
 11
23.7
 21
-24.6836707533
  0
LINE
  5
4FB
100
AcDbEntity
  8
0
100
AcDbLine
 62
7
  6
CONTINUOUS
 10
40.54746
 20
-0.556408
 11
40.2549866438
 21
-0.8488813562
  0
LINE
  5
4FC
100
AcDbEntity
  8
0
100
AcDbLine
 62
7
  6
CONTINUOUS
 10
18.6880363833
 20
-29.3121864143
 11
18.6683473561
 21
-29.3304471485
  0
LINE
  5
4FD
100
AcDbEntity
  8
DRAFT
100
AcDbLine
 62
7
  6
CONTINUOUS
 10
53.7709444827
 20
34.1025159343
 11
52.0
 21
34.1025159343
  0
LINE
  5
4FE
100
AcDbEntity
  8
DRAFT
100
AcDbLine
 62
7
  6
CONTINUOUS
 10
48.7709444827
 20
34.1025159343
 11
47.0
 21
34.1025159343
  0
LINE
  5
4FF
100
AcDbEntity
  8
DRAFT
100
AcDbLine
 62
7
  6
CONTINUOUS
 10
43.7709444827
 20
34.1025159343
 11
42.0
 21
34.1025159343
  0
LINE
  5
500
100
AcDbEntity
  8
DRAFT
100
AcDbLine
 62
7
  6
CONTINUOUS
 10
38.7709444827
 20
34.1025159343
 11
37.0
 21
34.1025159343
  0
LINE
  5
501
100
AcDbEntity
  8
DRAFT
100
AcDbLine
 62
7
  6
CONTINUOUS
 10
33.7709444827
 20
34.1025159343
 11
32.0
 21
34.1025159343
  0
LINE
  5
502
100
AcDbEntity
  8
DRAFT
100
AcDbLine
 62
7
  6
CONTINUOUS
 10
54.5
 20
34.1950207329
 11
53.8634492813
 21
34.1950207329
  0
LINE
  5
503
100
AcDbEntity
  8
DRAFT
100
AcDbLine
 62
7
  6
CONTINUOUS
 10
49.5
 20
34.1950207329
 11
48.8634492813
 21
34.1950207329
  0
LINE
  5
504
100
AcDbEntity
  8
DRAFT
100
AcDbLine
 62
7
  6
CONTINUOUS
 10
44.5
 20
34.1950207329
 11
43.8634492813
 21
34.1950207329
  0
LINE
  5
505
100
AcDbEntity
  8
DRAFT
100
AcDbLine
 62
7
  6
CONTINUOUS
 10
39.5
 20
34.1950207329
 11
38.8634492813
 21
34.1950207329
  0
LINE
  5
506
100
AcDbEntity
  8
DRAFT
100
AcDbLine
 62
7
  6
CONTINUOUS
 10
34.5
 20
34.1950207329
 11
33.8634492813
 21
34.1950207329
  0
LINE
  5
507
100
AcDbEntity
  8
DRAFT
100
AcDbLine
 62
7
  6
CONTINUOUS
 10
54.5
 20
34.25
 11
52.0
 21
34.25
  0
LINE
  5
508
100
AcDbEntity
  8
DRAFT
100
AcDbLine
 62
7
  6
CONTINUOUS
 10
49.5
 20
34.25
 11
47.0
 21
34.25
  0
LINE
  5
509
100
AcDbEntity
  8
DRAFT
100
AcDbLine
 62
7
  6
CONTINUOUS
 10
44.5
 20
34.25
 11
42.0
 21
34.25
  0
LINE
  5
50A
100
AcDbEntity
  8
DRAFT
100
AcDbLine
 62
7
  6
CONTINUOUS
 10
39.5
 20
34.25
 11
37.0
 21
34.25
  0
LINE
  5
50B
100
AcDbEntity
  8
DRAFT
100
AcDbLine
 62
7
  6
CONTINUOUS
 10
34.5
 20
34.25
 11
32.0
 21
34.25
  0
LINE
  5
50C
100
AcDbEntity
  8
ASSI
100
AcDbLine
 62
7
  6
CONTINUOUS
 10
40.0957805101
 20
-7.0471419438
 11
40.745962677
 21
-8.0287040183
  0
LINE
  5
50D
100
AcDbEntity
  8
ASSI
100
AcDbLine
 62
7
  6
CONTINUOUS
 10
40.6940384018
 20
-7.5667070542
 11
40.3658834959
 21
-7.0471419438
  0
LINE
  5
50E
100
AcDbEntity
  8
ASSI
100
AcDbLine
 62
7
  6
CONTINUOUS
 10
38.7568761541
 20
-8.75
 11
38.0747653839
 21
-7.0471419438
  0
LINE
  5
50F
100
AcDbEntity
  8
ASSI
100
AcDbLine
 62
7
  6
CONTINUOUS
 10
38.3255177296
 20
-8.2339824072
 11
38.5154766125
 21
-8.75
  0
LINE
  5
510
100
AcDbEntity
  8
ASSI
100
AcDbLine
 62
7
  6
CONTINUOUS
 10
35.10936
 20
9.29438
 11
35.10936
 21
9.02424
  0
LINE
  5
511
100
AcDbEntity
  8
ASSI
100
AcDbLine
 62
7
  6
CONTINUOUS
 10
35.2955268334
 20
-7.0471419438
 11
35.2955268334
 21
-8.75
  0
LINE
  5
512
100
AcDbEntity
  8
ASSI
100
AcDbLine
 62
7
  6
CONTINUOUS
 10
35.5225745743
 20
-8.75
 11
35.5225745743
 21
-7.0471419438
  0
LINE
  5
513
100
AcDbEntity
  8
ASSI
100
AcDbLine
 62
7
  6
CONTINUOUS
 10
35.8012240744
 20
-7.0471419438
 11
35.8012240744
 21
-7.243228629
  0
LINE
  5
514
100
AcDbEntity
  8
ASSI
100
AcDbLine
 62
7
  6
CONTINUOUS
 10
36.3585230746
 20
-7.243228629
 11
36.3585230746
 21
-8.75
  0
LINE
  5
515
100
AcDbEntity
  8
ASSI
100
AcDbLine
 62
7
  6
CONTINUOUS
 10
36.551282
 20
8.8851113714
 11
36.551282
 21
9.29438
  0
LINE
  5
516
100
AcDbEntity
  8
ASSI
100
AcDbLine
 62
7
  6
CONTINUOUS
 10
36.5855708154
 20
-8.75
 11
36.5855708154
 21
-7.243228629
  0
LINE
  5
517
100
AcDbEntity
  8
0
100
AcDbLine
 62
7
  6
CONTINUOUS
 10
37.0
 20
42.25
 11
37.0
 21
25.25
  0
LINE
  5
518
100
AcDbEntity
  8
0
100
AcDbLine
 62
7
  6
CONTINUOUS
 10
37.0
 20
-20.75
 11
37.0
 21
-37.75
  0
LINE
  5
519
100
AcDbEntity
  8
ASSI
100
AcDbLine
 62
7
  6
CONTINUOUS
 10
37.1428698156
 20
-7.243228629
 11
37.1428698156
 21
-7.0471419438
  0
LINE
  5
51A
100
AcDbEntity
  8
ASSI
100
AcDbLine
 62
7
  6
CONTINUOUS
 10
37.459158
 20
7.371816
 11
37.459158
 21
6.27021
  0
LINE
  5
51B
100
AcDbEntity
  8
ASSI
100
AcDbLine
 62
7
  6
CONTINUOUS
 10
38.260226
 20
7.799052
 11
38.260226
 21
7.933454
  0
LINE
  5
51C
100
AcDbEntity
  8
0
100
AcDbLine
 62
7
  6
CONTINUOUS
 10
38.740868
 20
6.196916
 11
38.740868
 21
6.9669680003
  0
LINE
  5
51D
100
AcDbEntity
  8
DRAFT
100
AcDbLine
 62
7
  6
CONTINUOUS
 10
38.7709444827
 20
34.1025159343
 11
38.7709444827
 21
27.25
  0
LINE
  5
51E
100
AcDbEntity
  8
ASSI
100
AcDbLine
 62
7
  6
CONTINUOUS
 10
38.9386110386
 20
-7.0471419438
 11
38.9386110386
 21
-8.75
  0
LINE
  5
51F
100
AcDbEntity
  8
0
100
AcDbLine
 62
7
  6
CONTINUOUS
 10
39.09
 20
-4.55
 11
39.09
 21
-2.55
  0
LINE
  5
520
100
AcDbEntity
  8
ASSI
100
AcDbLine
 62
7
  6
CONTINUOUS
 10
39.1656587794
 20
-8.5539133147
 11
39.1656587794
 21
-7.0471419438
  0
LINE
  5
521
100
AcDbEntity
  8
0
100
AcDbLine
 62
7
  6
CONTINUOUS
 10
39.5
 20
-37.75
 11
39.5
 21
-20.75
  0
LINE
  5
522
100
AcDbEntity
  8
0
100
AcDbLine
 62
7
  6
CONTINUOUS
 10
39.5
 20
25.25
 11
39.5
 21
42.25
  0
LINE
  5
523
100
AcDbEntity
  8
ASSI
100
AcDbLine
 62
7
  6
CONTINUOUS
 10
40.0119276316
 20
-8.75
 11
40.0119276316
 21
-8.5539133147
  0
LINE
  5
524
100
AcDbEntity
  8
0
100
AcDbLine
 62
7
  6
CONTINUOUS
 10
37.5999614232
 20
7.599052
 11
37.5800808355
 21
7.371816
  0
LINE
  5
525
100
AcDbEntity
  8
0
100
AcDbLine
 62
7
  6
CONTINUOUS
 10
37.4299727235
 20
5.6560736107
 11
37.18097954
 21
2.81007046
  0
LINE
  5
526
100
AcDbEntity
  8
0
100
AcDbLine
 62
7
  6
CONTINUOUS
 10
37.13392077
 20
2.2721866288
 11
37.0724637998
 21
1.5697307283
  0
LINE
  5
527
100
AcDbEntity
  8
0
100
AcDbLine
 62
7
  6
CONTINUOUS
 10
37.464184
 20
2.526866
 11
37.7674826849
 21
5.9935833437
  0
LINE
  5
528
100
AcDbEntity
  8
0
100
AcDbLine
 62
7
  6
CONTINUOUS
 10
37.3794599403
 20
1.5584573174
 11
37.4171254948
 21
1.9889817124
  0
LINE
  5
529
100
AcDbEntity
  8
ASSI
100
AcDbLine
 62
7
  6
CONTINUOUS
 10
37.888062
 20
7.371816
 11
37.92544
 21
7.799052
  0
LINE
  5
52A
100
AcDbEntity
  8
ASSI
100
AcDbLine
 62
7
  6
CONTINUOUS
 10
37.4215193158
 20
-8.75
 11
37.6009967463
 21
-8.2339824072
  0
LINE
  5
52B
100
AcDbEntity
  8
ASSI
100
AcDbLine
 62
7
  6
CONTINUOUS
 10
37.6656602427
 20
-8.0482160738
 11
37.8496527385
 21
-7.5510653472
  0
LINE
  5
52C
100
AcDbEntity
  8
ASSI
100
AcDbLine
 62
7
  6
CONTINUOUS
 10
37.8291732928
 20
-7.0471419438
 11
37.1818937691
 21
-8.75
  0
LINE
  5
52D
100
AcDbEntity
  8
ASSI
100
AcDbLine
 62
7
  6
CONTINUOUS
 10
40.9730104178
 20
-8.0287040183
 11
41.6541536403
 21
-7.0471419438
  0
LWPOLYLINE
  5
52E
100
AcDbEntity
  8
0
100
AcDbPolyline
 62
7
  6
CONTINUOUS
 90
21
 70
0
 10
18.6683473561
 20
-29.3304471485
 10
18.6413859328
 20
-29.3520852819
 10
18.6067894172
 20
-29.3765525181
 10
18.5638144934
 20
-29.4037072082
 10
18.5124793792
 20
-29.4330130855
 10
18.4523737015
 20
-29.4643077026
 10
18.3832861467
 20
-29.4973754178
 10
18.3056138277
 20
-29.5317977772
 10
18.2191575372
 20
-29.5675057956
 10
18.1239003122
 20
-29.604382948
 10
18.0206775569
 20
-29.6420438504
 10
17.9096677523
 20
-29.6804124519
 10
17.7909361806
 20
-29.7194713847
 10
17.6653274518
 20
-29.758975156
 10
17.5331955082
 20
-29.7988709574
 10
17.394743395
 20
-29.8391638211
 10
17.2506920141
 20
-29.879721716
 10
17.1014630126
 20
-29.9205153238
 10
16.9473833619
 20
-29.9615487754
 10
16.7890774776
 20
-30.0027545072
 10
16.6270360591
 20
-30.0441089508
  0
LINE
  5
52F
100
AcDbEntity
  8
DRAFT
100
AcDbLine
 62
7
  6
CONTINUOUS
 10
49.5
 20
36.2700717959
 11
47.0
 21
36.2700717959
  0
LINE
  5
530
100
AcDbEntity
  8
DRAFT
100
AcDbLine
 62
7
  6
CONTINUOUS
 10
44.5
 20
36.2700717959
 11
42.0
 21
36.2700717959
  0
LINE
  5
531
100
AcDbEntity
  8
DRAFT
100
AcDbLine
 62
7
  6
CONTINUOUS
 10
39.5
 20
36.2700717959
 11
37.0
 21
36.2700717959
  0
LINE
  5
532
100
AcDbEntity
  8
DRAFT
100
AcDbLine
 62
7
  6
CONTINUOUS
 10
34.5
 20
36.2700717959
 11
32.0
 21
36.2700717959
  0
LINE
  5
533
100
AcDbEntity
  8
RACCORDO
100
AcDbLine
 62
7
  6
CONTINUOUS
 10
34.5
 20
38.9615988572
 11
34.0615683962
 21
38.9615988572
  0
LINE
  5
534
100
AcDbEntity
  8
DRAFT
100
AcDbLine
 62
7
  6
CONTINUOUS
 10
52.0
 20
39.95
 11
52.6
 21
39.95
  0
LINE
  5
535
100
AcDbEntity
  8
DRAFT
100
AcDbLine
 62
7
  6
CONTINUOUS
 10
52.0
 20
40.0870118243
 11
52.4629881757
 21
40.0870118243
  0
LINE
  5
536
100
AcDbEntity
  8
0
100
AcDbLine
 62
7
  6
CONTINUOUS
 10
40.396408
 20
9.20746
 11
40.6888846587
 21
8.9149833413
  0
LINE
  5
537
100
AcDbEntity
  8
ASSI
100
AcDbLine
 62
7
  6
CONTINUOUS
 10
40.745962677
 20
-8.0287040183
 11
40.745962677
 21
-8.75
  0
LINE
  5
538
100
AcDbEntity
  8
ASSI
100
AcDbLine
 62
7
  6
CONTINUOUS
 10
40.9730104178
 20
-8.75
 11
40.9730104178
 21
-8.0287040183
  0
LINE
  5
539
100
AcDbEntity
  8
0
100
AcDbLine
 62
7
  6
CONTINUOUS
 10
42.0
 20
42.25
 11
42.0
 21
25.25
  0
LINE
  5
53A
100
AcDbEntity
  8
0
100
AcDbLine
 62
7
  6
CONTINUOUS
 10
42.0
 20
-20.75
 11
42.0
 21
-37.75
  0
LINE
  5
53B
100
AcDbEntity
  8
DRAFT
100
AcDbLine
 62
7
  6
CONTINUOUS
 10
43.7709444827
 20
34.1025159343
 11
43.7709444827
 21
27.25
  0
LINE
  5
53C
100
AcDbEntity
  8
0
100
AcDbLine
 62
7
  6
CONTINUOUS
 10
44.5
 20
-37.75
 11
44.5
 21
-20.75
  0
LINE
  5
53D
100
AcDbEntity
  8
0
100
AcDbLine
 62
7
  6
CONTINUOUS
 10
44.5
 20
25.25
 11
44.5
 21
42.25
  0
LINE
  5
53E
100
AcDbEntity
  8
DRAFT
100
AcDbLine
 62
7
  6
CONTINUOUS
 10
58.3191991091
 20
20.25
 11
58.3218171695
 21
20.2552365195
  0
LINE
  5
53F
100
AcDbEntity
  8
DRAFT
100
AcDbLine
 62
7
  6
CONTINUOUS
 10
16.9412724675
 20
-40.3435241039
 11
16.95
 21
-40.3347965715
  0
LINE
  5
540
100
AcDbEntity
  8
RACCORDO
100
AcDbLine
 62
7
  6
CONTINUOUS
 10
20.9465699136
 20
-40.2963345021
 11
20.9081078442
 21
-40.3347965715
  0
LINE
  5
541
100
AcDbEntity
  8
RACCORDO
100
AcDbLine
 62
250
  6
CONTINUOUS
 10
20.95
 20
-41.9742861266
 11
20.7929044156
 21
-42.1313817109
  0
LINE
  5
542
100
AcDbEntity
  8
RACCORDO
100
AcDbLine
 62
250
  6
CONTINUOUS
 10
21.4413486316
 20
-42.4827851902
 11
21.2842530472
 21
-42.6398807745
  0
LINE
  5
543
100
AcDbEntity
  8
DRAFT
100
AcDbLine
 62
7
  6
CONTINUOUS
 10
20.9046343799
 20
-40.3347965715
 11
20.7929044156
 21
-40.390657299
  0
LINE
  5
544
100
AcDbEntity
  8
0
100
AcDbLine
 62
7
  6
CONTINUOUS
 10
32.0
 20
41.25
 11
33.8615988572
 21
41.25
  0
LINE
  5
545
100
AcDbEntity
  8
0
100
AcDbLine
 62
7
  6
CONTINUOUS
 10
37.0
 20
41.25
 11
39.5
 21
41.25
  0
LINE
  5
546
100
AcDbEntity
  8
0
100
AcDbLine
 62
7
  6
CONTINUOUS
 10
42.0
 20
41.25
 11
44.5
 21
41.25
  0
LINE
  5
547
100
AcDbEntity
  8
0
100
AcDbLine
 62
7
  6
CONTINUOUS
 10
47.0
 20
41.25
 11
49.5
 21
41.25
  0
LINE
  5
548
100
AcDbEntity
  8
0
100
AcDbLine
 62
7
  6
CONTINUOUS
 10
54.5
 20
42.25
 11
52.0
 21
42.25
  0
LINE
  5
549
100
AcDbEntity
  8
0
100
AcDbLine
 62
7
  6
CONTINUOUS
 10
49.5
 20
42.25
 11
47.0
 21
42.25
  0
LINE
  5
54A
100
AcDbEntity
  8
0
100
AcDbLine
 62
7
  6
CONTINUOUS
 10
44.5
 20
42.25
 11
42.0
 21
42.25
  0
LINE
  5
54B
100
AcDbEntity
  8
0
100
AcDbLine
 62
7
  6
CONTINUOUS
 10
39.5
 20
42.25
 11
37.0
 21
42.25
  0
LINE
  5
54C
100
AcDbEntity
  8
DRAFT
100
AcDbLine
 62
7
  6
CONTINUOUS
 10
33.8615988572
 20
42.25
 11
32.0
 21
42.25
  0
LINE
  5
54D
100
AcDbEntity
  8
0
100
AcDbLine
 62
7
  6
CONTINUOUS
 10
47.0
 20
42.25
 11
47.0
 21
25.25
  0
LINE
  5
54E
100
AcDbEntity
  8
0
100
AcDbLine
 62
7
  6
CONTINUOUS
 10
47.0
 20
-20.75
 11
47.0
 21
-37.75
  0
LINE
  5
54F
100
AcDbEntity
  8
DRAFT
100
AcDbLine
 62
7
  6
CONTINUOUS
 10
48.7709444827
 20
34.1025159343
 11
48.7709444827
 21
27.25
  0
LINE
  5
550
100
AcDbEntity
  8
0
100
AcDbLine
 62
7
  6
CONTINUOUS
 10
49.5
 20
-37.75
 11
49.5
 21
-20.75
  0
LINE
  5
551
100
AcDbEntity
  8
0
100
AcDbLine
 62
7
  6
CONTINUOUS
 10
49.5
 20
25.25
 11
49.5
 21
42.25
  0
LINE
  5
552
100
AcDbEntity
  8
RACCORDO
100
AcDbLine
 62
250
  6
CONTINUOUS
 10
-69.7327851902
 20
46.4828613426
 11
69.7327851902
 21
46.4828613426
  0
LINE
  5
553
100
AcDbEntity
  8
RACCORDO
100
AcDbLine
 62
250
  6
CONTINUOUS
 10
69.2328613426
 20
46.9827851902
 11
-69.2328613426
 21
46.9827851902
  0
LINE
  5
554
100
AcDbEntity
  8
RACCORDO
100
AcDbLine
 62
7
  6
CONTINUOUS
 10
-69.5000761524
 20
47.25
 11
-3.8
 21
47.25
  0
LINE
  5
555
100
AcDbEntity
  8
DRAFT
100
AcDbLine
 62
7
  6
CONTINUOUS
 10
-3.8
 20
47.25
 11
3.8
 21
47.25
  0
LINE
  5
556
100
AcDbEntity
  8
RACCORDO
100
AcDbLine
 62
7
  6
CONTINUOUS
 10
3.8
 20
47.25
 11
69.5000190385
 21
47.25
  0
LINE
  5
557
100
AcDbEntity
  8
0
100
AcDbLine
 62
7
  6
CONTINUOUS
 10
52.0
 20
42.25
 11
52.0
 21
25.25
  0
LINE
  5
558
100
AcDbEntity
  8
0
100
AcDbLine
 62
7
  6
CONTINUOUS
 10
52.0
 20
-20.75
 11
52.0
 21
-37.75
  0
LINE
  5
559
100
AcDbEntity
  8
DRAFT
100
AcDbLine
 62
7
  6
CONTINUOUS
 10
52.4629881757
 20
-37.75
 11
52.4629881757
 21
-35.5870118243
  0
LINE
  5
55A
100
AcDbEntity
  8
DRAFT
100
AcDbLine
 62
7
  6
CONTINUOUS
 10
52.4629881757
 20
40.0870118243
 11
52.4629881757
 21
42.25
  0
LINE
  5
55B
100
AcDbEntity
  8
DRAFT
100
AcDbLine
 62
7
  6
CONTINUOUS
 10
52.6
 20
42.25
 11
52.6
 21
39.95
  0
LINE
  5
55C
100
AcDbEntity
  8
DRAFT
100
AcDbLine
 62
7
  6
CONTINUOUS
 10
52.6
 20
-37.75
 11
52.6
 21
-35.45
  0
LINE
  5
55D
100
AcDbEntity
  8
DRAFT
100
AcDbLine
 62
7
  6
CONTINUOUS
 10
53.7709444827
 20
34.1025159343
 11
53.7709444827
 21
27.25
  0
LINE
  5
55E
100
AcDbEntity
  8
0
100
AcDbLine
 62
7
  6
CONTINUOUS
 10
54.5
 20
-37.75
 11
54.5
 21
-20.75
  0
LINE
  5
55F
100
AcDbEntity
  8
0
100
AcDbLine
 62
7
  6
CONTINUOUS
 10
54.5
 20
25.25
 11
54.5
 21
42.25
  0
LINE
  5
560
100
AcDbEntity
  8
DRAFT
100
AcDbLine
 62
7
  6
CONTINUOUS
 10
58.3191991091
 20
20.25
 11
58.3191991091
 21
15.9691991091
  0
LINE
  5
561
100
AcDbEntity
  8
RACCORDO
100
AcDbLine
 62
7
  6
CONTINUOUS
 10
58.6
 20
16.752016385
 11
58.6
 21
20.2743362033
  0
LINE
  5
562
100
AcDbEntity
  8
RACCORDO
100
AcDbLine
 62
250
  6
CONTINUOUS
 10
58.6444127594
 20
17.1364801696
 11
58.6703061799
 21
20.3463677772
  0
LINE
  5
563
100
AcDbEntity
  8
RACCORDO
100
AcDbLine
 62
250
  6
CONTINUOUS
 10
59.144336607
 20
17.0189275692
 11
59.1699413109
 21
20.1930243173
  0
LINE
  5
564
100
AcDbEntity
  8
RACCORDO
100
AcDbLine
 62
250
  6
CONTINUOUS
 10
69.3290165161
 20
-15.75
 11
69.2328613426
 21
-15.8461551735
  0
LINE
  5
565
100
AcDbEntity
  8
RACCORDO
100
AcDbLine
 62
250
  6
CONTINUOUS
 10
69.8375155797
 20
-16.2413486316
 11
69.7327851902
 21
-16.3460790211
  0
LINE
  5
566
100
AcDbEntity
  8
DRAFT
100
AcDbLine
 62
7
  6
CONTINUOUS
 10
52.6
 20
-35.45
 11
52.4629881757
 21
-35.5870118243
  0
LINE
  5
567
100
AcDbEntity
  8
RACCORDO
100
AcDbLine
 62
7
  6
CONTINUOUS
 10
67.3298350253
 20
20.3461551735
 11
67.4
 21
20.2743362033
  0
LINE
  5
568
100
AcDbEntity
  8
RACCORDO
100
AcDbLine
 62
250
  6
CONTINUOUS
 10
66.8300586891
 20
20.1930243173
 11
66.855663393
 21
17.0189275692
  0
LINE
  5
569
100
AcDbEntity
  8
RACCORDO
100
AcDbLine
 62
250
  6
CONTINUOUS
 10
67.3296938201
 20
20.3463677772
 11
67.3555872406
 21
17.1364801696
  0
LINE
  5
56A
100
AcDbEntity
  8
RACCORDO
100
AcDbLine
 62
7
  6
CONTINUOUS
 10
67.4
 20
16.752016385
 11
67.4
 21
20.2743362033
  0
LINE
  5
56B
100
AcDbEntity
  8
DRAFT
100
AcDbLine
 62
7
  6
CONTINUOUS
 10
67.601182142
 20
20.2552365195
 11
67.601182142
 21
15.9691991091
  0
LINE
  5
56C
100
AcDbEntity
  8
DRAFT
100
AcDbLine
 62
7
  6
CONTINUOUS
 10
67.7144766957
 20
20.25
 11
67.7144766957
 21
15.9691991091
  0
LINE
  5
56D
100
AcDbEntity
  8
RACCORDO
100
AcDbLine
 62
250
  6
CONTINUOUS
 10
69.2328613426
 20
20.3461551735
 11
69.3290165161
 21
20.25
  0
LINE
  5
56E
100
AcDbEntity
  8
RACCORDO
100
AcDbLine
 62
250
  6
CONTINUOUS
 10
69.7327851902
 20
20.8460790211
 11
69.8375155797
 21
20.7413486316
  0
LINE
  5
56F
100
AcDbEntity
  8
DRAFT
100
AcDbLine
 62
7
  6
CONTINUOUS
 10
52.6
 20
39.95
 11
52.4629881757
 21
40.0870118243
  0
LINE
  5
570
100
AcDbEntity
  8
RACCORDO
100
AcDbLine
 62
250
  6
CONTINUOUS
 10
69.2328613426
 20
-15.8461551735
 11
69.2328613426
 21
-42.4827851902
  0
LINE
  5
571
100
AcDbEntity
  8
RACCORDO
100
AcDbLine
 62
250
  6
CONTINUOUS
 10
69.2328613426
 20
20.3461551735
 11
69.2328613426
 21
46.9827851902
  0
LINE
  5
572
100
AcDbEntity
  8
RACCORDO
100
AcDbLine
 62
250
  6
CONTINUOUS
 10
69.3375917321
 20
20.2500735289
 11
69.3375917321
 21
-15.7500735289
  0
LINE
  5
573
100
AcDbEntity
  8
RACCORDO
100
AcDbLine
 62
250
  6
CONTINUOUS
 10
69.7327851902
 20
46.4828613426
 11
69.7327851902
 21
20.8460790211
  0
LINE
  5
574
100
AcDbEntity
  8
RACCORDO
100
AcDbLine
 62
250
  6
CONTINUOUS
 10
69.7327851902
 20
-16.3460790211
 11
69.7327851902
 21
-41.9828613426
  0
LINE
  5
575
100
AcDbEntity
  8
RACCORDO
100
AcDbLine
 62
250
  6
CONTINUOUS
 10
69.8375155797
 20
20.7413486316
 11
69.8375155797
 21
-16.2413486316
  0
LINE
  5
576
100
AcDbEntity
  8
RACCORDO
100
AcDbLine
 62
7
  6
CONTINUOUS
 10
70.0
 20
-42.2500190385
 11
70.0
 21
46.7500190385
  0
LINE
  5
577
100
AcDbEntity
  8
DRAFT
100
AcDbLine
 62
7
  6
CONTINUOUS
 10
67.7144766957
 20
20.25
 11
67.7118586353
 21
20.2552365195
  0
ARC
  5
578
100
AcDbEntity
  8
ASSI
100
AcDbCircle
 62
7
  6
CONTINUOUS
 10
-7.273766883
 20
-9.542158964
 40
3.5220553542
100
AcDbArc
 50
159.0191965858
 51
163.7921491218
  0
ARC
  5
579
100
AcDbEntity
  8
ASSI
100
AcDbCircle
 62
7
  6
CONTINUOUS
 10
-20.8450295735
 20
-9.542158964
 40
3.5220553542
100
AcDbArc
 50
159.0191965858
 51
163.7921491218
  0
ARC
  5
57A
100
AcDbEntity
  8
ASSI
100
AcDbCircle
 62
7
  6
CONTINUOUS
 10
-10.3344698559
 20
-6.8092333261
 40
1.9319241343
100
AcDbArc
 50
337.4191892411
 51
347.6454766647
  0
ARC
  5
57B
100
AcDbEntity
  8
ASSI
100
AcDbCircle
 62
7
  6
CONTINUOUS
 10
-14.8135025614
 20
-6.8092333261
 40
1.9319241343
100
AcDbArc
 50
337.4191892411
 51
347.6454766647
  0
ARC
  5
57C
100
AcDbEntity
  8
ASSI
100
AcDbCircle
 62
7
  6
CONTINUOUS
 10
-21.9242249901
 20
-6.8092333261
 40
1.9319241343
100
AcDbArc
 50
337.4191892411
 51
347.6454766647
  0
ARC
  5
57D
100
AcDbEntity
  8
RACCORDO
100
AcDbCircle
 62
250
  6
CONTINUOUS
 10
-69.2326736159
 20
-41.9826736159
 40
0.500113118
100
AcDbArc
 50
180.0215070917
 51
269.9784929082
  0
ARC
  5
57E
100
AcDbEntity
  8
RACCORDO
100
AcDbCircle
 62
250
  6
CONTINUOUS
 10
-69.232677748
 20
-16.3462626157
 40
0.5001084234
100
AcDbArc
 50
90.0210338641
 51
179.9789661359
  0
ARC
  5
57F
100
AcDbEntity
  8
RACCORDO
100
AcDbCircle
 62
7
  6
CONTINUOUS
 10
-63.3242713094
 20
24.4295137193
 40
5.9334897143
100
AcDbArc
 50
314.4390015549
 51
316.0106725012
  0
ARC
  5
580
100
AcDbEntity
  8
RACCORDO
100
AcDbCircle
 62
7
  6
CONTINUOUS
 10
-62.6757286906
 20
24.4295137194
 40
5.9334897144
100
AcDbArc
 50
223.9893274988
 51
225.5609984451
  0
ARC
  5
581
100
AcDbEntity
  8
RACCORDO
100
AcDbCircle
 62
250
  6
CONTINUOUS
 10
-69.2326736225
 20
46.4826736225
 40
0.5001131174
100
AcDbArc
 50
90.0215063344
 51
179.9784936656
  0
ARC
  5
582
100
AcDbEntity
  8
RACCORDO
100
AcDbCircle
 62
250
  6
CONTINUOUS
 10
-69.232677748
 20
20.8462626157
 40
0.5001084234
100
AcDbArc
 50
180.0210338641
 51
269.9789661359
  0
ARC
  5
583
100
AcDbEntity
  8
RACCORDO
100
AcDbCircle
 62
250
  6
CONTINUOUS
 10
-59.1345631496
 20
16.7499617876
 40
0.4999643108
100
AcDbArc
 50
270.0044422802
 51
0.2354558037
  0
ARC
  5
584
100
AcDbEntity
  8
RACCORDO
100
AcDbCircle
 62
250
  6
CONTINUOUS
 10
-66.8654368505
 20
16.7499617874
 40
0.4999643107
100
AcDbArc
 50
179.7645441827
 51
269.9955577277
  0
ARC
  5
585
100
AcDbEntity
  8
0
100
AcDbCircle
 62
7
  6
CONTINUOUS
 10
11.5635166537
 20
-26.8283670184
 40
3.284043665
100
AcDbArc
 50
240.7192386409
 51
253.8502740188
  0
CIRCLE
  5
586
100
AcDbEntity
  8
RACCORDO
100
AcDbCircle
 62
250
  6
CONTINUOUS
 10
-0.0
 20
-38.8
 40
2.4
  0
CIRCLE
  5
587
100
AcDbEntity
  8
RACCORDO
100
AcDbCircle
 62
7
  6
CONTINUOUS
 10
-0.0
 20
-38.8
 40
2.2
  0
CIRCLE
  5
588
100
AcDbEntity
  8
RACCORDO
100
AcDbCircle
 62
250
  6
CONTINUOUS
 10
4.0
 20
-21.15
 40
2.1982622421
  0
CIRCLE
  5
589
100
AcDbEntity
  8
RACCORDO
100
AcDbCircle
 62
7
  6
CONTINUOUS
 10
4.0
 20
-21.15
 40
1.9982698575
  0
CIRCLE
  5
58A
100
AcDbEntity
  8
DRAFT
100
AcDbCircle
 62
7
  6
CONTINUOUS
 10
4.0
 20
-21.15
 40
1.8429163798
  0
ARC
  5
58B
100
AcDbEntity
  8
RACCORDO
100
AcDbCircle
 62
7
  6
CONTINUOUS
 10
11.6882499341
 20
-34.374582515
 40
0.5123275293
100
AcDbArc
 50
25.8285078908
 51
33.9877930928
  0
ARC
  5
58C
100
AcDbEntity
  8
DRAFT
100
AcDbCircle
 62
7
  6
CONTINUOUS
 10
17.95
 20
-28.15
 40
0.5
100
AcDbArc
 50
270.0
 51
360.0
  0
ARC
  5
58D
100
AcDbEntity
  8
DRAFT
100
AcDbCircle
 62
7
  6
CONTINUOUS
 10
13.45
 20
-28.15
 40
0.5
100
AcDbArc
 50
180.0
 51
270.0
  0
ARC
  5
58E
100
AcDbEntity
  8
RACCORDO
100
AcDbCircle
 62
250
  6
CONTINUOUS
 10
19.6999642463
 20
-34.3920140025
 40
0.499967567
100
AcDbArc
 50
89.9959026762
 51
179.9947647744
  0
ARC
  5
58F
100
AcDbEntity
  8
RACCORDO
100
AcDbCircle
 62
250
  6
CONTINUOUS
 10
11.7001237567
 20
-34.3919724814
 40
0.4998762433
100
AcDbArc
 50
0.0004769933
 51
90.0010263417
  0
ARC
  5
590
100
AcDbEntity
  8
0
100
AcDbCircle
 62
250
  6
CONTINUOUS
 10
19.0000366156
 20
-33.8501197833
 40
0.2998979836
100
AcDbArc
 50
0.1787644768
 51
112.3436856823
  0
ARC
  5
591
100
AcDbEntity
  8
ASSI
100
AcDbCircle
 62
7
  6
CONTINUOUS
 10
0.1052846939
 20
-9.542158964
 40
3.5220553542
100
AcDbArc
 50
159.0191965858
 51
163.7921491218
  0
ARC
  5
592
100
AcDbEntity
  8
ASSI
100
AcDbCircle
 62
7
  6
CONTINUOUS
 10
3.98041
 20
2.249988
 40
2.5500000352
100
AcDbArc
 50
84.2608296022
 51
275.7391703978
  0
ARC
  5
593
100
AcDbEntity
  8
ASSI
100
AcDbCircle
 62
7
  6
CONTINUOUS
 10
8.31541
 20
2.249988
 40
2.5500000352
100
AcDbArc
 50
84.2608296022
 51
275.7391703978
  0
ARC
  5
594
100
AcDbEntity
  8
ASSI
100
AcDbCircle
 62
7
  6
CONTINUOUS
 10
28.8209450852
 20
-6.8092333261
 40
1.9319241343
100
AcDbArc
 50
337.4191892411
 51
347.6454766647
  0
ARC
  5
595
100
AcDbEntity
  8
ASSI
100
AcDbCircle
 62
7
  6
CONTINUOUS
 10
18.2838658404
 20
-6.8092333261
 40
1.9319241343
100
AcDbArc
 50
337.4191892411
 51
347.6454766647
  0
ARC
  5
596
100
AcDbEntity
  8
ASSI
100
AcDbCircle
 62
7
  6
CONTINUOUS
 10
3.4948016309
 20
-6.8092333261
 40
1.9319241343
100
AcDbArc
 50
337.4191892411
 51
347.6454766647
  0
ARC
  5
597
100
AcDbEntity
  8
ASSI
100
AcDbCircle
 62
7
  6
CONTINUOUS
 10
8.31541
 20
2.249988
 40
1.7850001745
100
AcDbArc
 50
81.7867901066
 51
167.6263761784
  0
ARC
  5
598
100
AcDbEntity
  8
ASSI
100
AcDbCircle
 62
7
  6
CONTINUOUS
 10
3.98041
 20
2.249988
 40
1.7850001745
100
AcDbArc
 50
81.7867901066
 51
278.2132098934
  0
ARC
  5
599
100
AcDbEntity
  8
ASSI
100
AcDbCircle
 62
7
  6
CONTINUOUS
 10
8.31541
 20
2.249988
 40
1.7849997292
100
AcDbArc
 50
192.373627023
 51
278.2132119287
  0
ARC
  5
59A
100
AcDbEntity
  8
RACCORDO
100
AcDbCircle
 62
250
  6
CONTINUOUS
 10
8.1850744774
 20
-19.5920451316
 40
0.9999250702
100
AcDbArc
 50
179.9955983661
 51
269.9975121239
  0
ARC
  5
59B
100
AcDbEntity
  8
RACCORDO
100
AcDbCircle
 62
250
  6
CONTINUOUS
 10
23.214925494
 20
-19.5920451056
 40
0.9999250688
100
AcDbArc
 50
270.0024895148
 51
0.0044001439
  0
ARC
  5
59C
100
AcDbEntity
  8
RACCORDO
100
AcDbCircle
 62
250
  6
CONTINUOUS
 10
24.2149205901
 20
-16.3462059688
 40
0.5000499768
100
AcDbArc
 50
90.0075480328
 51
179.9854542353
  0
ARC
  5
59D
100
AcDbEntity
  8
RACCORDO
100
AcDbCircle
 62
250
  6
CONTINUOUS
 10
7.1850794201
 20
-16.346205979
 40
0.5000499769
100
AcDbArc
 50
0.0145469411
 51
89.9924531465
  0
ARC
  5
59E
100
AcDbEntity
  8
RACCORDO
100
AcDbCircle
 62
250
  6
CONTINUOUS
 10
23.2149959663
 20
-19.5921785304
 40
0.4998705403
100
AcDbArc
 50
269.9969022912
 51
0.0240949076
  0
ARC
  5
59F
100
AcDbEntity
  8
RACCORDO
100
AcDbCircle
 62
250
  6
CONTINUOUS
 10
8.1850037652
 20
-19.5921787989
 40
0.4998702626
100
AcDbArc
 50
179.9758743034
 51
270.003128491
  0
ARC
  5
5A0
100
AcDbEntity
  8
DRAFT
100
AcDbCircle
 62
7
  6
CONTINUOUS
 10
55.0
 20
-37.15
 40
2.25
100
AcDbArc
 50
102.8457166732
 51
195.4685906246
  0
ARC
  5
5A1
100
AcDbEntity
  8
RACCORDO
100
AcDbCircle
 62
7
  6
CONTINUOUS
 10
55.0
 20
-37.15
 40
2.2194178851
100
AcDbArc
 50
103.0242241369
 51
195.6853004391
  0
CIRCLE
  5
5A2
100
AcDbEntity
  8
RACCORDO
100
AcDbCircle
 62
250
  6
CONTINUOUS
 10
61.5
 20
-21.15
 40
2.1982622421
  0
CIRCLE
  5
5A3
100
AcDbEntity
  8
RACCORDO
100
AcDbCircle
 62
7
  6
CONTINUOUS
 10
61.5
 20
-21.15
 40
1.9982698575
  0
CIRCLE
  5
5A4
100
AcDbEntity
  8
DRAFT
100
AcDbCircle
 62
7
  6
CONTINUOUS
 10
61.5
 20
-21.15
 40
1.8429163798
  0
ARC
  5
5A5
100
AcDbEntity
  8
RACCORDO
100
AcDbCircle
 62
250
  6
CONTINUOUS
 10
55.0
 20
-37.15
 40
1.7194369235
100
AcDbArc
 50
106.9083018601
 51
200.4263213028
  0
ARC
  5
5A6
100
AcDbEntity
  8
DRAFT
100
AcDbCircle
 62
7
  6
CONTINUOUS
 10
55.0
 20
-37.15
 40
1.2549792671
100
AcDbArc
 50
113.4865163498
 51
208.5778768653
  0
ARC
  5
5A7
100
AcDbEntity
  8
DRAFT
100
AcDbCircle
 62
7
  6
CONTINUOUS
 10
55.0
 20
-37.15
 40
1.2
100
AcDbArc
 50
114.6345644353
 51
210.0009903298
  0
ARC
  5
5A8
100
AcDbEntity
  8
RACCORDO
100
AcDbCircle
 62
250
  6
CONTINUOUS
 10
69.2326734194
 20
-41.9826734194
 40
0.5001133674
100
AcDbArc
 50
270.0215295997
 51
359.9784704003
  0
ARC
  5
5A9
100
AcDbEntity
  8
ASSI
100
AcDbCircle
 62
7
  6
CONTINUOUS
 10
36.3606807636
 20
-9.542158964
 40
3.5220553542
100
AcDbArc
 50
159.0191965858
 51
163.7921491218
  0
ARC
  5
5AA
100
AcDbEntity
  8
ASSI
100
AcDbCircle
 62
7
  6
CONTINUOUS
 10
36.065832088
 20
-6.8092333261
 40
1.9319241343
100
AcDbArc
 50
337.4191892411
 51
347.6454766647
  0
ARC
  5
5AB
100
AcDbEntity
  8
0
100
AcDbCircle
 62
7
  6
CONTINUOUS
 10
37.192136
 20
0.642844
 40
0.9345803565
100
AcDbArc
 50
97.3568734265
 51
164.2677653708
  0
ARC
  5
5AC
100
AcDbEntity
  8
ASSI
100
AcDbCircle
 62
7
  6
CONTINUOUS
 10
37.192136
 20
0.642844
 40
0.9345790614
100
AcDbArc
 50
183.2757971638
 51
78.4375028422
  0
CIRCLE
  5
5AD
100
AcDbEntity
  8
ASSI
100
AcDbCircle
 62
7
  6
CONTINUOUS
 10
37.192136
 20
0.642844
 40
0.534046
  0
ARC
  5
5AE
100
AcDbEntity
  8
RACCORDO
100
AcDbCircle
 62
250
  6
CONTINUOUS
 10
69.2326778356
 20
-16.3462625281
 40
0.5001084234
100
AcDbArc
 50
0.0210238366
 51
89.9789761635
  0
ARC
  5
5AF
100
AcDbEntity
  8
RACCORDO
100
AcDbCircle
 62
7
  6
CONTINUOUS
 10
63.3242713094
 20
24.4295137193
 40
5.9334897143
100
AcDbArc
 50
223.9893274988
 51
225.5609984451
  0
ARC
  5
5B0
100
AcDbEntity
  8
RACCORDO
100
AcDbCircle
 62
7
  6
CONTINUOUS
 10
62.6757286907
 20
24.4295137193
 40
5.9334897142
100
AcDbArc
 50
314.4390015549
 51
316.0106725012
  0
ARC
  5
5B1
100
AcDbEntity
  8
ASSI
100
AcDbCircle
 62
7
  6
CONTINUOUS
 10
35.296276
 20
3.41988
 40
5.6074766208
100
AcDbArc
 50
66.1507510581
 51
77.0671232762
  0
ARC
  5
5B2
100
AcDbEntity
  8
ASSI
100
AcDbCircle
 62
7
  6
CONTINUOUS
 10
35.296276
 20
3.41988
 40
5.6074765047
100
AcDbArc
 50
109.1821054584
 51
112.6110335093
  0
ARC
  5
5B3
100
AcDbEntity
  8
ASSI
100
AcDbCircle
 62
7
  6
CONTINUOUS
 10
35.296276
 20
3.41988
 40
5.6074761346
100
AcDbArc
 50
91.9102144889
 51
103.4934082927
  0
CIRCLE
  5
5B4
100
AcDbEntity
  8
RACCORDO
100
AcDbCircle
 62
250
  6
CONTINUOUS
 10
0.0
 20
43.3
 40
2.4
  0
ARC
  5
5B5
100
AcDbEntity
  8
DRAFT
100
AcDbCircle
 62
7
  6
CONTINUOUS
 10
55.0
 20
41.65
 40
2.25
100
AcDbArc
 50
164.5314093754
 51
257.1542833268
  0
ARC
  5
5B6
100
AcDbEntity
  8
RACCORDO
100
AcDbCircle
 62
7
  6
CONTINUOUS
 10
55.0
 20
41.65
 40
2.2194178851
100
AcDbArc
 50
164.3146995584
 51
256.9757758619
  0
CIRCLE
  5
5B7
100
AcDbEntity
  8
RACCORDO
100
AcDbCircle
 62
7
  6
CONTINUOUS
 10
0.0
 20
43.3
 40
2.2
  0
CIRCLE
  5
5B8
100
AcDbEntity
  8
RACCORDO
100
AcDbCircle
 62
250
  6
CONTINUOUS
 10
4.0
 20
25.65
 40
2.1982622421
  0
CIRCLE
  5
5B9
100
AcDbEntity
  8
RACCORDO
100
AcDbCircle
 62
250
  6
CONTINUOUS
 10
61.5
 20
25.65
 40
2.1982622421
  0
CIRCLE
  5
5BA
100
AcDbEntity
  8
RACCORDO
100
AcDbCircle
 62
7
  6
CONTINUOUS
 10
61.5
 20
25.65
 40
1.9982698575
  0
CIRCLE
  5
5BB
100
AcDbEntity
  8
RACCORDO
100
AcDbCircle
 62
7
  6
CONTINUOUS
 10
4.0
 20
25.65
 40
1.9982698575
  0
CIRCLE
  5
5BC
100
AcDbEntity
  8
DRAFT
100
AcDbCircle
 62
7
  6
CONTINUOUS
 10
61.5
 20
25.65
 40
1.8429163798
  0
CIRCLE
  5
5BD
100
AcDbEntity
  8
DRAFT
100
AcDbCircle
 62
7
  6
CONTINUOUS
 10
4.0
 20
25.65
 40
1.8429163798
  0
ARC
  5
5BE
100
AcDbEntity
  8
RACCORDO
100
AcDbCircle
 62
250
  6
CONTINUOUS
 10
55.0
 20
41.65
 40
1.7194369235
100
AcDbArc
 50
159.5736771958
 51
253.091697513
  0
ARC
  5
5BF
100
AcDbEntity
  8
DRAFT
100
AcDbCircle
 62
7
  6
CONTINUOUS
 10
55.0
 20
41.65
 40
1.2549792671
100
AcDbArc
 50
151.4221231347
 51
246.5134836502
  0
ARC
  5
5C0
100
AcDbEntity
  8
DRAFT
100
AcDbCircle
 62
7
  6
CONTINUOUS
 10
55.0
 20
41.65
 40
1.2
100
AcDbArc
 50
149.9990096702
 51
245.3654355647
  0
CIRCLE
  5
5C1
100
AcDbEntity
  8
ASSI
100
AcDbCircle
 62
7
  6
CONTINUOUS
 10
15.762401
 20
2.250001
 40
0.508333
  0
ARC
  5
5C2
100
AcDbEntity
  8
RACCORDO
100
AcDbCircle
 62
250
  6
CONTINUOUS
 10
69.2326734128
 20
46.4826734128
 40
0.5001133679
100
AcDbArc
 50
0.0215303572
 51
89.9784696428
  0
ARC
  5
5C3
100
AcDbEntity
  8
RACCORDO
100
AcDbCircle
 62
250
  6
CONTINUOUS
 10
69.2326778356
 20
20.8462625281
 40
0.5001084234
100
AcDbArc
 50
270.0210238365
 51
359.9789761634
  0
ARC
  5
5C4
100
AcDbEntity
  8
RACCORDO
100
AcDbCircle
 62
250
  6
CONTINUOUS
 10
59.1345631495
 20
16.7499617874
 40
0.4999643107
100
AcDbArc
 50
179.7645441827
 51
269.9955577277
  0
ARC
  5
5C5
100
AcDbEntity
  8
RACCORDO
100
AcDbCircle
 62
250
  6
CONTINUOUS
 10
66.8654368504
 20
16.7499617876
 40
0.4999643108
100
AcDbArc
 50
270.0044422802
 51
0.2354558037
  0
ARC
  5
5C6
100
AcDbEntity
  8
ASSI
100
AcDbCircle
 62
7
  6
CONTINUOUS
 10
37.993204
 20
8.333098
 40
0.4806413166
100
AcDbArc
 50
303.7488518717
 51
153.3682031718
  0
SPLINE
  5
5C7
100
AcDbEntity
  8
0
100
AcDbSpline
 62
250
  6
CONTINUOUS
 70
0
 71
3
 72
12
 73
8
 74
0
 42
0.0000001
 43
0.0000001
 44
0.0000000001
 40
0.0
 40
0.0
 40
0.0
 40
0.0
 40
0.048174495
 40
0.1194296095
 40
0.3386560964
 40
0.6457819827
 40
1.0
 40
1.0
 40
1.0
 40
1.0
 10
16.4307968216
 20
-33.549507575
 30
0.0
 10
16.4258991872
 20
-33.5483262872
 30
0.0
 10
16.4156322395
 20
-33.5397133372
 30
0.0
 10
16.3984714974
 20
-33.5087599125
 30
0.0
 10
16.3822553123
 20
-33.4475296128
 30
0.0
 10
16.3704680335
 20
-33.3563143333
 30
0.0
 10
16.3675628019
 20
-33.287044066
 30
0.0
 10
16.3675628019
 20
-33.25
 30
0.0
  0
SPLINE
  5
5C8
100
AcDbEntity
  8
0
100
AcDbSpline
 62
250
  6
CONTINUOUS
 70
0
 71
3
 72
16
 73
12
 74
0
 42
0.0000001
 43
0.0000001
 44
0.0000000001
 40
0.0
 40
0.0
 40
0.0
 40
0.0
 40
0.3688358538
 40
0.5355488062
 40
0.6818602446
 40
0.8017165803
 40
0.8927908367
 40
0.9276550811
 40
0.9558699722
 40
0.9789255176
 40
1.0
 40
1.0
 40
1.0
 40
1.0
 10
16.3675628019
 20
-33.25
 30
0.0
 10
16.3675628019
 20
-33.2105231333
 30
0.0
 10
16.3700586831
 20
-33.1531385317
 30
0.0
 10
16.3787397518
 20
-33.0806556973
 30
0.0
 10
16.3871064687
 20
-33.035027855
 30
0.0
 10
16.3973539372
 20
-32.9981561371
 30
0.0
 10
16.4076674685
 20
-32.9737487499
 30
0.0
 10
16.4169712974
 20
-32.9600488716
 30
0.0
 10
16.4235804869
 20
-32.9534966601
 30
0.0
 10
16.4306804578
 20
-32.949932954
 30
0.0
 10
16.4356113656
 20
-32.9499600396
 30
0.0
 10
16.43780534
 20
-32.9504837859
 30
0.0
  0
SPLINE
  5
5C9
100
AcDbEntity
  8
0
100
AcDbSpline
 62
7
  6
CONTINUOUS
 70
0
 71
3
 72
8
 73
4
 74
0
 42
0.0000001
 43
0.0000001
 44
0.0000000001
 40
0.0
 40
0.0
 40
0.0
 40
0.0
 40
1.0
 40
1.0
 40
1.0
 40
1.0
 10
10.9639836222
 20
-27.8309002876
 30
0.0
 10
10.9203274071
 20
-27.8036151886
 30
0.0
 10
10.875306946
 20
-27.769508934
 30
0.0
 10
10.8313114374
 20
-27.7275757669
 30
0.0
  0
SPLINE
  5
5CA
100
AcDbEntity
  8
0
100
AcDbSpline
 62
7
  6
CONTINUOUS
 70
0
 71
3
 72
8
 73
4
 74
0
 42
0.0000001
 43
0.0000001
 44
0.0000000001
 40
0.0
 40
0.0
 40
0.0
 40
0.0
 40
1.0
 40
1.0
 40
1.0
 40
1.0
 10
10.8313114374
 20
-27.7275757669
 30
0.0
 10
10.7879945457
 20
-27.6862894058
 30
0.0
 10
10.7034106374
 20
-27.5907913208
 30
0.0
 10
10.5791523558
 20
-27.4435451682
 30
0.0
  0
SPLINE
  5
5CB
100
AcDbEntity
  8
0
100
AcDbSpline
 62
7
  6
CONTINUOUS
 70
0
 71
3
 72
8
 73
4
 74
0
 42
0.0000001
 43
0.0000001
 44
0.0000000001
 40
0.0
 40
0.0
 40
0.0
 40
0.0
 40
1.0
 40
1.0
 40
1.0
 40
1.0
 10
10.5791523558
 20
-27.4435451682
 30
0.0
 10
10.4305593491
 20
-27.2674623489
 30
0.0
 10
10.3132332683
 20
-27.1419507027
 30
0.0
 10
10.2275895767
 20
-27.0652139397
 30
0.0
  0
SPLINE
  5
5CC
100
AcDbEntity
  8
0
100
AcDbSpline
 62
7
  6
CONTINUOUS
 70
0
 71
3
 72
8
 73
4
 74
0
 42
0.0000001
 43
0.0000001
 44
0.0000000001
 40
0.0
 40
0.0
 40
0.0
 40
0.0
 40
1.0
 40
1.0
 40
1.0
 40
1.0
 10
10.2275895767
 20
-27.0652139397
 30
0.0
 10
10.1427012205
 20
-26.9891539574
 30
0.0
 10
10.0608458042
 20
-26.9345837593
 30
0.0
 10
9.983187859
 20
-26.9015964454
 30
0.0
  0
SPLINE
  5
5CD
100
AcDbEntity
  8
0
100
AcDbSpline
 62
7
  6
CONTINUOUS
 70
0
 71
3
 72
8
 73
4
 74
0
 42
0.0000001
 43
0.0000001
 44
0.0000000001
 40
0.0
 40
0.0
 40
0.0
 40
0.0
 40
1.0
 40
1.0
 40
1.0
 40
1.0
 10
9.983187859
 20
-26.9015964454
 30
0.0
 10
9.9066848278
 20
-26.8690997124
 30
0.0
 10
9.8275579929
 20
-26.8527284622
 30
0.0
 10
9.7470668077
 20
-26.8527284622
 30
0.0
  0
SPLINE
  5
5CE
100
AcDbEntity
  8
0
100
AcDbSpline
 62
7
  6
CONTINUOUS
 70
0
 71
3
 72
8
 73
4
 74
0
 42
0.0000001
 43
0.0000001
 44
0.0000000001
 40
0.0
 40
0.0
 40
0.0
 40
0.0
 40
1.0
 40
1.0
 40
1.0
 40
1.0
 10
9.7470668077
 20
-26.8527284622
 30
0.0
 10
9.5901773691
 20
-26.8527284622
 30
0.0
 10
9.4578444481
 20
-26.9086628914
 30
0.0
 10
9.3514323638
 20
-27.0205320835
 30
0.0
  0
SPLINE
  5
5CF
100
AcDbEntity
  8
0
100
AcDbSpline
 62
7
  6
CONTINUOUS
 70
0
 71
3
 72
8
 73
4
 74
0
 42
0.0000001
 43
0.0000001
 44
0.0000000001
 40
0.0
 40
0.0
 40
0.0
 40
0.0
 40
1.0
 40
1.0
 40
1.0
 40
1.0
 10
9.3514323638
 20
-27.0205320835
 30
0.0
 10
9.2450204611
 20
-27.1324010849
 30
0.0
 10
9.1918143749
 20
-27.2851978302
 30
0.0
 10
9.1918143749
 20
-27.4761935234
 30
0.0
  0
SPLINE
  5
5D0
100
AcDbEntity
  8
0
100
AcDbSpline
 62
7
  6
CONTINUOUS
 70
0
 71
3
 72
8
 73
4
 74
0
 42
0.0000001
 43
0.0000001
 44
0.0000000001
 40
0.0
 40
0.0
 40
0.0
 40
0.0
 40
1.0
 40
1.0
 40
1.0
 40
1.0
 10
9.1918143749
 20
-27.4761935234
 30
0.0
 10
9.1918143749
 20
-27.6671896935
 30
0.0
 10
9.2422919989
 20
-27.8186222076
 30
0.0
 10
9.3401799456
 20
-27.9307855764
 30
0.0
  0
SPLINE
  5
5D1
100
AcDbEntity
  8
0
100
AcDbSpline
 62
7
  6
CONTINUOUS
 70
0
 71
3
 72
8
 73
4
 74
0
 42
0.0000001
 43
0.0000001
 44
0.0000000001
 40
0.0
 40
0.0
 40
0.0
 40
0.0
 40
1.0
 40
1.0
 40
1.0
 40
1.0
 10
9.3401799456
 20
-27.9307855764
 30
0.0
 10
9.4387448549
 20
-28.0437246323
 30
0.0
 10
9.5819918633
 20
-28.1092086792
 30
0.0
 10
9.7702592134
 20
-28.1255799294
 30
0.0
  0
SPLINE
  5
5D2
100
AcDbEntity
  8
0
100
AcDbSpline
 62
7
  6
CONTINUOUS
 70
0
 71
3
 72
8
 73
4
 74
0
 42
0.0000001
 43
0.0000001
 44
0.0000000001
 40
0.0
 40
0.0
 40
0.0
 40
0.0
 40
1.0
 40
1.0
 40
1.0
 40
1.0
 10
9.7961800814
 20
-27.8731924057
 30
0.0
 10
9.6706684351
 20
-27.8731924057
 30
0.0
 10
9.5724420071
 20
-27.8363576889
 30
0.0
 10
9.5015006781
 20
-27.7654162407
 30
0.0
  0
SPLINE
  5
5D3
100
AcDbEntity
  8
0
100
AcDbSpline
 62
7
  6
CONTINUOUS
 70
0
 71
3
 72
8
 73
4
 74
0
 42
0.0000001
 43
0.0000001
 44
0.0000000001
 40
0.0
 40
0.0
 40
0.0
 40
0.0
 40
1.0
 40
1.0
 40
1.0
 40
1.0
 10
9.5015006781
 20
-27.7654162407
 30
0.0
 10
9.4305593491
 20
-27.6944747925
 30
0.0
 10
9.395088625
 20
-27.6003409386
 30
0.0
 10
9.395088625
 20
-27.4816509247
 30
0.0
  0
SPLINE
  5
5D4
100
AcDbEntity
  8
0
100
AcDbSpline
 62
7
  6
CONTINUOUS
 70
0
 71
3
 72
8
 73
4
 74
0
 42
0.0000001
 43
0.0000001
 44
0.0000000001
 40
0.0
 40
0.0
 40
0.0
 40
0.0
 40
1.0
 40
1.0
 40
1.0
 40
1.0
 10
9.395088625
 20
-27.4816509247
 30
0.0
 10
9.395088625
 20
-27.3697815895
 30
0.0
 10
9.429195118
 20
-27.2797409058
 30
0.0
 10
9.4960436654
 20
-27.2101637184
 30
0.0
  0
SPLINE
  5
5D5
100
AcDbEntity
  8
0
100
AcDbSpline
 62
7
  6
CONTINUOUS
 70
0
 71
3
 72
8
 73
4
 74
0
 42
0.0000001
 43
0.0000001
 44
0.0000000001
 40
0.0
 40
0.0
 40
0.0
 40
0.0
 40
1.0
 40
1.0
 40
1.0
 40
1.0
 10
9.4960436654
 20
-27.2101637184
 30
0.0
 10
9.5628922701
 20
-27.1405864716
 30
0.0
 10
9.6447475672
 20
-27.1051159859
 30
0.0
 10
9.7416097641
 20
-27.1051159859
 30
0.0
  0
SPLINE
  5
5D6
100
AcDbEntity
  8
0
100
AcDbSpline
 62
7
  6
CONTINUOUS
 70
0
 71
3
 72
8
 73
4
 74
0
 42
0.0000001
 43
0.0000001
 44
0.0000000001
 40
0.0
 40
0.0
 40
0.0
 40
0.0
 40
1.0
 40
1.0
 40
1.0
 40
1.0
 10
9.7416097641
 20
-27.1051159859
 30
0.0
 10
9.8343792677
 20
-27.1051159859
 30
0.0
 10
9.9339699268
 20
-27.1433149338
 30
0.0
 10
10.0376534967
 20
-27.2197133349
 30
0.0
  0
SPLINE
  5
5D7
100
AcDbEntity
  8
0
100
AcDbSpline
 62
7
  6
CONTINUOUS
 70
0
 71
3
 72
8
 73
4
 74
0
 42
0.0000001
 43
0.0000001
 44
0.0000000001
 40
0.0
 40
0.0
 40
0.0
 40
0.0
 40
1.0
 40
1.0
 40
1.0
 40
1.0
 10
10.0376534967
 20
-27.2197133349
 30
0.0
 10
10.1413369894
 20
-27.2961116791
 30
0.0
 10
10.2832196474
 20
-27.4434514999
 30
0.0
 10
10.4604668713
 20
-27.6604551318
 30
0.0
  0
SPLINE
  5
5D8
100
AcDbEntity
  8
0
100
AcDbSpline
 62
7
  6
CONTINUOUS
 70
0
 71
3
 72
8
 73
4
 74
0
 42
0.0000001
 43
0.0000001
 44
0.0000000001
 40
0.0
 40
0.0
 40
0.0
 40
0.0
 40
1.0
 40
1.0
 40
1.0
 40
1.0
 10
10.4604668713
 20
-27.6604551318
 30
0.0
 10
10.5751705289
 20
-27.8008867264
 30
0.0
 10
10.6761255383
 20
-27.9086628914
 30
0.0
 10
10.7634379387
 20
-27.9823328018
 30
0.0
  0
SPLINE
  5
5D9
100
AcDbEntity
  8
0
100
AcDbSpline
 62
7
  6
CONTINUOUS
 70
0
 71
3
 72
8
 73
4
 74
0
 42
0.0000001
 43
0.0000001
 44
0.0000000001
 40
0.0
 40
0.0
 40
0.0
 40
0.0
 40
1.0
 40
1.0
 40
1.0
 40
1.0
 10
10.7634379387
 20
-27.9823328018
 30
0.0
 10
10.850750339
 20
-28.0560027122
 30
0.0
 10
10.9394270003
 20
-28.1105729103
 30
0.0
 10
11.0290491389
 20
-28.1443925438
 30
0.0
  0
SPLINE
  5
5DA
100
AcDbEntity
  8
0
100
AcDbSpline
 62
7
  6
CONTINUOUS
 70
0
 71
3
 72
8
 73
4
 74
0
 42
0.0000001
 43
0.0000001
 44
0.0000000001
 40
0.0
 40
0.0
 40
0.0
 40
0.0
 40
1.0
 40
1.0
 40
1.0
 40
1.0
 10
11.0290491389
 20
-28.1443925438
 30
0.0
 10
11.0840382025
 20
-28.1651431084
 30
0.0
 10
11.1413369708
 20
-28.174693203
 30
0.0
 10
11.2
 20
-28.1719647408
 30
0.0
  0
SPLINE
  5
5DB
100
AcDbEntity
  8
0
100
AcDbSpline
 62
7
  6
CONTINUOUS
 70
0
 71
3
 72
8
 73
4
 74
0
 42
0.0000001
 43
0.0000001
 44
0.0000000001
 40
0.0
 40
0.0
 40
0.0
 40
0.0
 40
1.0
 40
1.0
 40
1.0
 40
1.0
 10
9.4619372606
 20
-29.6289902687
 30
0.0
 10
9.6038199186
 20
-29.754501915
 30
0.0
 10
9.7784447193
 20
-29.8718281746
 30
0.0
 10
9.9858117192
 20
-29.9823329194
 30
0.0
  0
SPLINE
  5
5DC
100
AcDbEntity
  8
0
100
AcDbSpline
 62
7
  6
CONTINUOUS
 70
0
 71
3
 72
8
 73
4
 74
0
 42
0.0000001
 43
0.0000001
 44
0.0000000001
 40
0.0
 40
0.0
 40
0.0
 40
0.0
 40
1.0
 40
1.0
 40
1.0
 40
1.0
 10
9.9858117192
 20
-29.9823329194
 30
0.0
 10
10.1931787252
 20
-30.0928376675
 30
0.0
 10
10.407367003
 20
-30.1774216652
 30
0.0
 10
10.629615879
 20
-30.236552071
 30
0.0
  0
SPLINE
  5
5DD
100
AcDbEntity
  8
0
100
AcDbSpline
 62
7
  6
CONTINUOUS
 70
0
 71
3
 72
8
 73
4
 74
0
 42
0.0000001
 43
0.0000001
 44
0.0000000001
 40
0.0
 40
0.0
 40
0.0
 40
0.0
 40
1.0
 40
1.0
 40
1.0
 40
1.0
 10
10.629615879
 20
-30.236552071
 30
0.0
 10
10.8534788609
 20
-30.2961119175
 30
0.0
 10
11.0431105018
 20
-30.3261254787
 30
0.0
 10
11.2
 20
-30.328853941
 30
0.0
  0
SPLINE
  5
5DE
100
AcDbEntity
  8
0
100
AcDbSpline
 62
7
  6
CONTINUOUS
 70
0
 71
3
 72
8
 73
4
 74
0
 42
0.0000001
 43
0.0000001
 44
0.0000000001
 40
0.0
 40
0.0
 40
0.0
 40
0.0
 40
1.0
 40
1.0
 40
1.0
 40
1.0
 10
11.2
 20
-30.0764666557
 30
0.0
 10
11.0008185476
 20
-30.0628241062
 30
0.0
 10
10.8180081964
 20
-30.0314460754
 30
0.0
 10
10.6500651897
 20
-29.982816133
 30
0.0
  0
SPLINE
  5
5DF
100
AcDbEntity
  8
0
100
AcDbSpline
 62
7
  6
CONTINUOUS
 70
0
 71
3
 72
8
 73
4
 74
0
 42
0.0000001
 43
0.0000001
 44
0.0000000001
 40
0.0
 40
0.0
 40
0.0
 40
0.0
 40
1.0
 40
1.0
 40
1.0
 40
1.0
 10
9.9573250419
 20
-29.6928200727
 30
0.0
 10
9.7334242582
 20
-29.5675989151
 30
0.0
 10
9.5533424139
 20
-29.4420872688
 30
0.0
 10
9.4169167995
 20
-29.3138471603
 30
0.0
  0
SPLINE
  5
5E0
100
AcDbEntity
  8
0
100
AcDbSpline
 62
7
  6
CONTINUOUS
 70
0
 71
3
 72
8
 73
4
 74
0
 42
0.0000001
 43
0.0000001
 44
0.0000000001
 40
0.0
 40
0.0
 40
0.0
 40
0.0
 40
1.0
 40
1.0
 40
1.0
 40
1.0
 10
10.2392232982
 20
-31.7916878127
 30
0.0
 10
10.1604365826
 20
-31.714938736
 30
0.0
 10
10.1195088148
 20
-31.620804882
 30
0.0
 10
10.1195088148
 20
-31.5089360237
 30
0.0
  0
SPLINE
  5
5E1
100
AcDbEntity
  8
0
100
AcDbSpline
 62
7
  6
CONTINUOUS
 70
0
 71
3
 72
8
 73
4
 74
0
 42
0.0000001
 43
0.0000001
 44
0.0000000001
 40
0.0
 40
0.0
 40
0.0
 40
0.0
 40
1.0
 40
1.0
 40
1.0
 40
1.0
 10
10.1195088148
 20
-31.5089360237
 30
0.0
 10
10.1195088148
 20
-31.397066927
 30
0.0
 10
10.1604365826
 20
-31.3042975426
 30
0.0
 10
10.2395634313
 20
-31.230627647
 30
0.0
  0
SPLINE
  5
5E2
100
AcDbEntity
  8
0
100
AcDbSpline
 62
7
  6
CONTINUOUS
 70
0
 71
3
 72
8
 73
4
 74
0
 42
0.0000001
 43
0.0000001
 44
0.0000000001
 40
0.0
 40
0.0
 40
0.0
 40
0.0
 40
1.0
 40
1.0
 40
1.0
 40
1.0
 10
10.2395634313
 20
-31.230627647
 30
0.0
 10
10.3186903119
 20
-31.1569577217
 30
0.0
 10
10.4278308272
 20
-31.1201227665
 30
0.0
 10
10.5656207323
 20
-31.1201227665
 30
0.0
  0
SPLINE
  5
5E3
100
AcDbEntity
  8
0
100
AcDbSpline
 62
7
  6
CONTINUOUS
 70
0
 71
3
 72
8
 73
4
 74
0
 42
0.0000001
 43
0.0000001
 44
0.0000000001
 40
0.0
 40
0.0
 40
0.0
 40
0.0
 40
1.0
 40
1.0
 40
1.0
 40
1.0
 10
10.5656207323
 20
-31.1201227665
 30
0.0
 10
10.7102319121
 20
-31.1201227665
 30
0.0
 10
10.8234652102
 20
-31.1583219528
 30
0.0
 10
10.9066463153
 20
-31.2320353334
 30
0.0
  0
SPLINE
  5
5E4
100
AcDbEntity
  8
0
100
AcDbSpline
 62
7
  6
CONTINUOUS
 70
0
 71
3
 72
8
 73
4
 74
0
 42
0.0000001
 43
0.0000001
 44
0.0000000001
 40
0.0
 40
0.0
 40
0.0
 40
0.0
 40
1.0
 40
1.0
 40
1.0
 40
1.0
 10
10.9066463153
 20
-31.2320353334
 30
0.0
 10
10.9912687659
 20
-31.3070260048
 30
0.0
 10
11.0321964592
 20
-31.3957026958
 30
0.0
 10
11.0321964592
 20
-31.4993861675
 30
0.0
  0
SPLINE
  5
5E5
100
AcDbEntity
  8
0
100
AcDbSpline
 62
7
  6
CONTINUOUS
 70
0
 71
3
 72
8
 73
4
 74
0
 42
0.0000001
 43
0.0000001
 44
0.0000000001
 40
0.0
 40
0.0
 40
0.0
 40
0.0
 40
1.0
 40
1.0
 40
1.0
 40
1.0
 10
11.0321964592
 20
-31.4993861675
 30
0.0
 10
11.0321964592
 20
-31.5703273773
 30
0.0
 10
11.013096866
 20
-31.6385403633
 30
0.0
 10
10.9724775912
 20
-31.7028541922
 30
0.0
  0
SPLINE
  5
5E6
100
AcDbEntity
  8
0
100
AcDbSpline
 62
7
  6
CONTINUOUS
 70
0
 71
3
 72
8
 73
4
 74
0
 42
0.0000001
 43
0.0000001
 44
0.0000000001
 40
0.0
 40
0.0
 40
0.0
 40
0.0
 40
1.0
 40
1.0
 40
1.0
 40
1.0
 10
10.9724775912
 20
-31.7028541922
 30
0.0
 10
10.9312414646
 20
-31.7681447029
 30
0.0
 10
10.872578454
 20
-31.8186222076
 30
0.0
 10
10.794935465
 20
-31.8543516551
 30
0.0
  0
SPLINE
  5
5E7
100
AcDbEntity
  8
0
100
AcDbSpline
 62
7
  6
CONTINUOUS
 70
0
 71
3
 72
8
 73
4
 74
0
 42
0.0000001
 43
0.0000001
 44
0.0000000001
 40
0.0
 40
0.0
 40
0.0
 40
0.0
 40
1.0
 40
1.0
 40
1.0
 40
1.0
 10
10.794935465
 20
-31.8543516551
 30
0.0
 10
10.7184174478
 20
-31.8895634174
 30
0.0
 10
10.6365620613
 20
-31.9072987795
 30
0.0
 10
10.5519781828
 20
-31.9072987795
 30
0.0
  0
SPLINE
  5
5E8
100
AcDbEntity
  8
0
100
AcDbSpline
 62
7
  6
CONTINUOUS
 70
0
 71
3
 72
8
 73
4
 74
0
 42
0.0000001
 43
0.0000001
 44
0.0000000001
 40
0.0
 40
0.0
 40
0.0
 40
0.0
 40
1.0
 40
1.0
 40
1.0
 40
1.0
 10
10.5519781828
 20
-31.9072987795
 30
0.0
 10
10.4237380743
 20
-31.9072987795
 30
0.0
 10
10.3186903119
 20
-31.8690995932
 30
0.0
 10
10.2392232982
 20
-31.7916878127
 30
0.0
  0
SPLINE
  5
5E9
100
AcDbEntity
  8
0
100
AcDbSpline
 62
7
  6
CONTINUOUS
 70
0
 71
3
 72
8
 73
4
 74
0
 42
0.0000001
 43
0.0000001
 44
0.0000000001
 40
0.0
 40
0.0
 40
0.0
 40
0.0
 40
1.0
 40
1.0
 40
1.0
 40
1.0
 10
9.3245355477
 20
-31.086353607
 30
0.0
 10
9.2368349552
 20
-31.186971283
 30
0.0
 10
9.1918143749
 20
-31.3152113914
 30
0.0
 10
9.1918143749
 20
-31.4721010685
 30
0.0
  0
SPLINE
  5
5EA
100
AcDbEntity
  8
0
100
AcDbSpline
 62
7
  6
CONTINUOUS
 70
0
 71
3
 72
8
 73
4
 74
0
 42
0.0000001
 43
0.0000001
 44
0.0000000001
 40
0.0
 40
0.0
 40
0.0
 40
0.0
 40
1.0
 40
1.0
 40
1.0
 40
1.0
 10
9.1918143749
 20
-31.4721010685
 30
0.0
 10
9.1918143749
 20
-31.6835607052
 30
0.0
 10
9.2682128668
 20
-31.8513642311
 30
0.0
 10
9.4209513496
 20
-31.9755831091
 30
0.0
  0
SPLINE
  5
5EB
100
AcDbEntity
  8
0
100
AcDbSpline
 62
7
  6
CONTINUOUS
 70
0
 71
3
 72
8
 73
4
 74
0
 42
0.0000001
 43
0.0000001
 44
0.0000000001
 40
0.0
 40
0.0
 40
0.0
 40
0.0
 40
1.0
 40
1.0
 40
1.0
 40
1.0
 10
9.4209513496
 20
-31.9755831091
 30
0.0
 10
9.5969986439
 20
-32.1187585354
 30
0.0
 10
9.8780354977
 20
-32.1896998644
 30
0.0
 10
10.2641200542
 20
-32.1896998644
 30
0.0
  0
SPLINE
  5
5EC
100
AcDbEntity
  8
0
100
AcDbSpline
 62
7
  6
CONTINUOUS
 70
0
 71
3
 72
8
 73
4
 74
0
 42
0.0000001
 43
0.0000001
 44
0.0000000001
 40
0.0
 40
0.0
 40
0.0
 40
0.0
 40
1.0
 40
1.0
 40
1.0
 40
1.0
 10
10.2641200542
 20
-32.1896998644
 30
0.0
 10
10.6106411934
 20
-32.1896998644
 30
0.0
 10
10.8589358747
 20
-32.1255798101
 30
0.0
 10
11.0093407422
 20
-31.9963683719
 30
0.0
  0
SPLINE
  5
5ED
100
AcDbEntity
  8
0
100
AcDbSpline
 62
7
  6
CONTINUOUS
 70
0
 71
3
 72
8
 73
4
 74
0
 42
0.0000001
 43
0.0000001
 44
0.0000000001
 40
0.0
 40
0.0
 40
0.0
 40
0.0
 40
1.0
 40
1.0
 40
1.0
 40
1.0
 10
11.0093407422
 20
-31.9963683719
 30
0.0
 10
11.1590723068
 20
-31.8677353621
 30
0.0
 10
11.234106411
 20
-31.6999317169
 30
0.0
 10
11.234106411
 20
-31.4952932358
 30
0.0
  0
SPLINE
  5
5EE
100
AcDbEntity
  8
0
100
AcDbSpline
 62
7
  6
CONTINUOUS
 70
0
 71
3
 72
8
 73
4
 74
0
 42
0.0000001
 43
0.0000001
 44
0.0000000001
 40
0.0
 40
0.0
 40
0.0
 40
0.0
 40
1.0
 40
1.0
 40
1.0
 40
1.0
 10
11.234106411
 20
-31.4952932358
 30
0.0
 10
11.234106411
 20
-31.3752387524
 30
0.0
 10
11.205457026
 20
-31.2688268185
 30
0.0
 10
11.14785655
 20
-31.1735117176
 30
0.0
  0
SPLINE
  5
5EF
100
AcDbEntity
  8
0
100
AcDbSpline
 62
7
  6
CONTINUOUS
 70
0
 71
3
 72
8
 73
4
 74
0
 42
0.0000001
 43
0.0000001
 44
0.0000000001
 40
0.0
 40
0.0
 40
0.0
 40
0.0
 40
1.0
 40
1.0
 40
1.0
 40
1.0
 10
11.14785655
 20
-31.1735117176
 30
0.0
 10
11.0908594847
 20
-31.079195118
 30
0.0
 10
11.0090040982
 20
-31.0055252075
 30
0.0
 10
10.9012278407
 20
-30.9509550155
 30
0.0
  0
SPLINE
  5
5F0
100
AcDbEntity
  8
0
100
AcDbSpline
 62
7
  6
CONTINUOUS
 70
0
 71
3
 72
8
 73
4
 74
0
 42
0.0000001
 43
0.0000001
 44
0.0000000001
 40
0.0
 40
0.0
 40
0.0
 40
0.0
 40
1.0
 40
1.0
 40
1.0
 40
1.0
 10
10.9012278407
 20
-30.9509550155
 30
0.0
 10
10.7934515595
 20
-30.8963848114
 30
0.0
 10
10.6761255383
 20
-30.8690997124
 30
0.0
 10
10.5506138921
 20
-30.8690997124
 30
0.0
  0
SPLINE
  5
5F1
100
AcDbEntity
  8
0
100
AcDbSpline
 62
7
  6
CONTINUOUS
 70
0
 71
3
 72
8
 73
4
 74
0
 42
0.0000001
 43
0.0000001
 44
0.0000000001
 40
0.0
 40
0.0
 40
0.0
 40
0.0
 40
1.0
 40
1.0
 40
1.0
 40
1.0
 10
10.5506138921
 20
-30.8690997124
 30
0.0
 10
10.3596180201
 20
-30.8690997124
 30
0.0
 10
10.2040927529
 20
-30.9277626038
 30
0.0
 10
10.0840381957
 20
-31.0423601478
 30
0.0
  0
SPLINE
  5
5F2
100
AcDbEntity
  8
0
100
AcDbSpline
 62
7
  6
CONTINUOUS
 70
0
 71
3
 72
8
 73
4
 74
0
 42
0.0000001
 43
0.0000001
 44
0.0000000001
 40
0.0
 40
0.0
 40
0.0
 40
0.0
 40
1.0
 40
1.0
 40
1.0
 40
1.0
 10
10.0840381957
 20
-31.0423601478
 30
0.0
 10
9.9639836073
 20
-31.1569577217
 30
0.0
 10
9.9025921345
 20
-31.2961119175
 30
0.0
 10
9.9025921345
 20
-31.4598227501
 30
0.0
  0
SPLINE
  5
5F3
100
AcDbEntity
  8
0
100
AcDbSpline
 62
7
  6
CONTINUOUS
 70
0
 71
3
 72
8
 73
4
 74
0
 42
0.0000001
 43
0.0000001
 44
0.0000000001
 40
0.0
 40
0.0
 40
0.0
 40
0.0
 40
1.0
 40
1.0
 40
1.0
 40
1.0
 10
9.9025921345
 20
-31.4598227501
 30
0.0
 10
9.9025921345
 20
-31.5539563656
 30
0.0
 10
9.9244201899
 20
-31.6439972878
 30
0.0
 10
9.9677995334
 20
-31.7287224885
 30
0.0
  0
SPLINE
  5
5F4
100
AcDbEntity
  8
0
100
AcDbSpline
 62
7
  6
CONTINUOUS
 70
0
 71
3
 72
8
 73
4
 74
0
 42
0.0000001
 43
0.0000001
 44
0.0000000001
 40
0.0
 40
0.0
 40
0.0
 40
0.0
 40
1.0
 40
1.0
 40
1.0
 40
1.0
 10
9.9677995334
 20
-31.7287224885
 30
0.0
 10
10.0117326498
 20
-31.8145292759
 30
0.0
 10
10.0785811663
 20
-31.8868349552
 30
0.0
 10
10.1686220884
 20
-31.9454979658
 30
0.0
  0
SPLINE
  5
5F5
100
AcDbEntity
  8
0
100
AcDbSpline
 62
7
  6
CONTINUOUS
 70
0
 71
3
 72
8
 73
4
 74
0
 42
0.0000001
 43
0.0000001
 44
0.0000000001
 40
0.0
 40
0.0
 40
0.0
 40
0.0
 40
1.0
 40
1.0
 40
1.0
 40
1.0
 10
10.1686220884
 20
-31.9454979658
 30
0.0
 10
9.9694406509
 20
-31.9441337347
 30
0.0
 10
9.8152796745
 20
-31.920941329
 30
0.0
 10
9.7059984429
 20
-31.8762666657
 30
0.0
  0
SPLINE
  5
5F6
100
AcDbEntity
  8
0
100
AcDbSpline
 62
7
  6
CONTINUOUS
 70
0
 71
3
 72
8
 73
4
 74
0
 42
0.0000001
 43
0.0000001
 44
0.0000000001
 40
0.0
 40
0.0
 40
0.0
 40
0.0
 40
1.0
 40
1.0
 40
1.0
 40
1.0
 10
9.7059984429
 20
-31.8762666657
 30
0.0
 10
9.598362875
 20
-31.8322647572
 30
0.0
 10
9.5165074587
 20
-31.7708731651
 30
0.0
 10
9.4590502303
 20
-31.6932281445
 30
0.0
  0
SPLINE
  5
5F7
100
AcDbEntity
  8
0
100
AcDbSpline
 62
7
  6
CONTINUOUS
 70
0
 71
3
 72
8
 73
4
 74
0
 42
0.0000001
 43
0.0000001
 44
0.0000000001
 40
0.0
 40
0.0
 40
0.0
 40
0.0
 40
1.0
 40
1.0
 40
1.0
 40
1.0
 10
9.4590502303
 20
-31.6932281445
 30
0.0
 10
9.4155525684
 20
-31.6344474316
 30
0.0
 10
9.3937243938
 20
-31.566234684
 30
0.0
 10
9.3937243938
 20
-31.4871078491
 30
0.0
  0
SPLINE
  5
5F8
100
AcDbEntity
  8
0
100
AcDbSpline
 62
7
  6
CONTINUOUS
 70
0
 71
3
 72
8
 73
4
 74
0
 42
0.0000001
 43
0.0000001
 44
0.0000000001
 40
0.0
 40
0.0
 40
0.0
 40
0.0
 40
1.0
 40
1.0
 40
1.0
 40
1.0
 10
9.3937243938
 20
-31.4871078491
 30
0.0
 10
9.3937243938
 20
-31.390245533
 30
0.0
 10
9.429195118
 20
-31.3083902359
 30
0.0
 10
9.4994951827
 20
-31.242325113
 30
0.0
  0
SPLINE
  5
5F9
100
AcDbEntity
  8
0
100
AcDbSpline
 62
7
  6
CONTINUOUS
 70
0
 71
3
 72
8
 73
4
 74
0
 42
0.0000001
 43
0.0000001
 44
0.0000000001
 40
0.0
 40
0.0
 40
0.0
 40
0.0
 40
1.0
 40
1.0
 40
1.0
 40
1.0
 10
9.4994951827
 20
-31.242325113
 30
0.0
 10
9.5424283266
 20
-31.201978302
 30
0.0
 10
9.6133696556
 20
-31.1706002712
 30
0.0
 10
9.7088676214
 20
-31.1487720966
 30
0.0
  0
SPLINE
  5
5FA
100
AcDbEntity
  8
0
100
AcDbSpline
 62
7
  6
CONTINUOUS
 70
0
 71
3
 72
8
 73
4
 74
0
 42
0.0000001
 43
0.0000001
 44
0.0000000001
 40
0.0
 40
0.0
 40
0.0
 40
0.0
 40
1.0
 40
1.0
 40
1.0
 40
1.0
 10
9.6897680283
 20
-30.9045701981
 30
0.0
 10
9.5342428207
 20
-30.9250341415
 30
0.0
 10
9.412823987
 20
-30.9850615025
 30
0.0
 10
9.3245355477
 20
-31.086353607
 30
0.0
  0
SPLINE
  5
5FB
100
AcDbEntity
  8
0
100
AcDbSpline
 62
7
  6
CONTINUOUS
 70
0
 71
3
 72
8
 73
4
 74
0
 42
0.0000001
 43
0.0000001
 44
0.0000000001
 40
0.0
 40
0.0
 40
0.0
 40
0.0
 40
1.0
 40
1.0
 40
1.0
 40
1.0
 10
10.9639836222
 20
-33.4229877353
 30
0.0
 10
10.9203274071
 20
-33.3957026064
 30
0.0
 10
10.875306946
 20
-33.3615962029
 30
0.0
 10
10.8313115554
 20
-33.3196630881
 30
0.0
  0
SPLINE
  5
5FC
100
AcDbEntity
  8
0
100
AcDbSpline
 62
7
  6
CONTINUOUS
 70
0
 71
3
 72
8
 73
4
 74
0
 42
0.0000001
 43
0.0000001
 44
0.0000000001
 40
0.0
 40
0.0
 40
0.0
 40
0.0
 40
1.0
 40
1.0
 40
1.0
 40
1.0
 10
10.8313115554
 20
-33.3196630881
 30
0.0
 10
10.7879945457
 20
-33.2783765554
 30
0.0
 10
10.7034106374
 20
-33.1828785896
 30
0.0
 10
10.5791523744
 20
-33.0356325406
 30
0.0
  0
SPLINE
  5
5FD
100
AcDbEntity
  8
0
100
AcDbSpline
 62
7
  6
CONTINUOUS
 70
0
 71
3
 72
8
 73
4
 74
0
 42
0.0000001
 43
0.0000001
 44
0.0000000001
 40
0.0
 40
0.0
 40
0.0
 40
0.0
 40
1.0
 40
1.0
 40
1.0
 40
1.0
 10
10.5791523744
 20
-33.0356325406
 30
0.0
 10
10.4305593491
 20
-32.8595497966
 30
0.0
 10
10.3132332683
 20
-32.7340382099
 30
0.0
 10
10.2275895767
 20
-32.657301447
 30
0.0
  0
SPLINE
  5
5FE
100
AcDbEntity
  8
0
100
AcDbSpline
 62
7
  6
CONTINUOUS
 70
0
 71
3
 72
8
 73
4
 74
0
 42
0.0000001
 43
0.0000001
 44
0.0000000001
 40
0.0
 40
0.0
 40
0.0
 40
0.0
 40
1.0
 40
1.0
 40
1.0
 40
1.0
 10
10.2275895767
 20
-32.657301447
 30
0.0
 10
10.1427012205
 20
-32.5812414646
 30
0.0
 10
10.0608458042
 20
-32.5266712666
 30
0.0
 10
9.9831878597
 20
-32.4936838328
 30
0.0
  0
SPLINE
  5
5FF
100
AcDbEntity
  8
0
100
AcDbSpline
 62
7
  6
CONTINUOUS
 70
0
 71
3
 72
8
 73
4
 74
0
 42
0.0000001
 43
0.0000001
 44
0.0000000001
 40
0.0
 40
0.0
 40
0.0
 40
0.0
 40
1.0
 40
1.0
 40
1.0
 40
1.0
 10
9.9831878597
 20
-32.4936838328
 30
0.0
 10
9.9066848278
 20
-32.4611869812
 30
0.0
 10
9.8275579929
 20
-32.4448158503
 30
0.0
 10
9.7470668077
 20
-32.4448158503
 30
0.0
  0
SPLINE
  5
600
100
AcDbEntity
  8
0
100
AcDbSpline
 62
7
  6
CONTINUOUS
 70
0
 71
3
 72
8
 73
4
 74
0
 42
0.0000001
 43
0.0000001
 44
0.0000000001
 40
0.0
 40
0.0
 40
0.0
 40
0.0
 40
1.0
 40
1.0
 40
1.0
 40
1.0
 10
9.7470668077
 20
-32.4448158503
 30
0.0
 10
9.5901773691
 20
-32.4448158503
 30
0.0
 10
9.4578444481
 20
-32.5007503986
 30
0.0
 10
9.3514325127
 20
-32.6126193747
 30
0.0
  0
SPLINE
  5
601
100
AcDbEntity
  8
0
100
AcDbSpline
 62
7
  6
CONTINUOUS
 70
0
 71
3
 72
8
 73
4
 74
0
 42
0.0000001
 43
0.0000001
 44
0.0000000001
 40
0.0
 40
0.0
 40
0.0
 40
0.0
 40
1.0
 40
1.0
 40
1.0
 40
1.0
 10
9.3514325127
 20
-32.6126193747
 30
0.0
 10
9.2450204611
 20
-32.7244884729
 30
0.0
 10
9.1918143749
 20
-32.8772851586
 30
0.0
 10
9.1918143749
 20
-33.0682810903
 30
0.0
  0
SPLINE
  5
602
100
AcDbEntity
  8
0
100
AcDbSpline
 62
7
  6
CONTINUOUS
 70
0
 71
3
 72
8
 73
4
 74
0
 42
0.0000001
 43
0.0000001
 44
0.0000000001
 40
0.0
 40
0.0
 40
0.0
 40
0.0
 40
1.0
 40
1.0
 40
1.0
 40
1.0
 10
9.1918143749
 20
-33.0682810903
 30
0.0
 10
9.1918143749
 20
-33.2592769623
 30
0.0
 10
9.2422919989
 20
-33.4107094467
 30
0.0
 10
9.3401800639
 20
-33.5228728917
 30
0.0
  0
SPLINE
  5
603
100
AcDbEntity
  8
0
100
AcDbSpline
 62
7
  6
CONTINUOUS
 70
0
 71
3
 72
8
 73
4
 74
0
 42
0.0000001
 43
0.0000001
 44
0.0000000001
 40
0.0
 40
0.0
 40
0.0
 40
0.0
 40
1.0
 40
1.0
 40
1.0
 40
1.0
 10
9.3401800639
 20
-33.5228728917
 30
0.0
 10
9.4387448549
 20
-33.6358117521
 30
0.0
 10
9.5819918633
 20
-33.7012960672
 30
0.0
 10
9.7702592134
 20
-33.7176671535
 30
0.0
  0
SPLINE
  5
604
100
AcDbEntity
  8
0
100
AcDbSpline
 62
7
  6
CONTINUOUS
 70
0
 71
3
 72
8
 73
4
 74
0
 42
0.0000001
 43
0.0000001
 44
0.0000000001
 40
0.0
 40
0.0
 40
0.0
 40
0.0
 40
1.0
 40
1.0
 40
1.0
 40
1.0
 10
9.7961800814
 20
-33.4652797043
 30
0.0
 10
9.6706684351
 20
-33.4652797043
 30
0.0
 10
9.5724420071
 20
-33.4284447789
 30
0.0
 10
9.5015006781
 20
-33.3575034499
 30
0.0
  0
SPLINE
  5
605
100
AcDbEntity
  8
0
100
AcDbSpline
 62
7
  6
CONTINUOUS
 70
0
 71
3
 72
8
 73
4
 74
0
 42
0.0000001
 43
0.0000001
 44
0.0000000001
 40
0.0
 40
0.0
 40
0.0
 40
0.0
 40
1.0
 40
1.0
 40
1.0
 40
1.0
 10
9.5015006781
 20
-33.3575034499
 30
0.0
 10
9.4305593491
 20
-33.2865621209
 30
0.0
 10
9.395088625
 20
-33.1924283862
 30
0.0
 10
9.395088625
 20
-33.0737380743
 30
0.0
  0
SPLINE
  5
606
100
AcDbEntity
  8
0
100
AcDbSpline
 62
7
  6
CONTINUOUS
 70
0
 71
3
 72
8
 73
4
 74
0
 42
0.0000001
 43
0.0000001
 44
0.0000000001
 40
0.0
 40
0.0
 40
0.0
 40
0.0
 40
1.0
 40
1.0
 40
1.0
 40
1.0
 10
9.395088625
 20
-33.0737380743
 30
0.0
 10
9.395088625
 20
-32.9618690372
 30
0.0
 10
9.429195118
 20
-32.871828115
 30
0.0
 10
9.4960436505
 20
-32.8022510922
 30
0.0
  0
SPLINE
  5
607
100
AcDbEntity
  8
0
100
AcDbSpline
 62
7
  6
CONTINUOUS
 70
0
 71
3
 72
8
 73
4
 74
0
 42
0.0000001
 43
0.0000001
 44
0.0000000001
 40
0.0
 40
0.0
 40
0.0
 40
0.0
 40
1.0
 40
1.0
 40
1.0
 40
1.0
 10
9.4960436505
 20
-32.8022510922
 30
0.0
 10
9.5628922701
 20
-32.7326739788
 30
0.0
 10
9.6447475672
 20
-32.6972032547
 30
0.0
 10
9.7416097641
 20
-32.6972032547
 30
0.0
  0
SPLINE
  5
608
100
AcDbEntity
  8
0
100
AcDbSpline
 62
7
  6
CONTINUOUS
 70
0
 71
3
 72
8
 73
4
 74
0
 42
0.0000001
 43
0.0000001
 44
0.0000000001
 40
0.0
 40
0.0
 40
0.0
 40
0.0
 40
1.0
 40
1.0
 40
1.0
 40
1.0
 10
9.7416097641
 20
-32.6972032547
 30
0.0
 10
9.8343792677
 20
-32.6972032547
 30
0.0
 10
9.9339699268
 20
-32.735402441
 30
0.0
 10
10.0376534967
 20
-32.8118008421
 30
0.0
  0
SPLINE
  5
609
100
AcDbEntity
  8
0
100
AcDbSpline
 62
7
  6
CONTINUOUS
 70
0
 71
3
 72
8
 73
4
 74
0
 42
0.0000001
 43
0.0000001
 44
0.0000000001
 40
0.0
 40
0.0
 40
0.0
 40
0.0
 40
1.0
 40
1.0
 40
1.0
 40
1.0
 10
10.0376534967
 20
-32.8118008421
 30
0.0
 10
10.1413369894
 20
-32.8881991863
 30
0.0
 10
10.2832196474
 20
-33.035538888
 30
0.0
 10
10.4604667544
 20
-33.2525423768
 30
0.0
  0
SPLINE
  5
60A
100
AcDbEntity
  8
0
100
AcDbSpline
 62
7
  6
CONTINUOUS
 70
0
 71
3
 72
8
 73
4
 74
0
 42
0.0000001
 43
0.0000001
 44
0.0000000001
 40
0.0
 40
0.0
 40
0.0
 40
0.0
 40
1.0
 40
1.0
 40
1.0
 40
1.0
 10
10.4604667544
 20
-33.2525423768
 30
0.0
 10
10.5751705289
 20
-33.3929741144
 30
0.0
 10
10.6761255383
 20
-33.5007503688
 30
0.0
 10
10.7634379387
 20
-33.5744202197
 30
0.0
  0
SPLINE
  5
60B
100
AcDbEntity
  8
0
100
AcDbSpline
 62
7
  6
CONTINUOUS
 70
0
 71
3
 72
8
 73
4
 74
0
 42
0.0000001
 43
0.0000001
 44
0.0000000001
 40
0.0
 40
0.0
 40
0.0
 40
0.0
 40
1.0
 40
1.0
 40
1.0
 40
1.0
 10
10.7634379387
 20
-33.5744202197
 30
0.0
 10
10.850750339
 20
-33.6480900705
 30
0.0
 10
10.9394270003
 20
-33.7026603281
 30
0.0
 10
11.0290491697
 20
-33.7364800102
 30
0.0
  0
SPLINE
  5
60C
100
AcDbEntity
  8
0
100
AcDbSpline
 62
7
  6
CONTINUOUS
 70
0
 71
3
 72
8
 73
4
 74
0
 42
0.0000001
 43
0.0000001
 44
0.0000000001
 40
0.0
 40
0.0
 40
0.0
 40
0.0
 40
1.0
 40
1.0
 40
1.0
 40
1.0
 10
11.0290491697
 20
-33.7364800102
 30
0.0
 10
11.0840382025
 20
-33.7572305858
 30
0.0
 10
11.1413369708
 20
-33.7667803824
 30
0.0
 10
11.2
 20
-33.764051868
 30
0.0
  0
LINE
  5
60D
100
AcDbEntity
  8
ASSI
100
AcDbLine
 62
7
  6
CONTINUOUS
 10
41.380180621
 20
-7.0471419438
 11
40.8672269294
 21
-7.840680231
  0
SPLINE
  5
60E
100
AcDbEntity
  8
ASSI
100
AcDbSpline
 62
7
  6
CONTINUOUS
 70
0
 71
3
 72
8
 73
4
 74
0
 42
0.0000001
 43
0.0000001
 44
0.0000000001
 40
0.0
 40
0.0
 40
0.0
 40
0.0
 40
1.0
 40
1.0
 40
1.0
 40
1.0
 10
40.8672269294
 20
-7.840680231
 30
0.0
 10
40.8158017724
 20
-7.7456628953
 30
0.0
 10
40.7571913559
 20
-7.6543685922
 30
0.0
 10
40.6940384018
 20
-7.5667070542
 30
0.0
  0
SPLINE
  5
60F
100
AcDbEntity
  8
ASSI
100
AcDbSpline
 62
7
  6
CONTINUOUS
 70
0
 71
3
 72
12
 73
8
 74
0
 42
0.0000001
 43
0.0000001
 44
0.0000000001
 40
0.0
 40
0.0
 40
0.0
 40
0.0
 40
0.1914546415
 40
0.4289323167
 40
0.5716992375
 40
0.7144661583
 40
1.0
 40
1.0
 40
1.0
 40
1.0
 10
37.9530175151
 20
-7.2225879253
 30
0.0
 10
37.9687699898
 20
-7.2765004464
 30
0.0
 10
38.007700156
 20
-7.3961895719
 30
0.0
 10
38.0626062268
 20
-7.554719865
 30
0.0
 10
38.1196574565
 20
-7.6971739858
 30
0.0
 10
38.1804789736
 20
-7.8532729525
 30
0.0
 10
38.2264262628
 20
-7.9702221557
 30
0.0
 10
38.2569841997
 20
-8.0482160738
 30
0.0
  0
SPLINE
  5
610
100
AcDbEntity
  8
ASSI
100
AcDbSpline
 62
7
  6
CONTINUOUS
 70
0
 71
3
 72
12
 73
8
 74
0
 42
0.0000001
 43
0.0000001
 44
0.0000000001
 40
0.0
 40
0.0
 40
0.0
 40
0.0
 40
0.1914546415
 40
0.4289323167
 40
0.5716992375
 40
0.7144661583
 40
1.0
 40
1.0
 40
1.0
 40
1.0
 10
30.7081305122
 20
-7.2225879253
 30
0.0
 10
30.723882987
 20
-7.2765004464
 30
0.0
 10
30.7628131532
 20
-7.3961895719
 30
0.0
 10
30.817719224
 20
-7.554719865
 30
0.0
 10
30.8747704536
 20
-7.6971739858
 30
0.0
 10
30.9355919708
 20
-7.8532729525
 30
0.0
 10
30.9815392599
 20
-7.9702221557
 30
0.0
 10
31.0120971969
 20
-8.0482160738
 30
0.0
  0
SPLINE
  5
611
100
AcDbEntity
  8
ASSI
100
AcDbSpline
 62
7
  6
CONTINUOUS
 70
0
 71
3
 72
8
 73
4
 74
0
 42
0.0000001
 43
0.0000001
 44
0.0000000001
 40
0.0
 40
0.0
 40
0.0
 40
0.0
 40
1.0
 40
1.0
 40
1.0
 40
1.0
 10
32.9786079205
 20
-8.5590734119
 30
0.0
 10
32.9526227964
 20
-8.4652708567
 30
0.0
 10
32.9222557962
 20
-8.3726453791
 30
0.0
 10
32.8892724289
 20
-8.2810689437
 30
0.0
  0
SPLINE
  5
612
100
AcDbEntity
  8
ASSI
100
AcDbSpline
 62
7
  6
CONTINUOUS
 70
0
 71
3
 72
17
 73
13
 74
0
 42
0.0000001
 43
0.0000001
 44
0.0000000001
 40
0.0
 40
0.0
 40
0.0
 40
0.0
 40
0.1847804661
 40
0.2686869998
 40
0.3120187387
 40
0.3579035288
 40
0.5086373307
 40
0.5855715364
 40
0.6670908086
 40
0.7580428057
 40
0.8598705488
 40
1.0
 40
1.0
 40
1.0
 40
1.0
 10
29.6193333127
 20
-8.1523869826
 30
0.0
 10
29.5931828862
 20
-8.2727335023
 30
0.0
 10
29.5089759304
 20
-8.4516971356
 30
0.0
 10
29.3214740874
 20
-8.5538922357
 30
0.0
 10
29.2087770346
 20
-8.5806851511
 30
0.0
 10
29.0490257276
 20
-8.5924102075
 30
0.0
 10
28.8619009989
 20
-8.5441482533
 30
0.0
 10
28.7019365569
 20
-8.4083150076
 30
0.0
 10
28.6210855834
 20
-8.2596217068
 30
0.0
 10
28.5757994377
 20
-8.0813089644
 30
0.0
 10
28.5593662338
 20
-7.8594982965
 30
0.0
 10
28.5779142809
 20
-7.6965081227
 30
0.0
 10
28.6039604762
 20
-7.6064934094
 30
0.0
  0
SPLINE
  5
613
100
AcDbEntity
  8
ASSI
100
AcDbSpline
 62
7
  6
CONTINUOUS
 70
0
 71
3
 72
9
 73
5
 74
0
 42
0.0000001
 43
0.0000001
 44
0.0000000001
 40
0.0
 40
0.0
 40
0.0
 40
0.0
 40
0.4786249203
 40
1.0
 40
1.0
 40
1.0
 40
1.0
 10
29.1275040987
 20
-7.2122675735
 30
0.0
 10
29.2251711276
 20
-7.2122675735
 30
0.0
 10
29.444240845
 20
-7.2656277531
 30
0.0
 10
29.5460270739
 20
-7.4655734058
 30
0.0
 10
29.5780519053
 20
-7.5670295701
 30
0.0
  0
SPLINE
  5
614
100
AcDbEntity
  8
ASSI
100
AcDbSpline
 62
7
  6
CONTINUOUS
 70
0
 71
3
 72
24
 73
20
 74
0
 42
0.0000001
 43
0.0000001
 44
0.0000000001
 40
0.0
 40
0.0
 40
0.0
 40
0.0
 40
0.1694247434
 40
0.2528781495
 40
0.2969368749
 40
0.3439632781
 40
0.3862216275
 40
0.4272856526
 40
0.4678132511
 40
0.5084883584
 40
0.5886545856
 40
0.6707598759
 40
0.7587544239
 40
0.8057695906
 40
0.855564895
 40
0.9019521543
 40
0.947244765
 40
0.9918916356
 40
1.0
 40
1.0
 40
1.0
 40
1.0
 10
29.8050996461
 20
-7.514782779
 30
0.0
 10
29.7646536379
 20
-7.3738925261
 30
0.0
 10
29.6405069105
 20
-7.1690818932
 30
0.0
 10
29.4052737141
 20
-7.0528607955
 30
0.0
 10
29.2571444005
 20
-7.0210841681
 30
0.0
 10
29.1416125373
 20
-7.0138890903
 30
0.0
 10
29.0287834937
 20
-7.020270389
 30
0.0
 10
28.9230809679
 20
-7.0395793789
 30
0.0
 10
28.8221034476
 20
-7.0721208783
 30
0.0
 10
28.6954418238
 20
-7.1315082909
 30
0.0
 10
28.5532113643
 20
-7.2395267766
 30
0.0
 10
28.4291064271
 20
-7.4208602082
 30
0.0
 10
28.3677230835
 20
-7.6006195161
 30
0.0
 10
28.3434723171
 20
-7.7589119977
 30
0.0
 10
28.3377053285
 20
-7.8828890547
 30
0.0
 10
28.3432116768
 20
-8.0053309505
 30
0.0
 10
28.3600721322
 20
-8.1222700896
 30
0.0
 10
28.380766273
 20
-8.204697106
 30
0.0
 10
28.3944647704
 20
-8.2482441902
 30
0.0
 10
28.3966327494
 20
-8.2549168007
 30
0.0
  0
SPLINE
  5
615
100
AcDbEntity
  8
ASSI
100
AcDbSpline
 62
7
  6
CONTINUOUS
 70
0
 71
3
 72
11
 73
7
 74
0
 42
0.0000001
 43
0.0000001
 44
0.0000000001
 40
0.0
 40
0.0
 40
0.0
 40
0.0
 40
0.2525992429
 40
0.4888102636
 40
0.730558892
 40
1.0
 40
1.0
 40
1.0
 40
1.0
 10
29.1407270938
 20
-8.7809610556
 30
0.0
 10
29.2235419663
 20
-8.7809610556
 30
0.0
 10
29.3856596488
 20
-8.7599938333
 30
0.0
 10
29.6020164499
 20
-8.6450713505
 30
0.0
 10
29.764572654
 20
-8.4545027575
 30
0.0
 10
29.8245953499
 20
-8.2949181919
 30
0.0
 10
29.8463810535
 20
-8.2093102545
 30
0.0
  0
SPLINE
  5
616
100
AcDbEntity
  8
ASSI
100
AcDbSpline
 62
7
  6
CONTINUOUS
 70
0
 71
3
 72
9
 73
5
 74
0
 42
0.0000001
 43
0.0000001
 44
0.0000000001
 40
0.0
 40
0.0
 40
0.0
 40
0.0
 40
0.6350560901
 40
1.0
 40
1.0
 40
1.0
 40
1.0
 10
25.3392093068
 20
-7.745055679
 30
0.0
 10
25.2662008848
 20
-7.7279212697
 30
0.0
 10
25.1539384906
 20
-7.697070808
 30
0.0
 10
25.0400159864
 20
-7.6521245449
 30
0.0
 10
25.0087161605
 20
-7.6225015204
 30
0.0
  0
SPLINE
  5
617
100
AcDbEntity
  8
ASSI
100
AcDbSpline
 62
7
  6
CONTINUOUS
 70
0
 71
3
 72
13
 73
9
 74
0
 42
0.0000001
 43
0.0000001
 44
0.0000000001
 40
0.0
 40
0.0
 40
0.0
 40
0.0
 40
0.1223010007
 40
0.2481832321
 40
0.3968182834
 40
0.5546662969
 40
0.7464665216
 40
1.0
 40
1.0
 40
1.0
 40
1.0
 10
25.0087161605
 20
-7.6225015204
 30
0.0
 10
24.9883189103
 20
-7.6035830925
 30
0.0
 10
24.9538853127
 20
-7.5561626407
 30
0.0
 10
24.9380538436
 20
-7.464837479
 30
0.0
 10
24.9601450441
 20
-7.3656401362
 30
0.0
 10
25.035904629
 20
-7.2755934773
 30
0.0
 10
25.1650226071
 20
-7.2187930364
 30
0.0
 10
25.2674278066
 20
-7.2122675735
 30
0.0
 10
25.3250995504
 20
-7.2122675735
 30
0.0
  0
SPLINE
  5
618
100
AcDbEntity
  8
ASSI
100
AcDbSpline
 62
7
  6
CONTINUOUS
 70
0
 71
3
 72
9
 73
5
 74
0
 42
0.0000001
 43
0.0000001
 44
0.0000000001
 40
0.0
 40
0.0
 40
0.0
 40
0.0
 40
0.5306823676
 40
1.0
 40
1.0
 40
1.0
 40
1.0
 10
25.3250995504
 20
-7.2122675735
 30
0.0
 10
25.425046028
 20
-7.2122675735
 30
0.0
 10
25.6377543449
 20
-7.2434261311
 30
0.0
 10
25.7191537987
 20
-7.4443111686
 30
0.0
 10
25.7285606631
 20
-7.532198481
 30
0.0
  0
SPLINE
  5
619
100
AcDbEntity
  8
ASSI
100
AcDbSpline
 62
7
  6
CONTINUOUS
 70
0
 71
3
 72
19
 73
15
 74
0
 42
0.0000001
 43
0.0000001
 44
0.0000000001
 40
0.0
 40
0.0
 40
0.0
 40
0.0
 40
0.1557589079
 40
0.2338180018
 40
0.3163983882
 40
0.4068009525
 40
0.4552647948
 40
0.506462334
 40
0.5981723962
 40
0.6843223624
 40
0.7640103509
 40
0.8385548042
 40
0.9794673419
 40
1.0
 40
1.0
 40
1.0
 40
1.0
 10
25.9556084039
 20
-7.5218781292
 30
0.0
 10
25.9519814503
 20
-7.4287851737
 30
0.0
 10
25.9098901061
 20
-7.2856519386
 30
0.0
 10
25.7802832717
 20
-7.144031067
 30
0.0
 10
25.6477155852
 20
-7.0691324297
 30
0.0
 10
25.5192114212
 20
-7.0330972677
 30
0.0
 10
25.406336242
 20
-7.0185300657
 30
0.0
 10
25.2918648309
 20
-7.0138570713
 30
0.0
 10
25.1544908143
 20
-7.0249302147
 30
0.0
 10
25.005458416
 20
-7.0676367582
 30
0.0
 10
24.8779575578
 20
-7.1384698275
 30
0.0
 10
24.7574431481
 20
-7.2709498066
 30
0.0
 10
24.713721689
 20
-7.4149894366
 30
0.0
 10
24.7176080583
 20
-7.512091649
 30
0.0
 10
24.7186579015
 20
-7.5243758677
 30
0.0
  0
SPLINE
  5
61A
100
AcDbEntity
  8
ASSI
100
AcDbSpline
 62
7
  6
CONTINUOUS
 70
0
 71
3
 72
9
 73
5
 74
0
 42
0.0000001
 43
0.0000001
 44
0.0000000001
 40
0.0
 40
0.0
 40
0.0
 40
0.0
 40
0.1806469784
 40
1.0
 40
1.0
 40
1.0
 40
1.0
 10
24.9635647195
 20
-7.8595470971
 30
0.0
 10
24.981806746
 20
-7.8690820119
 30
0.0
 10
25.0864343524
 20
-7.9147345595
 30
0.0
 10
25.1971752913
 20
-7.9439797232
 30
0.0
 10
25.2877688055
 20
-7.966540099
 30
0.0
  0
SPLINE
  5
61B
100
AcDbEntity
  8
ASSI
100
AcDbSpline
 62
7
  6
CONTINUOUS
 70
0
 71
3
 72
9
 73
5
 74
0
 42
0.0000001
 43
0.0000001
 44
0.0000000001
 40
0.0
 40
0.0
 40
0.0
 40
0.0
 40
0.3500357027
 40
1.0
 40
1.0
 40
1.0
 40
1.0
 10
25.2877688055
 20
-7.966540099
 30
0.0
 10
25.3224980677
 20
-7.9751886784
 30
0.0
 10
25.4213183849
 20
-8.0009999928
 30
0.0
 10
25.5211545305
 20
-8.0254514189
 30
0.0
 10
25.5827858309
 20
-8.0503122698
 30
0.0
  0
SPLINE
  5
61C
100
AcDbEntity
  8
ASSI
100
AcDbSpline
 62
7
  6
CONTINUOUS
 70
0
 71
3
 72
16
 73
12
 74
0
 42
0.0000001
 43
0.0000001
 44
0.0000000001
 40
0.0
 40
0.0
 40
0.0
 40
0.0
 40
0.1560294448
 40
0.2193219448
 40
0.2859725663
 40
0.4221624748
 40
0.5797286019
 40
0.6742455462
 40
0.7783530634
 40
0.8968143426
 40
1.0
 40
1.0
 40
1.0
 40
1.0
 10
25.5827858309
 20
-8.0503122698
 30
0.0
 10
25.6376466636
 20
-8.0720014323
 30
0.0
 10
25.7168114221
 20
-8.1157195976
 30
0.0
 10
25.7634428095
 20
-8.2160338635
 30
0.0
 10
25.7771947094
 20
-8.3166757299
 30
0.0
 10
25.7339523085
 20
-8.4563340588
 30
0.0
 10
25.6047242408
 20
-8.5438114202
 30
0.0
 10
25.4745593916
 20
-8.5791869669
 30
0.0
 10
25.3543242363
 20
-8.5882841311
 30
0.0
 10
25.2308178537
 20
-8.5775753444
 30
0.0
 10
25.1502901765
 20
-8.5522962554
 30
0.0
 10
25.1143991539
 20
-8.5366859953
 30
0.0
  0
SPLINE
  5
61D
100
AcDbEntity
  8
ASSI
100
AcDbSpline
 62
7
  6
CONTINUOUS
 70
0
 71
3
 72
12
 73
8
 74
0
 42
0.0000001
 43
0.0000001
 44
0.0000000001
 40
0.0
 40
0.0
 40
0.0
 40
0.0
 40
0.1606441131
 40
0.3160528741
 40
0.4695579901
 40
0.6257786262
 40
1.0
 40
1.0
 40
1.0
 40
1.0
 10
24.65524407
 20
-8.1927009998
 30
0.0
 10
24.6567390631
 20
-8.2484272989
 30
0.0
 10
24.672715045
 20
-8.3584736667
 30
0.0
 10
24.7409769034
 20
-8.508692371
 30
0.0
 10
24.8475704034
 20
-8.6331796762
 30
0.0
 10
25.0531316675
 20
-8.7587125465
 30
0.0
 10
25.2439372301
 20
-8.7809610556
 30
0.0
 10
25.3737986664
 20
-8.7809610556
 30
0.0
  0
SPLINE
  5
61E
100
AcDbEntity
  8
ASSI
100
AcDbSpline
 62
7
  6
CONTINUOUS
 70
0
 71
3
 72
14
 73
10
 74
0
 42
0.0000001
 43
0.0000001
 44
0.0000000001
 40
0.0
 40
0.0
 40
0.0
 40
0.0
 40
0.2324140172
 40
0.3379986706
 40
0.4377481205
 40
0.6253413849
 40
0.7167588502
 40
0.8043408137
 40
1.0
 40
1.0
 40
1.0
 40
1.0
 10
25.3737986664
 20
-8.7809610556
 30
0.0
 10
25.4843237872
 20
-8.7809610556
 30
0.0
 10
25.6491070153
 20
-8.7514533175
 30
0.0
 10
25.8286306623
 20
-8.6413064278
 30
0.0
 10
25.9538478614
 20
-8.4994321043
 30
0.0
 10
26.0093187554
 20
-8.3162193134
 30
0.0
 10
25.985943989
 20
-8.1414786465
 30
0.0
 10
25.9104819635
 20
-7.9766217368
 30
0.0
 10
25.7924662035
 20
-7.8934273791
 30
0.0
 10
25.7080812173
 20
-7.8542255845
 30
0.0
  0
SPLINE
  5
61F
100
AcDbEntity
  8
ASSI
100
AcDbSpline
 62
7
  6
CONTINUOUS
 70
0
 71
3
 72
9
 73
5
 74
0
 42
0.0000001
 43
0.0000001
 44
0.0000000001
 40
0.0
 40
0.0
 40
0.0
 40
0.0
 40
0.1708537376
 40
1.0
 40
1.0
 40
1.0
 40
1.0
 10
25.7080812173
 20
-7.8542255845
 30
0.0
 10
25.6881395562
 20
-7.8451094099
 30
0.0
 10
25.5679674264
 20
-7.7995379749
 30
0.0
 10
25.4428033338
 20
-7.7693682502
 30
0.0
 10
25.3392093068
 20
-7.745055679
 30
0.0
  0
SPLINE
  5
620
100
AcDbEntity
  8
ASSI
100
AcDbSpline
 62
7
  6
CONTINUOUS
 70
0
 71
3
 72
9
 73
5
 74
0
 42
0.0000001
 43
0.0000001
 44
0.0000000001
 40
0.0
 40
0.0
 40
0.0
 40
0.0
 40
0.7911658617
 40
1.0
 40
1.0
 40
1.0
 40
1.0
 10
23.0349488287
 20
-7.9240493356
 30
0.0
 10
23.0349488287
 20
-7.7699540549
 30
0.0
 10
23.0576425403
 20
-7.5611480092
 30
0.0
 10
23.1783133301
 20
-7.4043466093
 30
0.0
 10
23.2078147616
 20
-7.3763450264
 30
0.0
  0
SPLINE
  5
621
100
AcDbEntity
  8
ASSI
100
AcDbSpline
 62
7
  6
CONTINUOUS
 70
0
 71
3
 72
22
 73
18
 74
0
 42
0.0000001
 43
0.0000001
 44
0.0000000001
 40
0.0
 40
0.0
 40
0.0
 40
0.0
 40
0.1078912913
 40
0.1611782272
 40
0.2166017066
 40
0.2939108347
 40
0.369089875
 40
0.4442121267
 40
0.5217525008
 40
0.6057893499
 40
0.6510417661
 40
0.6990508841
 40
0.773079926
 40
0.8396685327
 40
0.9008284074
 40
0.9591358877
 40
1.0
 40
1.0
 40
1.0
 40
1.0
 10
23.2078147616
 20
-7.3763450264
 30
0.0
 10
23.2624536122
 20
-7.3244840075
 30
0.0
 10
23.3591356841
 20
-7.2600233689
 30
0.0
 10
23.5055008227
 20
-7.218688985
 30
0.0
 10
23.635537321
 20
-7.2075877694
 30
0.0
 10
23.7814900216
 20
-7.2254895165
 30
0.0
 10
23.9287905757
 20
-7.2909672976
 30
0.0
 10
24.0515767751
 20
-7.3959402538
 30
0.0
 10
24.1393858372
 20
-7.5386983752
 30
0.0
 10
24.181568277
 20
-7.6782206762
 30
0.0
 10
24.1984907831
 20
-7.8010123485
 30
0.0
 10
24.2031948996
 20
-7.9178583277
 30
0.0
 10
24.1953691135
 20
-8.0497594039
 30
0.0
 10
24.1652166239
 20
-8.1880712997
 30
0.0
 10
24.113627016
 20
-8.3083744554
 30
0.0
 10
24.0469261386
 20
-8.3994365494
 30
0.0
 10
23.9962866154
 20
-8.4471437456
 30
0.0
 10
23.974023565
 20
-8.465068787
 30
0.0
  0
SPLINE
  5
622
100
AcDbEntity
  8
ASSI
100
AcDbSpline
 62
7
  6
CONTINUOUS
 70
0
 71
3
 72
14
 73
10
 74
0
 42
0.0000001
 43
0.0000001
 44
0.0000000001
 40
0.0
 40
0.0
 40
0.0
 40
0.0
 40
0.2665979089
 40
0.368288704
 40
0.4714152591
 40
0.6179308633
 40
0.694077139
 40
0.7749435498
 40
1.0
 40
1.0
 40
1.0
 40
1.0
 10
21.9380890462
 20
-7.243228629
 30
0.0
 10
22.0337798222
 20
-7.243228629
 30
0.0
 10
22.182669678
 20
-7.2640828
 30
0.0
 10
22.288499004
 20
-7.4051154512
 30
0.0
 10
22.3126532905
 20
-7.5322430009
 30
0.0
 10
22.2779527777
 20
-7.6514651075
 30
0.0
 10
22.2026578696
 20
-7.7329393807
 30
0.0
 10
22.0781531745
 20
-7.7958628902
 30
0.0
 10
21.9646873369
 20
-7.8005276293
 30
0.0
 10
21.8839071596
 20
-7.8005276293
 30
0.0
  0
SPLINE
  5
623
100
AcDbEntity
  8
ASSI
100
AcDbSpline
 62
7
  6
CONTINUOUS
 70
0
 71
3
 72
12
 73
8
 74
0
 42
0.0000001
 43
0.0000001
 44
0.0000000001
 40
0.0
 40
0.0
 40
0.0
 40
0.0
 40
0.3274191609
 40
0.4911287414
 40
0.6548383219
 40
0.8345406322
 40
1.0
 40
1.0
 40
1.0
 40
1.0
 10
22.6534183259
 20
-8.75
 30
0.0
 10
22.6052029313
 20
-8.6728392218
 30
0.0
 10
22.5331297454
 20
-8.5569378832
 30
0.0
 10
22.4360325399
 20
-8.4030434501
 30
0.0
 10
22.3634187263
 20
-8.2822102827
 30
0.0
 10
22.2802342559
 20
-8.1675746131
 30
0.0
 10
22.2163329654
 20
-8.0957462776
 30
0.0
 10
22.1836811373
 20
-8.0633740069
 30
0.0
  0
SPLINE
  5
624
100
AcDbEntity
  8
ASSI
100
AcDbSpline
 62
7
  6
CONTINUOUS
 70
0
 71
3
 72
9
 73
5
 74
0
 42
0.0000001
 43
0.0000001
 44
0.0000000001
 40
0.0
 40
0.0
 40
0.0
 40
0.0
 40
0.209446698
 40
1.0
 40
1.0
 40
1.0
 40
1.0
 10
22.1836811373
 20
-8.0633740069
 30
0.0
 10
22.1758533038
 20
-8.0557461575
 30
0.0
 10
22.136286237
 20
-8.0215761103
 30
0.0
 10
22.0907966554
 20
-7.9950019315
 30
0.0
 10
22.0541930439
 20
-7.9759736108
 30
0.0
  0
SPLINE
  5
625
100
AcDbEntity
  8
ASSI
100
AcDbSpline
 62
7
  6
CONTINUOUS
 70
0
 71
3
 72
17
 73
13
 74
0
 42
0.0000001
 43
0.0000001
 44
0.0000000001
 40
0.0
 40
0.0
 40
0.0
 40
0.0
 40
0.2460836248
 40
0.3488272006
 40
0.4008361773
 40
0.4556648225
 40
0.540858721
 40
0.6244209655
 40
0.704882247
 40
0.7821673896
 40
0.8752909099
 40
1.0
 40
1.0
 40
1.0
 40
1.0
 10
22.0541930439
 20
-7.9759736108
 30
0.0
 10
22.183670595
 20
-7.9579929794
 30
0.0
 10
22.3798730153
 20
-7.8932301487
 30
0.0
 10
22.4958169939
 20
-7.7062386249
 30
0.0
 10
22.5248340959
 20
-7.5982447809
 30
0.0
 10
22.532811113
 20
-7.4960925625
 30
0.0
 10
22.5181655218
 20
-7.3767089175
 30
0.0
 10
22.4650825877
 20
-7.2537028306
 30
0.0
 10
22.383547652
 20
-7.1520011691
 30
0.0
 10
22.2663423925
 20
-7.0826508182
 30
0.0
 10
22.1108171975
 20
-7.052180918
 30
0.0
 10
21.9951432011
 20
-7.0471419438
 30
0.0
 10
21.9288975
 20
-7.0471419438
 30
0.0
  0
SPLINE
  5
626
100
AcDbEntity
  8
ASSI
100
AcDbSpline
 62
7
  6
CONTINUOUS
 70
0
 71
3
 72
14
 73
10
 74
0
 42
0.0000001
 43
0.0000001
 44
0.0000000001
 40
0.0
 40
0.0
 40
0.0
 40
0.0
 40
0.1089885614
 40
0.1829254059
 40
0.2624764842
 40
0.3465277994
 40
0.4482203747
 40
0.5822701297
 40
1.0
 40
1.0
 40
1.0
 40
1.0
 10
21.6631483216
 20
-7.9966143145
 30
0.0
 10
21.6878829404
 20
-7.9966143145
 30
0.0
 10
21.7293223168
 20
-7.9974869414
 30
0.0
 10
21.7890378167
 20
-8.0025205382
 30
0.0
 10
21.8401088444
 20
-8.0211011837
 30
0.0
 10
21.8938107444
 20
-8.0488552261
 30
0.0
 10
21.9493647355
 20
-8.0965211136
 30
0.0
 10
22.0444085829
 20
-8.2106819699
 30
0.0
 10
22.1124802015
 20
-8.3161565574
 30
0.0
 10
22.1635242074
 20
-8.3960441357
 30
0.0
  0
SPLINE
  5
627
100
AcDbEntity
  8
ASSI
100
AcDbSpline
 62
7
  6
CONTINUOUS
 70
0
 71
3
 72
12
 73
8
 74
0
 42
0.0000001
 43
0.0000001
 44
0.0000000001
 40
0.0
 40
0.0
 40
0.0
 40
0.0
 40
0.1914546415
 40
0.4289323167
 40
0.5716992375
 40
0.7144661583
 40
1.0
 40
1.0
 40
1.0
 40
1.0
 10
20.1710512674
 20
-7.2225879253
 30
0.0
 10
20.1868037422
 20
-7.2765004464
 30
0.0
 10
20.2257339084
 20
-7.3961895719
 30
0.0
 10
20.2806399791
 20
-7.554719865
 30
0.0
 10
20.3376912088
 20
-7.6971739858
 30
0.0
 10
20.398512726
 20
-7.8532729525
 30
0.0
 10
20.4444600151
 20
-7.9702221557
 30
0.0
 10
20.475017952
 20
-8.0482160738
 30
0.0
  0
SPLINE
  5
628
100
AcDbEntity
  8
ASSI
100
AcDbSpline
 62
7
  6
CONTINUOUS
 70
0
 71
3
 72
9
 73
5
 74
0
 42
0.0000001
 43
0.0000001
 44
0.0000000001
 40
0.0
 40
0.0
 40
0.0
 40
0.0
 40
0.3106214921
 40
1.0
 40
1.0
 40
1.0
 40
1.0
 10
18.5101196505
 20
-8.2293059264
 30
0.0
 10
18.5001774376
 20
-8.2574166492
 30
0.0
 10
18.4683539883
 20
-8.3479776
 30
0.0
 10
18.436958437
 20
-8.4387040405
 30
0.0
 10
18.4165914519
 20
-8.5016665236
 30
0.0
  0
SPLINE
  5
629
100
AcDbEntity
  8
ASSI
100
AcDbSpline
 62
7
  6
CONTINUOUS
 70
0
 71
3
 72
9
 73
5
 74
0
 42
0.0000001
 43
0.0000001
 44
0.0000000001
 40
0.0
 40
0.0
 40
0.0
 40
0.0
 40
0.1862683768
 40
1.0
 40
1.0
 40
1.0
 40
1.0
 10
18.4165914519
 20
-8.5016665236
 30
0.0
 10
18.4117682686
 20
-8.4859836386
 30
0.0
 10
18.3853552363
 20
-8.4019486221
 30
0.0
 10
18.3577459649
 20
-8.3182959833
 30
0.0
 10
18.3351574428
 20
-8.250269146
 30
0.0
  0
SPLINE
  5
62A
100
AcDbEntity
  8
ASSI
100
AcDbSpline
 62
7
  6
CONTINUOUS
 70
0
 71
3
 72
21
 73
17
 74
0
 42
0.0000001
 43
0.0000001
 44
0.0000000001
 40
0.0
 40
0.0
 40
0.0
 40
0.0
 40
0.1235509787
 40
0.2401218288
 40
0.3550519545
 40
0.4132531495
 40
0.4750326404
 40
0.5399713997
 40
0.6016442904
 40
0.6625458686
 40
0.7252627949
 40
0.7882363369
 40
0.8500313503
 40
0.9133375868
 40
0.9806639164
 40
1.0
 40
1.0
 40
1.0
 40
1.0
 10
16.1087028272
 20
-7.9217917242
 30
0.0
 10
16.154615731
 20
-7.9217917242
 30
0.0
 10
16.2454270998
 20
-7.9351395278
 30
0.0
 10
16.3595572726
 20
-8.0081883497
 30
0.0
 10
16.4229118603
 20
-8.0993336616
 30
0.0
 10
16.4469384792
 20
-8.1838889491
 30
0.0
 10
16.4524896214
 20
-8.252736483
 30
0.0
 10
16.4466960222
 20
-8.3228700432
 30
0.0
 10
16.4274981784
 20
-8.3903675018
 30
0.0
 10
16.3949565594
 20
-8.4516303342
 30
0.0
 10
16.3503624176
 20
-8.5052821701
 30
0.0
 10
16.2963826847
 20
-8.5500473245
 30
0.0
 10
16.2339016826
 20
-8.5825586197
 30
0.0
 10
16.1644957753
 20
-8.6016978211
 30
0.0
 10
16.1086682216
 20
-8.6061165348
 30
0.0
 10
16.0764072257
 20
-8.605330602
 30
0.0
 10
16.0692206495
 20
-8.6049730201
 30
0.0
  0
SPLINE
  5
62B
100
AcDbEntity
  8
ASSI
100
AcDbSpline
 62
7
  6
CONTINUOUS
 70
0
 71
3
 72
22
 73
18
 74
0
 42
0.0000001
 43
0.0000001
 44
0.0000000001
 40
0.0
 40
0.0
 40
0.0
 40
0.0
 40
0.1137592264
 40
0.2236350148
 40
0.2798055405
 40
0.3358184831
 40
0.3937825974
 40
0.4556073046
 40
0.5241613605
 40
0.5885246106
 40
0.6510591279
 40
0.7143321256
 40
0.7766592771
 40
0.8362492433
 40
0.8957298915
 40
0.957742988
 40
1.0
 40
1.0
 40
1.0
 40
1.0
 10
15.5423733813
 20
-8.3062248702
 30
0.0
 10
15.5489180015
 20
-8.3718723992
 30
0.0
 10
15.5819095855
 20
-8.5009252139
 30
0.0
 10
15.6842161465
 20
-8.6325287326
 30
0.0
 10
15.788365568
 20
-8.7093104612
 30
0.0
 10
15.8784096641
 20
-8.7513060391
 30
0.0
 10
15.9779125669
 20
-8.7760435227
 30
0.0
 10
16.0872882152
 20
-8.7837196014
 30
0.0
 10
16.2004154596
 20
-8.775154206
 30
0.0
 10
16.3107005244
 20
-8.7460529141
 30
0.0
 10
16.4102036489
 20
-8.6966403902
 30
0.0
 10
16.4963187947
 20
-8.6285344071
 30
0.0
 10
16.5675730424
 20
-8.5473217843
 30
0.0
 10
16.6197956733
 20
-8.4550701908
 30
0.0
 10
16.6507233347
 20
-8.3538518411
 30
0.0
 10
16.65913012
 20
-8.258662263
 30
0.0
 10
16.6555126215
 20
-8.198126557
 30
0.0
 10
16.6522595644
 20
-8.1738253311
 30
0.0
  0
SPLINE
  5
62C
100
AcDbEntity
  8
ASSI
100
AcDbSpline
 62
7
  6
CONTINUOUS
 70
0
 71
3
 72
17
 73
13
 74
0
 42
0.0000001
 43
0.0000001
 44
0.0000000001
 40
0.0
 40
0.0
 40
0.0
 40
0.0
 40
0.1602224239
 40
0.308545572
 40
0.4699885088
 40
0.5543116309
 40
0.6423107428
 40
0.7338415241
 40
0.8279821808
 40
0.8959394409
 40
0.9597923919
 40
1.0
 40
1.0
 40
1.0
 40
1.0
 10
16.3299452815
 20
-7.8274572359
 30
0.0
 10
16.3986278778
 20
-7.7956473459
 30
0.0
 10
16.5225205976
 20
-7.7010993871
 30
0.0
 10
16.5852101827
 20
-7.4743696927
 30
0.0
 10
16.5302818319
 20
-7.2863716762
 30
0.0
 10
16.4301198669
 20
-7.1622192289
 30
0.0
 10
16.3254865282
 20
-7.0915391778
 30
0.0
 10
16.2031123098
 20
-7.0461711604
 30
0.0
 10
16.0828313914
 20
-7.033549482
 30
0.0
 10
15.9759697975
 20
-7.0412128701
 30
0.0
 10
15.896671448
 20
-7.0604555805
 30
0.0
 10
15.8509381124
 20
-7.0794453172
 30
0.0
 10
15.833770926
 20
-7.087845722
 30
0.0
  0
SPLINE
  5
62D
100
AcDbEntity
  8
ASSI
100
AcDbSpline
 62
7
  6
CONTINUOUS
 70
0
 71
3
 72
16
 73
12
 74
0
 42
0.0000001
 43
0.0000001
 44
0.0000000001
 40
0.0
 40
0.0
 40
0.0
 40
0.0
 40
0.2754465559
 40
0.3950325473
 40
0.4565247543
 40
0.5218606479
 40
0.5875789382
 40
0.6488150883
 40
0.7664059399
 40
0.8813245124
 40
1.0
 40
1.0
 40
1.0
 40
1.0
 10
15.7694211221
 20
-7.5115577773
 30
0.0
 10
15.7820834292
 20
-7.4299563386
 30
0.0
 10
15.8274873394
 20
-7.3064177544
 30
0.0
 10
15.9485004277
 20
-7.2335661991
 30
0.0
 10
16.020345848
 20
-7.2150784626
 30
0.0
 10
16.0781839186
 20
-7.2108177126
 30
0.0
 10
16.1359169448
 20
-7.2150718321
 30
0.0
 10
16.2073287004
 20
-7.2334443783
 30
0.0
 10
16.2839376932
 20
-7.2819004211
 30
0.0
 10
16.3459951168
 20
-7.3707309093
 30
0.0
 10
16.3576811779
 20
-7.4421155382
 30
0.0
 10
16.3576811779
 20
-7.4776940785
 30
0.0
  0
SPLINE
  5
62E
100
AcDbEntity
  8
ASSI
100
AcDbSpline
 62
7
  6
CONTINUOUS
 70
0
 71
3
 72
11
 73
7
 74
0
 42
0.0000001
 43
0.0000001
 44
0.0000000001
 40
0.0
 40
0.0
 40
0.0
 40
0.0
 40
0.2589066357
 40
0.4973886641
 40
0.7458566114
 40
1.0
 40
1.0
 40
1.0
 40
1.0
 10
16.3576811779
 20
-7.4776940785
 30
0.0
 10
16.3576811779
 20
-7.5206026617
 30
0.0
 10
16.3444324852
 20
-7.606549067
 30
0.0
 10
16.255096533
 20
-7.7001025278
 30
0.0
 10
16.1410019566
 20
-7.7501220337
 30
0.0
 10
16.0572937992
 20
-7.7616649337
 30
0.0
 10
16.0151746287
 20
-7.7616649337
 30
0.0
  0
SPLINE
  5
62F
100
AcDbEntity
  8
ASSI
100
AcDbSpline
 62
7
  6
CONTINUOUS
 70
0
 71
3
 72
8
 73
4
 74
0
 42
0.0000001
 43
0.0000001
 44
0.0000000001
 40
0.0
 40
0.0
 40
0.0
 40
0.0
 40
1.0
 40
1.0
 40
1.0
 40
1.0
 10
16.0151746287
 20
-7.7616649337
 30
0.0
 10
16.0038043563
 20
-7.7616649337
 30
0.0
 10
15.9924483205
 20
-7.7605204413
 30
0.0
 10
15.9811496719
 20
-7.7592462218
 30
0.0
  0
SPLINE
  5
630
100
AcDbEntity
  8
ASSI
100
AcDbSpline
 62
7
  6
CONTINUOUS
 70
0
 71
3
 72
9
 73
5
 74
0
 42
0.0000001
 43
0.0000001
 44
0.0000000001
 40
0.0
 40
0.0
 40
0.0
 40
0.0
 40
0.290916541
 40
1.0
 40
1.0
 40
1.0
 40
1.0
 10
15.957283809
 20
-7.9450125552
 30
0.0
 10
15.9716917764
 20
-7.9413208328
 30
0.0
 10
16.0214118768
 20
-7.9296510168
 30
0.0
 10
16.0724501985
 20
-7.9217917242
 30
0.0
 10
16.1087028272
 20
-7.9217917242
 30
0.0
  0
SPLINE
  5
631
100
AcDbEntity
  8
ASSI
100
AcDbSpline
 62
7
  6
CONTINUOUS
 70
0
 71
3
 72
14
 73
10
 74
0
 42
0.0000001
 43
0.0000001
 44
0.0000000001
 40
0.0
 40
0.0
 40
0.0
 40
0.0
 40
0.1531755028
 40
0.3079996746
 40
0.4958433067
 40
0.5877948367
 40
0.6835810267
 40
0.8209533056
 40
1.0
 40
1.0
 40
1.0
 40
1.0
 10
14.6280547731
 20
-7.2680618822
 30
0.0
 10
14.6542516194
 20
-7.2500059132
 30
0.0
 10
14.7127760718
 20
-7.2211438958
 30
0.0
 10
14.8159754207
 20
-7.2066892799
 30
0.0
 10
14.9076930785
 20
-7.222697162
 30
0.0
 10
14.9758472424
 20
-7.2615851273
 30
0.0
 10
15.0280457988
 20
-7.3055081107
 30
0.0
 10
15.072143562
 20
-7.3808341822
 30
0.0
 10
15.0903397
 20
-7.4443349352
 30
0.0
 10
15.0985982515
 20
-7.4805967217
 30
0.0
  0
SPLINE
  5
632
100
AcDbEntity
  8
ASSI
100
AcDbSpline
 62
7
  6
CONTINUOUS
 70
0
 71
3
 72
24
 73
20
 74
0
 42
0.0000001
 43
0.0000001
 44
0.0000000001
 40
0.0
 40
0.0
 40
0.0
 40
0.0
 40
0.0833475672
 40
0.1597622098
 40
0.236329488
 40
0.2768116137
 40
0.3203755295
 40
0.3785350077
 40
0.4327862091
 40
0.4859628529
 40
0.541064692
 40
0.6098794543
 40
0.6881312972
 40
0.7786479648
 40
0.8291288793
 40
0.8833040041
 40
0.9316714796
 40
0.9766262134
 40
1.0
 40
1.0
 40
1.0
 40
1.0
 10
15.3050052886
 20
-7.459956018
 30
0.0
 10
15.2971837478
 20
-7.3991161018
 30
0.0
 10
15.2666790779
 20
-7.2827534052
 30
0.0
 10
15.1587872934
 20
-7.1404942026
 30
0.0
 10
15.0314908097
 20
-7.0681914972
 30
0.0
 10
14.9159318644
 20
-7.0409870442
 30
0.0
 10
14.8111489271
 20
-7.0339828295
 30
0.0
 10
14.6960556881
 20
-7.0440231412
 30
0.0
 10
14.5787494948
 20
-7.0809979439
 30
0.0
 10
14.4757866998
 20
-7.1441326268
 30
0.0
 10
14.3827506599
 20
-7.2370257132
 30
0.0
 10
14.3051999296
 20
-7.3657876307
 30
0.0
 10
14.2496052045
 20
-7.5326393405
 30
0.0
 10
14.223486094
 20
-7.6923945234
 30
0.0
 10
14.2127635862
 20
-7.8356773724
 30
0.0
 10
14.210208406
 20
-7.948316751
 30
0.0
 10
14.2125719214
 20
-8.0568873573
 30
0.0
 10
14.2190980218
 20
-8.1425564763
 30
0.0
 10
14.2253643485
 20
-8.1924952782
 30
0.0
 10
14.2278357793
 20
-8.2095314689
 30
0.0
  0
SPLINE
  5
633
100
AcDbEntity
  8
ASSI
100
AcDbSpline
 62
7
  6
CONTINUOUS
 70
0
 71
3
 72
11
 73
7
 74
0
 42
0.0000001
 43
0.0000001
 44
0.0000000001
 40
0.0
 40
0.0
 40
0.0
 40
0.0
 40
0.3426107936
 40
0.6044566108
 40
0.8143265955
 40
1.0
 40
1.0
 40
1.0
 40
1.0
 10
14.417455029
 20
-7.8716412865
 30
0.0
 10
14.4181231137
 20
-7.7961965596
 30
0.0
 10
14.4247678282
 20
-7.6628456854
 30
0.0
 10
14.4663600254
 20
-7.4866981717
 30
0.0
 10
14.5354996852
 20
-7.3579054755
 30
0.0
 10
14.5956067857
 20
-7.2929405223
 30
0.0
 10
14.6280547731
 20
-7.2680618822
 30
0.0
  0
SPLINE
  5
634
100
AcDbEntity
  8
ASSI
100
AcDbSpline
 62
7
  6
CONTINUOUS
 70
0
 71
3
 72
17
 73
13
 74
0
 42
0.0000001
 43
0.0000001
 44
0.0000000001
 40
0.0
 40
0.0
 40
0.0
 40
0.0
 40
0.0844580526
 40
0.1939587312
 40
0.3316668575
 40
0.4116386184
 40
0.4991820578
 40
0.5872976204
 40
0.6677250704
 40
0.8060064882
 40
0.915671004
 40
1.0
 40
1.0
 40
1.0
 40
1.0
 10
13.7086565391
 20
-7.3504635178
 30
0.0
 10
13.7276211039
 20
-7.3766986077
 30
0.0
 10
13.7592012468
 20
-7.4453001554
 30
0.0
 10
13.7882937174
 20
-7.5693350519
 30
0.0
 10
13.8018850653
 20
-7.6942705563
 30
0.0
 10
13.8076522828
 20
-7.8111198192
 30
0.0
 10
13.8090284979
 20
-7.9091104843
 30
0.0
 10
13.8076417058
 20
-8.0072762516
 30
0.0
 10
13.8018050464
 20
-8.1247360637
 30
0.0
 10
13.7880579927
 20
-8.2501226334
 30
0.0
 10
13.758625553
 20
-8.3743211817
 30
0.0
 10
13.7265927977
 20
-8.4427880126
 30
0.0
 10
13.7073664755
 20
-8.4687703726
 30
0.0
  0
SPLINE
  5
635
100
AcDbEntity
  8
ASSI
100
AcDbSpline
 62
7
  6
CONTINUOUS
 70
0
 71
3
 72
13
 73
9
 74
0
 42
0.0000001
 43
0.0000001
 44
0.0000000001
 40
0.0
 40
0.0
 40
0.0
 40
0.0
 40
0.2591153923
 40
0.3783559876
 40
0.5002774492
 40
0.6221918058
 40
0.741366948
 40
1.0
 40
1.0
 40
1.0
 40
1.0
 10
13.7073664755
 20
-8.4687703726
 30
0.0
 10
13.6771061854
 20
-8.509663984
 30
0.0
 10
13.6216240058
 20
-8.5638413307
 30
0.0
 10
13.5291880401
 20
-8.6001203953
 30
0.0
 10
13.4576632521
 20
-8.6082371273
 30
0.0
 10
13.3861545306
 20
-8.6001425505
 30
0.0
 10
13.2937729845
 20
-8.5640524875
 30
0.0
 10
13.2382429036
 20
-8.5100924044
 30
0.0
 10
13.2079582162
 20
-8.4693347754
 30
0.0
  0
SPLINE
  5
636
100
AcDbEntity
  8
ASSI
100
AcDbSpline
 62
7
  6
CONTINUOUS
 70
0
 71
3
 72
9
 73
5
 74
0
 42
0.0000001
 43
0.0000001
 44
0.0000000001
 40
0.0
 40
0.0
 40
0.0
 40
0.0
 40
0.3855604367
 40
1.0
 40
1.0
 40
1.0
 40
1.0
 10
13.2079582162
 20
-8.4693347754
 30
0.0
 10
13.1639023919
 20
-8.4100437247
 30
0.0
 10
13.1146376038
 20
-8.2160626885
 30
0.0
 10
13.1067703433
 20
-8.0266078134
 30
0.0
 10
13.1067703433
 20
-7.908891245
 30
0.0
  0
SPLINE
  5
637
100
AcDbEntity
  8
ASSI
100
AcDbSpline
 62
7
  6
CONTINUOUS
 70
0
 71
3
 72
16
 73
12
 74
0
 42
0.0000001
 43
0.0000001
 44
0.0000000001
 40
0.0
 40
0.0
 40
0.0
 40
0.0
 40
0.3032052898
 40
0.5052272749
 40
0.5672959251
 40
0.6254877337
 40
0.6832430076
 40
0.7440761608
 40
0.8073340128
 40
0.8685784542
 40
1.0
 40
1.0
 40
1.0
 40
1.0
 10
13.1067703433
 20
-7.908891245
 30
0.0
 10
13.1067703433
 20
-7.7907989987
 30
0.0
 10
13.1164589415
 20
-7.5959152801
 30
0.0
 10
13.1759194218
 20
-7.3732728048
 30
0.0
 10
13.2618958021
 20
-7.2798018275
 30
0.0
 10
13.3195574138
 20
-7.2401976271
 30
0.0
 10
13.3851729721
 20
-7.2168744929
 30
0.0
 10
13.4561780069
 20
-7.2097326895
 30
0.0
 10
13.5286222198
 20
-7.2176155167
 30
0.0
 10
13.6226135381
 20
-7.2540104381
 30
0.0
 10
13.6786699576
 20
-7.3089808541
 30
0.0
 10
13.7086565391
 20
-7.3504635178
 30
0.0
  0
SPLINE
  5
638
100
AcDbEntity
  8
ASSI
100
AcDbSpline
 62
7
  6
CONTINUOUS
 70
0
 71
3
 72
14
 73
10
 74
0
 42
0.0000001
 43
0.0000001
 44
0.0000000001
 40
0.0
 40
0.0
 40
0.0
 40
0.0
 40
0.1531755028
 40
0.3079996746
 40
0.4958433067
 40
0.5877948367
 40
0.6835810267
 40
0.8209533056
 40
1.0
 40
1.0
 40
1.0
 40
1.0
 10
11.986044698
 20
-7.2680618822
 30
0.0
 10
12.0122415443
 20
-7.2500059132
 30
0.0
 10
12.0707659967
 20
-7.2211438958
 30
0.0
 10
12.1739653456
 20
-7.2066892799
 30
0.0
 10
12.2656830034
 20
-7.222697162
 30
0.0
 10
12.3338371673
 20
-7.2615851273
 30
0.0
 10
12.3860357237
 20
-7.3055081107
 30
0.0
 10
12.4301334869
 20
-7.3808341822
 30
0.0
 10
12.4483296249
 20
-7.4443349352
 30
0.0
 10
12.4565881764
 20
-7.4805967217
 30
0.0
  0
SPLINE
  5
639
100
AcDbEntity
  8
ASSI
100
AcDbSpline
 62
7
  6
CONTINUOUS
 70
0
 71
3
 72
24
 73
20
 74
0
 42
0.0000001
 43
0.0000001
 44
0.0000000001
 40
0.0
 40
0.0
 40
0.0
 40
0.0
 40
0.0833475672
 40
0.1597622098
 40
0.236329488
 40
0.2768116137
 40
0.3203755295
 40
0.3785350077
 40
0.4327862091
 40
0.4859628529
 40
0.541064692
 40
0.6098794543
 40
0.6881312972
 40
0.7786479648
 40
0.8291288793
 40
0.8833040041
 40
0.9316714796
 40
0.9766262134
 40
1.0
 40
1.0
 40
1.0
 40
1.0
 10
12.6629952135
 20
-7.459956018
 30
0.0
 10
12.6551736727
 20
-7.3991161018
 30
0.0
 10
12.6246690028
 20
-7.2827534052
 30
0.0
 10
12.5167772183
 20
-7.1404942026
 30
0.0
 10
12.3894807346
 20
-7.0681914972
 30
0.0
 10
12.2739217893
 20
-7.0409870442
 30
0.0
 10
12.169138852
 20
-7.0339828295
 30
0.0
 10
12.054045613
 20
-7.0440231412
 30
0.0
 10
11.9367394197
 20
-7.0809979439
 30
0.0
 10
11.8337766247
 20
-7.1441326268
 30
0.0
 10
11.7407405848
 20
-7.2370257132
 30
0.0
 10
11.6631898545
 20
-7.3657876307
 30
0.0
 10
11.6075951294
 20
-7.5326393405
 30
0.0
 10
11.5814760189
 20
-7.6923945234
 30
0.0
 10
11.5707535111
 20
-7.8356773724
 30
0.0
 10
11.5681983309
 20
-7.948316751
 30
0.0
 10
11.5705618463
 20
-8.0568873573
 30
0.0
 10
11.5770879467
 20
-8.1425564763
 30
0.0
 10
11.5833542734
 20
-8.1924952782
 30
0.0
 10
11.5858257042
 20
-8.2095314689
 30
0.0
  0
SPLINE
  5
63A
100
AcDbEntity
  8
ASSI
100
AcDbSpline
 62
7
  6
CONTINUOUS
 70
0
 71
3
 72
11
 73
7
 74
0
 42
0.0000001
 43
0.0000001
 44
0.0000000001
 40
0.0
 40
0.0
 40
0.0
 40
0.0
 40
0.3426107936
 40
0.6044566108
 40
0.8143265955
 40
1.0
 40
1.0
 40
1.0
 40
1.0
 10
11.7754449539
 20
-7.8716412865
 30
0.0
 10
11.7761130386
 20
-7.7961965596
 30
0.0
 10
11.7827577531
 20
-7.6628456854
 30
0.0
 10
11.8243499503
 20
-7.4866981717
 30
0.0
 10
11.8934896101
 20
-7.3579054755
 30
0.0
 10
11.9535967106
 20
-7.2929405223
 30
0.0
 10
11.986044698
 20
-7.2680618822
 30
0.0
  0
SPLINE
  5
63B
100
AcDbEntity
  8
ASSI
100
AcDbSpline
 62
7
  6
CONTINUOUS
 70
0
 71
3
 72
22
 73
18
 74
0
 42
0.0000001
 43
0.0000001
 44
0.0000000001
 40
0.0
 40
0.0
 40
0.0
 40
0.0
 40
0.1137592264
 40
0.2236350148
 40
0.2798055405
 40
0.3358184831
 40
0.3937825974
 40
0.4556073046
 40
0.5241613605
 40
0.5885246106
 40
0.6510591279
 40
0.7143321256
 40
0.7766592771
 40
0.8362492433
 40
0.8957298915
 40
0.957742988
 40
1.0
 40
1.0
 40
1.0
 40
1.0
 10
10.2583532311
 20
-8.3062248702
 30
0.0
 10
10.2648978513
 20
-8.3718723992
 30
0.0
 10
10.2978894353
 20
-8.5009252139
 30
0.0
 10
10.4001959963
 20
-8.6325287326
 30
0.0
 10
10.5043454178
 20
-8.7093104612
 30
0.0
 10
10.5943895139
 20
-8.7513060391
 30
0.0
 10
10.6938924167
 20
-8.7760435227
 30
0.0
 10
10.803268065
 20
-8.7837196014
 30
0.0
 10
10.9163953094
 20
-8.775154206
 30
0.0
 10
11.0266803742
 20
-8.7460529141
 30
0.0
 10
11.1261834987
 20
-8.6966403902
 30
0.0
 10
11.2122986445
 20
-8.6285344071
 30
0.0
 10
11.2835528922
 20
-8.5473217843
 30
0.0
 10
11.3357755231
 20
-8.4550701908
 30
0.0
 10
11.3667031845
 20
-8.3538518411
 30
0.0
 10
11.3751099698
 20
-8.258662263
 30
0.0
 10
11.3714924713
 20
-8.198126557
 30
0.0
 10
11.3682394142
 20
-8.1738253311
 30
0.0
  0
SPLINE
  5
63C
100
AcDbEntity
  8
ASSI
100
AcDbSpline
 62
7
  6
CONTINUOUS
 70
0
 71
3
 72
17
 73
13
 74
0
 42
0.0000001
 43
0.0000001
 44
0.0000000001
 40
0.0
 40
0.0
 40
0.0
 40
0.0
 40
0.1602224239
 40
0.308545572
 40
0.4699885088
 40
0.5543116309
 40
0.6423107428
 40
0.7338415241
 40
0.8279821808
 40
0.8959394409
 40
0.9597923919
 40
1.0
 40
1.0
 40
1.0
 40
1.0
 10
11.0459251313
 20
-7.8274572359
 30
0.0
 10
11.1146077276
 20
-7.7956473459
 30
0.0
 10
11.2385004474
 20
-7.7010993871
 30
0.0
 10
11.3011900325
 20
-7.4743696927
 30
0.0
 10
11.2462616817
 20
-7.2863716762
 30
0.0
 10
11.1460997167
 20
-7.1622192289
 30
0.0
 10
11.041466378
 20
-7.0915391778
 30
0.0
 10
10.9190921596
 20
-7.0461711604
 30
0.0
 10
10.7988112412
 20
-7.033549482
 30
0.0
 10
10.6919496473
 20
-7.0412128701
 30
0.0
 10
10.6126512978
 20
-7.0604555805
 30
0.0
 10
10.5669179622
 20
-7.0794453172
 30
0.0
 10
10.5497507758
 20
-7.087845722
 30
0.0
  0
SPLINE
  5
63D
100
AcDbEntity
  8
ASSI
100
AcDbSpline
 62
7
  6
CONTINUOUS
 70
0
 71
3
 72
16
 73
12
 74
0
 42
0.0000001
 43
0.0000001
 44
0.0000000001
 40
0.0
 40
0.0
 40
0.0
 40
0.0
 40
0.2754465559
 40
0.3950325473
 40
0.4565247543
 40
0.5218606479
 40
0.5875789382
 40
0.6488150883
 40
0.7664059399
 40
0.8813245124
 40
1.0
 40
1.0
 40
1.0
 40
1.0
 10
10.4854009719
 20
-7.5115577773
 30
0.0
 10
10.498063279
 20
-7.4299563386
 30
0.0
 10
10.5434671892
 20
-7.3064177544
 30
0.0
 10
10.6644802775
 20
-7.2335661991
 30
0.0
 10
10.7363256977
 20
-7.2150784626
 30
0.0
 10
10.7941637684
 20
-7.2108177126
 30
0.0
 10
10.8518967946
 20
-7.2150718321
 30
0.0
 10
10.9233085502
 20
-7.2334443783
 30
0.0
 10
10.999917543
 20
-7.2819004211
 30
0.0
 10
11.0619749666
 20
-7.3707309093
 30
0.0
 10
11.0736610277
 20
-7.4421155382
 30
0.0
 10
11.0736610277
 20
-7.4776940785
 30
0.0
  0
SPLINE
  5
63E
100
AcDbEntity
  8
ASSI
100
AcDbSpline
 62
7
  6
CONTINUOUS
 70
0
 71
3
 72
11
 73
7
 74
0
 42
0.0000001
 43
0.0000001
 44
0.0000000001
 40
0.0
 40
0.0
 40
0.0
 40
0.0
 40
0.2589066357
 40
0.4973886641
 40
0.7458566114
 40
1.0
 40
1.0
 40
1.0
 40
1.0
 10
11.0736610277
 20
-7.4776940785
 30
0.0
 10
11.0736610277
 20
-7.5206026617
 30
0.0
 10
11.060412335
 20
-7.606549067
 30
0.0
 10
10.9710763828
 20
-7.7001025278
 30
0.0
 10
10.8569818064
 20
-7.7501220337
 30
0.0
 10
10.773273649
 20
-7.7616649337
 30
0.0
 10
10.7311544785
 20
-7.7616649337
 30
0.0
  0
SPLINE
  5
63F
100
AcDbEntity
  8
ASSI
100
AcDbSpline
 62
7
  6
CONTINUOUS
 70
0
 71
3
 72
8
 73
4
 74
0
 42
0.0000001
 43
0.0000001
 44
0.0000000001
 40
0.0
 40
0.0
 40
0.0
 40
0.0
 40
1.0
 40
1.0
 40
1.0
 40
1.0
 10
10.7311544785
 20
-7.7616649337
 30
0.0
 10
10.7197842061
 20
-7.7616649337
 30
0.0
 10
10.7084281703
 20
-7.7605204413
 30
0.0
 10
10.6971295217
 20
-7.7592462218
 30
0.0
  0
SPLINE
  5
640
100
AcDbEntity
  8
ASSI
100
AcDbSpline
 62
7
  6
CONTINUOUS
 70
0
 71
3
 72
9
 73
5
 74
0
 42
0.0000001
 43
0.0000001
 44
0.0000000001
 40
0.0
 40
0.0
 40
0.0
 40
0.0
 40
0.290916541
 40
1.0
 40
1.0
 40
1.0
 40
1.0
 10
10.6732636588
 20
-7.9450125552
 30
0.0
 10
10.6876716262
 20
-7.9413208328
 30
0.0
 10
10.7373917266
 20
-7.9296510168
 30
0.0
 10
10.7884300483
 20
-7.9217917242
 30
0.0
 10
10.824682677
 20
-7.9217917242
 30
0.0
  0
SPLINE
  5
641
100
AcDbEntity
  8
ASSI
100
AcDbSpline
 62
7
  6
CONTINUOUS
 70
0
 71
3
 72
21
 73
17
 74
0
 42
0.0000001
 43
0.0000001
 44
0.0000000001
 40
0.0
 40
0.0
 40
0.0
 40
0.0
 40
0.1235509787
 40
0.2401218288
 40
0.3550519545
 40
0.4132531495
 40
0.4750326404
 40
0.5399713997
 40
0.6016442904
 40
0.6625458686
 40
0.7252627949
 40
0.7882363369
 40
0.8500313503
 40
0.9133375868
 40
0.9806639164
 40
1.0
 40
1.0
 40
1.0
 40
1.0
 10
10.824682677
 20
-7.9217917242
 30
0.0
 10
10.8705955808
 20
-7.9217917242
 30
0.0
 10
10.9614069496
 20
-7.9351395278
 30
0.0
 10
11.0755371224
 20
-8.0081883497
 30
0.0
 10
11.1388917101
 20
-8.0993336616
 30
0.0
 10
11.162918329
 20
-8.1838889491
 30
0.0
 10
11.1684694712
 20
-8.252736483
 30
0.0
 10
11.162675872
 20
-8.3228700432
 30
0.0
 10
11.1434780282
 20
-8.3903675018
 30
0.0
 10
11.1109364092
 20
-8.4516303342
 30
0.0
 10
11.0663422674
 20
-8.5052821701
 30
0.0
 10
11.0123625345
 20
-8.5500473245
 30
0.0
 10
10.9498815324
 20
-8.5825586197
 30
0.0
 10
10.8804756251
 20
-8.6016978211
 30
0.0
 10
10.8246480714
 20
-8.6061165348
 30
0.0
 10
10.7923870755
 20
-8.605330602
 30
0.0
 10
10.7852004993
 20
-8.6049730201
 30
0.0
  0
SPLINE
  5
642
100
AcDbEntity
  8
ASSI
100
AcDbSpline
 62
7
  6
CONTINUOUS
 70
0
 71
3
 72
11
 73
7
 74
0
 42
0.0000001
 43
0.0000001
 44
0.0000000001
 40
0.0
 40
0.0
 40
0.0
 40
0.0
 40
0.2023283395
 40
0.445343536
 40
0.7157738534
 40
1.0
 40
1.0
 40
1.0
 40
1.0
 10
7.6071516099
 20
-7.0368215919
 30
0.0
 10
7.5871640636
 20
-7.0770312037
 30
0.0
 10
7.5303682749
 20
-7.1591345515
 30
0.0
 10
7.4178716882
 20
-7.271960526
 30
0.0
 10
7.2763650699
 20
-7.3793797993
 30
0.0
 10
7.1678059336
 20
-7.4384379695
 30
0.0
 10
7.1106459151
 20
-7.4651161152
 30
0.0
  0
SPLINE
  5
643
100
AcDbEntity
  8
ASSI
100
AcDbSpline
 62
7
  6
CONTINUOUS
 70
0
 71
3
 72
11
 73
7
 74
0
 42
0.0000001
 43
0.0000001
 44
0.0000000001
 40
0.0
 40
0.0
 40
0.0
 40
0.0
 40
0.2308286057
 40
0.5005232368
 40
0.769747873
 40
1.0
 40
1.0
 40
1.0
 40
1.0
 10
7.1106459151
 20
-7.6676529613
 30
0.0
 10
7.1464261273
 20
-7.6545569762
 30
0.0
 10
7.2221999899
 20
-7.6212080297
 30
0.0
 10
7.3340136641
 20
-7.5606947499
 30
0.0
 10
7.4415144096
 20
-7.4928874031
 30
0.0
 10
7.5061298
 20
-7.4412024769
 30
0.0
 10
7.5337803412
 20
-7.4151269355
 30
0.0
  0
SPLINE
  5
644
100
AcDbEntity
  8
ASSI
100
AcDbSpline
 62
7
  6
CONTINUOUS
 70
0
 71
3
 72
12
 73
8
 74
0
 42
0.0000001
 43
0.0000001
 44
0.0000000001
 40
0.0
 40
0.0
 40
0.0
 40
0.0
 40
0.1914546415
 40
0.4289323167
 40
0.5716992375
 40
0.7144661583
 40
1.0
 40
1.0
 40
1.0
 40
1.0
 10
5.381987058
 20
-7.2225879253
 30
0.0
 10
5.3977395327
 20
-7.2765004464
 30
0.0
 10
5.4366696989
 20
-7.3961895719
 30
0.0
 10
5.4915757697
 20
-7.554719865
 30
0.0
 10
5.5486269993
 20
-7.6971739858
 30
0.0
 10
5.6094485165
 20
-7.8532729525
 30
0.0
 10
5.6553958057
 20
-7.9702221557
 30
0.0
 10
5.6859537426
 20
-8.0482160738
 30
0.0
  0
SPLINE
  5
645
100
AcDbEntity
  8
ASSI
100
AcDbSpline
 62
7
  6
CONTINUOUS
 70
0
 71
3
 72
8
 73
4
 74
0
 42
0.0000001
 43
0.0000001
 44
0.0000000001
 40
0.0
 40
0.0
 40
0.0
 40
0.0
 40
1.0
 40
1.0
 40
1.0
 40
1.0
 10
4.2564236738
 20
-7.243228629
 30
0.0
 10
4.1942361878
 20
-7.3083886765
 30
0.0
 10
4.1356151023
 20
-7.3769965265
 30
0.0
 10
4.0792038547
 20
-7.4472167968
 30
0.0
  0
SPLINE
  5
646
100
AcDbEntity
  8
ASSI
100
AcDbSpline
 62
7
  6
CONTINUOUS
 70
0
 71
3
 72
9
 73
5
 74
0
 42
0.0000001
 43
0.0000001
 44
0.0000000001
 40
0.0
 40
0.0
 40
0.0
 40
0.0
 40
0.0986341094
 40
1.0
 40
1.0
 40
1.0
 40
1.0
 10
3.4667555776
 20
-8.5539133147
 30
0.0
 10
3.5013717611
 20
-8.5108043171
 30
0.0
 10
3.8523048126
 20
-8.0737265454
 30
0.0
 10
4.2036931088
 20
-7.6370145267
 30
0.0
 10
4.5202375993
 20
-7.243228629
 30
0.0
  0
SPLINE
  5
647
100
AcDbEntity
  8
ASSI
100
AcDbSpline
 62
7
  6
CONTINUOUS
 70
0
 71
3
 72
17
 73
13
 74
0
 42
0.0000001
 43
0.0000001
 44
0.0000000001
 40
0.0
 40
0.0
 40
0.0
 40
0.0
 40
0.1847804661
 40
0.2686869998
 40
0.3120187387
 40
0.3579035288
 40
0.5086373307
 40
0.5855715364
 40
0.6670908086
 40
0.7580428057
 40
0.8598705488
 40
1.0
 40
1.0
 40
1.0
 40
1.0
 10
-0.4438516434
 20
-8.1523869826
 30
0.0
 10
-0.47000207
 20
-8.2727335023
 30
0.0
 10
-0.5542090257
 20
-8.4516971356
 30
0.0
 10
-0.7417108687
 20
-8.5538922357
 30
0.0
 10
-0.8544079216
 20
-8.5806851511
 30
0.0
 10
-1.0141592286
 20
-8.5924102075
 30
0.0
 10
-1.2012839573
 20
-8.5441482533
 30
0.0
 10
-1.3612483992
 20
-8.4083150076
 30
0.0
 10
-1.4420993727
 20
-8.2596217068
 30
0.0
 10
-1.4873855184
 20
-8.0813089644
 30
0.0
 10
-1.5038187223
 20
-7.8594982965
 30
0.0
 10
-1.4852706753
 20
-7.6965081227
 30
0.0
 10
-1.45922448
 20
-7.6064934094
 30
0.0
  0
SPLINE
  5
648
100
AcDbEntity
  8
ASSI
100
AcDbSpline
 62
7
  6
CONTINUOUS
 70
0
 71
3
 72
9
 73
5
 74
0
 42
0.0000001
 43
0.0000001
 44
0.0000000001
 40
0.0
 40
0.0
 40
0.0
 40
0.0
 40
0.4786249203
 40
1.0
 40
1.0
 40
1.0
 40
1.0
 10
-0.9356808574
 20
-7.2122675735
 30
0.0
 10
-0.8380138286
 20
-7.2122675735
 30
0.0
 10
-0.6189441111
 20
-7.2656277531
 30
0.0
 10
-0.5171578822
 20
-7.4655734058
 30
0.0
 10
-0.4851330508
 20
-7.5670295701
 30
0.0
  0
SPLINE
  5
649
100
AcDbEntity
  8
ASSI
100
AcDbSpline
 62
7
  6
CONTINUOUS
 70
0
 71
3
 72
24
 73
20
 74
0
 42
0.0000001
 43
0.0000001
 44
0.0000000001
 40
0.0
 40
0.0
 40
0.0
 40
0.0
 40
0.1694247434
 40
0.2528781495
 40
0.2969368749
 40
0.3439632781
 40
0.3862216275
 40
0.4272856526
 40
0.4678132511
 40
0.5084883584
 40
0.5886545856
 40
0.6707598759
 40
0.7587544239
 40
0.8057695906
 40
0.855564895
 40
0.9019521543
 40
0.947244765
 40
0.9918916356
 40
1.0
 40
1.0
 40
1.0
 40
1.0
 10
-0.25808531
 20
-7.514782779
 30
0.0
 10
-0.2985313182
 20
-7.3738925261
 30
0.0
 10
-0.4226780456
 20
-7.1690818932
 30
0.0
 10
-0.657911242
 20
-7.0528607955
 30
0.0
 10
-0.8060405556
 20
-7.0210841681
 30
0.0
 10
-0.9215724189
 20
-7.0138890903
 30
0.0
 10
-1.0344014624
 20
-7.020270389
 30
0.0
 10
-1.1401039883
 20
-7.0395793789
 30
0.0
 10
-1.2410815085
 20
-7.0721208783
 30
0.0
 10
-1.3677431323
 20
-7.1315082909
 30
0.0
 10
-1.5099735918
 20
-7.2395267766
 30
0.0
 10
-1.6340785291
 20
-7.4208602082
 30
0.0
 10
-1.6954618726
 20
-7.6006195161
 30
0.0
 10
-1.7197126391
 20
-7.7589119977
 30
0.0
 10
-1.7254796276
 20
-7.8828890547
 30
0.0
 10
-1.7199732793
 20
-8.0053309505
 30
0.0
 10
-1.703112824
 20
-8.1222700896
 30
0.0
 10
-1.6824186831
 20
-8.204697106
 30
0.0
 10
-1.6687201858
 20
-8.2482441902
 30
0.0
 10
-1.6665522067
 20
-8.2549168007
 30
0.0
  0
SPLINE
  5
64A
100
AcDbEntity
  8
ASSI
100
AcDbSpline
 62
7
  6
CONTINUOUS
 70
0
 71
3
 72
11
 73
7
 74
0
 42
0.0000001
 43
0.0000001
 44
0.0000000001
 40
0.0
 40
0.0
 40
0.0
 40
0.0
 40
0.2525992429
 40
0.4888102636
 40
0.730558892
 40
1.0
 40
1.0
 40
1.0
 40
1.0
 10
-0.9224578623
 20
-8.7809610556
 30
0.0
 10
-0.8396429898
 20
-8.7809610556
 30
0.0
 10
-0.6775253073
 20
-8.7599938333
 30
0.0
 10
-0.4611685062
 20
-8.6450713505
 30
0.0
 10
-0.2986123021
 20
-8.4545027575
 30
0.0
 10
-0.2385896063
 20
-8.2949181919
 30
0.0
 10
-0.2168039026
 20
-8.2093102545
 30
0.0
  0
SPLINE
  5
64B
100
AcDbEntity
  8
ASSI
100
AcDbSpline
 62
7
  6
CONTINUOUS
 70
0
 71
3
 72
8
 73
4
 74
0
 42
0.0000001
 43
0.0000001
 44
0.0000000001
 40
0.0
 40
0.0
 40
0.0
 40
0.0
 40
1.0
 40
1.0
 40
1.0
 40
1.0
 10
-3.2767881491
 20
-8.5590734119
 30
0.0
 10
-3.3027732732
 20
-8.4652708567
 30
0.0
 10
-3.3331402735
 20
-8.3726453791
 30
0.0
 10
-3.3661236407
 20
-8.2810689437
 30
0.0
  0
SPLINE
  5
64C
100
AcDbEntity
  8
ASSI
100
AcDbSpline
 62
7
  6
CONTINUOUS
 70
0
 71
3
 72
12
 73
8
 74
0
 42
0.0000001
 43
0.0000001
 44
0.0000000001
 40
0.0
 40
0.0
 40
0.0
 40
0.0
 40
0.1914546415
 40
0.4289323167
 40
0.5716992375
 40
0.7144661583
 40
1.0
 40
1.0
 40
1.0
 40
1.0
 10
-8.4472844289
 20
-7.2225879253
 30
0.0
 10
-8.4315319541
 20
-7.2765004464
 30
0.0
 10
-8.3926017879
 20
-7.3961895719
 30
0.0
 10
-8.3376957172
 20
-7.554719865
 30
0.0
 10
-8.2806444875
 20
-7.6971739858
 30
0.0
 10
-8.2198229703
 20
-7.8532729525
 30
0.0
 10
-8.1738756812
 20
-7.9702221557
 30
0.0
 10
-8.1433177443
 20
-8.0482160738
 30
0.0
  0
SPLINE
  5
64D
100
AcDbEntity
  8
ASSI
100
AcDbSpline
 62
7
  6
CONTINUOUS
 70
0
 71
3
 72
8
 73
4
 74
0
 42
0.0000001
 43
0.0000001
 44
0.0000000001
 40
0.0
 40
0.0
 40
0.0
 40
0.0
 40
1.0
 40
1.0
 40
1.0
 40
1.0
 10
-10.6558397261
 20
-8.5590734119
 30
0.0
 10
-10.6818248502
 20
-8.4652708567
 30
0.0
 10
-10.7121918504
 20
-8.3726453791
 30
0.0
 10
-10.7451752177
 20
-8.2810689437
 30
0.0
  0
SPLINE
  5
64E
100
AcDbEntity
  8
ASSI
100
AcDbSpline
 62
7
  6
CONTINUOUS
 70
0
 71
3
 72
12
 73
8
 74
0
 42
0.0000001
 43
0.0000001
 44
0.0000000001
 40
0.0
 40
0.0
 40
0.0
 40
0.0
 40
0.1914546415
 40
0.4289323167
 40
0.5716992375
 40
0.7144661583
 40
1.0
 40
1.0
 40
1.0
 40
1.0
 10
-12.9263171343
 20
-7.2225879253
 30
0.0
 10
-12.9105646596
 20
-7.2765004464
 30
0.0
 10
-12.8716344934
 20
-7.3961895719
 30
0.0
 10
-12.8167284226
 20
-7.554719865
 30
0.0
 10
-12.759677193
 20
-7.6971739858
 30
0.0
 10
-12.6988556758
 20
-7.8532729525
 30
0.0
 10
-12.6529083867
 20
-7.9702221557
 30
0.0
 10
-12.6223504497
 20
-8.0482160738
 30
0.0
  0
SPLINE
  5
64F
100
AcDbEntity
  8
ASSI
100
AcDbSpline
 62
7
  6
CONTINUOUS
 70
0
 71
3
 72
9
 73
5
 74
0
 42
0.0000001
 43
0.0000001
 44
0.0000000001
 40
0.0
 40
0.0
 40
0.0
 40
0.0
 40
0.8336714283
 40
1.0
 40
1.0
 40
1.0
 40
1.0
 10
-14.4293795723
 20
-7.243228629
 30
0.0
 10
-14.3725868119
 20
-7.243228629
 30
0.0
 10
-14.3040821039
 20
-7.2435323266
 30
0.0
 10
-14.2367986663
 20
-7.2553754149
 30
0.0
 10
-14.2258751784
 20
-7.2583865622
 30
0.0
  0
SPLINE
  5
650
100
AcDbEntity
  8
ASSI
100
AcDbSpline
 62
7
  6
CONTINUOUS
 70
0
 71
3
 72
15
 73
11
 74
0
 42
0.0000001
 43
0.0000001
 44
0.0000000001
 40
0.0
 40
0.0
 40
0.0
 40
0.0
 40
0.1831476441
 40
0.2825427925
 40
0.39002016
 40
0.4650484773
 40
0.5333382897
 40
0.6605327543
 40
0.8046292292
 40
1.0
 40
1.0
 40
1.0
 40
1.0
 10
-14.2258751784
 20
-7.2583865622
 30
0.0
 10
-14.1712082089
 20
-7.2739615193
 30
0.0
 10
-14.0939291536
 20
-7.3320432118
 30
0.0
 10
-14.0433020309
 20
-7.443720237
 30
0.0
 10
-14.0331884414
 20
-7.531848811
 30
0.0
 10
-14.0389736583
 20
-7.6097803691
 30
0.0
 10
-14.0602219331
 20
-7.6913363998
 30
0.0
 10
-14.1206723232
 20
-7.7836981071
 30
0.0
 10
-14.2580779391
 20
-7.8454782808
 30
0.0
 10
-14.3642285057
 20
-7.8521293885
 30
0.0
 10
-14.4248645069
 20
-7.8521293885
 30
0.0
  0
SPLINE
  5
651
100
AcDbEntity
  8
ASSI
100
AcDbSpline
 62
7
  6
CONTINUOUS
 70
0
 71
3
 72
9
 73
5
 74
0
 42
0.0000001
 43
0.0000001
 44
0.0000000001
 40
0.0
 40
0.0
 40
0.0
 40
0.0
 40
0.3152731366
 40
1.0
 40
1.0
 40
1.0
 40
1.0
 10
-14.4272833763
 20
-8.0482160738
 30
0.0
 10
-14.373299445
 20
-8.0482160738
 30
0.0
 10
-14.204906251
 20
-8.0408854439
 30
0.0
 10
-14.0212188842
 20
-7.986368271
 30
0.0
 10
-13.9427912419
 20
-7.899215925
 30
0.0
  0
SPLINE
  5
652
100
AcDbEntity
  8
ASSI
100
AcDbSpline
 62
7
  6
CONTINUOUS
 70
0
 71
3
 72
15
 73
11
 74
0
 42
0.0000001
 43
0.0000001
 44
0.0000000001
 40
0.0
 40
0.0
 40
0.0
 40
0.0
 40
0.1818234323
 40
0.2742230203
 40
0.3716340726
 40
0.4851660516
 40
0.5943000072
 40
0.6975375539
 40
0.7935178969
 40
1.0
 40
1.0
 40
1.0
 40
1.0
 10
-13.9427912419
 20
-7.899215925
 30
0.0
 10
-13.8996053253
 20
-7.8512257797
 30
0.0
 10
-13.847002928
 20
-7.7656022417
 30
0.0
 10
-13.8138743627
 20
-7.6372529508
 30
0.0
 10
-13.8054902411
 20
-7.5294035714
 30
0.0
 10
-13.8163640133
 20
-7.4153612867
 30
0.0
 10
-13.8545277813
 20
-7.3050432169
 30
0.0
 10
-13.9124201702
 20
-7.2109012497
 30
0.0
 10
-14.0185696159
 20
-7.110838387
 30
0.0
 10
-14.1255187017
 20
-7.0754439427
 30
0.0
 10
-14.1978167661
 20
-7.0632674247
 30
0.0
  0
SPLINE
  5
653
100
AcDbEntity
  8
ASSI
100
AcDbSpline
 62
7
  6
CONTINUOUS
 70
0
 71
3
 72
9
 73
5
 74
0
 42
0.0000001
 43
0.0000001
 44
0.0000000001
 40
0.0
 40
0.0
 40
0.0
 40
0.0
 40
0.1935112737
 40
1.0
 40
1.0
 40
1.0
 40
1.0
 10
-14.1978167661
 20
-7.0632674247
 30
0.0
 10
-14.2139110503
 20
-7.0602980094
 30
0.0
 10
-14.2977751205
 20
-7.0487872917
 30
0.0
 10
-14.3826190059
 20
-7.0471419438
 30
0.0
 10
-14.4508265658
 20
-7.0471419438
 30
0.0
  0
SPLINE
  5
654
100
AcDbEntity
  8
ASSI
100
AcDbSpline
 62
7
  6
CONTINUOUS
 70
0
 71
3
 72
12
 73
8
 74
0
 42
0.0000001
 43
0.0000001
 44
0.0000000001
 40
0.0
 40
0.0
 40
0.0
 40
0.0
 40
0.1606441131
 40
0.3160528741
 40
0.4695579901
 40
0.6257786262
 40
1.0
 40
1.0
 40
1.0
 40
1.0
 10
-16.7396872238
 20
-8.1927009998
 30
0.0
 10
-16.7381922308
 20
-8.2484272989
 30
0.0
 10
-16.7222162489
 20
-8.3584736667
 30
0.0
 10
-16.6539543905
 20
-8.508692371
 30
0.0
 10
-16.5473608905
 20
-8.6331796762
 30
0.0
 10
-16.3417996264
 20
-8.7587125465
 30
0.0
 10
-16.1509940638
 20
-8.7809610556
 30
0.0
 10
-16.0211326274
 20
-8.7809610556
 30
0.0
  0
SPLINE
  5
655
100
AcDbEntity
  8
ASSI
100
AcDbSpline
 62
7
  6
CONTINUOUS
 70
0
 71
3
 72
14
 73
10
 74
0
 42
0.0000001
 43
0.0000001
 44
0.0000000001
 40
0.0
 40
0.0
 40
0.0
 40
0.0
 40
0.2324140172
 40
0.3379986706
 40
0.4377481205
 40
0.6253413849
 40
0.7167588502
 40
0.8043408137
 40
1.0
 40
1.0
 40
1.0
 40
1.0
 10
-16.0211326274
 20
-8.7809610556
 30
0.0
 10
-15.9106075066
 20
-8.7809610556
 30
0.0
 10
-15.7458242786
 20
-8.7514533175
 30
0.0
 10
-15.5663006316
 20
-8.6413064278
 30
0.0
 10
-15.4410834325
 20
-8.4994321043
 30
0.0
 10
-15.3856125385
 20
-8.3162193134
 30
0.0
 10
-15.4089873049
 20
-8.1414786465
 30
0.0
 10
-15.4844493303
 20
-7.9766217368
 30
0.0
 10
-15.6024650903
 20
-7.8934273791
 30
0.0
 10
-15.6868500766
 20
-7.8542255845
 30
0.0
  0
SPLINE
  5
656
100
AcDbEntity
  8
ASSI
100
AcDbSpline
 62
7
  6
CONTINUOUS
 70
0
 71
3
 72
9
 73
5
 74
0
 42
0.0000001
 43
0.0000001
 44
0.0000000001
 40
0.0
 40
0.0
 40
0.0
 40
0.0
 40
0.1708537376
 40
1.0
 40
1.0
 40
1.0
 40
1.0
 10
-15.6868500766
 20
-7.8542255845
 30
0.0
 10
-15.7067917376
 20
-7.8451094099
 30
0.0
 10
-15.8269638675
 20
-7.7995379749
 30
0.0
 10
-15.9521279601
 20
-7.7693682502
 30
0.0
 10
-16.0557219871
 20
-7.745055679
 30
0.0
  0
SPLINE
  5
657
100
AcDbEntity
  8
ASSI
100
AcDbSpline
 62
7
  6
CONTINUOUS
 70
0
 71
3
 72
9
 73
5
 74
0
 42
0.0000001
 43
0.0000001
 44
0.0000000001
 40
0.0
 40
0.0
 40
0.0
 40
0.0
 40
0.6350560901
 40
1.0
 40
1.0
 40
1.0
 40
1.0
 10
-16.0557219871
 20
-7.745055679
 30
0.0
 10
-16.1287304091
 20
-7.7279212697
 30
0.0
 10
-16.2409928032
 20
-7.697070808
 30
0.0
 10
-16.3549153074
 20
-7.6521245449
 30
0.0
 10
-16.3862151334
 20
-7.6225015204
 30
0.0
  0
SPLINE
  5
658
100
AcDbEntity
  8
ASSI
100
AcDbSpline
 62
7
  6
CONTINUOUS
 70
0
 71
3
 72
13
 73
9
 74
0
 42
0.0000001
 43
0.0000001
 44
0.0000000001
 40
0.0
 40
0.0
 40
0.0
 40
0.0
 40
0.1223010007
 40
0.2481832321
 40
0.3968182834
 40
0.5546662969
 40
0.7464665216
 40
1.0
 40
1.0
 40
1.0
 40
1.0
 10
-16.3862151334
 20
-7.6225015204
 30
0.0
 10
-16.4066123836
 20
-7.6035830925
 30
0.0
 10
-16.4410459812
 20
-7.5561626407
 30
0.0
 10
-16.4568774502
 20
-7.464837479
 30
0.0
 10
-16.4347862498
 20
-7.3656401362
 30
0.0
 10
-16.3590266649
 20
-7.2755934773
 30
0.0
 10
-16.2299086868
 20
-7.2187930364
 30
0.0
 10
-16.1275034873
 20
-7.2122675735
 30
0.0
 10
-16.0698317435
 20
-7.2122675735
 30
0.0
  0
SPLINE
  5
659
100
AcDbEntity
  8
ASSI
100
AcDbSpline
 62
7
  6
CONTINUOUS
 70
0
 71
3
 72
9
 73
5
 74
0
 42
0.0000001
 43
0.0000001
 44
0.0000000001
 40
0.0
 40
0.0
 40
0.0
 40
0.0
 40
0.5306823676
 40
1.0
 40
1.0
 40
1.0
 40
1.0
 10
-16.0698317435
 20
-7.2122675735
 30
0.0
 10
-15.9698852658
 20
-7.2122675735
 30
0.0
 10
-15.757176949
 20
-7.2434261311
 30
0.0
 10
-15.6757774952
 20
-7.4443111686
 30
0.0
 10
-15.6663706308
 20
-7.532198481
 30
0.0
  0
SPLINE
  5
65A
100
AcDbEntity
  8
ASSI
100
AcDbSpline
 62
7
  6
CONTINUOUS
 70
0
 71
3
 72
19
 73
15
 74
0
 42
0.0000001
 43
0.0000001
 44
0.0000000001
 40
0.0
 40
0.0
 40
0.0
 40
0.0
 40
0.1557589079
 40
0.2338180018
 40
0.3163983882
 40
0.4068009525
 40
0.4552647948
 40
0.506462334
 40
0.5981723962
 40
0.6843223624
 40
0.7640103509
 40
0.8385548042
 40
0.9794673419
 40
1.0
 40
1.0
 40
1.0
 40
1.0
 10
-15.43932289
 20
-7.5218781292
 30
0.0
 10
-15.4429498435
 20
-7.4287851737
 30
0.0
 10
-15.4850411877
 20
-7.2856519386
 30
0.0
 10
-15.6146480222
 20
-7.144031067
 30
0.0
 10
-15.7472157086
 20
-7.0691324297
 30
0.0
 10
-15.8757198726
 20
-7.0330972677
 30
0.0
 10
-15.9885950518
 20
-7.0185300657
 30
0.0
 10
-16.1030664629
 20
-7.0138570713
 30
0.0
 10
-16.2404404796
 20
-7.0249302147
 30
0.0
 10
-16.3894728779
 20
-7.0676367582
 30
0.0
 10
-16.5169737361
 20
-7.1384698275
 30
0.0
 10
-16.6374881458
 20
-7.2709498066
 30
0.0
 10
-16.6812096048
 20
-7.4149894366
 30
0.0
 10
-16.6773232356
 20
-7.512091649
 30
0.0
 10
-16.6762733923
 20
-7.5243758677
 30
0.0
  0
SPLINE
  5
65B
100
AcDbEntity
  8
ASSI
100
AcDbSpline
 62
7
  6
CONTINUOUS
 70
0
 71
3
 72
9
 73
5
 74
0
 42
0.0000001
 43
0.0000001
 44
0.0000000001
 40
0.0
 40
0.0
 40
0.0
 40
0.0
 40
0.1806469784
 40
1.0
 40
1.0
 40
1.0
 40
1.0
 10
-16.4313665743
 20
-7.8595470971
 30
0.0
 10
-16.4131245478
 20
-7.8690820119
 30
0.0
 10
-16.3084969415
 20
-7.9147345595
 30
0.0
 10
-16.1977560026
 20
-7.9439797232
 30
0.0
 10
-16.1071624884
 20
-7.966540099
 30
0.0
  0
SPLINE
  5
65C
100
AcDbEntity
  8
ASSI
100
AcDbSpline
 62
7
  6
CONTINUOUS
 70
0
 71
3
 72
9
 73
5
 74
0
 42
0.0000001
 43
0.0000001
 44
0.0000000001
 40
0.0
 40
0.0
 40
0.0
 40
0.0
 40
0.3500357027
 40
1.0
 40
1.0
 40
1.0
 40
1.0
 10
-16.1071624884
 20
-7.966540099
 30
0.0
 10
-16.0724332262
 20
-7.9751886784
 30
0.0
 10
-15.973612909
 20
-8.0009999928
 30
0.0
 10
-15.8737767634
 20
-8.0254514189
 30
0.0
 10
-15.812145463
 20
-8.0503122698
 30
0.0
  0
SPLINE
  5
65D
100
AcDbEntity
  8
ASSI
100
AcDbSpline
 62
7
  6
CONTINUOUS
 70
0
 71
3
 72
16
 73
12
 74
0
 42
0.0000001
 43
0.0000001
 44
0.0000000001
 40
0.0
 40
0.0
 40
0.0
 40
0.0
 40
0.1560294448
 40
0.2193219448
 40
0.2859725663
 40
0.4221624748
 40
0.5797286019
 40
0.6742455462
 40
0.7783530634
 40
0.8968143426
 40
1.0
 40
1.0
 40
1.0
 40
1.0
 10
-15.812145463
 20
-8.0503122698
 30
0.0
 10
-15.7572846303
 20
-8.0720014323
 30
0.0
 10
-15.6781198718
 20
-8.1157195976
 30
0.0
 10
-15.6314884844
 20
-8.2160338635
 30
0.0
 10
-15.6177365845
 20
-8.3166757299
 30
0.0
 10
-15.6609789853
 20
-8.4563340588
 30
0.0
 10
-15.7902070531
 20
-8.5438114202
 30
0.0
 10
-15.9203719023
 20
-8.5791869669
 30
0.0
 10
-16.0406070576
 20
-8.5882841311
 30
0.0
 10
-16.1641134402
 20
-8.5775753444
 30
0.0
 10
-16.2446411174
 20
-8.5522962554
 30
0.0
 10
-16.28053214
 20
-8.5366859953
 30
0.0
  0
SPLINE
  5
65E
100
AcDbEntity
  8
ASSI
100
AcDbSpline
 62
7
  6
CONTINUOUS
 70
0
 71
3
 72
14
 73
10
 74
0
 42
0.0000001
 43
0.0000001
 44
0.0000000001
 40
0.0
 40
0.0
 40
0.0
 40
0.0
 40
0.2665979089
 40
0.368288704
 40
0.4714152591
 40
0.6179308633
 40
0.694077139
 40
0.7749435498
 40
1.0
 40
1.0
 40
1.0
 40
1.0
 10
-18.2700017843
 20
-7.243228629
 30
0.0
 10
-18.1743110083
 20
-7.243228629
 30
0.0
 10
-18.0254211525
 20
-7.2640828
 30
0.0
 10
-17.9195918264
 20
-7.4051154512
 30
0.0
 10
-17.8954375399
 20
-7.5322430009
 30
0.0
 10
-17.9301380527
 20
-7.6514651075
 30
0.0
 10
-18.0054329608
 20
-7.7329393807
 30
0.0
 10
-18.129937656
 20
-7.7958628902
 30
0.0
 10
-18.2434034935
 20
-7.8005276293
 30
0.0
 10
-18.3241836709
 20
-7.8005276293
 30
0.0
  0
SPLINE
  5
65F
100
AcDbEntity
  8
ASSI
100
AcDbSpline
 62
7
  6
CONTINUOUS
 70
0
 71
3
 72
14
 73
10
 74
0
 42
0.0000001
 43
0.0000001
 44
0.0000000001
 40
0.0
 40
0.0
 40
0.0
 40
0.0
 40
0.1089885614
 40
0.1829254059
 40
0.2624764842
 40
0.3465277994
 40
0.4482203747
 40
0.5822701297
 40
1.0
 40
1.0
 40
1.0
 40
1.0
 10
-18.5449425088
 20
-7.9966143145
 30
0.0
 10
-18.5202078901
 20
-7.9966143145
 30
0.0
 10
-18.4787685137
 20
-7.9974869414
 30
0.0
 10
-18.4190530138
 20
-8.0025205382
 30
0.0
 10
-18.367981986
 20
-8.0211011837
 30
0.0
 10
-18.3142800861
 20
-8.0488552261
 30
0.0
 10
-18.2587260949
 20
-8.0965211136
 30
0.0
 10
-18.1636822475
 20
-8.2106819699
 30
0.0
 10
-18.0956106289
 20
-8.3161565574
 30
0.0
 10
-18.044566623
 20
-8.3960441357
 30
0.0
  0
SPLINE
  5
660
100
AcDbEntity
  8
ASSI
100
AcDbSpline
 62
7
  6
CONTINUOUS
 70
0
 71
3
 72
12
 73
8
 74
0
 42
0.0000001
 43
0.0000001
 44
0.0000000001
 40
0.0
 40
0.0
 40
0.0
 40
0.0
 40
0.3274191609
 40
0.4911287414
 40
0.6548383219
 40
0.8345406322
 40
1.0
 40
1.0
 40
1.0
 40
1.0
 10
-17.5546725045
 20
-8.75
 30
0.0
 10
-17.6028878992
 20
-8.6728392218
 30
0.0
 10
-17.6749610851
 20
-8.5569378832
 30
0.0
 10
-17.7720582906
 20
-8.4030434501
 30
0.0
 10
-17.8446721042
 20
-8.2822102827
 30
0.0
 10
-17.9278565745
 20
-8.1675746131
 30
0.0
 10
-17.991757865
 20
-8.0957462776
 30
0.0
 10
-18.0244096932
 20
-8.0633740069
 30
0.0
  0
SPLINE
  5
661
100
AcDbEntity
  8
ASSI
100
AcDbSpline
 62
7
  6
CONTINUOUS
 70
0
 71
3
 72
9
 73
5
 74
0
 42
0.0000001
 43
0.0000001
 44
0.0000000001
 40
0.0
 40
0.0
 40
0.0
 40
0.0
 40
0.209446698
 40
1.0
 40
1.0
 40
1.0
 40
1.0
 10
-18.0244096932
 20
-8.0633740069
 30
0.0
 10
-18.0322375266
 20
-8.0557461575
 30
0.0
 10
-18.0718045934
 20
-8.0215761103
 30
0.0
 10
-18.1172941751
 20
-7.9950019315
 30
0.0
 10
-18.1538977865
 20
-7.9759736108
 30
0.0
  0
SPLINE
  5
662
100
AcDbEntity
  8
ASSI
100
AcDbSpline
 62
7
  6
CONTINUOUS
 70
0
 71
3
 72
17
 73
13
 74
0
 42
0.0000001
 43
0.0000001
 44
0.0000000001
 40
0.0
 40
0.0
 40
0.0
 40
0.0
 40
0.2460836248
 40
0.3488272006
 40
0.4008361773
 40
0.4556648225
 40
0.540858721
 40
0.6244209655
 40
0.704882247
 40
0.7821673896
 40
0.8752909099
 40
1.0
 40
1.0
 40
1.0
 40
1.0
 10
-18.1538977865
 20
-7.9759736108
 30
0.0
 10
-18.0244202354
 20
-7.9579929794
 30
0.0
 10
-17.8282178152
 20
-7.8932301487
 30
0.0
 10
-17.7122738366
 20
-7.7062386249
 30
0.0
 10
-17.6832567346
 20
-7.5982447809
 30
0.0
 10
-17.6752797174
 20
-7.4960925625
 30
0.0
 10
-17.6899253086
 20
-7.3767089175
 30
0.0
 10
-17.7430082427
 20
-7.2537028306
 30
0.0
 10
-17.8245431785
 20
-7.1520011691
 30
0.0
 10
-17.941748438
 20
-7.0826508182
 30
0.0
 10
-18.0972736329
 20
-7.052180918
 30
0.0
 10
-18.2129476293
 20
-7.0471419438
 30
0.0
 10
-18.2791933304
 20
-7.0471419438
 30
0.0
  0
SPLINE
  5
663
100
AcDbEntity
  8
ASSI
100
AcDbSpline
 62
7
  6
CONTINUOUS
 70
0
 71
3
 72
12
 73
8
 74
0
 42
0.0000001
 43
0.0000001
 44
0.0000000001
 40
0.0
 40
0.0
 40
0.0
 40
0.0
 40
0.1914546415
 40
0.4289323167
 40
0.5716992375
 40
0.7144661583
 40
1.0
 40
1.0
 40
1.0
 40
1.0
 10
-20.037039563
 20
-7.2225879253
 30
0.0
 10
-20.0212870883
 20
-7.2765004464
 30
0.0
 10
-19.9823569221
 20
-7.3961895719
 30
0.0
 10
-19.9274508513
 20
-7.554719865
 30
0.0
 10
-19.8703996216
 20
-7.6971739858
 30
0.0
 10
-19.8095781045
 20
-7.8532729525
 30
0.0
 10
-19.7636308153
 20
-7.9702221557
 30
0.0
 10
-19.7330728784
 20
-8.0482160738
 30
0.0
  0
SPLINE
  5
664
100
AcDbEntity
  8
ASSI
100
AcDbSpline
 62
7
  6
CONTINUOUS
 70
0
 71
3
 72
9
 73
5
 74
0
 42
0.0000001
 43
0.0000001
 44
0.0000000001
 40
0.0
 40
0.0
 40
0.0
 40
0.0
 40
0.3106214921
 40
1.0
 40
1.0
 40
1.0
 40
1.0
 10
-21.69797118
 20
-8.2293059264
 30
0.0
 10
-21.7079133928
 20
-8.2574166492
 30
0.0
 10
-21.7397368422
 20
-8.3479776
 30
0.0
 10
-21.7711323935
 20
-8.4387040405
 30
0.0
 10
-21.7914993785
 20
-8.5016665236
 30
0.0
  0
SPLINE
  5
665
100
AcDbEntity
  8
ASSI
100
AcDbSpline
 62
7
  6
CONTINUOUS
 70
0
 71
3
 72
9
 73
5
 74
0
 42
0.0000001
 43
0.0000001
 44
0.0000000001
 40
0.0
 40
0.0
 40
0.0
 40
0.0
 40
0.1862683768
 40
1.0
 40
1.0
 40
1.0
 40
1.0
 10
-21.7914993785
 20
-8.5016665236
 30
0.0
 10
-21.7963225619
 20
-8.4859836386
 30
0.0
 10
-21.8227355942
 20
-8.4019486221
 30
0.0
 10
-21.8503448655
 20
-8.3182959833
 30
0.0
 10
-21.8729333877
 20
-8.250269146
 30
0.0
  0
SPLINE
  5
666
100
AcDbEntity
  8
ASSI
100
AcDbSpline
 62
7
  6
CONTINUOUS
 70
0
 71
3
 72
8
 73
4
 74
0
 42
0.0000001
 43
0.0000001
 44
0.0000000001
 40
0.0
 40
0.0
 40
0.0
 40
0.0
 40
1.0
 40
1.0
 40
1.0
 40
1.0
 10
-24.2271024165
 20
-8.5590734119
 30
0.0
 10
-24.2530875406
 20
-8.4652708567
 30
0.0
 10
-24.2834545409
 20
-8.3726453791
 30
0.0
 10
-24.3164379081
 20
-8.2810689437
 30
0.0
  0
SPLINE
  5
667
100
AcDbEntity
  8
ASSI
100
AcDbSpline
 62
7
  6
CONTINUOUS
 70
0
 71
3
 72
12
 73
8
 74
0
 42
0.0000001
 43
0.0000001
 44
0.0000000001
 40
0.0
 40
0.0
 40
0.0
 40
0.0
 40
0.160170272
 40
0.373833895
 40
0.5801046928
 40
0.7863141084
 40
1.0
 40
1.0
 40
1.0
 40
1.0
 10
13.8187252987
 20
1.6513941147
 30
0.0
 10
13.7594024684
 20
1.8442368083
 30
0.0
 10
13.6884278723
 20
2.3175007039
 30
0.0
 10
13.8359756132
 20
3.053761718
 30
0.0
 10
14.2889802859
 20
3.7235904963
 30
0.0
 10
14.9580624509
 20
4.1756863582
 30
0.0
 10
15.4932287779
 20
4.2833340618
 30
0.0
 10
15.762401574
 20
4.2833340618
 30
0.0
  0
SPLINE
  5
668
100
AcDbEntity
  8
ASSI
100
AcDbSpline
 62
7
  6
CONTINUOUS
 70
0
 71
3
 72
13
 73
9
 74
0
 42
0.0000001
 43
0.0000001
 44
0.0000000001
 40
0.0
 40
0.0
 40
0.0
 40
0.0
 40
0.1820448067
 40
0.3577131209
 40
0.5334393081
 40
0.7154636694
 40
0.860240729
 40
1.0
 40
1.0
 40
1.0
 40
1.0
 10
15.762401574
 20
5.2999999985
 30
0.0
 10
15.3586390964
 20
5.2999999985
 30
0.0
 10
14.5559250311
 20
5.1384208676
 30
0.0
 10
13.5522739592
 20
4.4603647543
 30
0.0
 10
12.8726685557
 20
3.4557813265
 30
0.0
 10
12.6480652496
 20
2.3321288411
 30
0.0
 10
12.8122135349
 20
1.2942190107
 30
0.0
 10
13.1043862835
 20
0.7214345223
 30
0.0
 10
13.2855004023
 20
0.4698736077
 30
0.0
  0
SPLINE
  5
669
100
AcDbEntity
  8
ASSI
100
AcDbSpline
 62
7
  6
CONTINUOUS
 70
0
 71
3
 72
9
 73
5
 74
0
 42
0.0000001
 43
0.0000001
 44
0.0000000001
 40
0.0
 40
0.0
 40
0.0
 40
0.0
 40
0.2458206488
 40
1.0
 40
1.0
 40
1.0
 40
1.0
 10
13.9994550129
 20
-0.2391807672
 30
0.0
 10
14.1241893856
 20
-0.3276834353
 30
0.0
 10
14.6574520573
 20
-0.6502125316
 30
0.0
 10
15.2931732121
 20
-0.8
 30
0.0
 10
15.762401574
 20
-0.8
 30
0.0
  0
SPLINE
  5
66A
100
AcDbEntity
  8
ASSI
100
AcDbSpline
 62
7
  6
CONTINUOUS
 70
0
 71
3
 72
9
 73
5
 74
0
 42
0.0000001
 43
0.0000001
 44
0.0000000001
 40
0.0
 40
0.0
 40
0.0
 40
0.0
 40
0.2600413185
 40
1.0
 40
1.0
 40
1.0
 40
1.0
 10
15.762401574
 20
0.2166670313
 30
0.0
 10
15.6398699232
 20
0.2166670313
 30
0.0
 10
15.1690964222
 20
0.2573406865
 30
0.0
 10
14.7168186707
 20
0.4713332355
 30
0.0
 10
14.4505321634
 20
0.6964164726
 30
0.0
  0
SPLINE
  5
66B
100
AcDbEntity
  8
ASSI
100
AcDbSpline
 62
7
  6
CONTINUOUS
 70
0
 71
3
 72
16
 73
12
 74
0
 42
0.0000001
 43
0.0000001
 44
0.0000000001
 40
0.0
 40
0.0
 40
0.0
 40
0.0
 40
0.1219788236
 40
0.2482541738
 40
0.3741627937
 40
0.4957149346
 40
0.6172670755
 40
0.7431756955
 40
0.8690843154
 40
0.9906364563
 40
1.0
 40
1.0
 40
1.0
 40
1.0
 10
14.6810453012
 20
1.1745268551
 30
0.0
 10
14.8193258197
 20
1.0362463366
 30
0.0
 10
15.158390011
 20
0.8064618773
 30
0.0
 10
15.7616382374
 20
0.6838555899
 30
0.0
 10
16.3652156187
 20
0.8052953024
 30
0.0
 10
16.8675568578
 20
1.1448432939
 30
0.0
 10
17.2070710005
 20
1.6472270131
 30
0.0
 10
17.3285753641
 20
2.2500014914
 30
0.0
 10
17.2058862381
 20
2.8527671199
 30
0.0
 10
16.9735825126
 20
3.2024322189
 30
0.0
 10
16.8187817443
 20
3.3495404635
 30
0.0
 10
16.807531949
 20
3.3598992806
 30
0.0
  0
SPLINE
  5
66C
100
AcDbEntity
  8
ASSI
100
AcDbSpline
 62
7
  6
CONTINUOUS
 70
0
 71
3
 72
9
 73
5
 74
0
 42
0.0000001
 43
0.0000001
 44
0.0000000001
 40
0.0
 40
0.0
 40
0.0
 40
0.0
 40
0.506587071
 40
1.0
 40
1.0
 40
1.0
 40
1.0
 10
15.762401574
 20
3.7749999989
 30
0.0
 10
15.4708274978
 20
3.7749999989
 30
0.0
 10
14.882175057
 20
3.602056929
 30
0.0
 10
14.4881735325
 20
3.1350210583
 30
0.0
 10
14.3714520787
 20
2.8761249474
 30
0.0
  0
SPLINE
  5
66D
100
AcDbEntity
  8
ASSI
100
AcDbSpline
 62
7
  6
CONTINUOUS
 70
0
 71
3
 72
29
 73
25
 74
0
 42
0.0000001
 43
0.0000001
 44
0.0000000001
 40
0.0
 40
0.0
 40
0.0
 40
0.0
 40
0.0355937351
 40
0.0799962023
 40
0.1647872018
 40
0.2454541378
 40
0.3251342714
 40
0.3656814677
 40
0.4061636494
 40
0.4473705763
 40
0.4900517958
 40
0.553930843
 40
0.6138247316
 40
0.672298714
 40
0.7321010455
 40
0.7934417861
 40
0.8247546384
 40
0.8568674109
 40
0.8901746441
 40
0.9249718061
 40
0.9615063193
 40
0.9804966154
 40
0.9901828374
 40
1.0
 40
1.0
 40
1.0
 40
1.0
 10
24.427878277
 20
-7.87233193
 30
0.0
 10
24.4271677182
 20
-7.8404543815
 30
0.0
 10
24.42286839
 20
-7.7688818503
 30
0.0
 10
24.4002401205
 20
-7.6228580615
 30
0.0
 10
24.3397624996
 20
-7.4429250127
 30
0.0
 10
24.2170625082
 20
-7.2573465962
 30
0.0
 10
24.0746993055
 20
-7.1427471256
 30
0.0
 10
23.94615308
 20
-7.0773524106
 30
0.0
 10
23.8422590368
 20
-7.0417661621
 30
0.0
 10
23.7325786409
 20
-7.0205826554
 30
0.0
 10
23.6002181361
 20
-7.0129496344
 30
0.0
 10
23.4508442976
 20
-7.0251517094
 30
0.0
 10
23.2927921452
 20
-7.0702915889
 30
0.0
 10
23.1515840429
 20
-7.1472566583
 30
0.0
 10
23.0292889809
 20
-7.2534584175
 30
0.0
 10
22.9463922331
 20
-7.3633389851
 30
0.0
 10
22.8946294011
 20
-7.4625396212
 30
0.0
 10
22.8628279094
 20
-7.5432612789
 30
0.0
 10
22.8381544466
 20
-7.6296603261
 30
0.0
 10
22.8205713147
 20
-7.7217950254
 30
0.0
 10
22.8119510404
 20
-7.8022872198
 30
0.0
 10
22.8089228615
 20
-7.8606026672
 30
0.0
 10
22.8080513942
 20
-7.8950568212
 30
0.0
 10
22.807889819
 20
-7.9125183937
 30
0.0
 10
22.8079010878
 20
-7.9213079503
 30
0.0
  0
SPLINE
  5
66E
100
AcDbEntity
  8
ASSI
100
AcDbSpline
 62
7
  6
CONTINUOUS
 70
0
 71
3
 72
25
 73
21
 74
0
 42
0.0000001
 43
0.0000001
 44
0.0000000001
 40
0.0
 40
0.0
 40
0.0
 40
0.0
 40
0.0104078563
 40
0.0207474892
 40
0.0412716006
 40
0.0820581221
 40
0.123007883
 40
0.1639100271
 40
0.2444382688
 40
0.3245725211
 40
0.4061842734
 40
0.4479717478
 40
0.4914182365
 40
0.649541018
 40
0.7289634834
 40
0.8106560421
 40
0.8970003625
 40
0.9420674742
 40
0.9891559287
 40
1.0
 40
1.0
 40
1.0
 40
1.0
 10
22.8079010878
 20
-7.9213079503
 30
0.0
 10
22.8079130347
 20
-7.9306263702
 30
0.0
 10
22.8081443224
 20
-7.9492024735
 30
0.0
 10
22.8096566687
 20
-7.9861267534
 30
0.0
 10
22.8149144785
 20
-8.0500900642
 30
0.0
 10
22.8301821132
 20
-8.140571005
 30
0.0
 10
22.8606178428
 20
-8.2463337282
 30
0.0
 10
22.9165485601
 20
-8.3807367431
 30
0.0
 10
23.0163679008
 20
-8.5341781738
 30
0.0
 10
23.1862122315
 20
-8.6739876423
 30
0.0
 10
23.3556729703
 20
-8.7477627132
 30
0.0
 10
23.5027928193
 20
-8.776328527
 30
0.0
 10
23.7203718836
 20
-8.7900192885
 30
0.0
 10
23.9777823273
 20
-8.7276083533
 30
0.0
 10
24.2083993247
 20
-8.5521640979
 30
0.0
 10
24.3350113198
 20
-8.3662107757
 30
0.0
 10
24.3987334799
 20
-8.1842949232
 30
0.0
 10
24.4241618901
 20
-8.0262188489
 30
0.0
 10
24.4286550344
 20
-7.9339436639
 30
0.0
 10
24.4280947576
 20
-7.8820438192
 30
0.0
 10
24.427878277
 20
-7.87233193
 30
0.0
  0
SPLINE
  5
66F
100
AcDbEntity
  8
ASSI
100
AcDbSpline
 62
7
  6
CONTINUOUS
 70
0
 71
3
 72
20
 73
16
 74
0
 42
0.0000001
 43
0.0000001
 44
0.0000000001
 40
0.0
 40
0.0
 40
0.0
 40
0.0
 40
0.0572164243
 40
0.1259090416
 40
0.1899024107
 40
0.2516979518
 40
0.3666568775
 40
0.4226515948
 40
0.4811108566
 40
0.6424617623
 40
0.7260628317
 40
0.8152762586
 40
0.9077988128
 40
0.9537448232
 40
1.0
 40
1.0
 40
1.0
 40
1.0
 10
15.1292613622
 20
-8.230786372
 30
0.0
 10
15.1285985271
 20
-8.2527619875
 30
0.0
 10
15.1246617414
 20
-8.3010234431
 30
0.0
 10
15.108848529
 20
-8.372529196
 30
0.0
 10
15.0791935999
 20
-8.4416593836
 30
0.0
 10
15.0253504377
 20
-8.5172835835
 30
0.0
 10
14.9524513206
 20
-8.5742634928
 30
0.0
 10
14.8678961118
 20
-8.6013712052
 30
0.0
 10
14.7620790504
 20
-8.6116430453
 30
0.0
 10
14.6427291534
 20
-8.5781368722
 30
0.0
 10
14.5450783953
 20
-8.4923214249
 30
0.0
 10
14.4909680943
 20
-8.4046235799
 30
0.0
 10
14.4620881984
 20
-8.3214181065
 30
0.0
 10
14.450270105
 20
-8.2513629857
 30
0.0
 10
14.4484357288
 20
-8.215946451
 30
0.0
 10
14.4484160846
 20
-8.1981836129
 30
0.0
  0
SPLINE
  5
670
100
AcDbEntity
  8
ASSI
100
AcDbSpline
 62
7
  6
CONTINUOUS
 70
0
 71
3
 72
22
 73
18
 74
0
 42
0.0000001
 43
0.0000001
 44
0.0000000001
 40
0.0
 40
0.0
 40
0.0
 40
0.0
 40
0.0347934713
 40
0.0680881394
 40
0.1313457496
 40
0.2521632748
 40
0.3120984002
 40
0.3697590662
 40
0.4275848594
 40
0.4879953648
 40
0.5503890856
 40
0.6087058281
 40
0.7229097408
 40
0.8433811834
 40
0.9093353186
 40
0.9817892272
 40
1.0
 40
1.0
 40
1.0
 40
1.0
 10
14.4484160846
 20
-8.1981836129
 30
0.0
 10
14.4484013081
 20
-8.1848222804
 30
0.0
 10
14.4493696088
 20
-8.1586805071
 30
0.0
 10
14.4553851525
 20
-8.1085709398
 30
0.0
 10
14.4765346905
 20
-8.0273568145
 30
0.0
 10
14.5292050561
 20
-7.9461285971
 30
0.0
 10
14.599712241
 20
-7.8871210677
 30
0.0
 10
14.6592271507
 20
-7.8545808301
 30
0.0
 10
14.7244817183
 20
-7.8353594228
 30
0.0
 10
14.7939397453
 20
-7.8295195117
 30
0.0
 10
14.8636064715
 20
-7.8352745893
 30
0.0
 10
14.9508540672
 20
-7.8603213691
 30
0.0
 10
15.0457253095
 20
-7.9278734895
 30
0.0
 10
15.1042261892
 20
-8.0314197757
 30
0.0
 10
15.1262152446
 20
-8.128744052
 30
0.0
 10
15.1299546896
 20
-8.188947264
 30
0.0
 10
15.1294723286
 20
-8.2237920003
 30
0.0
 10
15.1292613622
 20
-8.230786372
 30
0.0
  0
SPLINE
  5
671
100
AcDbEntity
  8
ASSI
100
AcDbSpline
 62
7
  6
CONTINUOUS
 70
0
 71
3
 72
25
 73
21
 74
0
 42
0.0000001
 43
0.0000001
 44
0.0000000001
 40
0.0
 40
0.0
 40
0.0
 40
0.0
 40
0.0514335127
 40
0.0974753557
 40
0.1736419787
 40
0.2358722462
 40
0.2912819311
 40
0.3421630814
 40
0.3923662866
 40
0.4442955522
 40
0.5000866919
 40
0.5383619081
 40
0.5740179499
 40
0.6411406999
 40
0.7101280716
 40
0.7880107919
 40
0.8828187826
 40
0.9383827827
 40
0.9684100182
 40
1.0
 40
1.0
 40
1.0
 40
1.0
 10
14.0149614468
 20
-7.9093326243
 30
0.0
 10
14.0149875089
 20
-7.8692254503
 30
0.0
 10
14.0135750739
 20
-7.7932234956
 30
0.0
 10
14.005048811
 20
-7.6581139643
 30
0.0
 10
13.9834291407
 20
-7.5153266123
 30
0.0
 10
13.9362366117
 20
-7.3712776519
 30
0.0
 10
13.8788961314
 20
-7.2524094009
 30
0.0
 10
13.8019217657
 20
-7.1558940928
 30
0.0
 10
13.7027656663
 20
-7.0867511304
 30
0.0
 10
13.5855626819
 20
-7.0448344206
 30
0.0
 10
13.4712855769
 20
-7.0340174834
 30
0.0
 10
13.3700880897
 20
-7.0404868169
 30
0.0
 10
13.2622372289
 20
-7.0639408895
 30
0.0
 10
13.1405782757
 20
-7.1275351872
 30
0.0
 10
13.0293088103
 20
-7.2560049283
 30
0.0
 10
12.9512182978
 20
-7.4296727357
 30
0.0
 10
12.9169886236
 20
-7.6054514181
 30
0.0
 10
12.9047105114
 20
-7.7455714131
 30
0.0
 10
12.9009716953
 20
-7.8368700386
 30
0.0
 10
12.900355762
 20
-7.8849080419
 30
0.0
 10
12.9003633062
 20
-7.9095362768
 30
0.0
  0
SPLINE
  5
672
100
AcDbEntity
  8
ASSI
100
AcDbSpline
 62
7
  6
CONTINUOUS
 70
0
 71
3
 72
25
 73
21
 74
0
 42
0.0000001
 43
0.0000001
 44
0.0000000001
 40
0.0
 40
0.0
 40
0.0
 40
0.0
 40
0.0252748524
 40
0.0496777713
 40
0.0959413722
 40
0.1788918516
 40
0.2504468259
 40
0.3126957994
 40
0.3587715651
 40
0.4037491419
 40
0.4501831796
 40
0.5004065656
 40
0.538895651
 40
0.5747150939
 40
0.6420519243
 40
0.7111453054
 40
0.7889985187
 40
0.8832681673
 40
0.9386609163
 40
1.0
 40
1.0
 40
1.0
 40
1.0
 10
12.9003633062
 20
-7.9095362768
 30
0.0
 10
12.9003693423
 20
-7.9292411
 30
0.0
 10
12.9007880117
 20
-7.9679710426
 30
0.0
 10
12.903402989
 20
-8.0427299173
 30
0.0
 10
12.9120528483
 20
-8.1622130848
 30
0.0
 10
12.9362874643
 20
-8.3172966892
 30
0.0
 10
12.9865403973
 20
-8.4794322568
 30
0.0
 10
13.0568442868
 20
-8.6028538307
 30
0.0
 10
13.1433045821
 20
-8.687090754
 30
0.0
 10
13.2362718339
 20
-8.7424352244
 30
0.0
 10
13.3429056233
 20
-8.7747293072
 30
0.0
 10
13.4485251536
 20
-8.7834430525
 30
0.0
 10
13.5457027928
 20
-8.7772881007
 30
0.0
 10
13.6540004184
 20
-8.7537120977
 30
0.0
 10
13.7759288549
 20
-8.6897541638
 30
0.0
 10
13.887096256
 20
-8.5608654729
 30
0.0
 10
13.9644829594
 20
-8.3872963885
 30
0.0
 10
13.9986064008
 20
-8.2121190154
 30
0.0
 10
14.0127834508
 20
-8.0482014566
 30
0.0
 10
14.0149303654
 20
-7.9571640317
 30
0.0
 10
14.0149614468
 20
-7.9093326243
 30
0.0
  0
SPLINE
  5
673
100
AcDbEntity
  8
ASSI
100
AcDbSpline
 62
7
  6
CONTINUOUS
 70
0
 71
3
 72
20
 73
16
 74
0
 42
0.0000001
 43
0.0000001
 44
0.0000000001
 40
0.0
 40
0.0
 40
0.0
 40
0.0
 40
0.0572164243
 40
0.1259090416
 40
0.1899024107
 40
0.2516979518
 40
0.3666568775
 40
0.4226515948
 40
0.4811108566
 40
0.6424617623
 40
0.7260628317
 40
0.8152762586
 40
0.9077988128
 40
0.9537448232
 40
1.0
 40
1.0
 40
1.0
 40
1.0
 10
12.4872512871
 20
-8.230786372
 30
0.0
 10
12.4865884519
 20
-8.2527619875
 30
0.0
 10
12.4826516663
 20
-8.3010234431
 30
0.0
 10
12.4668384539
 20
-8.372529196
 30
0.0
 10
12.4371835248
 20
-8.4416593836
 30
0.0
 10
12.3833403626
 20
-8.5172835835
 30
0.0
 10
12.3104412455
 20
-8.5742634928
 30
0.0
 10
12.2258860367
 20
-8.6013712052
 30
0.0
 10
12.1200689753
 20
-8.6116430453
 30
0.0
 10
12.0007190783
 20
-8.5781368722
 30
0.0
 10
11.9030683202
 20
-8.4923214249
 30
0.0
 10
11.8489580192
 20
-8.4046235799
 30
0.0
 10
11.8200781233
 20
-8.3214181065
 30
0.0
 10
11.8082600299
 20
-8.2513629857
 30
0.0
 10
11.8064256537
 20
-8.215946451
 30
0.0
 10
11.8064060095
 20
-8.1981836129
 30
0.0
  0
SPLINE
  5
674
100
AcDbEntity
  8
ASSI
100
AcDbSpline
 62
7
  6
CONTINUOUS
 70
0
 71
3
 72
22
 73
18
 74
0
 42
0.0000001
 43
0.0000001
 44
0.0000000001
 40
0.0
 40
0.0
 40
0.0
 40
0.0
 40
0.0347934713
 40
0.0680881394
 40
0.1313457496
 40
0.2521632748
 40
0.3120984002
 40
0.3697590662
 40
0.4275848594
 40
0.4879953648
 40
0.5503890856
 40
0.6087058281
 40
0.7229097408
 40
0.8433811834
 40
0.9093353186
 40
0.9817892272
 40
1.0
 40
1.0
 40
1.0
 40
1.0
 10
11.8064060095
 20
-8.1981836129
 30
0.0
 10
11.806391233
 20
-8.1848222804
 30
0.0
 10
11.8073595337
 20
-8.1586805071
 30
0.0
 10
11.8133750774
 20
-8.1085709398
 30
0.0
 10
11.8345246154
 20
-8.0273568145
 30
0.0
 10
11.887194981
 20
-7.9461285971
 30
0.0
 10
11.9577021659
 20
-7.8871210677
 30
0.0
 10
12.0172170756
 20
-7.8545808301
 30
0.0
 10
12.0824716432
 20
-7.8353594228
 30
0.0
 10
12.1519296702
 20
-7.8295195117
 30
0.0
 10
12.2215963964
 20
-7.8352745893
 30
0.0
 10
12.3088439921
 20
-7.8603213691
 30
0.0
 10
12.4037152344
 20
-7.9278734895
 30
0.0
 10
12.4622161141
 20
-8.0314197757
 30
0.0
 10
12.4842051695
 20
-8.128744052
 30
0.0
 10
12.4879446145
 20
-8.188947264
 30
0.0
 10
12.4874622535
 20
-8.2237920003
 30
0.0
 10
12.4872512871
 20
-8.230786372
 30
0.0
  0
SPLINE
  5
675
100
AcDbEntity
  8
ASSI
100
AcDbSpline
 62
7
  6
CONTINUOUS
 70
0
 71
3
 72
11
 73
7
 74
0
 42
0.0000001
 43
0.0000001
 44
0.0000000001
 40
0.0
 40
0.0
 40
0.0
 40
0.0
 40
0.0716515669
 40
0.2980985786
 40
0.5200922106
 40
1.0
 40
1.0
 40
1.0
 40
1.0
 10
28.6039604762
 20
-7.6064934094
 30
0.0
 10
28.6086506138
 20
-7.5902844626
 30
0.0
 10
28.630227969
 20
-7.5234399005
 30
0.0
 10
28.6837548859
 20
-7.4119838521
 30
0.0
 10
28.841153189
 20
-7.2549768429
 30
0.0
 10
29.0148625887
 20
-7.2122675735
 30
0.0
 10
29.1275040987
 20
-7.2122675735
 30
0.0
  0
SPLINE
  5
676
100
AcDbEntity
  8
ASSI
100
AcDbSpline
 62
7
  6
CONTINUOUS
 70
0
 71
3
 72
11
 73
7
 74
0
 42
0.0000001
 43
0.0000001
 44
0.0000000001
 40
0.0
 40
0.0
 40
0.0
 40
0.0
 40
0.0963538321
 40
0.3189912623
 40
0.5282474802
 40
1.0
 40
1.0
 40
1.0
 40
1.0
 10
28.3966327494
 20
-8.2549168007
 30
0.0
 10
28.4063548576
 20
-8.2848395254
 30
0.0
 10
28.4427054506
 20
-8.3825388343
 30
0.0
 10
28.5289783138
 20
-8.5343883472
 30
0.0
 10
28.7501818231
 20
-8.7384128144
 30
0.0
 10
28.9867045717
 20
-8.7809610556
 30
0.0
 10
29.1407270938
 20
-8.7809610556
 30
0.0
  0
SPLINE
  5
677
100
AcDbEntity
  8
ASSI
100
AcDbSpline
 62
7
  6
CONTINUOUS
 70
0
 71
3
 72
10
 73
6
 74
0
 42
0.0000001
 43
0.0000001
 44
0.0000000001
 40
0.0
 40
0.0
 40
0.0
 40
0.0
 40
0.1770085042
 40
0.4335521455
 40
1.0
 40
1.0
 40
1.0
 40
1.0
 10
24.7186579015
 20
-7.5243758677
 30
0.0
 10
24.7208338444
 20
-7.5498365809
 30
0.0
 10
24.732009121
 20
-7.6115114338
 30
0.0
 10
24.7919078778
 20
-7.7447097967
 30
0.0
 10
24.8911830093
 20
-7.8221827205
 30
0.0
 10
24.9635647195
 20
-7.8595470971
 30
0.0
  0
SPLINE
  5
678
100
AcDbEntity
  8
ASSI
100
AcDbSpline
 62
7
  6
CONTINUOUS
 70
0
 71
3
 72
12
 73
8
 74
0
 42
0.0000001
 43
0.0000001
 44
0.0000000001
 40
0.0
 40
0.0
 40
0.0
 40
0.0
 40
0.019381365
 40
0.272806421
 40
0.4985082115
 40
0.7311581305
 40
1.0
 40
1.0
 40
1.0
 40
1.0
 10
25.1143991539
 20
-8.5366859953
 30
0.0
 10
25.1117091548
 20
-8.5355160207
 30
0.0
 10
25.0739718568
 20
-8.518744034
 30
0.0
 10
25.0083905785
 20
-8.4802916505
 30
0.0
 10
24.9346709395
 20
-8.3995414855
 30
0.0
 10
24.8907091802
 20
-8.29744238
 30
0.0
 10
24.8764886307
 20
-8.222687521
 30
0.0
 10
24.871971459
 20
-8.1823806479
 30
0.0
  0
SPLINE
  5
679
100
AcDbEntity
  8
ASSI
100
AcDbSpline
 62
7
  6
CONTINUOUS
 70
0
 71
3
 72
18
 73
14
 74
0
 42
0.0000001
 43
0.0000001
 44
0.0000000001
 40
0.0
 40
0.0
 40
0.0
 40
0.0
 40
0.0233727704
 40
0.1063914305
 40
0.1905857338
 40
0.2797458278
 40
0.3675157378
 40
0.4508059687
 40
0.5333218308
 40
0.618869314
 40
0.7069417289
 40
0.7974966537
 40
1.0
 40
1.0
 40
1.0
 40
1.0
 10
23.974023565
 20
-8.465068787
 30
0.0
 10
23.9656868211
 20
-8.4717810964
 30
0.0
 10
23.926846901
 20
-8.5012290043
 30
0.0
 10
23.8503828875
 20
-8.5444359721
 30
0.0
 10
23.7371606787
 20
-8.5781590644
 30
0.0
 10
23.6175569076
 20
-8.5883153052
 30
0.0
 10
23.4983662203
 20
-8.5781945735
 30
0.0
 10
23.3864273573
 20
-8.5446999309
 30
0.0
 10
23.2855034411
 20
-8.4879045327
 30
0.0
 10
23.1970812121
 20
-8.4099583448
 30
0.0
 10
23.1237282318
 20
-8.3128383133
 30
0.0
 10
23.0514512527
 20
-8.1529726454
 30
0.0
 10
23.0349488287
 20
-8.0166195436
 30
0.0
 10
23.0349488287
 20
-7.9240493356
 30
0.0
  0
SPLINE
  5
67A
100
AcDbEntity
  8
ASSI
100
AcDbSpline
 62
7
  6
CONTINUOUS
 70
0
 71
3
 72
11
 73
7
 74
0
 42
0.0000001
 43
0.0000001
 44
0.0000000001
 40
0.0
 40
0.0
 40
0.0
 40
0.0
 40
0.0847481679
 40
0.2044542779
 40
0.4335627983
 40
1.0
 40
1.0
 40
1.0
 40
1.0
 10
16.0692206495
 20
-8.6049730201
 30
0.0
 10
16.0551930052
 20
-8.6042750477
 30
0.0
 10
16.0214569871
 20
-8.6009162563
 30
0.0
 10
15.9515106541
 20
-8.5837578413
 30
0.0
 10
15.8163346296
 20
-8.5046916416
 30
0.0
 10
15.768088362
 20
-8.3669973989
 30
0.0
 10
15.7487804184
 20
-8.2752638146
 30
0.0
  0
SPLINE
  5
67B
100
AcDbEntity
  8
ASSI
100
AcDbSpline
 62
7
  6
CONTINUOUS
 70
0
 71
3
 72
11
 73
7
 74
0
 42
0.0000001
 43
0.0000001
 44
0.0000000001
 40
0.0
 40
0.0
 40
0.0
 40
0.0
 40
0.011581745
 40
0.1599160353
 40
0.4408206077
 40
1.0
 40
1.0
 40
1.0
 40
1.0
 10
16.6522595644
 20
-8.1738253311
 30
0.0
 10
16.652003642
 20
-8.1719135204
 30
0.0
 10
16.6483172545
 20
-8.1455358201
 30
0.0
 10
16.6322626294
 20
-8.0736336261
 30
0.0
 10
16.5544007814
 20
-7.9245603061
 30
0.0
 10
16.4206350285
 20
-7.8484304761
 30
0.0
 10
16.3299452815
 20
-7.8274572359
 30
0.0
  0
SPLINE
  5
67C
100
AcDbEntity
  8
ASSI
100
AcDbSpline
 62
7
  6
CONTINUOUS
 70
0
 71
3
 72
9
 73
5
 74
0
 42
0.0000001
 43
0.0000001
 44
0.0000000001
 40
0.0
 40
0.0
 40
0.0
 40
0.0
 40
0.2407510637
 40
1.0
 40
1.0
 40
1.0
 40
1.0
 10
15.833770926
 20
-7.087845722
 30
0.0
 10
15.7984014147
 20
-7.1051530549
 30
0.0
 10
15.6603668214
 20
-7.1957847906
 30
0.0
 10
15.5847899456
 20
-7.3591155141
 30
0.0
 10
15.563014085
 20
-7.4805967217
 30
0.0
  0
SPLINE
  5
67D
100
AcDbEntity
  8
ASSI
100
AcDbSpline
 62
7
  6
CONTINUOUS
 70
0
 71
3
 72
24
 73
20
 74
0
 42
0.0000001
 43
0.0000001
 44
0.0000000001
 40
0.0
 40
0.0
 40
0.0
 40
0.0
 40
0.0655900697
 40
0.145102785
 40
0.2147082594
 40
0.2785774723
 40
0.3398109412
 40
0.4015836453
 40
0.4669920862
 40
0.5060451866
 40
0.5435960562
 40
0.6168120739
 40
0.6900056878
 40
0.7666512547
 40
0.8463323076
 40
0.8866067608
 40
0.9278587845
 40
0.9888901486
 40
1.0
 40
1.0
 40
1.0
 40
1.0
 10
14.2278357793
 20
-8.2095314689
 30
0.0
 10
14.2338509666
 20
-8.2509956594
 30
0.0
 10
14.2514546496
 20
-8.3421115713
 30
0.0
 10
14.2959237465
 20
-8.4727547791
 30
0.0
 10
14.3697265273
 20
-8.5886570865
 30
0.0
 10
14.4606839225
 20
-8.6748769246
 30
0.0
 10
14.5635838405
 20
-8.7371817237
 30
0.0
 10
14.6793147112
 20
-8.7736912935
 30
0.0
 10
14.7857212716
 20
-8.7832999374
 30
0.0
 10
14.8764218974
 20
-8.7781161391
 30
0.0
 10
14.9705892634
 20
-8.7599983701
 30
0.0
 10
15.0803123503
 20
-8.7135760806
 30
0.0
 10
15.1915586806
 20
-8.6213445881
 30
0.0
 10
15.2729789747
 20
-8.4974383968
 30
0.0
 10
15.3159644644
 20
-8.3782755236
 30
0.0
 10
15.3332147859
 20
-8.2766028254
 30
0.0
 10
15.337954514
 20
-8.1855699271
 30
0.0
 10
15.3326561291
 20
-8.1130463098
 30
0.0
 10
15.3243128903
 20
-8.0676802805
 30
0.0
 10
15.3229067144
 20
-8.0607180774
 30
0.0
  0
SPLINE
  5
67E
100
AcDbEntity
  8
ASSI
100
AcDbSpline
 62
7
  6
CONTINUOUS
 70
0
 71
3
 72
16
 73
12
 74
0
 42
0.0000001
 43
0.0000001
 44
0.0000000001
 40
0.0
 40
0.0
 40
0.0
 40
0.0
 40
0.0739180112
 40
0.1622759459
 40
0.2507953072
 40
0.3375558322
 40
0.4202951924
 40
0.5026374351
 40
0.5882570494
 40
0.7876106262
 40
1.0
 40
1.0
 40
1.0
 40
1.0
 10
15.3229067144
 20
-8.0607180774
 30
0.0
 10
15.3171221923
 20
-8.0320779773
 30
0.0
 10
15.2999166473
 20
-7.9701030966
 30
0.0
 10
15.256284304
 20
-7.880424612
 30
0.0
 10
15.1915383809
 20
-7.798089947
 30
0.0
 10
15.1145144782
 20
-7.7305616941
 30
0.0
 10
15.027496767
 20
-7.680998528
 30
0.0
 10
14.9321244623
 20
-7.6517422641
 30
0.0
 10
14.787168032
 20
-7.6382460621
 30
0.0
 10
14.5876026784
 20
-7.6837244788
 30
0.0
 10
14.4636107149
 20
-7.8016696977
 30
0.0
 10
14.417455029
 20
-7.8716412865
 30
0.0
  0
SPLINE
  5
67F
100
AcDbEntity
  8
ASSI
100
AcDbSpline
 62
7
  6
CONTINUOUS
 70
0
 71
3
 72
24
 73
20
 74
0
 42
0.0000001
 43
0.0000001
 44
0.0000000001
 40
0.0
 40
0.0
 40
0.0
 40
0.0
 40
0.0655900697
 40
0.145102785
 40
0.2147082594
 40
0.2785774723
 40
0.3398109412
 40
0.4015836453
 40
0.4669920862
 40
0.5060451866
 40
0.5435960562
 40
0.6168120739
 40
0.6900056878
 40
0.7666512547
 40
0.8463323076
 40
0.8866067608
 40
0.9278587845
 40
0.9888901486
 40
1.0
 40
1.0
 40
1.0
 40
1.0
 10
11.5858257042
 20
-8.2095314689
 30
0.0
 10
11.5918408915
 20
-8.2509956594
 30
0.0
 10
11.6094445745
 20
-8.3421115713
 30
0.0
 10
11.6539136714
 20
-8.4727547791
 30
0.0
 10
11.7277164522
 20
-8.5886570865
 30
0.0
 10
11.8186738474
 20
-8.6748769246
 30
0.0
 10
11.9215737654
 20
-8.7371817237
 30
0.0
 10
12.0373046361
 20
-8.7736912935
 30
0.0
 10
12.1437111965
 20
-8.7832999374
 30
0.0
 10
12.2344118223
 20
-8.7781161391
 30
0.0
 10
12.3285791883
 20
-8.7599983701
 30
0.0
 10
12.4383022752
 20
-8.7135760806
 30
0.0
 10
12.5495486055
 20
-8.6213445881
 30
0.0
 10
12.6309688996
 20
-8.4974383968
 30
0.0
 10
12.6739543893
 20
-8.3782755236
 30
0.0
 10
12.6912047108
 20
-8.2766028254
 30
0.0
 10
12.6959444389
 20
-8.1855699271
 30
0.0
 10
12.690646054
 20
-8.1130463098
 30
0.0
 10
12.6823028152
 20
-8.0676802805
 30
0.0
 10
12.6808966393
 20
-8.0607180774
 30
0.0
  0
SPLINE
  5
680
100
AcDbEntity
  8
ASSI
100
AcDbSpline
 62
7
  6
CONTINUOUS
 70
0
 71
3
 72
16
 73
12
 74
0
 42
0.0000001
 43
0.0000001
 44
0.0000000001
 40
0.0
 40
0.0
 40
0.0
 40
0.0
 40
0.0739180112
 40
0.1622759459
 40
0.2507953072
 40
0.3375558322
 40
0.4202951924
 40
0.5026374351
 40
0.5882570494
 40
0.7876106262
 40
1.0
 40
1.0
 40
1.0
 40
1.0
 10
12.6808966393
 20
-8.0607180774
 30
0.0
 10
12.6751121172
 20
-8.0320779773
 30
0.0
 10
12.6579065722
 20
-7.9701030966
 30
0.0
 10
12.6142742289
 20
-7.880424612
 30
0.0
 10
12.5495283058
 20
-7.798089947
 30
0.0
 10
12.4725044031
 20
-7.7305616941
 30
0.0
 10
12.3854866919
 20
-7.680998528
 30
0.0
 10
12.2901143872
 20
-7.6517422641
 30
0.0
 10
12.1451579569
 20
-7.6382460621
 30
0.0
 10
11.9455926033
 20
-7.6837244788
 30
0.0
 10
11.8216006398
 20
-7.8016696977
 30
0.0
 10
11.7754449539
 20
-7.8716412865
 30
0.0
  0
SPLINE
  5
681
100
AcDbEntity
  8
ASSI
100
AcDbSpline
 62
7
  6
CONTINUOUS
 70
0
 71
3
 72
11
 73
7
 74
0
 42
0.0000001
 43
0.0000001
 44
0.0000000001
 40
0.0
 40
0.0
 40
0.0
 40
0.0
 40
0.011581745
 40
0.1599160353
 40
0.4408206077
 40
1.0
 40
1.0
 40
1.0
 40
1.0
 10
11.3682394142
 20
-8.1738253311
 30
0.0
 10
11.3679834918
 20
-8.1719135204
 30
0.0
 10
11.3642971043
 20
-8.1455358201
 30
0.0
 10
11.3482424792
 20
-8.0736336261
 30
0.0
 10
11.2703806312
 20
-7.9245603061
 30
0.0
 10
11.1366148783
 20
-7.8484304761
 30
0.0
 10
11.0459251313
 20
-7.8274572359
 30
0.0
  0
SPLINE
  5
682
100
AcDbEntity
  8
ASSI
100
AcDbSpline
 62
7
  6
CONTINUOUS
 70
0
 71
3
 72
9
 73
5
 74
0
 42
0.0000001
 43
0.0000001
 44
0.0000000001
 40
0.0
 40
0.0
 40
0.0
 40
0.0
 40
0.2407510637
 40
1.0
 40
1.0
 40
1.0
 40
1.0
 10
10.5497507758
 20
-7.087845722
 30
0.0
 10
10.5143812645
 20
-7.1051530549
 30
0.0
 10
10.3763466712
 20
-7.1957847906
 30
0.0
 10
10.3007697954
 20
-7.3591155141
 30
0.0
 10
10.2789939348
 20
-7.4805967217
 30
0.0
  0
SPLINE
  5
683
100
AcDbEntity
  8
ASSI
100
AcDbSpline
 62
7
  6
CONTINUOUS
 70
0
 71
3
 72
11
 73
7
 74
0
 42
0.0000001
 43
0.0000001
 44
0.0000000001
 40
0.0
 40
0.0
 40
0.0
 40
0.0
 40
0.0847481679
 40
0.2044542779
 40
0.4335627983
 40
1.0
 40
1.0
 40
1.0
 40
1.0
 10
10.7852004993
 20
-8.6049730201
 30
0.0
 10
10.771172855
 20
-8.6042750477
 30
0.0
 10
10.7374368369
 20
-8.6009162563
 30
0.0
 10
10.6674905039
 20
-8.5837578413
 30
0.0
 10
10.5323144794
 20
-8.5046916416
 30
0.0
 10
10.4840682118
 20
-8.3669973989
 30
0.0
 10
10.4647602682
 20
-8.2752638146
 30
0.0
  0
SPLINE
  5
684
100
AcDbEntity
  8
ASSI
100
AcDbSpline
 62
7
  6
CONTINUOUS
 70
0
 71
3
 72
11
 73
7
 74
0
 42
0.0000001
 43
0.0000001
 44
0.0000000001
 40
0.0
 40
0.0
 40
0.0
 40
0.0
 40
0.0716515669
 40
0.2980985786
 40
0.5200922106
 40
1.0
 40
1.0
 40
1.0
 40
1.0
 10
-1.45922448
 20
-7.6064934094
 30
0.0
 10
-1.4545343423
 20
-7.5902844626
 30
0.0
 10
-1.4329569871
 20
-7.5234399005
 30
0.0
 10
-1.3794300703
 20
-7.4119838521
 30
0.0
 10
-1.2220317671
 20
-7.2549768429
 30
0.0
 10
-1.0483223674
 20
-7.2122675735
 30
0.0
 10
-0.9356808574
 20
-7.2122675735
 30
0.0
  0
SPLINE
  5
685
100
AcDbEntity
  8
ASSI
100
AcDbSpline
 62
7
  6
CONTINUOUS
 70
0
 71
3
 72
11
 73
7
 74
0
 42
0.0000001
 43
0.0000001
 44
0.0000000001
 40
0.0
 40
0.0
 40
0.0
 40
0.0
 40
0.0963538321
 40
0.3189912623
 40
0.5282474802
 40
1.0
 40
1.0
 40
1.0
 40
1.0
 10
-1.6665522067
 20
-8.2549168007
 30
0.0
 10
-1.6568300985
 20
-8.2848395254
 30
0.0
 10
-1.6204795055
 20
-8.3825388343
 30
0.0
 10
-1.5342066423
 20
-8.5343883472
 30
0.0
 10
-1.313003133
 20
-8.7384128144
 30
0.0
 10
-1.0764803845
 20
-8.7809610556
 30
0.0
 10
-0.9224578623
 20
-8.7809610556
 30
0.0
  0
SPLINE
  5
686
100
AcDbEntity
  8
ASSI
100
AcDbSpline
 62
7
  6
CONTINUOUS
 70
0
 71
3
 72
10
 73
6
 74
0
 42
0.0000001
 43
0.0000001
 44
0.0000000001
 40
0.0
 40
0.0
 40
0.0
 40
0.0
 40
0.1770085042
 40
0.4335521455
 40
1.0
 40
1.0
 40
1.0
 40
1.0
 10
-16.6762733923
 20
-7.5243758677
 30
0.0
 10
-16.6740974495
 20
-7.5498365809
 30
0.0
 10
-16.6629221729
 20
-7.6115114338
 30
0.0
 10
-16.6030234161
 20
-7.7447097967
 30
0.0
 10
-16.5037482846
 20
-7.8221827205
 30
0.0
 10
-16.4313665743
 20
-7.8595470971
 30
0.0
  0
SPLINE
  5
687
100
AcDbEntity
  8
ASSI
100
AcDbSpline
 62
7
  6
CONTINUOUS
 70
0
 71
3
 72
12
 73
8
 74
0
 42
0.0000001
 43
0.0000001
 44
0.0000000001
 40
0.0
 40
0.0
 40
0.0
 40
0.0
 40
0.019381365
 40
0.272806421
 40
0.4985082115
 40
0.7311581305
 40
1.0
 40
1.0
 40
1.0
 40
1.0
 10
-16.28053214
 20
-8.5366859953
 30
0.0
 10
-16.2832221391
 20
-8.5355160207
 30
0.0
 10
-16.320959437
 20
-8.518744034
 30
0.0
 10
-16.3865407154
 20
-8.4802916505
 30
0.0
 10
-16.4602603544
 20
-8.3995414855
 30
0.0
 10
-16.5042221137
 20
-8.29744238
 30
0.0
 10
-16.5184426631
 20
-8.222687521
 30
0.0
 10
-16.5229598349
 20
-8.1823806479
 30
0.0
  0
SPLINE
  5
688
100
AcDbEntity
  8
ASSI
100
AcDbSpline
 62
7
  6
CONTINUOUS
 70
0
 71
3
 72
8
 73
4
 74
0
 42
0.0000001
 43
0.0000001
 44
0.0000000001
 40
0.0
 40
0.0
 40
0.0
 40
0.0
 40
1.0
 40
1.0
 40
1.0
 40
1.0
 10
16.807531949
 20
3.3598992806
 30
0.0
 10
16.5272196494
 20
3.6180109847
 30
0.0
 10
16.1364512928
 20
3.7749999989
 30
0.0
 10
15.762401574
 20
3.7749999989
 30
0.0
  0
SPLINE
  5
689
100
AcDbEntity
  8
RACCORDO
100
AcDbSpline
 62
250
  6
CONTINUOUS
 70
0
 71
3
 72
18
 73
14
 74
0
 42
0.0000001
 43
0.0000001
 44
0.0000000001
 40
0.0
 40
0.0
 40
0.0
 40
0.0
 40
0.2062347573
 40
0.3983421718
 40
0.5709725397
 40
0.7193105273
 40
0.839227692
 40
0.887449845
 40
0.9273915586
 40
0.9587704198
 40
0.981384373
 40
0.995091806
 40
1.0
 40
1.0
 40
1.0
 40
1.0
 10
-58.6444127594
 20
17.1364801696
 30
0.0
 10
-58.6441993969
 20
17.1100285538
 30
0.0
 10
-58.6437133696
 20
17.0589375063
 30
0.0
 10
-58.6427748277
 20
16.9857095892
 30
0.0
 10
-58.6416780383
 20
16.9199051165
 30
0.0
 10
-58.6404471259
 20
16.8633812089
 30
0.0
 10
-58.6393016507
 20
16.8227738766
 30
0.0
 10
-58.6382798675
 20
16.7961512784
 30
0.0
 10
-58.6376101783
 20
16.7807311599
 30
0.0
 10
-58.6368186759
 20
16.7689724633
 30
0.0
 10
-58.6363454252
 20
16.7596969
 30
0.0
 10
-58.6353503111
 20
16.7555469846
 30
0.0
 10
-58.6352300793
 20
16.7520185029
 30
0.0
 10
-58.6346005387
 20
16.752016385
 30
0.0
  0
SPLINE
  5
68A
100
AcDbEntity
  8
RACCORDO
100
AcDbSpline
 62
250
  6
CONTINUOUS
 70
0
 71
3
 72
18
 73
14
 74
0
 42
0.0000001
 43
0.0000001
 44
0.0000000001
 40
0.0
 40
0.0
 40
0.0
 40
0.0
 40
0.0049081938
 40
0.0186156271
 40
0.0412295802
 40
0.0726084413
 40
0.1125501549
 40
0.160772308
 40
0.2806894727
 40
0.4290274603
 40
0.6016578283
 40
0.7937652427
 40
1.0
 40
1.0
 40
1.0
 40
1.0
 10
-67.3653994613
 20
16.752016385
 30
0.0
 10
-67.3647699207
 20
16.7520185027
 30
0.0
 10
-67.3646496889
 20
16.7555469849
 30
0.0
 10
-67.3636545749
 20
16.7596968998
 30
0.0
 10
-67.3631813241
 20
16.7689724634
 30
0.0
 10
-67.3623898217
 20
16.7807311598
 30
0.0
 10
-67.3617201325
 20
16.7961512784
 30
0.0
 10
-67.3606983493
 20
16.8227738766
 30
0.0
 10
-67.3595528741
 20
16.8633812089
 30
0.0
 10
-67.3583219617
 20
16.9199051165
 30
0.0
 10
-67.3572251723
 20
16.9857095892
 30
0.0
 10
-67.3562866304
 20
17.0589375063
 30
0.0
 10
-67.3558006031
 20
17.1100285538
 30
0.0
 10
-67.3555872406
 20
17.1364801696
 30
0.0
  0
SPLINE
  5
68B
100
AcDbEntity
  8
RACCORDO
100
AcDbSpline
 62
250
  6
CONTINUOUS
 70
0
 71
3
 72
18
 73
14
 74
0
 42
0.0000001
 43
0.0000001
 44
0.0000000001
 40
0.0
 40
0.0
 40
0.0
 40
0.0
 40
0.2062347573
 40
0.3983421718
 40
0.5709725397
 40
0.7193105273
 40
0.839227692
 40
0.887449845
 40
0.9273915586
 40
0.9587704198
 40
0.981384373
 40
0.995091806
 40
1.0
 40
1.0
 40
1.0
 40
1.0
 10
67.3555872406
 20
17.1364801696
 30
0.0
 10
67.3558006031
 20
17.1100285538
 30
0.0
 10
67.3562866304
 20
17.0589375063
 30
0.0
 10
67.3572251723
 20
16.9857095892
 30
0.0
 10
67.3583219617
 20
16.9199051165
 30
0.0
 10
67.3595528741
 20
16.8633812089
 30
0.0
 10
67.3606983493
 20
16.8227738766
 30
0.0
 10
67.3617201325
 20
16.7961512784
 30
0.0
 10
67.3623898217
 20
16.7807311599
 30
0.0
 10
67.3631813241
 20
16.7689724633
 30
0.0
 10
67.3636545748
 20
16.7596969
 30
0.0
 10
67.3646496889
 20
16.7555469846
 30
0.0
 10
67.3647699207
 20
16.7520185029
 30
0.0
 10
67.3653994613
 20
16.752016385
 30
0.0
  0
SPLINE
  5
68C
100
AcDbEntity
  8
RACCORDO
100
AcDbSpline
 62
250
  6
CONTINUOUS
 70
0
 71
3
 72
18
 73
14
 74
0
 42
0.0000001
 43
0.0000001
 44
0.0000000001
 40
0.0
 40
0.0
 40
0.0
 40
0.0
 40
0.0049081938
 40
0.0186156271
 40
0.0412295802
 40
0.0726084413
 40
0.1125501549
 40
0.160772308
 40
0.2806894727
 40
0.4290274603
 40
0.6016578283
 40
0.7937652427
 40
1.0
 40
1.0
 40
1.0
 40
1.0
 10
58.6346005387
 20
16.752016385
 30
0.0
 10
58.6352300793
 20
16.7520185027
 30
0.0
 10
58.6353503111
 20
16.7555469849
 30
0.0
 10
58.6363454251
 20
16.7596968998
 30
0.0
 10
58.6368186759
 20
16.7689724634
 30
0.0
 10
58.6376101783
 20
16.7807311598
 30
0.0
 10
58.6382798675
 20
16.7961512784
 30
0.0
 10
58.6393016507
 20
16.8227738766
 30
0.0
 10
58.6404471259
 20
16.8633812089
 30
0.0
 10
58.6416780383
 20
16.9199051165
 30
0.0
 10
58.6427748277
 20
16.9857095892
 30
0.0
 10
58.6437133696
 20
17.0589375063
 30
0.0
 10
58.6441993969
 20
17.1100285538
 30
0.0
 10
58.6444127594
 20
17.1364801696
 30
0.0
  0
SPLINE
  5
68D
100
AcDbEntity
  8
RACCORDO
100
AcDbSpline
 62
7
  6
CONTINUOUS
 70
0
 71
3
 72
11
 73
7
 74
0
 42
0.0000001
 43
0.0000001
 44
0.0000000001
 40
0.0
 40
0.0
 40
0.0
 40
0.0
 40
0.2285022798
 40
0.4655610363
 40
0.7196436051
 40
1.0
 40
1.0
 40
1.0
 40
1.0
 10
19.7
 20
-33.8627574501
 30
0.0
 10
19.6573344534
 20
-33.8635020666
 30
0.0
 10
19.5702120722
 20
-33.8762562068
 30
0.0
 10
19.445276254
 20
-33.9296810243
 30
0.0
 10
19.3311958202
 20
-34.0205519548
 30
0.0
 10
19.2734000948
 20
-34.1042404026
 30
0.0
 10
19.2506029769
 20
-34.1513721668
 30
0.0
  0
SPLINE
  5
68E
100
AcDbEntity
  8
RACCORDO
100
AcDbSpline
 62
7
  6
CONTINUOUS
 70
0
 71
3
 72
9
 73
5
 74
0
 42
0.0000001
 43
0.0000001
 44
0.0000000001
 40
0.0
 40
0.0
 40
0.0
 40
0.0
 40
0.4727023156
 40
1.0
 40
1.0
 40
1.0
 40
1.0
 10
11.7
 20
-33.8627574501
 30
0.0
 10
11.7763092686
 20
-33.8640892305
 30
0.0
 10
11.9390368463
 20
-33.9046925059
 30
0.0
 10
12.0654621297
 20
-34.0175891686
 30
0.0
 10
12.1130497326
 20
-34.0881830938
 30
0.0
  0
LINE
  5
68F
100
AcDbEntity
  8
RACCORDO
100
AcDbLine
 62
7
  6
CONTINUOUS
 10
7.6850881723
 20
-33.8920444723
 11
7.1851452856
 21
-34.3919683198
  0
LINE
  5
690
100
AcDbEntity
  8
RACCORDO
100
AcDbLine
 62
7
  6
CONTINUOUS
 10
7.6851262471
 20
-24.6080316831
 11
7.1851452856
 21
-24.1080316802
  0
LINE
  5
691
100
AcDbEntity
  8
RACCORDO
100
AcDbLine
 62
7
  6
CONTINUOUS
 10
23.7149118277
 20
-24.6079555277
 11
24.2148547144
 21
-24.1080316802
  0
LINE
  5
692
100
AcDbEntity
  8
RACCORDO
100
AcDbLine
 62
7
  6
CONTINUOUS
 10
23.7148737529
 20
-33.8919683169
 11
24.2148547144
 21
-34.3919683198
  0
SPLINE
  5
693
100
AcDbEntity
  8
RACCORDO
100
AcDbSpline
 62
250
  6
CONTINUOUS
 70
0
 71
3
 72
14
 73
10
 74
0
 42
0.0000001
 43
0.0000001
 44
0.0000000001
 40
0.0
 40
0.0
 40
0.0
 40
0.0
 40
0.0469570322
 40
0.1157267167
 40
0.211523739
 40
0.333575987
 40
0.4785990448
 40
0.6418322635
 40
1.0
 40
1.0
 40
1.0
 40
1.0
 10
58.6444127594
 20
17.1364801696
 30
0.0
 10
58.6449708621
 20
17.1282038528
 30
0.0
 10
58.6565726964
 20
17.1092288723
 30
0.0
 10
58.6883483339
 20
17.0891560853
 30
0.0
 10
58.7353693513
 20
17.0698469684
 30
0.0
 10
58.7973166677
 20
17.052995843
 30
0.0
 10
58.872051726
 20
17.0387915561
 30
0.0
 10
58.9888914319
 20
17.023978171
 30
0.0
 10
59.0810669522
 20
17.0194106992
 30
0.0
 10
59.144336607
 20
17.0189275692
 30
0.0
  0
SPLINE
  5
694
100
AcDbEntity
  8
RACCORDO
100
AcDbSpline
 62
7
  6
CONTINUOUS
 70
0
 71
3
 72
17
 73
13
 74
0
 42
0.0000001
 43
0.0000001
 44
0.0000000001
 40
0.0
 40
0.0
 40
0.0
 40
0.0
 40
0.1809483487
 40
0.3548851299
 40
0.5167834319
 40
0.6638242846
 40
0.7925124031
 40
0.8971262009
 40
0.9379294012
 40
0.9694768113
 40
0.9905140308
 40
1.0
 40
1.0
 40
1.0
 40
1.0
 10
67.169682191
 20
20.8460790211
 30
0.0
 10
67.1621373435
 20
20.8140102004
 30
0.0
 10
67.1522797236
 20
20.7496355459
 30
0.0
 10
67.1599447901
 20
20.6549494524
 30
0.0
 10
67.1864741473
 20
20.5705610811
 30
0.0
 10
67.2218572997
 20
20.4989602461
 30
0.0
 10
67.2585699524
 20
20.4401610516
 30
0.0
 10
67.2877964351
 20
20.399670407
 30
0.0
 10
67.3074781096
 20
20.3741761541
 30
0.0
 10
67.3182470227
 20
20.3609819867
 30
0.0
 10
67.3251192775
 20
20.352078933
 30
0.0
 10
67.3289171145
 20
20.3479103346
 30
0.0
 10
67.3296938201
 20
20.3463677772
 30
0.0
  0
SPLINE
  5
695
100
AcDbEntity
  8
RACCORDO
100
AcDbSpline
 62
250
  6
CONTINUOUS
 70
0
 71
3
 72
14
 73
10
 74
0
 42
0.0000001
 43
0.0000001
 44
0.0000000001
 40
0.0
 40
0.0
 40
0.0
 40
0.0
 40
0.0469570228
 40
0.115726699
 40
0.211523716
 40
0.3335759608
 40
0.4785990191
 40
0.6418322426
 40
1.0
 40
1.0
 40
1.0
 40
1.0
 10
67.3555872406
 20
17.1364801696
 30
0.0
 10
67.3550291379
 20
17.1282038545
 30
0.0
 10
67.3434273044
 20
17.1092288776
 30
0.0
 10
67.3116516691
 20
17.0891560957
 30
0.0
 10
67.264630655
 20
17.0698469805
 30
0.0
 10
67.2026833407
 20
17.0529958553
 30
0.0
 10
67.1279482832
 20
17.0387915669
 30
0.0
 10
67.0111085744
 20
17.0239781779
 30
0.0
 10
66.9189330508
 20
17.0194107022
 30
0.0
 10
66.855663393
 20
17.018927569
 30
0.0
  0
SPLINE
  5
696
100
AcDbEntity
  8
RACCORDO
100
AcDbSpline
 62
7
  6
CONTINUOUS
 70
0
 71
3
 72
17
 73
13
 74
0
 42
0.0000001
 43
0.0000001
 44
0.0000000001
 40
0.0
 40
0.0
 40
0.0
 40
0.0
 40
0.1809483487
 40
0.3548851299
 40
0.5167834319
 40
0.6638242846
 40
0.7925124031
 40
0.8971262009
 40
0.9379294012
 40
0.9694768113
 40
0.9905140308
 40
1.0
 40
1.0
 40
1.0
 40
1.0
 10
-58.830317809
 20
20.8460790211
 30
0.0
 10
-58.8378626565
 20
20.8140102004
 30
0.0
 10
-58.8477202764
 20
20.7496355459
 30
0.0
 10
-58.8400552099
 20
20.6549494524
 30
0.0
 10
-58.8135258527
 20
20.5705610811
 30
0.0
 10
-58.7781427003
 20
20.4989602461
 30
0.0
 10
-58.7414300476
 20
20.4401610516
 30
0.0
 10
-58.7122035649
 20
20.399670407
 30
0.0
 10
-58.6925218904
 20
20.3741761541
 30
0.0
 10
-58.6817529773
 20
20.3609819867
 30
0.0
 10
-58.6748807225
 20
20.352078933
 30
0.0
 10
-58.6710828855
 20
20.3479103346
 30
0.0
 10
-58.6703061799
 20
20.3463677772
 30
0.0
  0
SPLINE
  5
697
100
AcDbEntity
  8
RACCORDO
100
AcDbSpline
 62
250
  6
CONTINUOUS
 70
0
 71
3
 72
14
 73
10
 74
0
 42
0.0000001
 43
0.0000001
 44
0.0000000001
 40
0.0
 40
0.0
 40
0.0
 40
0.0
 40
0.0469570228
 40
0.115726699
 40
0.211523716
 40
0.3335759608
 40
0.4785990191
 40
0.6418322426
 40
1.0
 40
1.0
 40
1.0
 40
1.0
 10
-58.6444127594
 20
17.1364801696
 30
0.0
 10
-58.6449708621
 20
17.1282038545
 30
0.0
 10
-58.6565726956
 20
17.1092288776
 30
0.0
 10
-58.6883483309
 20
17.0891560957
 30
0.0
 10
-58.735369345
 20
17.0698469805
 30
0.0
 10
-58.7973166593
 20
17.0529958553
 30
0.0
 10
-58.8720517168
 20
17.0387915669
 30
0.0
 10
-58.9888914256
 20
17.0239781779
 30
0.0
 10
-59.0810669492
 20
17.0194107022
 30
0.0
 10
-59.144336607
 20
17.018927569
 30
0.0
  0
SPLINE
  5
698
100
AcDbEntity
  8
RACCORDO
100
AcDbSpline
 62
250
  6
CONTINUOUS
 70
0
 71
3
 72
14
 73
10
 74
0
 42
0.0000001
 43
0.0000001
 44
0.0000000001
 40
0.0
 40
0.0
 40
0.0
 40
0.0
 40
0.0469570322
 40
0.1157267167
 40
0.211523739
 40
0.333575987
 40
0.4785990448
 40
0.6418322635
 40
1.0
 40
1.0
 40
1.0
 40
1.0
 10
-67.3555872406
 20
17.1364801696
 30
0.0
 10
-67.3550291379
 20
17.1282038528
 30
0.0
 10
-67.3434273036
 20
17.1092288723
 30
0.0
 10
-67.3116516661
 20
17.0891560853
 30
0.0
 10
-67.2646306487
 20
17.0698469684
 30
0.0
 10
-67.2026833323
 20
17.052995843
 30
0.0
 10
-67.127948274
 20
17.0387915561
 30
0.0
 10
-67.0111085681
 20
17.023978171
 30
0.0
 10
-66.9189330478
 20
17.0194106992
 30
0.0
 10
-66.855663393
 20
17.0189275692
 30
0.0
  0
SPLINE
  5
699
100
AcDbEntity
  8
RACCORDO
100
AcDbSpline
 62
250
  6
CONTINUOUS
 70
0
 71
3
 72
13
 73
9
 74
0
 42
0.0000001
 43
0.0000001
 44
0.0000000001
 40
0.0
 40
0.0
 40
0.0
 40
0.0
 40
0.0174781168
 40
0.0651162696
 40
0.1437247932
 40
0.2533561776
 40
0.5654466118
 40
1.0
 40
1.0
 40
1.0
 40
1.0
 10
59.1345243863
 20
16.25
 30
0.0
 10
59.1347499849
 20
16.2500007739
 30
0.0
 10
59.1348797976
 20
16.2512033671
 30
0.0
 10
59.1352171253
 20
16.252688044
 30
0.0
 10
59.1354546398
 20
16.2559164437
 30
0.0
 10
59.1359229477
 20
16.2622409331
 30
0.0
 10
59.136414879
 20
16.2733724288
 30
0.0
 10
59.1367599374
 20
16.2829715893
 30
0.0
 10
59.1369376242
 20
16.288577799
 30
0.0
  0
SPLINE
  5
69A
100
AcDbEntity
  8
RACCORDO
100
AcDbSpline
 62
250
  6
CONTINUOUS
 70
0
 71
3
 72
9
 73
5
 74
0
 42
0.0000001
 43
0.0000001
 44
0.0000000001
 40
0.0
 40
0.0
 40
0.0
 40
0.0
 40
0.37049819
 40
1.0
 40
1.0
 40
1.0
 40
1.0
 10
59.1369376242
 20
16.288577799
 30
0.0
 10
59.1397951507
 20
16.3787358485
 30
0.0
 10
59.1418396422
 20
16.6222224789
 30
0.0
 10
59.1437177031
 20
16.865667194
 30
0.0
 10
59.144336607
 20
17.0189275692
 30
0.0
  0
SPLINE
  5
69B
100
AcDbEntity
  8
RACCORDO
100
AcDbSpline
 62
250
  6
CONTINUOUS
 70
0
 71
3
 72
21
 73
17
 74
0
 42
0.0000001
 43
0.0000001
 44
0.0000000001
 40
0.0
 40
0.0
 40
0.0
 40
0.0
 40
0.2063434748
 40
0.39855216
 40
0.5712659202
 40
0.7196686868
 40
0.7834284225
 40
0.8396234745
 40
0.8878521565
 40
0.9277880252
 40
0.9591436379
 40
0.9817118944
 40
0.9896461942
 40
0.9953327254
 40
0.9987710088
 40
1.0
 40
1.0
 40
1.0
 40
1.0
 10
66.855663393
 20
17.0189275692
 30
0.0
 10
66.8558770176
 20
16.9660272887
 30
0.0
 10
66.8563628449
 20
16.863850762
 30
0.0
 10
66.8573004383
 20
16.7173969417
 30
0.0
 10
66.8583999318
 20
16.5857994697
 30
0.0
 10
66.8594666122
 20
16.4871327796
 30
0.0
 10
66.8604036935
 20
16.4183409821
 30
0.0
 10
66.8610878511
 20
16.3752257829
 30
0.0
 10
66.8617900301
 20
16.3382316273
 30
0.0
 10
66.8624841871
 20
16.3075723743
 30
0.0
 10
66.8632110199
 20
16.2835858249
 30
0.0
 10
66.8637793627
 20
16.267599812
 30
0.0
 10
66.8643733313
 20
16.2585238366
 30
0.0
 10
66.8646075069
 20
16.2538535195
 30
0.0
 10
66.8651036551
 20
16.2517705991
 30
0.0
 10
66.8651605365
 20
16.2500010809
 30
0.0
 10
66.8654756137
 20
16.25
 30
0.0
  0
SPLINE
  5
69C
100
AcDbEntity
  8
RACCORDO
100
AcDbSpline
 62
250
  6
CONTINUOUS
 70
0
 71
3
 72
21
 73
17
 74
0
 42
0.0000001
 43
0.0000001
 44
0.0000000001
 40
0.0
 40
0.0
 40
0.0
 40
0.0
 40
0.2063434748
 40
0.39855216
 40
0.5712659202
 40
0.7196686868
 40
0.7834284225
 40
0.8396234745
 40
0.8878521565
 40
0.9277880252
 40
0.9591436379
 40
0.9817118944
 40
0.9896461942
 40
0.9953327254
 40
0.9987710088
 40
1.0
 40
1.0
 40
1.0
 40
1.0
 10
-59.144336607
 20
17.0189275692
 30
0.0
 10
-59.1441229824
 20
16.9660272887
 30
0.0
 10
-59.1436371551
 20
16.863850762
 30
0.0
 10
-59.1426995617
 20
16.7173969417
 30
0.0
 10
-59.1416000682
 20
16.5857994697
 30
0.0
 10
-59.1405333878
 20
16.4871327796
 30
0.0
 10
-59.1395963065
 20
16.4183409821
 30
0.0
 10
-59.1389121489
 20
16.3752257829
 30
0.0
 10
-59.1382099699
 20
16.3382316273
 30
0.0
 10
-59.1375158129
 20
16.3075723743
 30
0.0
 10
-59.1367889801
 20
16.2835858249
 30
0.0
 10
-59.1362206373
 20
16.267599812
 30
0.0
 10
-59.1356266687
 20
16.2585238366
 30
0.0
 10
-59.1353924931
 20
16.2538535195
 30
0.0
 10
-59.1348963449
 20
16.2517705991
 30
0.0
 10
-59.1348394635
 20
16.2500010809
 30
0.0
 10
-59.1345243863
 20
16.25
 30
0.0
  0
SPLINE
  5
69D
100
AcDbEntity
  8
RACCORDO
100
AcDbSpline
 62
250
  6
CONTINUOUS
 70
0
 71
3
 72
13
 73
9
 74
0
 42
0.0000001
 43
0.0000001
 44
0.0000000001
 40
0.0
 40
0.0
 40
0.0
 40
0.0
 40
0.0174781168
 40
0.0651162696
 40
0.1437247932
 40
0.2533561776
 40
0.5654466118
 40
1.0
 40
1.0
 40
1.0
 40
1.0
 10
-66.8654756137
 20
16.25
 30
0.0
 10
-66.8652500151
 20
16.2500007739
 30
0.0
 10
-66.8651202024
 20
16.2512033671
 30
0.0
 10
-66.8647828747
 20
16.252688044
 30
0.0
 10
-66.8645453602
 20
16.2559164437
 30
0.0
 10
-66.8640770523
 20
16.2622409331
 30
0.0
 10
-66.863585121
 20
16.2733724288
 30
0.0
 10
-66.8632400626
 20
16.2829715893
 30
0.0
 10
-66.8630623758
 20
16.288577799
 30
0.0
  0
SPLINE
  5
69E
100
AcDbEntity
  8
RACCORDO
100
AcDbSpline
 62
250
  6
CONTINUOUS
 70
0
 71
3
 72
9
 73
5
 74
0
 42
0.0000001
 43
0.0000001
 44
0.0000000001
 40
0.0
 40
0.0
 40
0.0
 40
0.0
 40
0.37049819
 40
1.0
 40
1.0
 40
1.0
 40
1.0
 10
-66.8630623758
 20
16.288577799
 30
0.0
 10
-66.8602048493
 20
16.3787358485
 30
0.0
 10
-66.8581603578
 20
16.6222224789
 30
0.0
 10
-66.8562822969
 20
16.865667194
 30
0.0
 10
-66.855663393
 20
17.0189275692
 30
0.0
  0
SPLINE
  5
69F
100
AcDbEntity
  8
RACCORDO
100
AcDbSpline
 62
7
  6
CONTINUOUS
 70
0
 71
3
 72
17
 73
13
 74
0
 42
0.0000001
 43
0.0000001
 44
0.0000000001
 40
0.0
 40
0.0
 40
0.0
 40
0.0
 40
0.0094859692
 40
0.0305231887
 40
0.0620705988
 40
0.1028737991
 40
0.2074875969
 40
0.3361757154
 40
0.4832165681
 40
0.6451148701
 40
0.8190516513
 40
1.0
 40
1.0
 40
1.0
 40
1.0
 10
-67.3296938201
 20
20.3463677772
 30
0.0
 10
-67.3289171145
 20
20.3479103346
 30
0.0
 10
-67.3251192775
 20
20.352078933
 30
0.0
 10
-67.3182470227
 20
20.3609819867
 30
0.0
 10
-67.3074781096
 20
20.3741761541
 30
0.0
 10
-67.2877964351
 20
20.399670407
 30
0.0
 10
-67.2585699524
 20
20.4401610516
 30
0.0
 10
-67.2218572997
 20
20.4989602461
 30
0.0
 10
-67.1864741473
 20
20.5705610811
 30
0.0
 10
-67.1599447901
 20
20.6549494524
 30
0.0
 10
-67.1522797236
 20
20.7496355459
 30
0.0
 10
-67.1621373435
 20
20.8140102004
 30
0.0
 10
-67.169682191
 20
20.8460790211
 30
0.0
  0
SPLINE
  5
6A0
100
AcDbEntity
  8
RACCORDO
100
AcDbSpline
 62
7
  6
CONTINUOUS
 70
0
 71
3
 72
17
 73
13
 74
0
 42
0.0000001
 43
0.0000001
 44
0.0000000001
 40
0.0
 40
0.0
 40
0.0
 40
0.0
 40
0.0094859692
 40
0.0305231887
 40
0.0620705988
 40
0.1028737991
 40
0.2074875969
 40
0.3361757154
 40
0.4832165681
 40
0.6451148701
 40
0.8190516513
 40
1.0
 40
1.0
 40
1.0
 40
1.0
 10
58.6703061799
 20
20.3463677772
 30
0.0
 10
58.6710828855
 20
20.3479103346
 30
0.0
 10
58.6748807225
 20
20.352078933
 30
0.0
 10
58.6817529773
 20
20.3609819867
 30
0.0
 10
58.6925218904
 20
20.3741761541
 30
0.0
 10
58.7122035649
 20
20.399670407
 30
0.0
 10
58.7414300476
 20
20.4401610516
 30
0.0
 10
58.7781427003
 20
20.4989602461
 30
0.0
 10
58.8135258527
 20
20.5705610811
 30
0.0
 10
58.8400552099
 20
20.6549494524
 30
0.0
 10
58.8477202764
 20
20.7496355459
 30
0.0
 10
58.8378626565
 20
20.8140102004
 30
0.0
 10
58.830317809
 20
20.8460790211
 30
0.0
  0
SPLINE
  5
6A1
100
AcDbEntity
  8
RACCORDO
100
AcDbSpline
 62
7
  6
CONTINUOUS
 70
0
 71
3
 72
11
 73
7
 74
0
 42
0.0000001
 43
0.0000001
 44
0.0000000001
 40
0.0
 40
0.0
 40
0.0
 40
0.0
 40
0.2159064073
 40
0.4462375141
 40
0.7056197029
 40
1.0
 40
1.0
 40
1.0
 40
1.0
 10
-69.8375155797
 20
20.7413486316
 30
0.0
 10
-69.8365323845
 20
20.6859874531
 30
0.0
 10
-69.8144381907
 20
20.5710228071
 30
0.0
 10
-69.7194205118
 20
20.4126541293
 30
0.0
 10
-69.5565438904
 20
20.286464367
 30
0.0
 10
-69.4130754272
 20
20.2513681104
 30
0.0
 10
-69.3375917321
 20
20.2500735289
 30
0.0
  0
SPLINE
  5
6A2
100
AcDbEntity
  8
RACCORDO
100
AcDbSpline
 62
7
  6
CONTINUOUS
 70
0
 71
3
 72
11
 73
7
 74
0
 42
0.0000001
 43
0.0000001
 44
0.0000000001
 40
0.0
 40
0.0
 40
0.0
 40
0.0
 40
0.2159064073
 40
0.4462375141
 40
0.7056197029
 40
1.0
 40
1.0
 40
1.0
 40
1.0
 10
-69.8375155797
 20
-16.2413486316
 30
0.0
 10
-69.8365323845
 20
-16.1859874531
 30
0.0
 10
-69.8144381907
 20
-16.0710228071
 30
0.0
 10
-69.7194205118
 20
-15.9126541293
 30
0.0
 10
-69.5565438904
 20
-15.786464367
 30
0.0
 10
-69.4130754272
 20
-15.7513681104
 30
0.0
 10
-69.3375917321
 20
-15.7500735289
 30
0.0
  0
SPLINE
  5
6A3
100
AcDbEntity
  8
RACCORDO
100
AcDbSpline
 62
7
  6
CONTINUOUS
 70
0
 71
3
 72
11
 73
7
 74
0
 42
0.0000001
 43
0.0000001
 44
0.0000000001
 40
0.0
 40
0.0
 40
0.0
 40
0.0
 40
0.2159064073
 40
0.4462375141
 40
0.7056197029
 40
1.0
 40
1.0
 40
1.0
 40
1.0
 10
9.9586513684
 20
-42.4827851902
 30
0.0
 10
10.0140125469
 20
-42.481801995
 30
0.0
 10
10.1289771929
 20
-42.4597078011
 30
0.0
 10
10.2873458707
 20
-42.3646901222
 30
0.0
 10
10.413535633
 20
-42.2018135008
 30
0.0
 10
10.4486318896
 20
-42.0583450376
 30
0.0
 10
10.4499264711
 20
-41.9828613426
 30
0.0
  0
SPLINE
  5
6A4
100
AcDbEntity
  8
RACCORDO
100
AcDbSpline
 62
7
  6
CONTINUOUS
 70
0
 71
3
 72
11
 73
7
 74
0
 42
0.0000001
 43
0.0000001
 44
0.0000000001
 40
0.0
 40
0.0
 40
0.0
 40
0.0
 40
0.2159064073
 40
0.4462375141
 40
0.7056197029
 40
1.0
 40
1.0
 40
1.0
 40
1.0
 10
10.1157469528
 20
-42.6398807745
 30
0.0
 10
10.1711081313
 20
-42.6388975793
 30
0.0
 10
10.2860727773
 20
-42.6168033854
 30
0.0
 10
10.444441455
 20
-42.5217857066
 30
0.0
 10
10.5706312173
 20
-42.3589090851
 30
0.0
 10
10.605727474
 20
-42.215440622
 30
0.0
 10
10.6070220554
 20
-42.1399569269
 30
0.0
  0
SPLINE
  5
6A5
100
AcDbEntity
  8
RACCORDO
100
AcDbSpline
 62
7
  6
CONTINUOUS
 70
0
 71
3
 72
11
 73
7
 74
0
 42
0.0000001
 43
0.0000001
 44
0.0000000001
 40
0.0
 40
0.0
 40
0.0
 40
0.0
 40
0.2159064073
 40
0.4462375141
 40
0.7056197029
 40
1.0
 40
1.0
 40
1.0
 40
1.0
 10
21.2842530472
 20
-42.6398807745
 30
0.0
 10
21.2288918687
 20
-42.6388975793
 30
0.0
 10
21.1139272227
 20
-42.6168033854
 30
0.0
 10
20.955558545
 20
-42.5217857066
 30
0.0
 10
20.8293687827
 20
-42.3589090851
 30
0.0
 10
20.794272526
 20
-42.215440622
 30
0.0
 10
20.7929779446
 20
-42.1399569269
 30
0.0
  0
SPLINE
  5
6A6
100
AcDbEntity
  8
RACCORDO
100
AcDbSpline
 62
7
  6
CONTINUOUS
 70
0
 71
3
 72
11
 73
7
 74
0
 42
0.0000001
 43
0.0000001
 44
0.0000000001
 40
0.0
 40
0.0
 40
0.0
 40
0.0
 40
0.2159064073
 40
0.4462375141
 40
0.7056197029
 40
1.0
 40
1.0
 40
1.0
 40
1.0
 10
21.4413486316
 20
-42.4827851902
 30
0.0
 10
21.3859874531
 20
-42.481801995
 30
0.0
 10
21.2710228071
 20
-42.4597078011
 30
0.0
 10
21.1126541293
 20
-42.3646901222
 30
0.0
 10
20.986464367
 20
-42.2018135008
 30
0.0
 10
20.9513681104
 20
-42.0583450376
 30
0.0
 10
20.9500735289
 20
-41.9828613426
 30
0.0
  0
SPLINE
  5
6A7
100
AcDbEntity
  8
RACCORDO
100
AcDbSpline
 62
7
  6
CONTINUOUS
 70
0
 71
3
 72
11
 73
7
 74
0
 42
0.0000001
 43
0.0000001
 44
0.0000000001
 40
0.0
 40
0.0
 40
0.0
 40
0.0
 40
0.2159064073
 40
0.4462375141
 40
0.7056197029
 40
1.0
 40
1.0
 40
1.0
 40
1.0
 10
69.8375155797
 20
-16.2413486316
 30
0.0
 10
69.8365323845
 20
-16.1859874531
 30
0.0
 10
69.8144381907
 20
-16.0710228071
 30
0.0
 10
69.7194205118
 20
-15.9126541293
 30
0.0
 10
69.5565438904
 20
-15.786464367
 30
0.0
 10
69.4130754272
 20
-15.7513681104
 30
0.0
 10
69.3375917321
 20
-15.7500735289
 30
0.0
  0
SPLINE
  5
6A8
100
AcDbEntity
  8
RACCORDO
100
AcDbSpline
 62
7
  6
CONTINUOUS
 70
0
 71
3
 72
11
 73
7
 74
0
 42
0.0000001
 43
0.0000001
 44
0.0000000001
 40
0.0
 40
0.0
 40
0.0
 40
0.0
 40
0.2159064073
 40
0.4462375141
 40
0.7056197029
 40
1.0
 40
1.0
 40
1.0
 40
1.0
 10
69.8375155797
 20
20.7413486316
 30
0.0
 10
69.8365323845
 20
20.6859874531
 30
0.0
 10
69.8144381907
 20
20.5710228071
 30
0.0
 10
69.7194205118
 20
20.4126541293
 30
0.0
 10
69.5565438904
 20
20.286464367
 30
0.0
 10
69.4130754272
 20
20.2513681104
 30
0.0
 10
69.3375917321
 20
20.2500735289
 30
0.0
  0
ELLIPSE
  5
6A9
100
AcDbEntity
  8
RACCORDO
100
AcDbEllipse
 62
7
  6
CONTINUOUS
 10
10.9000304656
 20
-47.0499695344
 30
0.0
 11
0.1414644378
 21
0.1414644378
 31
0.0
 40
0.9996954599
 41
2.3563467834
 42
3.9268385237
  0
ELLIPSE
  5
6AA
100
AcDbEntity
  8
RACCORDO
100
AcDbEllipse
 62
7
  6
CONTINUOUS
 10
20.4999695344
 20
-47.0499695344
 30
0.0
 11
0.1414644378
 21
-0.1414644378
 31
0.0
 40
0.9996954599
 41
-0.7852458701
 42
0.7852458701
  0
ELLIPSE
  5
6AB
100
AcDbEntity
  8
RACCORDO
100
AcDbEllipse
 62
7
  6
CONTINUOUS
 10
23.4946869438
 20
-15.2553892202
 30
0.0
 11
-0.0
 21
0.5
 31
0.0
 40
0.0174550649
 41
0.0174532925
 42
1.0960667703
  0
ELLIPSE
  5
6AC
100
AcDbEntity
  8
RACCORDO
100
AcDbEllipse
 62
7
  6
CONTINUOUS
 10
7.9053130562
 20
-15.2553892202
 30
0.0
 11
0.0
 21
0.5
 31
0.0
 40
0.0174550649
 41
-1.0960667703
 42
-0.0174532925
  0
ELLIPSE
  5
6AD
100
AcDbEntity
  8
RACCORDO
100
AcDbEllipse
 62
7
  6
CONTINUOUS
 10
69.4999809608
 20
-42.2499809608
 30
0.0
 11
-0.3535803156
 21
0.3535803156
 31
0.0
 40
0.9999238505
 41
2.3562325664
 42
3.9269527408
  0
ELLIPSE
  5
6AE
100
AcDbEntity
  8
RACCORDO
100
AcDbEllipse
 62
7
  6
CONTINUOUS
 10
-69.4999809608
 20
-42.2499809608
 30
0.0
 11
-0.3535803156
 21
-0.3535803156
 31
0.0
 40
0.9999238505
 41
-0.7853600872
 42
0.7853600872
  0
ELLIPSE
  5
6AF
100
AcDbEntity
  8
RACCORDO
100
AcDbEllipse
 62
7
  6
CONTINUOUS
 10
34.0616293228
 20
-34.6616293228
 30
0.0
 11
-0.1414644378
 21
0.1414644378
 31
0.0
 40
0.9996954599
 41
-0.7852458701
 42
0.7852458701
  0
ELLIPSE
  5
6B0
100
AcDbEntity
  8
RACCORDO
100
AcDbEllipse
 62
7
  6
CONTINUOUS
 10
34.0616293228
 20
39.1616293228
 30
0.0
 11
-0.1414644378
 21
-0.1414644378
 31
0.0
 40
0.9996954599
 41
-0.7852458701
 42
0.7852458701
  0
ELLIPSE
  5
6B1
100
AcDbEntity
  8
RACCORDO
100
AcDbEllipse
 62
7
  6
CONTINUOUS
 10
69.499923836
 20
-42.249923836
 30
0.0
 11
0.3536610946
 21
-0.3536610946
 31
0.0
 40
0.9996954599
 41
-0.7852458701
 42
0.7852458701
  0
ELLIPSE
  5
6B2
100
AcDbEntity
  8
RACCORDO
100
AcDbEllipse
 62
7
  6
CONTINUOUS
 10
69.499923836
 20
46.749923836
 30
0.0
 11
0.3536610946
 21
0.3536610946
 31
0.0
 40
0.9996954599
 41
-0.7852458701
 42
0.7852458701
  0
ELLIPSE
  5
6B3
100
AcDbEntity
  8
RACCORDO
100
AcDbEllipse
 62
7
  6
CONTINUOUS
 10
-69.499923836
 20
46.749923836
 30
0.0
 11
0.3536610946
 21
-0.3536610946
 31
0.0
 40
0.9996954599
 41
2.3563467834
 42
3.9268385237
  0
ELLIPSE
  5
6B4
100
AcDbEntity
  8
RACCORDO
100
AcDbEllipse
 62
7
  6
CONTINUOUS
 10
-69.499923836
 20
-42.249923836
 30
0.0
 11
0.3536610946
 21
0.3536610946
 31
0.0
 40
0.9996954599
 41
-3.9268385237
 42
-2.3563467834
  0
ELLIPSE
  5
6B5
100
AcDbEntity
  8
RACCORDO
100
AcDbEllipse
 62
7
  6
CONTINUOUS
 10
8.2061278466
 20
-19.549923836
 30
0.0
 11
-0.2236357461
 21
-0.4473055582
 31
0.0
 40
0.9998096356
 41
5.1760822795
 42
6.7467263073
  0
ELLIPSE
  5
6B6
100
AcDbEntity
  8
RACCORDO
100
AcDbEllipse
 62
7
  6
CONTINUOUS
 10
23.1938721534
 20
-19.549923836
 30
0.0
 11
-0.2236357461
 21
0.4473055582
 31
0.0
 40
0.9998096356
 41
8.9612369607
 42
10.5318809884
  0
ELLIPSE
  5
6B7
100
AcDbEntity
  8
RACCORDO
100
AcDbEllipse
 62
7
  6
CONTINUOUS
 10
66.899923836
 20
16.75
 30
0.0
 11
0.3609171409
 21
0.3475427561
 31
0.0
 40
0.9959724651
 41
-2.3393351651
 42
-0.7645060574
  0
ELLIPSE
  5
6B8
100
AcDbEntity
  8
RACCORDO
100
AcDbEllipse
 62
7
  6
CONTINUOUS
 10
59.100076164
 20
16.75
 30
0.0
 11
-0.3609171409
 21
0.3475427561
 31
0.0
 40
0.9959724651
 41
0.7645060574
 42
2.3393351651
  0
ELLIPSE
  5
6B9
100
AcDbEntity
  8
RACCORDO
100
AcDbEllipse
 62
7
  6
CONTINUOUS
 10
-66.899923836
 20
16.75
 30
0.0
 11
-0.3609171409
 21
0.3475427561
 31
0.0
 40
0.9959724651
 41
0.7645060574
 42
2.3393351651
  0
ELLIPSE
  5
6BA
100
AcDbEntity
  8
RACCORDO
100
AcDbEllipse
 62
7
  6
CONTINUOUS
 10
-59.100076164
 20
16.75
 30
0.0
 11
0.3609171409
 21
0.3475427561
 31
0.0
 40
0.9959724651
 41
-2.3393351651
 42
-0.7645060574
  0
ELLIPSE
  5
6BB
100
AcDbEntity
  8
RACCORDO
100
AcDbEllipse
 62
7
  6
CONTINUOUS
 10
19.4229020938
 20
-33.7456362338
 30
0.0
 11
0.25
 21
-0.0
 31
0.0
 40
0.0174550649
 41
-2.1695738837
 42
-1.5707963268
  0
ELLIPSE
  5
6BC
100
AcDbEntity
  8
RACCORDO
100
AcDbEllipse
 62
7
  6
CONTINUOUS
 10
15.7
 20
-33.7814191169
 30
0.0
 11
4.0
 21
-0.0
 31
0.0
 40
0.0174550649
 41
1.6743315257
 42
2.6382538449
  0
ELLIPSE
  5
6BD
100
AcDbEntity
  8
RACCORDO
100
AcDbEllipse
 62
7
  6
CONTINUOUS
 10
11.9770979062
 20
-33.7456362338
 30
0.0
 11
0.25
 21
0.0
 31
0.0
 40
0.0174550649
 41
-1.5707963268
 42
-0.5033388086
  0
ELLIPSE
  5
6BE
100
AcDbEntity
  8
RACCORDO
100
AcDbEllipse
 62
7
  6
CONTINUOUS
 10
-69.3288641997
 20
-16.250076164
 30
0.0
 11
0.3536610946
 21
-0.3536610946
 31
0.0
 40
0.9996954599
 41
2.3563467834
 42
2.3734954895
  0
ELLIPSE
  5
6BF
100
AcDbEntity
  8
RACCORDO
100
AcDbEllipse
 62
7
  6
CONTINUOUS
 10
-69.3288641997
 20
20.750076164
 30
0.0
 11
0.3536610946
 21
0.3536610946
 31
0.0
 40
0.9996954599
 41
-2.3734954895
 42
-2.3563467834
  0
ELLIPSE
  5
6C0
100
AcDbEntity
  8
RACCORDO
100
AcDbEllipse
 62
7
  6
CONTINUOUS
 10
69.3288641997
 20
20.750076164
 30
0.0
 11
0.3536610946
 21
-0.3536610946
 31
0.0
 40
0.9996954599
 41
-0.7852458701
 42
-0.7680971641
  0
ELLIPSE
  5
6C1
100
AcDbEntity
  8
RACCORDO
100
AcDbEllipse
 62
7
  6
CONTINUOUS
 10
69.3288641997
 20
-16.250076164
 30
0.0
 11
0.3536610946
 21
0.3536610946
 31
0.0
 40
0.9996954599
 41
0.7680971641
 42
0.7852458701
  0
ELLIPSE
  5
6C2
100
AcDbEntity
  8
RACCORDO
100
AcDbEllipse
 62
7
  6
CONTINUOUS
 10
9.949923836
 20
-41.9741338101
 30
0.0
 11
-0.3536610946
 21
0.3536610946
 31
0.0
 40
0.9996954599
 41
-2.3734954895
 42
-2.3563467834
  0
ELLIPSE
  5
6C3
100
AcDbEntity
  8
RACCORDO
100
AcDbEllipse
 62
7
  6
CONTINUOUS
 10
21.450076164
 20
-41.9741338101
 30
0.0
 11
-0.3536610946
 21
-0.3536610946
 31
0.0
 40
0.9996954599
 41
-0.7852458701
 42
-0.7680971641
  0
ELLIPSE
  5
6C4
100
AcDbEntity
  8
RACCORDO
100
AcDbEllipse
 62
7
  6
CONTINUOUS
 10
59.1869239815
 20
22.4138236906
 30
0.0
 11
0.0174550346
 21
2.1638199317
 31
0.0
 40
0.2310653143
 41
2.383005471
 42
2.9102768012
  0
ELLIPSE
  5
6C5
100
AcDbEntity
  8
RACCORDO
100
AcDbEllipse
 62
7
  6
CONTINUOUS
 10
-59.1869239815
 20
22.4138236906
 30
0.0
 11
0.0174550346
 21
-2.1638199317
 31
0.0
 40
0.2310653143
 41
0.2313158524
 42
0.7585871826
  0
ELLIPSE
  5
6C6
100
AcDbEntity
  8
RACCORDO
100
AcDbEllipse
 62
7
  6
CONTINUOUS
 10
20.946508987
 20
-40.096364963
 30
0.0
 11
0.0
 21
0.2
 31
0.0
 40
0.0174550649
 41
-3.1241393611
 42
-1.5707963268
  0
ELLIPSE
  5
6C7
100
AcDbEntity
  8
RACCORDO
100
AcDbEllipse
 62
7
  6
CONTINUOUS
 10
10.453491013
 20
-40.096364963
 30
0.0
 11
-0.0
 21
0.2
 31
0.0
 40
0.0174550649
 41
-4.7123889804
 42
-3.1590459461
  0
ELLIPSE
  5
6C8
100
AcDbEntity
  8
RACCORDO
100
AcDbEllipse
 62
7
  6
CONTINUOUS
 10
19.7
 20
-36.7777465397
 30
0.0
 11
-0.0
 21
1.0722534603
 31
0.0
 40
0.4663076582
 41
1.5707963268
 42
3.1415926536
  0
ELLIPSE
  5
6C9
100
AcDbEntity
  8
RACCORDO
100
AcDbEllipse
 62
7
  6
CONTINUOUS
 10
11.7
 20
-34.3723900883
 30
0.0
 11
0.0
 21
0.5041799013
 31
0.0
 40
0.9917095044
 41
-1.5707963268
 42
-1.1170107213
  0
ELLIPSE
  5
6CA
100
AcDbEntity
  8
RACCORDO
100
AcDbEllipse
 62
7
  6
CONTINUOUS
 10
11.7
 20
-36.7777465397
 30
0.0
 11
0.0
 21
1.0722534603
 31
0.0
 40
0.4663076582
 41
-3.1415926536
 42
-1.5707963268
  0
ELLIPSE
  5
6CB
100
AcDbEntity
  8
RACCORDO
100
AcDbEllipse
 62
7
  6
CONTINUOUS
 10
-66.8130760185
 20
22.4138236906
 30
0.0
 11
0.0174550346
 21
2.1638199317
 31
0.0
 40
0.2310653143
 41
2.383005471
 42
2.9102768012
  0
ELLIPSE
  5
6CC
100
AcDbEntity
  8
RACCORDO
100
AcDbEllipse
 62
7
  6
CONTINUOUS
 10
66.8130760185
 20
22.4138236906
 30
0.0
 11
0.0174550346
 21
-2.1638199317
 31
0.0
 40
0.2310653143
 41
0.2313158524
 42
0.7585871826
  0
ELLIPSE
  5
6CD
100
AcDbEntity
  8
RACCORDO
100
AcDbEllipse
 62
7
  6
CONTINUOUS
 10
19.7
 20
-34.3723900883
 30
0.0
 11
0.0
 21
0.5041799013
 31
0.0
 40
0.9917095044
 41
1.1170107213
 42
1.5707963268
  0
ELLIPSE
  5
6CE
100
AcDbEntity
  8
RACCORDO
100
AcDbEllipse
 62
7
  6
CONTINUOUS
 10
24.1668569416
 20
-16.250076164
 30
0.0
 11
-0.2236357461
 21
0.4473055582
 31
0.0
 40
0.9998096356
 41
-0.4635410001
 42
1.1071030277
  0
ELLIPSE
  5
6CF
100
AcDbEntity
  8
RACCORDO
100
AcDbEllipse
 62
7
  6
CONTINUOUS
 10
7.2331430584
 20
-16.250076164
 30
0.0
 11
0.2236357461
 21
0.4473055582
 31
0.0
 40
0.9998096356
 41
-1.1071030277
 42
0.4635410001
  0
ELLIPSE
  5
6D0
100
AcDbEntity
  8
RACCORDO
100
AcDbEllipse
 62
7
  6
CONTINUOUS
 10
-67.3279668345
 20
20.8460790211
 30
0.0
 11
0.0020172739
 21
0.4999999988
 31
0.0
 40
0.0169823943
 41
-3.1240708448
 42
-3.107536852
  0
ELLIPSE
  5
6D1
100
AcDbEntity
  8
RACCORDO
100
AcDbEllipse
 62
7
  6
CONTINUOUS
 10
21.2929805797
 20
-42.1312293945
 30
0.0
 11
0.3536610946
 21
0.3536610946
 31
0.0
 40
0.9996954599
 41
-3.9268385237
 42
-3.9096898177
  0
ELLIPSE
  5
6D2
100
AcDbEntity
  8
RACCORDO
100
AcDbEllipse
 62
7
  6
CONTINUOUS
 10
10.1070194203
 20
-42.1312293945
 30
0.0
 11
0.3536610946
 21
-0.3536610946
 31
0.0
 40
0.9996954599
 41
0.7680971641
 42
0.7852458701
  0
ELLIPSE
  5
6D3
100
AcDbEntity
  8
RACCORDO
100
AcDbEllipse
 62
7
  6
CONTINUOUS
 10
67.3279668345
 20
20.8460790211
 30
0.0
 11
-0.0020172739
 21
0.4999999988
 31
0.0
 40
0.0169823943
 41
-3.1756484552
 42
-3.1591144624
  0
ELLIPSE
  5
6D4
100
AcDbEntity
  8
RACCORDO
100
AcDbEllipse
 62
7
  6
CONTINUOUS
 10
-58.6720331655
 20
20.8460790211
 30
0.0
 11
-0.0020172739
 21
0.4999999988
 31
0.0
 40
0.0169823943
 41
-3.1756484552
 42
-3.1591144624
  0
ELLIPSE
  5
6D5
100
AcDbEntity
  8
RACCORDO
100
AcDbEllipse
 62
7
  6
CONTINUOUS
 10
58.6720331655
 20
20.8460790211
 30
0.0
 11
0.0020172739
 21
0.4999999988
 31
0.0
 40
0.0169823943
 41
-3.1240708448
 42
-3.107536852
  0
ENDSEC
  0
SECTION
  2
OBJECTS
  0
DICTIONARY
  5
C
100
AcDbDictionary
280
0
281
1
  3
ACAD_GROUP
350
D
  3
ACAD_MLINESTYLE
350
17
  3
ACAD_LAYOUT
350
1A
  3
ACAD_PLOTSETTINGS
350
19
  3
ACAD_PLOTSTYLENAME
350
E
  0
DICTIONARY
  5
D
102
{ACAD_REACTORS
330
C
102
}
100
AcDbDictionary
280
0
281
1
  0
ACDBDICTIONARYWDFLT
  5
E
102
{ACAD_REACTORS
330
C
102
}
100
AcDbDictionary
281
1
  3
Normal
350
F
100
AcDbDictionaryWithDefault
340
F
  0
DICTIONARY
  5
17
102
{ACAD_REACTORS
330
C
102
}
100
AcDbDictionary
280
0
281
1
  3
Standard
350
18
  0
DICTIONARY
  5
19
102
{ACAD_REACTORS
330
C
102
}
100
AcDbDictionary
281
1
  0
DICTIONARY
  5
1A
102
{ACAD_REACTORS
330
C
102
}
100
AcDbDictionary
281
1
  3
Model
350
6D6
  3
Layout1
350
6D7
  0
ACDBPLACEHOLDER
  5
F
102
{ACAD_REACTORS
330
E
102
}
  0
MLINESTYLE
  5
18
102
{ACAD_REACTORS
330
17
102
}
100
AcDbMlineStyle
  2
STANDARD
 70
0
  3

 62
256
 51
90.0
 52
90.0
 71
2
 49
0.5
 62
256
  6
BYLAYER
 49
-0.5
 62
256
  6
BYLAYER
  0
LAYOUT
  5
6D6
102
{ACAD_REACTORS
330
1A
102
}
100
AcDbPlotSettings
  1

  2
none_device
  4
ANSI_C_(22.00_x_17.00_Inches)
  6

 40
0.0
 41
0.0
 42
0.0
 43
0.0
 44
558.8
 45
431.8
 46
0.0
 47
0.0
 48
0.0
 49
0.0
140
0.0
141
0.0
142
1.0
143
1.0
 70
1024
 72
1
 73
0
 74
0
  7

 75
0
147
1.0
148
0.0
149
0.0
100
AcDbLayout
  1
Model
 70
0
 71
0
 10
0.0
 20
0.0
 11
558.8
 21
431.8
 12
0.0
 22
0.0
 32
0.0
 14
0.0
 24
0.0
 34
0.0
 15
0.0
 25
0.0
 35
0.0
146
0.0
 13
0.0
 23
0.0
 33
0.0
 16
1.0
 26
0.0
 36
0.0
 17
0.0
 27
1.0
 37
0.0
 76
0
330
217
345
0
346
0
  0
LAYOUT
  5
6D7
102
{ACAD_REACTORS
330
1A
102
}
100
AcDbPlotSettings
  1

  2
none_device
  4
ANSI_C_(22.00_x_17.00_Inches)
  6

 40
0.0
 41
0.0
 42
0.0
 43
0.0
 44
558.8
 45
431.8
 46
0.0
 47
0.0
 48
0.0
 49
0.0
140
0.0
141
0.0
142
1.0
143
1.0
 70
0
 72
1
 73
0
 74
0
  7

 75
0
147
1.0
148
0.0
149
0.0
100
AcDbLayout
  1
Layout1
 70
0
 71
1
 10
0.0
 20
0.0
 11
558.8
 21
431.8
 12
0.0
 22
0.0
 32
0.0
 14
0.0
 24
0.0
 34
0.0
 15
0.0
 25
0.0
 35
0.0
146
0.0
 13
0.0
 23
0.0
 33
0.0
 16
1.0
 26
0.0
 36
0.0
 17
0.0
 27
1.0
 37
0.0
 76
0
330
218
345
0
346
0
  0
ENDSEC
  0
EOF
