  0
SECTION
  2
HEADER
  9
$ACADVER
  1
AC1024
  9
$DWGCODEPAGE
  3
ANSI_1252
  9
$EXTMAX
 10
558.8
 20
431.8
 30
0.0
  9
$EXTMIN
 10
0.0
 20
0.0
 30
0.0
  9
$LIMMIN
 10
0.0
 20
0.0
  9
$LIMMAX
 10
558.8
 20
431.8
  9
$VIEWCTR
 10
279.4
 20
215.9
  9
$VIEWSIZE
 40
431.8
  9
$CLAYER
  8
0
  9
$LTSCALE
 40
30.734
  9
$CELTYPE
  6
BYLAYER
  9
$DIMSCALE
 40
1.0
  9
$DIMASZ
 40
3.0
  9
$DIMEXO
 40
0.5
  9
$DIMDLI
 40
21.2344
  9
$DIMEXE
 40
1.5
  9
$DIMCEN
 40
5.0292
  9
$DIMLFAC
 40
1.0
  9
$DIMBLK
  1
_FILLED
  9
$DIMALT
 70
0
  9
$DIMALTF
 40
0.0393700787
  9
$DIMTXT
 40
3.0
  9
$DIMTOL
 70
1
  9
$DIMLIM
 70
0
  9
$DIMTFAC
 40
1.0
  9
$DIMTP
 40
0.01
  9
$DIMTM
 40
0.01
  9
$DIMGAP
 40
0.625
  9
$DIMDSEP
 70
44
  9
$AUNITS
 70
0
  9
$PDMODE
 70
3
  9
$PDSIZE
 40
3.0
  9
$HANDSEED
  5
70F
  9
$TILEMODE
 70
1
  9
$MEASUREMENT
 70
1
  9
$INSUNITS
 70
4
  0
ENDSEC
  0
SECTION
  2
CLASSES
  0
CLASS
  1
ACDBDICTIONARYWDFLT
  2
AcDbDictionaryWithDefault
  3
AutoCAD 2000
 90
0
 91
1
280
0
281
0
  0
CLASS
  1
ACDBPLACEHOLDER
  2
AcDbPlaceHolder
  3
AutoCAD 2000
 90
0
 91
1
280
0
281
0
  0
CLASS
  1
LAYOUT
  2
AcDbLayout
  3
AutoCAD 2000
 90
0
 91
0
280
0
281
0
  0
ENDSEC
  0
SECTION
  2
TABLES
  0
TABLE
  2
VPORT
  5
8
100
AcDbSymbolTable
 70
2
  0
VPORT
  5
1F4
100
AcDbSymbolTableRecord
100
AcDbViewportTableRecord
  2
*ACTIVE
 70
0
 10
0.0
 20
0.0
 11
1.0
 21
1.0
 12
279.4
 22
215.9
 13
0.0
 23
0.0
 14
1.0
 24
1.0
 15
0.0
 25
0.0
 16
0.0
 26
0.0
 36
1.0
 17
0.0
 27
0.0
 37
0.0
 40
431.8
 41
1.2941176471
 42
50.0
 43
0.0
 44
0.0
 50
0.0
 51
0.0
 71
0
 72
100
 73
1
 74
1
 75
0
 76
0
 77
0
 78
0
  0
ENDTAB
  0
TABLE
  2
LTYPE
  5
5
100
AcDbSymbolTable
 70
6
  0
LTYPE
  5
14
100
AcDbSymbolTableRecord
100
AcDbLinetypeTableRecord
  2
BYBLOCK
 70
0
  3

 72
65
 73
0
 40
0.0
  0
LTYPE
  5
15
100
AcDbSymbolTableRecord
100
AcDbLinetypeTableRecord
  2
BYLAYER
 70
0
  3

 72
65
 73
0
 40
0.0
  0
LTYPE
  5
16
100
AcDbSymbolTableRecord
100
AcDbLinetypeTableRecord
  2
CONTINUOUS
 70
64
  3
Solid line
 72
65
 73
0
 40
0.0
  0
LTYPE
  5
1F5
100
AcDbSymbolTableRecord
100
AcDbLinetypeTableRecord
  2
CENTER
 70
64
  3
____ _ ____ _ ____ _ ____ _ ____ _ ____ _ ____
 72
65
 73
4
 40
0.6
 49
0.375
 74
0
 49
-0.075
 74
0
 49
0.075
 74
0
 49
-0.075
 74
0
  0
LTYPE
  5
1F6
100
AcDbSymbolTableRecord
100
AcDbLinetypeTableRecord
  2
HIDDEN
 70
64
  3
- - - - - - - - - - - - - - - - - - - -
 72
65
 73
2
 40
0.2
 49
0.1
 74
0
 49
-0.1
 74
0
  0
LTYPE
  5
1F7
100
AcDbSymbolTableRecord
100
AcDbLinetypeTableRecord
  2
PHANTOM
 70
64
  3
_____ _ _ _____ _ _ _____ _ _ _____
 72
65
 73
6
 40
0.8
 49
0.45
 74
0
 49
-0.05
 74
0
 49
0.1
 74
0
 49
-0.05
 74
0
 49
0.1
 74
0
 49
-0.05
 74
0
  0
LTYPE
  5
1F8
100
AcDbSymbolTableRecord
100
AcDbLinetypeTableRecord
  2
DOT
 70
64
  3
. . . . . . . . . . . . . . . . . . . .
 72
65
 73
2
 40
0.2
 49
0.1
 74
0
 49
-0.1
 74
0
  0
LTYPE
  5
1F9
100
AcDbSymbolTableRecord
100
AcDbLinetypeTableRecord
  2
DASHED
 70
64
  3
- - - - - - - - - - - - - - - - - - - -
 72
65
 73
2
 40
0.2
 49
0.1
 74
0
 49
-0.1
 74
0
  0
ENDTAB
  0
TABLE
  2
LAYER
  5
2
100
AcDbSymbolTable
 70
36
  0
LAYER
  5
10
100
AcDbSymbolTableRecord
100
AcDbLayerTableRecord
  2
0
 70
0
 62
7
  6
CONTINUOUS
370
-3
390
F
  0
LAYER
  5
1FA
100
AcDbSymbolTableRecord
100
AcDbLayerTableRecord
  2
DEFAULT_1
 70
0
 62
7
  6
CENTER
370
-3
390
F
  0
LAYER
  5
1FB
100
AcDbSymbolTableRecord
100
AcDbLayerTableRecord
  2
DEFAULT_2
 70
0
 62
7
  6
HIDDEN
370
-3
390
F
  0
LAYER
  5
1FC
100
AcDbSymbolTableRecord
100
AcDbLayerTableRecord
  2
DEFAULT_3
 70
0
 62
7
  6
PHANTOM
370
-3
390
F
  0
LAYER
  5
1FD
100
AcDbSymbolTableRecord
100
AcDbLayerTableRecord
  2
06___PRT_ALL_SURFS_1
 70
0
 62
7
  6
CONTINUOUS
370
-3
390
F
  0
LAYER
  5
1FE
100
AcDbSymbolTableRecord
100
AcDbLayerTableRecord
  2
06___PRT_ALL_SURFS_10
 70
0
 62
7
  6
CONTINUOUS
370
-3
390
F
  0
LAYER
  5
1FF
100
AcDbSymbolTableRecord
100
AcDbLayerTableRecord
  2
06___PRT_ALL_SURFS_11
 70
0
 62
7
  6
CONTINUOUS
370
-3
390
F
  0
LAYER
  5
200
100
AcDbSymbolTableRecord
100
AcDbLayerTableRecord
  2
06___PRT_ALL_SURFS_13
 70
0
 62
7
  6
CONTINUOUS
370
-3
390
F
  0
LAYER
  5
201
100
AcDbSymbolTableRecord
100
AcDbLayerTableRecord
  2
06___PRT_ALL_SURFS_14
 70
0
 62
7
  6
CONTINUOUS
370
-3
390
F
  0
LAYER
  5
202
100
AcDbSymbolTableRecord
100
AcDbLayerTableRecord
  2
06___PRT_ALL_SURFS_16
 70
0
 62
7
  6
CONTINUOUS
370
-3
390
F
  0
LAYER
  5
203
100
AcDbSymbolTableRecord
100
AcDbLayerTableRecord
  2
06___PRT_ALL_SURFS_6
 70
0
 62
7
  6
CONTINUOUS
370
-3
390
F
  0
LAYER
  5
204
100
AcDbSymbolTableRecord
100
AcDbLayerTableRecord
  2
43000751A0
 70
0
 62
7
  6
CONTINUOUS
370
-3
390
F
  0
LAYER
  5
205
100
AcDbSymbolTableRecord
100
AcDbLayerTableRecord
  2
43900751A0
 70
0
 62
7
  6
CONTINUOUS
370
-3
390
F
  0
LAYER
  5
206
100
AcDbSymbolTableRecord
100
AcDbLayerTableRecord
  2
ASSI
 70
0
 62
7
  6
CONTINUOUS
370
-3
390
F
  0
LAYER
  5
207
100
AcDbSymbolTableRecord
100
AcDbLayerTableRecord
  2
CAP-E-10_0-20_0-5_0_2000000
 70
0
 62
7
  6
CONTINUOUS
370
-3
390
F
  0
LAYER
  5
208
100
AcDbSymbolTableRecord
100
AcDbLayerTableRecord
  2
CAP-E-16_0-35_5-7_5_3550000
 70
0
 62
7
  6
CONTINUOUS
370
-3
390
F
  0
LAYER
  5
209
100
AcDbSymbolTableRecord
100
AcDbLayerTableRecord
  2
CAP-E-5_0-11_0-2_5_1100000
 70
0
 62
7
  6
CONTINUOUS
370
-3
390
F
  0
LAYER
  5
20A
100
AcDbSymbolTableRecord
100
AcDbLayerTableRecord
  2
CAP-REC-18_0-6_0-17_5-15_0_1760
 70
0
 62
7
  6
CONTINUOUS
370
-3
390
F
  0
LAYER
  5
20B
100
AcDbSymbolTableRecord
100
AcDbLayerTableRecord
  2
CAP-REC-7_2-2_5-6_5-5_0_660000
 70
0
 62
7
  6
CONTINUOUS
370
-3
390
F
  0
LAYER
  5
20C
100
AcDbSymbolTableRecord
100
AcDbLayerTableRecord
  2
CN_M_THT_SAURO_MSM_R1_P3_P5_152
 70
0
 62
7
  6
CONTINUOUS
370
-3
390
F
  0
LAYER
  5
20D
100
AcDbSymbolTableRecord
100
AcDbLayerTableRecord
  2
COLOR1
 70
0
 62
7
  6
CONTINUOUS
370
-3
390
F
  0
LAYER
  5
20E
100
AcDbSymbolTableRecord
100
AcDbLayerTableRecord
  2
COLOR14
 70
0
 62
7
  6
CONTINUOUS
370
-3
390
F
  0
LAYER
  5
20F
100
AcDbSymbolTableRecord
100
AcDbLayerTableRecord
  2
COLOR5
 70
0
 62
7
  6
CONTINUOUS
370
-3
390
F
  0
LAYER
  5
210
100
AcDbSymbolTableRecord
100
AcDbLayerTableRecord
  2
COORDINATE
 70
0
 62
7
  6
CONTINUOUS
370
-3
390
F
  0
LAYER
  5
211
100
AcDbSymbolTableRecord
100
AcDbLayerTableRecord
  2
COPY_PUBLISH
 70
0
 62
7
  6
CONTINUOUS
370
-3
390
F
  0
LAYER
  5
212
100
AcDbSymbolTableRecord
100
AcDbLayerTableRecord
  2
COSMETIC
 70
0
 62
7
  6
CONTINUOUS
370
-3
390
F
  0
LAYER
  5
213
100
AcDbSymbolTableRecord
100
AcDbLayerTableRecord
  2
COSMETICI
 70
0
 62
7
  6
CONTINUOUS
370
-3
390
F
  0
LAYER
  5
214
100
AcDbSymbolTableRecord
100
AcDbLayerTableRecord
  2
CR_PONTE_10MM__100000
 70
0
 62
7
  6
CONTINUOUS
370
-3
390
F
  0
LAYER
  5
215
100
AcDbSymbolTableRecord
100
AcDbLayerTableRecord
  2
CURVE
 70
0
 62
7
  6
CONTINUOUS
370
-3
390
F
  0
LAYER
  5
216
100
AcDbSymbolTableRecord
100
AcDbLayerTableRecord
  2
DB-THT-9_9-9_9-5_6-5_1-0_8-WOG_
 70
0
 62
7
  6
CONTINUOUS
370
-3
390
F
  0
LAYER
  5
217
100
AcDbSymbolTableRecord
100
AcDbLayerTableRecord
  2
DRAFT
 70
0
 62
7
  6
CONTINUOUS
370
-3
390
F
  0
LAYER
  5
218
100
AcDbSymbolTableRecord
100
AcDbLayerTableRecord
  2
ETICHETTA
 70
0
 62
7
  6
CONTINUOUS
370
-3
390
F
  0
LAYER
  5
219
100
AcDbSymbolTableRecord
100
AcDbLayerTableRecord
  2
GEOMETRIA_SOLIDA
 70
0
 62
7
  6
CONTINUOUS
370
-3
390
F
  0
LAYER
  5
21A
100
AcDbSymbolTableRecord
100
AcDbLayerTableRecord
  2
GEOMETRIA_SOLIDA_1
 70
0
 62
7
  6
CONTINUOUS
370
-3
390
F
  0
LAYER
  5
21B
100
AcDbSymbolTableRecord
100
AcDbLayerTableRecord
  2
IGES_HOLGER
 70
0
 62
7
  6
CONTINUOUS
370
-3
390
F
  0
LAYER
  5
21C
100
AcDbSymbolTableRecord
100
AcDbLayerTableRecord
  2
IMPORT_IGES
 70
0
 62
7
  6
CONTINUOUS
370
-3
390
F
  0
LAYER
  5
21D
100
AcDbSymbolTableRecord
100
AcDbLayerTableRecord
  2
IND-RAD-9_0-12_0-5_0-0_6_120000
 70
0
 62
7
  6
CONTINUOUS
370
-3
390
F
  0
LAYER
  5
21E
100
AcDbSymbolTableRecord
100
AcDbLayerTableRecord
  2
IND-RAD-9_0-12_0-5_0-0_6_1200_1
 70
0
 62
7
  6
CONTINUOUS
370
-3
390
F
  0
LAYER
  5
21F
100
AcDbSymbolTableRecord
100
AcDbLayerTableRecord
  2
INTFCLR_1
 70
0
 62
7
  6
CONTINUOUS
370
-3
390
F
  0
LAYER
  5
220
100
AcDbSymbolTableRecord
100
AcDbLayerTableRecord
  2
INTFCLR_3
 70
0
 62
7
  6
CONTINUOUS
370
-3
390
F
  0
LAYER
  5
221
100
AcDbSymbolTableRecord
100
AcDbLayerTableRecord
  2
INTF_1
 70
0
 62
7
  6
CONTINUOUS
370
-3
390
F
  0
LAYER
  5
222
100
AcDbSymbolTableRecord
100
AcDbLayerTableRecord
  2
INTF_11
 70
0
 62
7
  6
CONTINUOUS
370
-3
390
F
  0
LAYER
  5
223
100
AcDbSymbolTableRecord
100
AcDbLayerTableRecord
  2
INTF_12
 70
0
 62
7
  6
CONTINUOUS
370
-3
390
F
  0
LAYER
  5
224
100
AcDbSymbolTableRecord
100
AcDbLayerTableRecord
  2
INTF_2
 70
0
 62
7
  6
CONTINUOUS
370
-3
390
F
  0
LAYER
  5
225
100
AcDbSymbolTableRecord
100
AcDbLayerTableRecord
  2
INTF_53
 70
0
 62
7
  6
CONTINUOUS
370
-3
390
F
  0
LAYER
  5
226
100
AcDbSymbolTableRecord
100
AcDbLayerTableRecord
  2
INTF_6
 70
0
 62
7
  6
CONTINUOUS
370
-3
390
F
  0
LAYER
  5
227
100
AcDbSymbolTableRecord
100
AcDbLayerTableRecord
  2
INTF_8
 70
0
 62
7
  6
CONTINUOUS
370
-3
390
F
  0
LAYER
  5
228
100
AcDbSymbolTableRecord
100
AcDbLayerTableRecord
  2
INTF_YELLOW
 70
0
 62
7
  6
CONTINUOUS
370
-3
390
F
  0
LAYER
  5
229
100
AcDbSymbolTableRecord
100
AcDbLayerTableRecord
  2
LIVELLO_1
 70
0
 62
7
  6
CONTINUOUS
370
-3
390
F
  0
LAYER
  5
22A
100
AcDbSymbolTableRecord
100
AcDbLayerTableRecord
  2
MR2P10_SAURO_MSM02002_PTH_15200
 70
0
 62
7
  6
CONTINUOUS
370
-3
390
F
  0
LAYER
  5
22B
100
AcDbSymbolTableRecord
100
AcDbLayerTableRecord
  2
NOTE
 70
0
 62
7
  6
CONTINUOUS
370
-3
390
F
  0
LAYER
  5
22C
100
AcDbSymbolTableRecord
100
AcDbLayerTableRecord
  2
PIANI
 70
0
 62
7
  6
CONTINUOUS
370
-3
390
F
  0
LAYER
  5
22D
100
AcDbSymbolTableRecord
100
AcDbLayerTableRecord
  2
PTC_BOURNS_MF-RM_STYLE-1_140000
 70
0
 62
7
  6
CONTINUOUS
370
-3
390
F
  0
LAYER
  5
22E
100
AcDbSymbolTableRecord
100
AcDbLayerTableRecord
  2
PTC_BOURNS_MF-RX_STYLE-1_152000
 70
0
 62
7
  6
CONTINUOUS
370
-3
390
F
  0
LAYER
  5
22F
100
AcDbSymbolTableRecord
100
AcDbLayerTableRecord
  2
PUNTI
 70
0
 62
7
  6
CONTINUOUS
370
-3
390
F
  0
LAYER
  5
230
100
AcDbSymbolTableRecord
100
AcDbLayerTableRecord
  2
RACCORDO
 70
0
 62
7
  6
CONTINUOUS
370
-3
390
F
  0
LAYER
  5
231
100
AcDbSymbolTableRecord
100
AcDbLayerTableRecord
  2
RES-ASS-2_5-6_5-0-6-10_0_260000
 70
0
 62
7
  6
CONTINUOUS
370
-3
390
F
  0
LAYER
  5
232
100
AcDbSymbolTableRecord
100
AcDbLayerTableRecord
  2
RES-ASS-2_5-6_5-0-6-10_0_2600_1
 70
0
 62
7
  6
CONTINUOUS
370
-3
390
F
  0
LAYER
  5
233
100
AcDbSymbolTableRecord
100
AcDbLayerTableRecord
  2
RES-ASS-2_5-6_5-0-6-10_0_2600_2
 70
0
 62
7
  6
CONTINUOUS
370
-3
390
F
  0
LAYER
  5
234
100
AcDbSymbolTableRecord
100
AcDbLayerTableRecord
  2
RES-ASS-2_5-6_5-0-6-10_0_2600_3
 70
0
 62
7
  6
CONTINUOUS
370
-3
390
F
  0
LAYER
  5
235
100
AcDbSymbolTableRecord
100
AcDbLayerTableRecord
  2
RES-ASS-2_5-6_5-0-6-10_0_2600_4
 70
0
 62
7
  6
CONTINUOUS
370
-3
390
F
  0
LAYER
  5
236
100
AcDbSymbolTableRecord
100
AcDbLayerTableRecord
  2
RES-ASS-2_5-6_5-0-6-10_0_2600_5
 70
0
 62
7
  6
CONTINUOUS
370
-3
390
F
  0
LAYER
  5
237
100
AcDbSymbolTableRecord
100
AcDbLayerTableRecord
  2
RES-ASS-2_5-6_5-0_6-10_0_260000
 70
0
 62
7
  6
CONTINUOUS
370
-3
390
F
  0
LAYER
  5
238
100
AcDbSymbolTableRecord
100
AcDbLayerTableRecord
  2
RES-ASS-2_5-6_5-0_6-10_0_2600_1
 70
0
 62
7
  6
CONTINUOUS
370
-3
390
F
  0
LAYER
  5
239
100
AcDbSymbolTableRecord
100
AcDbLayerTableRecord
  2
RGB____0____0____0__
 70
0
 62
7
  6
CONTINUOUS
370
-3
390
F
  0
LAYER
  5
23A
100
AcDbSymbolTableRecord
100
AcDbLayerTableRecord
  2
SIMBOLI
 70
0
 62
7
  6
CONTINUOUS
370
-3
390
F
  0
LAYER
  5
23B
100
AcDbSymbolTableRecord
100
AcDbLayerTableRecord
  2
SKETCH_COSTRUTTIVI
 70
0
 62
7
  6
CONTINUOUS
370
-3
390
F
  0
LAYER
  5
23C
100
AcDbSymbolTableRecord
100
AcDbLayerTableRecord
  2
SMUSSO
 70
0
 62
7
  6
CONTINUOUS
370
-3
390
F
  0
LAYER
  5
23D
100
AcDbSymbolTableRecord
100
AcDbLayerTableRecord
  2
SNAPLINE
 70
0
 62
7
  6
CONTINUOUS
370
-3
390
F
  0
LAYER
  5
23E
100
AcDbSymbolTableRecord
100
AcDbLayerTableRecord
  2
SUPERFICI
 70
0
 62
7
  6
CONTINUOUS
370
-3
390
F
  0
LAYER
  5
23F
100
AcDbSymbolTableRecord
100
AcDbLayerTableRecord
  2
SYMBOL_DATA_10000
 70
0
 62
7
  6
CONTINUOUS
370
-3
390
F
  0
LAYER
  5
240
100
AcDbSymbolTableRecord
100
AcDbLayerTableRecord
  2
SYMBOL_E2_10000
 70
0
 62
7
  6
CONTINUOUS
370
-3
390
F
  0
LAYER
  5
241
100
AcDbSymbolTableRecord
100
AcDbLayerTableRecord
  2
SYMBOL_NO-PB_10000
 70
0
 62
7
  6
CONTINUOUS
370
-3
390
F
  0
LAYER
  5
242
100
AcDbSymbolTableRecord
100
AcDbLayerTableRecord
  2
TO220_V_1970000
 70
0
 62
7
  6
CONTINUOUS
370
-3
390
F
  0
LAYER
  5
243
100
AcDbSymbolTableRecord
100
AcDbLayerTableRecord
  2
TO92-H8_0-P2_54_800000
 70
0
 62
7
  6
CONTINUOUS
370
-3
390
F
  0
LAYER
  5
244
100
AcDbSymbolTableRecord
100
AcDbLayerTableRecord
  2
TRASF_R19X19X28_L47_5X75_430000
 70
0
 62
7
  6
CONTINUOUS
370
-3
390
F
  0
LAYER
  5
245
100
AcDbSymbolTableRecord
100
AcDbLayerTableRecord
  2
TRASH
 70
0
 62
7
  6
CONTINUOUS
370
-3
390
F
  0
LAYER
  5
246
100
AcDbSymbolTableRecord
100
AcDbLayerTableRecord
  2
TRA_R19X19X28_L47_5X75_4300000
 70
0
 62
7
  6
CONTINUOUS
370
-3
390
F
  0
LAYER
  5
247
100
AcDbSymbolTableRecord
100
AcDbLayerTableRecord
  2
VG_DO-41_270000
 70
0
 62
7
  6
CONTINUOUS
370
-3
390
F
  0
LAYER
  5
248
100
AcDbSymbolTableRecord
100
AcDbLayerTableRecord
  2
VG_DO-41_270000_1
 70
0
 62
7
  6
CONTINUOUS
370
-3
390
F
  0
LAYER
  5
249
100
AcDbSymbolTableRecord
100
AcDbLayerTableRecord
  2
VG_D_BRIDGE_DIODES_GBU4_2100000
 70
0
 62
7
  6
CONTINUOUS
370
-3
390
F
  0
LAYER
  5
24A
100
AcDbSymbolTableRecord
100
AcDbLayerTableRecord
  2
WHITE
 70
0
 62
7
  6
CONTINUOUS
370
-3
390
F
  0
LAYER
  5
24B
100
AcDbSymbolTableRecord
100
AcDbLayerTableRecord
  2
XSEC_DATUMS
 70
0
 62
7
  6
CONTINUOUS
370
-3
390
F
  0
LAYER
  5
24C
100
AcDbSymbolTableRecord
100
AcDbLayerTableRecord
  2
___SHELL
 70
0
 62
7
  6
CONTINUOUS
370
-3
390
F
  0
ENDTAB
  0
TABLE
  2
STYLE
  5
3
100
AcDbSymbolTable
 70
1
  0
STYLE
  5
11
100
AcDbSymbolTableRecord
100
AcDbTextStyleTableRecord
  2
STANDARD
 70
0
 40
0.0
 41
0.8
 50
0.0
 71
0
 42
0.2
  3
txt
  4

  0
STYLE
  5
24D
100
AcDbSymbolTableRecord
100
AcDbTextStyleTableRecord
  2
TEXTSTYLE_1
 70
0
 40
0.0
 41
0.8
 50
0.0
 71
0
 42
0.2
  3
gdt
  4

  0
ENDTAB
  0
TABLE
  2
VIEW
  5
6
100
AcDbSymbolTable
 70
0
  0
ENDTAB
  0
TABLE
  2
UCS
  5
7
100
AcDbSymbolTable
 70
0
  0
ENDTAB
  0
TABLE
  2
APPID
  5
9
100
AcDbSymbolTable
 70
1
  0
APPID
  5
24E
100
AcDbSymbolTableRecord
100
AcDbRegAppTableRecord
  2
ACAD
 70
0
  0
ENDTAB
  0
TABLE
  2
BLOCK_RECORD
  5
1
100
AcDbSymbolTable
 70
0
  0
BLOCK_RECORD
  5
24F
100
AcDbSymbolTableRecord
100
AcDbBlockTableRecord
  2
*Model_Space
  0
BLOCK_RECORD
  5
250
100
AcDbSymbolTableRecord
100
AcDbBlockTableRecord
  2
*Paper_Space
  0
BLOCK_RECORD
  5
251
100
AcDbSymbolTableRecord
100
AcDbBlockTableRecord
  2
_FILLED
  0
ENDTAB
  0
TABLE
  2
DIMSTYLE
  5
A
100
AcDbSymbolTable
 70
1
100
AcDbDimStyleTable
 71
0
  0
DIMSTYLE
105
252
100
AcDbSymbolTableRecord
100
AcDbDimStyleTableRecord
  2
STANDARD
 70
0
  3

  4

 40
1.0
 41
3.0
 42
0.5
 43
0.38
 44
1.5
 45
0.0
 46
0.0
 47
0.01
 48
0.01
140
3.0
141
0.09
142
0.0
143
25.4
144
1.0
145
0.0
146
1.0
147
0.625
 71
1
 72
0
 73
0
 74
0
 75
0
 76
0
 77
1
 78
8
 79
2
170
0
171
1
172
0
173
0
174
0
175
0
176
0
177
0
178
0
270
2
179
2
271
2
272
2
273
2
274
2
275
0
280
0
281
0
282
0
283
1
284
8
285
0
286
0
287
3
288
0
340
11
278
44
341
251
342
251
343
251
344
251
  0
ENDTAB
  0
ENDSEC
  0
SECTION
  2
BLOCKS
  0
BLOCK
  5
20
100
AcDbEntity
  8
0
100
AcDbBlockBegin
  2
*Model_Space
 70
0
 10
0.0
 20
0.0
 30
0.0
  3
*Model_Space
  1

  0
ENDBLK
  5
21
100
AcDbEntity
  8
0
100
AcDbBlockEnd
  0
BLOCK
  5
1C
100
AcDbEntity
  8
0
100
AcDbBlockBegin
  2
*Paper_Space
 70
0
 10
0.0
 20
0.0
 30
0.0
  3
*Paper_Space
  1

  0
ENDBLK
  5
1D
100
AcDbEntity
  8
0
100
AcDbBlockEnd
  0
BLOCK
  5
253
100
AcDbEntity
  8
0
100
AcDbBlockBegin
  2
_FILLED
 70
64
 10
0.0
 20
0.0
  3
_FILLED
  1

  0
SOLID
  5
254
100
AcDbEntity
  8
0
  6
BYBLOCK
 62
0
100
AcDbTrace
 10
0.0
 20
0.0
 11
-1.0
 21
0.3166666667
 12
-1.0
 22
-0.3166666667
 13
-1.0
 23
-0.3166666667
  0
ENDBLK
  5
255
100
AcDbEntity
  8
0
  6
BYBLOCK
 62
0
100
AcDbBlockEnd
  0
ENDSEC
  0
SECTION
  2
ENTITIES
  0
LINE
  5
256
100
AcDbEntity
  8
0
100
AcDbLine
 62
7
  6
CONTINUOUS
 10
-31.5945597073
 20
59.5865507187
 11
-31.4793650524
 21
59.7017453736
  0
LINE
  5
257
100
AcDbEntity
  8
0
100
AcDbLine
 62
7
  6
CONTINUOUS
 10
-31.5945597073
 20
-59.5865507187
 11
-31.4793650524
 21
-59.7017453736
  0
LINE
  5
258
100
AcDbEntity
  8
0
100
AcDbLine
 62
7
  6
CONTINUOUS
 10
-31.4810951949
 20
55.1634645123
 11
-31.5282964827
 21
55.1162632245
  0
LINE
  5
259
100
AcDbEntity
  8
0
100
AcDbLine
 62
7
  6
CONTINUOUS
 10
-31.4810951949
 20
-55.1634645123
 11
-31.5282964827
 21
-55.1162632245
  0
LINE
  5
25A
100
AcDbEntity
  8
0
100
AcDbLine
 62
7
  6
CONTINUOUS
 10
-31.4793650524
 20
-59.7017453736
 11
31.4793650524
 21
-59.7017453736
  0
LINE
  5
25B
100
AcDbEntity
  8
0
100
AcDbLine
 62
7
  6
CONTINUOUS
 10
29.9597543621
 20
-58.2017453736
 11
0.3848053452
 21
-58.2017453736
  0
LINE
  5
25C
100
AcDbEntity
  8
0
100
AcDbLine
 62
7
  6
CONTINUOUS
 10
-0.3848053452
 20
-58.2017453736
 11
-29.9597543621
 21
-58.2017453736
  0
LINE
  5
25D
100
AcDbEntity
  8
0
100
AcDbLine
 62
7
  6
CONTINUOUS
 10
-29.8111319072
 20
-58.0531229186
 11
-0.5334278001
 21
-58.0531229186
  0
LINE
  5
25E
100
AcDbEntity
  8
0
100
AcDbLine
 62
7
  6
CONTINUOUS
 10
0.5334278001
 20
-58.0531229186
 11
29.8111319072
 21
-58.0531229186
  0
LINE
  5
25F
100
AcDbEntity
  8
0
100
AcDbLine
 62
250
  6
CONTINUOUS
 10
-29.8073832772
 20
-57.8015748213
 11
-0.53717643
 21
-57.8015748213
  0
LINE
  5
260
100
AcDbEntity
  8
0
100
AcDbLine
 62
250
  6
CONTINUOUS
 10
0.53717643
 20
-57.8015748213
 11
29.8073832772
 21
-57.8015748213
  0
LINE
  5
261
100
AcDbEntity
  8
0
100
AcDbLine
 62
250
  6
CONTINUOUS
 10
29.7980113475
 20
-55.925867995
 11
0.5465483598
 21
-55.925867995
  0
LINE
  5
262
100
AcDbEntity
  8
0
100
AcDbLine
 62
250
  6
CONTINUOUS
 10
-0.5465483598
 20
-55.925867995
 11
-29.7980113475
 21
-55.925867995
  0
LINE
  5
263
100
AcDbEntity
  8
0
100
AcDbLine
 62
250
  6
CONTINUOUS
 10
29.7974346212
 20
-55.6774351308
 11
0.5471250861
 21
-55.6774351308
  0
LINE
  5
264
100
AcDbEntity
  8
0
100
AcDbLine
 62
250
  6
CONTINUOUS
 10
-0.5471250861
 20
-55.6774351308
 11
-29.7974346212
 21
-55.6774351308
  0
LINE
  5
265
100
AcDbEntity
  8
0
100
AcDbLine
 62
250
  6
CONTINUOUS
 10
31.4793650524
 20
-55.363456897
 11
29.9597543621
 21
-55.363456897
  0
LINE
  5
266
100
AcDbEntity
  8
0
100
AcDbLine
 62
250
  6
CONTINUOUS
 10
-29.9597543621
 20
-55.363456897
 11
-31.4793650524
 21
-55.363456897
  0
LINE
  5
267
100
AcDbEntity
  8
0
100
AcDbLine
 62
7
  6
CONTINUOUS
 10
31.4810951949
 20
-55.1634645123
 11
29.9580242196
 21
-55.1634645123
  0
LINE
  5
268
100
AcDbEntity
  8
0
100
AcDbLine
 62
7
  6
CONTINUOUS
 10
-29.9580242196
 20
-55.1634645123
 11
-31.4810951949
 21
-55.1634645123
  0
LINE
  5
269
100
AcDbEntity
  8
DRAFT
100
AcDbLine
 62
7
  6
CONTINUOUS
 10
-24.4476348052
 20
-54.9
 11
-24.5
 21
-54.8476348052
  0
LINE
  5
26A
100
AcDbEntity
  8
0
100
AcDbLine
 62
7
  6
CONTINUOUS
 10
31.5282964827
 20
-55.1162632245
 11
29.9108229318
 21
-55.1162632245
  0
LINE
  5
26B
100
AcDbEntity
  8
0
100
AcDbLine
 62
7
  6
CONTINUOUS
 10
-29.9108229318
 20
-55.1162632245
 11
-31.5282964827
 21
-55.1162632245
  0
LINE
  5
26C
100
AcDbEntity
  8
0
100
AcDbLine
 62
7
  6
CONTINUOUS
 10
0.3848053452
 20
-55.0517453736
 11
-0.3848053452
 21
-55.0517453736
  0
LINE
  5
26D
100
AcDbEntity
  8
0
100
AcDbLine
 62
250
  6
CONTINUOUS
 10
31.5300265588
 20
-54.918016147
 11
29.9090928558
 21
-54.918016147
  0
LINE
  5
26E
100
AcDbEntity
  8
0
100
AcDbLine
 62
250
  6
CONTINUOUS
 10
-29.9090928558
 20
-54.918016147
 11
-31.5300265588
 21
-54.918016147
  0
LINE
  5
26F
100
AcDbEntity
  8
RACCORDO
100
AcDbLine
 62
7
  6
CONTINUOUS
 10
-34.9001523048
 20
-54.9
 11
-34.5523651948
 21
-54.9
  0
LINE
  5
270
100
AcDbEntity
  8
RACCORDO
100
AcDbLine
 62
7
  6
CONTINUOUS
 10
-24.4476348052
 20
-54.9
 11
34.9001523048
 21
-54.9
  0
LINE
  5
271
100
AcDbEntity
  8
DRAFT
100
AcDbLine
 62
7
  6
CONTINUOUS
 10
-34.5
 20
-54.8476348052
 11
-24.5
 21
-54.8476348052
  0
LINE
  5
272
100
AcDbEntity
  8
RACCORDO
100
AcDbLine
 62
7
  6
CONTINUOUS
 10
-34.7954219153
 20
-54.7952696104
 11
34.7954219153
 21
-54.7952696104
  0
LINE
  5
273
100
AcDbEntity
  8
ASSI
100
AcDbLine
 62
7
  6
CONTINUOUS
 10
-23.5
 20
-53.5
 11
34.45
 21
-53.5
  0
LINE
  5
274
100
AcDbEntity
  8
0
100
AcDbLine
 62
7
  6
CONTINUOUS
 10
-28.5
 20
-52.9
 11
-30.5
 21
-52.9
  0
LINE
  5
275
100
AcDbEntity
  8
0
100
AcDbLine
 62
7
  6
CONTINUOUS
 10
-31.5945597073
 20
47.4
 11
-31.5322893817
 21
47.5245501366
  0
LINE
  5
276
100
AcDbEntity
  8
RACCORDO
100
AcDbLine
 62
7
  6
CONTINUOUS
 10
-34.5483680519
 20
35.8912731322
 11
-34.6148496209
 21
35.8580348793
  0
LINE
  5
277
100
AcDbEntity
  8
0
100
AcDbLine
 62
7
  6
CONTINUOUS
 10
-30.5
 20
-48.9
 11
-28.5
 21
-48.9
  0
LINE
  5
278
100
AcDbEntity
  8
0
100
AcDbLine
 62
250
  6
CONTINUOUS
 10
31.5305745356
 20
-47.7227743686
 11
30.0
 21
-47.7227743686
  0
LINE
  5
279
100
AcDbEntity
  8
0
100
AcDbLine
 62
250
  6
CONTINUOUS
 10
31.5322893817
 20
-47.5245501366
 11
30.0
 21
-47.5245501366
  0
LINE
  5
27A
100
AcDbEntity
  8
0
100
AcDbLine
 62
7
  6
CONTINUOUS
 10
31.5945597073
 20
-47.4
 11
30.0
 21
-47.4
  0
LINE
  5
27B
100
AcDbEntity
  8
RACCORDO
100
AcDbLine
 62
7
  6
CONTINUOUS
 10
-9.2
 20
-47.250076164
 11
-7.0
 21
-47.250076164
  0
LINE
  5
27C
100
AcDbEntity
  8
RACCORDO
100
AcDbLine
 62
7
  6
CONTINUOUS
 10
7.0
 20
-47.250076164
 11
9.2
 21
-47.250076164
  0
LINE
  5
27D
100
AcDbEntity
  8
RACCORDO
100
AcDbLine
 62
7
  6
CONTINUOUS
 10
30.0
 20
-47.250076164
 11
32.2
 21
-47.250076164
  0
LINE
  5
27E
100
AcDbEntity
  8
0
100
AcDbLine
 62
7
  6
CONTINUOUS
 10
-9.2
 20
-47.2
 11
-7.0
 21
-47.2
  0
LINE
  5
27F
100
AcDbEntity
  8
0
100
AcDbLine
 62
7
  6
CONTINUOUS
 10
7.0
 20
-47.2
 11
9.2
 21
-47.2
  0
LINE
  5
280
100
AcDbEntity
  8
0
100
AcDbLine
 62
7
  6
CONTINUOUS
 10
30.0
 20
-47.2
 11
32.2
 21
-47.2
  0
LINE
  5
281
100
AcDbEntity
  8
DRAFT
100
AcDbLine
 62
7
  6
CONTINUOUS
 10
-23.5
 20
-46.6
 11
34.45
 21
-46.6
  0
LINE
  5
282
100
AcDbEntity
  8
RACCORDO
100
AcDbLine
 62
7
  6
CONTINUOUS
 10
-34.5483680519
 20
-35.8912731322
 11
-34.6148496209
 21
-35.8580348793
  0
LINE
  5
283
100
AcDbEntity
  8
0
100
AcDbLine
 62
7
  6
CONTINUOUS
 10
-0.5334278001
 20
58.0531229186
 11
-0.3848053452
 21
58.2017453736
  0
LINE
  5
284
100
AcDbEntity
  8
DRAFT
100
AcDbLine
 62
250
  6
CONTINUOUS
 10
30.7150898701
 20
-44.75
 11
30.75
 21
-44.75
  0
LINE
  5
285
100
AcDbEntity
  8
0
100
AcDbLine
 62
7
  6
CONTINUOUS
 10
-0.5334278001
 20
-58.0531229186
 11
-0.3848053452
 21
-58.2017453736
  0
LINE
  5
286
100
AcDbEntity
  8
DRAFT
100
AcDbLine
 62
7
  6
CONTINUOUS
 10
-35.7952696104
 20
20.5644466757
 11
-35.8563623377
 21
20.3810194482
  0
LINE
  5
287
100
AcDbEntity
  8
SMUSSO
100
AcDbLine
 62
7
  6
CONTINUOUS
 10
-35.8692566451
 20
17.842305068
 11
-35.9
 21
17.75
  0
LINE
  5
288
100
AcDbEntity
  8
0
100
AcDbLine
 62
7
  6
CONTINUOUS
 10
-0.3848053452
 20
55.0517453736
 11
-0.5365507187
 21
54.9
  0
LINE
  5
289
100
AcDbEntity
  8
RACCORDO
100
AcDbLine
 62
7
  6
CONTINUOUS
 10
-35.9
 20
24.1
 11
-35.8160633661
 21
24.1419651207
  0
LINE
  5
28A
100
AcDbEntity
  8
0
100
AcDbLine
 62
7
  6
CONTINUOUS
 10
-35.1389072728
 20
24.1
 11
-35.1214522078
 21
24.1087268678
  0
LINE
  5
28B
100
AcDbEntity
  8
RACCORDO
100
AcDbLine
 62
7
  6
CONTINUOUS
 10
-35.9
 20
-24.1
 11
-35.8160633661
 21
-24.1419651207
  0
LINE
  5
28C
100
AcDbEntity
  8
0
100
AcDbLine
 62
7
  6
CONTINUOUS
 10
-35.1389072728
 20
-24.1
 11
-35.1214522078
 21
-24.1087268678
  0
LINE
  5
28D
100
AcDbEntity
  8
0
100
AcDbLine
 62
7
  6
CONTINUOUS
 10
-0.3848053452
 20
-55.0517453736
 11
-0.5365507187
 21
-54.9
  0
LINE
  5
28E
100
AcDbEntity
  8
DRAFT
100
AcDbLine
 62
7
  6
CONTINUOUS
 10
-35.7952696104
 20
-18.0644466757
 11
-35.9
 21
-17.75
  0
LINE
  5
28F
100
AcDbEntity
  8
RACCORDO
100
AcDbLine
 62
7
  6
CONTINUOUS
 10
-36.0
 20
46.7501523164
 11
-36.0
 21
21.3062103223
  0
LINE
  5
290
100
AcDbEntity
  8
RACCORDO
100
AcDbLine
 62
7
  6
CONTINUOUS
 10
-36.0
 20
-23.5
 11
-36.0
 21
-46.7501523164
  0
LINE
  5
291
100
AcDbEntity
  8
0
100
AcDbLine
 62
7
  6
CONTINUOUS
 10
-35.9389072728
 20
21.0
 11
-35.9389072728
 21
-20.0
  0
LINE
  5
292
100
AcDbEntity
  8
RACCORDO
100
AcDbLine
 62
7
  6
CONTINUOUS
 10
-35.9
 20
53.9001523048
 11
-35.9
 21
36.0
  0
LINE
  5
293
100
AcDbEntity
  8
0
100
AcDbLine
 62
7
  6
CONTINUOUS
 10
-35.9
 20
35.9
 11
-35.9
 21
24.1
  0
LINE
  5
294
100
AcDbEntity
  8
0
100
AcDbLine
 62
7
  6
CONTINUOUS
 10
-35.9
 20
-24.1
 11
-35.9
 21
-35.9
  0
LINE
  5
295
100
AcDbEntity
  8
RACCORDO
100
AcDbLine
 62
7
  6
CONTINUOUS
 10
-35.9
 20
-36.0
 11
-35.9
 21
-53.9001523048
  0
LINE
  5
296
100
AcDbEntity
  8
DRAFT
100
AcDbLine
 62
7
  6
CONTINUOUS
 10
-35.9
 20
-24.0
 11
-35.9
 21
24.0
  0
LINE
  5
297
100
AcDbEntity
  8
DRAFT
100
AcDbLine
 62
7
  6
CONTINUOUS
 10
-35.8877814546
 20
-32.65
 11
-35.8877814546
 21
-27.35
  0
LINE
  5
298
100
AcDbEntity
  8
DRAFT
100
AcDbLine
 62
7
  6
CONTINUOUS
 10
-35.8877814546
 20
27.35
 11
-35.8877814546
 21
32.65
  0
LINE
  5
299
100
AcDbEntity
  8
SMUSSO
100
AcDbLine
 62
7
  6
CONTINUOUS
 10
-35.8563623377
 20
18.5810194482
 11
-35.8563623377
 21
20.3810194482
  0
LINE
  5
29A
100
AcDbEntity
  8
DRAFT
100
AcDbLine
 62
7
  6
CONTINUOUS
 10
-35.8301797403
 20
32.65
 11
-35.8301797403
 21
27.35
  0
LINE
  5
29B
100
AcDbEntity
  8
DRAFT
100
AcDbLine
 62
7
  6
CONTINUOUS
 10
-35.8301797403
 20
-27.35
 11
-35.8301797403
 21
-32.65
  0
LINE
  5
29C
100
AcDbEntity
  8
RACCORDO
100
AcDbLine
 62
7
  6
CONTINUOUS
 10
-35.7987606234
 20
34.8580729562
 11
-35.7987606234
 21
25.1419270438
  0
LINE
  5
29D
100
AcDbEntity
  8
RACCORDO
100
AcDbLine
 62
7
  6
CONTINUOUS
 10
-35.7987606234
 20
-25.1419270438
 11
-35.7987606234
 21
-34.8580729562
  0
LINE
  5
29E
100
AcDbEntity
  8
RACCORDO
100
AcDbLine
 62
7
  6
CONTINUOUS
 10
-35.7952696104
 20
53.7954219153
 11
-35.7952696104
 21
36.0
  0
LINE
  5
29F
100
AcDbEntity
  8
DRAFT
100
AcDbLine
 62
7
  6
CONTINUOUS
 10
-35.7952696104
 20
24.0
 11
-35.7952696104
 21
20.5644466757
  0
LINE
  5
2A0
100
AcDbEntity
  8
DRAFT
100
AcDbLine
 62
7
  6
CONTINUOUS
 10
-35.7952696104
 20
-18.0644466757
 11
-35.7952696104
 21
-24.0
  0
LINE
  5
2A1
100
AcDbEntity
  8
RACCORDO
100
AcDbLine
 62
7
  6
CONTINUOUS
 10
-35.7952696104
 20
-36.0
 11
-35.7952696104
 21
-53.7954219153
  0
LINE
  5
2A2
100
AcDbEntity
  8
0
100
AcDbLine
 62
7
  6
CONTINUOUS
 10
-35.1389072728
 20
-24.0
 11
-35.1389072728
 21
-24.1
  0
LINE
  5
2A3
100
AcDbEntity
  8
0
100
AcDbLine
 62
7
  6
CONTINUOUS
 10
-35.1389072728
 20
-35.9
 11
-35.1389072728
 21
-36.0
  0
LINE
  5
2A4
100
AcDbEntity
  8
0
100
AcDbLine
 62
7
  6
CONTINUOUS
 10
-35.1389072728
 20
24.0
 11
-35.1389072728
 21
24.1
  0
LINE
  5
2A5
100
AcDbEntity
  8
0
100
AcDbLine
 62
7
  6
CONTINUOUS
 10
-35.1389072728
 20
35.9
 11
-35.1389072728
 21
36.0
  0
LINE
  5
2A6
100
AcDbEntity
  8
0
100
AcDbLine
 62
7
  6
CONTINUOUS
 10
-35.1214522078
 20
-36.0
 11
-35.1214522078
 21
-35.8912731322
  0
LINE
  5
2A7
100
AcDbEntity
  8
0
100
AcDbLine
 62
7
  6
CONTINUOUS
 10
-35.1214522078
 20
-24.1087268678
 11
-35.1214522078
 21
-24.0
  0
LINE
  5
2A8
100
AcDbEntity
  8
0
100
AcDbLine
 62
7
  6
CONTINUOUS
 10
-35.1214522078
 20
24.0
 11
-35.1214522078
 21
24.1087268678
  0
LINE
  5
2A9
100
AcDbEntity
  8
0
100
AcDbLine
 62
7
  6
CONTINUOUS
 10
-35.1214522078
 20
35.8912731322
 11
-35.1214522078
 21
36.0
  0
LINE
  5
2AA
100
AcDbEntity
  8
0
100
AcDbLine
 62
7
  6
CONTINUOUS
 10
-35.0321523635
 20
32.7
 11
-35.0321523635
 21
27.3
  0
LINE
  5
2AB
100
AcDbEntity
  8
0
100
AcDbLine
 62
7
  6
CONTINUOUS
 10
-35.0321523635
 20
-32.7
 11
-35.0321523635
 21
-27.3
  0
LINE
  5
2AC
100
AcDbEntity
  8
0
100
AcDbLine
 62
7
  6
CONTINUOUS
 10
-34.6321523635
 20
34.8580729562
 11
-34.6321523635
 21
32.7
  0
LINE
  5
2AD
100
AcDbEntity
  8
0
100
AcDbLine
 62
7
  6
CONTINUOUS
 10
-34.6321523635
 20
27.3
 11
-34.6321523635
 21
25.1419270438
  0
LINE
  5
2AE
100
AcDbEntity
  8
0
100
AcDbLine
 62
7
  6
CONTINUOUS
 10
-34.6321523635
 20
-25.1419270438
 11
-34.6321523635
 21
-27.3
  0
LINE
  5
2AF
100
AcDbEntity
  8
0
100
AcDbLine
 62
7
  6
CONTINUOUS
 10
-34.6321523635
 20
-32.7
 11
-34.6321523635
 21
-34.8580729562
  0
LINE
  5
2B0
100
AcDbEntity
  8
0
100
AcDbLine
 62
7
  6
CONTINUOUS
 10
-34.6196821264
 20
32.7
 11
-34.6196821264
 21
27.3
  0
LINE
  5
2B1
100
AcDbEntity
  8
0
100
AcDbLine
 62
7
  6
CONTINUOUS
 10
-34.6196821264
 20
-32.7
 11
-34.6196821264
 21
-27.3
  0
LINE
  5
2B2
100
AcDbEntity
  8
DRAFT
100
AcDbLine
 62
7
  6
CONTINUOUS
 10
-34.5988528624
 20
-32.5421083448
 11
-34.5988528624
 21
-27.4578916552
  0
LINE
  5
2B3
100
AcDbEntity
  8
DRAFT
100
AcDbLine
 62
7
  6
CONTINUOUS
 10
-34.5988528624
 20
27.4578916552
 11
-34.5988528624
 21
32.5421083448
  0
LINE
  5
2B4
100
AcDbEntity
  8
0
100
AcDbLine
 62
7
  6
CONTINUOUS
 10
-34.5483680519
 20
-36.0
 11
-34.5483680519
 21
-35.8912731322
  0
LINE
  5
2B5
100
AcDbEntity
  8
0
100
AcDbLine
 62
7
  6
CONTINUOUS
 10
-34.5483680519
 20
-24.1087268678
 11
-34.5483680519
 21
-24.0
  0
LINE
  5
2B6
100
AcDbEntity
  8
0
100
AcDbLine
 62
7
  6
CONTINUOUS
 10
-34.5483680519
 20
24.0
 11
-34.5483680519
 21
24.1087268678
  0
LINE
  5
2B7
100
AcDbEntity
  8
0
100
AcDbLine
 62
7
  6
CONTINUOUS
 10
-34.5483680519
 20
35.8912731322
 11
-34.5483680519
 21
36.0
  0
LINE
  5
2B8
100
AcDbEntity
  8
DRAFT
100
AcDbLine
 62
7
  6
CONTINUOUS
 10
-34.5451818435
 20
32.5327171334
 11
-34.5451818435
 21
32.3
  0
LINE
  5
2B9
100
AcDbEntity
  8
DRAFT
100
AcDbLine
 62
7
  6
CONTINUOUS
 10
-34.5451818435
 20
27.7
 11
-34.5451818435
 21
27.4672828666
  0
LINE
  5
2BA
100
AcDbEntity
  8
DRAFT
100
AcDbLine
 62
7
  6
CONTINUOUS
 10
-34.5451818435
 20
-27.4672828666
 11
-34.5451818435
 21
-27.7
  0
LINE
  5
2BB
100
AcDbEntity
  8
DRAFT
100
AcDbLine
 62
7
  6
CONTINUOUS
 10
-34.5451818435
 20
-32.3
 11
-34.5451818435
 21
-32.5327171334
  0
LINE
  5
2BC
100
AcDbEntity
  8
DRAFT
100
AcDbLine
 62
7
  6
CONTINUOUS
 10
-34.4884011428
 20
36.0
 11
-34.4884011428
 21
32.3
  0
LINE
  5
2BD
100
AcDbEntity
  8
DRAFT
100
AcDbLine
 62
7
  6
CONTINUOUS
 10
-34.4884011428
 20
27.7
 11
-34.4884011428
 21
24.0
  0
LINE
  5
2BE
100
AcDbEntity
  8
DRAFT
100
AcDbLine
 62
7
  6
CONTINUOUS
 10
-34.4884011428
 20
-36.0
 11
-34.4884011428
 21
-32.3
  0
LINE
  5
2BF
100
AcDbEntity
  8
DRAFT
100
AcDbLine
 62
7
  6
CONTINUOUS
 10
-34.4884011428
 20
-24.0
 11
-34.4884011428
 21
-27.7
  0
LINE
  5
2C0
100
AcDbEntity
  8
DRAFT
100
AcDbLine
 62
7
  6
CONTINUOUS
 10
-34.45
 20
32.3
 11
-34.45
 21
27.7
  0
LINE
  5
2C1
100
AcDbEntity
  8
DRAFT
100
AcDbLine
 62
7
  6
CONTINUOUS
 10
-34.45
 20
-27.7
 11
-34.45
 21
-32.3
  0
LINE
  5
2C2
100
AcDbEntity
  8
DRAFT
100
AcDbLine
 62
7
  6
CONTINUOUS
 10
-34.45
 20
46.4704650534
 11
-34.45
 21
53.5
  0
LINE
  5
2C3
100
AcDbEntity
  8
DRAFT
100
AcDbLine
 62
7
  6
CONTINUOUS
 10
-34.4115988572
 20
-27.7
 11
-34.4115988572
 21
-32.3
  0
LINE
  5
2C4
100
AcDbEntity
  8
DRAFT
100
AcDbLine
 62
7
  6
CONTINUOUS
 10
-34.4115988572
 20
27.7
 11
-34.4115988572
 21
32.3
  0
LINE
  5
2C5
100
AcDbEntity
  8
0
100
AcDbLine
 62
7
  6
CONTINUOUS
 10
-32.2
 20
53.5
 11
-32.2
 21
47.2
  0
LINE
  5
2C6
100
AcDbEntity
  8
SMUSSO
100
AcDbLine
 62
7
  6
CONTINUOUS
 10
-35.8692566451
 20
17.842305068
 11
-35.8563623377
 21
18.5810194482
  0
LINE
  5
2C7
100
AcDbEntity
  8
0
100
AcDbLine
 62
7
  6
CONTINUOUS
 10
-35.9389072728
 20
-20.0
 11
-36.0
 21
-23.5
  0
LINE
  5
2C8
100
AcDbEntity
  8
0
100
AcDbLine
 62
7
  6
CONTINUOUS
 10
-29.7110329171
 20
12.0
 11
-29.2083995774
 21
13.4242085561
  0
LINE
  5
2C9
100
AcDbEntity
  8
0
100
AcDbLine
 62
7
  6
CONTINUOUS
 10
-29.2767718494
 20
13.7028580562
 11
-29.69797118
 21
12.5206940736
  0
LINE
  5
2CA
100
AcDbEntity
  8
0
100
AcDbLine
 62
7
  6
CONTINUOUS
 10
-31.6646433191
 20
13.7028580562
 11
-32.133574218
 21
12.4689310563
  0
LINE
  5
2CB
100
AcDbEntity
  8
0
100
AcDbLine
 62
7
  6
CONTINUOUS
 10
-32.1010005828
 20
12.0
 11
-31.4217924558
 21
13.7028580562
  0
LINE
  5
2CC
100
AcDbEntity
  8
RACCORDO
100
AcDbLine
 62
250
  6
CONTINUOUS
 10
3.9000761524
 20
53.4
 11
3.8250193732
 21
53.3249432208
  0
LINE
  5
2CD
100
AcDbEntity
  8
RACCORDO
100
AcDbLine
 62
250
  6
CONTINUOUS
 10
4.4
 20
52.9000761524
 11
4.3249432208
 21
52.8250193732
  0
LINE
  5
2CE
100
AcDbEntity
  8
DRAFT
100
AcDbLine
 62
7
  6
CONTINUOUS
 10
34.5988528624
 20
-27.4578916552
 11
34.5451818435
 21
-27.4672828666
  0
LINE
  5
2CF
100
AcDbEntity
  8
DRAFT
100
AcDbLine
 62
7
  6
CONTINUOUS
 10
-35.9
 20
-36.0
 11
-34.4884011428
 21
-36.0
  0
LINE
  5
2D0
100
AcDbEntity
  8
DRAFT
100
AcDbLine
 62
7
  6
CONTINUOUS
 10
34.4884011428
 20
-36.0
 11
35.9
 21
-36.0
  0
LINE
  5
2D1
100
AcDbEntity
  8
0
100
AcDbLine
 62
7
  6
CONTINUOUS
 10
35.9
 20
-35.9
 11
35.1389072728
 21
-35.9
  0
LINE
  5
2D2
100
AcDbEntity
  8
0
100
AcDbLine
 62
7
  6
CONTINUOUS
 10
-35.1389072728
 20
-35.9
 11
-35.9
 21
-35.9
  0
LINE
  5
2D3
100
AcDbEntity
  8
0
100
AcDbLine
 62
7
  6
CONTINUOUS
 10
34.5483680519
 20
-35.8912731322
 11
35.1214522078
 21
-35.8912731322
  0
LINE
  5
2D4
100
AcDbEntity
  8
0
100
AcDbLine
 62
7
  6
CONTINUOUS
 10
-34.5483680519
 20
-35.8912731322
 11
-35.1214522078
 21
-35.8912731322
  0
LINE
  5
2D5
100
AcDbEntity
  8
RACCORDO
100
AcDbLine
 62
250
  6
CONTINUOUS
 10
35.8160633661
 20
-35.8580348793
 11
34.6148496209
 21
-35.8580348793
  0
LINE
  5
2D6
100
AcDbEntity
  8
RACCORDO
100
AcDbLine
 62
250
  6
CONTINUOUS
 10
-34.6148496209
 20
-35.8580348793
 11
-35.8160633661
 21
-35.8580348793
  0
LINE
  5
2D7
100
AcDbEntity
  8
RACCORDO
100
AcDbLine
 62
250
  6
CONTINUOUS
 10
35.7987606234
 20
-34.8580729562
 11
34.6321523635
 21
-34.8580729562
  0
LINE
  5
2D8
100
AcDbEntity
  8
RACCORDO
100
AcDbLine
 62
250
  6
CONTINUOUS
 10
-34.6321523635
 20
-34.8580729562
 11
-35.7987606234
 21
-34.8580729562
  0
LINE
  5
2D9
100
AcDbEntity
  8
0
100
AcDbLine
 62
7
  6
CONTINUOUS
 10
34.6196821264
 20
-32.7
 11
35.0321523635
 21
-32.7
  0
LINE
  5
2DA
100
AcDbEntity
  8
0
100
AcDbLine
 62
7
  6
CONTINUOUS
 10
-34.6196821264
 20
-32.7
 11
-35.0321523635
 21
-32.7
  0
LINE
  5
2DB
100
AcDbEntity
  8
DRAFT
100
AcDbLine
 62
7
  6
CONTINUOUS
 10
35.8877814546
 20
-32.65
 11
35.8301797403
 21
-32.65
  0
LINE
  5
2DC
100
AcDbEntity
  8
DRAFT
100
AcDbLine
 62
7
  6
CONTINUOUS
 10
-35.8301797403
 20
-32.65
 11
-35.8877814546
 21
-32.65
  0
LINE
  5
2DD
100
AcDbEntity
  8
DRAFT
100
AcDbLine
 62
7
  6
CONTINUOUS
 10
-34.5988528624
 20
-32.3
 11
-34.4115988572
 21
-32.3
  0
LINE
  5
2DE
100
AcDbEntity
  8
DRAFT
100
AcDbLine
 62
7
  6
CONTINUOUS
 10
34.4115988572
 20
-32.3
 11
34.5988528624
 21
-32.3
  0
LINE
  5
2DF
100
AcDbEntity
  8
DRAFT
100
AcDbLine
 62
7
  6
CONTINUOUS
 10
-34.5988528624
 20
-27.4578916552
 11
-34.5451818435
 21
-27.4672828666
  0
LINE
  5
2E0
100
AcDbEntity
  8
0
100
AcDbLine
 62
7
  6
CONTINUOUS
 10
-29.8073832772
 20
57.8015748213
 11
-29.7980113475
 21
55.925867995
  0
LINE
  5
2E1
100
AcDbEntity
  8
0
100
AcDbLine
 62
7
  6
CONTINUOUS
 10
-31.5945597073
 20
-49.2272127416
 11
-31.5945597073
 21
-52.5727872584
  0
LINE
  5
2E2
100
AcDbEntity
  8
0
100
AcDbLine
 62
7
  6
CONTINUOUS
 10
-31.5945597073
 20
-54.8476348052
 11
-31.5945597073
 21
-59.5865507187
  0
LINE
  5
2E3
100
AcDbEntity
  8
0
100
AcDbLine
 62
7
  6
CONTINUOUS
 10
-31.5945597073
 20
47.250076164
 11
-31.5945597073
 21
53.5
  0
LINE
  5
2E4
100
AcDbEntity
  8
0
100
AcDbLine
 62
7
  6
CONTINUOUS
 10
-31.5945597073
 20
54.9
 11
-31.5945597073
 21
59.5865507187
  0
LINE
  5
2E5
100
AcDbEntity
  8
0
100
AcDbLine
 62
7
  6
CONTINUOUS
 10
-31.5304630501
 20
-49.1866416267
 11
-31.5302020659
 21
-52.6135089444
  0
LINE
  5
2E6
100
AcDbEntity
  8
0
100
AcDbLine
 62
7
  6
CONTINUOUS
 10
-31.5300319189
 20
-54.8476348052
 11
-31.5300265588
 21
-54.918016147
  0
LINE
  5
2E7
100
AcDbEntity
  8
0
100
AcDbLine
 62
7
  6
CONTINUOUS
 10
-31.4793650524
 20
59.7017453736
 11
-31.4793650524
 21
55.363456897
  0
LINE
  5
2E8
100
AcDbEntity
  8
0
100
AcDbLine
 62
7
  6
CONTINUOUS
 10
-31.4793650524
 20
-55.363456897
 11
-31.4793650524
 21
-59.7017453736
  0
LINE
  5
2E9
100
AcDbEntity
  8
0
100
AcDbLine
 62
7
  6
CONTINUOUS
 10
-31.2311885412
 20
13.7028580562
 11
-31.2311885412
 21
12.0
  0
LINE
  5
2EA
100
AcDbEntity
  8
0
100
AcDbLine
 62
7
  6
CONTINUOUS
 10
-31.0041408003
 20
12.0
 11
-31.0041408003
 21
13.7028580562
  0
LINE
  5
2EB
100
AcDbEntity
  8
DRAFT
100
AcDbLine
 62
7
  6
CONTINUOUS
 10
-30.75
 20
44.75
 11
-30.75
 21
46.6
  0
LINE
  5
2EC
100
AcDbEntity
  8
DRAFT
100
AcDbLine
 62
7
  6
CONTINUOUS
 10
-30.7150898701
 20
44.75
 11
-30.7150898701
 21
46.6
  0
LINE
  5
2ED
100
AcDbEntity
  8
0
100
AcDbLine
 62
7
  6
CONTINUOUS
 10
-30.6222877817
 20
13.7028580562
 11
-30.6222877817
 21
12.0
  0
LINE
  5
2EE
100
AcDbEntity
  8
0
100
AcDbLine
 62
7
  6
CONTINUOUS
 10
-30.3952400408
 20
12.0
 11
-30.3952400408
 21
13.4448492598
  0
LINE
  5
2EF
100
AcDbEntity
  8
0
100
AcDbLine
 62
7
  6
CONTINUOUS
 10
-30.0
 20
53.5
 11
-30.0
 21
47.2
  0
LINE
  5
2F0
100
AcDbEntity
  8
0
100
AcDbLine
 62
7
  6
CONTINUOUS
 10
-29.9597543621
 20
-58.2017453736
 11
-29.9597543621
 21
-55.363456897
  0
LINE
  5
2F1
100
AcDbEntity
  8
0
100
AcDbLine
 62
7
  6
CONTINUOUS
 10
-29.9597543621
 20
55.363456897
 11
-29.9597543621
 21
58.2017453736
  0
LINE
  5
2F2
100
AcDbEntity
  8
0
100
AcDbLine
 62
7
  6
CONTINUOUS
 10
-29.9090914837
 20
54.9
 11
-29.9090928558
 21
54.918016147
  0
LINE
  5
2F3
100
AcDbEntity
  8
0
100
AcDbLine
 62
7
  6
CONTINUOUS
 10
-29.7974346212
 20
-55.6774351308
 11
-29.7974346212
 21
-54.8476348052
  0
LINE
  5
2F4
100
AcDbEntity
  8
0
100
AcDbLine
 62
7
  6
CONTINUOUS
 10
-29.7974346212
 20
-52.9
 11
-29.7974346212
 21
-48.9
  0
LINE
  5
2F5
100
AcDbEntity
  8
0
100
AcDbLine
 62
7
  6
CONTINUOUS
 10
-29.7974346212
 20
54.9
 11
-29.7974346212
 21
55.6774351308
  0
LINE
  5
2F6
100
AcDbEntity
  8
0
100
AcDbLine
 62
7
  6
CONTINUOUS
 10
-29.2083995774
 20
13.4242085561
 11
-29.2083995774
 21
12.0
  0
LINE
  5
2F7
100
AcDbEntity
  8
0
100
AcDbLine
 62
7
  6
CONTINUOUS
 10
-28.9813518366
 20
12.0
 11
-28.9813518366
 21
13.7028580562
  0
LINE
  5
2F8
100
AcDbEntity
  8
DRAFT
100
AcDbLine
 62
7
  6
CONTINUOUS
 10
-27.5
 20
-15.95
 11
-27.5
 21
-18.0176397269
  0
LINE
  5
2F9
100
AcDbEntity
  8
0
100
AcDbLine
 62
7
  6
CONTINUOUS
 10
-31.5300265588
 20
54.918016147
 11
-31.5300279308
 21
54.9
  0
LINE
  5
2FA
100
AcDbEntity
  8
0
100
AcDbLine
 62
7
  6
CONTINUOUS
 10
-31.5301345524
 20
53.5
 11
-31.5305745356
 21
47.7227743686
  0
LINE
  5
2FB
100
AcDbEntity
  8
0
100
AcDbLine
 62
7
  6
CONTINUOUS
 10
-29.9090928558
 20
-54.918016147
 11
-29.9090874957
 21
-54.8476348052
  0
LINE
  5
2FC
100
AcDbEntity
  8
0
100
AcDbLine
 62
7
  6
CONTINUOUS
 10
-29.9089391673
 20
-52.9
 11
-29.9086345344
 21
-48.9
  0
LINE
  5
2FD
100
AcDbEntity
  8
0
100
AcDbLine
 62
7
  6
CONTINUOUS
 10
-29.7980113475
 20
-55.925867995
 11
-29.8073832772
 21
-57.8015748213
  0
LINE
  5
2FE
100
AcDbEntity
  8
0
100
AcDbLine
 62
7
  6
CONTINUOUS
 10
-28.5685377624
 20
12.0
 11
-28.3890603318
 21
12.5160175928
  0
LINE
  5
2FF
100
AcDbEntity
  8
0
100
AcDbLine
 62
7
  6
CONTINUOUS
 10
-28.3243968354
 20
12.7017839262
 11
-28.1404043396
 21
13.1989346528
  0
LINE
  5
300
100
AcDbEntity
  8
0
100
AcDbLine
 62
7
  6
CONTINUOUS
 10
-28.1608837853
 20
13.7028580562
 11
-28.808163309
 21
12.0
  0
LINE
  5
301
100
AcDbEntity
  8
DRAFT
100
AcDbLine
 62
7
  6
CONTINUOUS
 10
34.5992605626
 20
-27.462558817
 11
34.5451818435
 21
-27.4672828666
  0
LINE
  5
302
100
AcDbEntity
  8
DRAFT
100
AcDbLine
 62
7
  6
CONTINUOUS
 10
-34.5988528624
 20
-27.7
 11
-34.4115988572
 21
-27.7
  0
LINE
  5
303
100
AcDbEntity
  8
DRAFT
100
AcDbLine
 62
7
  6
CONTINUOUS
 10
34.4115988572
 20
-27.7
 11
34.5988528624
 21
-27.7
  0
LINE
  5
304
100
AcDbEntity
  8
DRAFT
100
AcDbLine
 62
7
  6
CONTINUOUS
 10
-35.8877814546
 20
-27.35
 11
-35.8301797403
 21
-27.35
  0
LINE
  5
305
100
AcDbEntity
  8
DRAFT
100
AcDbLine
 62
7
  6
CONTINUOUS
 10
35.8301797403
 20
-27.35
 11
35.8877814546
 21
-27.35
  0
LINE
  5
306
100
AcDbEntity
  8
0
100
AcDbLine
 62
7
  6
CONTINUOUS
 10
34.6196821264
 20
-27.3
 11
35.0321523635
 21
-27.3
  0
LINE
  5
307
100
AcDbEntity
  8
0
100
AcDbLine
 62
7
  6
CONTINUOUS
 10
-34.6196821264
 20
-27.3
 11
-35.0321523635
 21
-27.3
  0
LINE
  5
308
100
AcDbEntity
  8
0
100
AcDbLine
 62
7
  6
CONTINUOUS
 10
-36.0
 20
21.3062103223
 11
-35.9389072728
 21
21.0
  0
LINE
  5
309
100
AcDbEntity
  8
0
100
AcDbLine
 62
7
  6
CONTINUOUS
 10
-27.0308053358
 20
13.7028580562
 11
-27.0308053358
 21
12.0
  0
LINE
  5
30A
100
AcDbEntity
  8
0
100
AcDbLine
 62
7
  6
CONTINUOUS
 10
-26.803757595
 20
12.0
 11
-26.803757595
 21
12.7533856855
  0
LINE
  5
30B
100
AcDbEntity
  8
0
100
AcDbLine
 62
7
  6
CONTINUOUS
 10
-26.803757595
 20
12.9494723707
 11
-26.803757595
 21
13.506771371
  0
LINE
  5
30C
100
AcDbEntity
  8
DRAFT
100
AcDbLine
 62
7
  6
CONTINUOUS
 10
-25.75
 20
-18.0176397269
 11
-25.75
 21
-15.95
  0
LINE
  5
30D
100
AcDbEntity
  8
DRAFT
100
AcDbLine
 62
7
  6
CONTINUOUS
 10
-24.25
 20
-15.95
 11
-24.25
 21
-18.0176397269
  0
LINE
  5
30E
100
AcDbEntity
  8
ASSI
100
AcDbLine
 62
7
  6
CONTINUOUS
 10
-23.5
 20
-46.6
 11
-23.5
 21
-53.5
  0
LINE
  5
30F
100
AcDbEntity
  8
0
100
AcDbLine
 62
7
  6
CONTINUOUS
 10
-23.078110575
 20
13.7028580562
 11
-23.078110575
 21
12.0
  0
LINE
  5
310
100
AcDbEntity
  8
0
100
AcDbLine
 62
7
  6
CONTINUOUS
 10
-22.8510628342
 20
12.0
 11
-22.8510628342
 21
12.7017839262
  0
LINE
  5
311
100
AcDbEntity
  8
0
100
AcDbLine
 62
7
  6
CONTINUOUS
 10
-22.8510628342
 20
12.8978706115
 11
-22.8510628342
 21
13.506771371
  0
LINE
  5
312
100
AcDbEntity
  8
0
100
AcDbLine
 62
7
  6
CONTINUOUS
 10
-21.4578153337
 20
12.0
 11
-21.2783379032
 21
12.5160175928
  0
LINE
  5
313
100
AcDbEntity
  8
0
100
AcDbLine
 62
7
  6
CONTINUOUS
 10
-21.2136744067
 20
12.7017839262
 11
-21.0296819109
 21
13.1989346528
  0
LINE
  5
314
100
AcDbEntity
  8
0
100
AcDbLine
 62
7
  6
CONTINUOUS
 10
-21.0501613566
 20
13.7028580562
 11
-21.6974408803
 21
12.0
  0
LINE
  5
315
100
AcDbEntity
  8
DRAFT
100
AcDbLine
 62
7
  6
CONTINUOUS
 10
-34.5451818435
 20
-32.5327171334
 11
-34.5988528624
 21
-32.5421083448
  0
LINE
  5
316
100
AcDbEntity
  8
RACCORDO
100
AcDbLine
 62
250
  6
CONTINUOUS
 10
35.7987606234
 20
-25.1419270438
 11
34.6321523635
 21
-25.1419270438
  0
LINE
  5
317
100
AcDbEntity
  8
RACCORDO
100
AcDbLine
 62
250
  6
CONTINUOUS
 10
-34.6321523635
 20
-25.1419270438
 11
-35.7987606234
 21
-25.1419270438
  0
LINE
  5
318
100
AcDbEntity
  8
RACCORDO
100
AcDbLine
 62
250
  6
CONTINUOUS
 10
35.8160633661
 20
-24.1419651207
 11
34.6148496209
 21
-24.1419651207
  0
LINE
  5
319
100
AcDbEntity
  8
RACCORDO
100
AcDbLine
 62
250
  6
CONTINUOUS
 10
-34.6148496209
 20
-24.1419651207
 11
-35.8160633661
 21
-24.1419651207
  0
LINE
  5
31A
100
AcDbEntity
  8
0
100
AcDbLine
 62
7
  6
CONTINUOUS
 10
34.5483680519
 20
-24.1087268678
 11
35.1214522078
 21
-24.1087268678
  0
LINE
  5
31B
100
AcDbEntity
  8
0
100
AcDbLine
 62
7
  6
CONTINUOUS
 10
-34.5483680519
 20
-24.1087268678
 11
-35.1214522078
 21
-24.1087268678
  0
LINE
  5
31C
100
AcDbEntity
  8
0
100
AcDbLine
 62
7
  6
CONTINUOUS
 10
-35.9
 20
-24.1
 11
-35.1389072728
 21
-24.1
  0
LINE
  5
31D
100
AcDbEntity
  8
0
100
AcDbLine
 62
7
  6
CONTINUOUS
 10
35.1389072728
 20
-24.1
 11
35.9
 21
-24.1
  0
LINE
  5
31E
100
AcDbEntity
  8
DRAFT
100
AcDbLine
 62
7
  6
CONTINUOUS
 10
-35.9
 20
-24.0
 11
-34.4884011428
 21
-24.0
  0
LINE
  5
31F
100
AcDbEntity
  8
DRAFT
100
AcDbLine
 62
7
  6
CONTINUOUS
 10
34.4884011428
 20
-24.0
 11
35.9
 21
-24.0
  0
LINE
  5
320
100
AcDbEntity
  8
0
100
AcDbLine
 62
7
  6
CONTINUOUS
 10
-36.0
 20
-23.5
 11
-35.9
 21
-23.5
  0
LINE
  5
321
100
AcDbEntity
  8
0
100
AcDbLine
 62
7
  6
CONTINUOUS
 10
35.9
 20
-23.5
 11
36.0
 21
-23.5
  0
LINE
  5
322
100
AcDbEntity
  8
DRAFT
100
AcDbLine
 62
7
  6
CONTINUOUS
 10
34.5451818435
 20
-32.5327171334
 11
34.5988528624
 21
-32.5421083448
  0
LINE
  5
323
100
AcDbEntity
  8
0
100
AcDbLine
 62
7
  6
CONTINUOUS
 10
-33.0
 20
13.7028580562
 11
-32.3453027677
 21
12.0
  0
LINE
  5
324
100
AcDbEntity
  8
0
100
AcDbLine
 62
7
  6
CONTINUOUS
 10
-32.3164379081
 20
12.4689310563
 11
-32.7586006158
 21
13.7028580562
  0
LINE
  5
325
100
AcDbEntity
  8
0
100
AcDbLine
 62
7
  6
CONTINUOUS
 10
-30.3952400408
 20
13.4448492598
 11
-29.9042169592
 21
12.0
  0
LINE
  5
326
100
AcDbEntity
  8
0
100
AcDbLine
 62
7
  6
CONTINUOUS
 10
-29.8729333877
 20
12.499730854
 11
-30.2762333998
 21
13.7028580562
  0
LINE
  5
327
100
AcDbEntity
  8
DRAFT
100
AcDbLine
 62
7
  6
CONTINUOUS
 10
-22.5
 20
-18.0176397269
 11
-22.5
 21
-15.95
  0
LINE
  5
328
100
AcDbEntity
  8
0
100
AcDbLine
 62
7
  6
CONTINUOUS
 10
-16.9787826282
 20
12.0
 11
-16.7993051977
 21
12.5160175928
  0
LINE
  5
329
100
AcDbEntity
  8
0
100
AcDbLine
 62
7
  6
CONTINUOUS
 10
-16.7346417013
 20
12.7017839262
 11
-16.5506492054
 21
13.1989346528
  0
LINE
  5
32A
100
AcDbEntity
  8
0
100
AcDbLine
 62
7
  6
CONTINUOUS
 10
-18.0933806287
 20
13.7028580562
 11
-18.5623115275
 21
12.4689310563
  0
LINE
  5
32B
100
AcDbEntity
  8
0
100
AcDbLine
 62
7
  6
CONTINUOUS
 10
-16.5711286512
 20
13.7028580562
 11
-17.2184081748
 21
12.0
  0
LINE
  5
32C
100
AcDbEntity
  8
0
100
AcDbLine
 62
7
  6
CONTINUOUS
 10
-18.5297378924
 20
12.0
 11
-17.8505297654
 21
13.7028580562
  0
LINE
  5
32D
100
AcDbEntity
  8
DRAFT
100
AcDbLine
 62
7
  6
CONTINUOUS
 10
-3.3110927272
 20
37.311337067
 11
-3.65
 21
36.7243324515
  0
LINE
  5
32E
100
AcDbEntity
  8
DRAFT
100
AcDbLine
 62
7
  6
CONTINUOUS
 10
-3.25
 20
37.29496732
 11
-3.65
 21
36.602146997
  0
LINE
  5
32F
100
AcDbEntity
  8
0
100
AcDbLine
 62
7
  6
CONTINUOUS
 10
29.8111319072
 20
58.0531229186
 11
29.9597543621
 21
58.2017453736
  0
LINE
  5
330
100
AcDbEntity
  8
0
100
AcDbLine
 62
7
  6
CONTINUOUS
 10
-35.9389072728
 20
-20.0
 11
-35.9
 21
-20.0
  0
LINE
  5
331
100
AcDbEntity
  8
0
100
AcDbLine
 62
7
  6
CONTINUOUS
 10
35.9
 20
-20.0
 11
35.9389072728
 21
-20.0
  0
LINE
  5
332
100
AcDbEntity
  8
DRAFT
100
AcDbLine
 62
7
  6
CONTINUOUS
 10
-35.7952696104
 20
-18.0644466757
 11
35.7952696104
 21
-18.0644466757
  0
LINE
  5
333
100
AcDbEntity
  8
DRAFT
100
AcDbLine
 62
7
  6
CONTINUOUS
 10
-27.5
 20
-18.0176397269
 11
-25.75
 21
-18.0176397269
  0
LINE
  5
334
100
AcDbEntity
  8
DRAFT
100
AcDbLine
 62
7
  6
CONTINUOUS
 10
-24.25
 20
-18.0176397269
 11
-22.5
 21
-18.0176397269
  0
LINE
  5
335
100
AcDbEntity
  8
DRAFT
100
AcDbLine
 62
7
  6
CONTINUOUS
 10
-2.5
 20
-18.0176397269
 11
-0.75
 21
-18.0176397269
  0
LINE
  5
336
100
AcDbEntity
  8
DRAFT
100
AcDbLine
 62
7
  6
CONTINUOUS
 10
0.75
 20
-18.0176397269
 11
2.5
 21
-18.0176397269
  0
LINE
  5
337
100
AcDbEntity
  8
DRAFT
100
AcDbLine
 62
7
  6
CONTINUOUS
 10
22.5
 20
-18.0176397269
 11
24.25
 21
-18.0176397269
  0
LINE
  5
338
100
AcDbEntity
  8
DRAFT
100
AcDbLine
 62
7
  6
CONTINUOUS
 10
25.75
 20
-18.0176397269
 11
27.5
 21
-18.0176397269
  0
LINE
  5
339
100
AcDbEntity
  8
0
100
AcDbLine
 62
7
  6
CONTINUOUS
 10
29.8111319072
 20
-58.0531229186
 11
29.9597543621
 21
-58.2017453736
  0
LINE
  5
33A
100
AcDbEntity
  8
0
100
AcDbLine
 62
7
  6
CONTINUOUS
 10
-27.233180924
 20
12.0
 11
-27.9152916942
 21
13.7028580562
  0
LINE
  5
33B
100
AcDbEntity
  8
0
100
AcDbLine
 62
7
  6
CONTINUOUS
 10
-27.6645393485
 20
12.5160175928
 11
-27.4745804656
 21
12.0
  0
LINE
  5
33C
100
AcDbEntity
  8
0
100
AcDbLine
 62
7
  6
CONTINUOUS
 10
-17.6599258507
 20
13.7028580562
 11
-17.6599258507
 21
12.0
  0
LINE
  5
33D
100
AcDbEntity
  8
0
100
AcDbLine
 62
7
  6
CONTINUOUS
 10
-17.4328781099
 20
12.0
 11
-17.4328781099
 21
13.7028580562
  0
LINE
  5
33E
100
AcDbEntity
  8
0
100
AcDbLine
 62
7
  6
CONTINUOUS
 10
-15.4616909054
 20
13.7028580562
 11
-15.4616909054
 21
12.0
  0
LINE
  5
33F
100
AcDbEntity
  8
0
100
AcDbLine
 62
7
  6
CONTINUOUS
 10
-15.2346431646
 20
12.1960866853
 11
-15.2346431646
 21
13.7028580562
  0
LINE
  5
340
100
AcDbEntity
  8
0
100
AcDbLine
 62
7
  6
CONTINUOUS
 10
-14.3883743124
 20
12.0
 11
-14.3883743124
 21
12.1960866853
  0
LINE
  5
341
100
AcDbEntity
  8
0
100
AcDbLine
 62
7
  6
CONTINUOUS
 10
-14.1200451641
 20
13.7028580562
 11
-14.1200451641
 21
12.0
  0
LINE
  5
342
100
AcDbEntity
  8
0
100
AcDbLine
 62
7
  6
CONTINUOUS
 10
-13.8929974233
 20
12.1960866853
 11
-13.8929974233
 21
12.784346741
  0
LINE
  5
343
100
AcDbEntity
  8
0
100
AcDbLine
 62
7
  6
CONTINUOUS
 10
-13.8929974233
 20
12.9804334263
 11
-13.8929974233
 21
13.506771371
  0
LINE
  5
344
100
AcDbEntity
  8
0
100
AcDbLine
 62
7
  6
CONTINUOUS
 10
-10.7143290517
 20
13.7028580562
 11
-11.1832599506
 21
12.4689310563
  0
LINE
  5
345
100
AcDbEntity
  8
0
100
AcDbLine
 62
7
  6
CONTINUOUS
 10
-11.1506863154
 20
12.0
 11
-10.4714781884
 21
13.7028580562
  0
LINE
  5
346
100
AcDbEntity
  8
DRAFT
100
AcDbLine
 62
7
  6
CONTINUOUS
 10
3.25
 20
32.70503268
 11
3.65
 21
33.397853003
  0
LINE
  5
347
100
AcDbEntity
  8
DRAFT
100
AcDbLine
 62
7
  6
CONTINUOUS
 10
3.3110927272
 20
32.688662933
 11
3.65
 21
33.2756675485
  0
LINE
  5
348
100
AcDbEntity
  8
0
100
AcDbLine
 62
7
  6
CONTINUOUS
 10
29.9580242196
 20
55.1634645123
 11
29.9108229318
 21
55.1162632245
  0
LINE
  5
349
100
AcDbEntity
  8
DRAFT
100
AcDbLine
 62
7
  6
CONTINUOUS
 10
34.5523651948
 20
54.9
 11
34.5
 21
54.8476348052
  0
LINE
  5
34A
100
AcDbEntity
  8
RACCORDO
100
AcDbLine
 62
250
  6
CONTINUOUS
 10
34.9001523048
 20
54.9
 11
34.7954219153
 21
54.7952696104
  0
LINE
  5
34B
100
AcDbEntity
  8
0
100
AcDbLine
 62
7
  6
CONTINUOUS
 10
35.1389072728
 20
35.9
 11
35.1214522078
 21
35.8912731322
  0
LINE
  5
34C
100
AcDbEntity
  8
RACCORDO
100
AcDbLine
 62
7
  6
CONTINUOUS
 10
35.8160633661
 20
35.8580348793
 11
35.9
 21
35.9
  0
LINE
  5
34D
100
AcDbEntity
  8
DRAFT
100
AcDbLine
 62
7
  6
CONTINUOUS
 10
-35.9
 20
-17.75
 11
-27.5
 21
-17.75
  0
LINE
  5
34E
100
AcDbEntity
  8
DRAFT
100
AcDbLine
 62
7
  6
CONTINUOUS
 10
-25.75
 20
-17.75
 11
-24.25
 21
-17.75
  0
LINE
  5
34F
100
AcDbEntity
  8
DRAFT
100
AcDbLine
 62
7
  6
CONTINUOUS
 10
-22.5
 20
-17.75
 11
-2.5
 21
-17.75
  0
LINE
  5
350
100
AcDbEntity
  8
DRAFT
100
AcDbLine
 62
7
  6
CONTINUOUS
 10
-0.75
 20
-17.75
 11
0.75
 21
-17.75
  0
LINE
  5
351
100
AcDbEntity
  8
DRAFT
100
AcDbLine
 62
7
  6
CONTINUOUS
 10
2.5
 20
-17.75
 11
22.5
 21
-17.75
  0
LINE
  5
352
100
AcDbEntity
  8
DRAFT
100
AcDbLine
 62
7
  6
CONTINUOUS
 10
24.25
 20
-17.75
 11
25.75
 21
-17.75
  0
LINE
  5
353
100
AcDbEntity
  8
DRAFT
100
AcDbLine
 62
7
  6
CONTINUOUS
 10
27.5
 20
-17.75
 11
35.9
 21
-17.75
  0
LINE
  5
354
100
AcDbEntity
  8
0
100
AcDbLine
 62
7
  6
CONTINUOUS
 10
-27.5
 20
-15.95
 11
-25.75
 21
-15.95
  0
LINE
  5
355
100
AcDbEntity
  8
0
100
AcDbLine
 62
7
  6
CONTINUOUS
 10
-24.25
 20
-15.95
 11
-22.5
 21
-15.95
  0
LINE
  5
356
100
AcDbEntity
  8
0
100
AcDbLine
 62
7
  6
CONTINUOUS
 10
-2.5
 20
-15.95
 11
-0.75
 21
-15.95
  0
LINE
  5
357
100
AcDbEntity
  8
0
100
AcDbLine
 62
7
  6
CONTINUOUS
 10
0.75
 20
-15.95
 11
2.5
 21
-15.95
  0
LINE
  5
358
100
AcDbEntity
  8
0
100
AcDbLine
 62
7
  6
CONTINUOUS
 10
22.5
 20
-15.95
 11
24.25
 21
-15.95
  0
LINE
  5
359
100
AcDbEntity
  8
0
100
AcDbLine
 62
7
  6
CONTINUOUS
 10
25.75
 20
-15.95
 11
27.5
 21
-15.95
  0
LINE
  5
35A
100
AcDbEntity
  8
0
100
AcDbLine
 62
7
  6
CONTINUOUS
 10
35.1389072728
 20
-35.9
 11
35.1214522078
 21
-35.8912731322
  0
LINE
  5
35B
100
AcDbEntity
  8
RACCORDO
100
AcDbLine
 62
7
  6
CONTINUOUS
 10
35.8160633661
 20
-35.8580348793
 11
35.9
 21
-35.9
  0
LINE
  5
35C
100
AcDbEntity
  8
0
100
AcDbLine
 62
7
  6
CONTINUOUS
 10
29.9580242196
 20
-55.1634645123
 11
29.9108229318
 21
-55.1162632245
  0
LINE
  5
35D
100
AcDbEntity
  8
RACCORDO
100
AcDbLine
 62
250
  6
CONTINUOUS
 10
34.7954219153
 20
-54.7952696104
 11
34.9001523048
 21
-54.9
  0
LINE
  5
35E
100
AcDbEntity
  8
0
100
AcDbLine
 62
7
  6
CONTINUOUS
 10
-26.044566623
 20
12.3539558643
 11
-25.8213890732
 21
12.0
  0
LINE
  5
35F
100
AcDbEntity
  8
0
100
AcDbLine
 62
7
  6
CONTINUOUS
 10
-20.1224584953
 20
12.0
 11
-20.8045692655
 21
13.7028580562
  0
LINE
  5
360
100
AcDbEntity
  8
0
100
AcDbLine
 62
7
  6
CONTINUOUS
 10
-20.5538169198
 20
12.5160175928
 11
-20.3638580369
 21
12.0
  0
LINE
  5
361
100
AcDbEntity
  8
0
100
AcDbLine
 62
7
  6
CONTINUOUS
 10
-18.7451752177
 20
12.4689310563
 11
-19.1873379254
 21
13.7028580562
  0
LINE
  5
362
100
AcDbEntity
  8
0
100
AcDbLine
 62
7
  6
CONTINUOUS
 10
-12.9641657563
 20
12.784346741
 11
-12.9641657563
 21
12.9804334263
  0
LINE
  5
363
100
AcDbEntity
  8
0
100
AcDbLine
 62
7
  6
CONTINUOUS
 10
-12.9022436452
 20
13.506771371
 11
-12.9022436452
 21
13.7028580562
  0
LINE
  5
364
100
AcDbEntity
  8
0
100
AcDbLine
 62
7
  6
CONTINUOUS
 10
-12.8609622377
 20
12.0
 11
-12.8609622377
 21
12.1960866853
  0
LINE
  5
365
100
AcDbEntity
  8
0
100
AcDbLine
 62
7
  6
CONTINUOUS
 10
-10.2808742738
 20
13.7028580562
 11
-10.2808742738
 21
12.0
  0
LINE
  5
366
100
AcDbEntity
  8
0
100
AcDbLine
 62
7
  6
CONTINUOUS
 10
-10.0538265329
 20
12.0
 11
-10.0538265329
 21
13.7028580562
  0
LINE
  5
367
100
AcDbEntity
  8
0
100
AcDbLine
 62
7
  6
CONTINUOUS
 10
-9.2
 20
53.5
 11
-9.2
 21
47.2
  0
LINE
  5
368
100
AcDbEntity
  8
0
100
AcDbLine
 62
7
  6
CONTINUOUS
 10
-9.2
 20
-53.5
 11
-9.2
 21
-47.2
  0
LINE
  5
369
100
AcDbEntity
  8
0
100
AcDbLine
 62
7
  6
CONTINUOUS
 10
-3.9207961453
 20
13.3027832032
 11
-4.7904470864
 21
12.2043108411
  0
LINE
  5
36A
100
AcDbEntity
  8
RACCORDO
100
AcDbLine
 62
250
  6
CONTINUOUS
 10
35.9
 20
53.9001523048
 11
35.7952696104
 21
53.7954219153
  0
LINE
  5
36B
100
AcDbEntity
  8
RACCORDO
100
AcDbLine
 62
250
  6
CONTINUOUS
 10
35.7952696104
 20
-53.7954219153
 11
35.9
 21
-53.9001523048
  0
LINE
  5
36C
100
AcDbEntity
  8
0
100
AcDbLine
 62
7
  6
CONTINUOUS
 10
-15.6434257899
 20
12.0
 11
-16.3255365601
 21
13.7028580562
  0
LINE
  5
36D
100
AcDbEntity
  8
0
100
AcDbLine
 62
7
  6
CONTINUOUS
 10
-19.4287373095
 20
13.7028580562
 11
-18.7740400773
 21
12.0
  0
LINE
  5
36E
100
AcDbEntity
  8
0
100
AcDbLine
 62
7
  6
CONTINUOUS
 10
-16.0747842143
 20
12.5160175928
 11
-15.8848253315
 21
12.0
  0
LINE
  5
36F
100
AcDbEntity
  8
DRAFT
100
AcDbLine
 62
7
  6
CONTINUOUS
 10
-4.3776508009
 20
18.9
 11
-4.3790539221
 21
19.2
  0
LINE
  5
370
100
AcDbEntity
  8
0
100
AcDbLine
 62
7
  6
CONTINUOUS
 10
-7.9278340506
 20
13.7028580562
 11
-7.9278340506
 21
12.0
  0
LINE
  5
371
100
AcDbEntity
  8
0
100
AcDbLine
 62
7
  6
CONTINUOUS
 10
-7.7007863098
 20
12.1960866853
 11
-7.7007863098
 21
12.784346741
  0
LINE
  5
372
100
AcDbEntity
  8
0
100
AcDbLine
 62
7
  6
CONTINUOUS
 10
-7.7007863098
 20
12.9804334263
 11
-7.7007863098
 21
13.506771371
  0
LINE
  5
373
100
AcDbEntity
  8
0
100
AcDbLine
 62
7
  6
CONTINUOUS
 10
-7.0
 20
53.5
 11
-7.0
 21
47.2
  0
LINE
  5
374
100
AcDbEntity
  8
0
100
AcDbLine
 62
7
  6
CONTINUOUS
 10
-7.0
 20
-53.5
 11
-7.0
 21
-47.2
  0
LINE
  5
375
100
AcDbEntity
  8
0
100
AcDbLine
 62
7
  6
CONTINUOUS
 10
-6.7719546428
 20
12.784346741
 11
-6.7719546428
 21
12.9804334263
  0
LINE
  5
376
100
AcDbEntity
  8
0
100
AcDbLine
 62
7
  6
CONTINUOUS
 10
-6.7100325316
 20
13.506771371
 11
-6.7100325316
 21
13.7028580562
  0
LINE
  5
377
100
AcDbEntity
  8
0
100
AcDbLine
 62
7
  6
CONTINUOUS
 10
-6.6687511242
 20
12.0
 11
-6.6687511242
 21
12.1960866853
  0
LINE
  5
378
100
AcDbEntity
  8
0
100
AcDbLine
 62
7
  6
CONTINUOUS
 10
-6.3488202167
 20
13.7028580562
 11
-6.3488202167
 21
12.0
  0
LINE
  5
379
100
AcDbEntity
  8
0
100
AcDbLine
 62
7
  6
CONTINUOUS
 10
-6.1217724758
 20
12.0
 11
-6.1217724758
 21
13.3060083624
  0
LINE
  5
37A
100
AcDbEntity
  8
DRAFT
100
AcDbLine
 62
7
  6
CONTINUOUS
 10
-6.0
 20
1.5
 11
-6.0
 21
-1.5
  0
LINE
  5
37B
100
AcDbEntity
  8
RACCORDO
100
AcDbLine
 62
7
  6
CONTINUOUS
 10
-5.9371426149
 20
0.9542982275
 11
-5.9371426149
 21
-0.9542982275
  0
LINE
  5
37C
100
AcDbEntity
  8
0
100
AcDbLine
 62
7
  6
CONTINUOUS
 10
-5.5
 20
53.5
 11
-5.5
 21
46.6
  0
LINE
  5
37D
100
AcDbEntity
  8
0
100
AcDbLine
 62
7
  6
CONTINUOUS
 10
-5.25486292
 20
13.7028580562
 11
-5.25486292
 21
12.3968498513
  0
LINE
  5
37E
100
AcDbEntity
  8
0
100
AcDbLine
 62
7
  6
CONTINUOUS
 10
-5.0278151791
 20
12.0
 11
-5.0278151791
 21
13.7028580562
  0
LINE
  5
37F
100
AcDbEntity
  8
RACCORDO
100
AcDbLine
 62
7
  6
CONTINUOUS
 10
-4.9823085464
 20
0.9542982275
 11
-4.9823085464
 21
-0.9542982275
  0
LINE
  5
380
100
AcDbEntity
  8
0
100
AcDbLine
 62
7
  6
CONTINUOUS
 10
-4.7904470864
 20
12.2043108411
 11
-4.7904470864
 21
12.0
  0
LINE
  5
381
100
AcDbEntity
  8
0
100
AcDbLine
 62
7
  6
CONTINUOUS
 10
-4.6872435679
 20
13.7028580562
 11
-4.6872435679
 21
13.506771371
  0
LINE
  5
382
100
AcDbEntity
  8
SMUSSO
100
AcDbLine
 62
7
  6
CONTINUOUS
 10
-4.5
 20
20.3810194482
 11
-4.5
 21
17.75
  0
LINE
  5
383
100
AcDbEntity
  8
DRAFT
100
AcDbLine
 62
7
  6
CONTINUOUS
 10
-4.5
 20
-1.5
 11
-4.5
 21
1.5
  0
LINE
  5
384
100
AcDbEntity
  8
DRAFT
100
AcDbLine
 62
7
  6
CONTINUOUS
 10
-4.5
 20
20.3810194482
 11
-4.5
 21
21.25
  0
LINE
  5
385
100
AcDbEntity
  8
0
100
AcDbLine
 62
7
  6
CONTINUOUS
 10
-4.5
 20
43.7
 11
-4.5
 21
54.0
  0
LINE
  5
386
100
AcDbEntity
  8
RACCORDO
100
AcDbLine
 62
7
  6
CONTINUOUS
 10
-4.4
 20
20.0
 11
-4.4
 21
21.25
  0
LINE
  5
387
100
AcDbEntity
  8
RACCORDO
100
AcDbLine
 62
7
  6
CONTINUOUS
 10
-4.4
 20
43.7
 11
-4.4
 21
52.9000761524
  0
LINE
  5
388
100
AcDbEntity
  8
RACCORDO
100
AcDbLine
 62
7
  6
CONTINUOUS
 10
-4.3790539221
 20
19.2
 11
-4.3790539221
 21
19.7
  0
LINE
  5
389
100
AcDbEntity
  8
RACCORDO
100
AcDbLine
 62
7
  6
CONTINUOUS
 10
-4.3249432208
 20
20.9
 11
-4.3249432208
 21
21.25
  0
LINE
  5
38A
100
AcDbEntity
  8
RACCORDO
100
AcDbLine
 62
7
  6
CONTINUOUS
 10
-4.3249432208
 20
43.7
 11
-4.3249432208
 21
52.8250193732
  0
LINE
  5
38B
100
AcDbEntity
  8
DRAFT
100
AcDbLine
 62
7
  6
CONTINUOUS
 10
-4.3249432208
 20
20.9
 11
-4.3598533507
 21
18.9
  0
LINE
  5
38C
100
AcDbEntity
  8
0
100
AcDbLine
 62
7
  6
CONTINUOUS
 10
-3.1495111414
 20
12.0
 11
-2.9700337109
 21
12.5160175928
  0
LINE
  5
38D
100
AcDbEntity
  8
0
100
AcDbLine
 62
7
  6
CONTINUOUS
 10
-2.9053702144
 20
12.7017839262
 11
-2.7213777186
 21
13.1989346528
  0
LINE
  5
38E
100
AcDbEntity
  8
0
100
AcDbLine
 62
7
  6
CONTINUOUS
 10
-2.7418571643
 20
13.7028580562
 11
-3.389136688
 21
12.0
  0
LINE
  5
38F
100
AcDbEntity
  8
0
100
AcDbLine
 62
7
  6
CONTINUOUS
 10
0.9992703047
 20
13.7028580562
 11
0.2046032118
 21
12.5985804076
  0
LINE
  5
390
100
AcDbEntity
  8
0
100
AcDbLine
 62
7
  6
CONTINUOUS
 10
0.4113327648
 20
12.5985804076
 11
0.9579888973
 21
13.3584164115
  0
LINE
  5
391
100
AcDbEntity
  8
RACCORDO
100
AcDbLine
 62
7
  6
CONTINUOUS
 10
34.5483680519
 20
24.1087268678
 11
34.6148496209
 21
24.1419651207
  0
LINE
  5
392
100
AcDbEntity
  8
0
100
AcDbLine
 62
7
  6
CONTINUOUS
 10
14.1883832022
 20
-8.66056
 11
26.8883832022
 21
-8.66056
  0
LINE
  5
393
100
AcDbEntity
  8
0
100
AcDbLine
 62
7
  6
CONTINUOUS
 10
26.8883832022
 20
-6.66056
 11
14.1883832022
 21
-6.66056
  0
LINE
  5
394
100
AcDbEntity
  8
0
100
AcDbLine
 62
7
  6
CONTINUOUS
 10
18.250866
 20
-5.515034
 11
18.89172
 21
-5.515034
  0
LINE
  5
395
100
AcDbEntity
  8
0
100
AcDbLine
 62
7
  6
CONTINUOUS
 10
18.731506
 20
-5.35482
 11
18.41108
 21
-5.35482
  0
LINE
  5
396
100
AcDbEntity
  8
0
100
AcDbLine
 62
7
  6
CONTINUOUS
 10
18.41108
 20
-4.713966
 11
18.731506
 21
-4.713966
  0
LINE
  5
397
100
AcDbEntity
  8
0
100
AcDbLine
 62
7
  6
CONTINUOUS
 10
18.89172
 20
-4.66056
 11
20.669084
 21
-4.66056
  0
LINE
  5
398
100
AcDbEntity
  8
0
100
AcDbLine
 62
7
  6
CONTINUOUS
 10
20.6690826942
 20
-4.553752
 11
18.348738
 21
-4.553752
  0
LINE
  5
399
100
AcDbEntity
  8
RACCORDO
100
AcDbLine
 62
7
  6
CONTINUOUS
 10
34.5483680519
 20
-24.1087268678
 11
34.6148496209
 21
-24.1419651207
  0
LINE
  5
39A
100
AcDbEntity
  8
0
100
AcDbLine
 62
7
  6
CONTINUOUS
 10
-12.0496857326
 20
13.7028580562
 11
-11.3949885003
 21
12.0
  0
LINE
  5
39B
100
AcDbEntity
  8
0
100
AcDbLine
 62
7
  6
CONTINUOUS
 10
-11.3661236407
 20
12.4689310563
 11
-11.8082863484
 21
13.7028580562
  0
LINE
  5
39C
100
AcDbEntity
  8
0
100
AcDbLine
 62
7
  6
CONTINUOUS
 10
-0.5465483598
 20
-55.925867995
 11
-0.53717643
 21
-57.8015748213
  0
LINE
  5
39D
100
AcDbEntity
  8
0
100
AcDbLine
 62
7
  6
CONTINUOUS
 10
-3.65
 20
21.25
 11
-3.65
 21
43.7
  0
LINE
  5
39E
100
AcDbEntity
  8
0
100
AcDbLine
 62
7
  6
CONTINUOUS
 10
-3.4797624007
 20
13.506771371
 11
-3.4797624007
 21
13.7028580562
  0
LINE
  5
39F
100
AcDbEntity
  8
0
100
AcDbLine
 62
7
  6
CONTINUOUS
 10
-3.4384809933
 20
12.0
 11
-3.4384809933
 21
12.1960866853
  0
LINE
  5
3A0
100
AcDbEntity
  8
DRAFT
100
AcDbLine
 62
7
  6
CONTINUOUS
 10
-3.3110927272
 20
51.9
 11
-3.3110927272
 21
37.311337067
  0
LINE
  5
3A1
100
AcDbEntity
  8
DRAFT
100
AcDbLine
 62
7
  6
CONTINUOUS
 10
-3.3110927272
 20
32.688662933
 11
-3.3110927272
 21
22.6
  0
LINE
  5
3A2
100
AcDbEntity
  8
DRAFT
100
AcDbLine
 62
7
  6
CONTINUOUS
 10
-3.2622185454
 20
49.7
 11
-3.2622185454
 21
44.9
  0
LINE
  5
3A3
100
AcDbEntity
  8
DRAFT
100
AcDbLine
 62
7
  6
CONTINUOUS
 10
-3.25
 20
37.29496732
 11
-3.25
 21
32.70503268
  0
LINE
  5
3A4
100
AcDbEntity
  8
DRAFT
100
AcDbLine
 62
7
  6
CONTINUOUS
 10
-3.2360359481
 20
51.9
 11
-3.2360359481
 21
49.7
  0
LINE
  5
3A5
100
AcDbEntity
  8
DRAFT
100
AcDbLine
 62
7
  6
CONTINUOUS
 10
-3.2360359481
 20
44.9
 11
-3.2360359481
 21
22.6
  0
LINE
  5
3A6
100
AcDbEntity
  8
0
100
AcDbLine
 62
7
  6
CONTINUOUS
 10
-3.15
 20
43.7
 11
-3.15
 21
22.6
  0
LINE
  5
3A7
100
AcDbEntity
  8
DRAFT
100
AcDbLine
 62
7
  6
CONTINUOUS
 10
-2.5
 20
-15.95
 11
-2.5
 21
-18.0176397269
  0
LINE
  5
3A8
100
AcDbEntity
  8
0
100
AcDbLine
 62
7
  6
CONTINUOUS
 10
-0.8893540849
 20
13.2848838848
 11
-0.8893540849
 21
13.0823470387
  0
LINE
  5
3A9
100
AcDbEntity
  8
DRAFT
100
AcDbLine
 62
7
  6
CONTINUOUS
 10
-0.75
 20
-18.0176397269
 11
-0.75
 21
-15.95
  0
LINE
  5
3AA
100
AcDbEntity
  8
0
100
AcDbLine
 62
7
  6
CONTINUOUS
 10
-0.5471250861
 20
55.6774351308
 11
-0.5471250861
 21
54.9
  0
LINE
  5
3AB
100
AcDbEntity
  8
0
100
AcDbLine
 62
7
  6
CONTINUOUS
 10
-0.5471250861
 20
-55.6774351308
 11
-0.5471250861
 21
-54.9
  0
LINE
  5
3AC
100
AcDbEntity
  8
0
100
AcDbLine
 62
7
  6
CONTINUOUS
 10
-0.4662196588
 20
13.3348730645
 11
-0.4662196588
 21
12.0
  0
LINE
  5
3AD
100
AcDbEntity
  8
0
100
AcDbLine
 62
7
  6
CONTINUOUS
 10
-0.3848053452
 20
58.2017453736
 11
-0.3848053452
 21
55.0517453736
  0
LINE
  5
3AE
100
AcDbEntity
  8
0
100
AcDbLine
 62
7
  6
CONTINUOUS
 10
-0.3848053452
 20
-55.0517453736
 11
-0.3848053452
 21
-58.2017453736
  0
LINE
  5
3AF
100
AcDbEntity
  8
0
100
AcDbLine
 62
7
  6
CONTINUOUS
 10
-0.2598126217
 20
12.0
 11
-0.2598126217
 21
13.7131784081
  0
LINE
  5
3B0
100
AcDbEntity
  8
0
100
AcDbLine
 62
7
  6
CONTINUOUS
 10
0.2046032118
 20
12.5985804076
 11
0.2046032118
 21
12.4024937224
  0
LINE
  5
3B1
100
AcDbEntity
  8
0
100
AcDbLine
 62
7
  6
CONTINUOUS
 10
0.3848053452
 20
-58.2017453736
 11
0.3848053452
 21
-55.0517453736
  0
LINE
  5
3B2
100
AcDbEntity
  8
0
100
AcDbLine
 62
7
  6
CONTINUOUS
 10
0.3848053452
 20
55.0517453736
 11
0.3848053452
 21
58.2017453736
  0
LINE
  5
3B3
100
AcDbEntity
  8
0
100
AcDbLine
 62
7
  6
CONTINUOUS
 10
0.5471250861
 20
55.6774351308
 11
0.5471250861
 21
54.9
  0
LINE
  5
3B4
100
AcDbEntity
  8
0
100
AcDbLine
 62
7
  6
CONTINUOUS
 10
0.5471250861
 20
-55.6774351308
 11
0.5471250861
 21
-54.9
  0
LINE
  5
3B5
100
AcDbEntity
  8
0
100
AcDbLine
 62
7
  6
CONTINUOUS
 10
-0.5465483598
 20
55.925867995
 11
-0.53717643
 21
57.8015748213
  0
LINE
  5
3B6
100
AcDbEntity
  8
RACCORDO
100
AcDbLine
 62
7
  6
CONTINUOUS
 10
-6.0
 20
-1.5
 11
-5.953993641
 21
-1.453993641
  0
LINE
  5
3B7
100
AcDbEntity
  8
RACCORDO
100
AcDbLine
 62
7
  6
CONTINUOUS
 10
4.5
 20
-1.5
 11
4.8530095961
 21
-1.453993641
  0
LINE
  5
3B8
100
AcDbEntity
  8
DRAFT
100
AcDbLine
 62
7
  6
CONTINUOUS
 10
-6.0
 20
-1.5
 11
-4.5
 21
-1.5
  0
LINE
  5
3B9
100
AcDbEntity
  8
DRAFT
100
AcDbLine
 62
7
  6
CONTINUOUS
 10
4.5
 20
-1.5
 11
6.0
 21
-1.5
  0
LINE
  5
3BA
100
AcDbEntity
  8
RACCORDO
100
AcDbLine
 62
250
  6
CONTINUOUS
 10
-5.953993641
 20
-1.453993641
 11
-4.8530095961
 21
-1.453993641
  0
LINE
  5
3BB
100
AcDbEntity
  8
RACCORDO
100
AcDbLine
 62
250
  6
CONTINUOUS
 10
4.8530095961
 20
-1.453993641
 11
5.953993641
 21
-1.453993641
  0
LINE
  5
3BC
100
AcDbEntity
  8
RACCORDO
100
AcDbLine
 62
250
  6
CONTINUOUS
 10
-5.9371426149
 20
-0.9542982275
 11
-4.9823085464
 21
-0.9542982275
  0
LINE
  5
3BD
100
AcDbEntity
  8
RACCORDO
100
AcDbLine
 62
250
  6
CONTINUOUS
 10
4.9823085464
 20
-0.9542982275
 11
5.9371426149
 21
-0.9542982275
  0
LINE
  5
3BE
100
AcDbEntity
  8
0
100
AcDbLine
 62
7
  6
CONTINUOUS
 10
19.30574
 20
0.41287
 11
21.1749
 21
0.41287
  0
LINE
  5
3BF
100
AcDbEntity
  8
0
100
AcDbLine
 62
7
  6
CONTINUOUS
 10
21.06809
 20
0.51968
 11
19.41255
 21
0.51968
  0
LINE
  5
3C0
100
AcDbEntity
  8
RACCORDO
100
AcDbLine
 62
7
  6
CONTINUOUS
 10
-4.5
 20
-1.5
 11
-4.8530095961
 21
-1.453993641
  0
LINE
  5
3C1
100
AcDbEntity
  8
RACCORDO
100
AcDbLine
 62
7
  6
CONTINUOUS
 10
-6.0
 20
1.5
 11
-5.953993641
 21
1.453993641
  0
LINE
  5
3C2
100
AcDbEntity
  8
DRAFT
100
AcDbLine
 62
7
  6
CONTINUOUS
 10
4.3249432208
 20
20.9
 11
4.3598533507
 21
18.9
  0
LINE
  5
3C3
100
AcDbEntity
  8
0
100
AcDbLine
 62
7
  6
CONTINUOUS
 10
0.5465483598
 20
55.925867995
 11
0.53717643
 21
57.8015748213
  0
LINE
  5
3C4
100
AcDbEntity
  8
DRAFT
100
AcDbLine
 62
7
  6
CONTINUOUS
 10
0.75
 20
-15.95
 11
0.75
 21
-18.0176397269
  0
LINE
  5
3C5
100
AcDbEntity
  8
0
100
AcDbLine
 62
7
  6
CONTINUOUS
 10
0.9579888973
 20
13.3584164115
 11
0.9579888973
 21
12.5985804076
  0
LINE
  5
3C6
100
AcDbEntity
  8
0
100
AcDbLine
 62
7
  6
CONTINUOUS
 10
0.9579888973
 20
12.4024937224
 11
0.9579888973
 21
12.0
  0
LINE
  5
3C7
100
AcDbEntity
  8
0
100
AcDbLine
 62
7
  6
CONTINUOUS
 10
1.1643959344
 20
12.0
 11
1.1643959344
 21
12.4024937224
  0
LINE
  5
3C8
100
AcDbEntity
  8
0
100
AcDbLine
 62
7
  6
CONTINUOUS
 10
1.1643959344
 20
12.5985804076
 11
1.1643959344
 21
13.7028580562
  0
LINE
  5
3C9
100
AcDbEntity
  8
0
100
AcDbLine
 62
7
  6
CONTINUOUS
 10
1.3914436752
 20
12.4024937224
 11
1.3914436752
 21
12.5985804076
  0
LINE
  5
3CA
100
AcDbEntity
  8
DRAFT
100
AcDbLine
 62
7
  6
CONTINUOUS
 10
2.5
 20
-18.0176397269
 11
2.5
 21
-15.95
  0
LINE
  5
3CB
100
AcDbEntity
  8
0
100
AcDbLine
 62
7
  6
CONTINUOUS
 10
3.15
 20
22.6
 11
3.15
 21
43.7
  0
LINE
  5
3CC
100
AcDbEntity
  8
DRAFT
100
AcDbLine
 62
7
  6
CONTINUOUS
 10
3.2360359481
 20
22.6
 11
3.2360359481
 21
44.9
  0
LINE
  5
3CD
100
AcDbEntity
  8
DRAFT
100
AcDbLine
 62
7
  6
CONTINUOUS
 10
3.2360359481
 20
49.7
 11
3.2360359481
 21
51.9
  0
LINE
  5
3CE
100
AcDbEntity
  8
DRAFT
100
AcDbLine
 62
7
  6
CONTINUOUS
 10
3.25
 20
32.70503268
 11
3.25
 21
37.29496732
  0
LINE
  5
3CF
100
AcDbEntity
  8
DRAFT
100
AcDbLine
 62
7
  6
CONTINUOUS
 10
3.2622185454
 20
49.7
 11
3.2622185454
 21
44.9
  0
LINE
  5
3D0
100
AcDbEntity
  8
DRAFT
100
AcDbLine
 62
7
  6
CONTINUOUS
 10
3.3110927272
 20
22.6
 11
3.3110927272
 21
32.688662933
  0
LINE
  5
3D1
100
AcDbEntity
  8
DRAFT
100
AcDbLine
 62
7
  6
CONTINUOUS
 10
3.3110927272
 20
37.311337067
 11
3.3110927272
 21
51.9
  0
LINE
  5
3D2
100
AcDbEntity
  8
0
100
AcDbLine
 62
7
  6
CONTINUOUS
 10
3.65
 20
43.7
 11
3.65
 21
21.25
  0
LINE
  5
3D3
100
AcDbEntity
  8
RACCORDO
100
AcDbLine
 62
7
  6
CONTINUOUS
 10
4.3249432208
 20
52.8250193732
 11
4.3249432208
 21
43.7
  0
LINE
  5
3D4
100
AcDbEntity
  8
RACCORDO
100
AcDbLine
 62
7
  6
CONTINUOUS
 10
4.3249432208
 20
21.25
 11
4.3249432208
 21
20.9
  0
LINE
  5
3D5
100
AcDbEntity
  8
RACCORDO
100
AcDbLine
 62
7
  6
CONTINUOUS
 10
4.3790539221
 20
19.2
 11
4.3790539221
 21
19.7
  0
LINE
  5
3D6
100
AcDbEntity
  8
RACCORDO
100
AcDbLine
 62
7
  6
CONTINUOUS
 10
4.4
 20
52.9000761524
 11
4.4
 21
43.7
  0
LINE
  5
3D7
100
AcDbEntity
  8
RACCORDO
100
AcDbLine
 62
7
  6
CONTINUOUS
 10
4.4
 20
21.25
 11
4.4
 21
20.0
  0
LINE
  5
3D8
100
AcDbEntity
  8
0
100
AcDbLine
 62
7
  6
CONTINUOUS
 10
4.5
 20
54.0
 11
4.5
 21
43.7
  0
LINE
  5
3D9
100
AcDbEntity
  8
DRAFT
100
AcDbLine
 62
7
  6
CONTINUOUS
 10
4.5
 20
1.5
 11
4.5
 21
-1.5
  0
LINE
  5
3DA
100
AcDbEntity
  8
SMUSSO
100
AcDbLine
 62
7
  6
CONTINUOUS
 10
4.5
 20
17.75
 11
4.5
 21
20.3810194482
  0
LINE
  5
3DB
100
AcDbEntity
  8
DRAFT
100
AcDbLine
 62
7
  6
CONTINUOUS
 10
4.5
 20
20.3810194482
 11
4.5
 21
21.25
  0
LINE
  5
3DC
100
AcDbEntity
  8
RACCORDO
100
AcDbLine
 62
7
  6
CONTINUOUS
 10
4.9823085464
 20
0.9542982275
 11
4.9823085464
 21
-0.9542982275
  0
LINE
  5
3DD
100
AcDbEntity
  8
DRAFT
100
AcDbLine
 62
7
  6
CONTINUOUS
 10
4.3776508009
 20
18.9
 11
4.3790539221
 21
19.2
  0
LINE
  5
3DE
100
AcDbEntity
  8
0
100
AcDbLine
 62
7
  6
CONTINUOUS
 10
0.5465483598
 20
-55.925867995
 11
0.53717643
 21
-57.8015748213
  0
LINE
  5
3DF
100
AcDbEntity
  8
0
100
AcDbLine
 62
7
  6
CONTINUOUS
 10
2.6971295217
 20
12.9907537782
 11
2.6732636588
 21
12.8049874448
  0
LINE
  5
3E0
100
AcDbEntity
  8
RACCORDO
100
AcDbLine
 62
7
  6
CONTINUOUS
 10
6.0
 20
1.5
 11
5.953993641
 21
1.453993641
  0
LINE
  5
3E1
100
AcDbEntity
  8
RACCORDO
100
AcDbLine
 62
7
  6
CONTINUOUS
 10
-4.5
 20
1.5
 11
-4.8530095961
 21
1.453993641
  0
LINE
  5
3E2
100
AcDbEntity
  8
0
100
AcDbLine
 62
7
  6
CONTINUOUS
 10
19.41255
 20
0.840108
 11
21.06809
 21
0.840108
  0
LINE
  5
3E3
100
AcDbEntity
  8
0
100
AcDbLine
 62
7
  6
CONTINUOUS
 10
21.1749
 20
0.946916
 11
19.30574
 21
0.946916
  0
LINE
  5
3E4
100
AcDbEntity
  8
0
100
AcDbLine
 62
7
  6
CONTINUOUS
 10
22.195272
 20
0.946916
 11
23.150868
 21
0.946916
  0
LINE
  5
3E5
100
AcDbEntity
  8
RACCORDO
100
AcDbLine
 62
250
  6
CONTINUOUS
 10
5.9371426149
 20
0.9542982275
 11
4.9823085464
 21
0.9542982275
  0
LINE
  5
3E6
100
AcDbEntity
  8
RACCORDO
100
AcDbLine
 62
250
  6
CONTINUOUS
 10
-4.9823085464
 20
0.9542982275
 11
-5.9371426149
 21
0.9542982275
  0
LINE
  5
3E7
100
AcDbEntity
  8
0
100
AcDbLine
 62
7
  6
CONTINUOUS
 10
23.044058
 20
1.053726
 11
22.204776
 21
1.053726
  0
LINE
  5
3E8
100
AcDbEntity
  8
RACCORDO
100
AcDbLine
 62
250
  6
CONTINUOUS
 10
5.953993641
 20
1.453993641
 11
4.8530095961
 21
1.453993641
  0
LINE
  5
3E9
100
AcDbEntity
  8
RACCORDO
100
AcDbLine
 62
250
  6
CONTINUOUS
 10
-4.8530095961
 20
1.453993641
 11
-5.953993641
 21
1.453993641
  0
LINE
  5
3EA
100
AcDbEntity
  8
DRAFT
100
AcDbLine
 62
7
  6
CONTINUOUS
 10
6.0
 20
1.5
 11
4.5
 21
1.5
  0
LINE
  5
3EB
100
AcDbEntity
  8
DRAFT
100
AcDbLine
 62
7
  6
CONTINUOUS
 10
-4.5
 20
1.5
 11
-6.0
 21
1.5
  0
LINE
  5
3EC
100
AcDbEntity
  8
0
100
AcDbLine
 62
7
  6
CONTINUOUS
 10
21.975968
 20
2.015006
 11
22.1815
 21
2.015006
  0
LINE
  5
3ED
100
AcDbEntity
  8
0
100
AcDbLine
 62
7
  6
CONTINUOUS
 10
22.288718
 20
2.015006
 11
22.863956
 21
2.015006
  0
LINE
  5
3EE
100
AcDbEntity
  8
0
100
AcDbLine
 62
7
  6
CONTINUOUS
 10
22.190844
 20
2.121816
 11
21.869158
 21
2.121816
  0
LINE
  5
3EF
100
AcDbEntity
  8
0
100
AcDbLine
 62
7
  6
CONTINUOUS
 10
22.970766
 20
2.121816
 11
22.298062
 21
2.121816
  0
LINE
  5
3F0
100
AcDbEntity
  8
0
100
AcDbLine
 62
7
  6
CONTINUOUS
 10
16.742324
 20
2.549052
 11
17.620106
 21
2.549052
  0
LINE
  5
3F1
100
AcDbEntity
  8
0
100
AcDbLine
 62
7
  6
CONTINUOUS
 10
17.727324
 20
2.549052
 11
22.228224
 21
2.549052
  0
LINE
  5
3F2
100
AcDbEntity
  8
0
100
AcDbLine
 62
7
  6
CONTINUOUS
 10
22.33544
 20
2.549052
 11
22.670226
 21
2.549052
  0
LINE
  5
3F3
100
AcDbEntity
  8
0
100
AcDbLine
 62
7
  6
CONTINUOUS
 10
21.9345818306
 20
2.976288
 11
18.397864
 21
2.976288
  0
LINE
  5
3F4
100
AcDbEntity
  8
0
100
AcDbLine
 62
7
  6
CONTINUOUS
 10
17.863818
 20
2.976288
 11
17.689946
 21
2.976288
  0
LINE
  5
3F5
100
AcDbEntity
  8
0
100
AcDbLine
 62
7
  6
CONTINUOUS
 10
17.582728
 20
2.976288
 11
16.742324
 21
2.976288
  0
LINE
  5
3F6
100
AcDbEntity
  8
0
100
AcDbLine
 62
7
  6
CONTINUOUS
 10
18.291054
 20
3.083098
 11
17.970628
 21
3.083098
  0
LINE
  5
3F7
100
AcDbEntity
  8
0
100
AcDbLine
 62
7
  6
CONTINUOUS
 10
19.51936
 20
3.403526
 11
20.961282
 21
3.403526
  0
LINE
  5
3F8
100
AcDbEntity
  8
0
100
AcDbLine
 62
7
  6
CONTINUOUS
 10
20.854472
 20
3.510334
 11
19.626168
 21
3.510334
  0
LINE
  5
3F9
100
AcDbEntity
  8
0
100
AcDbLine
 62
7
  6
CONTINUOUS
 10
17.970628
 20
3.777356
 11
18.291054
 21
3.777356
  0
LINE
  5
3FA
100
AcDbEntity
  8
0
100
AcDbLine
 62
7
  6
CONTINUOUS
 10
18.397864
 20
3.884166
 11
17.863818
 21
3.884166
  0
LINE
  5
3FB
100
AcDbEntity
  8
0
100
AcDbLine
 62
7
  6
CONTINUOUS
 10
19.626168
 20
3.93757
 11
20.854472
 21
3.93757
  0
LINE
  5
3FC
100
AcDbEntity
  8
0
100
AcDbLine
 62
7
  6
CONTINUOUS
 10
20.961282
 20
4.04438
 11
19.51936
 21
4.04438
  0
LINE
  5
3FD
100
AcDbEntity
  8
RACCORDO
100
AcDbLine
 62
7
  6
CONTINUOUS
 10
4.5
 20
1.5
 11
4.8530095961
 21
1.453993641
  0
LINE
  5
3FE
100
AcDbEntity
  8
RACCORDO
100
AcDbLine
 62
7
  6
CONTINUOUS
 10
6.0
 20
-1.5
 11
5.953993641
 21
-1.453993641
  0
LINE
  5
3FF
100
AcDbEntity
  8
0
100
AcDbLine
 62
7
  6
CONTINUOUS
 10
-6.1217724758
 20
13.3060083624
 11
-5.2692145633
 21
12.0
  0
LINE
  5
400
100
AcDbEntity
  8
0
100
AcDbLine
 62
7
  6
CONTINUOUS
 10
-5.25486292
 20
12.3968498513
 11
-6.107420675
 21
13.7028580562
  0
LINE
  5
401
100
AcDbEntity
  8
0
100
AcDbLine
 62
7
  6
CONTINUOUS
 10
-1.814154303
 20
12.0
 11
-2.4962650732
 21
13.7028580562
  0
LINE
  5
402
100
AcDbEntity
  8
0
100
AcDbLine
 62
7
  6
CONTINUOUS
 10
-2.2455127275
 20
12.5160175928
 11
-2.0555538446
 21
12.0
  0
LINE
  5
403
100
AcDbEntity
  8
0
100
AcDbLine
 62
7
  6
CONTINUOUS
 10
5.5
 20
46.6
 11
5.5
 21
53.5
  0
LINE
  5
404
100
AcDbEntity
  8
RACCORDO
100
AcDbLine
 62
7
  6
CONTINUOUS
 10
5.9371426149
 20
0.9542982275
 11
5.9371426149
 21
-0.9542982275
  0
LINE
  5
405
100
AcDbEntity
  8
DRAFT
100
AcDbLine
 62
7
  6
CONTINUOUS
 10
6.0
 20
-1.5
 11
6.0
 21
1.5
  0
LINE
  5
406
100
AcDbEntity
  8
0
100
AcDbLine
 62
7
  6
CONTINUOUS
 10
7.0
 20
53.5
 11
7.0
 21
47.2
  0
LINE
  5
407
100
AcDbEntity
  8
0
100
AcDbLine
 62
7
  6
CONTINUOUS
 10
7.0
 20
-53.5
 11
7.0
 21
-47.2
  0
LINE
  5
408
100
AcDbEntity
  8
0
100
AcDbLine
 62
7
  6
CONTINUOUS
 10
9.2
 20
53.5
 11
9.2
 21
47.2
  0
LINE
  5
409
100
AcDbEntity
  8
0
100
AcDbLine
 62
7
  6
CONTINUOUS
 10
9.2
 20
-53.5
 11
9.2
 21
-47.2
  0
LINE
  5
40A
100
AcDbEntity
  8
0
100
AcDbLine
 62
7
  6
CONTINUOUS
 10
9.5858030488
 20
13.7028580562
 11
9.5858030488
 21
12.0
  0
LINE
  5
40B
100
AcDbEntity
  8
0
100
AcDbLine
 62
7
  6
CONTINUOUS
 10
9.8128507896
 20
12.0
 11
9.8128507896
 21
13.4448492598
  0
LINE
  5
40C
100
AcDbEntity
  8
0
100
AcDbLine
 62
7
  6
CONTINUOUS
 10
7.9811496719
 20
12.9907537782
 11
7.957283809
 21
12.8049874448
  0
LINE
  5
40D
100
AcDbEntity
  8
0
100
AcDbLine
 62
7
  6
CONTINUOUS
 10
11.6395530681
 20
12.0
 11
11.8190304986
 21
12.5160175928
  0
LINE
  5
40E
100
AcDbEntity
  8
0
100
AcDbLine
 62
7
  6
CONTINUOUS
 10
10.4970579133
 20
12.0
 11
10.999691253
 21
13.4242085561
  0
LINE
  5
40F
100
AcDbEntity
  8
0
100
AcDbLine
 62
7
  6
CONTINUOUS
 10
10.931318981
 20
13.7028580562
 11
10.5101196505
 21
12.5206940736
  0
LINE
  5
410
100
AcDbEntity
  8
0
100
AcDbLine
 62
7
  6
CONTINUOUS
 10
11.883693995
 20
12.7017839262
 11
12.0676864909
 21
13.1989346528
  0
LINE
  5
411
100
AcDbEntity
  8
0
100
AcDbLine
 62
7
  6
CONTINUOUS
 10
12.0472070451
 20
13.7028580562
 11
11.3999275215
 21
12.0
  0
LINE
  5
412
100
AcDbEntity
  8
0
100
AcDbLine
 62
7
  6
CONTINUOUS
 10
15.193592
 20
3.95746
 11
15.04254
 21
3.806408
  0
LINE
  5
413
100
AcDbEntity
  8
RACCORDO
100
AcDbLine
 62
7
  6
CONTINUOUS
 10
-34.5483680519
 20
-24.1087268678
 11
-34.6148496209
 21
-24.1419651207
  0
LINE
  5
414
100
AcDbEntity
  8
0
100
AcDbLine
 62
7
  6
CONTINUOUS
 10
21.5780519053
 20
13.1829704299
 11
21.8050996461
 21
13.235217221
  0
LINE
  5
415
100
AcDbEntity
  8
RACCORDO
100
AcDbLine
 62
7
  6
CONTINUOUS
 10
-34.5483680519
 20
24.1087268678
 11
-34.6148496209
 21
24.1419651207
  0
LINE
  5
416
100
AcDbEntity
  8
0
100
AcDbLine
 62
7
  6
CONTINUOUS
 10
15.04254
 20
-5.806408
 11
15.193592
 21
-5.95746
  0
LINE
  5
417
100
AcDbEntity
  8
0
100
AcDbLine
 62
7
  6
CONTINUOUS
 10
10.999691253
 20
13.4242085561
 11
10.999691253
 21
12.0
  0
LINE
  5
418
100
AcDbEntity
  8
0
100
AcDbLine
 62
7
  6
CONTINUOUS
 10
11.2267389939
 20
12.0
 11
11.2267389939
 21
13.7028580562
  0
LINE
  5
419
100
AcDbEntity
  8
0
100
AcDbLine
 62
7
  6
CONTINUOUS
 10
13.1772854946
 20
13.7028580562
 11
13.1772854946
 21
12.0
  0
LINE
  5
41A
100
AcDbEntity
  8
0
100
AcDbLine
 62
7
  6
CONTINUOUS
 10
13.4043332354
 20
12.0
 11
13.4043332354
 21
12.7533856855
  0
LINE
  5
41B
100
AcDbEntity
  8
0
100
AcDbLine
 62
7
  6
CONTINUOUS
 10
13.4043332354
 20
12.9494723707
 11
13.4043332354
 21
13.506771371
  0
LINE
  5
41C
100
AcDbEntity
  8
0
100
AcDbLine
 62
7
  6
CONTINUOUS
 10
14.1883832022
 20
-6.66056
 11
14.1883832022
 21
-8.66056
  0
LINE
  5
41D
100
AcDbEntity
  8
RACCORDO
100
AcDbLine
 62
250
  6
CONTINUOUS
 10
-35.9
 20
-53.9001523048
 11
-35.7952696104
 21
-53.7954219153
  0
LINE
  5
41E
100
AcDbEntity
  8
RACCORDO
100
AcDbLine
 62
250
  6
CONTINUOUS
 10
-34.9001523048
 20
-54.9
 11
-34.7954219153
 21
-54.7952696104
  0
LINE
  5
41F
100
AcDbEntity
  8
DRAFT
100
AcDbLine
 62
7
  6
CONTINUOUS
 10
-34.5523651948
 20
-54.9
 11
-34.5
 21
-54.8476348052
  0
LINE
  5
420
100
AcDbEntity
  8
0
100
AcDbLine
 62
7
  6
CONTINUOUS
 10
7.7487804184
 20
12.4747361854
 11
7.5423733813
 21
12.4437751298
  0
LINE
  5
421
100
AcDbEntity
  8
0
100
AcDbLine
 62
7
  6
CONTINUOUS
 10
2.4647602682
 20
12.4747361854
 11
2.2583532311
 21
12.4437751298
  0
LINE
  5
422
100
AcDbEntity
  8
0
100
AcDbLine
 62
7
  6
CONTINUOUS
 10
7.0985982515
 20
13.2694032783
 11
7.3050052886
 21
13.290043982
  0
LINE
  5
423
100
AcDbEntity
  8
0
100
AcDbLine
 62
7
  6
CONTINUOUS
 10
4.4565881764
 20
13.2694032783
 11
4.6629952135
 21
13.290043982
  0
LINE
  5
424
100
AcDbEntity
  8
0
100
AcDbLine
 62
7
  6
CONTINUOUS
 10
16.871971459
 20
12.5676193521
 11
16.65524407
 21
12.5572990002
  0
LINE
  5
425
100
AcDbEntity
  8
0
100
AcDbLine
 62
7
  6
CONTINUOUS
 10
-24.5229598349
 20
12.5676193521
 11
-24.7396872238
 21
12.5572990002
  0
LINE
  5
426
100
AcDbEntity
  8
0
100
AcDbLine
 62
7
  6
CONTINUOUS
 10
17.7285606631
 20
13.217801519
 11
17.9556084039
 21
13.2281218708
  0
LINE
  5
427
100
AcDbEntity
  8
0
100
AcDbLine
 62
7
  6
CONTINUOUS
 10
-23.6663706308
 20
13.217801519
 11
-23.43932289
 21
13.2281218708
  0
LINE
  5
428
100
AcDbEntity
  8
0
100
AcDbLine
 62
7
  6
CONTINUOUS
 10
-32.3453027677
 20
12.0
 11
-32.1010005828
 21
12.0
  0
LINE
  5
429
100
AcDbEntity
  8
0
100
AcDbLine
 62
7
  6
CONTINUOUS
 10
-31.2311885412
 20
12.0
 11
-31.0041408003
 21
12.0
  0
LINE
  5
42A
100
AcDbEntity
  8
0
100
AcDbLine
 62
7
  6
CONTINUOUS
 10
-30.6222877817
 20
12.0
 11
-30.3952400408
 21
12.0
  0
LINE
  5
42B
100
AcDbEntity
  8
0
100
AcDbLine
 62
7
  6
CONTINUOUS
 10
-29.9042169592
 20
12.0
 11
-29.7110329171
 21
12.0
  0
LINE
  5
42C
100
AcDbEntity
  8
0
100
AcDbLine
 62
7
  6
CONTINUOUS
 10
-29.2083995774
 20
12.0
 11
-28.9813518366
 21
12.0
  0
LINE
  5
42D
100
AcDbEntity
  8
0
100
AcDbLine
 62
7
  6
CONTINUOUS
 10
-28.808163309
 20
12.0
 11
-28.5685377624
 21
12.0
  0
LINE
  5
42E
100
AcDbEntity
  8
0
100
AcDbLine
 62
7
  6
CONTINUOUS
 10
-27.4745804656
 20
12.0
 11
-27.233180924
 21
12.0
  0
LINE
  5
42F
100
AcDbEntity
  8
0
100
AcDbLine
 62
7
  6
CONTINUOUS
 10
-27.0308053358
 20
12.0
 11
-26.803757595
 21
12.0
  0
LINE
  5
430
100
AcDbEntity
  8
0
100
AcDbLine
 62
7
  6
CONTINUOUS
 10
-25.8213890732
 20
12.0
 11
-25.5546725045
 21
12.0
  0
LINE
  5
431
100
AcDbEntity
  8
0
100
AcDbLine
 62
7
  6
CONTINUOUS
 10
-23.078110575
 20
12.0
 11
-22.8510628342
 21
12.0
  0
LINE
  5
432
100
AcDbEntity
  8
0
100
AcDbLine
 62
7
  6
CONTINUOUS
 10
-21.6974408803
 20
12.0
 11
-21.4578153337
 21
12.0
  0
LINE
  5
433
100
AcDbEntity
  8
0
100
AcDbLine
 62
7
  6
CONTINUOUS
 10
-20.3638580369
 20
12.0
 11
-20.1224584953
 21
12.0
  0
LINE
  5
434
100
AcDbEntity
  8
0
100
AcDbLine
 62
7
  6
CONTINUOUS
 10
-18.7740400773
 20
12.0
 11
-18.5297378924
 21
12.0
  0
LINE
  5
435
100
AcDbEntity
  8
0
100
AcDbLine
 62
7
  6
CONTINUOUS
 10
-17.6599258507
 20
12.0
 11
-17.4328781099
 21
12.0
  0
LINE
  5
436
100
AcDbEntity
  8
0
100
AcDbLine
 62
7
  6
CONTINUOUS
 10
-17.2184081748
 20
12.0
 11
-16.9787826282
 21
12.0
  0
LINE
  5
437
100
AcDbEntity
  8
0
100
AcDbLine
 62
7
  6
CONTINUOUS
 10
-15.8848253315
 20
12.0
 11
-15.6434257899
 21
12.0
  0
LINE
  5
438
100
AcDbEntity
  8
0
100
AcDbLine
 62
7
  6
CONTINUOUS
 10
-15.4616909054
 20
12.0
 11
-14.3883743124
 21
12.0
  0
LINE
  5
439
100
AcDbEntity
  8
0
100
AcDbLine
 62
7
  6
CONTINUOUS
 10
-14.1200451641
 20
12.0
 11
-12.8609622377
 21
12.0
  0
LINE
  5
43A
100
AcDbEntity
  8
0
100
AcDbLine
 62
7
  6
CONTINUOUS
 10
-11.3949885003
 20
12.0
 11
-11.1506863154
 21
12.0
  0
LINE
  5
43B
100
AcDbEntity
  8
0
100
AcDbLine
 62
7
  6
CONTINUOUS
 10
-10.2808742738
 20
12.0
 11
-10.0538265329
 21
12.0
  0
LINE
  5
43C
100
AcDbEntity
  8
0
100
AcDbLine
 62
7
  6
CONTINUOUS
 10
-7.9278340506
 20
12.0
 11
-6.6687511242
 21
12.0
  0
LINE
  5
43D
100
AcDbEntity
  8
0
100
AcDbLine
 62
7
  6
CONTINUOUS
 10
-6.3488202167
 20
12.0
 11
-6.1217724758
 21
12.0
  0
LINE
  5
43E
100
AcDbEntity
  8
0
100
AcDbLine
 62
7
  6
CONTINUOUS
 10
-5.2692145633
 20
12.0
 11
-5.0278151791
 21
12.0
  0
LINE
  5
43F
100
AcDbEntity
  8
0
100
AcDbLine
 62
7
  6
CONTINUOUS
 10
-4.7904470864
 20
12.0
 11
-3.4384809933
 21
12.0
  0
LINE
  5
440
100
AcDbEntity
  8
0
100
AcDbLine
 62
7
  6
CONTINUOUS
 10
-3.389136688
 20
12.0
 11
-3.1495111414
 21
12.0
  0
LINE
  5
441
100
AcDbEntity
  8
0
100
AcDbLine
 62
7
  6
CONTINUOUS
 10
-2.0555538446
 20
12.0
 11
-1.814154303
 21
12.0
  0
LINE
  5
442
100
AcDbEntity
  8
0
100
AcDbLine
 62
7
  6
CONTINUOUS
 10
-0.4662196588
 20
12.0
 11
-0.2598126217
 21
12.0
  0
LINE
  5
443
100
AcDbEntity
  8
0
100
AcDbLine
 62
7
  6
CONTINUOUS
 10
0.9579888973
 20
12.0
 11
1.1643959344
 21
12.0
  0
LINE
  5
444
100
AcDbEntity
  8
0
100
AcDbLine
 62
7
  6
CONTINUOUS
 10
9.5858030488
 20
12.0
 11
9.8128507896
 21
12.0
  0
LINE
  5
445
100
AcDbEntity
  8
0
100
AcDbLine
 62
7
  6
CONTINUOUS
 10
10.3038738713
 20
12.0
 11
10.4970579133
 21
12.0
  0
LINE
  5
446
100
AcDbEntity
  8
0
100
AcDbLine
 62
7
  6
CONTINUOUS
 10
10.999691253
 20
12.0
 11
11.2267389939
 21
12.0
  0
LINE
  5
447
100
AcDbEntity
  8
0
100
AcDbLine
 62
7
  6
CONTINUOUS
 10
11.3999275215
 20
12.0
 11
11.6395530681
 21
12.0
  0
LINE
  5
448
100
AcDbEntity
  8
0
100
AcDbLine
 62
7
  6
CONTINUOUS
 10
12.7335103648
 20
12.0
 11
12.9749099065
 21
12.0
  0
LINE
  5
449
100
AcDbEntity
  8
0
100
AcDbLine
 62
7
  6
CONTINUOUS
 10
13.1772854946
 20
12.0
 11
13.4043332354
 21
12.0
  0
LINE
  5
44A
100
AcDbEntity
  8
0
100
AcDbLine
 62
7
  6
CONTINUOUS
 10
14.3867017573
 20
12.0
 11
14.6534183259
 21
12.0
  0
LINE
  5
44B
100
AcDbEntity
  8
0
100
AcDbLine
 62
7
  6
CONTINUOUS
 10
18.7399551449
 20
12.0
 11
18.9670028858
 21
12.0
  0
LINE
  5
44C
100
AcDbEntity
  8
0
100
AcDbLine
 62
7
  6
CONTINUOUS
 10
19.7823106824
 20
12.0
 11
20.0093584232
 21
12.0
  0
LINE
  5
44D
100
AcDbEntity
  8
0
100
AcDbLine
 62
7
  6
CONTINUOUS
 10
21.9370067663
 20
12.0
 11
22.1766323129
 21
12.0
  0
LINE
  5
44E
100
AcDbEntity
  8
0
100
AcDbLine
 62
7
  6
CONTINUOUS
 10
23.2705896097
 20
12.0
 11
23.5119891513
 21
12.0
  0
LINE
  5
44F
100
AcDbEntity
  8
0
100
AcDbLine
 62
7
  6
CONTINUOUS
 10
24.8604075693
 20
12.0
 11
25.1047097542
 21
12.0
  0
LINE
  5
450
100
AcDbEntity
  8
0
100
AcDbLine
 62
7
  6
CONTINUOUS
 10
25.9745217959
 20
12.0
 11
26.2015695367
 21
12.0
  0
LINE
  5
451
100
AcDbEntity
  8
0
100
AcDbLine
 62
7
  6
CONTINUOUS
 10
27.2955268334
 20
12.0
 11
27.5225745743
 21
12.0
  0
LINE
  5
452
100
AcDbEntity
  8
0
100
AcDbLine
 62
7
  6
CONTINUOUS
 10
28.3585230746
 20
12.0
 11
28.5855708154
 21
12.0
  0
LINE
  5
453
100
AcDbEntity
  8
0
100
AcDbLine
 62
7
  6
CONTINUOUS
 10
29.1818937691
 20
12.0
 11
29.4215193158
 21
12.0
  0
LINE
  5
454
100
AcDbEntity
  8
0
100
AcDbLine
 62
7
  6
CONTINUOUS
 10
30.5154766125
 20
12.0
 11
30.7568761541
 21
12.0
  0
LINE
  5
455
100
AcDbEntity
  8
0
100
AcDbLine
 62
7
  6
CONTINUOUS
 10
30.9386110386
 20
12.0
 11
32.0119276316
 21
12.0
  0
LINE
  5
456
100
AcDbEntity
  8
0
100
AcDbLine
 62
7
  6
CONTINUOUS
 10
32.745962677
 20
12.0
 11
32.9730104178
 21
12.0
  0
LINE
  5
457
100
AcDbEntity
  8
0
100
AcDbLine
 62
7
  6
CONTINUOUS
 10
32.0119276316
 20
12.1960866853
 11
31.1656587794
 21
12.1960866853
  0
LINE
  5
458
100
AcDbEntity
  8
0
100
AcDbLine
 62
7
  6
CONTINUOUS
 10
-3.4384809933
 20
12.1960866853
 11
-4.5332444224
 21
12.1960866853
  0
LINE
  5
459
100
AcDbEntity
  8
0
100
AcDbLine
 62
7
  6
CONTINUOUS
 10
-6.6687511242
 20
12.1960866853
 11
-7.7007863098
 21
12.1960866853
  0
LINE
  5
45A
100
AcDbEntity
  8
0
100
AcDbLine
 62
7
  6
CONTINUOUS
 10
-12.8609622377
 20
12.1960866853
 11
-13.8929974233
 21
12.1960866853
  0
LINE
  5
45B
100
AcDbEntity
  8
0
100
AcDbLine
 62
7
  6
CONTINUOUS
 10
-14.3883743124
 20
12.1960866853
 11
-15.2346431646
 21
12.1960866853
  0
LINE
  5
45C
100
AcDbEntity
  8
0
100
AcDbLine
 62
7
  6
CONTINUOUS
 10
0.2046032118
 20
12.4024937224
 11
0.9579888973
 21
12.4024937224
  0
LINE
  5
45D
100
AcDbEntity
  8
0
100
AcDbLine
 62
7
  6
CONTINUOUS
 10
1.1643959344
 20
12.4024937224
 11
1.3914436752
 21
12.4024937224
  0
LINE
  5
45E
100
AcDbEntity
  8
0
100
AcDbLine
 62
7
  6
CONTINUOUS
 10
-28.3890603318
 20
12.5160175928
 11
-27.6645393485
 21
12.5160175928
  0
LINE
  5
45F
100
AcDbEntity
  8
0
100
AcDbLine
 62
7
  6
CONTINUOUS
 10
-21.2783379032
 20
12.5160175928
 11
-20.5538169198
 21
12.5160175928
  0
LINE
  5
460
100
AcDbEntity
  8
0
100
AcDbLine
 62
7
  6
CONTINUOUS
 10
-16.7993051977
 20
12.5160175928
 11
-16.0747842143
 21
12.5160175928
  0
LINE
  5
461
100
AcDbEntity
  8
0
100
AcDbLine
 62
7
  6
CONTINUOUS
 10
-2.9700337109
 20
12.5160175928
 11
-2.2455127275
 21
12.5160175928
  0
LINE
  5
462
100
AcDbEntity
  8
0
100
AcDbLine
 62
7
  6
CONTINUOUS
 10
11.8190304986
 20
12.5160175928
 11
12.543551482
 21
12.5160175928
  0
LINE
  5
463
100
AcDbEntity
  8
0
100
AcDbLine
 62
7
  6
CONTINUOUS
 10
22.3561097434
 20
12.5160175928
 11
23.0806307268
 21
12.5160175928
  0
LINE
  5
464
100
AcDbEntity
  8
0
100
AcDbLine
 62
7
  6
CONTINUOUS
 10
29.6009967463
 20
12.5160175928
 11
30.3255177296
 21
12.5160175928
  0
LINE
  5
465
100
AcDbEntity
  8
0
100
AcDbLine
 62
7
  6
CONTINUOUS
 10
1.3914436752
 20
12.5985804076
 11
1.1643959344
 21
12.5985804076
  0
LINE
  5
466
100
AcDbEntity
  8
0
100
AcDbLine
 62
7
  6
CONTINUOUS
 10
0.9579888973
 20
12.5985804076
 11
0.4113327648
 21
12.5985804076
  0
LINE
  5
467
100
AcDbEntity
  8
0
100
AcDbLine
 62
7
  6
CONTINUOUS
 10
30.2569841997
 20
12.7017839262
 11
29.6656602427
 21
12.7017839262
  0
LINE
  5
468
100
AcDbEntity
  8
0
100
AcDbLine
 62
7
  6
CONTINUOUS
 10
23.0120971969
 20
12.7017839262
 11
22.4207732399
 21
12.7017839262
  0
LINE
  5
469
100
AcDbEntity
  8
0
100
AcDbLine
 62
7
  6
CONTINUOUS
 10
-22.8510628342
 20
12.7017839262
 11
-22.4272833763
 21
12.7017839262
  0
LINE
  5
46A
100
AcDbEntity
  8
0
100
AcDbLine
 62
7
  6
CONTINUOUS
 10
12.475017952
 20
12.7017839262
 11
11.883693995
 21
12.7017839262
  0
LINE
  5
46B
100
AcDbEntity
  8
0
100
AcDbLine
 62
7
  6
CONTINUOUS
 10
-2.3140462574
 20
12.7017839262
 11
-2.9053702144
 21
12.7017839262
  0
LINE
  5
46C
100
AcDbEntity
  8
0
100
AcDbLine
 62
7
  6
CONTINUOUS
 10
-16.1433177443
 20
12.7017839262
 11
-16.7346417013
 21
12.7017839262
  0
LINE
  5
46D
100
AcDbEntity
  8
0
100
AcDbLine
 62
7
  6
CONTINUOUS
 10
-20.6223504497
 20
12.7017839262
 11
-21.2136744067
 21
12.7017839262
  0
LINE
  5
46E
100
AcDbEntity
  8
0
100
AcDbLine
 62
7
  6
CONTINUOUS
 10
-27.7330728784
 20
12.7017839262
 11
-28.3243968354
 21
12.7017839262
  0
LINE
  5
46F
100
AcDbEntity
  8
0
100
AcDbLine
 62
7
  6
CONTINUOUS
 10
-26.803757595
 20
12.7533856855
 11
-26.5449425088
 21
12.7533856855
  0
LINE
  5
470
100
AcDbEntity
  8
0
100
AcDbLine
 62
7
  6
CONTINUOUS
 10
13.4043332354
 20
12.7533856855
 11
13.6631483216
 21
12.7533856855
  0
LINE
  5
471
100
AcDbEntity
  8
0
100
AcDbLine
 62
7
  6
CONTINUOUS
 10
-13.8929974233
 20
12.784346741
 11
-12.9641657563
 21
12.784346741
  0
LINE
  5
472
100
AcDbEntity
  8
0
100
AcDbLine
 62
7
  6
CONTINUOUS
 10
-7.7007863098
 20
12.784346741
 11
-6.7719546428
 21
12.784346741
  0
LINE
  5
473
100
AcDbEntity
  8
0
100
AcDbLine
 62
7
  6
CONTINUOUS
 10
-22.4248645069
 20
12.8978706115
 11
-22.8510628342
 21
12.8978706115
  0
LINE
  5
474
100
AcDbEntity
  8
0
100
AcDbLine
 62
7
  6
CONTINUOUS
 10
13.8839071596
 20
12.9494723707
 11
13.4043332354
 21
12.9494723707
  0
LINE
  5
475
100
AcDbEntity
  8
0
100
AcDbLine
 62
7
  6
CONTINUOUS
 10
-26.3241836709
 20
12.9494723707
 11
-26.803757595
 21
12.9494723707
  0
LINE
  5
476
100
AcDbEntity
  8
0
100
AcDbLine
 62
7
  6
CONTINUOUS
 10
-6.7719546428
 20
12.9804334263
 11
-7.7007863098
 21
12.9804334263
  0
LINE
  5
477
100
AcDbEntity
  8
0
100
AcDbLine
 62
7
  6
CONTINUOUS
 10
-12.9641657563
 20
12.9804334263
 11
-13.8929974233
 21
12.9804334263
  0
LINE
  5
478
100
AcDbEntity
  8
0
100
AcDbLine
 62
7
  6
CONTINUOUS
 10
-26.803757595
 20
13.506771371
 11
-26.2700017843
 21
13.506771371
  0
LINE
  5
479
100
AcDbEntity
  8
0
100
AcDbLine
 62
7
  6
CONTINUOUS
 10
-22.8510628342
 20
13.506771371
 11
-22.4293795723
 21
13.506771371
  0
LINE
  5
47A
100
AcDbEntity
  8
0
100
AcDbLine
 62
7
  6
CONTINUOUS
 10
-13.8929974233
 20
13.506771371
 11
-12.9022436452
 21
13.506771371
  0
LINE
  5
47B
100
AcDbEntity
  8
0
100
AcDbLine
 62
7
  6
CONTINUOUS
 10
-7.7007863098
 20
13.506771371
 11
-6.7100325316
 21
13.506771371
  0
LINE
  5
47C
100
AcDbEntity
  8
0
100
AcDbLine
 62
7
  6
CONTINUOUS
 10
-4.6872435679
 20
13.506771371
 11
-3.7435763262
 21
13.506771371
  0
LINE
  5
47D
100
AcDbEntity
  8
0
100
AcDbLine
 62
7
  6
CONTINUOUS
 10
13.4043332354
 20
13.506771371
 11
13.9380890462
 21
13.506771371
  0
LINE
  5
47E
100
AcDbEntity
  8
0
100
AcDbLine
 62
7
  6
CONTINUOUS
 10
18.1826561447
 20
13.506771371
 11
18.7399551449
 21
13.506771371
  0
LINE
  5
47F
100
AcDbEntity
  8
0
100
AcDbLine
 62
7
  6
CONTINUOUS
 10
18.9670028858
 20
13.506771371
 11
19.524301886
 21
13.506771371
  0
LINE
  5
480
100
AcDbEntity
  8
0
100
AcDbLine
 62
7
  6
CONTINUOUS
 10
27.8012240744
 20
13.506771371
 11
28.3585230746
 21
13.506771371
  0
LINE
  5
481
100
AcDbEntity
  8
0
100
AcDbLine
 62
7
  6
CONTINUOUS
 10
28.5855708154
 20
13.506771371
 11
29.1428698156
 21
13.506771371
  0
LINE
  5
482
100
AcDbEntity
  8
0
100
AcDbLine
 62
7
  6
CONTINUOUS
 10
33.6541536403
 20
13.7028580562
 11
33.380180621
 21
13.7028580562
  0
LINE
  5
483
100
AcDbEntity
  8
0
100
AcDbLine
 62
7
  6
CONTINUOUS
 10
32.3658834959
 20
13.7028580562
 11
32.0957805101
 21
13.7028580562
  0
LINE
  5
484
100
AcDbEntity
  8
0
100
AcDbLine
 62
7
  6
CONTINUOUS
 10
31.1656587794
 20
13.7028580562
 11
30.9386110386
 21
13.7028580562
  0
LINE
  5
485
100
AcDbEntity
  8
0
100
AcDbLine
 62
7
  6
CONTINUOUS
 10
30.0747653839
 20
13.7028580562
 11
29.8291732928
 21
13.7028580562
  0
LINE
  5
486
100
AcDbEntity
  8
0
100
AcDbLine
 62
7
  6
CONTINUOUS
 10
29.1428698156
 20
13.7028580562
 11
27.8012240744
 21
13.7028580562
  0
LINE
  5
487
100
AcDbEntity
  8
0
100
AcDbLine
 62
7
  6
CONTINUOUS
 10
27.5225745743
 20
13.7028580562
 11
27.2955268334
 21
13.7028580562
  0
LINE
  5
488
100
AcDbEntity
  8
0
100
AcDbLine
 62
7
  6
CONTINUOUS
 10
26.2015695367
 20
13.7028580562
 11
25.9745217959
 21
13.7028580562
  0
LINE
  5
489
100
AcDbEntity
  8
0
100
AcDbLine
 62
7
  6
CONTINUOUS
 10
25.7839178812
 20
13.7028580562
 11
25.5410670179
 21
13.7028580562
  0
LINE
  5
48A
100
AcDbEntity
  8
0
100
AcDbLine
 62
7
  6
CONTINUOUS
 10
24.4471097212
 20
13.7028580562
 11
24.2057103371
 21
13.7028580562
  0
LINE
  5
48B
100
AcDbEntity
  8
0
100
AcDbLine
 62
7
  6
CONTINUOUS
 10
22.8298783811
 20
13.7028580562
 11
22.58428629
 21
13.7028580562
  0
LINE
  5
48C
100
AcDbEntity
  8
0
100
AcDbLine
 62
7
  6
CONTINUOUS
 10
20.0093584232
 20
13.7028580562
 11
19.7823106824
 21
13.7028580562
  0
LINE
  5
48D
100
AcDbEntity
  8
0
100
AcDbLine
 62
7
  6
CONTINUOUS
 10
19.524301886
 20
13.7028580562
 11
18.1826561447
 21
13.7028580562
  0
LINE
  5
48E
100
AcDbEntity
  8
0
100
AcDbLine
 62
7
  6
CONTINUOUS
 10
13.9288975
 20
13.7028580562
 11
13.1772854946
 21
13.7028580562
  0
LINE
  5
48F
100
AcDbEntity
  8
0
100
AcDbLine
 62
7
  6
CONTINUOUS
 10
12.2927991362
 20
13.7028580562
 11
12.0472070451
 21
13.7028580562
  0
LINE
  5
490
100
AcDbEntity
  8
0
100
AcDbLine
 62
7
  6
CONTINUOUS
 10
11.2267389939
 20
13.7028580562
 11
10.931318981
 21
13.7028580562
  0
LINE
  5
491
100
AcDbEntity
  8
0
100
AcDbLine
 62
7
  6
CONTINUOUS
 10
9.9318574306
 20
13.7028580562
 11
9.5858030488
 21
13.7028580562
  0
LINE
  5
492
100
AcDbEntity
  8
0
100
AcDbLine
 62
7
  6
CONTINUOUS
 10
1.1643959344
 20
13.7028580562
 11
0.9992703047
 21
13.7028580562
  0
LINE
  5
493
100
AcDbEntity
  8
0
100
AcDbLine
 62
7
  6
CONTINUOUS
 10
-2.4962650732
 20
13.7028580562
 11
-2.7418571643
 21
13.7028580562
  0
LINE
  5
494
100
AcDbEntity
  8
0
100
AcDbLine
 62
7
  6
CONTINUOUS
 10
-3.4797624007
 20
13.7028580562
 11
-4.6872435679
 21
13.7028580562
  0
LINE
  5
495
100
AcDbEntity
  8
0
100
AcDbLine
 62
7
  6
CONTINUOUS
 10
-5.0278151791
 20
13.7028580562
 11
-5.25486292
 21
13.7028580562
  0
LINE
  5
496
100
AcDbEntity
  8
0
100
AcDbLine
 62
7
  6
CONTINUOUS
 10
-6.107420675
 20
13.7028580562
 11
-6.3488202167
 21
13.7028580562
  0
LINE
  5
497
100
AcDbEntity
  8
0
100
AcDbLine
 62
7
  6
CONTINUOUS
 10
-6.7100325316
 20
13.7028580562
 11
-7.9278340506
 21
13.7028580562
  0
LINE
  5
498
100
AcDbEntity
  8
0
100
AcDbLine
 62
7
  6
CONTINUOUS
 10
-10.0538265329
 20
13.7028580562
 11
-10.2808742738
 21
13.7028580562
  0
LINE
  5
499
100
AcDbEntity
  8
0
100
AcDbLine
 62
7
  6
CONTINUOUS
 10
-10.4714781884
 20
13.7028580562
 11
-10.7143290517
 21
13.7028580562
  0
LINE
  5
49A
100
AcDbEntity
  8
0
100
AcDbLine
 62
7
  6
CONTINUOUS
 10
-11.8082863484
 20
13.7028580562
 11
-12.0496857326
 21
13.7028580562
  0
LINE
  5
49B
100
AcDbEntity
  8
0
100
AcDbLine
 62
7
  6
CONTINUOUS
 10
-12.9022436452
 20
13.7028580562
 11
-14.1200451641
 21
13.7028580562
  0
LINE
  5
49C
100
AcDbEntity
  8
0
100
AcDbLine
 62
7
  6
CONTINUOUS
 10
-15.2346431646
 20
13.7028580562
 11
-15.4616909054
 21
13.7028580562
  0
LINE
  5
49D
100
AcDbEntity
  8
0
100
AcDbLine
 62
7
  6
CONTINUOUS
 10
-16.3255365601
 20
13.7028580562
 11
-16.5711286512
 21
13.7028580562
  0
LINE
  5
49E
100
AcDbEntity
  8
0
100
AcDbLine
 62
7
  6
CONTINUOUS
 10
-17.4328781099
 20
13.7028580562
 11
-17.6599258507
 21
13.7028580562
  0
LINE
  5
49F
100
AcDbEntity
  8
0
100
AcDbLine
 62
7
  6
CONTINUOUS
 10
-17.8505297654
 20
13.7028580562
 11
-18.0933806287
 21
13.7028580562
  0
LINE
  5
4A0
100
AcDbEntity
  8
0
100
AcDbLine
 62
7
  6
CONTINUOUS
 10
-19.1873379254
 20
13.7028580562
 11
-19.4287373095
 21
13.7028580562
  0
LINE
  5
4A1
100
AcDbEntity
  8
0
100
AcDbLine
 62
7
  6
CONTINUOUS
 10
-20.8045692655
 20
13.7028580562
 11
-21.0501613566
 21
13.7028580562
  0
LINE
  5
4A2
100
AcDbEntity
  8
0
100
AcDbLine
 62
7
  6
CONTINUOUS
 10
-22.4508265658
 20
13.7028580562
 11
-23.078110575
 21
13.7028580562
  0
LINE
  5
4A3
100
AcDbEntity
  8
0
100
AcDbLine
 62
7
  6
CONTINUOUS
 10
-26.2791933304
 20
13.7028580562
 11
-27.0308053358
 21
13.7028580562
  0
LINE
  5
4A4
100
AcDbEntity
  8
0
100
AcDbLine
 62
7
  6
CONTINUOUS
 10
-27.9152916942
 20
13.7028580562
 11
-28.1608837853
 21
13.7028580562
  0
LINE
  5
4A5
100
AcDbEntity
  8
0
100
AcDbLine
 62
7
  6
CONTINUOUS
 10
-28.9813518366
 20
13.7028580562
 11
-29.2767718494
 21
13.7028580562
  0
LINE
  5
4A6
100
AcDbEntity
  8
0
100
AcDbLine
 62
7
  6
CONTINUOUS
 10
-30.2762333998
 20
13.7028580562
 11
-30.6222877817
 21
13.7028580562
  0
LINE
  5
4A7
100
AcDbEntity
  8
0
100
AcDbLine
 62
7
  6
CONTINUOUS
 10
-31.0041408003
 20
13.7028580562
 11
-31.2311885412
 21
13.7028580562
  0
LINE
  5
4A8
100
AcDbEntity
  8
0
100
AcDbLine
 62
7
  6
CONTINUOUS
 10
-31.4217924558
 20
13.7028580562
 11
-31.6646433191
 21
13.7028580562
  0
LINE
  5
4A9
100
AcDbEntity
  8
0
100
AcDbLine
 62
7
  6
CONTINUOUS
 10
-32.7586006158
 20
13.7028580562
 11
-33.0
 21
13.7028580562
  0
LINE
  5
4AA
100
AcDbEntity
  8
0
100
AcDbLine
 62
7
  6
CONTINUOUS
 10
-0.2598126217
 20
13.7131784081
 11
-0.3928483901
 21
13.7131784081
  0
LINE
  5
4AB
100
AcDbEntity
  8
0
100
AcDbLine
 62
7
  6
CONTINUOUS
 10
2.2789939348
 20
13.2694032783
 11
2.4854009719
 21
13.2384422227
  0
LINE
  5
4AC
100
AcDbEntity
  8
0
100
AcDbLine
 62
7
  6
CONTINUOUS
 10
7.563014085
 20
13.2694032783
 11
7.7694211221
 21
13.2384422227
  0
LINE
  5
4AD
100
AcDbEntity
  8
0
100
AcDbLine
 62
7
  6
CONTINUOUS
 10
-8.2168039026
 20
12.5406897455
 11
-8.4438516434
 21
12.5976130174
  0
LINE
  5
4AE
100
AcDbEntity
  8
RACCORDO
100
AcDbLine
 62
250
  6
CONTINUOUS
 10
-35.7952696104
 20
53.7954219153
 11
-35.9
 21
53.9001523048
  0
LINE
  5
4AF
100
AcDbEntity
  8
0
100
AcDbLine
 62
7
  6
CONTINUOUS
 10
17.86418
 20
0.984768
 11
19.84895
 21
-1.0
  0
LINE
  5
4B0
100
AcDbEntity
  8
0
100
AcDbLine
 62
7
  6
CONTINUOUS
 10
15.04254
 20
3.806408
 11
17.746684
 21
1.102266
  0
LINE
  5
4B1
100
AcDbEntity
  8
0
100
AcDbLine
 62
7
  6
CONTINUOUS
 10
21.84988
 20
-3.00093
 11
24.806408
 21
-5.95746
  0
LINE
  5
4B2
100
AcDbEntity
  8
0
100
AcDbLine
 62
7
  6
CONTINUOUS
 10
20.0
 20
-1.15105
 11
21.751288
 21
-2.90234
  0
LINE
  5
4B3
100
AcDbEntity
  8
0
100
AcDbLine
 62
7
  6
CONTINUOUS
 10
24.95746
 20
-5.806408
 11
21.874184
 21
-2.723134
  0
LINE
  5
4B4
100
AcDbEntity
  8
0
100
AcDbLine
 62
7
  6
CONTINUOUS
 10
21.775592
 20
-2.624542
 11
20.15105
 21
-1.0
  0
LINE
  5
4B5
100
AcDbEntity
  8
0
100
AcDbLine
 62
7
  6
CONTINUOUS
 10
20.0
 20
-0.84895
 11
17.835216
 21
1.315834
  0
LINE
  5
4B6
100
AcDbEntity
  8
0
100
AcDbLine
 62
7
  6
CONTINUOUS
 10
17.71772
 20
1.433332
 11
15.193592
 21
3.95746
  0
LINE
  5
4B7
100
AcDbEntity
  8
RACCORDO
100
AcDbLine
 62
250
  6
CONTINUOUS
 10
-34.7954219153
 20
54.7952696104
 11
-34.9001523048
 21
54.9
  0
LINE
  5
4B8
100
AcDbEntity
  8
DRAFT
100
AcDbLine
 62
7
  6
CONTINUOUS
 10
-3.65
 20
33.2756675485
 11
-3.3110927272
 21
32.688662933
  0
LINE
  5
4B9
100
AcDbEntity
  8
DRAFT
100
AcDbLine
 62
7
  6
CONTINUOUS
 10
-3.65
 20
33.397853003
 11
-3.25
 21
32.70503268
  0
LINE
  5
4BA
100
AcDbEntity
  8
0
100
AcDbLine
 62
7
  6
CONTINUOUS
 10
9.8128507896
 20
13.4448492598
 11
10.3038738713
 21
12.0
  0
LINE
  5
4BB
100
AcDbEntity
  8
0
100
AcDbLine
 62
7
  6
CONTINUOUS
 10
10.3351574428
 20
12.499730854
 11
9.9318574306
 21
13.7028580562
  0
LINE
  5
4BC
100
AcDbEntity
  8
0
100
AcDbLine
 62
7
  6
CONTINUOUS
 10
17.746684
 20
1.102266
 11
18.08494
 21
-2.76401
  0
LINE
  5
4BD
100
AcDbEntity
  8
0
100
AcDbLine
 62
7
  6
CONTINUOUS
 10
17.5503521284
 20
3.3463445329
 11
17.582728
 21
2.976288
  0
LINE
  5
4BE
100
AcDbEntity
  8
0
100
AcDbLine
 62
7
  6
CONTINUOUS
 10
17.620106
 20
2.549052
 11
17.71772
 21
1.433332
  0
LINE
  5
4BF
100
AcDbEntity
  8
0
100
AcDbLine
 62
7
  6
CONTINUOUS
 10
18.109244
 20
-3.041808
 11
18.250866
 21
-4.66056
  0
LINE
  5
4C0
100
AcDbEntity
  8
0
100
AcDbLine
 62
7
  6
CONTINUOUS
 10
18.348738
 20
-4.553752
 11
18.207834
 21
-2.943216
  0
LINE
  5
4C1
100
AcDbEntity
  8
0
100
AcDbLine
 62
7
  6
CONTINUOUS
 10
18.18353
 20
-2.665418
 11
17.86418
 21
0.984768
  0
LINE
  5
4C2
100
AcDbEntity
  8
0
100
AcDbLine
 62
7
  6
CONTINUOUS
 10
17.835216
 20
1.315834
 11
17.727324
 21
2.549052
  0
LINE
  5
4C3
100
AcDbEntity
  8
0
100
AcDbLine
 62
7
  6
CONTINUOUS
 10
17.689946
 20
2.976288
 11
17.663618004
 21
3.2772179547
  0
LINE
  5
4C4
100
AcDbEntity
  8
0
100
AcDbLine
 62
7
  6
CONTINUOUS
 10
16.742324
 20
2.976288
 11
16.742324
 21
2.549052
  0
LINE
  5
4C5
100
AcDbEntity
  8
0
100
AcDbLine
 62
7
  6
CONTINUOUS
 10
17.863818
 20
3.884166
 11
17.863818
 21
3.466024
  0
LINE
  5
4C6
100
AcDbEntity
  8
0
100
AcDbLine
 62
7
  6
CONTINUOUS
 10
17.863818
 20
3.352804
 11
17.863818
 21
2.976288
  0
LINE
  5
4C7
100
AcDbEntity
  8
0
100
AcDbLine
 62
7
  6
CONTINUOUS
 10
17.970628
 20
3.083098
 11
17.970628
 21
3.3895425405
  0
LINE
  5
4C8
100
AcDbEntity
  8
0
100
AcDbLine
 62
7
  6
CONTINUOUS
 10
17.970628
 20
3.5019841279
 11
17.970628
 21
3.777356
  0
LINE
  5
4C9
100
AcDbEntity
  8
0
100
AcDbLine
 62
7
  6
CONTINUOUS
 10
18.1826561447
 20
13.7028580562
 11
18.1826561447
 21
13.506771371
  0
LINE
  5
4CA
100
AcDbEntity
  8
0
100
AcDbLine
 62
7
  6
CONTINUOUS
 10
18.250866
 20
-4.66056
 11
18.250866
 21
-5.515034
  0
LINE
  5
4CB
100
AcDbEntity
  8
0
100
AcDbLine
 62
7
  6
CONTINUOUS
 10
18.291054
 20
3.777356
 11
18.291054
 21
3.595832
  0
LINE
  5
4CC
100
AcDbEntity
  8
0
100
AcDbLine
 62
7
  6
CONTINUOUS
 10
18.291054
 20
3.485376
 11
18.291054
 21
3.083098
  0
LINE
  5
4CD
100
AcDbEntity
  8
0
100
AcDbLine
 62
7
  6
CONTINUOUS
 10
18.397864
 20
2.976288
 11
18.397864
 21
3.5126708292
  0
LINE
  5
4CE
100
AcDbEntity
  8
0
100
AcDbLine
 62
7
  6
CONTINUOUS
 10
18.397864
 20
3.62257169
 11
18.397864
 21
3.884166
  0
LINE
  5
4CF
100
AcDbEntity
  8
0
100
AcDbLine
 62
7
  6
CONTINUOUS
 10
18.41108
 20
-5.35482
 11
18.41108
 21
-4.713966
  0
LINE
  5
4D0
100
AcDbEntity
  8
0
100
AcDbLine
 62
7
  6
CONTINUOUS
 10
18.731506
 20
-4.713966
 11
18.731506
 21
-5.35482
  0
LINE
  5
4D1
100
AcDbEntity
  8
0
100
AcDbLine
 62
7
  6
CONTINUOUS
 10
18.7399551449
 20
13.506771371
 11
18.7399551449
 21
12.0
  0
LINE
  5
4D2
100
AcDbEntity
  8
0
100
AcDbLine
 62
7
  6
CONTINUOUS
 10
18.89172
 20
-5.515034
 11
18.89172
 21
-4.66056
  0
LINE
  5
4D3
100
AcDbEntity
  8
0
100
AcDbLine
 62
7
  6
CONTINUOUS
 10
18.9670028858
 20
12.0
 11
18.9670028858
 21
13.506771371
  0
LINE
  5
4D4
100
AcDbEntity
  8
0
100
AcDbLine
 62
7
  6
CONTINUOUS
 10
22.1766323129
 20
12.0
 11
22.3561097434
 21
12.5160175928
  0
LINE
  5
4D5
100
AcDbEntity
  8
0
100
AcDbLine
 62
7
  6
CONTINUOUS
 10
22.4207732399
 20
12.7017839262
 11
22.6047657357
 21
13.1989346528
  0
LINE
  5
4D6
100
AcDbEntity
  8
0
100
AcDbLine
 62
7
  6
CONTINUOUS
 10
22.58428629
 20
13.7028580562
 11
21.9370067663
 21
12.0
  0
LINE
  5
4D7
100
AcDbEntity
  8
0
100
AcDbLine
 62
7
  6
CONTINUOUS
 10
25.5410670179
 20
13.7028580562
 11
25.0721361191
 21
12.4689310563
  0
LINE
  5
4D8
100
AcDbEntity
  8
0
100
AcDbLine
 62
7
  6
CONTINUOUS
 10
25.1047097542
 20
12.0
 11
25.7839178812
 21
13.7028580562
  0
LINE
  5
4D9
100
AcDbEntity
  8
0
100
AcDbLine
 62
7
  6
CONTINUOUS
 10
19.84895
 20
-1.0
 11
18.18353
 21
-2.665418
  0
LINE
  5
4DA
100
AcDbEntity
  8
0
100
AcDbLine
 62
7
  6
CONTINUOUS
 10
18.08494
 20
-2.76401
 11
15.04254
 21
-5.806408
  0
LINE
  5
4DB
100
AcDbEntity
  8
0
100
AcDbLine
 62
7
  6
CONTINUOUS
 10
22.863956
 20
2.015006
 11
22.233566
 21
1.384616
  0
LINE
  5
4DC
100
AcDbEntity
  8
0
100
AcDbLine
 62
7
  6
CONTINUOUS
 10
21.869158
 20
1.02021
 11
20.0
 21
-0.84895
  0
LINE
  5
4DD
100
AcDbEntity
  8
0
100
AcDbLine
 62
7
  6
CONTINUOUS
 10
24.806408
 20
3.95746
 11
22.970766
 21
2.121816
  0
LINE
  5
4DE
100
AcDbEntity
  8
0
100
AcDbLine
 62
7
  6
CONTINUOUS
 10
22.116068
 20
1.26712
 11
21.975968
 21
1.127018
  0
LINE
  5
4DF
100
AcDbEntity
  8
0
100
AcDbLine
 62
7
  6
CONTINUOUS
 10
18.207834
 20
-2.943216
 11
20.0
 21
-1.15105
  0
LINE
  5
4E0
100
AcDbEntity
  8
0
100
AcDbLine
 62
7
  6
CONTINUOUS
 10
20.15105
 20
-1.0
 11
22.087104
 21
0.936054
  0
LINE
  5
4E1
100
AcDbEntity
  8
0
100
AcDbLine
 62
7
  6
CONTINUOUS
 10
22.204776
 20
1.053726
 11
23.044058
 21
1.893008
  0
LINE
  5
4E2
100
AcDbEntity
  8
0
100
AcDbLine
 62
7
  6
CONTINUOUS
 10
15.193592
 20
-5.95746
 11
18.109244
 21
-3.041808
  0
LINE
  5
4E3
100
AcDbEntity
  8
0
100
AcDbLine
 62
7
  6
CONTINUOUS
 10
23.150868
 20
1.999816
 11
24.95746
 21
3.806408
  0
LINE
  5
4E4
100
AcDbEntity
  8
0
100
AcDbLine
 62
7
  6
CONTINUOUS
 10
-29.9580242196
 20
-55.1634645123
 11
-29.9108229318
 21
-55.1162632245
  0
LINE
  5
4E5
100
AcDbEntity
  8
RACCORDO
100
AcDbLine
 62
7
  6
CONTINUOUS
 10
-35.9
 20
-35.9
 11
-35.8160633661
 21
-35.8580348793
  0
LINE
  5
4E6
100
AcDbEntity
  8
0
100
AcDbLine
 62
7
  6
CONTINUOUS
 10
-35.1389072728
 20
-35.9
 11
-35.1214522078
 21
-35.8912731322
  0
LINE
  5
4E7
100
AcDbEntity
  8
0
100
AcDbLine
 62
7
  6
CONTINUOUS
 10
-8.4851330508
 20
13.1829704299
 11
-8.25808531
 21
13.235217221
  0
LINE
  5
4E8
100
AcDbEntity
  8
DRAFT
100
AcDbLine
 62
7
  6
CONTINUOUS
 10
-35.9
 20
17.75
 11
-4.5
 21
17.75
  0
LINE
  5
4E9
100
AcDbEntity
  8
DRAFT
100
AcDbLine
 62
7
  6
CONTINUOUS
 10
4.5
 20
17.75
 11
35.9
 21
17.75
  0
LINE
  5
4EA
100
AcDbEntity
  8
SMUSSO
100
AcDbLine
 62
7
  6
CONTINUOUS
 10
-35.8692566451
 20
17.842305068
 11
-4.5
 21
17.842305068
  0
LINE
  5
4EB
100
AcDbEntity
  8
SMUSSO
100
AcDbLine
 62
7
  6
CONTINUOUS
 10
4.5
 20
17.842305068
 11
35.8692566451
 21
17.842305068
  0
LINE
  5
4EC
100
AcDbEntity
  8
SMUSSO
100
AcDbLine
 62
7
  6
CONTINUOUS
 10
-35.8563623377
 20
18.5810194482
 11
-4.5
 21
18.5810194482
  0
LINE
  5
4ED
100
AcDbEntity
  8
SMUSSO
100
AcDbLine
 62
7
  6
CONTINUOUS
 10
4.5
 20
18.5810194482
 11
35.8563623377
 21
18.5810194482
  0
LINE
  5
4EE
100
AcDbEntity
  8
DRAFT
100
AcDbLine
 62
7
  6
CONTINUOUS
 10
4.3598533507
 20
18.9
 11
-4.3598533507
 21
18.9
  0
LINE
  5
4EF
100
AcDbEntity
  8
0
100
AcDbLine
 62
7
  6
CONTINUOUS
 10
21.8463810535
 20
12.5406897455
 11
21.6193333127
 21
12.5976130174
  0
LINE
  5
4F0
100
AcDbEntity
  8
RACCORDO
100
AcDbLine
 62
7
  6
CONTINUOUS
 10
-35.9
 20
35.9
 11
-35.8160633661
 21
35.8580348793
  0
LINE
  5
4F1
100
AcDbEntity
  8
0
100
AcDbLine
 62
7
  6
CONTINUOUS
 10
-35.1389072728
 20
35.9
 11
-35.1214522078
 21
35.8912731322
  0
LINE
  5
4F2
100
AcDbEntity
  8
0
100
AcDbLine
 62
7
  6
CONTINUOUS
 10
-29.9580242196
 20
55.1634645123
 11
-29.9108229318
 21
55.1162632245
  0
LINE
  5
4F3
100
AcDbEntity
  8
0
100
AcDbLine
 62
7
  6
CONTINUOUS
 10
14.1635242074
 20
12.3539558643
 11
14.3867017573
 21
12.0
  0
LINE
  5
4F4
100
AcDbEntity
  8
0
100
AcDbLine
 62
7
  6
CONTINUOUS
 10
12.9749099065
 20
12.0
 11
12.2927991362
 21
13.7028580562
  0
LINE
  5
4F5
100
AcDbEntity
  8
0
100
AcDbLine
 62
7
  6
CONTINUOUS
 10
12.543551482
 20
12.5160175928
 11
12.7335103648
 21
12.0
  0
LINE
  5
4F6
100
AcDbEntity
  8
0
100
AcDbLine
 62
7
  6
CONTINUOUS
 10
19.30574
 20
0.946916
 11
19.30574
 21
0.41287
  0
LINE
  5
4F7
100
AcDbEntity
  8
0
100
AcDbLine
 62
7
  6
CONTINUOUS
 10
19.41255
 20
0.51968
 11
19.41255
 21
0.840108
  0
LINE
  5
4F8
100
AcDbEntity
  8
0
100
AcDbLine
 62
7
  6
CONTINUOUS
 10
19.51936
 20
3.667372
 11
19.51936
 21
3.403526
  0
LINE
  5
4F9
100
AcDbEntity
  8
0
100
AcDbLine
 62
7
  6
CONTINUOUS
 10
19.51936
 20
4.04438
 11
19.51936
 21
3.77424
  0
LINE
  5
4FA
100
AcDbEntity
  8
0
100
AcDbLine
 62
7
  6
CONTINUOUS
 10
19.524301886
 20
13.506771371
 11
19.524301886
 21
13.7028580562
  0
LINE
  5
4FB
100
AcDbEntity
  8
0
100
AcDbLine
 62
7
  6
CONTINUOUS
 10
19.626168
 20
3.776783715
 11
19.626168
 21
3.93757
  0
LINE
  5
4FC
100
AcDbEntity
  8
0
100
AcDbLine
 62
7
  6
CONTINUOUS
 10
19.626168
 20
3.510334
 11
19.626168
 21
3.6699630887
  0
LINE
  5
4FD
100
AcDbEntity
  8
0
100
AcDbLine
 62
7
  6
CONTINUOUS
 10
19.7823106824
 20
13.7028580562
 11
19.7823106824
 21
12.0
  0
LINE
  5
4FE
100
AcDbEntity
  8
0
100
AcDbLine
 62
7
  6
CONTINUOUS
 10
20.0093584232
 20
12.0
 11
20.0093584232
 21
13.7028580562
  0
LINE
  5
4FF
100
AcDbEntity
  8
0
100
AcDbLine
 62
7
  6
CONTINUOUS
 10
20.854472
 20
3.93757
 11
20.854472
 21
3.658544
  0
LINE
  5
500
100
AcDbEntity
  8
0
100
AcDbLine
 62
7
  6
CONTINUOUS
 10
20.854472
 20
3.549376
 11
20.854472
 21
3.510334
  0
LINE
  5
501
100
AcDbEntity
  8
0
100
AcDbLine
 62
7
  6
CONTINUOUS
 10
20.961282
 20
3.403526
 11
20.961282
 21
3.5254658518
  0
LINE
  5
502
100
AcDbEntity
  8
0
100
AcDbLine
 62
7
  6
CONTINUOUS
 10
20.961282
 20
3.6351113714
 11
20.961282
 21
4.04438
  0
LINE
  5
503
100
AcDbEntity
  8
0
100
AcDbLine
 62
7
  6
CONTINUOUS
 10
21.06809
 20
0.840108
 11
21.06809
 21
0.51968
  0
LINE
  5
504
100
AcDbEntity
  8
0
100
AcDbLine
 62
7
  6
CONTINUOUS
 10
21.1749
 20
0.41287
 11
21.1749
 21
0.946916
  0
LINE
  5
505
100
AcDbEntity
  8
0
100
AcDbLine
 62
7
  6
CONTINUOUS
 10
21.869158
 20
2.121816
 11
21.869158
 21
1.02021
  0
LINE
  5
506
100
AcDbEntity
  8
0
100
AcDbLine
 62
7
  6
CONTINUOUS
 10
21.975968
 20
1.127018
 11
21.975968
 21
2.015006
  0
LINE
  5
507
100
AcDbEntity
  8
DRAFT
100
AcDbLine
 62
7
  6
CONTINUOUS
 10
22.5
 20
-15.95
 11
22.5
 21
-18.0176397269
  0
LINE
  5
508
100
AcDbEntity
  8
0
100
AcDbLine
 62
7
  6
CONTINUOUS
 10
22.670226
 20
2.549052
 11
22.670226
 21
2.683454
  0
LINE
  5
509
100
AcDbEntity
  8
0
100
AcDbLine
 62
7
  6
CONTINUOUS
 10
23.044058
 20
1.893008
 11
23.044058
 21
1.053726
  0
LINE
  5
50A
100
AcDbEntity
  8
0
100
AcDbLine
 62
7
  6
CONTINUOUS
 10
23.150868
 20
0.946916
 11
23.150868
 21
1.999816
  0
LINE
  5
50B
100
AcDbEntity
  8
ASSI
100
AcDbLine
 62
7
  6
CONTINUOUS
 10
23.5
 20
46.6
 11
23.5
 21
53.5
  0
LINE
  5
50C
100
AcDbEntity
  8
0
100
AcDbLine
 62
7
  6
CONTINUOUS
 10
22.228224
 20
2.549052
 11
22.190844
 21
2.121816
  0
LINE
  5
50D
100
AcDbEntity
  8
0
100
AcDbLine
 62
7
  6
CONTINUOUS
 10
22.1815
 20
2.015006
 11
22.116068
 21
1.26712
  0
LINE
  5
50E
100
AcDbEntity
  8
0
100
AcDbLine
 62
7
  6
CONTINUOUS
 10
22.087104
 20
0.936054
 11
21.775592
 21
-2.624542
  0
LINE
  5
50F
100
AcDbEntity
  8
0
100
AcDbLine
 62
7
  6
CONTINUOUS
 10
21.751288
 20
-2.90234
 11
21.68359
 21
-3.676132
  0
LINE
  5
510
100
AcDbEntity
  8
0
100
AcDbLine
 62
7
  6
CONTINUOUS
 10
21.7894599402
 20
-3.6915426831
 11
21.84988
 21
-3.00093
  0
LINE
  5
511
100
AcDbEntity
  8
0
100
AcDbLine
 62
7
  6
CONTINUOUS
 10
21.874184
 20
-2.723134
 11
22.195272
 21
0.946916
  0
LINE
  5
512
100
AcDbEntity
  8
0
100
AcDbLine
 62
7
  6
CONTINUOUS
 10
22.233566
 20
1.384616
 11
22.288718
 21
2.015006
  0
LINE
  5
513
100
AcDbEntity
  8
0
100
AcDbLine
 62
7
  6
CONTINUOUS
 10
22.298062
 20
2.121816
 11
22.33544
 21
2.549052
  0
LINE
  5
514
100
AcDbEntity
  8
0
100
AcDbLine
 62
7
  6
CONTINUOUS
 10
29.4215193158
 20
12.0
 11
29.6009967463
 21
12.5160175928
  0
LINE
  5
515
100
AcDbEntity
  8
0
100
AcDbLine
 62
7
  6
CONTINUOUS
 10
29.6656602427
 20
12.7017839262
 11
29.8496527385
 21
13.1989346528
  0
LINE
  5
516
100
AcDbEntity
  8
0
100
AcDbLine
 62
7
  6
CONTINUOUS
 10
29.8291732928
 20
13.7028580562
 11
29.1818937691
 21
12.0
  0
LINE
  5
517
100
AcDbEntity
  8
0
100
AcDbLine
 62
7
  6
CONTINUOUS
 10
32.9730104178
 20
12.7212959817
 11
33.6541536403
 21
13.7028580562
  0
LINE
  5
518
100
AcDbEntity
  8
0
100
AcDbLine
 62
7
  6
CONTINUOUS
 10
-29.8111319072
 20
-58.0531229186
 11
-29.9597543621
 21
-58.2017453736
  0
LINE
  5
519
100
AcDbEntity
  8
0
100
AcDbLine
 62
7
  6
CONTINUOUS
 10
24.806408
 20
-5.95746
 11
24.95746
 21
-5.806408
  0
LINE
  5
51A
100
AcDbEntity
  8
DRAFT
100
AcDbLine
 62
7
  6
CONTINUOUS
 10
-35.8563623377
 20
20.3810194482
 11
-4.5
 21
20.3810194482
  0
LINE
  5
51B
100
AcDbEntity
  8
DRAFT
100
AcDbLine
 62
7
  6
CONTINUOUS
 10
4.5
 20
20.3810194482
 11
35.8563623377
 21
20.3810194482
  0
LINE
  5
51C
100
AcDbEntity
  8
DRAFT
100
AcDbLine
 62
7
  6
CONTINUOUS
 10
-35.7952696104
 20
20.5644466757
 11
-4.5
 21
20.5644466757
  0
LINE
  5
51D
100
AcDbEntity
  8
DRAFT
100
AcDbLine
 62
7
  6
CONTINUOUS
 10
4.5
 20
20.5644466757
 11
35.7952696104
 21
20.5644466757
  0
LINE
  5
51E
100
AcDbEntity
  8
DRAFT
100
AcDbLine
 62
7
  6
CONTINUOUS
 10
4.3249432208
 20
20.9
 11
-4.3249432208
 21
20.9
  0
LINE
  5
51F
100
AcDbEntity
  8
0
100
AcDbLine
 62
7
  6
CONTINUOUS
 10
-35.9389072728
 20
21.0
 11
-35.9
 21
21.0
  0
LINE
  5
520
100
AcDbEntity
  8
0
100
AcDbLine
 62
7
  6
CONTINUOUS
 10
35.9
 20
21.0
 11
35.9389072728
 21
21.0
  0
LINE
  5
521
100
AcDbEntity
  8
0
100
AcDbLine
 62
7
  6
CONTINUOUS
 10
4.5
 20
21.25
 11
3.65
 21
21.25
  0
LINE
  5
522
100
AcDbEntity
  8
0
100
AcDbLine
 62
7
  6
CONTINUOUS
 10
-3.65
 20
21.25
 11
-4.5
 21
21.25
  0
LINE
  5
523
100
AcDbEntity
  8
0
100
AcDbLine
 62
7
  6
CONTINUOUS
 10
36.0
 20
21.3062103223
 11
35.9
 21
21.3062103223
  0
LINE
  5
524
100
AcDbEntity
  8
0
100
AcDbLine
 62
7
  6
CONTINUOUS
 10
-35.9
 20
21.3062103223
 11
-36.0
 21
21.3062103223
  0
LINE
  5
525
100
AcDbEntity
  8
DRAFT
100
AcDbLine
 62
7
  6
CONTINUOUS
 10
-3.3110927272
 20
22.6
 11
3.3110927272
 21
22.6
  0
LINE
  5
526
100
AcDbEntity
  8
0
100
AcDbLine
 62
7
  6
CONTINUOUS
 10
-29.8111319072
 20
58.0531229186
 11
-29.9597543621
 21
58.2017453736
  0
LINE
  5
527
100
AcDbEntity
  8
0
100
AcDbLine
 62
7
  6
CONTINUOUS
 10
24.95746
 20
3.806408
 11
24.806408
 21
3.95746
  0
LINE
  5
528
100
AcDbEntity
  8
DRAFT
100
AcDbLine
 62
7
  6
CONTINUOUS
 10
3.65
 20
36.602146997
 11
3.25
 21
37.29496732
  0
LINE
  5
529
100
AcDbEntity
  8
DRAFT
100
AcDbLine
 62
7
  6
CONTINUOUS
 10
3.3110927272
 20
37.311337067
 11
3.65
 21
36.7243324515
  0
LINE
  5
52A
100
AcDbEntity
  8
DRAFT
100
AcDbLine
 62
7
  6
CONTINUOUS
 10
24.25
 20
-18.0176397269
 11
24.25
 21
-15.95
  0
LINE
  5
52B
100
AcDbEntity
  8
DRAFT
100
AcDbLine
 62
7
  6
CONTINUOUS
 10
25.75
 20
-15.95
 11
25.75
 21
-18.0176397269
  0
LINE
  5
52C
100
AcDbEntity
  8
0
100
AcDbLine
 62
7
  6
CONTINUOUS
 10
25.9745217959
 20
13.7028580562
 11
25.9745217959
 21
12.0
  0
LINE
  5
52D
100
AcDbEntity
  8
0
100
AcDbLine
 62
7
  6
CONTINUOUS
 10
26.2015695367
 20
12.0
 11
26.2015695367
 21
13.7028580562
  0
LINE
  5
52E
100
AcDbEntity
  8
0
100
AcDbLine
 62
7
  6
CONTINUOUS
 10
26.8883832022
 20
-8.66056
 11
26.8883832022
 21
-6.66056
  0
LINE
  5
52F
100
AcDbEntity
  8
0
100
AcDbLine
 62
7
  6
CONTINUOUS
 10
27.2955268334
 20
13.7028580562
 11
27.2955268334
 21
12.0
  0
LINE
  5
530
100
AcDbEntity
  8
DRAFT
100
AcDbLine
 62
7
  6
CONTINUOUS
 10
27.5
 20
-18.0176397269
 11
27.5
 21
-15.95
  0
LINE
  5
531
100
AcDbEntity
  8
0
100
AcDbLine
 62
7
  6
CONTINUOUS
 10
27.5225745743
 20
12.0
 11
27.5225745743
 21
13.7028580562
  0
LINE
  5
532
100
AcDbEntity
  8
0
100
AcDbLine
 62
7
  6
CONTINUOUS
 10
27.8012240744
 20
13.7028580562
 11
27.8012240744
 21
13.506771371
  0
LINE
  5
533
100
AcDbEntity
  8
0
100
AcDbLine
 62
7
  6
CONTINUOUS
 10
28.3585230746
 20
13.506771371
 11
28.3585230746
 21
12.0
  0
LINE
  5
534
100
AcDbEntity
  8
DRAFT
100
AcDbLine
 62
7
  6
CONTINUOUS
 10
34.5988528624
 20
32.5421083448
 11
34.5451818435
 21
32.5327171334
  0
LINE
  5
535
100
AcDbEntity
  8
DRAFT
100
AcDbLine
 62
7
  6
CONTINUOUS
 10
-35.9
 20
24.0
 11
-34.4884011428
 21
24.0
  0
LINE
  5
536
100
AcDbEntity
  8
DRAFT
100
AcDbLine
 62
7
  6
CONTINUOUS
 10
34.4884011428
 20
24.0
 11
35.9
 21
24.0
  0
LINE
  5
537
100
AcDbEntity
  8
0
100
AcDbLine
 62
7
  6
CONTINUOUS
 10
35.9
 20
24.1
 11
35.1389072728
 21
24.1
  0
LINE
  5
538
100
AcDbEntity
  8
0
100
AcDbLine
 62
7
  6
CONTINUOUS
 10
-35.1389072728
 20
24.1
 11
-35.9
 21
24.1
  0
LINE
  5
539
100
AcDbEntity
  8
0
100
AcDbLine
 62
7
  6
CONTINUOUS
 10
34.5483680519
 20
24.1087268678
 11
35.1214522078
 21
24.1087268678
  0
LINE
  5
53A
100
AcDbEntity
  8
0
100
AcDbLine
 62
7
  6
CONTINUOUS
 10
-34.5483680519
 20
24.1087268678
 11
-35.1214522078
 21
24.1087268678
  0
LINE
  5
53B
100
AcDbEntity
  8
RACCORDO
100
AcDbLine
 62
250
  6
CONTINUOUS
 10
35.8160633661
 20
24.1419651207
 11
34.6148496209
 21
24.1419651207
  0
LINE
  5
53C
100
AcDbEntity
  8
RACCORDO
100
AcDbLine
 62
250
  6
CONTINUOUS
 10
-34.6148496209
 20
24.1419651207
 11
-35.8160633661
 21
24.1419651207
  0
LINE
  5
53D
100
AcDbEntity
  8
RACCORDO
100
AcDbLine
 62
250
  6
CONTINUOUS
 10
35.7987606234
 20
25.1419270438
 11
34.6321523635
 21
25.1419270438
  0
LINE
  5
53E
100
AcDbEntity
  8
RACCORDO
100
AcDbLine
 62
250
  6
CONTINUOUS
 10
-34.6321523635
 20
25.1419270438
 11
-35.7987606234
 21
25.1419270438
  0
LINE
  5
53F
100
AcDbEntity
  8
0
100
AcDbLine
 62
7
  6
CONTINUOUS
 10
34.6196821264
 20
27.3
 11
35.0321523635
 21
27.3
  0
LINE
  5
540
100
AcDbEntity
  8
0
100
AcDbLine
 62
7
  6
CONTINUOUS
 10
-34.6196821264
 20
27.3
 11
-35.0321523635
 21
27.3
  0
LINE
  5
541
100
AcDbEntity
  8
DRAFT
100
AcDbLine
 62
7
  6
CONTINUOUS
 10
35.8877814546
 20
27.35
 11
35.8301797403
 21
27.35
  0
LINE
  5
542
100
AcDbEntity
  8
DRAFT
100
AcDbLine
 62
7
  6
CONTINUOUS
 10
-35.8301797403
 20
27.35
 11
-35.8877814546
 21
27.35
  0
LINE
  5
543
100
AcDbEntity
  8
DRAFT
100
AcDbLine
 62
7
  6
CONTINUOUS
 10
-34.5988528624
 20
27.7
 11
-34.4115988572
 21
27.7
  0
LINE
  5
544
100
AcDbEntity
  8
DRAFT
100
AcDbLine
 62
7
  6
CONTINUOUS
 10
34.4115988572
 20
27.7
 11
34.5988528624
 21
27.7
  0
LINE
  5
545
100
AcDbEntity
  8
DRAFT
100
AcDbLine
 62
7
  6
CONTINUOUS
 10
-34.5988528624
 20
32.5421083448
 11
-34.5451818435
 21
32.5327171334
  0
LINE
  5
546
100
AcDbEntity
  8
0
100
AcDbLine
 62
7
  6
CONTINUOUS
 10
23.5119891513
 20
12.0
 11
22.8298783811
 21
13.7028580562
  0
LINE
  5
547
100
AcDbEntity
  8
0
100
AcDbLine
 62
7
  6
CONTINUOUS
 10
24.2057103371
 20
13.7028580562
 11
24.8604075693
 21
12.0
  0
LINE
  5
548
100
AcDbEntity
  8
0
100
AcDbLine
 62
7
  6
CONTINUOUS
 10
23.0806307268
 20
12.5160175928
 11
23.2705896097
 21
12.0
  0
LINE
  5
549
100
AcDbEntity
  8
0
100
AcDbLine
 62
7
  6
CONTINUOUS
 10
24.8892724289
 20
12.4689310563
 11
24.4471097212
 21
13.7028580562
  0
LINE
  5
54A
100
AcDbEntity
  8
0
100
AcDbLine
 62
7
  6
CONTINUOUS
 10
29.8073832772
 20
-57.8015748213
 11
29.7980113475
 21
-55.925867995
  0
LINE
  5
54B
100
AcDbEntity
  8
0
100
AcDbLine
 62
7
  6
CONTINUOUS
 10
28.5855708154
 20
12.0
 11
28.5855708154
 21
13.506771371
  0
LINE
  5
54C
100
AcDbEntity
  8
0
100
AcDbLine
 62
7
  6
CONTINUOUS
 10
29.1428698156
 20
13.506771371
 11
29.1428698156
 21
13.7028580562
  0
LINE
  5
54D
100
AcDbEntity
  8
0
100
AcDbLine
 62
7
  6
CONTINUOUS
 10
29.7974346212
 20
55.6774351308
 11
29.7974346212
 21
54.8476348052
  0
LINE
  5
54E
100
AcDbEntity
  8
0
100
AcDbLine
 62
7
  6
CONTINUOUS
 10
29.7974346212
 20
52.9
 11
29.7974346212
 21
48.9
  0
LINE
  5
54F
100
AcDbEntity
  8
0
100
AcDbLine
 62
7
  6
CONTINUOUS
 10
29.7974346212
 20
-54.9
 11
29.7974346212
 21
-55.6774351308
  0
LINE
  5
550
100
AcDbEntity
  8
0
100
AcDbLine
 62
7
  6
CONTINUOUS
 10
29.9090914837
 20
-54.9
 11
29.9090928558
 21
-54.918016147
  0
LINE
  5
551
100
AcDbEntity
  8
0
100
AcDbLine
 62
7
  6
CONTINUOUS
 10
29.9597543621
 20
58.2017453736
 11
29.9597543621
 21
55.363456897
  0
LINE
  5
552
100
AcDbEntity
  8
0
100
AcDbLine
 62
7
  6
CONTINUOUS
 10
29.9597543621
 20
-55.363456897
 11
29.9597543621
 21
-58.2017453736
  0
LINE
  5
553
100
AcDbEntity
  8
0
100
AcDbLine
 62
7
  6
CONTINUOUS
 10
30.0
 20
-53.5
 11
30.0
 21
-47.2
  0
LINE
  5
554
100
AcDbEntity
  8
DRAFT
100
AcDbLine
 62
7
  6
CONTINUOUS
 10
30.7150898701
 20
-44.75
 11
30.7150898701
 21
-46.6
  0
LINE
  5
555
100
AcDbEntity
  8
DRAFT
100
AcDbLine
 62
7
  6
CONTINUOUS
 10
30.75
 20
-44.75
 11
30.75
 21
-46.6
  0
LINE
  5
556
100
AcDbEntity
  8
0
100
AcDbLine
 62
7
  6
CONTINUOUS
 10
30.9386110386
 20
13.7028580562
 11
30.9386110386
 21
12.0
  0
LINE
  5
557
100
AcDbEntity
  8
0
100
AcDbLine
 62
7
  6
CONTINUOUS
 10
31.1656587794
 20
12.1960866853
 11
31.1656587794
 21
13.7028580562
  0
LINE
  5
558
100
AcDbEntity
  8
0
100
AcDbLine
 62
7
  6
CONTINUOUS
 10
31.4793650524
 20
-59.7017453736
 11
31.4793650524
 21
-55.363456897
  0
LINE
  5
559
100
AcDbEntity
  8
0
100
AcDbLine
 62
7
  6
CONTINUOUS
 10
31.4793650524
 20
55.363456897
 11
31.4793650524
 21
59.7017453736
  0
LINE
  5
55A
100
AcDbEntity
  8
0
100
AcDbLine
 62
7
  6
CONTINUOUS
 10
31.5304630501
 20
49.1866416267
 11
31.5302020659
 21
52.6135089444
  0
LINE
  5
55B
100
AcDbEntity
  8
0
100
AcDbLine
 62
7
  6
CONTINUOUS
 10
31.5300319189
 20
54.8476348052
 11
31.5300265588
 21
54.918016147
  0
LINE
  5
55C
100
AcDbEntity
  8
0
100
AcDbLine
 62
7
  6
CONTINUOUS
 10
31.5945597073
 20
-47.250076164
 11
31.5945597073
 21
-53.5
  0
LINE
  5
55D
100
AcDbEntity
  8
0
100
AcDbLine
 62
7
  6
CONTINUOUS
 10
31.5945597073
 20
-54.9
 11
31.5945597073
 21
-59.5865507187
  0
LINE
  5
55E
100
AcDbEntity
  8
0
100
AcDbLine
 62
7
  6
CONTINUOUS
 10
31.5945597073
 20
49.2272127416
 11
31.5945597073
 21
52.5727872584
  0
LINE
  5
55F
100
AcDbEntity
  8
0
100
AcDbLine
 62
7
  6
CONTINUOUS
 10
31.5945597073
 20
54.8476348052
 11
31.5945597073
 21
59.5865507187
  0
LINE
  5
560
100
AcDbEntity
  8
0
100
AcDbLine
 62
7
  6
CONTINUOUS
 10
32.0119276316
 20
12.0
 11
32.0119276316
 21
12.1960866853
  0
LINE
  5
561
100
AcDbEntity
  8
0
100
AcDbLine
 62
7
  6
CONTINUOUS
 10
32.2
 20
-53.5
 11
32.2
 21
-47.2
  0
LINE
  5
562
100
AcDbEntity
  8
0
100
AcDbLine
 62
7
  6
CONTINUOUS
 10
32.745962677
 20
12.7212959817
 11
32.745962677
 21
12.0
  0
LINE
  5
563
100
AcDbEntity
  8
0
100
AcDbLine
 62
7
  6
CONTINUOUS
 10
32.9730104178
 20
12.0
 11
32.9730104178
 21
12.7212959817
  0
LINE
  5
564
100
AcDbEntity
  8
0
100
AcDbLine
 62
7
  6
CONTINUOUS
 10
29.9090928558
 20
54.918016147
 11
29.9090874957
 21
54.8476348052
  0
LINE
  5
565
100
AcDbEntity
  8
0
100
AcDbLine
 62
7
  6
CONTINUOUS
 10
29.9089391673
 20
52.9
 11
29.9086345344
 21
48.9
  0
LINE
  5
566
100
AcDbEntity
  8
0
100
AcDbLine
 62
7
  6
CONTINUOUS
 10
31.5300265588
 20
-54.918016147
 11
31.5300279308
 21
-54.9
  0
LINE
  5
567
100
AcDbEntity
  8
0
100
AcDbLine
 62
7
  6
CONTINUOUS
 10
31.5301345524
 20
-53.5
 11
31.5305745356
 21
-47.7227743686
  0
LINE
  5
568
100
AcDbEntity
  8
0
100
AcDbLine
 62
7
  6
CONTINUOUS
 10
29.7980113475
 20
55.925867995
 11
29.8073832772
 21
57.8015748213
  0
LINE
  5
569
100
AcDbEntity
  8
0
100
AcDbLine
 62
7
  6
CONTINUOUS
 10
36.0
 20
21.3062103223
 11
35.9389072728
 21
21.0
  0
LINE
  5
56A
100
AcDbEntity
  8
DRAFT
100
AcDbLine
 62
7
  6
CONTINUOUS
 10
-3.3110927272
 20
32.688662933
 11
-3.25
 21
32.70503268
  0
LINE
  5
56B
100
AcDbEntity
  8
DRAFT
100
AcDbLine
 62
7
  6
CONTINUOUS
 10
-34.5451818435
 20
27.4672828666
 11
-34.5988528624
 21
27.4578916552
  0
LINE
  5
56C
100
AcDbEntity
  8
DRAFT
100
AcDbLine
 62
7
  6
CONTINUOUS
 10
34.5992605626
 20
32.537441183
 11
34.5451818435
 21
32.5327171334
  0
LINE
  5
56D
100
AcDbEntity
  8
DRAFT
100
AcDbLine
 62
7
  6
CONTINUOUS
 10
-34.5988528624
 20
32.3
 11
-34.4115988572
 21
32.3
  0
LINE
  5
56E
100
AcDbEntity
  8
DRAFT
100
AcDbLine
 62
7
  6
CONTINUOUS
 10
34.4115988572
 20
32.3
 11
34.5988528624
 21
32.3
  0
LINE
  5
56F
100
AcDbEntity
  8
DRAFT
100
AcDbLine
 62
7
  6
CONTINUOUS
 10
-35.8877814546
 20
32.65
 11
-35.8301797403
 21
32.65
  0
LINE
  5
570
100
AcDbEntity
  8
DRAFT
100
AcDbLine
 62
7
  6
CONTINUOUS
 10
35.8301797403
 20
32.65
 11
35.8877814546
 21
32.65
  0
LINE
  5
571
100
AcDbEntity
  8
0
100
AcDbLine
 62
7
  6
CONTINUOUS
 10
34.6196821264
 20
32.7
 11
35.0321523635
 21
32.7
  0
LINE
  5
572
100
AcDbEntity
  8
0
100
AcDbLine
 62
7
  6
CONTINUOUS
 10
-34.6196821264
 20
32.7
 11
-35.0321523635
 21
32.7
  0
LINE
  5
573
100
AcDbEntity
  8
DRAFT
100
AcDbLine
 62
7
  6
CONTINUOUS
 10
-34.5992605626
 20
32.537441183
 11
-34.5451818435
 21
32.5327171334
  0
LINE
  5
574
100
AcDbEntity
  8
DRAFT
100
AcDbLine
 62
7
  6
CONTINUOUS
 10
34.5992605626
 20
27.462558817
 11
34.5451818435
 21
27.4672828666
  0
LINE
  5
575
100
AcDbEntity
  8
DRAFT
100
AcDbLine
 62
7
  6
CONTINUOUS
 10
34.5451818435
 20
27.4672828666
 11
34.5988528624
 21
27.4578916552
  0
LINE
  5
576
100
AcDbEntity
  8
DRAFT
100
AcDbLine
 62
7
  6
CONTINUOUS
 10
3.3110927272
 20
32.688662933
 11
3.25
 21
32.70503268
  0
LINE
  5
577
100
AcDbEntity
  8
0
100
AcDbLine
 62
7
  6
CONTINUOUS
 10
30.7568761541
 20
12.0
 11
30.0747653839
 21
13.7028580562
  0
LINE
  5
578
100
AcDbEntity
  8
0
100
AcDbLine
 62
7
  6
CONTINUOUS
 10
30.3255177296
 20
12.5160175928
 11
30.5154766125
 21
12.0
  0
LINE
  5
579
100
AcDbEntity
  8
0
100
AcDbLine
 62
7
  6
CONTINUOUS
 10
35.9389072728
 20
-20.0
 11
36.0
 21
-23.5
  0
LINE
  5
57A
100
AcDbEntity
  8
SMUSSO
100
AcDbLine
 62
7
  6
CONTINUOUS
 10
35.8563623377
 20
18.5810194482
 11
35.8692566451
 21
17.842305068
  0
LINE
  5
57B
100
AcDbEntity
  8
DRAFT
100
AcDbLine
 62
7
  6
CONTINUOUS
 10
34.4115988572
 20
32.3
 11
34.4115988572
 21
27.7
  0
LINE
  5
57C
100
AcDbEntity
  8
DRAFT
100
AcDbLine
 62
7
  6
CONTINUOUS
 10
34.4115988572
 20
-32.3
 11
34.4115988572
 21
-27.7
  0
LINE
  5
57D
100
AcDbEntity
  8
DRAFT
100
AcDbLine
 62
7
  6
CONTINUOUS
 10
34.45
 20
32.3
 11
34.45
 21
27.7
  0
LINE
  5
57E
100
AcDbEntity
  8
DRAFT
100
AcDbLine
 62
7
  6
CONTINUOUS
 10
34.45
 20
-27.7
 11
34.45
 21
-32.3
  0
LINE
  5
57F
100
AcDbEntity
  8
DRAFT
100
AcDbLine
 62
7
  6
CONTINUOUS
 10
34.45
 20
-46.4704650534
 11
34.45
 21
-53.5
  0
LINE
  5
580
100
AcDbEntity
  8
DRAFT
100
AcDbLine
 62
7
  6
CONTINUOUS
 10
34.4884011428
 20
36.0
 11
34.4884011428
 21
32.3
  0
LINE
  5
581
100
AcDbEntity
  8
DRAFT
100
AcDbLine
 62
7
  6
CONTINUOUS
 10
34.4884011428
 20
27.7
 11
34.4884011428
 21
24.0
  0
LINE
  5
582
100
AcDbEntity
  8
DRAFT
100
AcDbLine
 62
7
  6
CONTINUOUS
 10
34.4884011428
 20
-36.0
 11
34.4884011428
 21
-32.3
  0
LINE
  5
583
100
AcDbEntity
  8
DRAFT
100
AcDbLine
 62
7
  6
CONTINUOUS
 10
34.4884011428
 20
-24.0
 11
34.4884011428
 21
-27.7
  0
LINE
  5
584
100
AcDbEntity
  8
DRAFT
100
AcDbLine
 62
7
  6
CONTINUOUS
 10
34.5451818435
 20
32.5327171334
 11
34.5451818435
 21
32.3
  0
LINE
  5
585
100
AcDbEntity
  8
DRAFT
100
AcDbLine
 62
7
  6
CONTINUOUS
 10
34.5451818435
 20
27.7
 11
34.5451818435
 21
27.4672828666
  0
LINE
  5
586
100
AcDbEntity
  8
DRAFT
100
AcDbLine
 62
7
  6
CONTINUOUS
 10
34.5451818435
 20
-27.4672828666
 11
34.5451818435
 21
-27.7
  0
LINE
  5
587
100
AcDbEntity
  8
DRAFT
100
AcDbLine
 62
7
  6
CONTINUOUS
 10
34.5451818435
 20
-32.3
 11
34.5451818435
 21
-32.5327171334
  0
LINE
  5
588
100
AcDbEntity
  8
0
100
AcDbLine
 62
7
  6
CONTINUOUS
 10
34.5483680519
 20
-36.0
 11
34.5483680519
 21
-35.8912731322
  0
LINE
  5
589
100
AcDbEntity
  8
0
100
AcDbLine
 62
7
  6
CONTINUOUS
 10
34.5483680519
 20
-24.1087268678
 11
34.5483680519
 21
-24.0
  0
LINE
  5
58A
100
AcDbEntity
  8
0
100
AcDbLine
 62
7
  6
CONTINUOUS
 10
34.5483680519
 20
24.0
 11
34.5483680519
 21
24.1087268678
  0
LINE
  5
58B
100
AcDbEntity
  8
0
100
AcDbLine
 62
7
  6
CONTINUOUS
 10
34.5483680519
 20
35.8912731322
 11
34.5483680519
 21
36.0
  0
LINE
  5
58C
100
AcDbEntity
  8
DRAFT
100
AcDbLine
 62
7
  6
CONTINUOUS
 10
34.5988528624
 20
-32.5421083448
 11
34.5988528624
 21
-27.4578916552
  0
LINE
  5
58D
100
AcDbEntity
  8
DRAFT
100
AcDbLine
 62
7
  6
CONTINUOUS
 10
34.5988528624
 20
27.4578916552
 11
34.5988528624
 21
32.5421083448
  0
LINE
  5
58E
100
AcDbEntity
  8
0
100
AcDbLine
 62
7
  6
CONTINUOUS
 10
34.6196821264
 20
32.7
 11
34.6196821264
 21
27.3
  0
LINE
  5
58F
100
AcDbEntity
  8
0
100
AcDbLine
 62
7
  6
CONTINUOUS
 10
34.6196821264
 20
-32.7
 11
34.6196821264
 21
-27.3
  0
LINE
  5
590
100
AcDbEntity
  8
0
100
AcDbLine
 62
7
  6
CONTINUOUS
 10
34.6321523635
 20
34.8580729562
 11
34.6321523635
 21
32.7
  0
LINE
  5
591
100
AcDbEntity
  8
0
100
AcDbLine
 62
7
  6
CONTINUOUS
 10
34.6321523635
 20
27.3
 11
34.6321523635
 21
25.1419270438
  0
LINE
  5
592
100
AcDbEntity
  8
0
100
AcDbLine
 62
7
  6
CONTINUOUS
 10
34.6321523635
 20
-25.1419270438
 11
34.6321523635
 21
-27.3
  0
LINE
  5
593
100
AcDbEntity
  8
0
100
AcDbLine
 62
7
  6
CONTINUOUS
 10
34.6321523635
 20
-32.7
 11
34.6321523635
 21
-34.8580729562
  0
LINE
  5
594
100
AcDbEntity
  8
0
100
AcDbLine
 62
7
  6
CONTINUOUS
 10
35.0321523635
 20
32.7
 11
35.0321523635
 21
27.3
  0
LINE
  5
595
100
AcDbEntity
  8
0
100
AcDbLine
 62
7
  6
CONTINUOUS
 10
35.0321523635
 20
-32.7
 11
35.0321523635
 21
-27.3
  0
LINE
  5
596
100
AcDbEntity
  8
0
100
AcDbLine
 62
7
  6
CONTINUOUS
 10
35.1214522078
 20
-36.0
 11
35.1214522078
 21
-35.8912731322
  0
LINE
  5
597
100
AcDbEntity
  8
0
100
AcDbLine
 62
7
  6
CONTINUOUS
 10
35.1214522078
 20
-24.1087268678
 11
35.1214522078
 21
-24.0
  0
LINE
  5
598
100
AcDbEntity
  8
0
100
AcDbLine
 62
7
  6
CONTINUOUS
 10
35.1214522078
 20
24.0
 11
35.1214522078
 21
24.1087268678
  0
LINE
  5
599
100
AcDbEntity
  8
0
100
AcDbLine
 62
7
  6
CONTINUOUS
 10
35.1214522078
 20
35.8912731322
 11
35.1214522078
 21
36.0
  0
LINE
  5
59A
100
AcDbEntity
  8
0
100
AcDbLine
 62
7
  6
CONTINUOUS
 10
35.1389072728
 20
-24.0
 11
35.1389072728
 21
-24.1
  0
LINE
  5
59B
100
AcDbEntity
  8
0
100
AcDbLine
 62
7
  6
CONTINUOUS
 10
35.1389072728
 20
-35.9
 11
35.1389072728
 21
-36.0
  0
LINE
  5
59C
100
AcDbEntity
  8
0
100
AcDbLine
 62
7
  6
CONTINUOUS
 10
35.1389072728
 20
24.0
 11
35.1389072728
 21
24.1
  0
LINE
  5
59D
100
AcDbEntity
  8
0
100
AcDbLine
 62
7
  6
CONTINUOUS
 10
35.1389072728
 20
35.9
 11
35.1389072728
 21
36.0
  0
LINE
  5
59E
100
AcDbEntity
  8
RACCORDO
100
AcDbLine
 62
7
  6
CONTINUOUS
 10
35.7952696104
 20
53.7954219153
 11
35.7952696104
 21
36.0
  0
LINE
  5
59F
100
AcDbEntity
  8
DRAFT
100
AcDbLine
 62
7
  6
CONTINUOUS
 10
35.7952696104
 20
24.0
 11
35.7952696104
 21
20.5644466757
  0
LINE
  5
5A0
100
AcDbEntity
  8
DRAFT
100
AcDbLine
 62
7
  6
CONTINUOUS
 10
35.7952696104
 20
-18.0644466757
 11
35.7952696104
 21
-24.0
  0
LINE
  5
5A1
100
AcDbEntity
  8
RACCORDO
100
AcDbLine
 62
7
  6
CONTINUOUS
 10
35.7952696104
 20
-36.0
 11
35.7952696104
 21
-53.7954219153
  0
LINE
  5
5A2
100
AcDbEntity
  8
RACCORDO
100
AcDbLine
 62
7
  6
CONTINUOUS
 10
35.7987606234
 20
34.8580729562
 11
35.7987606234
 21
25.1419270438
  0
LINE
  5
5A3
100
AcDbEntity
  8
RACCORDO
100
AcDbLine
 62
7
  6
CONTINUOUS
 10
35.7987606234
 20
-25.1419270438
 11
35.7987606234
 21
-34.8580729562
  0
LINE
  5
5A4
100
AcDbEntity
  8
DRAFT
100
AcDbLine
 62
7
  6
CONTINUOUS
 10
35.8301797403
 20
-32.65
 11
35.8301797403
 21
-27.35
  0
LINE
  5
5A5
100
AcDbEntity
  8
DRAFT
100
AcDbLine
 62
7
  6
CONTINUOUS
 10
35.8301797403
 20
27.35
 11
35.8301797403
 21
32.65
  0
LINE
  5
5A6
100
AcDbEntity
  8
SMUSSO
100
AcDbLine
 62
7
  6
CONTINUOUS
 10
35.8563623377
 20
20.3810194482
 11
35.8563623377
 21
18.5810194482
  0
LINE
  5
5A7
100
AcDbEntity
  8
DRAFT
100
AcDbLine
 62
7
  6
CONTINUOUS
 10
35.8877814546
 20
32.65
 11
35.8877814546
 21
27.35
  0
LINE
  5
5A8
100
AcDbEntity
  8
DRAFT
100
AcDbLine
 62
7
  6
CONTINUOUS
 10
35.8877814546
 20
-27.35
 11
35.8877814546
 21
-32.65
  0
LINE
  5
5A9
100
AcDbEntity
  8
0
100
AcDbLine
 62
7
  6
CONTINUOUS
 10
35.9
 20
35.9
 11
35.9
 21
24.1
  0
LINE
  5
5AA
100
AcDbEntity
  8
RACCORDO
100
AcDbLine
 62
7
  6
CONTINUOUS
 10
35.9
 20
-53.9001523048
 11
35.9
 21
-36.0
  0
LINE
  5
5AB
100
AcDbEntity
  8
0
100
AcDbLine
 62
7
  6
CONTINUOUS
 10
35.9
 20
-24.1
 11
35.9
 21
-35.9
  0
LINE
  5
5AC
100
AcDbEntity
  8
DRAFT
100
AcDbLine
 62
7
  6
CONTINUOUS
 10
35.9
 20
-24.0
 11
35.9
 21
24.0
  0
LINE
  5
5AD
100
AcDbEntity
  8
RACCORDO
100
AcDbLine
 62
7
  6
CONTINUOUS
 10
35.9
 20
36.0
 11
35.9
 21
53.9001523048
  0
LINE
  5
5AE
100
AcDbEntity
  8
0
100
AcDbLine
 62
7
  6
CONTINUOUS
 10
35.9389072728
 20
21.0
 11
35.9389072728
 21
-20.0
  0
LINE
  5
5AF
100
AcDbEntity
  8
RACCORDO
100
AcDbLine
 62
7
  6
CONTINUOUS
 10
36.0
 20
46.7501523164
 11
36.0
 21
21.3062103223
  0
LINE
  5
5B0
100
AcDbEntity
  8
RACCORDO
100
AcDbLine
 62
7
  6
CONTINUOUS
 10
36.0
 20
-23.5
 11
36.0
 21
-46.7501523164
  0
LINE
  5
5B1
100
AcDbEntity
  8
0
100
AcDbLine
 62
7
  6
CONTINUOUS
 10
35.1389072728
 20
-24.1
 11
35.1214522078
 21
-24.1087268678
  0
LINE
  5
5B2
100
AcDbEntity
  8
RACCORDO
100
AcDbLine
 62
7
  6
CONTINUOUS
 10
35.8160633661
 20
-24.1419651207
 11
35.9
 21
-24.1
  0
LINE
  5
5B3
100
AcDbEntity
  8
DRAFT
100
AcDbLine
 62
7
  6
CONTINUOUS
 10
3.3110927272
 20
37.311337067
 11
3.25
 21
37.29496732
  0
LINE
  5
5B4
100
AcDbEntity
  8
RACCORDO
100
AcDbLine
 62
250
  6
CONTINUOUS
 10
35.7987606234
 20
34.8580729562
 11
34.6321523635
 21
34.8580729562
  0
LINE
  5
5B5
100
AcDbEntity
  8
RACCORDO
100
AcDbLine
 62
250
  6
CONTINUOUS
 10
-34.6321523635
 20
34.8580729562
 11
-35.7987606234
 21
34.8580729562
  0
LINE
  5
5B6
100
AcDbEntity
  8
RACCORDO
100
AcDbLine
 62
250
  6
CONTINUOUS
 10
35.8160633661
 20
35.8580348793
 11
34.6148496209
 21
35.8580348793
  0
LINE
  5
5B7
100
AcDbEntity
  8
RACCORDO
100
AcDbLine
 62
250
  6
CONTINUOUS
 10
-34.6148496209
 20
35.8580348793
 11
-35.8160633661
 21
35.8580348793
  0
LINE
  5
5B8
100
AcDbEntity
  8
0
100
AcDbLine
 62
7
  6
CONTINUOUS
 10
34.5483680519
 20
35.8912731322
 11
35.1214522078
 21
35.8912731322
  0
LINE
  5
5B9
100
AcDbEntity
  8
0
100
AcDbLine
 62
7
  6
CONTINUOUS
 10
-34.5483680519
 20
35.8912731322
 11
-35.1214522078
 21
35.8912731322
  0
LINE
  5
5BA
100
AcDbEntity
  8
0
100
AcDbLine
 62
7
  6
CONTINUOUS
 10
-35.9
 20
35.9
 11
-35.1389072728
 21
35.9
  0
LINE
  5
5BB
100
AcDbEntity
  8
0
100
AcDbLine
 62
7
  6
CONTINUOUS
 10
35.1389072728
 20
35.9
 11
35.9
 21
35.9
  0
LINE
  5
5BC
100
AcDbEntity
  8
DRAFT
100
AcDbLine
 62
7
  6
CONTINUOUS
 10
-35.9
 20
36.0
 11
-34.4884011428
 21
36.0
  0
LINE
  5
5BD
100
AcDbEntity
  8
DRAFT
100
AcDbLine
 62
7
  6
CONTINUOUS
 10
34.4884011428
 20
36.0
 11
35.9
 21
36.0
  0
LINE
  5
5BE
100
AcDbEntity
  8
DRAFT
100
AcDbLine
 62
7
  6
CONTINUOUS
 10
-3.3110927272
 20
37.311337067
 11
-3.25
 21
37.29496732
  0
LINE
  5
5BF
100
AcDbEntity
  8
0
100
AcDbLine
 62
7
  6
CONTINUOUS
 10
35.1389072728
 20
24.1
 11
35.1214522078
 21
24.1087268678
  0
LINE
  5
5C0
100
AcDbEntity
  8
RACCORDO
100
AcDbLine
 62
7
  6
CONTINUOUS
 10
35.8160633661
 20
24.1419651207
 11
35.9
 21
24.1
  0
LINE
  5
5C1
100
AcDbEntity
  8
RACCORDO
100
AcDbLine
 62
250
  6
CONTINUOUS
 10
-4.4
 20
52.9000761524
 11
-4.3249432208
 21
52.8250193732
  0
LINE
  5
5C2
100
AcDbEntity
  8
RACCORDO
100
AcDbLine
 62
250
  6
CONTINUOUS
 10
-3.9000761524
 20
53.4
 11
-3.8250193732
 21
53.3249432208
  0
LINE
  5
5C3
100
AcDbEntity
  8
0
100
AcDbLine
 62
7
  6
CONTINUOUS
 10
32.0957805101
 20
13.7028580562
 11
32.745962677
 21
12.7212959817
  0
LINE
  5
5C4
100
AcDbEntity
  8
0
100
AcDbLine
 62
7
  6
CONTINUOUS
 10
32.6940384018
 20
13.1832929458
 11
32.3658834959
 21
13.7028580562
  0
LINE
  5
5C5
100
AcDbEntity
  8
DRAFT
100
AcDbLine
 62
7
  6
CONTINUOUS
 10
35.7952696104
 20
-18.0644466757
 11
35.9
 21
-17.75
  0
LINE
  5
5C6
100
AcDbEntity
  8
0
100
AcDbLine
 62
7
  6
CONTINUOUS
 10
0.3848053452
 20
-55.0517453736
 11
0.5365507187
 21
-54.9
  0
LINE
  5
5C7
100
AcDbEntity
  8
0
100
AcDbLine
 62
7
  6
CONTINUOUS
 10
0.5334278001
 20
-58.0531229186
 11
0.3848053452
 21
-58.2017453736
  0
LINE
  5
5C8
100
AcDbEntity
  8
0
100
AcDbLine
 62
7
  6
CONTINUOUS
 10
0.3848053452
 20
55.0517453736
 11
0.5365507187
 21
54.9
  0
LINE
  5
5C9
100
AcDbEntity
  8
0
100
AcDbLine
 62
7
  6
CONTINUOUS
 10
0.5334278001
 20
58.0531229186
 11
0.3848053452
 21
58.2017453736
  0
LINE
  5
5CA
100
AcDbEntity
  8
SMUSSO
100
AcDbLine
 62
7
  6
CONTINUOUS
 10
35.8692566451
 20
17.842305068
 11
35.9
 21
17.75
  0
LINE
  5
5CB
100
AcDbEntity
  8
DRAFT
100
AcDbLine
 62
7
  6
CONTINUOUS
 10
35.7952696104
 20
20.5644466757
 11
35.8563623377
 21
20.3810194482
  0
LINE
  5
5CC
100
AcDbEntity
  8
IMPORT_IGES
100
AcDbLine
 62
7
  6
CONTINUOUS
 10
3.2360359481
 20
42.5
 11
3.15
 21
42.5
  0
LINE
  5
5CD
100
AcDbEntity
  8
IMPORT_IGES
100
AcDbLine
 62
7
  6
CONTINUOUS
 10
-3.15
 20
42.5
 11
-3.2360359481
 21
42.5
  0
LINE
  5
5CE
100
AcDbEntity
  8
0
100
AcDbLine
 62
7
  6
CONTINUOUS
 10
4.5
 20
43.7
 11
3.65
 21
43.7
  0
LINE
  5
5CF
100
AcDbEntity
  8
0
100
AcDbLine
 62
7
  6
CONTINUOUS
 10
-3.2360359481
 20
43.7
 11
-3.15
 21
43.7
  0
LINE
  5
5D0
100
AcDbEntity
  8
0
100
AcDbLine
 62
7
  6
CONTINUOUS
 10
3.15
 20
43.7
 11
3.2360359481
 21
43.7
  0
LINE
  5
5D1
100
AcDbEntity
  8
0
100
AcDbLine
 62
7
  6
CONTINUOUS
 10
-3.65
 20
43.7
 11
-4.5
 21
43.7
  0
LINE
  5
5D2
100
AcDbEntity
  8
DRAFT
100
AcDbLine
 62
7
  6
CONTINUOUS
 10
4.5
 20
44.7
 11
4.4
 21
44.7
  0
LINE
  5
5D3
100
AcDbEntity
  8
DRAFT
100
AcDbLine
 62
7
  6
CONTINUOUS
 10
3.2360359481
 20
44.7
 11
-3.2360359481
 21
44.7
  0
LINE
  5
5D4
100
AcDbEntity
  8
DRAFT
100
AcDbLine
 62
7
  6
CONTINUOUS
 10
-4.4
 20
44.7
 11
-4.5
 21
44.7
  0
LINE
  5
5D5
100
AcDbEntity
  8
DRAFT
100
AcDbLine
 62
250
  6
CONTINUOUS
 10
-30.7150898701
 20
44.75
 11
-30.75
 21
44.75
  0
LINE
  5
5D6
100
AcDbEntity
  8
0
100
AcDbLine
 62
7
  6
CONTINUOUS
 10
-4.5
 20
44.9
 11
-4.4
 21
44.9
  0
LINE
  5
5D7
100
AcDbEntity
  8
DRAFT
100
AcDbLine
 62
7
  6
CONTINUOUS
 10
3.2622185454
 20
44.9
 11
-3.2622185454
 21
44.9
  0
LINE
  5
5D8
100
AcDbEntity
  8
0
100
AcDbLine
 62
7
  6
CONTINUOUS
 10
4.4
 20
44.9
 11
4.5
 21
44.9
  0
LINE
  5
5D9
100
AcDbEntity
  8
0
100
AcDbLine
 62
7
  6
CONTINUOUS
 10
-4.5
 20
45.75
 11
-4.4
 21
45.75
  0
LINE
  5
5DA
100
AcDbEntity
  8
0
100
AcDbLine
 62
7
  6
CONTINUOUS
 10
4.4
 20
45.75
 11
4.5
 21
45.75
  0
LINE
  5
5DB
100
AcDbEntity
  8
0
100
AcDbLine
 62
7
  6
CONTINUOUS
 10
4.5
 20
45.80148852
 11
4.4
 21
45.80148852
  0
LINE
  5
5DC
100
AcDbEntity
  8
0
100
AcDbLine
 62
7
  6
CONTINUOUS
 10
-4.4
 20
45.80148852
 11
-4.5
 21
45.80148852
  0
LINE
  5
5DD
100
AcDbEntity
  8
ASSI
100
AcDbLine
 62
7
  6
CONTINUOUS
 10
5.5
 20
46.6
 11
23.5
 21
46.6
  0
LINE
  5
5DE
100
AcDbEntity
  8
DRAFT
100
AcDbLine
 62
7
  6
CONTINUOUS
 10
-5.5
 20
46.6
 11
-34.45
 21
46.6
  0
LINE
  5
5DF
100
AcDbEntity
  8
0
100
AcDbLine
 62
7
  6
CONTINUOUS
 10
31.5945597073
 20
-47.4
 11
31.5322893817
 21
-47.5245501366
  0
LINE
  5
5E0
100
AcDbEntity
  8
RACCORDO
100
AcDbLine
 62
7
  6
CONTINUOUS
 10
34.5483680519
 20
-35.8912731322
 11
34.6148496209
 21
-35.8580348793
  0
LINE
  5
5E1
100
AcDbEntity
  8
0
100
AcDbLine
 62
7
  6
CONTINUOUS
 10
9.2
 20
47.2
 11
7.0
 21
47.2
  0
LINE
  5
5E2
100
AcDbEntity
  8
0
100
AcDbLine
 62
7
  6
CONTINUOUS
 10
-7.0
 20
47.2
 11
-9.2
 21
47.2
  0
LINE
  5
5E3
100
AcDbEntity
  8
0
100
AcDbLine
 62
7
  6
CONTINUOUS
 10
-30.0
 20
47.2
 11
-32.2
 21
47.2
  0
LINE
  5
5E4
100
AcDbEntity
  8
RACCORDO
100
AcDbLine
 62
7
  6
CONTINUOUS
 10
-32.2
 20
47.250076164
 11
-30.0
 21
47.250076164
  0
LINE
  5
5E5
100
AcDbEntity
  8
RACCORDO
100
AcDbLine
 62
7
  6
CONTINUOUS
 10
-9.2
 20
47.250076164
 11
-7.0
 21
47.250076164
  0
LINE
  5
5E6
100
AcDbEntity
  8
RACCORDO
100
AcDbLine
 62
7
  6
CONTINUOUS
 10
-4.5
 20
47.250076164
 11
-4.4
 21
47.250076164
  0
LINE
  5
5E7
100
AcDbEntity
  8
RACCORDO
100
AcDbLine
 62
7
  6
CONTINUOUS
 10
4.4
 20
47.250076164
 11
4.5
 21
47.250076164
  0
LINE
  5
5E8
100
AcDbEntity
  8
RACCORDO
100
AcDbLine
 62
7
  6
CONTINUOUS
 10
7.0
 20
47.250076164
 11
9.2
 21
47.250076164
  0
LINE
  5
5E9
100
AcDbEntity
  8
0
100
AcDbLine
 62
7
  6
CONTINUOUS
 10
-31.5945597073
 20
47.4
 11
-30.0
 21
47.4
  0
LINE
  5
5EA
100
AcDbEntity
  8
0
100
AcDbLine
 62
250
  6
CONTINUOUS
 10
-31.5322893817
 20
47.5245501366
 11
-30.0
 21
47.5245501366
  0
LINE
  5
5EB
100
AcDbEntity
  8
0
100
AcDbLine
 62
250
  6
CONTINUOUS
 10
-31.5305745356
 20
47.7227743686
 11
-30.0
 21
47.7227743686
  0
LINE
  5
5EC
100
AcDbEntity
  8
0
100
AcDbLine
 62
7
  6
CONTINUOUS
 10
30.5
 20
48.9
 11
28.5
 21
48.9
  0
LINE
  5
5ED
100
AcDbEntity
  8
DRAFT
100
AcDbLine
 62
7
  6
CONTINUOUS
 10
-3.2622185454
 20
49.7
 11
3.2622185454
 21
49.7
  0
LINE
  5
5EE
100
AcDbEntity
  8
RACCORDO
100
AcDbLine
 62
7
  6
CONTINUOUS
 10
34.5483680519
 20
35.8912731322
 11
34.6148496209
 21
35.8580348793
  0
LINE
  5
5EF
100
AcDbEntity
  8
DRAFT
100
AcDbLine
 62
7
  6
CONTINUOUS
 10
3.3110927272
 20
51.9
 11
-3.3110927272
 21
51.9
  0
LINE
  5
5F0
100
AcDbEntity
  8
0
100
AcDbLine
 62
7
  6
CONTINUOUS
 10
28.5
 20
52.9
 11
30.5
 21
52.9
  0
LINE
  5
5F1
100
AcDbEntity
  8
RACCORDO
100
AcDbLine
 62
7
  6
CONTINUOUS
 10
-3.8250193732
 20
53.3249432208
 11
3.8250193732
 21
53.3249432208
  0
LINE
  5
5F2
100
AcDbEntity
  8
RACCORDO
100
AcDbLine
 62
7
  6
CONTINUOUS
 10
-3.9000761524
 20
53.4
 11
3.9000761524
 21
53.4
  0
LINE
  5
5F3
100
AcDbEntity
  8
0
100
AcDbLine
 62
7
  6
CONTINUOUS
 10
-34.45
 20
53.5
 11
-5.5
 21
53.5
  0
LINE
  5
5F4
100
AcDbEntity
  8
ASSI
100
AcDbLine
 62
7
  6
CONTINUOUS
 10
5.5
 20
53.5
 11
23.5
 21
53.5
  0
LINE
  5
5F5
100
AcDbEntity
  8
0
100
AcDbLine
 62
7
  6
CONTINUOUS
 10
-4.5
 20
54.0
 11
4.5
 21
54.0
  0
LINE
  5
5F6
100
AcDbEntity
  8
RACCORDO
100
AcDbLine
 62
7
  6
CONTINUOUS
 10
-34.7954219153
 20
54.7952696104
 11
34.7954219153
 21
54.7952696104
  0
LINE
  5
5F7
100
AcDbEntity
  8
DRAFT
100
AcDbLine
 62
7
  6
CONTINUOUS
 10
24.5
 20
54.8476348052
 11
34.5
 21
54.8476348052
  0
LINE
  5
5F8
100
AcDbEntity
  8
RACCORDO
100
AcDbLine
 62
7
  6
CONTINUOUS
 10
-34.9001523048
 20
54.9
 11
24.4476348052
 21
54.9
  0
LINE
  5
5F9
100
AcDbEntity
  8
RACCORDO
100
AcDbLine
 62
7
  6
CONTINUOUS
 10
34.5523651948
 20
54.9
 11
34.9001523048
 21
54.9
  0
LINE
  5
5FA
100
AcDbEntity
  8
0
100
AcDbLine
 62
250
  6
CONTINUOUS
 10
-31.5300265588
 20
54.918016147
 11
-29.9090928558
 21
54.918016147
  0
LINE
  5
5FB
100
AcDbEntity
  8
0
100
AcDbLine
 62
250
  6
CONTINUOUS
 10
29.9090928558
 20
54.918016147
 11
31.5300265588
 21
54.918016147
  0
LINE
  5
5FC
100
AcDbEntity
  8
0
100
AcDbLine
 62
7
  6
CONTINUOUS
 10
-0.3848053452
 20
55.0517453736
 11
0.3848053452
 21
55.0517453736
  0
LINE
  5
5FD
100
AcDbEntity
  8
0
100
AcDbLine
 62
7
  6
CONTINUOUS
 10
-31.5282964827
 20
55.1162632245
 11
-29.9108229318
 21
55.1162632245
  0
LINE
  5
5FE
100
AcDbEntity
  8
0
100
AcDbLine
 62
7
  6
CONTINUOUS
 10
29.9108229318
 20
55.1162632245
 11
31.5282964827
 21
55.1162632245
  0
LINE
  5
5FF
100
AcDbEntity
  8
0
100
AcDbLine
 62
7
  6
CONTINUOUS
 10
-31.4810951949
 20
55.1634645123
 11
-29.9580242196
 21
55.1634645123
  0
LINE
  5
600
100
AcDbEntity
  8
0
100
AcDbLine
 62
7
  6
CONTINUOUS
 10
29.9580242196
 20
55.1634645123
 11
31.4810951949
 21
55.1634645123
  0
LINE
  5
601
100
AcDbEntity
  8
0
100
AcDbLine
 62
250
  6
CONTINUOUS
 10
-31.4793650524
 20
55.363456897
 11
-29.9597543621
 21
55.363456897
  0
LINE
  5
602
100
AcDbEntity
  8
0
100
AcDbLine
 62
250
  6
CONTINUOUS
 10
29.9597543621
 20
55.363456897
 11
31.4793650524
 21
55.363456897
  0
LINE
  5
603
100
AcDbEntity
  8
0
100
AcDbLine
 62
250
  6
CONTINUOUS
 10
-29.7974346212
 20
55.6774351308
 11
-0.5471250861
 21
55.6774351308
  0
LINE
  5
604
100
AcDbEntity
  8
0
100
AcDbLine
 62
250
  6
CONTINUOUS
 10
0.5471250861
 20
55.6774351308
 11
29.7974346212
 21
55.6774351308
  0
LINE
  5
605
100
AcDbEntity
  8
0
100
AcDbLine
 62
250
  6
CONTINUOUS
 10
-29.7980113475
 20
55.925867995
 11
-0.5465483598
 21
55.925867995
  0
LINE
  5
606
100
AcDbEntity
  8
0
100
AcDbLine
 62
250
  6
CONTINUOUS
 10
0.5465483598
 20
55.925867995
 11
29.7980113475
 21
55.925867995
  0
LINE
  5
607
100
AcDbEntity
  8
DRAFT
100
AcDbLine
 62
7
  6
CONTINUOUS
 10
24.4476348052
 20
54.9
 11
24.5
 21
54.8476348052
  0
LINE
  5
608
100
AcDbEntity
  8
0
100
AcDbLine
 62
250
  6
CONTINUOUS
 10
29.8073832772
 20
57.8015748213
 11
0.53717643
 21
57.8015748213
  0
LINE
  5
609
100
AcDbEntity
  8
0
100
AcDbLine
 62
250
  6
CONTINUOUS
 10
-0.53717643
 20
57.8015748213
 11
-29.8073832772
 21
57.8015748213
  0
LINE
  5
60A
100
AcDbEntity
  8
0
100
AcDbLine
 62
7
  6
CONTINUOUS
 10
29.8111319072
 20
58.0531229186
 11
0.5334278001
 21
58.0531229186
  0
LINE
  5
60B
100
AcDbEntity
  8
0
100
AcDbLine
 62
7
  6
CONTINUOUS
 10
-0.5334278001
 20
58.0531229186
 11
-29.8111319072
 21
58.0531229186
  0
LINE
  5
60C
100
AcDbEntity
  8
0
100
AcDbLine
 62
7
  6
CONTINUOUS
 10
-29.9597543621
 20
58.2017453736
 11
-0.3848053452
 21
58.2017453736
  0
LINE
  5
60D
100
AcDbEntity
  8
0
100
AcDbLine
 62
7
  6
CONTINUOUS
 10
0.3848053452
 20
58.2017453736
 11
29.9597543621
 21
58.2017453736
  0
LINE
  5
60E
100
AcDbEntity
  8
0
100
AcDbLine
 62
7
  6
CONTINUOUS
 10
31.4793650524
 20
59.7017453736
 11
-31.4793650524
 21
59.7017453736
  0
LINE
  5
60F
100
AcDbEntity
  8
0
100
AcDbLine
 62
7
  6
CONTINUOUS
 10
31.4810951949
 20
-55.1634645123
 11
31.5282964827
 21
-55.1162632245
  0
LINE
  5
610
100
AcDbEntity
  8
0
100
AcDbLine
 62
7
  6
CONTINUOUS
 10
31.5945597073
 20
-59.5865507187
 11
31.4793650524
 21
-59.7017453736
  0
LINE
  5
611
100
AcDbEntity
  8
0
100
AcDbLine
 62
7
  6
CONTINUOUS
 10
31.4810951949
 20
55.1634645123
 11
31.5282964827
 21
55.1162632245
  0
LINE
  5
612
100
AcDbEntity
  8
0
100
AcDbLine
 62
7
  6
CONTINUOUS
 10
31.5945597073
 20
59.5865507187
 11
31.4793650524
 21
59.7017453736
  0
CIRCLE
  5
613
100
AcDbEntity
  8
DRAFT
100
AcDbCircle
 62
7
  6
CONTINUOUS
 10
-33.0
 20
-44.75
 40
2.2849101299
  0
CIRCLE
  5
614
100
AcDbEntity
  8
DRAFT
100
AcDbCircle
 62
7
  6
CONTINUOUS
 10
-33.0
 20
-44.75
 40
2.25
  0
ARC
  5
615
100
AcDbEntity
  8
0
100
AcDbCircle
 62
7
  6
CONTINUOUS
 10
-30.5
 20
-50.9
 40
2.0
100
AcDbArc
 50
90.0
 51
270.0
  0
ARC
  5
616
100
AcDbEntity
  8
0
100
AcDbCircle
 62
7
  6
CONTINUOUS
 10
-28.5
 20
-50.9
 40
2.0
100
AcDbArc
 50
270.0
 51
90.0
  0
CIRCLE
  5
617
100
AcDbEntity
  8
DRAFT
100
AcDbCircle
 62
7
  6
CONTINUOUS
 10
-33.0
 20
-44.75
 40
1.3198202597
  0
CIRCLE
  5
618
100
AcDbEntity
  8
DRAFT
100
AcDbCircle
 62
7
  6
CONTINUOUS
 10
-33.0
 20
-44.75
 40
1.25
  0
CIRCLE
  5
619
100
AcDbEntity
  8
DRAFT
100
AcDbCircle
 62
7
  6
CONTINUOUS
 10
-33.0
 20
-44.75
 40
1.0
  0
CIRCLE
  5
61A
100
AcDbEntity
  8
DRAFT
100
AcDbCircle
 62
7
  6
CONTINUOUS
 10
-33.0
 20
-44.75
 40
0.9520022272
  0
ARC
  5
61B
100
AcDbEntity
  8
0
100
AcDbCircle
 62
7
  6
CONTINUOUS
 10
-7.8947153061
 20
11.207841036
 40
3.5220553542
100
AcDbArc
 50
159.0191965858
 51
163.7921491218
  0
ARC
  5
61C
100
AcDbEntity
  8
0
100
AcDbCircle
 62
7
  6
CONTINUOUS
 10
-15.273766883
 20
11.207841036
 40
3.5220553542
100
AcDbArc
 50
159.0191965858
 51
163.7921491218
  0
ARC
  5
61D
100
AcDbEntity
  8
0
100
AcDbCircle
 62
7
  6
CONTINUOUS
 10
-28.8450295735
 20
11.207841036
 40
3.5220553542
100
AcDbArc
 50
159.0191965858
 51
163.7921491218
  0
ARC
  5
61E
100
AcDbEntity
  8
DRAFT
100
AcDbCircle
 62
7
  6
CONTINUOUS
 10
-33.0
 20
44.75
 40
2.2849101299
100
AcDbArc
 50
129.3901947656
 51
360.0
  0
ARC
  5
61F
100
AcDbEntity
  8
DRAFT
100
AcDbCircle
 62
7
  6
CONTINUOUS
 10
-33.0
 20
44.75
 40
2.25
100
AcDbArc
 50
130.1240345935
 51
360.0
  0
ARC
  5
620
100
AcDbEntity
  8
0
100
AcDbCircle
 62
7
  6
CONTINUOUS
 10
-4.5051983691
 20
13.9407666739
 40
1.9319241343
100
AcDbArc
 50
337.4191892411
 51
347.6454766647
  0
ARC
  5
621
100
AcDbEntity
  8
0
100
AcDbCircle
 62
7
  6
CONTINUOUS
 10
-18.3344698559
 20
13.9407666739
 40
1.9319241343
100
AcDbArc
 50
337.4191892411
 51
347.6454766647
  0
ARC
  5
622
100
AcDbEntity
  8
0
100
AcDbCircle
 62
7
  6
CONTINUOUS
 10
-22.8135025614
 20
13.9407666739
 40
1.9319241343
100
AcDbArc
 50
337.4191892411
 51
347.6454766647
  0
ARC
  5
623
100
AcDbEntity
  8
0
100
AcDbCircle
 62
7
  6
CONTINUOUS
 10
-29.9242249901
 20
13.9407666739
 40
1.9319241343
100
AcDbArc
 50
337.4191892411
 51
347.6454766647
  0
CIRCLE
  5
624
100
AcDbEntity
  8
DRAFT
100
AcDbCircle
 62
7
  6
CONTINUOUS
 10
-33.0
 20
44.75
 40
1.3198202597
  0
CIRCLE
  5
625
100
AcDbEntity
  8
DRAFT
100
AcDbCircle
 62
7
  6
CONTINUOUS
 10
-33.0
 20
44.75
 40
1.25
  0
CIRCLE
  5
626
100
AcDbEntity
  8
DRAFT
100
AcDbCircle
 62
7
  6
CONTINUOUS
 10
-33.0
 20
44.75
 40
1.0
  0
CIRCLE
  5
627
100
AcDbEntity
  8
DRAFT
100
AcDbCircle
 62
7
  6
CONTINUOUS
 10
-33.0
 20
44.75
 40
0.9520022272
  0
ARC
  5
628
100
AcDbEntity
  8
IMPORT_IGES
100
AcDbCircle
 62
7
  6
CONTINUOUS
 10
-2.49989
 20
36.25
 40
0.7
100
AcDbArc
 50
158.3169296178
 51
169.0875838353
  0
ARC
  5
629
100
AcDbEntity
  8
IMPORT_IGES
100
AcDbCircle
 62
7
  6
CONTINUOUS
 10
-2.4998900096
 20
36.300000007
 40
0.699999997
100
AcDbArc
 50
158.3591348071
 51
201.6502167942
  0
ARC
  5
62A
100
AcDbEntity
  8
0
100
AcDbCircle
 62
7
  6
CONTINUOUS
 10
19.706276
 20
-1.83012
 40
5.6074779015
100
AcDbArc
 50
104.6184641724
 51
108.030536234
  0
ARC
  5
62B
100
AcDbEntity
  8
0
100
AcDbCircle
 62
7
  6
CONTINUOUS
 10
19.706276
 20
-1.83012
 40
5.6074766208
100
AcDbArc
 50
66.1507510578
 51
77.0671232762
  0
ARC
  5
62C
100
AcDbEntity
  8
0
100
AcDbCircle
 62
7
  6
CONTINUOUS
 10
19.706276
 20
-1.83012
 40
5.6074765047
100
AcDbArc
 50
109.1821054584
 51
112.6110335093
  0
ARC
  5
62D
100
AcDbEntity
  8
0
100
AcDbCircle
 62
7
  6
CONTINUOUS
 10
19.706276
 20
-1.83012
 40
5.6074761346
100
AcDbArc
 50
91.9102144889
 51
103.4934082927
  0
ARC
  5
62E
100
AcDbEntity
  8
0
100
AcDbCircle
 62
7
  6
CONTINUOUS
 10
19.706276
 20
-1.83012
 40
5.6074759526
100
AcDbArc
 50
78.1844536706
 51
90.8185512484
  0
ARC
  5
62F
100
AcDbEntity
  8
0
100
AcDbCircle
 62
7
  6
CONTINUOUS
 10
19.706276
 20
-1.83012
 40
5.5006686758
100
AcDbArc
 50
91.9473196142
 51
103.7605162941
  0
ARC
  5
630
100
AcDbEntity
  8
0
100
AcDbCircle
 62
7
  6
CONTINUOUS
 10
19.706276
 20
-1.83012
 40
5.5006683841
100
AcDbArc
 50
109.5695983715
 51
111.7987287801
  0
ARC
  5
631
100
AcDbEntity
  8
0
100
AcDbCircle
 62
7
  6
CONTINUOUS
 10
19.706276
 20
-1.83012
 40
5.5006682353
100
AcDbArc
 50
104.9088365842
 51
108.3930555303
  0
ARC
  5
632
100
AcDbEntity
  8
0
100
AcDbCircle
 62
7
  6
CONTINUOUS
 10
19.706276
 20
-1.83012
 40
5.5006672221
100
AcDbArc
 50
66.0805511142
 51
76.8115132283
  0
ARC
  5
633
100
AcDbEntity
  8
0
100
AcDbCircle
 62
7
  6
CONTINUOUS
 10
19.706276
 20
-1.83012
 40
5.5006664386
100
AcDbArc
 50
77.9516164098
 51
90.8344466285
  0
ARC
  5
634
100
AcDbEntity
  8
DRAFT
100
AcDbCircle
 62
7
  6
CONTINUOUS
 10
33.0
 20
-44.75
 40
2.2849101299
100
AcDbArc
 50
309.3901947656
 51
180.0
  0
ARC
  5
635
100
AcDbEntity
  8
DRAFT
100
AcDbCircle
 62
7
  6
CONTINUOUS
 10
33.0
 20
-44.75
 40
2.25
100
AcDbArc
 50
310.1240345935
 51
180.0
  0
CIRCLE
  5
636
100
AcDbEntity
  8
DRAFT
100
AcDbCircle
 62
7
  6
CONTINUOUS
 10
33.0
 20
-44.75
 40
1.3198202597
  0
CIRCLE
  5
637
100
AcDbEntity
  8
DRAFT
100
AcDbCircle
 62
7
  6
CONTINUOUS
 10
33.0
 20
-44.75
 40
1.25
  0
CIRCLE
  5
638
100
AcDbEntity
  8
DRAFT
100
AcDbCircle
 62
7
  6
CONTINUOUS
 10
33.0
 20
-44.75
 40
1.0
  0
CIRCLE
  5
639
100
AcDbEntity
  8
DRAFT
100
AcDbCircle
 62
7
  6
CONTINUOUS
 10
33.0
 20
-44.75
 40
0.9520022272
  0
ARC
  5
63A
100
AcDbEntity
  8
0
100
AcDbCircle
 62
7
  6
CONTINUOUS
 10
21.602136
 20
-4.607156
 40
0.9345803565
100
AcDbArc
 50
85.000002777
 51
176.7242074107
  0
ARC
  5
63B
100
AcDbEntity
  8
0
100
AcDbCircle
 62
7
  6
CONTINUOUS
 10
21.602136
 20
-4.607156
 40
0.9345790614
100
AcDbArc
 50
183.2757971638
 51
78.4375028389
  0
CIRCLE
  5
63C
100
AcDbEntity
  8
0
100
AcDbCircle
 62
7
  6
CONTINUOUS
 10
21.602136
 20
-4.607156
 40
0.534046
  0
CIRCLE
  5
63D
100
AcDbEntity
  8
0
100
AcDbCircle
 62
7
  6
CONTINUOUS
 10
21.602136
 20
-4.607156
 40
0.320428
  0
ARC
  5
63E
100
AcDbEntity
  8
0
100
AcDbCircle
 62
7
  6
CONTINUOUS
 10
28.3606807636
 20
11.207841036
 40
3.5220553542
100
AcDbArc
 50
159.0191965858
 51
163.7921491218
  0
CIRCLE
  5
63F
100
AcDbEntity
  8
DRAFT
100
AcDbCircle
 62
7
  6
CONTINUOUS
 10
33.0
 20
44.75
 40
2.2849101299
  0
CIRCLE
  5
640
100
AcDbEntity
  8
DRAFT
100
AcDbCircle
 62
7
  6
CONTINUOUS
 10
33.0
 20
44.75
 40
2.25
  0
ARC
  5
641
100
AcDbEntity
  8
0
100
AcDbCircle
 62
7
  6
CONTINUOUS
 10
28.5
 20
50.9
 40
2.0
100
AcDbArc
 50
90.0
 51
270.0
  0
ARC
  5
642
100
AcDbEntity
  8
0
100
AcDbCircle
 62
7
  6
CONTINUOUS
 10
30.5
 20
50.9
 40
2.0
100
AcDbArc
 50
270.0
 51
90.0
  0
ARC
  5
643
100
AcDbEntity
  8
0
100
AcDbCircle
 62
7
  6
CONTINUOUS
 10
28.065832088
 20
13.9407666739
 40
1.9319241343
100
AcDbArc
 50
337.4191892411
 51
347.6454766647
  0
ARC
  5
644
100
AcDbEntity
  8
0
100
AcDbCircle
 62
7
  6
CONTINUOUS
 10
20.8209450852
 20
13.9407666739
 40
1.9319241343
100
AcDbArc
 50
337.4191892411
 51
347.6454766647
  0
ARC
  5
645
100
AcDbEntity
  8
0
100
AcDbCircle
 62
7
  6
CONTINUOUS
 10
10.2838658404
 20
13.9407666739
 40
1.9319241343
100
AcDbArc
 50
337.4191892411
 51
347.6454766647
  0
CIRCLE
  5
646
100
AcDbEntity
  8
DRAFT
100
AcDbCircle
 62
7
  6
CONTINUOUS
 10
33.0
 20
44.75
 40
1.3198202597
  0
CIRCLE
  5
647
100
AcDbEntity
  8
DRAFT
100
AcDbCircle
 62
7
  6
CONTINUOUS
 10
33.0
 20
44.75
 40
1.25
  0
CIRCLE
  5
648
100
AcDbEntity
  8
DRAFT
100
AcDbCircle
 62
7
  6
CONTINUOUS
 10
33.0
 20
44.75
 40
1.0
  0
CIRCLE
  5
649
100
AcDbEntity
  8
DRAFT
100
AcDbCircle
 62
7
  6
CONTINUOUS
 10
33.0
 20
44.75
 40
0.9520022272
  0
ARC
  5
64A
100
AcDbEntity
  8
0
100
AcDbCircle
 62
7
  6
CONTINUOUS
 10
22.403204
 20
3.083098
 40
0.4806413166
100
AcDbArc
 50
303.7488518717
 51
153.3682031715
  0
ARC
  5
64B
100
AcDbEntity
  8
0
100
AcDbCircle
 62
7
  6
CONTINUOUS
 10
22.403204
 20
3.083098
 40
0.4806403194
100
AcDbArc
 50
166.1529569329
 51
192.8397156584
  0
LINE
  5
64C
100
AcDbEntity
  8
0
100
AcDbLine
 62
7
  6
CONTINUOUS
 10
33.380180621
 20
13.7028580562
 11
32.8672269294
 21
12.909319769
  0
SPLINE
  5
64D
100
AcDbEntity
  8
0
100
AcDbSpline
 62
7
  6
CONTINUOUS
 70
0
 71
3
 72
8
 73
4
 74
0
 42
0.0000001
 43
0.0000001
 44
0.0000000001
 40
0.0
 40
0.0
 40
0.0
 40
0.0
 40
1.0
 40
1.0
 40
1.0
 40
1.0
 10
32.8672269294
 20
12.909319769
 30
0.0
 10
32.8158017724
 20
13.0043371047
 30
0.0
 10
32.7571913559
 20
13.0956314078
 30
0.0
 10
32.6940384018
 20
13.1832929458
 30
0.0
  0
SPLINE
  5
64E
100
AcDbEntity
  8
0
100
AcDbSpline
 62
7
  6
CONTINUOUS
 70
0
 71
3
 72
12
 73
8
 74
0
 42
0.0000001
 43
0.0000001
 44
0.0000000001
 40
0.0
 40
0.0
 40
0.0
 40
0.0
 40
0.1914546415
 40
0.4289323167
 40
0.5716992375
 40
0.7144661583
 40
1.0
 40
1.0
 40
1.0
 40
1.0
 10
29.9530175151
 20
13.5274120747
 30
0.0
 10
29.9687699898
 20
13.4734995536
 30
0.0
 10
30.007700156
 20
13.3538104281
 30
0.0
 10
30.0626062268
 20
13.195280135
 30
0.0
 10
30.1196574565
 20
13.0528260142
 30
0.0
 10
30.1804789736
 20
12.8967270475
 30
0.0
 10
30.2264262628
 20
12.7797778443
 30
0.0
 10
30.2569841997
 20
12.7017839262
 30
0.0
  0
SPLINE
  5
64F
100
AcDbEntity
  8
0
100
AcDbSpline
 62
7
  6
CONTINUOUS
 70
0
 71
3
 72
8
 73
4
 74
0
 42
0.0000001
 43
0.0000001
 44
0.0000000001
 40
0.0
 40
0.0
 40
0.0
 40
0.0
 40
1.0
 40
1.0
 40
1.0
 40
1.0
 10
24.9786079205
 20
12.1909265881
 30
0.0
 10
24.9526227964
 20
12.2847291433
 30
0.0
 10
24.9222557962
 20
12.3773546209
 30
0.0
 10
24.8892724289
 20
12.4689310563
 30
0.0
  0
SPLINE
  5
650
100
AcDbEntity
  8
0
100
AcDbSpline
 62
7
  6
CONTINUOUS
 70
0
 71
3
 72
12
 73
8
 74
0
 42
0.0000001
 43
0.0000001
 44
0.0000000001
 40
0.0
 40
0.0
 40
0.0
 40
0.0
 40
0.1914546415
 40
0.4289323167
 40
0.5716992375
 40
0.7144661583
 40
1.0
 40
1.0
 40
1.0
 40
1.0
 10
22.7081305122
 20
13.5274120747
 30
0.0
 10
22.723882987
 20
13.4734995536
 30
0.0
 10
22.7628131532
 20
13.3538104281
 30
0.0
 10
22.817719224
 20
13.195280135
 30
0.0
 10
22.8747704536
 20
13.0528260142
 30
0.0
 10
22.9355919708
 20
12.8967270475
 30
0.0
 10
22.9815392599
 20
12.7797778443
 30
0.0
 10
23.0120971969
 20
12.7017839262
 30
0.0
  0
SPLINE
  5
651
100
AcDbEntity
  8
0
100
AcDbSpline
 62
7
  6
CONTINUOUS
 70
0
 71
3
 72
17
 73
13
 74
0
 42
0.0000001
 43
0.0000001
 44
0.0000000001
 40
0.0
 40
0.0
 40
0.0
 40
0.0
 40
0.188120604
 40
0.2735438531
 40
0.3176588673
 40
0.3643730824
 40
0.5178315861
 40
0.5961564737
 40
0.6791493087
 40
0.7717453768
 40
0.8754137835
 40
1.0
 40
1.0
 40
1.0
 40
1.0
 10
21.6193333127
 20
12.5976130174
 30
0.0
 10
21.5931828862
 20
12.4772664977
 30
0.0
 10
21.5089759304
 20
12.2983028644
 30
0.0
 10
21.3214740874
 20
12.1961077643
 30
0.0
 10
21.2087770346
 20
12.1693148489
 30
0.0
 10
21.0490257276
 20
12.1575897925
 30
0.0
 10
20.8619009989
 20
12.2058517467
 30
0.0
 10
20.7019365569
 20
12.3416849924
 30
0.0
 10
20.6210855834
 20
12.4903782932
 30
0.0
 10
20.5757994377
 20
12.6686910356
 30
0.0
 10
20.5602426785
 20
12.8786717055
 30
0.0
 10
20.5753562906
 20
13.0295803703
 30
0.0
 10
20.5947865885
 20
13.1090893865
 30
0.0
  0
SPLINE
  5
652
100
AcDbEntity
  8
0
100
AcDbSpline
 62
7
  6
CONTINUOUS
 70
0
 71
3
 72
9
 73
5
 74
0
 42
0.0000001
 43
0.0000001
 44
0.0000000001
 40
0.0
 40
0.0
 40
0.0
 40
0.0
 40
0.4786249203
 40
1.0
 40
1.0
 40
1.0
 40
1.0
 10
21.1275040987
 20
13.5377324265
 30
0.0
 10
21.2251711276
 20
13.5377324265
 30
0.0
 10
21.444240845
 20
13.4843722469
 30
0.0
 10
21.5460270739
 20
13.2844265942
 30
0.0
 10
21.5780519053
 20
13.1829704299
 30
0.0
  0
SPLINE
  5
653
100
AcDbEntity
  8
0
100
AcDbSpline
 62
7
  6
CONTINUOUS
 70
0
 71
3
 72
24
 73
20
 74
0
 42
0.0000001
 43
0.0000001
 44
0.0000000001
 40
0.0
 40
0.0
 40
0.0
 40
0.0
 40
0.1687487347
 40
0.2518691597
 40
0.2957520897
 40
0.3425908566
 40
0.3846805941
 40
0.4255807727
 40
0.4659466652
 40
0.5064594779
 40
0.5863058399
 40
0.6680835282
 40
0.7557269759
 40
0.8025545509
 40
0.8521511709
 40
0.898353344
 40
0.9434652361
 40
0.9879339646
 40
1.0
 40
1.0
 40
1.0
 40
1.0
 10
21.8050996461
 20
13.235217221
 30
0.0
 10
21.7646536379
 20
13.3761074739
 30
0.0
 10
21.6405069105
 20
13.5809181068
 30
0.0
 10
21.4052737141
 20
13.6971392045
 30
0.0
 10
21.2571444005
 20
13.7289158319
 30
0.0
 10
21.1416125373
 20
13.7361109097
 30
0.0
 10
21.0287834937
 20
13.729729611
 30
0.0
 10
20.9230809679
 20
13.7104206211
 30
0.0
 10
20.8221034476
 20
13.6778791217
 30
0.0
 10
20.6954418238
 20
13.6184917091
 30
0.0
 10
20.5532113643
 20
13.5104732234
 30
0.0
 10
20.4291064271
 20
13.3291397918
 30
0.0
 10
20.3677230835
 20
13.1493804839
 30
0.0
 10
20.3434723171
 20
12.9910880023
 30
0.0
 10
20.3377053285
 20
12.8671109453
 30
0.0
 10
20.3432116768
 20
12.7446690495
 30
0.0
 10
20.3600721322
 20
12.6277299104
 30
0.0
 10
20.3816117876
 20
12.5419351172
 30
0.0
 10
20.3965599653
 20
12.4951468818
 30
0.0
 10
20.3998921193
 20
12.4852083959
 30
0.0
  0
SPLINE
  5
654
100
AcDbEntity
  8
0
100
AcDbSpline
 62
7
  6
CONTINUOUS
 70
0
 71
3
 72
11
 73
7
 74
0
 42
0.0000001
 43
0.0000001
 44
0.0000000001
 40
0.0
 40
0.0
 40
0.0
 40
0.0
 40
0.2525992429
 40
0.4888102636
 40
0.730558892
 40
1.0
 40
1.0
 40
1.0
 40
1.0
 10
21.1407270938
 20
11.9690389444
 30
0.0
 10
21.2235419663
 20
11.9690389444
 30
0.0
 10
21.3856596488
 20
11.9900061667
 30
0.0
 10
21.6020164499
 20
12.1049286495
 30
0.0
 10
21.764572654
 20
12.2954972425
 30
0.0
 10
21.8245953499
 20
12.4550818081
 30
0.0
 10
21.8463810535
 20
12.5406897455
 30
0.0
  0
SPLINE
  5
655
100
AcDbEntity
  8
0
100
AcDbSpline
 62
7
  6
CONTINUOUS
 70
0
 71
3
 72
9
 73
5
 74
0
 42
0.0000001
 43
0.0000001
 44
0.0000000001
 40
0.0
 40
0.0
 40
0.0
 40
0.0
 40
0.3500357027
 40
1.0
 40
1.0
 40
1.0
 40
1.0
 10
17.2877688055
 20
12.783459901
 30
0.0
 10
17.3224980677
 20
12.7748113216
 30
0.0
 10
17.4213183849
 20
12.7490000072
 30
0.0
 10
17.5211545305
 20
12.7245485811
 30
0.0
 10
17.5827858309
 20
12.6996877302
 30
0.0
  0
SPLINE
  5
656
100
AcDbEntity
  8
0
100
AcDbSpline
 62
7
  6
CONTINUOUS
 70
0
 71
3
 72
16
 73
12
 74
0
 42
0.0000001
 43
0.0000001
 44
0.0000000001
 40
0.0
 40
0.0
 40
0.0
 40
0.0
 40
0.1559909888
 40
0.2192678892
 40
0.2859020836
 40
0.4220584258
 40
0.5795857181
 40
0.674079367
 40
0.7781612252
 40
0.8965933076
 40
1.0
 40
1.0
 40
1.0
 40
1.0
 10
17.5827858309
 20
12.6996877302
 30
0.0
 10
17.6376466636
 20
12.6779985677
 30
0.0
 10
17.7168114221
 20
12.6342804024
 30
0.0
 10
17.7634428095
 20
12.5339661365
 30
0.0
 10
17.7771947094
 20
12.4333242701
 30
0.0
 10
17.7339523085
 20
12.2936659412
 30
0.0
 10
17.6047242408
 20
12.2061885798
 30
0.0
 10
17.4745593916
 20
12.1708130331
 30
0.0
 10
17.3543242363
 20
12.1617158689
 30
0.0
 10
17.2307243853
 20
12.1724327599
 30
0.0
 10
17.1501110464
 20
12.1977600003
 30
0.0
 10
17.1141419325
 20
12.2134259569
 30
0.0
  0
SPLINE
  5
657
100
AcDbEntity
  8
0
100
AcDbSpline
 62
7
  6
CONTINUOUS
 70
0
 71
3
 72
12
 73
8
 74
0
 42
0.0000001
 43
0.0000001
 44
0.0000000001
 40
0.0
 40
0.0
 40
0.0
 40
0.0
 40
0.1606441131
 40
0.3160528741
 40
0.4695579901
 40
0.6257786262
 40
1.0
 40
1.0
 40
1.0
 40
1.0
 10
16.65524407
 20
12.5572990002
 30
0.0
 10
16.6567390631
 20
12.5015727011
 30
0.0
 10
16.672715045
 20
12.3915263333
 30
0.0
 10
16.7409769034
 20
12.241307629
 30
0.0
 10
16.8475704034
 20
12.1168203238
 30
0.0
 10
17.0531316675
 20
11.9912874535
 30
0.0
 10
17.2439372301
 20
11.9690389444
 30
0.0
 10
17.3737986664
 20
11.9690389444
 30
0.0
  0
SPLINE
  5
658
100
AcDbEntity
  8
0
100
AcDbSpline
 62
7
  6
CONTINUOUS
 70
0
 71
3
 72
14
 73
10
 74
0
 42
0.0000001
 43
0.0000001
 44
0.0000000001
 40
0.0
 40
0.0
 40
0.0
 40
0.0
 40
0.2324140172
 40
0.3379986706
 40
0.4377481205
 40
0.6253413849
 40
0.7167588502
 40
0.8043408137
 40
1.0
 40
1.0
 40
1.0
 40
1.0
 10
17.3737986664
 20
11.9690389444
 30
0.0
 10
17.4843237872
 20
11.9690389444
 30
0.0
 10
17.6491070153
 20
11.9985466825
 30
0.0
 10
17.8286306623
 20
12.1086935722
 30
0.0
 10
17.9538478614
 20
12.2505678957
 30
0.0
 10
18.0093187554
 20
12.4337806866
 30
0.0
 10
17.985943989
 20
12.6085213535
 30
0.0
 10
17.9104819635
 20
12.7733782632
 30
0.0
 10
17.7924662035
 20
12.8565726209
 30
0.0
 10
17.7080812173
 20
12.8957744155
 30
0.0
  0
SPLINE
  5
659
100
AcDbEntity
  8
0
100
AcDbSpline
 62
7
  6
CONTINUOUS
 70
0
 71
3
 72
9
 73
5
 74
0
 42
0.0000001
 43
0.0000001
 44
0.0000000001
 40
0.0
 40
0.0
 40
0.0
 40
0.0
 40
0.1708537376
 40
1.0
 40
1.0
 40
1.0
 40
1.0
 10
17.7080812173
 20
12.8957744155
 30
0.0
 10
17.6881395562
 20
12.9048905901
 30
0.0
 10
17.5679674264
 20
12.9504620251
 30
0.0
 10
17.4428033338
 20
12.9806317498
 30
0.0
 10
17.3392093068
 20
13.004944321
 30
0.0
  0
SPLINE
  5
65A
100
AcDbEntity
  8
0
100
AcDbSpline
 62
7
  6
CONTINUOUS
 70
0
 71
3
 72
9
 73
5
 74
0
 42
0.0000001
 43
0.0000001
 44
0.0000000001
 40
0.0
 40
0.0
 40
0.0
 40
0.0
 40
0.6350560901
 40
1.0
 40
1.0
 40
1.0
 40
1.0
 10
17.3392093068
 20
13.004944321
 30
0.0
 10
17.2662008848
 20
13.0220787303
 30
0.0
 10
17.1539384906
 20
13.052929192
 30
0.0
 10
17.0400159864
 20
13.0978754551
 30
0.0
 10
17.0087161605
 20
13.1274984796
 30
0.0
  0
SPLINE
  5
65B
100
AcDbEntity
  8
0
100
AcDbSpline
 62
7
  6
CONTINUOUS
 70
0
 71
3
 72
13
 73
9
 74
0
 42
0.0000001
 43
0.0000001
 44
0.0000000001
 40
0.0
 40
0.0
 40
0.0
 40
0.0
 40
0.1223010007
 40
0.2481832321
 40
0.3968182834
 40
0.5546662969
 40
0.7464665216
 40
1.0
 40
1.0
 40
1.0
 40
1.0
 10
17.0087161605
 20
13.1274984796
 30
0.0
 10
16.9883189103
 20
13.1464169075
 30
0.0
 10
16.9538853127
 20
13.1938373593
 30
0.0
 10
16.9380538437
 20
13.285162521
 30
0.0
 10
16.9601450441
 20
13.3843598638
 30
0.0
 10
17.035904629
 20
13.4744065227
 30
0.0
 10
17.1650226071
 20
13.5312069636
 30
0.0
 10
17.2674278066
 20
13.5377324265
 30
0.0
 10
17.3250995504
 20
13.5377324265
 30
0.0
  0
SPLINE
  5
65C
100
AcDbEntity
  8
0
100
AcDbSpline
 62
7
  6
CONTINUOUS
 70
0
 71
3
 72
9
 73
5
 74
0
 42
0.0000001
 43
0.0000001
 44
0.0000000001
 40
0.0
 40
0.0
 40
0.0
 40
0.0
 40
0.5306823676
 40
1.0
 40
1.0
 40
1.0
 40
1.0
 10
17.3250995504
 20
13.5377324265
 30
0.0
 10
17.425046028
 20
13.5377324265
 30
0.0
 10
17.6377543449
 20
13.5065738689
 30
0.0
 10
17.7191537987
 20
13.3056888314
 30
0.0
 10
17.7285606631
 20
13.217801519
 30
0.0
  0
SPLINE
  5
65D
100
AcDbEntity
  8
0
100
AcDbSpline
 62
7
  6
CONTINUOUS
 70
0
 71
3
 72
19
 73
15
 74
0
 42
0.0000001
 43
0.0000001
 44
0.0000000001
 40
0.0
 40
0.0
 40
0.0
 40
0.0
 40
0.1543381976
 40
0.2316852979
 40
0.3135124509
 40
0.4030904341
 40
0.4511122273
 40
0.5018427828
 40
0.592716338
 40
0.6780805119
 40
0.7570416494
 40
0.8309061667
 40
0.9705334111
 40
1.0
 40
1.0
 40
1.0
 40
1.0
 10
17.9556084039
 20
13.2281218708
 30
0.0
 10
17.9519814503
 20
13.3212148263
 30
0.0
 10
17.9098901061
 20
13.4643480614
 30
0.0
 10
17.7802832717
 20
13.605968933
 30
0.0
 10
17.6477155852
 20
13.6808675703
 30
0.0
 10
17.5192114212
 20
13.7169027323
 30
0.0
 10
17.406336242
 20
13.7314699343
 30
0.0
 10
17.2918648309
 20
13.7361429287
 30
0.0
 10
17.1544908143
 20
13.7250697853
 30
0.0
 10
17.005458416
 20
13.6823632418
 30
0.0
 10
16.8779575578
 20
13.6115301725
 30
0.0
 10
16.7574431481
 20
13.4790501934
 30
0.0
 10
16.7120162595
 20
13.3293920537
 30
0.0
 10
16.7181611127
 20
13.2268400063
 30
0.0
 10
16.7204056914
 20
13.2091455399
 30
0.0
  0
SPLINE
  5
65E
100
AcDbEntity
  8
0
100
AcDbSpline
 62
7
  6
CONTINUOUS
 70
0
 71
3
 72
9
 73
5
 74
0
 42
0.0000001
 43
0.0000001
 44
0.0000000001
 40
0.0
 40
0.0
 40
0.0
 40
0.0
 40
0.1806469784
 40
1.0
 40
1.0
 40
1.0
 40
1.0
 10
16.9635647195
 20
12.8904529029
 30
0.0
 10
16.981806746
 20
12.8809179881
 30
0.0
 10
17.0864343524
 20
12.8352654405
 30
0.0
 10
17.1971752913
 20
12.8060202768
 30
0.0
 10
17.2877688055
 20
12.783459901
 30
0.0
  0
SPLINE
  5
65F
100
AcDbEntity
  8
0
100
AcDbSpline
 62
7
  6
CONTINUOUS
 70
0
 71
3
 72
17
 73
13
 74
0
 42
0.0000001
 43
0.0000001
 44
0.0000000001
 40
0.0
 40
0.0
 40
0.0
 40
0.0
 40
0.2460836248
 40
0.3488272006
 40
0.4008361773
 40
0.4556648225
 40
0.540858721
 40
0.6244209655
 40
0.704882247
 40
0.7821673896
 40
0.8752909099
 40
1.0
 40
1.0
 40
1.0
 40
1.0
 10
14.0541930439
 20
12.7740263892
 30
0.0
 10
14.183670595
 20
12.7920070206
 30
0.0
 10
14.3798730153
 20
12.8567698513
 30
0.0
 10
14.4958169939
 20
13.0437613751
 30
0.0
 10
14.5248340959
 20
13.1517552191
 30
0.0
 10
14.532811113
 20
13.2539074375
 30
0.0
 10
14.5181655218
 20
13.3732910825
 30
0.0
 10
14.4650825877
 20
13.4962971694
 30
0.0
 10
14.383547652
 20
13.5979988309
 30
0.0
 10
14.2663423925
 20
13.6673491818
 30
0.0
 10
14.1108171975
 20
13.697819082
 30
0.0
 10
13.9951432011
 20
13.7028580562
 30
0.0
 10
13.9288975
 20
13.7028580562
 30
0.0
  0
SPLINE
  5
660
100
AcDbEntity
  8
0
100
AcDbSpline
 62
7
  6
CONTINUOUS
 70
0
 71
3
 72
14
 73
10
 74
0
 42
0.0000001
 43
0.0000001
 44
0.0000000001
 40
0.0
 40
0.0
 40
0.0
 40
0.0
 40
0.1089885614
 40
0.1829254059
 40
0.2624764842
 40
0.3465277994
 40
0.4482203747
 40
0.5822701297
 40
1.0
 40
1.0
 40
1.0
 40
1.0
 10
13.6631483216
 20
12.7533856855
 30
0.0
 10
13.6878829404
 20
12.7533856855
 30
0.0
 10
13.7293223168
 20
12.7525130586
 30
0.0
 10
13.7890378167
 20
12.7474794618
 30
0.0
 10
13.8401088444
 20
12.7288988163
 30
0.0
 10
13.8938107444
 20
12.7011447739
 30
0.0
 10
13.9493647355
 20
12.6534788864
 30
0.0
 10
14.0444085829
 20
12.5393180301
 30
0.0
 10
14.1124802015
 20
12.4338434426
 30
0.0
 10
14.1635242074
 20
12.3539558643
 30
0.0
  0
SPLINE
  5
661
100
AcDbEntity
  8
0
100
AcDbSpline
 62
7
  6
CONTINUOUS
 70
0
 71
3
 72
12
 73
8
 74
0
 42
0.0000001
 43
0.0000001
 44
0.0000000001
 40
0.0
 40
0.0
 40
0.0
 40
0.0
 40
0.3274191609
 40
0.4911287414
 40
0.6548383219
 40
0.8345406322
 40
1.0
 40
1.0
 40
1.0
 40
1.0
 10
14.6534183259
 20
12.0
 30
0.0
 10
14.6052029313
 20
12.0771607782
 30
0.0
 10
14.5331297454
 20
12.1930621168
 30
0.0
 10
14.4360325399
 20
12.3469565499
 30
0.0
 10
14.3634187263
 20
12.4677897173
 30
0.0
 10
14.2802342559
 20
12.5824253869
 30
0.0
 10
14.2163329654
 20
12.6542537224
 30
0.0
 10
14.1836811373
 20
12.6866259931
 30
0.0
  0
SPLINE
  5
662
100
AcDbEntity
  8
0
100
AcDbSpline
 62
7
  6
CONTINUOUS
 70
0
 71
3
 72
9
 73
5
 74
0
 42
0.0000001
 43
0.0000001
 44
0.0000000001
 40
0.0
 40
0.0
 40
0.0
 40
0.0
 40
0.209446698
 40
1.0
 40
1.0
 40
1.0
 40
1.0
 10
14.1836811373
 20
12.6866259931
 30
0.0
 10
14.1758533038
 20
12.6942538425
 30
0.0
 10
14.136286237
 20
12.7284238897
 30
0.0
 10
14.0907966554
 20
12.7549980685
 30
0.0
 10
14.0541930439
 20
12.7740263892
 30
0.0
  0
SPLINE
  5
663
100
AcDbEntity
  8
0
100
AcDbSpline
 62
7
  6
CONTINUOUS
 70
0
 71
3
 72
9
 73
5
 74
0
 42
0.0000001
 43
0.0000001
 44
0.0000000001
 40
0.0
 40
0.0
 40
0.0
 40
0.0
 40
0.7911658617
 40
1.0
 40
1.0
 40
1.0
 40
1.0
 10
15.0349488287
 20
12.8259506644
 30
0.0
 10
15.0349488287
 20
12.9800459451
 30
0.0
 10
15.0576425403
 20
13.1888519908
 30
0.0
 10
15.1783133301
 20
13.3456533907
 30
0.0
 10
15.2078147616
 20
13.3736549736
 30
0.0
  0
SPLINE
  5
664
100
AcDbEntity
  8
0
100
AcDbSpline
 62
7
  6
CONTINUOUS
 70
0
 71
3
 72
22
 73
18
 74
0
 42
0.0000001
 43
0.0000001
 44
0.0000000001
 40
0.0
 40
0.0
 40
0.0
 40
0.0
 40
0.1081298759
 40
0.1615346473
 40
0.217080687
 40
0.2945607721
 40
0.3699060589
 40
0.4451944316
 40
0.522906274
 40
0.6071289573
 40
0.6524814421
 40
0.7005967246
 40
0.7747894701
 40
0.8415253269
 40
0.902820447
 40
0.9612568651
 40
1.0
 40
1.0
 40
1.0
 40
1.0
 10
15.2078147616
 20
13.3736549736
 30
0.0
 10
15.2624536122
 20
13.4255159925
 30
0.0
 10
15.3591356841
 20
13.4899766311
 30
0.0
 10
15.5055008227
 20
13.531311015
 30
0.0
 10
15.635537321
 20
13.5424122306
 30
0.0
 10
15.7814900216
 20
13.5245104835
 30
0.0
 10
15.9287905757
 20
13.4590327024
 30
0.0
 10
16.0515767751
 20
13.3540597462
 30
0.0
 10
16.1393858372
 20
13.2113016248
 30
0.0
 10
16.181568277
 20
13.0717793238
 30
0.0
 10
16.1984907831
 20
12.9489876515
 30
0.0
 10
16.2031948996
 20
12.8321416723
 30
0.0
 10
16.1953691135
 20
12.7002405961
 30
0.0
 10
16.1652166239
 20
12.5619287003
 30
0.0
 10
16.113627016
 20
12.4416255446
 30
0.0
 10
16.0478440682
 20
12.3518166364
 30
0.0
 10
15.9985353223
 20
12.3049833897
 30
0.0
 10
15.9776176054
 20
12.2878499218
 30
0.0
  0
SPLINE
  5
665
100
AcDbEntity
  8
0
100
AcDbSpline
 62
7
  6
CONTINUOUS
 70
0
 71
3
 72
14
 73
10
 74
0
 42
0.0000001
 43
0.0000001
 44
0.0000000001
 40
0.0
 40
0.0
 40
0.0
 40
0.0
 40
0.2665979089
 40
0.368288704
 40
0.4714152591
 40
0.6179308633
 40
0.694077139
 40
0.7749435498
 40
1.0
 40
1.0
 40
1.0
 40
1.0
 10
13.9380890462
 20
13.506771371
 30
0.0
 10
14.0337798222
 20
13.506771371
 30
0.0
 10
14.182669678
 20
13.4859172
 30
0.0
 10
14.288499004
 20
13.3448845488
 30
0.0
 10
14.3126532905
 20
13.2177569991
 30
0.0
 10
14.2779527777
 20
13.0985348925
 30
0.0
 10
14.2026578696
 20
13.0170606193
 30
0.0
 10
14.0781531745
 20
12.9541371098
 30
0.0
 10
13.9646873369
 20
12.9494723707
 30
0.0
 10
13.8839071596
 20
12.9494723707
 30
0.0
  0
SPLINE
  5
666
100
AcDbEntity
  8
0
100
AcDbSpline
 62
7
  6
CONTINUOUS
 70
0
 71
3
 72
12
 73
8
 74
0
 42
0.0000001
 43
0.0000001
 44
0.0000000001
 40
0.0
 40
0.0
 40
0.0
 40
0.0
 40
0.1914546415
 40
0.4289323167
 40
0.5716992375
 40
0.7144661583
 40
1.0
 40
1.0
 40
1.0
 40
1.0
 10
12.1710512674
 20
13.5274120747
 30
0.0
 10
12.1868037422
 20
13.4734995536
 30
0.0
 10
12.2257339084
 20
13.3538104281
 30
0.0
 10
12.2806399791
 20
13.195280135
 30
0.0
 10
12.3376912088
 20
13.0528260142
 30
0.0
 10
12.398512726
 20
12.8967270475
 30
0.0
 10
12.4444600151
 20
12.7797778443
 30
0.0
 10
12.475017952
 20
12.7017839262
 30
0.0
  0
SPLINE
  5
667
100
AcDbEntity
  8
0
100
AcDbSpline
 62
7
  6
CONTINUOUS
 70
0
 71
3
 72
9
 73
5
 74
0
 42
0.0000001
 43
0.0000001
 44
0.0000000001
 40
0.0
 40
0.0
 40
0.0
 40
0.0
 40
0.3106214921
 40
1.0
 40
1.0
 40
1.0
 40
1.0
 10
10.5101196505
 20
12.5206940736
 30
0.0
 10
10.5001774376
 20
12.4925833508
 30
0.0
 10
10.4683539883
 20
12.4020224
 30
0.0
 10
10.436958437
 20
12.3112959595
 30
0.0
 10
10.4165914519
 20
12.2483334764
 30
0.0
  0
SPLINE
  5
668
100
AcDbEntity
  8
0
100
AcDbSpline
 62
7
  6
CONTINUOUS
 70
0
 71
3
 72
9
 73
5
 74
0
 42
0.0000001
 43
0.0000001
 44
0.0000000001
 40
0.0
 40
0.0
 40
0.0
 40
0.0
 40
0.1862683768
 40
1.0
 40
1.0
 40
1.0
 40
1.0
 10
10.4165914519
 20
12.2483334764
 30
0.0
 10
10.4117682686
 20
12.2640163614
 30
0.0
 10
10.3853552363
 20
12.3480513779
 30
0.0
 10
10.3577459649
 20
12.4317040167
 30
0.0
 10
10.3351574428
 20
12.499730854
 30
0.0
  0
SPLINE
  5
669
100
AcDbEntity
  8
0
100
AcDbSpline
 62
7
  6
CONTINUOUS
 70
0
 71
3
 72
23
 73
19
 74
0
 42
0.0000001
 43
0.0000001
 44
0.0000000001
 40
0.0
 40
0.0
 40
0.0
 40
0.0
 40
0.1131442974
 40
0.2224261488
 40
0.278293043
 40
0.3340032058
 40
0.3916539933
 40
0.4531445052
 40
0.5213279899
 40
0.5853433225
 40
0.6475398075
 40
0.7104707811
 40
0.7724610212
 40
0.8317288719
 40
0.8908879957
 40
0.9525658784
 40
0.9979009156
 40
1.0
 40
1.0
 40
1.0
 40
1.0
 10
7.5423733813
 20
12.4437751298
 30
0.0
 10
7.5489180015
 20
12.3781276008
 30
0.0
 10
7.5819095855
 20
12.2490747861
 30
0.0
 10
7.6842161465
 20
12.1174712674
 30
0.0
 10
7.788365568
 20
12.0406895388
 30
0.0
 10
7.8784096641
 20
11.9986939609
 30
0.0
 10
7.9779125669
 20
11.9739564773
 30
0.0
 10
8.0872882152
 20
11.9662803986
 30
0.0
 10
8.2004154596
 20
11.974845794
 30
0.0
 10
8.3107005244
 20
12.0039470859
 30
0.0
 10
8.4102036489
 20
12.0533596098
 30
0.0
 10
8.4963187947
 20
12.1214655929
 30
0.0
 10
8.5675730424
 20
12.2026782157
 30
0.0
 10
8.6197956733
 20
12.2949298092
 30
0.0
 10
8.6507233347
 20
12.3961481589
 30
0.0
 10
8.659300792
 20
12.4932702463
 30
0.0
 10
8.6551938219
 20
12.556958684
 30
0.0
 10
8.6511007222
 20
12.5843287025
 30
0.0
 10
8.6509150323
 20
12.5855392306
 30
0.0
  0
SPLINE
  5
66A
100
AcDbEntity
  8
0
100
AcDbSpline
 62
7
  6
CONTINUOUS
 70
0
 71
3
 72
17
 73
13
 74
0
 42
0.0000001
 43
0.0000001
 44
0.0000000001
 40
0.0
 40
0.0
 40
0.0
 40
0.0
 40
0.1590642081
 40
0.3063151579
 40
0.4665910561
 40
0.5503046233
 40
0.6376676072
 40
0.7285367308
 40
0.8219968636
 40
0.8894628744
 40
0.9528542452
 40
1.0
 40
1.0
 40
1.0
 40
1.0
 10
8.3299452815
 20
12.9225427641
 30
0.0
 10
8.3986278778
 20
12.9543526541
 30
0.0
 10
8.5225205976
 20
13.0489006129
 30
0.0
 10
8.5852101827
 20
13.2756303073
 30
0.0
 10
8.5302818319
 20
13.4636283238
 30
0.0
 10
8.4301198669
 20
13.5877807711
 30
0.0
 10
8.3254865282
 20
13.6584608222
 30
0.0
 10
8.2031123098
 20
13.7038288396
 30
0.0
 10
8.0828313914
 20
13.716450518
 30
0.0
 10
7.9759697975
 20
13.7087871299
 30
0.0
 10
7.8933147852
 20
13.6887298844
 30
0.0
 10
7.8445488648
 20
13.6678611603
 30
0.0
 10
7.8244947526
 20
13.6574860547
 30
0.0
  0
SPLINE
  5
66B
100
AcDbEntity
  8
0
100
AcDbSpline
 62
7
  6
CONTINUOUS
 70
0
 71
3
 72
16
 73
12
 74
0
 42
0.0000001
 43
0.0000001
 44
0.0000000001
 40
0.0
 40
0.0
 40
0.0
 40
0.0
 40
0.2754465559
 40
0.3950325473
 40
0.4565247543
 40
0.5218606479
 40
0.5875789382
 40
0.6488150883
 40
0.7664059399
 40
0.8813245124
 40
1.0
 40
1.0
 40
1.0
 40
1.0
 10
7.7694211221
 20
13.2384422227
 30
0.0
 10
7.7820834292
 20
13.3200436614
 30
0.0
 10
7.8274873394
 20
13.4435822456
 30
0.0
 10
7.9485004277
 20
13.5164338009
 30
0.0
 10
8.020345848
 20
13.5349215374
 30
0.0
 10
8.0781839186
 20
13.5391822874
 30
0.0
 10
8.1359169448
 20
13.5349281679
 30
0.0
 10
8.2073287004
 20
13.5165556217
 30
0.0
 10
8.2839376932
 20
13.4680995789
 30
0.0
 10
8.3459951168
 20
13.3792690907
 30
0.0
 10
8.3576811779
 20
13.3078844618
 30
0.0
 10
8.3576811779
 20
13.2723059215
 30
0.0
  0
SPLINE
  5
66C
100
AcDbEntity
  8
0
100
AcDbSpline
 62
7
  6
CONTINUOUS
 70
0
 71
3
 72
11
 73
7
 74
0
 42
0.0000001
 43
0.0000001
 44
0.0000000001
 40
0.0
 40
0.0
 40
0.0
 40
0.0
 40
0.2589066357
 40
0.4973886641
 40
0.7458566114
 40
1.0
 40
1.0
 40
1.0
 40
1.0
 10
8.3576811779
 20
13.2723059215
 30
0.0
 10
8.3576811779
 20
13.2293973383
 30
0.0
 10
8.3444324852
 20
13.143450933
 30
0.0
 10
8.255096533
 20
13.0498974722
 30
0.0
 10
8.1410019566
 20
12.9998779663
 30
0.0
 10
8.0572937992
 20
12.9883350663
 30
0.0
 10
8.0151746287
 20
12.9883350663
 30
0.0
  0
SPLINE
  5
66D
100
AcDbEntity
  8
0
100
AcDbSpline
 62
7
  6
CONTINUOUS
 70
0
 71
3
 72
8
 73
4
 74
0
 42
0.0000001
 43
0.0000001
 44
0.0000000001
 40
0.0
 40
0.0
 40
0.0
 40
0.0
 40
1.0
 40
1.0
 40
1.0
 40
1.0
 10
8.0151746287
 20
12.9883350663
 30
0.0
 10
8.0038043563
 20
12.9883350663
 30
0.0
 10
7.9924483205
 20
12.9894795587
 30
0.0
 10
7.9811496719
 20
12.9907537782
 30
0.0
  0
SPLINE
  5
66E
100
AcDbEntity
  8
0
100
AcDbSpline
 62
7
  6
CONTINUOUS
 70
0
 71
3
 72
9
 73
5
 74
0
 42
0.0000001
 43
0.0000001
 44
0.0000000001
 40
0.0
 40
0.0
 40
0.0
 40
0.0
 40
0.290916541
 40
1.0
 40
1.0
 40
1.0
 40
1.0
 10
7.957283809
 20
12.8049874448
 30
0.0
 10
7.9716917764
 20
12.8086791672
 30
0.0
 10
8.0214118768
 20
12.8203489832
 30
0.0
 10
8.0724501985
 20
12.8282082758
 30
0.0
 10
8.1087028272
 20
12.8282082758
 30
0.0
  0
SPLINE
  5
66F
100
AcDbEntity
  8
0
100
AcDbSpline
 62
7
  6
CONTINUOUS
 70
0
 71
3
 72
21
 73
17
 74
0
 42
0.0000001
 43
0.0000001
 44
0.0000000001
 40
0.0
 40
0.0
 40
0.0
 40
0.0
 40
0.1230757907
 40
0.2391982989
 40
0.3536863931
 40
0.4116637412
 40
0.4732056226
 40
0.5378946217
 40
0.5993303129
 40
0.6599976583
 40
0.7224733697
 40
0.7852047098
 40
0.8467620542
 40
0.9098248093
 40
0.9768921958
 40
1.0
 40
1.0
 40
1.0
 40
1.0
 10
8.1087028272
 20
12.8282082758
 30
0.0
 10
8.154615731
 20
12.8282082758
 30
0.0
 10
8.2454270998
 20
12.8148604722
 30
0.0
 10
8.3595572726
 20
12.7418116503
 30
0.0
 10
8.4229118603
 20
12.6506663384
 30
0.0
 10
8.4469384792
 20
12.5661110509
 30
0.0
 10
8.4524896214
 20
12.497263517
 30
0.0
 10
8.4466960222
 20
12.4271299568
 30
0.0
 10
8.4274981784
 20
12.3596324982
 30
0.0
 10
8.3949565594
 20
12.2983696658
 30
0.0
 10
8.3503624176
 20
12.2447178299
 30
0.0
 10
8.2963826847
 20
12.1999526755
 30
0.0
 10
8.2339016826
 20
12.1674413803
 30
0.0
 10
8.1644957753
 20
12.1483021789
 30
0.0
 10
8.1072309429
 20
12.1437697055
 30
0.0
 10
8.0735326759
 20
12.1447460551
 30
0.0
 10
8.0649171692
 20
12.145263104
 30
0.0
  0
SPLINE
  5
670
100
AcDbEntity
  8
0
100
AcDbSpline
 62
7
  6
CONTINUOUS
 70
0
 71
3
 72
14
 73
10
 74
0
 42
0.0000001
 43
0.0000001
 44
0.0000000001
 40
0.0
 40
0.0
 40
0.0
 40
0.0
 40
0.1531755028
 40
0.3079996746
 40
0.4958433067
 40
0.5877948367
 40
0.6835810267
 40
0.8209533056
 40
1.0
 40
1.0
 40
1.0
 40
1.0
 10
6.6280547731
 20
13.4819381178
 30
0.0
 10
6.6542516194
 20
13.4999940868
 30
0.0
 10
6.7127760718
 20
13.5288561042
 30
0.0
 10
6.8159754207
 20
13.5433107201
 30
0.0
 10
6.9076930785
 20
13.527302838
 30
0.0
 10
6.9758472424
 20
13.4884148727
 30
0.0
 10
7.0280457988
 20
13.4444918893
 30
0.0
 10
7.072143562
 20
13.3691658178
 30
0.0
 10
7.0903397
 20
13.3056650648
 30
0.0
 10
7.0985982515
 20
13.2694032783
 30
0.0
  0
SPLINE
  5
671
100
AcDbEntity
  8
0
100
AcDbSpline
 62
7
  6
CONTINUOUS
 70
0
 71
3
 72
24
 73
20
 74
0
 42
0.0000001
 43
0.0000001
 44
0.0000000001
 40
0.0
 40
0.0
 40
0.0
 40
0.0
 40
0.0825102292
 40
0.1581571843
 40
0.2339552416
 40
0.2740306701
 40
0.317156928
 40
0.3747321163
 40
0.4284382917
 40
0.4810807048
 40
0.5356289722
 40
0.603752398
 40
0.6812180962
 40
0.7708254026
 40
0.8207991687
 40
0.8744300317
 40
0.9223115912
 40
0.9668146944
 40
1.0
 40
1.0
 40
1.0
 40
1.0
 10
7.3050052886
 20
13.290043982
 30
0.0
 10
7.2971837478
 20
13.3508838982
 30
0.0
 10
7.2666790779
 20
13.4672465948
 30
0.0
 10
7.1587872934
 20
13.6095057974
 30
0.0
 10
7.0314908097
 20
13.6818085028
 30
0.0
 10
6.9159318644
 20
13.7090129558
 30
0.0
 10
6.8111489271
 20
13.7160171705
 30
0.0
 10
6.6960556881
 20
13.7059768588
 30
0.0
 10
6.5787494948
 20
13.6690020561
 30
0.0
 10
6.4757866998
 20
13.6058673732
 30
0.0
 10
6.3827506599
 20
13.5129742868
 30
0.0
 10
6.3051999296
 20
13.3842123693
 30
0.0
 10
6.2496052045
 20
13.2173606595
 30
0.0
 10
6.223486094
 20
13.0576054766
 30
0.0
 10
6.2127635862
 20
12.9143226276
 30
0.0
 10
6.210208406
 20
12.801683249
 30
0.0
 10
6.2125719214
 20
12.6931126427
 30
0.0
 10
6.2196655544
 20
12.5999934366
 30
0.0
 10
6.2272796607
 20
12.5426756056
 30
0.0
 10
6.2312436937
 20
12.5183067083
 30
0.0
  0
SPLINE
  5
672
100
AcDbEntity
  8
0
100
AcDbSpline
 62
7
  6
CONTINUOUS
 70
0
 71
3
 72
11
 73
7
 74
0
 42
0.0000001
 43
0.0000001
 44
0.0000000001
 40
0.0
 40
0.0
 40
0.0
 40
0.0
 40
0.3426107936
 40
0.6044566108
 40
0.8143265955
 40
1.0
 40
1.0
 40
1.0
 40
1.0
 10
6.417455029
 20
12.8783587135
 30
0.0
 10
6.4181231137
 20
12.9538034404
 30
0.0
 10
6.4247678282
 20
13.0871543146
 30
0.0
 10
6.4663600254
 20
13.2633018283
 30
0.0
 10
6.5354996852
 20
13.3920945245
 30
0.0
 10
6.5956067857
 20
13.4570594777
 30
0.0
 10
6.6280547731
 20
13.4819381178
 30
0.0
  0
SPLINE
  5
673
100
AcDbEntity
  8
0
100
AcDbSpline
 62
7
  6
CONTINUOUS
 70
0
 71
3
 72
17
 73
13
 74
0
 42
0.0000001
 43
0.0000001
 44
0.0000000001
 40
0.0
 40
0.0
 40
0.0
 40
0.0
 40
0.0844580526
 40
0.1939587312
 40
0.3316668575
 40
0.4116386184
 40
0.4991820578
 40
0.5872976204
 40
0.6677250704
 40
0.8060064882
 40
0.915671004
 40
1.0
 40
1.0
 40
1.0
 40
1.0
 10
5.7086565391
 20
13.3995364822
 30
0.0
 10
5.7276211039
 20
13.3733013923
 30
0.0
 10
5.7592012468
 20
13.3046998446
 30
0.0
 10
5.7882937174
 20
13.1806649481
 30
0.0
 10
5.8018850653
 20
13.0557294437
 30
0.0
 10
5.8076522828
 20
12.9388801808
 30
0.0
 10
5.8090284979
 20
12.8408895157
 30
0.0
 10
5.8076417058
 20
12.7427237484
 30
0.0
 10
5.8018050464
 20
12.6252639363
 30
0.0
 10
5.7880579927
 20
12.4998773666
 30
0.0
 10
5.758625553
 20
12.3756788183
 30
0.0
 10
5.7265927977
 20
12.3072119874
 30
0.0
 10
5.7073664755
 20
12.2812296274
 30
0.0
  0
SPLINE
  5
674
100
AcDbEntity
  8
0
100
AcDbSpline
 62
7
  6
CONTINUOUS
 70
0
 71
3
 72
13
 73
9
 74
0
 42
0.0000001
 43
0.0000001
 44
0.0000000001
 40
0.0
 40
0.0
 40
0.0
 40
0.0
 40
0.2591153923
 40
0.3783559876
 40
0.5002774492
 40
0.6221918058
 40
0.741366948
 40
1.0
 40
1.0
 40
1.0
 40
1.0
 10
5.7073664755
 20
12.2812296274
 30
0.0
 10
5.6771061854
 20
12.240336016
 30
0.0
 10
5.6216240058
 20
12.1861586693
 30
0.0
 10
5.5291880401
 20
12.1498796047
 30
0.0
 10
5.4576632521
 20
12.1417628727
 30
0.0
 10
5.3861545306
 20
12.1498574495
 30
0.0
 10
5.2937729845
 20
12.1859475125
 30
0.0
 10
5.2382429036
 20
12.2399075956
 30
0.0
 10
5.2079582162
 20
12.2806652246
 30
0.0
  0
SPLINE
  5
675
100
AcDbEntity
  8
0
100
AcDbSpline
 62
7
  6
CONTINUOUS
 70
0
 71
3
 72
9
 73
5
 74
0
 42
0.0000001
 43
0.0000001
 44
0.0000000001
 40
0.0
 40
0.0
 40
0.0
 40
0.0
 40
0.3855604367
 40
1.0
 40
1.0
 40
1.0
 40
1.0
 10
5.2079582162
 20
12.2806652246
 30
0.0
 10
5.1639023919
 20
12.3399562753
 30
0.0
 10
5.1146376038
 20
12.5339373115
 30
0.0
 10
5.1067703433
 20
12.7233921866
 30
0.0
 10
5.1067703433
 20
12.841108755
 30
0.0
  0
SPLINE
  5
676
100
AcDbEntity
  8
0
100
AcDbSpline
 62
7
  6
CONTINUOUS
 70
0
 71
3
 72
16
 73
12
 74
0
 42
0.0000001
 43
0.0000001
 44
0.0000000001
 40
0.0
 40
0.0
 40
0.0
 40
0.0
 40
0.3032052898
 40
0.5052272749
 40
0.5672959251
 40
0.6254877337
 40
0.6832430076
 40
0.7440761608
 40
0.8073340128
 40
0.8685784542
 40
1.0
 40
1.0
 40
1.0
 40
1.0
 10
5.1067703433
 20
12.841108755
 30
0.0
 10
5.1067703433
 20
12.9592010013
 30
0.0
 10
5.1164589415
 20
13.1540847199
 30
0.0
 10
5.1759194218
 20
13.3767271952
 30
0.0
 10
5.2618958021
 20
13.4701981725
 30
0.0
 10
5.3195574138
 20
13.5098023729
 30
0.0
 10
5.3851729721
 20
13.5331255071
 30
0.0
 10
5.4561780069
 20
13.5402673105
 30
0.0
 10
5.5286222198
 20
13.5323844833
 30
0.0
 10
5.6226135381
 20
13.4959895619
 30
0.0
 10
5.6786699576
 20
13.4410191459
 30
0.0
 10
5.7086565391
 20
13.3995364822
 30
0.0
  0
SPLINE
  5
677
100
AcDbEntity
  8
0
100
AcDbSpline
 62
7
  6
CONTINUOUS
 70
0
 71
3
 72
16
 73
12
 74
0
 42
0.0000001
 43
0.0000001
 44
0.0000000001
 40
0.0
 40
0.0
 40
0.0
 40
0.0
 40
0.2754465559
 40
0.3950325473
 40
0.4565247543
 40
0.5218606479
 40
0.5875789382
 40
0.6488150883
 40
0.7664059399
 40
0.8813245124
 40
1.0
 40
1.0
 40
1.0
 40
1.0
 10
2.4854009719
 20
13.2384422227
 30
0.0
 10
2.498063279
 20
13.3200436614
 30
0.0
 10
2.5434671892
 20
13.4435822456
 30
0.0
 10
2.6644802775
 20
13.5164338009
 30
0.0
 10
2.7363256977
 20
13.5349215374
 30
0.0
 10
2.7941637684
 20
13.5391822874
 30
0.0
 10
2.8518967946
 20
13.5349281679
 30
0.0
 10
2.9233085502
 20
13.5165556217
 30
0.0
 10
2.999917543
 20
13.4680995789
 30
0.0
 10
3.0619749666
 20
13.3792690907
 30
0.0
 10
3.0736610277
 20
13.3078844618
 30
0.0
 10
3.0736610277
 20
13.2723059215
 30
0.0
  0
SPLINE
  5
678
100
AcDbEntity
  8
0
100
AcDbSpline
 62
7
  6
CONTINUOUS
 70
0
 71
3
 72
11
 73
7
 74
0
 42
0.0000001
 43
0.0000001
 44
0.0000000001
 40
0.0
 40
0.0
 40
0.0
 40
0.0
 40
0.2589066357
 40
0.4973886641
 40
0.7458566114
 40
1.0
 40
1.0
 40
1.0
 40
1.0
 10
3.0736610277
 20
13.2723059215
 30
0.0
 10
3.0736610277
 20
13.2293973383
 30
0.0
 10
3.060412335
 20
13.143450933
 30
0.0
 10
2.9710763828
 20
13.0498974722
 30
0.0
 10
2.8569818064
 20
12.9998779663
 30
0.0
 10
2.773273649
 20
12.9883350663
 30
0.0
 10
2.7311544785
 20
12.9883350663
 30
0.0
  0
SPLINE
  5
679
100
AcDbEntity
  8
0
100
AcDbSpline
 62
7
  6
CONTINUOUS
 70
0
 71
3
 72
8
 73
4
 74
0
 42
0.0000001
 43
0.0000001
 44
0.0000000001
 40
0.0
 40
0.0
 40
0.0
 40
0.0
 40
1.0
 40
1.0
 40
1.0
 40
1.0
 10
2.7311544785
 20
12.9883350663
 30
0.0
 10
2.7197842061
 20
12.9883350663
 30
0.0
 10
2.7084281703
 20
12.9894795587
 30
0.0
 10
2.6971295217
 20
12.9907537782
 30
0.0
  0
SPLINE
  5
67A
100
AcDbEntity
  8
0
100
AcDbSpline
 62
7
  6
CONTINUOUS
 70
0
 71
3
 72
9
 73
5
 74
0
 42
0.0000001
 43
0.0000001
 44
0.0000000001
 40
0.0
 40
0.0
 40
0.0
 40
0.0
 40
0.290916541
 40
1.0
 40
1.0
 40
1.0
 40
1.0
 10
2.6732636588
 20
12.8049874448
 30
0.0
 10
2.6876716262
 20
12.8086791672
 30
0.0
 10
2.7373917266
 20
12.8203489832
 30
0.0
 10
2.7884300483
 20
12.8282082758
 30
0.0
 10
2.824682677
 20
12.8282082758
 30
0.0
  0
SPLINE
  5
67B
100
AcDbEntity
  8
0
100
AcDbSpline
 62
7
  6
CONTINUOUS
 70
0
 71
3
 72
21
 73
17
 74
0
 42
0.0000001
 43
0.0000001
 44
0.0000000001
 40
0.0
 40
0.0
 40
0.0
 40
0.0
 40
0.1230757907
 40
0.2391982989
 40
0.3536863931
 40
0.4116637412
 40
0.4732056226
 40
0.5378946217
 40
0.5993303129
 40
0.6599976583
 40
0.7224733697
 40
0.7852047098
 40
0.8467620542
 40
0.9098248093
 40
0.9768921958
 40
1.0
 40
1.0
 40
1.0
 40
1.0
 10
2.824682677
 20
12.8282082758
 30
0.0
 10
2.8705955808
 20
12.8282082758
 30
0.0
 10
2.9614069496
 20
12.8148604722
 30
0.0
 10
3.0755371224
 20
12.7418116503
 30
0.0
 10
3.1388917101
 20
12.6506663384
 30
0.0
 10
3.162918329
 20
12.5661110509
 30
0.0
 10
3.1684694712
 20
12.497263517
 30
0.0
 10
3.162675872
 20
12.4271299568
 30
0.0
 10
3.1434780282
 20
12.3596324982
 30
0.0
 10
3.1109364092
 20
12.2983696658
 30
0.0
 10
3.0663422674
 20
12.2447178299
 30
0.0
 10
3.0123625345
 20
12.1999526755
 30
0.0
 10
2.9498815324
 20
12.1674413803
 30
0.0
 10
2.8804756251
 20
12.1483021789
 30
0.0
 10
2.8232107927
 20
12.1437697055
 30
0.0
 10
2.7895125257
 20
12.1447460551
 30
0.0
 10
2.780897019
 20
12.145263104
 30
0.0
  0
SPLINE
  5
67C
100
AcDbEntity
  8
0
100
AcDbSpline
 62
7
  6
CONTINUOUS
 70
0
 71
3
 72
23
 73
19
 74
0
 42
0.0000001
 43
0.0000001
 44
0.0000000001
 40
0.0
 40
0.0
 40
0.0
 40
0.0
 40
0.1131442974
 40
0.2224261488
 40
0.278293043
 40
0.3340032058
 40
0.3916539933
 40
0.4531445052
 40
0.5213279899
 40
0.5853433225
 40
0.6475398075
 40
0.7104707811
 40
0.7724610212
 40
0.8317288719
 40
0.8908879957
 40
0.9525658784
 40
0.9979009156
 40
1.0
 40
1.0
 40
1.0
 40
1.0
 10
2.2583532311
 20
12.4437751298
 30
0.0
 10
2.2648978513
 20
12.3781276008
 30
0.0
 10
2.2978894353
 20
12.2490747861
 30
0.0
 10
2.4001959963
 20
12.1174712674
 30
0.0
 10
2.5043454178
 20
12.0406895388
 30
0.0
 10
2.5943895139
 20
11.9986939609
 30
0.0
 10
2.6938924167
 20
11.9739564773
 30
0.0
 10
2.803268065
 20
11.9662803986
 30
0.0
 10
2.9163953094
 20
11.974845794
 30
0.0
 10
3.0266803742
 20
12.0039470859
 30
0.0
 10
3.1261834987
 20
12.0533596098
 30
0.0
 10
3.2122986445
 20
12.1214655929
 30
0.0
 10
3.2835528922
 20
12.2026782157
 30
0.0
 10
3.3357755231
 20
12.2949298092
 30
0.0
 10
3.3667031845
 20
12.3961481589
 30
0.0
 10
3.3752806417
 20
12.4932702463
 30
0.0
 10
3.3711736717
 20
12.556958684
 30
0.0
 10
3.367080572
 20
12.5843287025
 30
0.0
 10
3.3668948821
 20
12.5855392306
 30
0.0
  0
SPLINE
  5
67D
100
AcDbEntity
  8
0
100
AcDbSpline
 62
7
  6
CONTINUOUS
 70
0
 71
3
 72
17
 73
13
 74
0
 42
0.0000001
 43
0.0000001
 44
0.0000000001
 40
0.0
 40
0.0
 40
0.0
 40
0.0
 40
0.1590642081
 40
0.3063151579
 40
0.4665910561
 40
0.5503046233
 40
0.6376676072
 40
0.7285367308
 40
0.8219968636
 40
0.8894628744
 40
0.9528542452
 40
1.0
 40
1.0
 40
1.0
 40
1.0
 10
3.0459251313
 20
12.9225427641
 30
0.0
 10
3.1146077276
 20
12.9543526541
 30
0.0
 10
3.2385004474
 20
13.0489006129
 30
0.0
 10
3.3011900325
 20
13.2756303073
 30
0.0
 10
3.2462616817
 20
13.4636283238
 30
0.0
 10
3.1460997167
 20
13.5877807711
 30
0.0
 10
3.041466378
 20
13.6584608222
 30
0.0
 10
2.9190921596
 20
13.7038288396
 30
0.0
 10
2.7988112412
 20
13.716450518
 30
0.0
 10
2.6919496473
 20
13.7087871299
 30
0.0
 10
2.6092946349
 20
13.6887298844
 30
0.0
 10
2.5605287146
 20
13.6678611603
 30
0.0
 10
2.5404746024
 20
13.6574860547
 30
0.0
  0
SPLINE
  5
67E
100
AcDbEntity
  8
0
100
AcDbSpline
 62
7
  6
CONTINUOUS
 70
0
 71
3
 72
14
 73
10
 74
0
 42
0.0000001
 43
0.0000001
 44
0.0000000001
 40
0.0
 40
0.0
 40
0.0
 40
0.0
 40
0.1531755028
 40
0.3079996746
 40
0.4958433067
 40
0.5877948367
 40
0.6835810267
 40
0.8209533056
 40
1.0
 40
1.0
 40
1.0
 40
1.0
 10
3.986044698
 20
13.4819381178
 30
0.0
 10
4.0122415443
 20
13.4999940868
 30
0.0
 10
4.0707659967
 20
13.5288561042
 30
0.0
 10
4.1739653456
 20
13.5433107201
 30
0.0
 10
4.2656830034
 20
13.527302838
 30
0.0
 10
4.3338371673
 20
13.4884148727
 30
0.0
 10
4.3860357237
 20
13.4444918893
 30
0.0
 10
4.4301334869
 20
13.3691658178
 30
0.0
 10
4.4483296249
 20
13.3056650648
 30
0.0
 10
4.4565881764
 20
13.2694032783
 30
0.0
  0
SPLINE
  5
67F
100
AcDbEntity
  8
0
100
AcDbSpline
 62
7
  6
CONTINUOUS
 70
0
 71
3
 72
24
 73
20
 74
0
 42
0.0000001
 43
0.0000001
 44
0.0000000001
 40
0.0
 40
0.0
 40
0.0
 40
0.0
 40
0.0825102292
 40
0.1581571843
 40
0.2339552416
 40
0.2740306701
 40
0.317156928
 40
0.3747321163
 40
0.4284382917
 40
0.4810807048
 40
0.5356289722
 40
0.603752398
 40
0.6812180962
 40
0.7708254026
 40
0.8207991687
 40
0.8744300317
 40
0.9223115912
 40
0.9668146944
 40
1.0
 40
1.0
 40
1.0
 40
1.0
 10
4.6629952135
 20
13.290043982
 30
0.0
 10
4.6551736727
 20
13.3508838982
 30
0.0
 10
4.6246690028
 20
13.4672465948
 30
0.0
 10
4.5167772183
 20
13.6095057974
 30
0.0
 10
4.3894807346
 20
13.6818085028
 30
0.0
 10
4.2739217893
 20
13.7090129558
 30
0.0
 10
4.169138852
 20
13.7160171705
 30
0.0
 10
4.054045613
 20
13.7059768588
 30
0.0
 10
3.9367394197
 20
13.6690020561
 30
0.0
 10
3.8337766247
 20
13.6058673732
 30
0.0
 10
3.7407405848
 20
13.5129742868
 30
0.0
 10
3.6631898545
 20
13.3842123693
 30
0.0
 10
3.6075951294
 20
13.2173606595
 30
0.0
 10
3.5814760189
 20
13.0576054766
 30
0.0
 10
3.5707535111
 20
12.9143226276
 30
0.0
 10
3.5681983309
 20
12.801683249
 30
0.0
 10
3.5705618463
 20
12.6931126427
 30
0.0
 10
3.5776554793
 20
12.5999934366
 30
0.0
 10
3.5852695856
 20
12.5426756056
 30
0.0
 10
3.5892336186
 20
12.5183067083
 30
0.0
  0
SPLINE
  5
680
100
AcDbEntity
  8
0
100
AcDbSpline
 62
7
  6
CONTINUOUS
 70
0
 71
3
 72
11
 73
7
 74
0
 42
0.0000001
 43
0.0000001
 44
0.0000000001
 40
0.0
 40
0.0
 40
0.0
 40
0.0
 40
0.3426107936
 40
0.6044566108
 40
0.8143265955
 40
1.0
 40
1.0
 40
1.0
 40
1.0
 10
3.7754449539
 20
12.8783587135
 30
0.0
 10
3.7761130386
 20
12.9538034404
 30
0.0
 10
3.7827577531
 20
13.0871543146
 30
0.0
 10
3.8243499503
 20
13.2633018283
 30
0.0
 10
3.8934896101
 20
13.3920945245
 30
0.0
 10
3.9535967106
 20
13.4570594777
 30
0.0
 10
3.986044698
 20
13.4819381178
 30
0.0
  0
SPLINE
  5
681
100
AcDbEntity
  8
0
100
AcDbSpline
 62
7
  6
CONTINUOUS
 70
0
 71
3
 72
11
 73
7
 74
0
 42
0.0000001
 43
0.0000001
 44
0.0000000001
 40
0.0
 40
0.0
 40
0.0
 40
0.0
 40
0.2023283395
 40
0.445343536
 40
0.7157738534
 40
1.0
 40
1.0
 40
1.0
 40
1.0
 10
-0.3928483901
 20
13.7131784081
 30
0.0
 10
-0.4128359364
 20
13.6729687963
 30
0.0
 10
-0.4696317251
 20
13.5908654485
 30
0.0
 10
-0.5821283118
 20
13.478039474
 30
0.0
 10
-0.7236349301
 20
13.3706202007
 30
0.0
 10
-0.8321940664
 20
13.3115620305
 30
0.0
 10
-0.8893540849
 20
13.2848838848
 30
0.0
  0
SPLINE
  5
682
100
AcDbEntity
  8
0
100
AcDbSpline
 62
7
  6
CONTINUOUS
 70
0
 71
3
 72
11
 73
7
 74
0
 42
0.0000001
 43
0.0000001
 44
0.0000000001
 40
0.0
 40
0.0
 40
0.0
 40
0.0
 40
0.2308286057
 40
0.5005232368
 40
0.769747873
 40
1.0
 40
1.0
 40
1.0
 40
1.0
 10
-0.8893540849
 20
13.0823470387
 30
0.0
 10
-0.8535738727
 20
13.0954430238
 30
0.0
 10
-0.7778000101
 20
13.1287919703
 30
0.0
 10
-0.6659863359
 20
13.1893052501
 30
0.0
 10
-0.5584855904
 20
13.2571125969
 30
0.0
 10
-0.4938702
 20
13.3087975231
 30
0.0
 10
-0.4662196588
 20
13.3348730645
 30
0.0
  0
SPLINE
  5
683
100
AcDbEntity
  8
0
100
AcDbSpline
 62
7
  6
CONTINUOUS
 70
0
 71
3
 72
8
 73
4
 74
0
 42
0.0000001
 43
0.0000001
 44
0.0000000001
 40
0.0
 40
0.0
 40
0.0
 40
0.0
 40
1.0
 40
1.0
 40
1.0
 40
1.0
 10
-3.7435763262
 20
13.506771371
 30
0.0
 10
-3.8057638122
 20
13.4416113235
 30
0.0
 10
-3.8643848977
 20
13.3730034735
 30
0.0
 10
-3.9207961453
 20
13.3027832032
 30
0.0
  0
SPLINE
  5
684
100
AcDbEntity
  8
0
100
AcDbSpline
 62
7
  6
CONTINUOUS
 70
0
 71
3
 72
9
 73
5
 74
0
 42
0.0000001
 43
0.0000001
 44
0.0000000001
 40
0.0
 40
0.0
 40
0.0
 40
0.0
 40
0.0986341094
 40
1.0
 40
1.0
 40
1.0
 40
1.0
 10
-4.5332444224
 20
12.1960866853
 30
0.0
 10
-4.4986282389
 20
12.2391956829
 30
0.0
 10
-4.1476951874
 20
12.6762734546
 30
0.0
 10
-3.7963068912
 20
13.1129854733
 30
0.0
 10
-3.4797624007
 20
13.506771371
 30
0.0
  0
SPLINE
  5
685
100
AcDbEntity
  8
0
100
AcDbSpline
 62
7
  6
CONTINUOUS
 70
0
 71
3
 72
12
 73
8
 74
0
 42
0.0000001
 43
0.0000001
 44
0.0000000001
 40
0.0
 40
0.0
 40
0.0
 40
0.0
 40
0.1914546415
 40
0.4289323167
 40
0.5716992375
 40
0.7144661583
 40
1.0
 40
1.0
 40
1.0
 40
1.0
 10
-2.618012942
 20
13.5274120747
 30
0.0
 10
-2.6022604673
 20
13.4734995536
 30
0.0
 10
-2.5633303011
 20
13.3538104281
 30
0.0
 10
-2.5084242303
 20
13.195280135
 30
0.0
 10
-2.4513730007
 20
13.0528260142
 30
0.0
 10
-2.3905514835
 20
12.8967270475
 30
0.0
 10
-2.3446041943
 20
12.7797778443
 30
0.0
 10
-2.3140462574
 20
12.7017839262
 30
0.0
  0
SPLINE
  5
686
100
AcDbEntity
  8
0
100
AcDbSpline
 62
7
  6
CONTINUOUS
 70
0
 71
3
 72
17
 73
13
 74
0
 42
0.0000001
 43
0.0000001
 44
0.0000000001
 40
0.0
 40
0.0
 40
0.0
 40
0.0
 40
0.188120604
 40
0.2735438531
 40
0.3176588673
 40
0.3643730824
 40
0.5178315861
 40
0.5961564737
 40
0.6791493087
 40
0.7717453768
 40
0.8754137835
 40
1.0
 40
1.0
 40
1.0
 40
1.0
 10
-8.4438516434
 20
12.5976130174
 30
0.0
 10
-8.47000207
 20
12.4772664977
 30
0.0
 10
-8.5542090257
 20
12.2983028644
 30
0.0
 10
-8.7417108687
 20
12.1961077643
 30
0.0
 10
-8.8544079216
 20
12.1693148489
 30
0.0
 10
-9.0141592286
 20
12.1575897925
 30
0.0
 10
-9.2012839573
 20
12.2058517467
 30
0.0
 10
-9.3612483992
 20
12.3416849924
 30
0.0
 10
-9.4420993727
 20
12.4903782932
 30
0.0
 10
-9.4873855184
 20
12.6686910356
 30
0.0
 10
-9.5029422777
 20
12.8786717055
 30
0.0
 10
-9.4878286655
 20
13.0295803703
 30
0.0
 10
-9.4683983676
 20
13.1090893865
 30
0.0
  0
SPLINE
  5
687
100
AcDbEntity
  8
0
100
AcDbSpline
 62
7
  6
CONTINUOUS
 70
0
 71
3
 72
9
 73
5
 74
0
 42
0.0000001
 43
0.0000001
 44
0.0000000001
 40
0.0
 40
0.0
 40
0.0
 40
0.0
 40
0.4786249203
 40
1.0
 40
1.0
 40
1.0
 40
1.0
 10
-8.9356808574
 20
13.5377324265
 30
0.0
 10
-8.8380138286
 20
13.5377324265
 30
0.0
 10
-8.6189441111
 20
13.4843722469
 30
0.0
 10
-8.5171578822
 20
13.2844265942
 30
0.0
 10
-8.4851330508
 20
13.1829704299
 30
0.0
  0
SPLINE
  5
688
100
AcDbEntity
  8
0
100
AcDbSpline
 62
7
  6
CONTINUOUS
 70
0
 71
3
 72
24
 73
20
 74
0
 42
0.0000001
 43
0.0000001
 44
0.0000000001
 40
0.0
 40
0.0
 40
0.0
 40
0.0
 40
0.1687487347
 40
0.2518691597
 40
0.2957520897
 40
0.3425908566
 40
0.3846805941
 40
0.4255807727
 40
0.4659466652
 40
0.5064594779
 40
0.5863058399
 40
0.6680835282
 40
0.7557269759
 40
0.8025545509
 40
0.8521511709
 40
0.898353344
 40
0.9434652361
 40
0.9879339646
 40
1.0
 40
1.0
 40
1.0
 40
1.0
 10
-8.25808531
 20
13.235217221
 30
0.0
 10
-8.2985313182
 20
13.3761074739
 30
0.0
 10
-8.4226780456
 20
13.5809181068
 30
0.0
 10
-8.657911242
 20
13.6971392045
 30
0.0
 10
-8.8060405556
 20
13.7289158319
 30
0.0
 10
-8.9215724189
 20
13.7361109097
 30
0.0
 10
-9.0344014624
 20
13.729729611
 30
0.0
 10
-9.1401039883
 20
13.7104206211
 30
0.0
 10
-9.2410815085
 20
13.6778791217
 30
0.0
 10
-9.3677431323
 20
13.6184917091
 30
0.0
 10
-9.5099735918
 20
13.5104732234
 30
0.0
 10
-9.6340785291
 20
13.3291397918
 30
0.0
 10
-9.6954618726
 20
13.1493804839
 30
0.0
 10
-9.7197126391
 20
12.9910880023
 30
0.0
 10
-9.7254796276
 20
12.8671109453
 30
0.0
 10
-9.7199732793
 20
12.7446690495
 30
0.0
 10
-9.703112824
 20
12.6277299104
 30
0.0
 10
-9.6815731685
 20
12.5419351172
 30
0.0
 10
-9.6666249908
 20
12.4951468818
 30
0.0
 10
-9.6632928368
 20
12.4852083959
 30
0.0
  0
SPLINE
  5
689
100
AcDbEntity
  8
0
100
AcDbSpline
 62
7
  6
CONTINUOUS
 70
0
 71
3
 72
11
 73
7
 74
0
 42
0.0000001
 43
0.0000001
 44
0.0000000001
 40
0.0
 40
0.0
 40
0.0
 40
0.0
 40
0.2525992429
 40
0.4888102636
 40
0.730558892
 40
1.0
 40
1.0
 40
1.0
 40
1.0
 10
-8.9224578623
 20
11.9690389444
 30
0.0
 10
-8.8396429898
 20
11.9690389444
 30
0.0
 10
-8.6775253073
 20
11.9900061667
 30
0.0
 10
-8.4611685062
 20
12.1049286495
 30
0.0
 10
-8.2986123021
 20
12.2954972425
 30
0.0
 10
-8.2385896063
 20
12.4550818081
 30
0.0
 10
-8.2168039026
 20
12.5406897455
 30
0.0
  0
SPLINE
  5
68A
100
AcDbEntity
  8
0
100
AcDbSpline
 62
7
  6
CONTINUOUS
 70
0
 71
3
 72
8
 73
4
 74
0
 42
0.0000001
 43
0.0000001
 44
0.0000000001
 40
0.0
 40
0.0
 40
0.0
 40
0.0
 40
1.0
 40
1.0
 40
1.0
 40
1.0
 10
-11.2767881491
 20
12.1909265881
 30
0.0
 10
-11.3027732732
 20
12.2847291433
 30
0.0
 10
-11.3331402735
 20
12.3773546209
 30
0.0
 10
-11.3661236407
 20
12.4689310563
 30
0.0
  0
SPLINE
  5
68B
100
AcDbEntity
  8
0
100
AcDbSpline
 62
7
  6
CONTINUOUS
 70
0
 71
3
 72
12
 73
8
 74
0
 42
0.0000001
 43
0.0000001
 44
0.0000000001
 40
0.0
 40
0.0
 40
0.0
 40
0.0
 40
0.1914546415
 40
0.4289323167
 40
0.5716992375
 40
0.7144661583
 40
1.0
 40
1.0
 40
1.0
 40
1.0
 10
-16.4472844289
 20
13.5274120747
 30
0.0
 10
-16.4315319541
 20
13.4734995536
 30
0.0
 10
-16.3926017879
 20
13.3538104281
 30
0.0
 10
-16.3376957172
 20
13.195280135
 30
0.0
 10
-16.2806444875
 20
13.0528260142
 30
0.0
 10
-16.2198229703
 20
12.8967270475
 30
0.0
 10
-16.1738756812
 20
12.7797778443
 30
0.0
 10
-16.1433177443
 20
12.7017839262
 30
0.0
  0
SPLINE
  5
68C
100
AcDbEntity
  8
0
100
AcDbSpline
 62
7
  6
CONTINUOUS
 70
0
 71
3
 72
8
 73
4
 74
0
 42
0.0000001
 43
0.0000001
 44
0.0000000001
 40
0.0
 40
0.0
 40
0.0
 40
0.0
 40
1.0
 40
1.0
 40
1.0
 40
1.0
 10
-18.6558397261
 20
12.1909265881
 30
0.0
 10
-18.6818248502
 20
12.2847291433
 30
0.0
 10
-18.7121918504
 20
12.3773546209
 30
0.0
 10
-18.7451752177
 20
12.4689310563
 30
0.0
  0
SPLINE
  5
68D
100
AcDbEntity
  8
0
100
AcDbSpline
 62
7
  6
CONTINUOUS
 70
0
 71
3
 72
12
 73
8
 74
0
 42
0.0000001
 43
0.0000001
 44
0.0000000001
 40
0.0
 40
0.0
 40
0.0
 40
0.0
 40
0.1914546415
 40
0.4289323167
 40
0.5716992375
 40
0.7144661583
 40
1.0
 40
1.0
 40
1.0
 40
1.0
 10
-20.9263171343
 20
13.5274120747
 30
0.0
 10
-20.9105646596
 20
13.4734995536
 30
0.0
 10
-20.8716344934
 20
13.3538104281
 30
0.0
 10
-20.8167284226
 20
13.195280135
 30
0.0
 10
-20.759677193
 20
13.0528260142
 30
0.0
 10
-20.6988556758
 20
12.8967270475
 30
0.0
 10
-20.6529083867
 20
12.7797778443
 30
0.0
 10
-20.6223504497
 20
12.7017839262
 30
0.0
  0
SPLINE
  5
68E
100
AcDbEntity
  8
0
100
AcDbSpline
 62
7
  6
CONTINUOUS
 70
0
 71
3
 72
9
 73
5
 74
0
 42
0.0000001
 43
0.0000001
 44
0.0000000001
 40
0.0
 40
0.0
 40
0.0
 40
0.0
 40
0.8336714283
 40
1.0
 40
1.0
 40
1.0
 40
1.0
 10
-22.4293795723
 20
13.506771371
 30
0.0
 10
-22.3725868119
 20
13.506771371
 30
0.0
 10
-22.3040821039
 20
13.5064676734
 30
0.0
 10
-22.2367986663
 20
13.4946245851
 30
0.0
 10
-22.2258751784
 20
13.4916134378
 30
0.0
  0
SPLINE
  5
68F
100
AcDbEntity
  8
0
100
AcDbSpline
 62
7
  6
CONTINUOUS
 70
0
 71
3
 72
15
 73
11
 74
0
 42
0.0000001
 43
0.0000001
 44
0.0000000001
 40
0.0
 40
0.0
 40
0.0
 40
0.0
 40
0.1831476441
 40
0.2825427925
 40
0.39002016
 40
0.4650484773
 40
0.5333382897
 40
0.6605327543
 40
0.8046292292
 40
1.0
 40
1.0
 40
1.0
 40
1.0
 10
-22.2258751784
 20
13.4916134378
 30
0.0
 10
-22.1712082089
 20
13.4760384807
 30
0.0
 10
-22.0939291536
 20
13.4179567882
 30
0.0
 10
-22.0433020309
 20
13.306279763
 30
0.0
 10
-22.0331884414
 20
13.218151189
 30
0.0
 10
-22.0389736583
 20
13.1402196309
 30
0.0
 10
-22.0602219331
 20
13.0586636002
 30
0.0
 10
-22.1206723232
 20
12.9663018929
 30
0.0
 10
-22.2580779391
 20
12.9045217192
 30
0.0
 10
-22.3642285057
 20
12.8978706115
 30
0.0
 10
-22.4248645069
 20
12.8978706115
 30
0.0
  0
SPLINE
  5
690
100
AcDbEntity
  8
0
100
AcDbSpline
 62
7
  6
CONTINUOUS
 70
0
 71
3
 72
9
 73
5
 74
0
 42
0.0000001
 43
0.0000001
 44
0.0000000001
 40
0.0
 40
0.0
 40
0.0
 40
0.0
 40
0.1935112737
 40
1.0
 40
1.0
 40
1.0
 40
1.0
 10
-22.1978167661
 20
13.6867325753
 30
0.0
 10
-22.2139110503
 20
13.6897019906
 30
0.0
 10
-22.2977751205
 20
13.7012127083
 30
0.0
 10
-22.3826190059
 20
13.7028580562
 30
0.0
 10
-22.4508265658
 20
13.7028580562
 30
0.0
  0
SPLINE
  5
691
100
AcDbEntity
  8
0
100
AcDbSpline
 62
7
  6
CONTINUOUS
 70
0
 71
3
 72
9
 73
5
 74
0
 42
0.0000001
 43
0.0000001
 44
0.0000000001
 40
0.0
 40
0.0
 40
0.0
 40
0.0
 40
0.3152731366
 40
1.0
 40
1.0
 40
1.0
 40
1.0
 10
-22.4272833763
 20
12.7017839262
 30
0.0
 10
-22.373299445
 20
12.7017839262
 30
0.0
 10
-22.204906251
 20
12.7091145561
 30
0.0
 10
-22.0212188842
 20
12.763631729
 30
0.0
 10
-21.9427912419
 20
12.850784075
 30
0.0
  0
SPLINE
  5
692
100
AcDbEntity
  8
0
100
AcDbSpline
 62
7
  6
CONTINUOUS
 70
0
 71
3
 72
15
 73
11
 74
0
 42
0.0000001
 43
0.0000001
 44
0.0000000001
 40
0.0
 40
0.0
 40
0.0
 40
0.0
 40
0.1818234323
 40
0.2742230203
 40
0.3716340726
 40
0.4851660516
 40
0.5943000072
 40
0.6975375539
 40
0.7935178969
 40
1.0
 40
1.0
 40
1.0
 40
1.0
 10
-21.9427912419
 20
12.850784075
 30
0.0
 10
-21.8996053253
 20
12.8987742203
 30
0.0
 10
-21.847002928
 20
12.9843977583
 30
0.0
 10
-21.8138743627
 20
13.1127470492
 30
0.0
 10
-21.8054902411
 20
13.2205964286
 30
0.0
 10
-21.8163640133
 20
13.3346387133
 30
0.0
 10
-21.8545277813
 20
13.4449567831
 30
0.0
 10
-21.9124201702
 20
13.5390987503
 30
0.0
 10
-22.0185696159
 20
13.639161613
 30
0.0
 10
-22.1255187017
 20
13.6745560573
 30
0.0
 10
-22.1978167661
 20
13.6867325753
 30
0.0
  0
SPLINE
  5
693
100
AcDbEntity
  8
0
100
AcDbSpline
 62
7
  6
CONTINUOUS
 70
0
 71
3
 72
16
 73
12
 74
0
 42
0.0000001
 43
0.0000001
 44
0.0000000001
 40
0.0
 40
0.0
 40
0.0
 40
0.0
 40
0.1559909888
 40
0.2192678892
 40
0.2859020836
 40
0.4220584258
 40
0.5795857181
 40
0.674079367
 40
0.7781612252
 40
0.8965933076
 40
1.0
 40
1.0
 40
1.0
 40
1.0
 10
-23.812145463
 20
12.6996877302
 30
0.0
 10
-23.7572846303
 20
12.6779985677
 30
0.0
 10
-23.6781198718
 20
12.6342804024
 30
0.0
 10
-23.6314884844
 20
12.5339661365
 30
0.0
 10
-23.6177365845
 20
12.4333242701
 30
0.0
 10
-23.6609789853
 20
12.2936659412
 30
0.0
 10
-23.7902070531
 20
12.2061885798
 30
0.0
 10
-23.9203719023
 20
12.1708130331
 30
0.0
 10
-24.0406070576
 20
12.1617158689
 30
0.0
 10
-24.1642069085
 20
12.1724327599
 30
0.0
 10
-24.2448202474
 20
12.1977600003
 30
0.0
 10
-24.2807893614
 20
12.2134259569
 30
0.0
  0
SPLINE
  5
694
100
AcDbEntity
  8
0
100
AcDbSpline
 62
7
  6
CONTINUOUS
 70
0
 71
3
 72
12
 73
8
 74
0
 42
0.0000001
 43
0.0000001
 44
0.0000000001
 40
0.0
 40
0.0
 40
0.0
 40
0.0
 40
0.1606441131
 40
0.3160528741
 40
0.4695579901
 40
0.6257786262
 40
1.0
 40
1.0
 40
1.0
 40
1.0
 10
-24.7396872238
 20
12.5572990002
 30
0.0
 10
-24.7381922308
 20
12.5015727011
 30
0.0
 10
-24.7222162489
 20
12.3915263333
 30
0.0
 10
-24.6539543905
 20
12.241307629
 30
0.0
 10
-24.5473608905
 20
12.1168203238
 30
0.0
 10
-24.3417996264
 20
11.9912874535
 30
0.0
 10
-24.1509940638
 20
11.9690389444
 30
0.0
 10
-24.0211326274
 20
11.9690389444
 30
0.0
  0
SPLINE
  5
695
100
AcDbEntity
  8
0
100
AcDbSpline
 62
7
  6
CONTINUOUS
 70
0
 71
3
 72
14
 73
10
 74
0
 42
0.0000001
 43
0.0000001
 44
0.0000000001
 40
0.0
 40
0.0
 40
0.0
 40
0.0
 40
0.2324140172
 40
0.3379986706
 40
0.4377481205
 40
0.6253413849
 40
0.7167588502
 40
0.8043408137
 40
1.0
 40
1.0
 40
1.0
 40
1.0
 10
-24.0211326274
 20
11.9690389444
 30
0.0
 10
-23.9106075066
 20
11.9690389444
 30
0.0
 10
-23.7458242786
 20
11.9985466825
 30
0.0
 10
-23.5663006316
 20
12.1086935722
 30
0.0
 10
-23.4410834325
 20
12.2505678957
 30
0.0
 10
-23.3856125385
 20
12.4337806866
 30
0.0
 10
-23.4089873049
 20
12.6085213535
 30
0.0
 10
-23.4844493303
 20
12.7733782632
 30
0.0
 10
-23.6024650903
 20
12.8565726209
 30
0.0
 10
-23.6868500766
 20
12.8957744155
 30
0.0
  0
SPLINE
  5
696
100
AcDbEntity
  8
0
100
AcDbSpline
 62
7
  6
CONTINUOUS
 70
0
 71
3
 72
9
 73
5
 74
0
 42
0.0000001
 43
0.0000001
 44
0.0000000001
 40
0.0
 40
0.0
 40
0.0
 40
0.0
 40
0.1708537376
 40
1.0
 40
1.0
 40
1.0
 40
1.0
 10
-23.6868500766
 20
12.8957744155
 30
0.0
 10
-23.7067917376
 20
12.9048905901
 30
0.0
 10
-23.8269638675
 20
12.9504620251
 30
0.0
 10
-23.9521279601
 20
12.9806317498
 30
0.0
 10
-24.0557219871
 20
13.004944321
 30
0.0
  0
SPLINE
  5
697
100
AcDbEntity
  8
0
100
AcDbSpline
 62
7
  6
CONTINUOUS
 70
0
 71
3
 72
9
 73
5
 74
0
 42
0.0000001
 43
0.0000001
 44
0.0000000001
 40
0.0
 40
0.0
 40
0.0
 40
0.0
 40
0.6350560901
 40
1.0
 40
1.0
 40
1.0
 40
1.0
 10
-24.0557219871
 20
13.004944321
 30
0.0
 10
-24.1287304091
 20
13.0220787303
 30
0.0
 10
-24.2409928032
 20
13.052929192
 30
0.0
 10
-24.3549153074
 20
13.0978754551
 30
0.0
 10
-24.3862151334
 20
13.1274984796
 30
0.0
  0
SPLINE
  5
698
100
AcDbEntity
  8
0
100
AcDbSpline
 62
7
  6
CONTINUOUS
 70
0
 71
3
 72
13
 73
9
 74
0
 42
0.0000001
 43
0.0000001
 44
0.0000000001
 40
0.0
 40
0.0
 40
0.0
 40
0.0
 40
0.1223010007
 40
0.2481832321
 40
0.3968182834
 40
0.5546662969
 40
0.7464665216
 40
1.0
 40
1.0
 40
1.0
 40
1.0
 10
-24.3862151334
 20
13.1274984796
 30
0.0
 10
-24.4066123836
 20
13.1464169075
 30
0.0
 10
-24.4410459812
 20
13.1938373593
 30
0.0
 10
-24.4568774502
 20
13.285162521
 30
0.0
 10
-24.4347862498
 20
13.3843598638
 30
0.0
 10
-24.3590266649
 20
13.4744065227
 30
0.0
 10
-24.2299086868
 20
13.5312069636
 30
0.0
 10
-24.1275034873
 20
13.5377324265
 30
0.0
 10
-24.0698317435
 20
13.5377324265
 30
0.0
  0
SPLINE
  5
699
100
AcDbEntity
  8
0
100
AcDbSpline
 62
7
  6
CONTINUOUS
 70
0
 71
3
 72
9
 73
5
 74
0
 42
0.0000001
 43
0.0000001
 44
0.0000000001
 40
0.0
 40
0.0
 40
0.0
 40
0.0
 40
0.5306823676
 40
1.0
 40
1.0
 40
1.0
 40
1.0
 10
-24.0698317435
 20
13.5377324265
 30
0.0
 10
-23.9698852658
 20
13.5377324265
 30
0.0
 10
-23.757176949
 20
13.5065738689
 30
0.0
 10
-23.6757774952
 20
13.3056888314
 30
0.0
 10
-23.6663706308
 20
13.217801519
 30
0.0
  0
SPLINE
  5
69A
100
AcDbEntity
  8
0
100
AcDbSpline
 62
7
  6
CONTINUOUS
 70
0
 71
3
 72
19
 73
15
 74
0
 42
0.0000001
 43
0.0000001
 44
0.0000000001
 40
0.0
 40
0.0
 40
0.0
 40
0.0
 40
0.1543381976
 40
0.2316852979
 40
0.3135124509
 40
0.4030904341
 40
0.4511122273
 40
0.5018427828
 40
0.592716338
 40
0.6780805119
 40
0.7570416494
 40
0.8309061667
 40
0.9705334111
 40
1.0
 40
1.0
 40
1.0
 40
1.0
 10
-23.43932289
 20
13.2281218708
 30
0.0
 10
-23.4429498435
 20
13.3212148263
 30
0.0
 10
-23.4850411877
 20
13.4643480614
 30
0.0
 10
-23.6146480222
 20
13.605968933
 30
0.0
 10
-23.7472157086
 20
13.6808675703
 30
0.0
 10
-23.8757198726
 20
13.7169027323
 30
0.0
 10
-23.9885950518
 20
13.7314699343
 30
0.0
 10
-24.1030664629
 20
13.7361429287
 30
0.0
 10
-24.2404404796
 20
13.7250697853
 30
0.0
 10
-24.3894728779
 20
13.6823632418
 30
0.0
 10
-24.5169737361
 20
13.6115301725
 30
0.0
 10
-24.6374881458
 20
13.4790501934
 30
0.0
 10
-24.6829150344
 20
13.3293920537
 30
0.0
 10
-24.6767701812
 20
13.2268400063
 30
0.0
 10
-24.6745256025
 20
13.2091455399
 30
0.0
  0
SPLINE
  5
69B
100
AcDbEntity
  8
0
100
AcDbSpline
 62
7
  6
CONTINUOUS
 70
0
 71
3
 72
9
 73
5
 74
0
 42
0.0000001
 43
0.0000001
 44
0.0000000001
 40
0.0
 40
0.0
 40
0.0
 40
0.0
 40
0.1806469784
 40
1.0
 40
1.0
 40
1.0
 40
1.0
 10
-24.4313665743
 20
12.8904529029
 30
0.0
 10
-24.4131245478
 20
12.8809179881
 30
0.0
 10
-24.3084969415
 20
12.8352654405
 30
0.0
 10
-24.1977560026
 20
12.8060202768
 30
0.0
 10
-24.1071624884
 20
12.783459901
 30
0.0
  0
SPLINE
  5
69C
100
AcDbEntity
  8
0
100
AcDbSpline
 62
7
  6
CONTINUOUS
 70
0
 71
3
 72
9
 73
5
 74
0
 42
0.0000001
 43
0.0000001
 44
0.0000000001
 40
0.0
 40
0.0
 40
0.0
 40
0.0
 40
0.3500357027
 40
1.0
 40
1.0
 40
1.0
 40
1.0
 10
-24.1071624884
 20
12.783459901
 30
0.0
 10
-24.0724332262
 20
12.7748113216
 30
0.0
 10
-23.973612909
 20
12.7490000072
 30
0.0
 10
-23.8737767634
 20
12.7245485811
 30
0.0
 10
-23.812145463
 20
12.6996877302
 30
0.0
  0
SPLINE
  5
69D
100
AcDbEntity
  8
0
100
AcDbSpline
 62
7
  6
CONTINUOUS
 70
0
 71
3
 72
14
 73
10
 74
0
 42
0.0000001
 43
0.0000001
 44
0.0000000001
 40
0.0
 40
0.0
 40
0.0
 40
0.0
 40
0.2665979089
 40
0.368288704
 40
0.4714152591
 40
0.6179308633
 40
0.694077139
 40
0.7749435498
 40
1.0
 40
1.0
 40
1.0
 40
1.0
 10
-26.2700017843
 20
13.506771371
 30
0.0
 10
-26.1743110083
 20
13.506771371
 30
0.0
 10
-26.0254211525
 20
13.4859172
 30
0.0
 10
-25.9195918264
 20
13.3448845488
 30
0.0
 10
-25.8954375399
 20
13.2177569991
 30
0.0
 10
-25.9301380527
 20
13.0985348925
 30
0.0
 10
-26.0054329608
 20
13.0170606193
 30
0.0
 10
-26.129937656
 20
12.9541371098
 30
0.0
 10
-26.2434034935
 20
12.9494723707
 30
0.0
 10
-26.3241836709
 20
12.9494723707
 30
0.0
  0
SPLINE
  5
69E
100
AcDbEntity
  8
0
100
AcDbSpline
 62
7
  6
CONTINUOUS
 70
0
 71
3
 72
12
 73
8
 74
0
 42
0.0000001
 43
0.0000001
 44
0.0000000001
 40
0.0
 40
0.0
 40
0.0
 40
0.0
 40
0.3274191609
 40
0.4911287414
 40
0.6548383219
 40
0.8345406322
 40
1.0
 40
1.0
 40
1.0
 40
1.0
 10
-25.5546725045
 20
12.0
 30
0.0
 10
-25.6028878992
 20
12.0771607782
 30
0.0
 10
-25.6749610851
 20
12.1930621168
 30
0.0
 10
-25.7720582906
 20
12.3469565499
 30
0.0
 10
-25.8446721042
 20
12.4677897173
 30
0.0
 10
-25.9278565745
 20
12.5824253869
 30
0.0
 10
-25.991757865
 20
12.6542537224
 30
0.0
 10
-26.0244096932
 20
12.6866259931
 30
0.0
  0
SPLINE
  5
69F
100
AcDbEntity
  8
0
100
AcDbSpline
 62
7
  6
CONTINUOUS
 70
0
 71
3
 72
9
 73
5
 74
0
 42
0.0000001
 43
0.0000001
 44
0.0000000001
 40
0.0
 40
0.0
 40
0.0
 40
0.0
 40
0.209446698
 40
1.0
 40
1.0
 40
1.0
 40
1.0
 10
-26.0244096932
 20
12.6866259931
 30
0.0
 10
-26.0322375266
 20
12.6942538425
 30
0.0
 10
-26.0718045934
 20
12.7284238897
 30
0.0
 10
-26.1172941751
 20
12.7549980685
 30
0.0
 10
-26.1538977865
 20
12.7740263892
 30
0.0
  0
SPLINE
  5
6A0
100
AcDbEntity
  8
0
100
AcDbSpline
 62
7
  6
CONTINUOUS
 70
0
 71
3
 72
17
 73
13
 74
0
 42
0.0000001
 43
0.0000001
 44
0.0000000001
 40
0.0
 40
0.0
 40
0.0
 40
0.0
 40
0.2460836248
 40
0.3488272006
 40
0.4008361773
 40
0.4556648225
 40
0.540858721
 40
0.6244209655
 40
0.704882247
 40
0.7821673896
 40
0.8752909099
 40
1.0
 40
1.0
 40
1.0
 40
1.0
 10
-26.1538977865
 20
12.7740263892
 30
0.0
 10
-26.0244202354
 20
12.7920070206
 30
0.0
 10
-25.8282178152
 20
12.8567698513
 30
0.0
 10
-25.7122738366
 20
13.0437613751
 30
0.0
 10
-25.6832567346
 20
13.1517552191
 30
0.0
 10
-25.6752797174
 20
13.2539074375
 30
0.0
 10
-25.6899253086
 20
13.3732910825
 30
0.0
 10
-25.7430082427
 20
13.4962971694
 30
0.0
 10
-25.8245431785
 20
13.5979988309
 30
0.0
 10
-25.941748438
 20
13.6673491818
 30
0.0
 10
-26.0972736329
 20
13.697819082
 30
0.0
 10
-26.2129476293
 20
13.7028580562
 30
0.0
 10
-26.2791933304
 20
13.7028580562
 30
0.0
  0
SPLINE
  5
6A1
100
AcDbEntity
  8
0
100
AcDbSpline
 62
7
  6
CONTINUOUS
 70
0
 71
3
 72
14
 73
10
 74
0
 42
0.0000001
 43
0.0000001
 44
0.0000000001
 40
0.0
 40
0.0
 40
0.0
 40
0.0
 40
0.1089885614
 40
0.1829254059
 40
0.2624764842
 40
0.3465277994
 40
0.4482203747
 40
0.5822701297
 40
1.0
 40
1.0
 40
1.0
 40
1.0
 10
-26.5449425088
 20
12.7533856855
 30
0.0
 10
-26.5202078901
 20
12.7533856855
 30
0.0
 10
-26.4787685137
 20
12.7525130586
 30
0.0
 10
-26.4190530138
 20
12.7474794618
 30
0.0
 10
-26.367981986
 20
12.7288988163
 30
0.0
 10
-26.3142800861
 20
12.7011447739
 30
0.0
 10
-26.2587260949
 20
12.6534788864
 30
0.0
 10
-26.1636822475
 20
12.5393180301
 30
0.0
 10
-26.0956106289
 20
12.4338434426
 30
0.0
 10
-26.044566623
 20
12.3539558643
 30
0.0
  0
SPLINE
  5
6A2
100
AcDbEntity
  8
0
100
AcDbSpline
 62
7
  6
CONTINUOUS
 70
0
 71
3
 72
12
 73
8
 74
0
 42
0.0000001
 43
0.0000001
 44
0.0000000001
 40
0.0
 40
0.0
 40
0.0
 40
0.0
 40
0.1914546415
 40
0.4289323167
 40
0.5716992375
 40
0.7144661583
 40
1.0
 40
1.0
 40
1.0
 40
1.0
 10
-28.037039563
 20
13.5274120747
 30
0.0
 10
-28.0212870883
 20
13.4734995536
 30
0.0
 10
-27.9823569221
 20
13.3538104281
 30
0.0
 10
-27.9274508513
 20
13.195280135
 30
0.0
 10
-27.8703996216
 20
13.0528260142
 30
0.0
 10
-27.8095781045
 20
12.8967270475
 30
0.0
 10
-27.7636308153
 20
12.7797778443
 30
0.0
 10
-27.7330728784
 20
12.7017839262
 30
0.0
  0
SPLINE
  5
6A3
100
AcDbEntity
  8
0
100
AcDbSpline
 62
7
  6
CONTINUOUS
 70
0
 71
3
 72
9
 73
5
 74
0
 42
0.0000001
 43
0.0000001
 44
0.0000000001
 40
0.0
 40
0.0
 40
0.0
 40
0.0
 40
0.3106214921
 40
1.0
 40
1.0
 40
1.0
 40
1.0
 10
-29.69797118
 20
12.5206940736
 30
0.0
 10
-29.7079133928
 20
12.4925833508
 30
0.0
 10
-29.7397368422
 20
12.4020224
 30
0.0
 10
-29.7711323935
 20
12.3112959595
 30
0.0
 10
-29.7914993785
 20
12.2483334764
 30
0.0
  0
SPLINE
  5
6A4
100
AcDbEntity
  8
0
100
AcDbSpline
 62
7
  6
CONTINUOUS
 70
0
 71
3
 72
9
 73
5
 74
0
 42
0.0000001
 43
0.0000001
 44
0.0000000001
 40
0.0
 40
0.0
 40
0.0
 40
0.0
 40
0.1862683768
 40
1.0
 40
1.0
 40
1.0
 40
1.0
 10
-29.7914993785
 20
12.2483334764
 30
0.0
 10
-29.7963225619
 20
12.2640163614
 30
0.0
 10
-29.8227355942
 20
12.3480513779
 30
0.0
 10
-29.8503448655
 20
12.4317040167
 30
0.0
 10
-29.8729333877
 20
12.499730854
 30
0.0
  0
SPLINE
  5
6A5
100
AcDbEntity
  8
0
100
AcDbSpline
 62
7
  6
CONTINUOUS
 70
0
 71
3
 72
8
 73
4
 74
0
 42
0.0000001
 43
0.0000001
 44
0.0000000001
 40
0.0
 40
0.0
 40
0.0
 40
0.0
 40
1.0
 40
1.0
 40
1.0
 40
1.0
 10
-32.2271024165
 20
12.1909265881
 30
0.0
 10
-32.2530875406
 20
12.2847291433
 30
0.0
 10
-32.2834545409
 20
12.3773546209
 30
0.0
 10
-32.3164379081
 20
12.4689310563
 30
0.0
  0
SPLINE
  5
6A6
100
AcDbEntity
  8
0
100
AcDbSpline
 62
7
  6
CONTINUOUS
 70
0
 71
3
 72
29
 73
25
 74
0
 42
0.0000001
 43
0.0000001
 44
0.0000000001
 40
0.0
 40
0.0
 40
0.0
 40
0.0
 40
0.0355937351
 40
0.0799962023
 40
0.1647872018
 40
0.2454541378
 40
0.3251342714
 40
0.3656814677
 40
0.4061636494
 40
0.4473705763
 40
0.4900517958
 40
0.553930843
 40
0.6138247316
 40
0.672298714
 40
0.7321010455
 40
0.7934417861
 40
0.8247546384
 40
0.8568674109
 40
0.8901746441
 40
0.9249718061
 40
0.9615063193
 40
0.9804966154
 40
0.9901828374
 40
1.0
 40
1.0
 40
1.0
 40
1.0
 10
16.427878277
 20
12.87766807
 30
0.0
 10
16.4271677182
 20
12.9095456185
 30
0.0
 10
16.42286839
 20
12.9811181497
 30
0.0
 10
16.4002401205
 20
13.1271419385
 30
0.0
 10
16.3397624996
 20
13.3070749873
 30
0.0
 10
16.2170625082
 20
13.4926534038
 30
0.0
 10
16.0746993055
 20
13.6072528744
 30
0.0
 10
15.94615308
 20
13.6726475894
 30
0.0
 10
15.8422590368
 20
13.7082338379
 30
0.0
 10
15.7325786409
 20
13.7294173446
 30
0.0
 10
15.6002181361
 20
13.7370503656
 30
0.0
 10
15.4508442976
 20
13.7248482906
 30
0.0
 10
15.2927921452
 20
13.6797084111
 30
0.0
 10
15.1515840429
 20
13.6027433417
 30
0.0
 10
15.0292889809
 20
13.4965415825
 30
0.0
 10
14.9463922331
 20
13.3866610149
 30
0.0
 10
14.8946294011
 20
13.2874603788
 30
0.0
 10
14.8628279094
 20
13.2067387211
 30
0.0
 10
14.8381544466
 20
13.1203396739
 30
0.0
 10
14.8205713147
 20
13.0282049746
 30
0.0
 10
14.8119510404
 20
12.9477127802
 30
0.0
 10
14.8089228615
 20
12.8893973328
 30
0.0
 10
14.8080513942
 20
12.8549431788
 30
0.0
 10
14.807889819
 20
12.8374816063
 30
0.0
 10
14.8079010878
 20
12.8286920497
 30
0.0
  0
SPLINE
  5
6A7
100
AcDbEntity
  8
0
100
AcDbSpline
 62
7
  6
CONTINUOUS
 70
0
 71
3
 72
25
 73
21
 74
0
 42
0.0000001
 43
0.0000001
 44
0.0000000001
 40
0.0
 40
0.0
 40
0.0
 40
0.0
 40
0.0104078563
 40
0.0207474892
 40
0.0412716006
 40
0.0820581221
 40
0.123007883
 40
0.1639100271
 40
0.2444382688
 40
0.3245725211
 40
0.4061842734
 40
0.4479717478
 40
0.4914182365
 40
0.649541018
 40
0.7289634834
 40
0.8106560421
 40
0.8970003625
 40
0.9420674742
 40
0.9891559287
 40
1.0
 40
1.0
 40
1.0
 40
1.0
 10
14.8079010878
 20
12.8286920497
 30
0.0
 10
14.8079130347
 20
12.8193736298
 30
0.0
 10
14.8081443224
 20
12.8007975265
 30
0.0
 10
14.8096566687
 20
12.7638732466
 30
0.0
 10
14.8149144785
 20
12.6999099358
 30
0.0
 10
14.8301821132
 20
12.609428995
 30
0.0
 10
14.8606178428
 20
12.5036662718
 30
0.0
 10
14.9165485601
 20
12.3692632569
 30
0.0
 10
15.0163679008
 20
12.2158218262
 30
0.0
 10
15.1862122315
 20
12.0760123577
 30
0.0
 10
15.3556729703
 20
12.0022372868
 30
0.0
 10
15.5027928193
 20
11.973671473
 30
0.0
 10
15.7203718836
 20
11.9599807115
 30
0.0
 10
15.9777823273
 20
12.0223916467
 30
0.0
 10
16.2083993247
 20
12.1978359021
 30
0.0
 10
16.3350113198
 20
12.3837892243
 30
0.0
 10
16.3987334799
 20
12.5657050768
 30
0.0
 10
16.4241618901
 20
12.7237811511
 30
0.0
 10
16.4286550344
 20
12.8160563361
 30
0.0
 10
16.4280947576
 20
12.8679561808
 30
0.0
 10
16.427878277
 20
12.87766807
 30
0.0
  0
SPLINE
  5
6A8
100
AcDbEntity
  8
0
100
AcDbSpline
 62
7
  6
CONTINUOUS
 70
0
 71
3
 72
20
 73
16
 74
0
 42
0.0000001
 43
0.0000001
 44
0.0000000001
 40
0.0
 40
0.0
 40
0.0
 40
0.0
 40
0.0572164243
 40
0.1259090416
 40
0.1899024107
 40
0.2516979518
 40
0.3666568775
 40
0.4226515948
 40
0.4811108566
 40
0.6424617623
 40
0.7260628317
 40
0.8152762586
 40
0.9077988128
 40
0.9537448232
 40
1.0
 40
1.0
 40
1.0
 40
1.0
 10
4.4872512871
 20
12.519213628
 30
0.0
 10
4.4865884519
 20
12.4972380125
 30
0.0
 10
4.4826516663
 20
12.4489765569
 30
0.0
 10
4.4668384539
 20
12.377470804
 30
0.0
 10
4.4371835248
 20
12.3083406164
 30
0.0
 10
4.3833403626
 20
12.2327164165
 30
0.0
 10
4.3104412455
 20
12.1757365072
 30
0.0
 10
4.2258860367
 20
12.1486287948
 30
0.0
 10
4.1200689753
 20
12.1383569547
 30
0.0
 10
4.0007190783
 20
12.1718631278
 30
0.0
 10
3.9030683202
 20
12.2576785751
 30
0.0
 10
3.8489580192
 20
12.3453764201
 30
0.0
 10
3.8200781233
 20
12.4285818935
 30
0.0
 10
3.8082600299
 20
12.4986370143
 30
0.0
 10
3.8064256537
 20
12.534053549
 30
0.0
 10
3.8064060095
 20
12.5518163871
 30
0.0
  0
SPLINE
  5
6A9
100
AcDbEntity
  8
0
100
AcDbSpline
 62
7
  6
CONTINUOUS
 70
0
 71
3
 72
22
 73
18
 74
0
 42
0.0000001
 43
0.0000001
 44
0.0000000001
 40
0.0
 40
0.0
 40
0.0
 40
0.0
 40
0.0347934713
 40
0.0680881394
 40
0.1313457496
 40
0.2521632748
 40
0.3120984002
 40
0.3697590662
 40
0.4275848594
 40
0.4879953648
 40
0.5503890856
 40
0.6087058281
 40
0.7229097408
 40
0.8433811834
 40
0.9093353186
 40
0.9817892272
 40
1.0
 40
1.0
 40
1.0
 40
1.0
 10
3.8064060095
 20
12.5518163871
 30
0.0
 10
3.806391233
 20
12.5651777196
 30
0.0
 10
3.8073595337
 20
12.5913194929
 30
0.0
 10
3.8133750774
 20
12.6414290602
 30
0.0
 10
3.8345246154
 20
12.7226431855
 30
0.0
 10
3.887194981
 20
12.8038714029
 30
0.0
 10
3.9577021659
 20
12.8628789323
 30
0.0
 10
4.0172170756
 20
12.8954191699
 30
0.0
 10
4.0824716432
 20
12.9146405772
 30
0.0
 10
4.1519296702
 20
12.9204804883
 30
0.0
 10
4.2215963964
 20
12.9147254107
 30
0.0
 10
4.3088439921
 20
12.8896786309
 30
0.0
 10
4.4037152344
 20
12.8221265105
 30
0.0
 10
4.4622161141
 20
12.7185802243
 30
0.0
 10
4.4842051695
 20
12.621255948
 30
0.0
 10
4.4879446145
 20
12.561052736
 30
0.0
 10
4.4874622535
 20
12.5262079997
 30
0.0
 10
4.4872512871
 20
12.519213628
 30
0.0
  0
SPLINE
  5
6AA
100
AcDbEntity
  8
0
100
AcDbSpline
 62
7
  6
CONTINUOUS
 70
0
 71
3
 72
20
 73
16
 74
0
 42
0.0000001
 43
0.0000001
 44
0.0000000001
 40
0.0
 40
0.0
 40
0.0
 40
0.0
 40
0.0572164243
 40
0.1259090416
 40
0.1899024107
 40
0.2516979518
 40
0.3666568775
 40
0.4226515948
 40
0.4811108566
 40
0.6424617623
 40
0.7260628317
 40
0.8152762586
 40
0.9077988128
 40
0.9537448232
 40
1.0
 40
1.0
 40
1.0
 40
1.0
 10
7.1292613622
 20
12.519213628
 30
0.0
 10
7.1285985271
 20
12.4972380125
 30
0.0
 10
7.1246617414
 20
12.4489765569
 30
0.0
 10
7.108848529
 20
12.377470804
 30
0.0
 10
7.0791935999
 20
12.3083406164
 30
0.0
 10
7.0253504377
 20
12.2327164165
 30
0.0
 10
6.9524513206
 20
12.1757365072
 30
0.0
 10
6.8678961118
 20
12.1486287948
 30
0.0
 10
6.7620790504
 20
12.1383569547
 30
0.0
 10
6.6427291534
 20
12.1718631278
 30
0.0
 10
6.5450783953
 20
12.2576785751
 30
0.0
 10
6.4909680943
 20
12.3453764201
 30
0.0
 10
6.4620881984
 20
12.4285818935
 30
0.0
 10
6.450270105
 20
12.4986370143
 30
0.0
 10
6.4484357288
 20
12.534053549
 30
0.0
 10
6.4484160846
 20
12.5518163871
 30
0.0
  0
SPLINE
  5
6AB
100
AcDbEntity
  8
0
100
AcDbSpline
 62
7
  6
CONTINUOUS
 70
0
 71
3
 72
22
 73
18
 74
0
 42
0.0000001
 43
0.0000001
 44
0.0000000001
 40
0.0
 40
0.0
 40
0.0
 40
0.0
 40
0.0347934713
 40
0.0680881394
 40
0.1313457496
 40
0.2521632748
 40
0.3120984002
 40
0.3697590662
 40
0.4275848594
 40
0.4879953648
 40
0.5503890856
 40
0.6087058281
 40
0.7229097408
 40
0.8433811834
 40
0.9093353186
 40
0.9817892272
 40
1.0
 40
1.0
 40
1.0
 40
1.0
 10
6.4484160846
 20
12.5518163871
 30
0.0
 10
6.4484013081
 20
12.5651777196
 30
0.0
 10
6.4493696088
 20
12.5913194929
 30
0.0
 10
6.4553851525
 20
12.6414290602
 30
0.0
 10
6.4765346905
 20
12.7226431855
 30
0.0
 10
6.5292050561
 20
12.8038714029
 30
0.0
 10
6.599712241
 20
12.8628789323
 30
0.0
 10
6.6592271507
 20
12.8954191699
 30
0.0
 10
6.7244817183
 20
12.9146405772
 30
0.0
 10
6.7939397453
 20
12.9204804883
 30
0.0
 10
6.8636064715
 20
12.9147254107
 30
0.0
 10
6.9508540672
 20
12.8896786309
 30
0.0
 10
7.0457253095
 20
12.8221265105
 30
0.0
 10
7.1042261892
 20
12.7185802243
 30
0.0
 10
7.1262152446
 20
12.621255948
 30
0.0
 10
7.1299546896
 20
12.561052736
 30
0.0
 10
7.1294723286
 20
12.5262079997
 30
0.0
 10
7.1292613622
 20
12.519213628
 30
0.0
  0
SPLINE
  5
6AC
100
AcDbEntity
  8
0
100
AcDbSpline
 62
7
  6
CONTINUOUS
 70
0
 71
3
 72
25
 73
21
 74
0
 42
0.0000001
 43
0.0000001
 44
0.0000000001
 40
0.0
 40
0.0
 40
0.0
 40
0.0
 40
0.0514335127
 40
0.0974753557
 40
0.1736419787
 40
0.2358722462
 40
0.2912819311
 40
0.3421630814
 40
0.3923662866
 40
0.4442955522
 40
0.5000866919
 40
0.5383619081
 40
0.5740179499
 40
0.6411406999
 40
0.7101280716
 40
0.7880107919
 40
0.8828187826
 40
0.9383827827
 40
0.9684100182
 40
1.0
 40
1.0
 40
1.0
 40
1.0
 10
6.0149614468
 20
12.8406673757
 30
0.0
 10
6.0149875089
 20
12.8807745497
 30
0.0
 10
6.0135750739
 20
12.9567765044
 30
0.0
 10
6.005048811
 20
13.0918860357
 30
0.0
 10
5.9834291407
 20
13.2346733877
 30
0.0
 10
5.9362366117
 20
13.3787223481
 30
0.0
 10
5.8788961314
 20
13.4975905991
 30
0.0
 10
5.8019217657
 20
13.5941059072
 30
0.0
 10
5.7027656663
 20
13.6632488696
 30
0.0
 10
5.5855626819
 20
13.7051655794
 30
0.0
 10
5.4712855769
 20
13.7159825166
 30
0.0
 10
5.3700880897
 20
13.7095131831
 30
0.0
 10
5.2622372289
 20
13.6860591105
 30
0.0
 10
5.1405782757
 20
13.6224648128
 30
0.0
 10
5.0293088103
 20
13.4939950717
 30
0.0
 10
4.9512182978
 20
13.3203272643
 30
0.0
 10
4.9169886236
 20
13.1445485819
 30
0.0
 10
4.9047105114
 20
13.0044285869
 30
0.0
 10
4.9009716953
 20
12.9131299614
 30
0.0
 10
4.900355762
 20
12.8650919581
 30
0.0
 10
4.9003633062
 20
12.8404637232
 30
0.0
  0
SPLINE
  5
6AD
100
AcDbEntity
  8
0
100
AcDbSpline
 62
7
  6
CONTINUOUS
 70
0
 71
3
 72
25
 73
21
 74
0
 42
0.0000001
 43
0.0000001
 44
0.0000000001
 40
0.0
 40
0.0
 40
0.0
 40
0.0
 40
0.0252748524
 40
0.0496777713
 40
0.0959413722
 40
0.1788918516
 40
0.2504468259
 40
0.3126957994
 40
0.3587715651
 40
0.4037491419
 40
0.4501831796
 40
0.5004065656
 40
0.538895651
 40
0.5747150939
 40
0.6420519243
 40
0.7111453054
 40
0.7889985187
 40
0.8832681673
 40
0.9386609163
 40
1.0
 40
1.0
 40
1.0
 40
1.0
 10
4.9003633062
 20
12.8404637232
 30
0.0
 10
4.9003693423
 20
12.8207589
 30
0.0
 10
4.9007880117
 20
12.7820289574
 30
0.0
 10
4.903402989
 20
12.7072700827
 30
0.0
 10
4.9120528483
 20
12.5877869152
 30
0.0
 10
4.9362874643
 20
12.4327033108
 30
0.0
 10
4.9865403973
 20
12.2705677432
 30
0.0
 10
5.0568442868
 20
12.1471461693
 30
0.0
 10
5.1433045821
 20
12.062909246
 30
0.0
 10
5.2362718339
 20
12.0075647756
 30
0.0
 10
5.3429056233
 20
11.9752706928
 30
0.0
 10
5.4485251536
 20
11.9665569475
 30
0.0
 10
5.5457027928
 20
11.9727118993
 30
0.0
 10
5.6540004184
 20
11.9962879023
 30
0.0
 10
5.7759288549
 20
12.0602458362
 30
0.0
 10
5.887096256
 20
12.1891345271
 30
0.0
 10
5.9644829594
 20
12.3627036115
 30
0.0
 10
5.9986064008
 20
12.5378809846
 30
0.0
 10
6.0127834508
 20
12.7017985434
 30
0.0
 10
6.0149303654
 20
12.7928359683
 30
0.0
 10
6.0149614468
 20
12.8406673757
 30
0.0
  0
SPLINE
  5
6AE
100
AcDbEntity
  8
0
100
AcDbSpline
 62
7
  6
CONTINUOUS
 70
0
 71
3
 72
11
 73
7
 74
0
 42
0.0000001
 43
0.0000001
 44
0.0000000001
 40
0.0
 40
0.0
 40
0.0
 40
0.0
 40
0.1162102124
 40
0.3317882747
 40
0.5431267096
 40
1.0
 40
1.0
 40
1.0
 40
1.0
 10
20.5947865885
 20
13.1090893865
 30
0.0
 10
20.6016121929
 20
13.1370198432
 30
0.0
 10
20.625039074
 20
13.2157555591
 30
0.0
 10
20.6837548859
 20
13.3380161479
 30
0.0
 10
20.841153189
 20
13.4950231571
 30
0.0
 10
21.0148625887
 20
13.5377324265
 30
0.0
 10
21.1275040987
 20
13.5377324265
 30
0.0
  0
SPLINE
  5
6AF
100
AcDbEntity
  8
0
100
AcDbSpline
 62
7
  6
CONTINUOUS
 70
0
 71
3
 72
11
 73
7
 74
0
 42
0.0000001
 43
0.0000001
 44
0.0000000001
 40
0.0
 40
0.0
 40
0.0
 40
0.0
 40
0.0866582146
 40
0.3116844198
 40
0.5231858397
 40
1.0
 40
1.0
 40
1.0
 40
1.0
 10
20.3998921193
 20
12.4852083959
 30
0.0
 10
20.4087916808
 20
12.4586645548
 30
0.0
 10
20.4444391705
 20
12.3644096323
 30
0.0
 10
20.5289783138
 20
12.2156116528
 30
0.0
 10
20.7501818231
 20
12.0115871856
 30
0.0
 10
20.9867045717
 20
11.9690389444
 30
0.0
 10
21.1407270938
 20
11.9690389444
 30
0.0
  0
SPLINE
  5
6B0
100
AcDbEntity
  8
0
100
AcDbSpline
 62
7
  6
CONTINUOUS
 70
0
 71
3
 72
12
 73
8
 74
0
 42
0.0000001
 43
0.0000001
 44
0.0000000001
 40
0.0
 40
0.0
 40
0.0
 40
0.0
 40
0.0187751415
 40
0.2723568662
 40
0.4981981867
 40
0.7309919311
 40
1.0
 40
1.0
 40
1.0
 40
1.0
 10
17.1141419325
 20
12.2134259569
 30
0.0
 10
17.1115382373
 20
12.2145599681
 30
0.0
 10
17.0738905791
 20
12.2313036217
 30
0.0
 10
17.0083905785
 20
12.2697083495
 30
0.0
 10
16.9346709395
 20
12.3504585145
 30
0.0
 10
16.8907091802
 20
12.45255762
 30
0.0
 10
16.8764886307
 20
12.527312479
 30
0.0
 10
16.871971459
 20
12.5676193521
 30
0.0
  0
SPLINE
  5
6B1
100
AcDbEntity
  8
0
100
AcDbSpline
 62
7
  6
CONTINUOUS
 70
0
 71
3
 72
10
 73
6
 74
0
 42
0.0000001
 43
0.0000001
 44
0.0000000001
 40
0.0
 40
0.0
 40
0.0
 40
0.0
 40
0.1442436565
 40
0.4110007853
 40
1.0
 40
1.0
 40
1.0
 40
1.0
 10
16.7204056914
 20
13.2091455399
 30
0.0
 10
16.7229230293
 20
13.1893008577
 30
0.0
 10
16.7343025
 20
13.1333887219
 30
0.0
 10
16.7919078778
 20
13.0052902033
 30
0.0
 10
16.8911830093
 20
12.9278172795
 30
0.0
 10
16.9635647195
 20
12.8904529029
 30
0.0
  0
SPLINE
  5
6B2
100
AcDbEntity
  8
0
100
AcDbSpline
 62
7
  6
CONTINUOUS
 70
0
 71
3
 72
18
 73
14
 74
0
 42
0.0000001
 43
0.0000001
 44
0.0000000001
 40
0.0
 40
0.0
 40
0.0
 40
0.0
 40
0.0266531233
 40
0.1093929354
 40
0.1933044419
 40
0.2821650598
 40
0.369640163
 40
0.4526506338
 40
0.5348893368
 40
0.6201494781
 40
0.7079260703
 40
0.7981768338
 40
1.0
 40
1.0
 40
1.0
 40
1.0
 10
15.9776176054
 20
12.2878499218
 30
0.0
 10
15.9681436399
 20
12.2800899026
 30
0.0
 10
15.9281990347
 20
12.2495350361
 30
0.0
 10
15.8503828875
 20
12.2055640279
 30
0.0
 10
15.7371606787
 20
12.1718409356
 30
0.0
 10
15.6175569076
 20
12.1616846948
 30
0.0
 10
15.4983662203
 20
12.1718054265
 30
0.0
 10
15.3864273573
 20
12.2053000691
 30
0.0
 10
15.2855034411
 20
12.2620954673
 30
0.0
 10
15.1970812121
 20
12.3400416552
 30
0.0
 10
15.1237282318
 20
12.4371616867
 30
0.0
 10
15.0514512527
 20
12.5970273546
 30
0.0
 10
15.0349488287
 20
12.7333804564
 30
0.0
 10
15.0349488287
 20
12.8259506644
 30
0.0
  0
SPLINE
  5
6B3
100
AcDbEntity
  8
0
100
AcDbSpline
 62
7
  6
CONTINUOUS
 70
0
 71
3
 72
10
 73
6
 74
0
 42
0.0000001
 43
0.0000001
 44
0.0000000001
 40
0.0
 40
0.0
 40
0.0
 40
0.0
 40
0.1437025839
 40
0.430028558
 40
1.0
 40
1.0
 40
1.0
 40
1.0
 10
8.6509150323
 20
12.5855392306
 30
0.0
 10
8.6473545515
 20
12.6087503003
 30
0.0
 10
8.6316834324
 20
12.6774752973
 30
0.0
 10
8.5544007814
 20
12.8254396939
 30
0.0
 10
8.4206350285
 20
12.9015695239
 30
0.0
 10
8.3299452815
 20
12.9225427641
 30
0.0
  0
SPLINE
  5
6B4
100
AcDbEntity
  8
0
100
AcDbSpline
 62
7
  6
CONTINUOUS
 70
0
 71
3
 72
9
 73
5
 74
0
 42
0.0000001
 43
0.0000001
 44
0.0000000001
 40
0.0
 40
0.0
 40
0.0
 40
0.0
 40
0.2243368453
 40
1.0
 40
1.0
 40
1.0
 40
1.0
 10
7.8244947526
 20
13.6574860547
 30
0.0
 10
7.7925873378
 20
13.6409785775
 30
0.0
 10
7.6587674992
 20
13.5507588815
 30
0.0
 10
7.5847899456
 20
13.3908844859
 30
0.0
 10
7.563014085
 20
13.2694032783
 30
0.0
  0
SPLINE
  5
6B5
100
AcDbEntity
  8
0
100
AcDbSpline
 62
7
  6
CONTINUOUS
 70
0
 71
3
 72
11
 73
7
 74
0
 42
0.0000001
 43
0.0000001
 44
0.0000000001
 40
0.0
 40
0.0
 40
0.0
 40
0.0
 40
0.0767440388
 40
0.1974970117
 40
0.4286091491
 40
1.0
 40
1.0
 40
1.0
 40
1.0
 10
8.0649171692
 20
12.145263104
 30
0.0
 10
8.0523333452
 20
12.1460183066
 30
0.0
 10
8.0200583504
 20
12.1494268408
 30
0.0
 10
7.9515106541
 20
12.1662421587
 30
0.0
 10
7.8163346296
 20
12.2453083584
 30
0.0
 10
7.768088362
 20
12.3830026011
 30
0.0
 10
7.7487804184
 20
12.4747361854
 30
0.0
  0
SPLINE
  5
6B6
100
AcDbEntity
  8
0
100
AcDbSpline
 62
7
  6
CONTINUOUS
 70
0
 71
3
 72
23
 73
19
 74
0
 42
0.0000001
 43
0.0000001
 44
0.0000000001
 40
0.0
 40
0.0
 40
0.0
 40
0.0
 40
0.0553763048
 40
0.1370825342
 40
0.2086082121
 40
0.2742393825
 40
0.3371620967
 40
0.4006389219
 40
0.4678517829
 40
0.5079822395
 40
0.5465690235
 40
0.6218048486
 40
0.6970176518
 40
0.7757776369
 40
0.8576568479
 40
0.8990423508
 40
0.9414323925
 40
1.0
 40
1.0
 40
1.0
 40
1.0
 10
6.2312436937
 20
12.5183067083
 30
0.0
 10
6.2367708706
 20
12.4843283815
 30
0.0
 10
6.2538779702
 20
12.400769094
 30
0.0
 10
6.2959237465
 20
12.2772452209
 30
0.0
 10
6.3697265273
 20
12.1613429135
 30
0.0
 10
6.4606839225
 20
12.0751230754
 30
0.0
 10
6.5635838405
 20
12.0128182763
 30
0.0
 10
6.6793147112
 20
11.9763087065
 30
0.0
 10
6.7857212716
 20
11.9667000626
 30
0.0
 10
6.8764218974
 20
11.9718838609
 30
0.0
 10
6.9705892634
 20
11.9900016299
 30
0.0
 10
7.0803123503
 20
12.0364239194
 30
0.0
 10
7.1915586806
 20
12.1286554119
 30
0.0
 10
7.2729789747
 20
12.2525616032
 30
0.0
 10
7.3159644644
 20
12.3717244764
 30
0.0
 10
7.3332147859
 20
12.4733971746
 30
0.0
 10
7.3378203233
 20
12.5618527587
 30
0.0
 10
7.3335396866
 20
12.6246854887
 30
0.0
 10
7.327990012
 20
12.6606871278
 30
0.0
  0
SPLINE
  5
6B7
100
AcDbEntity
  8
0
100
AcDbSpline
 62
7
  6
CONTINUOUS
 70
0
 71
3
 72
17
 73
13
 74
0
 42
0.0000001
 43
0.0000001
 44
0.0000000001
 40
0.0
 40
0.0
 40
0.0
 40
0.0
 40
0.0063718223
 40
0.0960616541
 40
0.1823068531
 40
0.2687096187
 40
0.3533956038
 40
0.4341565744
 40
0.5145299232
 40
0.598102278
 40
0.7926890907
 40
1.0
 40
1.0
 40
1.0
 40
1.0
 10
7.327990012
 20
12.6606871278
 30
0.0
 10
7.3275970155
 20
12.66323656
 30
0.0
 10
7.3214403733
 20
12.7016378859
 30
0.0
 10
7.3030428099
 20
12.7734716348
 30
0.0
 10
7.256284304
 20
12.869575388
 30
0.0
 10
7.1915383809
 20
12.951910053
 30
0.0
 10
7.1145144782
 20
13.0194383059
 30
0.0
 10
7.027496767
 20
13.069001472
 30
0.0
 10
6.9321244623
 20
13.0982577359
 30
0.0
 10
6.787168032
 20
13.1117539379
 30
0.0
 10
6.5876026784
 20
13.0662755212
 30
0.0
 10
6.4636107149
 20
12.9483303023
 30
0.0
 10
6.417455029
 20
12.8783587135
 30
0.0
  0
SPLINE
  5
6B8
100
AcDbEntity
  8
0
100
AcDbSpline
 62
7
  6
CONTINUOUS
 70
0
 71
3
 72
11
 73
7
 74
0
 42
0.0000001
 43
0.0000001
 44
0.0000000001
 40
0.0
 40
0.0
 40
0.0
 40
0.0
 40
0.0767440388
 40
0.1974970117
 40
0.4286091491
 40
1.0
 40
1.0
 40
1.0
 40
1.0
 10
2.780897019
 20
12.145263104
 30
0.0
 10
2.768313195
 20
12.1460183066
 30
0.0
 10
2.7360382002
 20
12.1494268408
 30
0.0
 10
2.6674905039
 20
12.1662421587
 30
0.0
 10
2.5323144794
 20
12.2453083584
 30
0.0
 10
2.4840682118
 20
12.3830026011
 30
0.0
 10
2.4647602682
 20
12.4747361854
 30
0.0
  0
SPLINE
  5
6B9
100
AcDbEntity
  8
0
100
AcDbSpline
 62
7
  6
CONTINUOUS
 70
0
 71
3
 72
10
 73
6
 74
0
 42
0.0000001
 43
0.0000001
 44
0.0000000001
 40
0.0
 40
0.0
 40
0.0
 40
0.0
 40
0.1437025839
 40
0.430028558
 40
1.0
 40
1.0
 40
1.0
 40
1.0
 10
3.3668948821
 20
12.5855392306
 30
0.0
 10
3.3633344013
 20
12.6087503003
 30
0.0
 10
3.3476632822
 20
12.6774752973
 30
0.0
 10
3.2703806312
 20
12.8254396939
 30
0.0
 10
3.1366148783
 20
12.9015695239
 30
0.0
 10
3.0459251313
 20
12.9225427641
 30
0.0
  0
SPLINE
  5
6BA
100
AcDbEntity
  8
0
100
AcDbSpline
 62
7
  6
CONTINUOUS
 70
0
 71
3
 72
9
 73
5
 74
0
 42
0.0000001
 43
0.0000001
 44
0.0000000001
 40
0.0
 40
0.0
 40
0.0
 40
0.0
 40
0.2243368453
 40
1.0
 40
1.0
 40
1.0
 40
1.0
 10
2.5404746024
 20
13.6574860547
 30
0.0
 10
2.5085671876
 20
13.6409785775
 30
0.0
 10
2.374747349
 20
13.5507588815
 30
0.0
 10
2.3007697954
 20
13.3908844859
 30
0.0
 10
2.2789939348
 20
13.2694032783
 30
0.0
  0
SPLINE
  5
6BB
100
AcDbEntity
  8
0
100
AcDbSpline
 62
7
  6
CONTINUOUS
 70
0
 71
3
 72
23
 73
19
 74
0
 42
0.0000001
 43
0.0000001
 44
0.0000000001
 40
0.0
 40
0.0
 40
0.0
 40
0.0
 40
0.0553763048
 40
0.1370825342
 40
0.2086082121
 40
0.2742393825
 40
0.3371620967
 40
0.4006389219
 40
0.4678517829
 40
0.5079822395
 40
0.5465690235
 40
0.6218048486
 40
0.6970176518
 40
0.7757776369
 40
0.8576568479
 40
0.8990423508
 40
0.9414323925
 40
1.0
 40
1.0
 40
1.0
 40
1.0
 10
3.5892336186
 20
12.5183067083
 30
0.0
 10
3.5947607955
 20
12.4843283815
 30
0.0
 10
3.6118678951
 20
12.400769094
 30
0.0
 10
3.6539136714
 20
12.2772452209
 30
0.0
 10
3.7277164522
 20
12.1613429135
 30
0.0
 10
3.8186738474
 20
12.0751230754
 30
0.0
 10
3.9215737654
 20
12.0128182763
 30
0.0
 10
4.0373046361
 20
11.9763087065
 30
0.0
 10
4.1437111965
 20
11.9667000626
 30
0.0
 10
4.2344118223
 20
11.9718838609
 30
0.0
 10
4.3285791883
 20
11.9900016299
 30
0.0
 10
4.4383022752
 20
12.0364239194
 30
0.0
 10
4.5495486055
 20
12.1286554119
 30
0.0
 10
4.6309688996
 20
12.2525616032
 30
0.0
 10
4.6739543893
 20
12.3717244764
 30
0.0
 10
4.6912047108
 20
12.4733971746
 30
0.0
 10
4.6958102482
 20
12.5618527587
 30
0.0
 10
4.6915296115
 20
12.6246854887
 30
0.0
 10
4.6859799369
 20
12.6606871278
 30
0.0
  0
SPLINE
  5
6BC
100
AcDbEntity
  8
0
100
AcDbSpline
 62
7
  6
CONTINUOUS
 70
0
 71
3
 72
17
 73
13
 74
0
 42
0.0000001
 43
0.0000001
 44
0.0000000001
 40
0.0
 40
0.0
 40
0.0
 40
0.0
 40
0.0063718223
 40
0.0960616541
 40
0.1823068531
 40
0.2687096187
 40
0.3533956038
 40
0.4341565744
 40
0.5145299232
 40
0.598102278
 40
0.7926890907
 40
1.0
 40
1.0
 40
1.0
 40
1.0
 10
4.6859799369
 20
12.6606871278
 30
0.0
 10
4.6855869404
 20
12.66323656
 30
0.0
 10
4.6794302982
 20
12.7016378859
 30
0.0
 10
4.6610327348
 20
12.7734716348
 30
0.0
 10
4.6142742289
 20
12.869575388
 30
0.0
 10
4.5495283058
 20
12.951910053
 30
0.0
 10
4.4725044031
 20
13.0194383059
 30
0.0
 10
4.3854866919
 20
13.069001472
 30
0.0
 10
4.2901143872
 20
13.0982577359
 30
0.0
 10
4.1451579569
 20
13.1117539379
 30
0.0
 10
3.9455926033
 20
13.0662755212
 30
0.0
 10
3.8216006398
 20
12.9483303023
 30
0.0
 10
3.7754449539
 20
12.8783587135
 30
0.0
  0
SPLINE
  5
6BD
100
AcDbEntity
  8
0
100
AcDbSpline
 62
7
  6
CONTINUOUS
 70
0
 71
3
 72
11
 73
7
 74
0
 42
0.0000001
 43
0.0000001
 44
0.0000000001
 40
0.0
 40
0.0
 40
0.0
 40
0.0
 40
0.1162102124
 40
0.3317882747
 40
0.5431267096
 40
1.0
 40
1.0
 40
1.0
 40
1.0
 10
-9.4683983676
 20
13.1090893865
 30
0.0
 10
-9.4615727632
 20
13.1370198432
 30
0.0
 10
-9.4381458821
 20
13.2157555591
 30
0.0
 10
-9.3794300703
 20
13.3380161479
 30
0.0
 10
-9.2220317671
 20
13.4950231571
 30
0.0
 10
-9.0483223674
 20
13.5377324265
 30
0.0
 10
-8.9356808574
 20
13.5377324265
 30
0.0
  0
SPLINE
  5
6BE
100
AcDbEntity
  8
0
100
AcDbSpline
 62
7
  6
CONTINUOUS
 70
0
 71
3
 72
11
 73
7
 74
0
 42
0.0000001
 43
0.0000001
 44
0.0000000001
 40
0.0
 40
0.0
 40
0.0
 40
0.0
 40
0.0866582146
 40
0.3116844198
 40
0.5231858397
 40
1.0
 40
1.0
 40
1.0
 40
1.0
 10
-9.6632928368
 20
12.4852083959
 30
0.0
 10
-9.6543932754
 20
12.4586645548
 30
0.0
 10
-9.6187457857
 20
12.3644096323
 30
0.0
 10
-9.5342066423
 20
12.2156116528
 30
0.0
 10
-9.313003133
 20
12.0115871856
 30
0.0
 10
-9.0764803845
 20
11.9690389444
 30
0.0
 10
-8.9224578623
 20
11.9690389444
 30
0.0
  0
SPLINE
  5
6BF
100
AcDbEntity
  8
0
100
AcDbSpline
 62
7
  6
CONTINUOUS
 70
0
 71
3
 72
12
 73
8
 74
0
 42
0.0000001
 43
0.0000001
 44
0.0000000001
 40
0.0
 40
0.0
 40
0.0
 40
0.0
 40
0.0187751415
 40
0.2723568662
 40
0.4981981867
 40
0.7309919311
 40
1.0
 40
1.0
 40
1.0
 40
1.0
 10
-24.2807893614
 20
12.2134259569
 30
0.0
 10
-24.2833930565
 20
12.2145599681
 30
0.0
 10
-24.3210407148
 20
12.2313036217
 30
0.0
 10
-24.3865407154
 20
12.2697083495
 30
0.0
 10
-24.4602603544
 20
12.3504585145
 30
0.0
 10
-24.5042221137
 20
12.45255762
 30
0.0
 10
-24.5184426631
 20
12.527312479
 30
0.0
 10
-24.5229598349
 20
12.5676193521
 30
0.0
  0
SPLINE
  5
6C0
100
AcDbEntity
  8
0
100
AcDbSpline
 62
7
  6
CONTINUOUS
 70
0
 71
3
 72
10
 73
6
 74
0
 42
0.0000001
 43
0.0000001
 44
0.0000000001
 40
0.0
 40
0.0
 40
0.0
 40
0.0
 40
0.1442436565
 40
0.4110007853
 40
1.0
 40
1.0
 40
1.0
 40
1.0
 10
-24.6745256025
 20
13.2091455399
 30
0.0
 10
-24.6720082646
 20
13.1893008577
 30
0.0
 10
-24.6606287938
 20
13.1333887219
 30
0.0
 10
-24.6030234161
 20
13.0052902033
 30
0.0
 10
-24.5037482846
 20
12.9278172795
 30
0.0
 10
-24.4313665743
 20
12.8904529029
 30
0.0
  0
ELLIPSE
  5
6C1
100
AcDbEntity
  8
RACCORDO
100
AcDbEllipse
 62
7
  6
CONTINUOUS
 10
4.3842904416
 20
19.7
 30
0.0
 11
0.0
 21
0.3
 31
0.0
 40
0.0174550649
 41
0.0
 42
1.5707963268
  0
ELLIPSE
  5
6C2
100
AcDbEntity
  8
RACCORDO
100
AcDbEllipse
 62
7
  6
CONTINUOUS
 10
-4.3842904416
 20
19.7
 30
0.0
 11
0.0
 21
0.3
 31
0.0
 40
0.0174550649
 41
-1.5707963268
 42
0.0
  0
ELLIPSE
  5
6C3
100
AcDbEntity
  8
RACCORDO
100
AcDbEllipse
 62
7
  6
CONTINUOUS
 10
3.899923836
 20
52.899923836
 30
0.0
 11
0.3536610946
 21
0.3536610946
 31
0.0
 40
0.9996954599
 41
-0.7852458701
 42
0.7852458701
  0
ELLIPSE
  5
6C4
100
AcDbEntity
  8
RACCORDO
100
AcDbEllipse
 62
7
  6
CONTINUOUS
 10
-3.899923836
 20
52.899923836
 30
0.0
 11
0.3536610946
 21
-0.3536610946
 31
0.0
 40
0.9996954599
 41
2.3563467834
 42
3.9268385237
  0
ELLIPSE
  5
6C5
100
AcDbEntity
  8
RACCORDO
100
AcDbEllipse
 62
7
  6
CONTINUOUS
 10
3.8248670568
 20
52.8248670568
 30
0.0
 11
0.3536610946
 21
0.3536610946
 31
0.0
 40
0.9996954599
 41
-0.7852458701
 42
0.7852458701
  0
ELLIPSE
  5
6C6
100
AcDbEntity
  8
RACCORDO
100
AcDbEllipse
 62
7
  6
CONTINUOUS
 10
-3.8248670568
 20
52.8248670568
 30
0.0
 11
-0.3536610946
 21
0.3536610946
 31
0.0
 40
0.9996954599
 41
-0.7852458701
 42
0.7852458701
  0
ELLIPSE
  5
6C7
100
AcDbEntity
  8
0
100
AcDbEllipse
 62
7
  6
CONTINUOUS
 10
31.5282812517
 20
54.9162708399
 30
0.0
 11
0.0
 21
0.2
 31
0.0
 40
0.0087268678
 41
-1.5620696805
 42
-0.1141042072
  0
ELLIPSE
  5
6C8
100
AcDbEntity
  8
0
100
AcDbEllipse
 62
7
  6
CONTINUOUS
 10
31.481110426
 20
55.363456897
 30
0.0
 11
-0.0
 21
0.2
 31
0.0
 40
0.0087268678
 41
-4.7123889804
 42
-3.1503192999
  0
ELLIPSE
  5
6C9
100
AcDbEntity
  8
0
100
AcDbEllipse
 62
7
  6
CONTINUOUS
 10
29.9580089886
 20
55.363456897
 30
0.0
 11
-0.0
 21
0.2
 31
0.0
 40
0.0087268678
 41
-3.1328660073
 42
-1.5707963268
  0
ELLIPSE
  5
6CA
100
AcDbEntity
  8
0
100
AcDbEllipse
 62
7
  6
CONTINUOUS
 10
29.8111699849
 20
57.5531419571
 30
0.0
 11
-0.0
 21
0.5
 31
0.0
 40
0.0087268678
 41
0.0087266463
 42
1.0508129309
  0
ELLIPSE
  5
6CB
100
AcDbEntity
  8
0
100
AcDbEllipse
 62
7
  6
CONTINUOUS
 10
29.8017980551
 20
55.6774351308
 30
0.0
 11
-0.0
 21
0.5
 31
0.0
 40
0.0087268678
 41
1.0508129309
 42
1.5707963268
  0
ELLIPSE
  5
6CC
100
AcDbEntity
  8
0
100
AcDbEllipse
 62
7
  6
CONTINUOUS
 10
-29.8017980551
 20
55.6774351308
 30
0.0
 11
-0.0
 21
0.5
 31
0.0
 40
0.0087268678
 41
-1.5707963268
 42
-1.0508129309
  0
ELLIPSE
  5
6CD
100
AcDbEntity
  8
0
100
AcDbEllipse
 62
7
  6
CONTINUOUS
 10
-29.8111699849
 20
57.5531419571
 30
0.0
 11
0.0
 21
0.5
 31
0.0
 40
0.0087268678
 41
-1.0508129309
 42
-0.0087266463
  0
ELLIPSE
  5
6CE
100
AcDbEntity
  8
0
100
AcDbEllipse
 62
7
  6
CONTINUOUS
 10
-29.9580089886
 20
55.363456897
 30
0.0
 11
-0.0
 21
0.2
 31
0.0
 40
0.0087268678
 41
-4.7123889804
 42
-3.1503192999
  0
ELLIPSE
  5
6CF
100
AcDbEntity
  8
0
100
AcDbEllipse
 62
7
  6
CONTINUOUS
 10
29.9108381629
 20
54.9162708399
 30
0.0
 11
0.0
 21
0.2
 31
0.0
 40
0.0087268678
 41
0.0087266463
 42
1.5620696805
  0
ELLIPSE
  5
6D0
100
AcDbEntity
  8
0
100
AcDbEllipse
 62
7
  6
CONTINUOUS
 10
-29.9108381629
 20
54.9162708399
 30
0.0
 11
0.0
 21
0.2
 31
0.0
 40
0.0087268678
 41
-1.5620696805
 42
-0.1141042072
  0
ELLIPSE
  5
6D1
100
AcDbEntity
  8
0
100
AcDbEllipse
 62
7
  6
CONTINUOUS
 10
-31.5282812517
 20
54.9162708399
 30
0.0
 11
0.0
 21
0.2
 31
0.0
 40
0.0087268678
 41
0.0087266463
 42
1.5620696805
  0
ELLIPSE
  5
6D2
100
AcDbEntity
  8
0
100
AcDbEllipse
 62
7
  6
CONTINUOUS
 10
0.5333897224
 20
57.5531419571
 30
0.0
 11
0.0
 21
0.5
 31
0.0
 40
0.0087268678
 41
-1.0508129309
 42
-0.0087266463
  0
ELLIPSE
  5
6D3
100
AcDbEntity
  8
0
100
AcDbEllipse
 62
7
  6
CONTINUOUS
 10
0.5427616522
 20
55.6774351308
 30
0.0
 11
0.0
 21
0.5
 31
0.0
 40
0.0087268678
 41
-1.5707963268
 42
-1.0508129309
  0
ELLIPSE
  5
6D4
100
AcDbEntity
  8
0
100
AcDbEllipse
 62
7
  6
CONTINUOUS
 10
-31.5323198427
 20
47.7245196757
 30
0.0
 11
0.0
 21
0.2
 31
0.0
 40
0.0087268678
 41
-3.1241393611
 42
-1.5795229731
  0
ELLIPSE
  5
6D5
100
AcDbEntity
  8
0
100
AcDbEllipse
 62
7
  6
CONTINUOUS
 10
-31.481110426
 20
55.363456897
 30
0.0
 11
-0.0
 21
0.2
 31
0.0
 40
0.0087268678
 41
-3.1328660073
 42
-1.5707963268
  0
ELLIPSE
  5
6D6
100
AcDbEntity
  8
0
100
AcDbEllipse
 62
7
  6
CONTINUOUS
 10
-0.5333897224
 20
57.5531419571
 30
0.0
 11
0.0
 21
0.5
 31
0.0
 40
0.0087268678
 41
0.0087266463
 42
1.0508129309
  0
ELLIPSE
  5
6D7
100
AcDbEntity
  8
0
100
AcDbEllipse
 62
7
  6
CONTINUOUS
 10
-0.5427616522
 20
55.6774351308
 30
0.0
 11
0.0
 21
0.5
 31
0.0
 40
0.0087268678
 41
1.0508129309
 42
1.5707963268
  0
ELLIPSE
  5
6D8
100
AcDbEntity
  8
0
100
AcDbEllipse
 62
7
  6
CONTINUOUS
 10
-31.5282812517
 20
-54.9162708399
 30
0.0
 11
0.0
 21
0.2
 31
0.0
 40
0.0087268678
 41
-4.7036623341
 42
-3.2556968608
  0
ELLIPSE
  5
6D9
100
AcDbEntity
  8
0
100
AcDbEllipse
 62
7
  6
CONTINUOUS
 10
-31.481110426
 20
-55.363456897
 30
0.0
 11
0.0
 21
0.2
 31
0.0
 40
0.0087268678
 41
-1.5707963268
 42
-0.0087266463
  0
ELLIPSE
  5
6DA
100
AcDbEntity
  8
0
100
AcDbEllipse
 62
7
  6
CONTINUOUS
 10
-29.9580089886
 20
-55.363456897
 30
0.0
 11
0.0
 21
0.2
 31
0.0
 40
0.0087268678
 41
0.0087266463
 42
1.5707963268
  0
ELLIPSE
  5
6DB
100
AcDbEntity
  8
0
100
AcDbEllipse
 62
7
  6
CONTINUOUS
 10
-29.8111699849
 20
-57.5531419571
 30
0.0
 11
0.0
 21
0.5
 31
0.0
 40
0.0087268678
 41
-3.1328660073
 42
-2.0907797227
  0
ELLIPSE
  5
6DC
100
AcDbEntity
  8
0
100
AcDbEllipse
 62
7
  6
CONTINUOUS
 10
-29.8017980551
 20
-55.6774351308
 30
0.0
 11
-0.0
 21
0.5
 31
0.0
 40
0.0087268678
 41
-2.0907797227
 42
-1.5707963268
  0
ELLIPSE
  5
6DD
100
AcDbEntity
  8
0
100
AcDbEllipse
 62
7
  6
CONTINUOUS
 10
29.8017980551
 20
-55.6774351308
 30
0.0
 11
0.0
 21
0.5
 31
0.0
 40
0.0087268678
 41
-4.7123889804
 42
-4.1924055845
  0
ELLIPSE
  5
6DE
100
AcDbEntity
  8
0
100
AcDbEllipse
 62
7
  6
CONTINUOUS
 10
29.8111699849
 20
-57.5531419571
 30
0.0
 11
0.0
 21
0.5
 31
0.0
 40
0.0087268678
 41
-4.1924055845
 42
-3.1503192998
  0
ELLIPSE
  5
6DF
100
AcDbEntity
  8
0
100
AcDbEllipse
 62
7
  6
CONTINUOUS
 10
29.9580089886
 20
-55.363456897
 30
0.0
 11
-0.0
 21
0.2
 31
0.0
 40
0.0087268678
 41
-1.5707963268
 42
-0.0087266463
  0
ELLIPSE
  5
6E0
100
AcDbEntity
  8
0
100
AcDbEllipse
 62
7
  6
CONTINUOUS
 10
-29.9108381629
 20
-54.9162708399
 30
0.0
 11
-0.0
 21
0.2
 31
0.0
 40
0.0087268678
 41
-3.1328660073
 42
-1.5795229731
  0
ELLIPSE
  5
6E1
100
AcDbEntity
  8
0
100
AcDbEllipse
 62
7
  6
CONTINUOUS
 10
29.9108381629
 20
-54.9162708399
 30
0.0
 11
0.0
 21
0.2
 31
0.0
 40
0.0087268678
 41
-4.7036623341
 42
-3.2556968608
  0
ELLIPSE
  5
6E2
100
AcDbEntity
  8
0
100
AcDbEllipse
 62
7
  6
CONTINUOUS
 10
31.5282812517
 20
-54.9162708399
 30
0.0
 11
0.0
 21
0.2
 31
0.0
 40
0.0087268678
 41
-3.1328660073
 42
-1.5795229731
  0
ELLIPSE
  5
6E3
100
AcDbEntity
  8
0
100
AcDbEllipse
 62
7
  6
CONTINUOUS
 10
-0.5333897224
 20
-57.5531419571
 30
0.0
 11
0.0
 21
0.5
 31
0.0
 40
0.0087268678
 41
-4.1924055845
 42
-3.1503192998
  0
ELLIPSE
  5
6E4
100
AcDbEntity
  8
0
100
AcDbEllipse
 62
7
  6
CONTINUOUS
 10
-0.5427616522
 20
-55.6774351308
 30
0.0
 11
0.0
 21
0.5
 31
0.0
 40
0.0087268678
 41
-4.7123889804
 42
-4.1924055845
  0
ELLIPSE
  5
6E5
100
AcDbEntity
  8
0
100
AcDbEllipse
 62
7
  6
CONTINUOUS
 10
31.5323198427
 20
-47.7245196757
 30
0.0
 11
-0.0
 21
0.2
 31
0.0
 40
0.0087268678
 41
0.0174532925
 42
1.5620696805
  0
ELLIPSE
  5
6E6
100
AcDbEntity
  8
0
100
AcDbEllipse
 62
7
  6
CONTINUOUS
 10
31.481110426
 20
-55.363456897
 30
0.0
 11
-0.0
 21
0.2
 31
0.0
 40
0.0087268678
 41
0.0087266463
 42
1.5707963268
  0
ELLIPSE
  5
6E7
100
AcDbEntity
  8
0
100
AcDbEllipse
 62
7
  6
CONTINUOUS
 10
0.5333897224
 20
-57.5531419571
 30
0.0
 11
0.0
 21
0.5
 31
0.0
 40
0.0087268678
 41
-3.1328660073
 42
-2.0907797227
  0
ELLIPSE
  5
6E8
100
AcDbEntity
  8
0
100
AcDbEllipse
 62
7
  6
CONTINUOUS
 10
0.5427616522
 20
-55.6774351308
 30
0.0
 11
0.0
 21
0.5
 31
0.0
 40
0.0087268678
 41
-2.0907797227
 42
-1.5707963268
  0
ELLIPSE
  5
6E9
100
AcDbEntity
  8
RACCORDO
100
AcDbEllipse
 62
7
  6
CONTINUOUS
 10
-35.499923836
 20
46.75
 30
0.0
 11
0.3536610946
 21
-0.3536610946
 31
0.0
 40
0.9996954599
 41
3.2843128826
 42
3.9268385237
  0
ELLIPSE
  5
6EA
100
AcDbEntity
  8
RACCORDO
100
AcDbEllipse
 62
7
  6
CONTINUOUS
 10
35.499923836
 20
46.75
 30
0.0
 11
0.3536610946
 21
0.3536610946
 31
0.0
 40
0.9996954599
 41
-0.7852458701
 42
-0.142720229
  0
ELLIPSE
  5
6EB
100
AcDbEntity
  8
RACCORDO
100
AcDbEllipse
 62
7
  6
CONTINUOUS
 10
35.499923836
 20
-46.75
 30
0.0
 11
-0.3536610946
 21
0.3536610946
 31
0.0
 40
0.9996954599
 41
3.2843128826
 42
3.9268385237
  0
ELLIPSE
  5
6EC
100
AcDbEntity
  8
RACCORDO
100
AcDbEllipse
 62
7
  6
CONTINUOUS
 10
-35.499923836
 20
-46.75
 30
0.0
 11
-0.3536610946
 21
-0.3536610946
 31
0.0
 40
0.9996954599
 41
-0.7852458701
 42
-0.142720229
  0
ELLIPSE
  5
6ED
100
AcDbEntity
  8
RACCORDO
100
AcDbEllipse
 62
7
  6
CONTINUOUS
 10
34.6146972986
 20
-34.8580729562
 30
0.0
 11
-0.0
 21
1.0
 31
0.0
 40
0.0174550649
 41
-3.1328660073
 42
-1.5707963268
  0
ELLIPSE
  5
6EE
100
AcDbEntity
  8
RACCORDO
100
AcDbEllipse
 62
7
  6
CONTINUOUS
 10
34.6146972986
 20
-25.1419270438
 30
0.0
 11
-0.0
 21
1.0
 31
0.0
 40
0.0174550649
 41
-1.5707963268
 42
-0.0087266463
  0
ELLIPSE
  5
6EF
100
AcDbEntity
  8
RACCORDO
100
AcDbEllipse
 62
7
  6
CONTINUOUS
 10
34.6146972986
 20
25.1419270438
 30
0.0
 11
0.0
 21
1.0
 31
0.0
 40
0.0174550649
 41
-3.1328660073
 42
-1.5707963268
  0
ELLIPSE
  5
6F0
100
AcDbEntity
  8
RACCORDO
100
AcDbEllipse
 62
7
  6
CONTINUOUS
 10
34.6146972986
 20
34.8580729562
 30
0.0
 11
0.0
 21
1.0
 31
0.0
 40
0.0174550649
 41
-1.5707963268
 42
-0.0087266463
  0
ELLIPSE
  5
6F1
100
AcDbEntity
  8
RACCORDO
100
AcDbEllipse
 62
7
  6
CONTINUOUS
 10
-34.6146972986
 20
34.8580729562
 30
0.0
 11
0.0
 21
1.0
 31
0.0
 40
0.0174550649
 41
0.0087266463
 42
1.5707963268
  0
ELLIPSE
  5
6F2
100
AcDbEntity
  8
RACCORDO
100
AcDbEllipse
 62
7
  6
CONTINUOUS
 10
-34.6146972986
 20
25.1419270438
 30
0.0
 11
0.0
 21
1.0
 31
0.0
 40
0.0174550649
 41
-4.7123889804
 42
-3.1503192999
  0
ELLIPSE
  5
6F3
100
AcDbEntity
  8
RACCORDO
100
AcDbEllipse
 62
7
  6
CONTINUOUS
 10
-34.6146972986
 20
-25.1419270438
 30
0.0
 11
0.0
 21
1.0
 31
0.0
 40
0.0174550649
 41
0.0087266463
 42
1.5707963268
  0
ELLIPSE
  5
6F4
100
AcDbEntity
  8
RACCORDO
100
AcDbEllipse
 62
7
  6
CONTINUOUS
 10
-34.6146972986
 20
-34.8580729562
 30
0.0
 11
0.0
 21
1.0
 31
0.0
 40
0.0174550649
 41
-4.7123889804
 42
-3.1503192999
  0
ELLIPSE
  5
6F5
100
AcDbEntity
  8
RACCORDO
100
AcDbEllipse
 62
7
  6
CONTINUOUS
 10
35.8162156883
 20
-34.8580729562
 30
0.0
 11
0.0
 21
1.0
 31
0.0
 40
0.0174550649
 41
-4.7123889804
 42
-3.1503192999
  0
ELLIPSE
  5
6F6
100
AcDbEntity
  8
RACCORDO
100
AcDbEllipse
 62
7
  6
CONTINUOUS
 10
35.8162156883
 20
-25.1419270438
 30
0.0
 11
0.0
 21
1.0
 31
0.0
 40
0.0174550649
 41
0.0087266463
 42
1.5707963268
  0
ELLIPSE
  5
6F7
100
AcDbEntity
  8
RACCORDO
100
AcDbEllipse
 62
7
  6
CONTINUOUS
 10
35.8162156883
 20
25.1419270438
 30
0.0
 11
0.0
 21
1.0
 31
0.0
 40
0.0174550649
 41
-4.7123889804
 42
-3.1503192999
  0
ELLIPSE
  5
6F8
100
AcDbEntity
  8
RACCORDO
100
AcDbEllipse
 62
7
  6
CONTINUOUS
 10
35.8162156883
 20
34.8580729562
 30
0.0
 11
0.0
 21
1.0
 31
0.0
 40
0.0174550649
 41
0.0087266463
 42
1.5707963268
  0
ELLIPSE
  5
6F9
100
AcDbEntity
  8
RACCORDO
100
AcDbEllipse
 62
7
  6
CONTINUOUS
 10
-35.8162156883
 20
-25.1419270438
 30
0.0
 11
0.0
 21
1.0
 31
0.0
 40
0.0174550649
 41
-1.5707963268
 42
-0.0087266463
  0
ELLIPSE
  5
6FA
100
AcDbEntity
  8
RACCORDO
100
AcDbEllipse
 62
7
  6
CONTINUOUS
 10
-35.8162156883
 20
-34.8580729562
 30
0.0
 11
0.0
 21
1.0
 31
0.0
 40
0.0174550649
 41
-3.1328660073
 42
-1.5707963268
  0
ELLIPSE
  5
6FB
100
AcDbEntity
  8
RACCORDO
100
AcDbEllipse
 62
7
  6
CONTINUOUS
 10
-35.8162156883
 20
25.1419270438
 30
0.0
 11
0.0
 21
1.0
 31
0.0
 40
0.0174550649
 41
-3.1328660073
 42
-1.5707963268
  0
ELLIPSE
  5
6FC
100
AcDbEntity
  8
RACCORDO
100
AcDbEllipse
 62
7
  6
CONTINUOUS
 10
-35.8162156883
 20
34.8580729562
 30
0.0
 11
0.0
 21
1.0
 31
0.0
 40
0.0174550649
 41
-1.5707963268
 42
-0.0087266463
  0
ELLIPSE
  5
6FD
100
AcDbEntity
  8
RACCORDO
100
AcDbEllipse
 62
7
  6
CONTINUOUS
 10
34.899847672
 20
53.899847672
 30
0.0
 11
0.7073221892
 21
0.7073221892
 31
0.0
 40
0.9996954599
 41
-0.7852458701
 42
0.7852458701
  0
ELLIPSE
  5
6FE
100
AcDbEntity
  8
RACCORDO
100
AcDbEllipse
 62
7
  6
CONTINUOUS
 10
-34.899847672
 20
53.899847672
 30
0.0
 11
-0.7073221892
 21
0.7073221892
 31
0.0
 40
0.9996954599
 41
-0.7852458701
 42
0.7852458701
  0
ELLIPSE
  5
6FF
100
AcDbEntity
  8
RACCORDO
100
AcDbEllipse
 62
7
  6
CONTINUOUS
 10
34.899847672
 20
-53.899847672
 30
0.0
 11
0.7073221892
 21
-0.7073221892
 31
0.0
 40
0.9996954599
 41
-0.7852458701
 42
0.7852458701
  0
ELLIPSE
  5
700
100
AcDbEntity
  8
RACCORDO
100
AcDbEllipse
 62
7
  6
CONTINUOUS
 10
-34.899847672
 20
-53.899847672
 30
0.0
 11
0.7073221892
 21
0.7073221892
 31
0.0
 40
0.9996954599
 41
-3.9268385237
 42
-2.3563467834
  0
ELLIPSE
  5
701
100
AcDbEntity
  8
RACCORDO
100
AcDbEllipse
 62
7
  6
CONTINUOUS
 10
34.7951172824
 20
53.7951172824
 30
0.0
 11
-0.7073221892
 21
-0.7073221892
 31
0.0
 40
0.9996954599
 41
2.3563467834
 42
3.9268385237
  0
ELLIPSE
  5
702
100
AcDbEntity
  8
RACCORDO
100
AcDbEllipse
 62
7
  6
CONTINUOUS
 10
5.9546029997
 20
-0.9542982275
 30
0.0
 11
0.0
 21
0.5
 31
0.0
 40
0.0349207695
 41
1.5707963268
 42
3.1066860685
  0
ELLIPSE
  5
703
100
AcDbEntity
  8
RACCORDO
100
AcDbEllipse
 62
7
  6
CONTINUOUS
 10
5.9546029997
 20
0.9542982275
 30
0.0
 11
0.0
 21
0.5
 31
0.0
 40
0.0349207695
 41
0.034906585
 42
1.5707963268
  0
ELLIPSE
  5
704
100
AcDbEntity
  8
RACCORDO
100
AcDbEllipse
 62
7
  6
CONTINUOUS
 10
-5.9546029997
 20
0.9542982275
 30
0.0
 11
0.0
 21
0.5
 31
0.0
 40
0.0349207695
 41
-1.5707963268
 42
-0.034906585
  0
ELLIPSE
  5
705
100
AcDbEntity
  8
RACCORDO
100
AcDbEllipse
 62
7
  6
CONTINUOUS
 10
-5.9546029997
 20
-0.9542982275
 30
0.0
 11
0.0
 21
0.5
 31
0.0
 40
0.0349207695
 41
-3.1066860685
 42
-1.5707963268
  0
ELLIPSE
  5
706
100
AcDbEntity
  8
RACCORDO
100
AcDbEllipse
 62
7
  6
CONTINUOUS
 10
4.8483339502
 20
-0.9542982275
 30
0.0
 11
0.0
 21
0.5
 31
0.0
 40
0.2679491924
 41
-3.1066860685
 42
-1.5707963268
  0
ELLIPSE
  5
707
100
AcDbEntity
  8
RACCORDO
100
AcDbEllipse
 62
7
  6
CONTINUOUS
 10
4.8483339502
 20
0.9542982275
 30
0.0
 11
0.0
 21
0.5
 31
0.0
 40
0.2679491924
 41
-1.5707963268
 42
-0.034906585
  0
ELLIPSE
  5
708
100
AcDbEntity
  8
RACCORDO
100
AcDbEllipse
 62
7
  6
CONTINUOUS
 10
-4.8483339502
 20
0.9542982275
 30
0.0
 11
-0.0
 21
0.5
 31
0.0
 40
0.2679491924
 41
0.034906585
 42
1.5707963268
  0
ELLIPSE
  5
709
100
AcDbEntity
  8
RACCORDO
100
AcDbEllipse
 62
7
  6
CONTINUOUS
 10
-4.8483339502
 20
-0.9542982275
 30
0.0
 11
0.0
 21
0.5
 31
0.0
 40
0.2679491924
 41
-4.7123889804
 42
-3.1764992386
  0
ELLIPSE
  5
70A
100
AcDbEntity
  8
RACCORDO
100
AcDbEllipse
 62
7
  6
CONTINUOUS
 10
-34.7951172824
 20
53.7951172824
 30
0.0
 11
-0.7073221892
 21
0.7073221892
 31
0.0
 40
0.9996954599
 41
-0.7852458701
 42
0.7852458701
  0
ELLIPSE
  5
70B
100
AcDbEntity
  8
RACCORDO
100
AcDbEllipse
 62
7
  6
CONTINUOUS
 10
34.7951172824
 20
-53.7951172824
 30
0.0
 11
0.7073221892
 21
-0.7073221892
 31
0.0
 40
0.9996954599
 41
-0.7852458701
 42
0.7852458701
  0
ELLIPSE
  5
70C
100
AcDbEntity
  8
RACCORDO
100
AcDbEllipse
 62
7
  6
CONTINUOUS
 10
-34.7951172824
 20
-53.7951172824
 30
0.0
 11
0.7073221892
 21
0.7073221892
 31
0.0
 40
0.9996954599
 41
2.3563467834
 42
3.9268385237
  0
ENDSEC
  0
SECTION
  2
OBJECTS
  0
DICTIONARY
  5
C
100
AcDbDictionary
280
0
281
1
  3
ACAD_GROUP
350
D
  3
ACAD_MLINESTYLE
350
17
  3
ACAD_LAYOUT
350
1A
  3
ACAD_PLOTSETTINGS
350
19
  3
ACAD_PLOTSTYLENAME
350
E
  0
DICTIONARY
  5
D
102
{ACAD_REACTORS
330
C
102
}
100
AcDbDictionary
280
0
281
1
  0
ACDBDICTIONARYWDFLT
  5
E
102
{ACAD_REACTORS
330
C
102
}
100
AcDbDictionary
281
1
  3
Normal
350
F
100
AcDbDictionaryWithDefault
340
F
  0
DICTIONARY
  5
17
102
{ACAD_REACTORS
330
C
102
}
100
AcDbDictionary
280
0
281
1
  3
Standard
350
18
  0
DICTIONARY
  5
19
102
{ACAD_REACTORS
330
C
102
}
100
AcDbDictionary
281
1
  0
DICTIONARY
  5
1A
102
{ACAD_REACTORS
330
C
102
}
100
AcDbDictionary
281
1
  3
Model
350
70D
  3
Layout1
350
70E
  0
ACDBPLACEHOLDER
  5
F
102
{ACAD_REACTORS
330
E
102
}
  0
MLINESTYLE
  5
18
102
{ACAD_REACTORS
330
17
102
}
100
AcDbMlineStyle
  2
STANDARD
 70
0
  3

 62
256
 51
90.0
 52
90.0
 71
2
 49
0.5
 62
256
  6
BYLAYER
 49
-0.5
 62
256
  6
BYLAYER
  0
LAYOUT
  5
70D
102
{ACAD_REACTORS
330
1A
102
}
100
AcDbPlotSettings
  1

  2
none_device
  4
ANSI_C_(22.00_x_17.00_Inches)
  6

 40
0.0
 41
0.0
 42
0.0
 43
0.0
 44
558.8
 45
431.8
 46
0.0
 47
0.0
 48
0.0
 49
0.0
140
0.0
141
0.0
142
1.0
143
1.0
 70
1024
 72
1
 73
0
 74
0
  7

 75
0
147
1.0
148
0.0
149
0.0
100
AcDbLayout
  1
Model
 70
0
 71
0
 10
0.0
 20
0.0
 11
558.8
 21
431.8
 12
0.0
 22
0.0
 32
0.0
 14
0.0
 24
0.0
 34
0.0
 15
0.0
 25
0.0
 35
0.0
146
0.0
 13
0.0
 23
0.0
 33
0.0
 16
1.0
 26
0.0
 36
0.0
 17
0.0
 27
1.0
 37
0.0
 76
0
330
24F
345
0
346
0
  0
LAYOUT
  5
70E
102
{ACAD_REACTORS
330
1A
102
}
100
AcDbPlotSettings
  1

  2
none_device
  4
ANSI_C_(22.00_x_17.00_Inches)
  6

 40
0.0
 41
0.0
 42
0.0
 43
0.0
 44
558.8
 45
431.8
 46
0.0
 47
0.0
 48
0.0
 49
0.0
140
0.0
141
0.0
142
1.0
143
1.0
 70
0
 72
1
 73
0
 74
0
  7

 75
0
147
1.0
148
0.0
149
0.0
100
AcDbLayout
  1
Layout1
 70
0
 71
1
 10
0.0
 20
0.0
 11
558.8
 21
431.8
 12
0.0
 22
0.0
 32
0.0
 14
0.0
 24
0.0
 34
0.0
 15
0.0
 25
0.0
 35
0.0
146
0.0
 13
0.0
 23
0.0
 33
0.0
 16
1.0
 26
0.0
 36
0.0
 17
0.0
 27
1.0
 37
0.0
 76
0
330
250
345
0
346
0
  0
ENDSEC
  0
EOF
