  0
SECTION
  2
HEADER
  9
$ACADVER
  1
AC1024
  9
$DWGCODEPAGE
  3
ANSI_1252
  9
$EXTMAX
 10
210.0
 20
297.0
 30
0.0
  9
$EXTMIN
 10
0.0
 20
0.0
 30
0.0
  9
$LIMMIN
 10
0.0
 20
0.0
  9
$LIMMAX
 10
210.0
 20
297.0
  9
$VIEWCTR
 10
105.0
 20
148.5
  9
$VIEWSIZE
 40
297.0
  9
$CLAYER
  8
0
  9
$LTSCALE
 40
19.36
  9
$CELTYPE
  6
BYLAYER
  9
$DIMSCALE
 40
1.0
  9
$DIMASZ
 40
3.0
  9
$DIMEXO
 40
0.5
  9
$DIMDLI
 40
13.376
  9
$DIMEXE
 40
1.5
  9
$DIMCEN
 40
3.168
  9
$DIMLFAC
 40
1.0
  9
$DIMBLK
  1
_FILLED
  9
$DIMALT
 70
0
  9
$DIMALTF
 40
0.0393700787
  9
$DIMTXT
 40
3.0
  9
$DIMTOL
 70
1
  9
$DIMLIM
 70
0
  9
$DIMTFAC
 40
1.0
  9
$DIMTP
 40
0.01
  9
$DIMTM
 40
0.01
  9
$DIMGAP
 40
0.625
  9
$DIMDSEP
 70
44
  9
$AUNITS
 70
0
  9
$PDMODE
 70
3
  9
$PDSIZE
 40
3.0
  9
$HANDSEED
  5
64A
  9
$TILEMODE
 70
1
  9
$MEASUREMENT
 70
1
  9
$INSUNITS
 70
4
  0
ENDSEC
  0
SECTION
  2
CLASSES
  0
CLASS
  1
ACDBDICTIONARYWDFLT
  2
AcDbDictionaryWithDefault
  3
AutoCAD 2000
 90
0
 91
1
280
0
281
0
  0
CLASS
  1
ACDBPLACEHOLDER
  2
AcDbPlaceHolder
  3
AutoCAD 2000
 90
0
 91
1
280
0
281
0
  0
CLASS
  1
LAYOUT
  2
AcDbLayout
  3
AutoCAD 2000
 90
0
 91
0
280
0
281
0
  0
ENDSEC
  0
SECTION
  2
TABLES
  0
TABLE
  2
VPORT
  5
8
100
AcDbSymbolTable
 70
2
  0
VPORT
  5
1F4
100
AcDbSymbolTableRecord
100
AcDbViewportTableRecord
  2
*ACTIVE
 70
0
 10
0.0
 20
0.0
 11
1.0
 21
1.0
 12
105.0
 22
148.5
 13
0.0
 23
0.0
 14
1.0
 24
1.0
 15
0.0
 25
0.0
 16
0.0
 26
0.0
 36
1.0
 17
0.0
 27
0.0
 37
0.0
 40
297.0
 41
0.7070707071
 42
50.0
 43
0.0
 44
0.0
 50
0.0
 51
0.0
 71
0
 72
100
 73
1
 74
1
 75
0
 76
0
 77
0
 78
0
  0
ENDTAB
  0
TABLE
  2
LTYPE
  5
5
100
AcDbSymbolTable
 70
6
  0
LTYPE
  5
14
100
AcDbSymbolTableRecord
100
AcDbLinetypeTableRecord
  2
BYBLOCK
 70
0
  3

 72
65
 73
0
 40
0.0
  0
LTYPE
  5
15
100
AcDbSymbolTableRecord
100
AcDbLinetypeTableRecord
  2
BYLAYER
 70
0
  3

 72
65
 73
0
 40
0.0
  0
LTYPE
  5
16
100
AcDbSymbolTableRecord
100
AcDbLinetypeTableRecord
  2
CONTINUOUS
 70
64
  3
Solid line
 72
65
 73
0
 40
0.0
  0
LTYPE
  5
1F5
100
AcDbSymbolTableRecord
100
AcDbLinetypeTableRecord
  2
CENTER
 70
64
  3
____ _ ____ _ ____ _ ____ _ ____ _ ____ _ ____
 72
65
 73
4
 40
0.6
 49
0.375
 74
0
 49
-0.075
 74
0
 49
0.075
 74
0
 49
-0.075
 74
0
  0
LTYPE
  5
1F6
100
AcDbSymbolTableRecord
100
AcDbLinetypeTableRecord
  2
HIDDEN
 70
64
  3
- - - - - - - - - - - - - - - - - - - -
 72
65
 73
2
 40
0.2
 49
0.1
 74
0
 49
-0.1
 74
0
  0
LTYPE
  5
1F7
100
AcDbSymbolTableRecord
100
AcDbLinetypeTableRecord
  2
PHANTOM
 70
64
  3
_____ _ _ _____ _ _ _____ _ _ _____
 72
65
 73
6
 40
0.8
 49
0.45
 74
0
 49
-0.05
 74
0
 49
0.1
 74
0
 49
-0.05
 74
0
 49
0.1
 74
0
 49
-0.05
 74
0
  0
LTYPE
  5
1F8
100
AcDbSymbolTableRecord
100
AcDbLinetypeTableRecord
  2
DOT
 70
64
  3
. . . . . . . . . . . . . . . . . . . .
 72
65
 73
2
 40
0.2
 49
0.1
 74
0
 49
-0.1
 74
0
  0
LTYPE
  5
1F9
100
AcDbSymbolTableRecord
100
AcDbLinetypeTableRecord
  2
DASHED
 70
64
  3
- - - - - - - - - - - - - - - - - - - -
 72
65
 73
2
 40
0.2
 49
0.1
 74
0
 49
-0.1
 74
0
  0
ENDTAB
  0
TABLE
  2
LAYER
  5
2
100
AcDbSymbolTable
 70
36
  0
LAYER
  5
10
100
AcDbSymbolTableRecord
100
AcDbLayerTableRecord
  2
0
 70
0
 62
7
  6
CONTINUOUS
370
-3
390
F
  0
LAYER
  5
1FA
100
AcDbSymbolTableRecord
100
AcDbLayerTableRecord
  2
DEFAULT_1
 70
0
 62
7
  6
CENTER
370
-3
390
F
  0
LAYER
  5
1FB
100
AcDbSymbolTableRecord
100
AcDbLayerTableRecord
  2
DEFAULT_2
 70
0
 62
7
  6
HIDDEN
370
-3
390
F
  0
LAYER
  5
1FC
100
AcDbSymbolTableRecord
100
AcDbLayerTableRecord
  2
DEFAULT_3
 70
0
 62
7
  6
PHANTOM
370
-3
390
F
  0
LAYER
  5
1FD
100
AcDbSymbolTableRecord
100
AcDbLayerTableRecord
  2
0603_C_REF_90000
 70
0
 62
7
  6
CONTINUOUS
370
-3
390
F
  0
LAYER
  5
1FE
100
AcDbSymbolTableRecord
100
AcDbLayerTableRecord
  2
0603_C_REF_90000_1
 70
0
 62
7
  6
CONTINUOUS
370
-3
390
F
  0
LAYER
  5
1FF
100
AcDbSymbolTableRecord
100
AcDbLayerTableRecord
  2
0603_C_REF_90000_2
 70
0
 62
7
  6
CONTINUOUS
370
-3
390
F
  0
LAYER
  5
200
100
AcDbSymbolTableRecord
100
AcDbLayerTableRecord
  2
0603_C_REF_90000_3
 70
0
 62
7
  6
CONTINUOUS
370
-3
390
F
  0
LAYER
  5
201
100
AcDbSymbolTableRecord
100
AcDbLayerTableRecord
  2
0603_R_REF_55000
 70
0
 62
7
  6
CONTINUOUS
370
-3
390
F
  0
LAYER
  5
202
100
AcDbSymbolTableRecord
100
AcDbLayerTableRecord
  2
0603_R_REF_55000_1
 70
0
 62
7
  6
CONTINUOUS
370
-3
390
F
  0
LAYER
  5
203
100
AcDbSymbolTableRecord
100
AcDbLayerTableRecord
  2
0603_R_REF_55000_2
 70
0
 62
7
  6
CONTINUOUS
370
-3
390
F
  0
LAYER
  5
204
100
AcDbSymbolTableRecord
100
AcDbLayerTableRecord
  2
0603_R_REF_55000_3
 70
0
 62
7
  6
CONTINUOUS
370
-3
390
F
  0
LAYER
  5
205
100
AcDbSymbolTableRecord
100
AcDbLayerTableRecord
  2
06___PRT_ALL_SURFS
 70
0
 62
7
  6
CONTINUOUS
370
-3
390
F
  0
LAYER
  5
206
100
AcDbSymbolTableRecord
100
AcDbLayerTableRecord
  2
06___PRT_ALL_SURFS_1
 70
0
 62
7
  6
CONTINUOUS
370
-3
390
F
  0
LAYER
  5
207
100
AcDbSymbolTableRecord
100
AcDbLayerTableRecord
  2
06___PRT_ALL_SURFS_2
 70
0
 62
7
  6
CONTINUOUS
370
-3
390
F
  0
LAYER
  5
208
100
AcDbSymbolTableRecord
100
AcDbLayerTableRecord
  2
06___PRT_ALL_SURFS_4
 70
0
 62
7
  6
CONTINUOUS
370
-3
390
F
  0
LAYER
  5
209
100
AcDbSymbolTableRecord
100
AcDbLayerTableRecord
  2
06___PRT_ALL_SURFS_5
 70
0
 62
7
  6
CONTINUOUS
370
-3
390
F
  0
LAYER
  5
20A
100
AcDbSymbolTableRecord
100
AcDbLayerTableRecord
  2
43900969A0
 70
0
 62
7
  6
CONTINUOUS
370
-3
390
F
  0
LAYER
  5
20B
100
AcDbSymbolTableRecord
100
AcDbLayerTableRecord
  2
691D_NEW
 70
0
 62
7
  6
CONTINUOUS
370
-3
390
F
  0
LAYER
  5
20C
100
AcDbSymbolTableRecord
100
AcDbLayerTableRecord
  2
ASSI
 70
0
 62
7
  6
CONTINUOUS
370
-3
390
F
  0
LAYER
  5
20D
100
AcDbSymbolTableRecord
100
AcDbLayerTableRecord
  2
COLOR5
 70
0
 62
7
  6
CONTINUOUS
370
-3
390
F
  0
LAYER
  5
20E
100
AcDbSymbolTableRecord
100
AcDbLayerTableRecord
  2
COLOR7
 70
0
 62
7
  6
CONTINUOUS
370
-3
390
F
  0
LAYER
  5
20F
100
AcDbSymbolTableRecord
100
AcDbLayerTableRecord
  2
COORDINATE
 70
0
 62
7
  6
CONTINUOUS
370
-3
390
F
  0
LAYER
  5
210
100
AcDbSymbolTableRecord
100
AcDbLayerTableRecord
  2
COPY_PUBLISH
 70
0
 62
7
  6
CONTINUOUS
370
-3
390
F
  0
LAYER
  5
211
100
AcDbSymbolTableRecord
100
AcDbLayerTableRecord
  2
COSMETIC
 70
0
 62
7
  6
CONTINUOUS
370
-3
390
F
  0
LAYER
  5
212
100
AcDbSymbolTableRecord
100
AcDbLayerTableRecord
  2
COSMETICI
 70
0
 62
7
  6
CONTINUOUS
370
-3
390
F
  0
LAYER
  5
213
100
AcDbSymbolTableRecord
100
AcDbLayerTableRecord
  2
CR_MR6P5_MSB_SW__1000000
 70
0
 62
7
  6
CONTINUOUS
370
-3
390
F
  0
LAYER
  5
214
100
AcDbSymbolTableRecord
100
AcDbLayerTableRecord
  2
CURVE
 70
0
 62
7
  6
CONTINUOUS
370
-3
390
F
  0
LAYER
  5
215
100
AcDbSymbolTableRecord
100
AcDbLayerTableRecord
  2
DRAFT
 70
0
 62
7
  6
CONTINUOUS
370
-3
390
F
  0
LAYER
  5
216
100
AcDbSymbolTableRecord
100
AcDbLayerTableRecord
  2
FONDO_MORSETTI
 70
0
 62
7
  6
CONTINUOUS
370
-3
390
F
  0
LAYER
  5
217
100
AcDbSymbolTableRecord
100
AcDbLayerTableRecord
  2
GRAFICA
 70
0
 62
7
  6
CONTINUOUS
370
-3
390
F
  0
LAYER
  5
218
100
AcDbSymbolTableRecord
100
AcDbLayerTableRecord
  2
IMPORT_IGES
 70
0
 62
7
  6
CONTINUOUS
370
-3
390
F
  0
LAYER
  5
219
100
AcDbSymbolTableRecord
100
AcDbLayerTableRecord
  2
INTFCLR_3
 70
0
 62
7
  6
CONTINUOUS
370
-3
390
F
  0
LAYER
  5
21A
100
AcDbSymbolTableRecord
100
AcDbLayerTableRecord
  2
INTFCLR_4
 70
0
 62
7
  6
CONTINUOUS
370
-3
390
F
  0
LAYER
  5
21B
100
AcDbSymbolTableRecord
100
AcDbLayerTableRecord
  2
INTFCLR_5
 70
0
 62
7
  6
CONTINUOUS
370
-3
390
F
  0
LAYER
  5
21C
100
AcDbSymbolTableRecord
100
AcDbLayerTableRecord
  2
INTF_1
 70
0
 62
7
  6
CONTINUOUS
370
-3
390
F
  0
LAYER
  5
21D
100
AcDbSymbolTableRecord
100
AcDbLayerTableRecord
  2
NOTE
 70
0
 62
7
  6
CONTINUOUS
370
-3
390
F
  0
LAYER
  5
21E
100
AcDbSymbolTableRecord
100
AcDbLayerTableRecord
  2
P528-691D
 70
0
 62
7
  6
CONTINUOUS
370
-3
390
F
  0
LAYER
  5
21F
100
AcDbSymbolTableRecord
100
AcDbLayerTableRecord
  2
PIANI
 70
0
 62
7
  6
CONTINUOUS
370
-3
390
F
  0
LAYER
  5
220
100
AcDbSymbolTableRecord
100
AcDbLayerTableRecord
  2
PIANI_RIFERIMENTO
 70
0
 62
7
  6
CONTINUOUS
370
-3
390
F
  0
LAYER
  5
221
100
AcDbSymbolTableRecord
100
AcDbLayerTableRecord
  2
PUNTI
 70
0
 62
7
  6
CONTINUOUS
370
-3
390
F
  0
LAYER
  5
222
100
AcDbSymbolTableRecord
100
AcDbLayerTableRecord
  2
RACCORDO
 70
0
 62
7
  6
CONTINUOUS
370
-3
390
F
  0
LAYER
  5
223
100
AcDbSymbolTableRecord
100
AcDbLayerTableRecord
  2
RGB____0____0____0__
 70
0
 62
7
  6
CONTINUOUS
370
-3
390
F
  0
LAYER
  5
224
100
AcDbSymbolTableRecord
100
AcDbLayerTableRecord
  2
SIMBOLI
 70
0
 62
7
  6
CONTINUOUS
370
-3
390
F
  0
LAYER
  5
225
100
AcDbSymbolTableRecord
100
AcDbLayerTableRecord
  2
SMUSSO
 70
0
 62
7
  6
CONTINUOUS
370
-3
390
F
  0
LAYER
  5
226
100
AcDbSymbolTableRecord
100
AcDbLayerTableRecord
  2
SNAPLINE
 70
0
 62
7
  6
CONTINUOUS
370
-3
390
F
  0
LAYER
  5
227
100
AcDbSymbolTableRecord
100
AcDbLayerTableRecord
  2
SUPERFICI
 70
0
 62
7
  6
CONTINUOUS
370
-3
390
F
  0
LAYER
  5
228
100
AcDbSymbolTableRecord
100
AcDbLayerTableRecord
  2
TRASH
 70
0
 62
7
  6
CONTINUOUS
370
-3
390
F
  0
LAYER
  5
229
100
AcDbSymbolTableRecord
100
AcDbLayerTableRecord
  2
VG_CN-M-THT-P5_0-R1-P3-SET-H14_
 70
0
 62
7
  6
CONTINUOUS
370
-3
390
F
  0
LAYER
  5
22A
100
AcDbSymbolTableRecord
100
AcDbLayerTableRecord
  2
VG_CN-M-THT-P5_0-R1-P3-SET-H1_1
 70
0
 62
7
  6
CONTINUOUS
370
-3
390
F
  0
LAYER
  5
22B
100
AcDbSymbolTableRecord
100
AcDbLayerTableRecord
  2
VG_IND-PS-6_6-3_0_300000
 70
0
 62
7
  6
CONTINUOUS
370
-3
390
F
  0
LAYER
  5
22C
100
AcDbSymbolTableRecord
100
AcDbLayerTableRecord
  2
VG_IND-PS-6_6-3_0_300000_1
 70
0
 62
7
  6
CONTINUOUS
370
-3
390
F
  0
LAYER
  5
22D
100
AcDbSymbolTableRecord
100
AcDbLayerTableRecord
  2
VG_IND-RAD-7_0-12_0-2_5-0_6_120
 70
0
 62
7
  6
CONTINUOUS
370
-3
390
F
  0
LAYER
  5
22E
100
AcDbSymbolTableRecord
100
AcDbLayerTableRecord
  2
VG_IND-RAD-7_0-12_0-2_5-0_6_1_1
 70
0
 62
7
  6
CONTINUOUS
370
-3
390
F
  0
LAYER
  5
22F
100
AcDbSymbolTableRecord
100
AcDbLayerTableRecord
  2
VG_IND-RAD-7_0-12_0-2_5-0_6_A90
 70
0
 62
7
  6
CONTINUOUS
370
-3
390
F
  0
LAYER
  5
230
100
AcDbSymbolTableRecord
100
AcDbLayerTableRecord
  2
VG_IND-RAD-7_0-12_0-2_5-0_6_A_1
 70
0
 62
7
  6
CONTINUOUS
370
-3
390
F
  0
LAYER
  5
231
100
AcDbSymbolTableRecord
100
AcDbLayerTableRecord
  2
VG_TRA-THT-MAGNETICA-1574_0009_
 70
0
 62
7
  6
CONTINUOUS
370
-3
390
F
  0
LAYER
  5
232
100
AcDbSymbolTableRecord
100
AcDbLayerTableRecord
  2
WHITE
 70
0
 62
7
  6
CONTINUOUS
370
-3
390
F
  0
LAYER
  5
233
100
AcDbSymbolTableRecord
100
AcDbLayerTableRecord
  2
___SHELL
 70
0
 62
7
  6
CONTINUOUS
370
-3
390
F
  0
ENDTAB
  0
TABLE
  2
STYLE
  5
3
100
AcDbSymbolTable
 70
1
  0
STYLE
  5
11
100
AcDbSymbolTableRecord
100
AcDbTextStyleTableRecord
  2
STANDARD
 70
0
 40
0.0
 41
0.8
 50
0.0
 71
0
 42
0.2
  3
txt
  4

  0
STYLE
  5
234
100
AcDbSymbolTableRecord
100
AcDbTextStyleTableRecord
  2
TEXTSTYLE_1
 70
0
 40
0.0
 41
0.8
 50
0.0
 71
0
 42
0.2
  3
gdt
  4

  0
ENDTAB
  0
TABLE
  2
VIEW
  5
6
100
AcDbSymbolTable
 70
0
  0
ENDTAB
  0
TABLE
  2
UCS
  5
7
100
AcDbSymbolTable
 70
0
  0
ENDTAB
  0
TABLE
  2
APPID
  5
9
100
AcDbSymbolTable
 70
1
  0
APPID
  5
235
100
AcDbSymbolTableRecord
100
AcDbRegAppTableRecord
  2
ACAD
 70
0
  0
ENDTAB
  0
TABLE
  2
BLOCK_RECORD
  5
1
100
AcDbSymbolTable
 70
0
  0
BLOCK_RECORD
  5
236
100
AcDbSymbolTableRecord
100
AcDbBlockTableRecord
  2
*Model_Space
  0
BLOCK_RECORD
  5
237
100
AcDbSymbolTableRecord
100
AcDbBlockTableRecord
  2
*Paper_Space
  0
BLOCK_RECORD
  5
238
100
AcDbSymbolTableRecord
100
AcDbBlockTableRecord
  2
_FILLED
  0
ENDTAB
  0
TABLE
  2
DIMSTYLE
  5
A
100
AcDbSymbolTable
 70
1
100
AcDbDimStyleTable
 71
0
  0
DIMSTYLE
105
239
100
AcDbSymbolTableRecord
100
AcDbDimStyleTableRecord
  2
STANDARD
 70
0
  3

  4

 40
1.0
 41
3.0
 42
0.5
 43
0.38
 44
1.5
 45
0.0
 46
0.0
 47
0.01
 48
0.01
140
3.0
141
0.09
142
0.0
143
25.4
144
1.0
145
0.0
146
1.0
147
0.625
 71
1
 72
0
 73
0
 74
0
 75
0
 76
0
 77
1
 78
8
 79
2
170
0
171
1
172
0
173
0
174
0
175
0
176
0
177
0
178
0
270
2
179
2
271
2
272
2
273
2
274
2
275
0
280
0
281
0
282
0
283
1
284
8
285
0
286
0
287
3
288
0
340
11
278
44
341
238
342
238
343
238
344
238
  0
ENDTAB
  0
ENDSEC
  0
SECTION
  2
BLOCKS
  0
BLOCK
  5
20
100
AcDbEntity
  8
0
100
AcDbBlockBegin
  2
*Model_Space
 70
0
 10
0.0
 20
0.0
 30
0.0
  3
*Model_Space
  1

  0
ENDBLK
  5
21
100
AcDbEntity
  8
0
100
AcDbBlockEnd
  0
BLOCK
  5
1C
100
AcDbEntity
  8
0
100
AcDbBlockBegin
  2
*Paper_Space
 70
0
 10
0.0
 20
0.0
 30
0.0
  3
*Paper_Space
  1

  0
ENDBLK
  5
1D
100
AcDbEntity
  8
0
100
AcDbBlockEnd
  0
BLOCK
  5
23A
100
AcDbEntity
  8
0
100
AcDbBlockBegin
  2
_FILLED
 70
64
 10
0.0
 20
0.0
  3
_FILLED
  1

  0
SOLID
  5
23B
100
AcDbEntity
  8
0
  6
BYBLOCK
 62
0
100
AcDbTrace
 10
0.0
 20
0.0
 11
-1.0
 21
0.3166666667
 12
-1.0
 22
-0.3166666667
 13
-1.0
 23
-0.3166666667
  0
ENDBLK
  5
23C
100
AcDbEntity
  8
0
  6
BYBLOCK
 62
0
100
AcDbBlockEnd
  0
ENDSEC
  0
SECTION
  2
ENTITIES
  0
LINE
  5
23D
100
AcDbEntity
  8
RACCORDO
100
AcDbLine
 62
250
  6
CONTINUOUS
 10
-19.6779356006
 20
24.3047411026
 11
-19.5047568999
 21
24.4047258721
  0
LINE
  5
23E
100
AcDbEntity
  8
RACCORDO
100
AcDbLine
 62
250
  6
CONTINUOUS
 10
-16.8468750483
 20
24.6046954112
 11
-16.7016508357
 21
24.6885406494
  0
LINE
  5
23F
100
AcDbEntity
  8
RACCORDO
100
AcDbLine
 62
250
  6
CONTINUOUS
 10
-18.7885904725
 20
23.1642892332
 11
-18.9617693437
 21
23.0643047512
  0
LINE
  5
240
100
AcDbEntity
  8
RACCORDO
100
AcDbLine
 62
250
  6
CONTINUOUS
 10
-16.6736963475
 20
24.3047411026
 11
-16.5284721349
 21
24.3885863409
  0
LINE
  5
241
100
AcDbEntity
  8
RACCORDO
100
AcDbLine
 62
250
  6
CONTINUOUS
 10
-17.0104097368
 20
23.6769452814
 11
-16.9038025698
 21
23.738494958
  0
LINE
  5
242
100
AcDbEntity
  8
RACCORDO
100
AcDbLine
 62
250
  6
CONTINUOUS
 10
-16.837231036
 20
23.3769909728
 11
-16.730623869
 21
23.4385406494
  0
LINE
  5
243
100
AcDbEntity
  8
RACCORDO
100
AcDbLine
 62
250
  6
CONTINUOUS
 10
-16.8468750483
 20
24.4047258721
 11
-17.5630444704
 21
23.1642840462
  0
LINE
  5
244
100
AcDbEntity
  8
RACCORDO
100
AcDbLine
 62
250
  6
CONTINUOUS
 10
-16.6736963475
 20
24.3047411026
 11
-17.3898162287
 21
23.0643850719
  0
LINE
  5
245
100
AcDbEntity
  8
RACCORDO
100
AcDbLine
 62
7
  6
CONTINUOUS
 10
-16.9038025698
 20
23.738494958
 11
-16.5284721349
 21
24.3885863409
  0
LINE
  5
246
100
AcDbEntity
  8
RACCORDO
100
AcDbLine
 62
7
  6
CONTINUOUS
 10
-25.1758159741
 20
-4.2742144869
 11
-25.1758159741
 21
-1.4741840259
  0
LINE
  5
247
100
AcDbEntity
  8
RACCORDO
100
AcDbLine
 62
7
  6
CONTINUOUS
 10
-25.1758159741
 20
8.5258159741
 11
-25.1758159741
 21
11.325846435
  0
LINE
  5
248
100
AcDbEntity
  8
RACCORDO
100
AcDbLine
 62
7
  6
CONTINUOUS
 10
-25.0780676105
 20
-0.8850870308
 11
-25.0780676105
 21
7.9367189789
  0
LINE
  5
249
100
AcDbEntity
  8
RACCORDO
100
AcDbLine
 62
250
  6
CONTINUOUS
 10
-25.0308780086
 20
-1.3777241847
 11
-25.0308780086
 21
8.4293561328
  0
LINE
  5
24A
100
AcDbEntity
  8
RACCORDO
100
AcDbLine
 62
250
  6
CONTINUOUS
 10
-24.8309084695
 20
-1.3777241847
 11
-24.8309084695
 21
8.4293561328
  0
LINE
  5
24B
100
AcDbEntity
  8
RACCORDO
100
AcDbLine
 62
250
  6
CONTINUOUS
 10
-24.0207234786
 20
-1.3777241847
 11
-24.0207234786
 21
8.4293561328
  0
LINE
  5
24C
100
AcDbEntity
  8
RACCORDO
100
AcDbLine
 62
250
  6
CONTINUOUS
 10
-23.8207539395
 20
-1.3777241847
 11
-23.8207539395
 21
8.4293561328
  0
LINE
  5
24D
100
AcDbEntity
  8
RACCORDO
100
AcDbLine
 62
7
  6
CONTINUOUS
 10
-23.7735643377
 20
-0.8850870308
 11
-23.7735643377
 21
7.9367189789
  0
LINE
  5
24E
100
AcDbEntity
  8
DRAFT
100
AcDbLine
 62
7
  6
CONTINUOUS
 10
-23.6758159741
 20
-1.4741840259
 11
-23.6758159741
 21
-1.1818269477
  0
LINE
  5
24F
100
AcDbEntity
  8
RACCORDO
100
AcDbLine
 62
7
  6
CONTINUOUS
 10
-23.6758159741
 20
-14.4744886356
 11
-23.6758159741
 21
-1.2241840259
  0
LINE
  5
250
100
AcDbEntity
  8
DRAFT
100
AcDbLine
 62
7
  6
CONTINUOUS
 10
-23.6758159741
 20
8.2334588958
 11
-23.6758159741
 21
8.5258159741
  0
LINE
  5
251
100
AcDbEntity
  8
RACCORDO
100
AcDbLine
 62
7
  6
CONTINUOUS
 10
-23.6758159741
 20
8.2758159741
 11
-23.6758159741
 21
21.5261205837
  0
LINE
  5
252
100
AcDbEntity
  8
RACCORDO
100
AcDbLine
 62
7
  6
CONTINUOUS
 10
-23.5798131169
 20
7.885003938
 11
-23.5798131169
 21
-0.8333719899
  0
LINE
  5
253
100
AcDbEntity
  8
RACCORDO
100
AcDbLine
 62
250
  6
CONTINUOUS
 10
-23.5269909728
 20
-14.3255346357
 11
-23.5269909728
 21
21.3772955825
  0
LINE
  5
254
100
AcDbEntity
  8
0
100
AcDbLine
 62
7
  6
CONTINUOUS
 10
-18.0262578073
 20
19.8956676331
 11
-18.605525358
 21
18.371404948
  0
LINE
  5
255
100
AcDbEntity
  8
0
100
AcDbLine
 62
7
  6
CONTINUOUS
 10
-18.5652873402
 20
17.7921372028
 11
-17.7262655801
 21
19.8956676331
  0
LINE
  5
256
100
AcDbEntity
  8
RACCORDO
100
AcDbLine
 62
250
  6
CONTINUOUS
 10
-23.9727022689
 20
11.4288992183
 11
-23.8757855131
 21
11.5258159741
  0
LINE
  5
257
100
AcDbEntity
  8
RACCORDO
100
AcDbLine
 62
250
  6
CONTINUOUS
 10
-23.7727327298
 20
11.2289296793
 11
-23.6758159741
 21
11.325846435
  0
LINE
  5
258
100
AcDbEntity
  8
0
100
AcDbLine
 62
7
  6
CONTINUOUS
 10
-5.8006261279
 20
23.443594417
 11
-5.7758159741
 21
23.4559957143
  0
LINE
  5
259
100
AcDbEntity
  8
RACCORDO
100
AcDbLine
 62
7
  6
CONTINUOUS
 10
-1.8238794163
 20
-25.3258159741
 11
-5.5277525319
 21
-25.3258159741
  0
LINE
  5
25A
100
AcDbEntity
  8
RACCORDO
100
AcDbLine
 62
250
  6
CONTINUOUS
 10
-1.8416282601
 20
-25.3082085927
 11
-5.5100026874
 21
-25.3082085927
  0
LINE
  5
25B
100
AcDbEntity
  8
RACCORDO
100
AcDbLine
 62
250
  6
CONTINUOUS
 10
-1.8414867976
 20
-24.8082847451
 11
-5.5101451505
 21
-24.8082847451
  0
LINE
  5
25C
100
AcDbEntity
  8
RACCORDO
100
AcDbLine
 62
250
  6
CONTINUOUS
 10
-19.5047568999
 20
-17.353093924
 11
-19.6779356006
 21
-17.2531091545
  0
LINE
  5
25D
100
AcDbEntity
  8
RACCORDO
100
AcDbLine
 62
250
  6
CONTINUOUS
 10
-16.8468750483
 20
-17.5530634631
 11
-16.7016508357
 21
-17.6369087013
  0
LINE
  5
25E
100
AcDbEntity
  8
0
100
AcDbLine
 62
250
  6
CONTINUOUS
 10
-16.5739027058
 20
-17.6543637662
 11
-16.5913577708
 21
-17.6369087013
  0
LINE
  5
25F
100
AcDbEntity
  8
0
100
AcDbLine
 62
250
  6
CONTINUOUS
 10
-16.2739483973
 20
-17.3544094577
 11
-16.2914034622
 21
-17.3369543928
  0
LINE
  5
260
100
AcDbEntity
  8
RACCORDO
100
AcDbLine
 62
7
  6
CONTINUOUS
 10
-22.1826570442
 20
6.1164413558
 11
-22.1826570442
 21
0.9351905923
  0
LINE
  5
261
100
AcDbEntity
  8
DRAFT
100
AcDbLine
 62
7
  6
CONTINUOUS
 10
-22.0920316624
 20
6.0258159741
 11
-22.0920316624
 21
1.0258159741
  0
LINE
  5
262
100
AcDbEntity
  8
RACCORDO
100
AcDbLine
 62
250
  6
CONTINUOUS
 10
-22.0447506706
 20
0.9785349823
 11
-22.0447506706
 21
1.0258159741
  0
LINE
  5
263
100
AcDbEntity
  8
RACCORDO
100
AcDbLine
 62
250
  6
CONTINUOUS
 10
-22.0447506706
 20
6.0258159741
 11
-22.0447506706
 21
6.0730969658
  0
LINE
  5
264
100
AcDbEntity
  8
RACCORDO
100
AcDbLine
 62
250
  6
CONTINUOUS
 10
-22.0272194301
 20
21.3772955825
 11
-22.0272194301
 21
6.1165823117
  0
LINE
  5
265
100
AcDbEntity
  8
RACCORDO
100
AcDbLine
 62
250
  6
CONTINUOUS
 10
-22.0272194301
 20
0.9350496364
 11
-22.0272194301
 21
-14.3256636344
  0
LINE
  5
266
100
AcDbEntity
  8
IMPORT_IGES
100
AcDbLine
 62
7
  6
CONTINUOUS
 10
-21.6758159741
 20
6.0900449726
 11
-21.6758159741
 21
0.9615869756
  0
LINE
  5
267
100
AcDbEntity
  8
RACCORDO
100
AcDbLine
 62
250
  6
CONTINUOUS
 10
-21.5272955825
 20
-14.825587482
 11
-21.5272955825
 21
-16.3253590247
  0
LINE
  5
268
100
AcDbEntity
  8
RACCORDO
100
AcDbLine
 62
250
  6
CONTINUOUS
 10
-21.5272955825
 20
21.8772194301
 11
-21.5272955817
 21
23.3769909728
  0
LINE
  5
269
100
AcDbEntity
  8
RACCORDO
100
AcDbLine
 62
7
  6
CONTINUOUS
 10
-21.4610813702
 20
20.8186774937
 11
-21.4610813702
 21
6.1165823117
  0
LINE
  5
26A
100
AcDbEntity
  8
RACCORDO
100
AcDbLine
 62
7
  6
CONTINUOUS
 10
-21.4610813702
 20
0.9350496364
 11
-21.4610813702
 21
-13.7670455456
  0
LINE
  5
26B
100
AcDbEntity
  8
RACCORDO
100
AcDbLine
 62
7
  6
CONTINUOUS
 10
-21.4258159741
 20
20.7834120975
 11
-21.4258159741
 21
6.1130912987
  0
LINE
  5
26C
100
AcDbEntity
  8
RACCORDO
100
AcDbLine
 62
7
  6
CONTINUOUS
 10
-21.4258159741
 20
0.9385406494
 11
-21.4258159741
 21
-13.7317801494
  0
LINE
  5
26D
100
AcDbEntity
  8
0
100
AcDbLine
 62
7
  6
CONTINUOUS
 10
-18.0262578073
 20
16.815393003
 11
-18.605525358
 21
15.291130318
  0
LINE
  5
26E
100
AcDbEntity
  8
0
100
AcDbLine
 62
7
  6
CONTINUOUS
 10
-18.5652873402
 20
14.7118625727
 11
-17.7262655801
 21
16.815393003
  0
LINE
  5
26F
100
AcDbEntity
  8
RACCORDO
100
AcDbLine
 62
7
  6
CONTINUOUS
 10
-23.7649891216
 20
8.4366428265
 11
-23.6758159741
 21
8.5258159741
  0
LINE
  5
270
100
AcDbEntity
  8
0
100
AcDbLine
 62
250
  6
CONTINUOUS
 10
-6.2755113876
 20
25.3258159741
 11
-6.3003215414
 21
25.3010058202
  0
LINE
  5
271
100
AcDbEntity
  8
0
100
AcDbLine
 62
250
  6
CONTINUOUS
 10
-5.7758159741
 20
24.8261205605
 11
-5.8006261279
 21
24.8013104067
  0
LINE
  5
272
100
AcDbEntity
  8
RACCORDO
100
AcDbLine
 62
250
  6
CONTINUOUS
 10
0.1582085927
 20
-23.3085132024
 11
-0.3417152549
 21
-23.3085132024
  0
LINE
  5
273
100
AcDbEntity
  8
RACCORDO
100
AcDbLine
 62
250
  6
CONTINUOUS
 10
-7.5098405408
 20
-23.3085132024
 11
-7.0099166932
 21
-23.3085132024
  0
LINE
  5
274
100
AcDbEntity
  8
RACCORDO
100
AcDbLine
 62
250
  6
CONTINUOUS
 10
-18.9617698659
 20
-16.0126737031
 11
-18.7885909094
 21
-16.1126580419
  0
LINE
  5
275
100
AcDbEntity
  8
RACCORDO
100
AcDbLine
 62
250
  6
CONTINUOUS
 10
-16.6736963475
 20
-17.2531091545
 11
-16.5284721349
 21
-17.3369543928
  0
LINE
  5
276
100
AcDbEntity
  8
RACCORDO
100
AcDbLine
 62
250
  6
CONTINUOUS
 10
-16.9038025698
 20
-16.6868630099
 11
-17.0104097368
 21
-16.6253133333
  0
LINE
  5
277
100
AcDbEntity
  8
RACCORDO
100
AcDbLine
 62
250
  6
CONTINUOUS
 10
-16.730623869
 20
-16.3869087013
 11
-16.8372261626
 21
-16.3253618384
  0
LINE
  5
278
100
AcDbEntity
  8
DRAFT
100
AcDbLine
 62
7
  6
CONTINUOUS
 10
-16.2914034622
 20
-16.3869087013
 11
-16.2739483973
 21
-16.4043637662
  0
LINE
  5
279
100
AcDbEntity
  8
RACCORDO
100
AcDbLine
 62
250
  6
CONTINUOUS
 10
-17.563047934
 20
-16.112646099
 11
-16.8468750483
 21
-17.353093924
  0
LINE
  5
27A
100
AcDbEntity
  8
RACCORDO
100
AcDbLine
 62
250
  6
CONTINUOUS
 10
-17.3898234236
 20
-16.0127406655
 11
-16.6736963475
 21
-17.2531091545
  0
LINE
  5
27B
100
AcDbEntity
  8
RACCORDO
100
AcDbLine
 62
7
  6
CONTINUOUS
 10
-16.5284721349
 20
-17.3369543928
 11
-16.9038025698
 21
-16.6868630099
  0
LINE
  5
27C
100
AcDbEntity
  8
0
100
AcDbLine
 62
7
  6
CONTINUOUS
 10
-20.7758159741
 20
23.4559957143
 11
-20.7758159741
 21
24.8261205605
  0
LINE
  5
27D
100
AcDbEntity
  8
0
100
AcDbLine
 62
250
  6
CONTINUOUS
 10
-20.7510058202
 20
23.443594417
 11
-20.7510058202
 21
24.8013104067
  0
LINE
  5
27E
100
AcDbEntity
  8
0
100
AcDbLine
 62
250
  6
CONTINUOUS
 10
-20.4511885721
 20
23.4385406494
 11
-20.4511885721
 21
24.8013104067
  0
LINE
  5
27F
100
AcDbEntity
  8
0
100
AcDbLine
 62
250
  6
CONTINUOUS
 10
-20.2513104067
 20
25.3010058202
 11
-20.2513104067
 21
25.0011885721
  0
LINE
  5
280
100
AcDbEntity
  8
DRAFT
100
AcDbLine
 62
7
  6
CONTINUOUS
 10
-20.1112322338
 20
0.9612322338
 11
-20.1112322338
 21
6.0903997143
  0
LINE
  5
281
100
AcDbEntity
  8
DRAFT
100
AcDbLine
 62
7
  6
CONTINUOUS
 10
-20.0885406494
 20
0.9385406494
 11
-20.0885406494
 21
6.1130912987
  0
LINE
  5
282
100
AcDbEntity
  8
0
100
AcDbLine
 62
7
  6
CONTINUOUS
 10
-20.0776835508
 20
-17.3544094577
 11
-20.0776835508
 21
-16.4043637662
  0
LINE
  5
283
100
AcDbEntity
  8
0
100
AcDbLine
 62
7
  6
CONTINUOUS
 10
-20.0602284859
 20
-17.3369543928
 11
-20.0602284859
 21
-16.3869087013
  0
LINE
  5
284
100
AcDbEntity
  8
0
100
AcDbLine
 62
7
  6
CONTINUOUS
 10
-19.6758159741
 20
10.6293464043
 11
-19.6758159741
 21
8.5258159741
  0
LINE
  5
285
100
AcDbEntity
  8
RACCORDO
100
AcDbLine
 62
250
  6
CONTINUOUS
 10
-19.5047568999
 20
-17.5530634631
 11
-19.5047568999
 21
-17.353093924
  0
LINE
  5
286
100
AcDbEntity
  8
RACCORDO
100
AcDbLine
 62
250
  6
CONTINUOUS
 10
-19.5047568999
 20
24.4047258721
 11
-19.5047568999
 21
24.6046954112
  0
LINE
  5
287
100
AcDbEntity
  8
0
100
AcDbLine
 62
7
  6
CONTINUOUS
 10
-19.39534525
 20
8.5258159741
 11
-19.39534525
 21
10.6293464043
  0
LINE
  5
288
100
AcDbEntity
  8
0
100
AcDbLine
 62
7
  6
CONTINUOUS
 10
-19.0511311796
 20
10.6293464043
 11
-19.0511311796
 21
10.3871216881
  0
LINE
  5
289
100
AcDbEntity
  8
0
100
AcDbLine
 62
7
  6
CONTINUOUS
 10
-19.1337982316
 20
12.8682088623
 11
-19.1632795901
 21
12.6387328153
  0
LINE
  5
28A
100
AcDbEntity
  8
0
100
AcDbLine
 62
7
  6
CONTINUOUS
 10
-16.6494015256
 20
14.7118625727
 11
-16.4276941231
 21
15.3492960364
  0
LINE
  5
28B
100
AcDbEntity
  8
0
100
AcDbLine
 62
7
  6
CONTINUOUS
 10
-14.201657025
 20
17.7921372028
 11
-13.9799496224
 21
18.4295706665
  0
LINE
  5
28C
100
AcDbEntity
  8
0
100
AcDbLine
 62
7
  6
CONTINUOUS
 10
-17.0495901035
 20
8.5258159741
 11
-16.8278827009
 21
9.1632494378
  0
LINE
  5
28D
100
AcDbEntity
  8
0
100
AcDbLine
 62
7
  6
CONTINUOUS
 10
-15.6129744955
 20
17.7921372028
 11
-14.99207452
 21
19.5514535626
  0
LINE
  5
28E
100
AcDbEntity
  8
0
100
AcDbLine
 62
7
  6
CONTINUOUS
 10
-15.076534381
 20
19.8956676331
 11
-15.5968394092
 21
18.4353474954
  0
LINE
  5
28F
100
AcDbEntity
  8
0
100
AcDbLine
 62
7
  6
CONTINUOUS
 10
-16.3478156905
 20
15.5787720834
 11
-16.1205308545
 21
16.1928994195
  0
LINE
  5
290
100
AcDbEntity
  8
0
100
AcDbLine
 62
7
  6
CONTINUOUS
 10
-13.9000711898
 20
18.6590467134
 11
-13.6727863538
 21
19.2731740496
  0
LINE
  5
291
100
AcDbEntity
  8
0
100
AcDbLine
 62
7
  6
CONTINUOUS
 10
-16.7480042684
 20
9.3927254847
 11
-16.5207194324
 21
10.0068528208
  0
LINE
  5
292
100
AcDbEntity
  8
0
100
AcDbLine
 62
7
  6
CONTINUOUS
 10
-16.145828992
 20
16.815393003
 11
-16.9454095384
 21
14.7118625727
  0
LINE
  5
293
100
AcDbEntity
  8
0
100
AcDbLine
 62
7
  6
CONTINUOUS
 10
-13.6980844914
 20
19.8956676331
 11
-14.4976650377
 21
17.7921372028
  0
LINE
  5
294
100
AcDbEntity
  8
0
100
AcDbLine
 62
7
  6
CONTINUOUS
 10
-16.5460175699
 20
10.6293464043
 11
-17.3455981163
 21
8.5258159741
  0
LINE
  5
295
100
AcDbEntity
  8
RACCORDO
100
AcDbLine
 62
7
  6
CONTINUOUS
 10
-22.0360231382
 20
6.0818244983
 11
-22.0920316624
 21
6.0258159741
  0
LINE
  5
296
100
AcDbEntity
  8
RACCORDO
100
AcDbLine
 62
250
  6
CONTINUOUS
 10
-1.8416282601
 20
-25.3082085927
 11
-1.8238794163
 21
-25.3258159741
  0
LINE
  5
297
100
AcDbEntity
  8
RACCORDO
100
AcDbLine
 62
250
  6
CONTINUOUS
 10
-23.8757855131
 20
-4.4741840259
 11
-23.9727019115
 21
-4.3772676275
  0
LINE
  5
298
100
AcDbEntity
  8
RACCORDO
100
AcDbLine
 62
250
  6
CONTINUOUS
 10
-23.6758159741
 20
-4.2742144869
 11
-23.7727327298
 21
-4.1772977311
  0
LINE
  5
299
100
AcDbEntity
  8
0
100
AcDbLine
 62
7
  6
CONTINUOUS
 10
-18.3627030388
 20
10.3871216881
 11
-18.3627030388
 21
8.5258159741
  0
LINE
  5
29A
100
AcDbEntity
  8
0
100
AcDbLine
 62
7
  6
CONTINUOUS
 10
-18.0822323148
 20
8.5258159741
 11
-18.0822323148
 21
10.3871216881
  0
LINE
  5
29B
100
AcDbEntity
  8
0
100
AcDbLine
 62
7
  6
CONTINUOUS
 10
-17.4908136977
 20
19.8956676331
 11
-17.4908136977
 21
17.7921372028
  0
LINE
  5
29C
100
AcDbEntity
  8
0
100
AcDbLine
 62
7
  6
CONTINUOUS
 10
-17.4908136977
 20
16.815393003
 11
-17.4908136977
 21
14.7118625727
  0
LINE
  5
29D
100
AcDbEntity
  8
0
100
AcDbLine
 62
7
  6
CONTINUOUS
 10
-17.3938041739
 20
10.3871216881
 11
-17.3938041739
 21
10.6293464043
  0
LINE
  5
29E
100
AcDbEntity
  8
0
100
AcDbLine
 62
7
  6
CONTINUOUS
 10
-17.2103429737
 20
14.7118625727
 11
-17.2103429737
 21
16.815393003
  0
LINE
  5
29F
100
AcDbEntity
  8
0
100
AcDbLine
 62
7
  6
CONTINUOUS
 10
-17.2103429737
 20
17.7921372028
 11
-17.2103429737
 21
19.8956676331
  0
LINE
  5
2A0
100
AcDbEntity
  8
0
100
AcDbLine
 62
7
  6
CONTINUOUS
 10
-17.1922629741
 20
-1.9829980259
 11
-17.1922629741
 21
-2.9829980259
  0
LINE
  5
2A1
100
AcDbEntity
  8
RACCORDO
100
AcDbLine
 62
250
  6
CONTINUOUS
 10
-16.8468750483
 20
24.6046954112
 11
-16.8468750483
 21
24.4047258721
  0
LINE
  5
2A2
100
AcDbEntity
  8
RACCORDO
100
AcDbLine
 62
250
  6
CONTINUOUS
 10
-16.8468750483
 20
-17.353093924
 11
-16.8468750483
 21
-17.5530634631
  0
LINE
  5
2A3
100
AcDbEntity
  8
0
100
AcDbLine
 62
7
  6
CONTINUOUS
 10
-16.7386422106
 20
19.8956676331
 11
-16.7386422106
 21
17.7921372028
  0
LINE
  5
2A4
100
AcDbEntity
  8
0
100
AcDbLine
 62
7
  6
CONTINUOUS
 10
-16.4581714865
 20
17.7921372028
 11
-16.4581714865
 21
19.5769509012
  0
LINE
  5
2A5
100
AcDbEntity
  8
DRAFT
100
AcDbLine
 62
7
  6
CONTINUOUS
 10
-20.1112322338
 20
6.0903997143
 11
-20.0885406494
 21
6.1130912987
  0
LINE
  5
2A6
100
AcDbEntity
  8
RACCORDO
100
AcDbLine
 62
7
  6
CONTINUOUS
 10
-25.0866428265
 20
-1.3850108784
 11
-25.1758159741
 21
-1.4741840259
  0
LINE
  5
2A7
100
AcDbEntity
  8
0
100
AcDbLine
 62
7
  6
CONTINUOUS
 10
-17.2325579741
 20
6.1943359741
 11
-17.3443359741
 21
6.0825579741
  0
LINE
  5
2A8
100
AcDbEntity
  8
RACCORDO
100
AcDbLine
 62
7
  6
CONTINUOUS
 10
-22.1826570442
 20
0.9351905923
 11
-22.0920316624
 21
1.0258159741
  0
LINE
  5
2A9
100
AcDbEntity
  8
0
100
AcDbLine
 62
7
  6
CONTINUOUS
 10
-16.5739027058
 20
-17.6543637662
 11
-19.7777292423
 21
-17.6543637662
  0
LINE
  5
2AA
100
AcDbEntity
  8
0
100
AcDbLine
 62
7
  6
CONTINUOUS
 10
-16.5913577708
 20
-17.6369087013
 11
-16.7016508357
 21
-17.6369087013
  0
LINE
  5
2AB
100
AcDbEntity
  8
0
100
AcDbLine
 62
7
  6
CONTINUOUS
 10
-19.6499811124
 20
-17.6369087013
 11
-19.7602741774
 21
-17.6369087013
  0
LINE
  5
2AC
100
AcDbEntity
  8
RACCORDO
100
AcDbLine
 62
250
  6
CONTINUOUS
 10
-19.5047568999
 20
-17.5530634631
 11
-16.8468750483
 21
-17.5530634631
  0
LINE
  5
2AD
100
AcDbEntity
  8
RACCORDO
100
AcDbLine
 62
250
  6
CONTINUOUS
 10
-19.5047568999
 20
-17.353093924
 11
-16.8468750483
 21
-17.353093924
  0
LINE
  5
2AE
100
AcDbEntity
  8
RACCORDO
100
AcDbLine
 62
7
  6
CONTINUOUS
 10
14.3244886356
 20
-16.4741840259
 11
13.8241840259
 21
-16.4741840259
  0
LINE
  5
2AF
100
AcDbEntity
  8
RACCORDO
100
AcDbLine
 62
7
  6
CONTINUOUS
 10
-21.1758159741
 20
-16.4741840259
 11
-21.6761205837
 21
-16.4741840259
  0
LINE
  5
2B0
100
AcDbEntity
  8
0
100
AcDbLine
 62
7
  6
CONTINUOUS
 10
-21.1496333767
 20
-16.4480014286
 11
-20.0776835508
 21
-16.4480014286
  0
LINE
  5
2B1
100
AcDbEntity
  8
0
100
AcDbLine
 62
7
  6
CONTINUOUS
 10
-16.2739483973
 20
-16.4480014286
 11
-7.5274479222
 21
-16.4480014286
  0
LINE
  5
2B2
100
AcDbEntity
  8
0
100
AcDbLine
 62
7
  6
CONTINUOUS
 10
0.1758159741
 20
-16.4480014286
 11
13.7980014286
 21
-16.4480014286
  0
LINE
  5
2B3
100
AcDbEntity
  8
RACCORDO
100
AcDbLine
 62
7
  6
CONTINUOUS
 10
-20.0776835508
 20
-16.4043637662
 11
-20.9094562617
 21
-16.4043637662
  0
LINE
  5
2B4
100
AcDbEntity
  8
DRAFT
100
AcDbLine
 62
7
  6
CONTINUOUS
 10
-16.2739483973
 20
-16.4043637662
 11
-7.6059957143
 21
-16.4043637662
  0
LINE
  5
2B5
100
AcDbEntity
  8
RACCORDO
100
AcDbLine
 62
7
  6
CONTINUOUS
 10
0.2543637662
 20
-16.4043637662
 11
13.5578243136
 21
-16.4043637662
  0
LINE
  5
2B6
100
AcDbEntity
  8
RACCORDO
100
AcDbLine
 62
7
  6
CONTINUOUS
 10
-16.2914034622
 20
-16.3869087013
 11
-16.730623869
 21
-16.3869087013
  0
LINE
  5
2B7
100
AcDbEntity
  8
RACCORDO
100
AcDbLine
 62
7
  6
CONTINUOUS
 10
-19.6210080791
 20
-16.3869087013
 11
-20.0602284859
 21
-16.3869087013
  0
LINE
  5
2B8
100
AcDbEntity
  8
RACCORDO
100
AcDbLine
 62
7
  6
CONTINUOUS
 10
-23.7649891216
 20
-1.3850108784
 11
-23.6758159741
 21
-1.4741840259
  0
LINE
  5
2B9
100
AcDbEntity
  8
0
100
AcDbLine
 62
7
  6
CONTINUOUS
 10
-15.0749749741
 20
1.0148779741
 11
-14.9701749741
 21
-0.1829980259
  0
LINE
  5
2BA
100
AcDbEntity
  8
0
100
AcDbLine
 62
7
  6
CONTINUOUS
 10
-15.3432699741
 20
4.0814929741
 11
-15.0929599741
 21
1.2204489741
  0
LINE
  5
2BB
100
AcDbEntity
  8
0
100
AcDbLine
 62
7
  6
CONTINUOUS
 10
-15.4369379741
 20
5.1521139741
 11
-15.3647029741
 21
4.3264819741
  0
LINE
  5
2BC
100
AcDbEntity
  8
0
100
AcDbLine
 62
7
  6
CONTINUOUS
 10
-15.4885558975
 20
5.7421110987
 11
-15.4645969741
 21
5.4682689741
  0
LINE
  5
2BD
100
AcDbEntity
  8
0
100
AcDbLine
 62
7
  6
CONTINUOUS
 10
-15.2777559741
 20
4.2395329741
 11
-15.3575959741
 21
5.1521139741
  0
LINE
  5
2BE
100
AcDbEntity
  8
0
100
AcDbLine
 62
7
  6
CONTINUOUS
 10
-15.0200039741
 20
1.2934069741
 11
-15.2563229741
 21
3.9945439741
  0
LINE
  5
2BF
100
AcDbEntity
  8
0
100
AcDbLine
 62
7
  6
CONTINUOUS
 10
-14.8977499741
 20
-0.1039600259
 11
-15.0020189741
 21
1.0878359741
  0
LINE
  5
2C0
100
AcDbEntity
  8
0
100
AcDbLine
 62
7
  6
CONTINUOUS
 10
-15.3852559741
 20
5.4682689741
 11
-15.4047390015
 21
5.6909572881
  0
LINE
  5
2C1
100
AcDbEntity
  8
0
100
AcDbLine
 62
7
  6
CONTINUOUS
 10
-16.2914034622
 20
-16.3869087013
 11
-16.2914034622
 21
-17.3369543928
  0
LINE
  5
2C2
100
AcDbEntity
  8
0
100
AcDbLine
 62
7
  6
CONTINUOUS
 10
-16.2739483973
 20
-16.4043637662
 11
-16.2739483973
 21
-17.3544094577
  0
LINE
  5
2C3
100
AcDbEntity
  8
0
100
AcDbLine
 62
7
  6
CONTINUOUS
 10
-16.0864959741
 20
5.4682689741
 11
-16.0864959741
 21
5.1521139741
  0
LINE
  5
2C4
100
AcDbEntity
  8
0
100
AcDbLine
 62
7
  6
CONTINUOUS
 10
-15.2565909741
 20
6.1400989741
 11
-15.2565909741
 21
5.8306739741
  0
LINE
  5
2C5
100
AcDbEntity
  8
0
100
AcDbLine
 62
7
  6
CONTINUOUS
 10
-15.2565909741
 20
5.7468909741
 11
-15.2565909741
 21
5.4682689741
  0
LINE
  5
2C6
100
AcDbEntity
  8
0
100
AcDbLine
 62
7
  6
CONTINUOUS
 10
-15.1775509741
 20
5.5473089741
 11
-15.1775509741
 21
5.7740773105
  0
LINE
  5
2C7
100
AcDbEntity
  8
0
100
AcDbLine
 62
7
  6
CONTINUOUS
 10
-15.1775509741
 20
5.857284651
 11
-15.1775509741
 21
6.0610589741
  0
LINE
  5
2C8
100
AcDbEntity
  8
0
100
AcDbLine
 62
7
  6
CONTINUOUS
 10
-15.1755357202
 20
10.6293464043
 11
-15.1755357202
 21
8.5258159741
  0
LINE
  5
2C9
100
AcDbEntity
  8
0
100
AcDbLine
 62
7
  6
CONTINUOUS
 10
-14.99207452
 20
19.5514535626
 11
-14.99207452
 21
17.7921372028
  0
LINE
  5
2CA
100
AcDbEntity
  8
0
100
AcDbLine
 62
7
  6
CONTINUOUS
 10
-14.9701749741
 20
-0.1829980259
 11
-14.9701749741
 21
-0.8153090259
  0
LINE
  5
2CB
100
AcDbEntity
  8
0
100
AcDbLine
 62
7
  6
CONTINUOUS
 10
-14.9404359741
 20
6.0610589741
 11
-14.9404359741
 21
5.9267319741
  0
LINE
  5
2CC
100
AcDbEntity
  8
0
100
AcDbLine
 62
7
  6
CONTINUOUS
 10
-14.9404359741
 20
5.8449939741
 11
-14.9404359741
 21
5.5473089741
  0
LINE
  5
2CD
100
AcDbEntity
  8
0
100
AcDbLine
 62
7
  6
CONTINUOUS
 10
-14.8950649962
 20
8.7680406903
 11
-14.8950649962
 21
10.6293464043
  0
LINE
  5
2CE
100
AcDbEntity
  8
0
100
AcDbLine
 62
7
  6
CONTINUOUS
 10
-14.8613969741
 20
5.4682689741
 11
-14.8613969741
 21
5.8651920858
  0
LINE
  5
2CF
100
AcDbEntity
  8
0
100
AcDbLine
 62
7
  6
CONTINUOUS
 10
-14.8613969741
 20
5.9465194126
 11
-14.8613969741
 21
6.1400989741
  0
LINE
  5
2D0
100
AcDbEntity
  8
0
100
AcDbLine
 62
7
  6
CONTINUOUS
 10
-14.8516169741
 20
-0.6967510259
 11
-14.8516169741
 21
-0.2225190259
  0
LINE
  5
2D1
100
AcDbEntity
  8
0
100
AcDbLine
 62
7
  6
CONTINUOUS
 10
-14.7753471423
 20
16.815393003
 11
-14.7753471423
 21
14.7118625727
  0
LINE
  5
2D2
100
AcDbEntity
  8
0
100
AcDbLine
 62
7
  6
CONTINUOUS
 10
-14.7116037959
 20
17.7921372028
 11
-14.7116037959
 21
19.8956676331
  0
LINE
  5
2D3
100
AcDbEntity
  8
0
100
AcDbLine
 62
7
  6
CONTINUOUS
 10
-14.6145019741
 20
-0.2225190259
 11
-14.6145019741
 21
-0.6967510259
  0
LINE
  5
2D4
100
AcDbEntity
  8
0
100
AcDbLine
 62
7
  6
CONTINUOUS
 10
-14.4959429741
 20
-0.8153090259
 11
-14.4959429741
 21
-0.1829980259
  0
LINE
  5
2D5
100
AcDbEntity
  8
0
100
AcDbLine
 62
7
  6
CONTINUOUS
 10
-14.4948764183
 20
14.9540872889
 11
-14.4948764183
 21
16.815393003
  0
LINE
  5
2D6
100
AcDbEntity
  8
0
100
AcDbLine
 62
7
  6
CONTINUOUS
 10
-14.1895679741
 20
3.9665339741
 11
-14.1895679741
 21
3.5713399741
  0
LINE
  5
2D7
100
AcDbEntity
  8
0
100
AcDbLine
 62
7
  6
CONTINUOUS
 10
-14.1105289741
 20
3.6503789741
 11
-14.1105289741
 21
3.8874959741
  0
LINE
  5
2D8
100
AcDbEntity
  8
0
100
AcDbLine
 62
7
  6
CONTINUOUS
 10
-14.0314899741
 20
6.2586569741
 11
-14.0314899741
 21
6.0587539741
  0
LINE
  5
2D9
100
AcDbEntity
  8
0
100
AcDbLine
 62
7
  6
CONTINUOUS
 10
-14.0314899741
 20
5.9796709741
 11
-14.0314899741
 21
5.7844249741
  0
LINE
  5
2DA
100
AcDbEntity
  8
0
100
AcDbLine
 62
7
  6
CONTINUOUS
 10
-12.6064795632
 20
12.8682088623
 11
-12.6359609216
 21
12.6387328153
  0
LINE
  5
2DB
100
AcDbEntity
  8
0
100
AcDbLine
 62
7
  6
CONTINUOUS
 10
-8.9109592761
 20
16.815393003
 11
-9.4902268268
 21
15.291130318
  0
LINE
  5
2DC
100
AcDbEntity
  8
0
100
AcDbLine
 62
7
  6
CONTINUOUS
 10
-9.449988809
 20
14.7118625727
 11
-8.6109670489
 21
16.815393003
  0
LINE
  5
2DD
100
AcDbEntity
  8
0
100
AcDbLine
 62
7
  6
CONTINUOUS
 10
-12.6624542652
 20
9.4168286108
 11
-11.8210420931
 21
10.6293464043
  0
LINE
  5
2DE
100
AcDbEntity
  8
RACCORDO
100
AcDbLine
 62
7
  6
CONTINUOUS
 10
-23.5849582466
 20
-1.1333262985
 11
-23.6334588958
 21
-1.1818269477
  0
LINE
  5
2DF
100
AcDbEntity
  8
DRAFT
100
AcDbLine
 62
7
  6
CONTINUOUS
 10
-23.6758159741
 20
-1.2241840259
 11
-23.6334588958
 21
-1.1818269477
  0
LINE
  5
2E0
100
AcDbEntity
  8
RACCORDO
100
AcDbLine
 62
250
  6
CONTINUOUS
 10
-25.1758159741
 20
-4.2742144869
 11
-25.0788992183
 21
-4.1772977311
  0
LINE
  5
2E1
100
AcDbEntity
  8
RACCORDO
100
AcDbLine
 62
250
  6
CONTINUOUS
 10
-24.975846435
 20
-4.4741840259
 11
-24.8789296793
 21
-4.3772672702
  0
LINE
  5
2E2
100
AcDbEntity
  8
RACCORDO
100
AcDbLine
 62
250
  6
CONTINUOUS
 10
14.1755366826
 20
-16.3253590247
 11
0.1753590247
 21
-16.3253590247
  0
LINE
  5
2E3
100
AcDbEntity
  8
RACCORDO
100
AcDbLine
 62
250
  6
CONTINUOUS
 10
-21.5272955825
 20
-16.3253590247
 11
-19.5144009121
 21
-16.3253590247
  0
LINE
  5
2E4
100
AcDbEntity
  8
RACCORDO
100
AcDbLine
 62
250
  6
CONTINUOUS
 10
-7.5269909728
 20
-16.3253590247
 11
-16.8372261626
 21
-16.3253618384
  0
LINE
  5
2E5
100
AcDbEntity
  8
RACCORDO
100
AcDbLine
 62
250
  6
CONTINUOUS
 10
-21.5272955825
 20
-14.825587482
 11
-18.4993901646
 21
-14.8256017878
  0
LINE
  5
2E6
100
AcDbEntity
  8
RACCORDO
100
AcDbLine
 62
250
  6
CONTINUOUS
 10
-0.3417152549
 20
-14.825587482
 11
14.1756636344
 21
-14.825587482
  0
LINE
  5
2E7
100
AcDbEntity
  8
RACCORDO
100
AcDbLine
 62
250
  6
CONTINUOUS
 10
-17.8522428097
 20
-14.8255910401
 11
-7.0099166932
 21
-14.825587482
  0
LINE
  5
2E8
100
AcDbEntity
  8
RACCORDO
100
AcDbLine
 62
250
  6
CONTINUOUS
 10
16.1753590247
 20
-14.3256636344
 11
14.675587482
 21
-14.3256636344
  0
LINE
  5
2E9
100
AcDbEntity
  8
RACCORDO
100
AcDbLine
 62
250
  6
CONTINUOUS
 10
-22.0272194301
 20
-14.3256636344
 11
-23.5269909728
 21
-14.3256636336
  0
LINE
  5
2EA
100
AcDbEntity
  8
RACCORDO
100
AcDbLine
 62
7
  6
CONTINUOUS
 10
-20.9686774937
 20
-14.2594494221
 11
13.6170455456
 21
-14.2594494221
  0
LINE
  5
2EB
100
AcDbEntity
  8
RACCORDO
100
AcDbLine
 62
7
  6
CONTINUOUS
 10
-20.9334120975
 20
-14.2241840259
 11
13.5817801494
 21
-14.2241840259
  0
LINE
  5
2EC
100
AcDbEntity
  8
RACCORDO
100
AcDbLine
 62
7
  6
CONTINUOUS
 10
-22.0360231382
 20
0.9698074498
 11
-22.0920316624
 21
1.0258159741
  0
LINE
  5
2ED
100
AcDbEntity
  8
RACCORDO
100
AcDbLine
 62
250
  6
CONTINUOUS
 10
0.1582085927
 20
-23.3083707393
 11
0.1758159741
 21
-23.3261205837
  0
LINE
  5
2EE
100
AcDbEntity
  8
0
100
AcDbLine
 62
7
  6
CONTINUOUS
 10
-13.9524519741
 20
5.8634629741
 11
-13.9524519741
 21
5.981588411
  0
LINE
  5
2EF
100
AcDbEntity
  8
0
100
AcDbLine
 62
7
  6
CONTINUOUS
 10
-13.9524519741
 20
6.06063634
 11
-13.9524519741
 21
6.1796179741
  0
LINE
  5
2F0
100
AcDbEntity
  8
0
100
AcDbLine
 62
7
  6
CONTINUOUS
 10
-13.8496741157
 20
8.5258159741
 11
-13.8496741157
 21
8.7680406903
  0
LINE
  5
2F1
100
AcDbEntity
  8
0
100
AcDbLine
 62
7
  6
CONTINUOUS
 10
-13.4494855378
 20
14.7118625727
 11
-13.4494855378
 21
14.9540872889
  0
LINE
  5
2F2
100
AcDbEntity
  8
0
100
AcDbLine
 62
7
  6
CONTINUOUS
 10
-13.1180201366
 20
16.815393003
 11
-13.1180201366
 21
14.7118625727
  0
LINE
  5
2F3
100
AcDbEntity
  8
0
100
AcDbLine
 62
7
  6
CONTINUOUS
 10
-13.0435069741
 20
6.1796179741
 11
-13.0435069741
 21
5.9731389741
  0
LINE
  5
2F4
100
AcDbEntity
  8
0
100
AcDbLine
 62
7
  6
CONTINUOUS
 10
-13.0435069741
 20
5.8923539741
 11
-13.0435069741
 21
5.8634629741
  0
LINE
  5
2F5
100
AcDbEntity
  8
0
100
AcDbLine
 62
7
  6
CONTINUOUS
 10
-12.9644669741
 20
5.7844249741
 11
-12.9644669741
 21
5.8746606045
  0
LINE
  5
2F6
100
AcDbEntity
  8
0
100
AcDbLine
 62
7
  6
CONTINUOUS
 10
-12.9644669741
 20
5.9557986162
 11
-12.9644669741
 21
6.2586569741
  0
LINE
  5
2F7
100
AcDbEntity
  8
0
100
AcDbLine
 62
7
  6
CONTINUOUS
 10
-12.9429249892
 20
9.4168286108
 11
-12.9429249892
 21
8.5258159741
  0
LINE
  5
2F8
100
AcDbEntity
  8
0
100
AcDbLine
 62
7
  6
CONTINUOUS
 10
-12.8854289741
 20
3.8874959741
 11
-12.8854289741
 21
3.6503789741
  0
LINE
  5
2F9
100
AcDbEntity
  8
0
100
AcDbLine
 62
7
  6
CONTINUOUS
 10
-12.8375494126
 20
14.9540872889
 11
-12.8375494126
 21
15.6807614376
  0
LINE
  5
2FA
100
AcDbEntity
  8
0
100
AcDbLine
 62
7
  6
CONTINUOUS
 10
-12.8375494126
 20
15.9229861538
 11
-12.8375494126
 21
16.5731682868
  0
LINE
  5
2FB
100
AcDbEntity
  8
0
100
AcDbLine
 62
7
  6
CONTINUOUS
 10
-12.8063899741
 20
3.5713399741
 11
-12.8063899741
 21
3.9665339741
  0
LINE
  5
2FC
100
AcDbEntity
  8
0
100
AcDbLine
 62
7
  6
CONTINUOUS
 10
-12.6624542652
 20
8.5258159741
 11
-12.6624542652
 21
9.4168286108
  0
LINE
  5
2FD
100
AcDbEntity
  8
0
100
AcDbLine
 62
7
  6
CONTINUOUS
 10
-12.3021053031
 20
19.8956676331
 11
-12.3021053031
 21
17.7921372028
  0
LINE
  5
2FE
100
AcDbEntity
  8
0
100
AcDbLine
 62
7
  6
CONTINUOUS
 10
-12.2926389741
 20
4.8359599741
 11
-12.2926389741
 21
4.0207709741
  0
LINE
  5
2FF
100
AcDbEntity
  8
0
100
AcDbLine
 62
7
  6
CONTINUOUS
 10
-12.2135999741
 20
4.0998089741
 11
-12.2135999741
 21
4.7569199741
  0
LINE
  5
300
100
AcDbEntity
  8
0
100
AcDbLine
 62
7
  6
CONTINUOUS
 10
-12.021634579
 20
17.7921372028
 11
-12.021634579
 21
18.7227900598
  0
LINE
  5
301
100
AcDbEntity
  8
0
100
AcDbLine
 62
7
  6
CONTINUOUS
 10
-12.021634579
 20
18.965014776
 11
-12.021634579
 21
19.6534429168
  0
LINE
  5
302
100
AcDbEntity
  8
0
100
AcDbLine
 62
7
  6
CONTINUOUS
 10
-11.6998489741
 20
5.1521139741
 11
-11.6998489741
 21
5.2515719741
  0
LINE
  5
303
100
AcDbEntity
  8
0
100
AcDbLine
 62
7
  6
CONTINUOUS
 10
-11.6901691779
 20
15.6807614376
 11
-11.6901691779
 21
15.9229861538
  0
LINE
  5
304
100
AcDbEntity
  8
0
100
AcDbLine
 62
7
  6
CONTINUOUS
 10
-11.6136771623
 20
16.5731682868
 11
-11.6136771623
 21
16.815393003
  0
LINE
  5
305
100
AcDbEntity
  8
0
100
AcDbLine
 62
7
  6
CONTINUOUS
 10
-12.0269299741
 20
5.1521139741
 11
-12.0545909741
 21
4.8359599741
  0
LINE
  5
306
100
AcDbEntity
  8
0
100
AcDbLine
 62
7
  6
CONTINUOUS
 10
-12.0615059741
 20
4.7569199741
 11
-12.1099259741
 21
4.2034849741
  0
LINE
  5
307
100
AcDbEntity
  8
0
100
AcDbLine
 62
7
  6
CONTINUOUS
 10
-12.1313589741
 20
3.9584959741
 11
-12.3618779741
 21
1.3236549741
  0
LINE
  5
308
100
AcDbEntity
  8
0
100
AcDbLine
 62
7
  6
CONTINUOUS
 10
-12.3798629741
 20
1.1180839741
 11
-12.4299589741
 21
0.5454779741
  0
LINE
  5
309
100
AcDbEntity
  8
0
100
AcDbLine
 62
7
  6
CONTINUOUS
 10
-11.9752499741
 20
4.8359599741
 11
-11.9475899741
 21
5.1521139741
  0
LINE
  5
30A
100
AcDbEntity
  8
0
100
AcDbLine
 62
7
  6
CONTINUOUS
 10
-12.3516159268
 20
0.534075514
 11
-12.3069049741
 21
1.0451279741
  0
LINE
  5
30B
100
AcDbEntity
  8
0
100
AcDbLine
 62
7
  6
CONTINUOUS
 10
-12.2889199741
 20
1.2506969741
 11
-12.0513149741
 21
3.9665339741
  0
LINE
  5
30C
100
AcDbEntity
  8
0
100
AcDbLine
 62
7
  6
CONTINUOUS
 10
-12.0229769741
 20
4.2904319741
 11
-11.9821649741
 21
4.7569199741
  0
LINE
  5
30D
100
AcDbEntity
  8
0
100
AcDbLine
 62
7
  6
CONTINUOUS
 10
-9.4985930742
 20
11.6443366119
 11
-8.8776930987
 21
13.4036529718
  0
LINE
  5
30E
100
AcDbEntity
  8
0
100
AcDbLine
 62
7
  6
CONTINUOUS
 10
-8.9621529597
 20
13.7478670422
 11
-9.4824579879
 21
12.2875469046
  0
LINE
  5
30F
100
AcDbEntity
  8
0
100
AcDbLine
 62
7
  6
CONTINUOUS
 10
-7.7856897685
 20
12.5112461226
 11
-7.5584049325
 21
13.1253734587
  0
LINE
  5
310
100
AcDbEntity
  8
0
100
AcDbLine
 62
7
  6
CONTINUOUS
 10
-7.5837030701
 20
13.7478670422
 11
-8.3832836164
 21
11.6443366119
  0
LINE
  5
311
100
AcDbEntity
  8
0
100
AcDbLine
 62
7
  6
CONTINUOUS
 10
-4.9142513613
 20
19.8956676331
 11
-5.7138319077
 21
17.7921372028
  0
LINE
  5
312
100
AcDbEntity
  8
DRAFT
100
AcDbLine
 62
7
  6
CONTINUOUS
 10
-20.1112322338
 20
0.9612322338
 11
-20.0885406494
 21
0.9385406494
  0
LINE
  5
313
100
AcDbEntity
  8
0
100
AcDbLine
 62
7
  6
CONTINUOUS
 10
-17.3443359741
 20
-1.0309260259
 11
-17.2325579741
 21
-1.1427040259
  0
LINE
  5
314
100
AcDbEntity
  8
RACCORDO
100
AcDbLine
 62
7
  6
CONTINUOUS
 10
-25.0866428265
 20
8.4366428265
 11
-25.1758159741
 21
8.5258159741
  0
LINE
  5
315
100
AcDbEntity
  8
0
100
AcDbLine
 62
7
  6
CONTINUOUS
 10
-19.6758159741
 20
16.815393003
 11
-18.8670723764
 21
14.7118625727
  0
LINE
  5
316
100
AcDbEntity
  8
0
100
AcDbLine
 62
7
  6
CONTINUOUS
 10
-15.9328862388
 20
9.1632494378
 11
-15.6982311605
 21
8.5258159741
  0
LINE
  5
317
100
AcDbEntity
  8
0
100
AcDbLine
 62
7
  6
CONTINUOUS
 10
-18.831415787
 20
15.291130318
 11
-19.3776167504
 21
16.815393003
  0
LINE
  5
318
100
AcDbEntity
  8
0
100
AcDbLine
 62
7
  6
CONTINUOUS
 10
-11.5626824852
 20
14.7118625727
 11
-11.5626824852
 21
14.9540872889
  0
LINE
  5
319
100
AcDbEntity
  8
0
100
AcDbLine
 62
7
  6
CONTINUOUS
 10
-11.4232129741
 20
4.6666419741
 11
-11.4232129741
 21
4.0455729741
  0
LINE
  5
31A
100
AcDbEntity
  8
0
100
AcDbLine
 62
7
  6
CONTINUOUS
 10
-11.3441739741
 20
3.9665339741
 11
-11.3441739741
 21
4.7456799741
  0
LINE
  5
31B
100
AcDbEntity
  8
0
100
AcDbLine
 62
7
  6
CONTINUOUS
 10
-10.6242607893
 20
13.7478670422
 11
-10.6242607893
 21
11.6443366119
  0
LINE
  5
31C
100
AcDbEntity
  8
0
100
AcDbLine
 62
7
  6
CONTINUOUS
 10
-10.3437900652
 20
11.6443366119
 11
-10.3437900652
 21
13.4291503103
  0
LINE
  5
31D
100
AcDbEntity
  8
0
100
AcDbLine
 62
7
  6
CONTINUOUS
 10
-10.1922629741
 20
-2.9829980259
 11
-10.1922629741
 21
-1.9829980259
  0
LINE
  5
31E
100
AcDbEntity
  8
0
100
AcDbLine
 62
7
  6
CONTINUOUS
 10
-8.0872756037
 20
11.6443366119
 11
-7.8655682011
 21
12.2817700757
  0
LINE
  5
31F
100
AcDbEntity
  8
0
100
AcDbLine
 62
7
  6
CONTINUOUS
 10
-5.4178238949
 20
17.7921372028
 11
-5.1961164923
 21
18.4295706665
  0
LINE
  5
320
100
AcDbEntity
  8
0
100
AcDbLine
 62
7
  6
CONTINUOUS
 10
-5.1162380597
 20
18.6590467134
 11
-4.8889532238
 21
19.2731740496
  0
LINE
  5
321
100
AcDbEntity
  8
0
100
AcDbLine
 62
7
  6
CONTINUOUS
 10
-0.5189484766
 20
16.3211829162
 11
-1.5932231126
 21
14.9642465398
  0
LINE
  5
322
100
AcDbEntity
  8
0
100
AcDbLine
 62
7
  6
CONTINUOUS
 10
-12.1099259741
 20
4.2034849741
 11
-12.2135999741
 21
4.0998089741
  0
LINE
  5
323
100
AcDbEntity
  8
0
100
AcDbLine
 62
7
  6
CONTINUOUS
 10
-12.2926389741
 20
4.0207709741
 11
-13.6758159741
 21
2.6375929741
  0
LINE
  5
324
100
AcDbEntity
  8
0
100
AcDbLine
 62
7
  6
CONTINUOUS
 10
-10.1190739741
 20
6.1943359741
 11
-11.4774489741
 21
4.8359599741
  0
LINE
  5
325
100
AcDbEntity
  8
0
100
AcDbLine
 62
7
  6
CONTINUOUS
 10
-11.5564889741
 20
4.7569199741
 11
-12.0229769741
 21
4.2904319741
  0
LINE
  5
326
100
AcDbEntity
  8
0
100
AcDbLine
 62
7
  6
CONTINUOUS
 10
-15.0929599741
 20
1.2204489741
 11
-17.3443359741
 21
-1.0309260259
  0
LINE
  5
327
100
AcDbEntity
  8
0
100
AcDbLine
 62
7
  6
CONTINUOUS
 10
-13.7875929741
 20
2.5258159741
 11
-15.0200039741
 21
1.2934069741
  0
LINE
  5
328
100
AcDbEntity
  8
0
100
AcDbLine
 62
7
  6
CONTINUOUS
 10
-15.0020189741
 20
1.0878359741
 11
-13.6758159741
 21
2.4140389741
  0
LINE
  5
329
100
AcDbEntity
  8
0
100
AcDbLine
 62
7
  6
CONTINUOUS
 10
-13.5640389741
 20
2.5258159741
 11
-12.1313589741
 21
3.9584959741
  0
LINE
  5
32A
100
AcDbEntity
  8
0
100
AcDbLine
 62
7
  6
CONTINUOUS
 10
-12.0442819741
 20
4.0455729741
 11
-11.4232129741
 21
4.6666419741
  0
LINE
  5
32B
100
AcDbEntity
  8
0
100
AcDbLine
 62
7
  6
CONTINUOUS
 10
-11.3441739741
 20
4.7456799741
 11
-10.0072959741
 21
6.0825579741
  0
LINE
  5
32C
100
AcDbEntity
  8
0
100
AcDbLine
 62
7
  6
CONTINUOUS
 10
-17.2325579741
 20
-1.1427040259
 11
-15.0749749741
 21
1.0148779741
  0
LINE
  5
32D
100
AcDbEntity
  8
DRAFT
100
AcDbLine
 62
7
  6
CONTINUOUS
 10
0.2543637662
 20
-16.4043637662
 11
0.1758159741
 21
-16.3258159741
  0
LINE
  5
32E
100
AcDbEntity
  8
RACCORDO
100
AcDbLine
 62
7
  6
CONTINUOUS
 10
0.1753590247
 20
-16.3253590247
 11
0.1758159741
 21
-16.3258159741
  0
LINE
  5
32F
100
AcDbEntity
  8
RACCORDO
100
AcDbLine
 62
7
  6
CONTINUOUS
 10
-22.1826570442
 20
6.1164413558
 11
-22.0920316624
 21
6.0258159741
  0
LINE
  5
330
100
AcDbEntity
  8
RACCORDO
100
AcDbLine
 62
7
  6
CONTINUOUS
 10
-23.5849582466
 20
8.1849582466
 11
-23.6334588958
 21
8.2334588958
  0
LINE
  5
331
100
AcDbEntity
  8
DRAFT
100
AcDbLine
 62
7
  6
CONTINUOUS
 10
-23.6758159741
 20
8.2758159741
 11
-23.6334588958
 21
8.2334588958
  0
LINE
  5
332
100
AcDbEntity
  8
RACCORDO
100
AcDbLine
 62
250
  6
CONTINUOUS
 10
-25.0788992183
 20
11.2289296793
 11
-25.1758159741
 21
11.325846435
  0
LINE
  5
333
100
AcDbEntity
  8
RACCORDO
100
AcDbLine
 62
250
  6
CONTINUOUS
 10
-24.8789296793
 20
11.4288992183
 11
-24.975846435
 21
11.5258159741
  0
LINE
  5
334
100
AcDbEntity
  8
0
100
AcDbLine
 62
7
  6
CONTINUOUS
 10
-15.4000317422
 20
8.5258159741
 11
-16.2426391203
 21
10.6293464043
  0
LINE
  5
335
100
AcDbEntity
  8
0
100
AcDbLine
 62
7
  6
CONTINUOUS
 10
-16.2440335273
 20
9.970798024
 11
-16.0175453008
 21
9.3927254847
  0
LINE
  5
336
100
AcDbEntity
  8
0
100
AcDbLine
 62
7
  6
CONTINUOUS
 10
-19.6758159741
 20
19.8956676331
 11
-18.8670723764
 21
17.7921372028
  0
LINE
  5
337
100
AcDbEntity
  8
0
100
AcDbLine
 62
7
  6
CONTINUOUS
 10
-15.5326976609
 20
15.3492960364
 11
-15.2980425826
 21
14.7118625727
  0
LINE
  5
338
100
AcDbEntity
  8
0
100
AcDbLine
 62
7
  6
CONTINUOUS
 10
-18.831415787
 20
18.371404948
 11
-19.3776167504
 21
19.8956676331
  0
LINE
  5
339
100
AcDbEntity
  8
0
100
AcDbLine
 62
7
  6
CONTINUOUS
 10
-16.4581714865
 20
19.5769509012
 11
-15.8516135937
 21
17.7921372028
  0
LINE
  5
33A
100
AcDbEntity
  8
0
100
AcDbLine
 62
7
  6
CONTINUOUS
 10
-8.8776930987
 20
13.4036529718
 11
-8.8776930987
 21
11.6443366119
  0
LINE
  5
33B
100
AcDbEntity
  8
0
100
AcDbLine
 62
7
  6
CONTINUOUS
 10
-8.5972223746
 20
11.6443366119
 11
-8.5972223746
 21
13.7478670422
  0
LINE
  5
33C
100
AcDbEntity
  8
0
100
AcDbLine
 62
7
  6
CONTINUOUS
 10
-8.3755151666
 20
16.815393003
 11
-8.3755151666
 21
14.7118625727
  0
LINE
  5
33D
100
AcDbEntity
  8
0
100
AcDbLine
 62
7
  6
CONTINUOUS
 10
-8.0950444425
 20
14.7118625727
 11
-8.0950444425
 21
16.815393003
  0
LINE
  5
33E
100
AcDbEntity
  8
RACCORDO
100
AcDbLine
 62
7
  6
CONTINUOUS
 10
-7.5274479222
 20
-23.3261205837
 11
-7.5274479222
 21
-16.3258159741
  0
LINE
  5
33F
100
AcDbEntity
  8
RACCORDO
100
AcDbLine
 62
250
  6
CONTINUOUS
 10
-7.5098405408
 20
-23.3083717399
 11
-7.5098405408
 21
-15.9357547878
  0
LINE
  5
340
100
AcDbEntity
  8
0
100
AcDbLine
 62
7
  6
CONTINUOUS
 10
-7.419364971
 20
19.8956676331
 11
-7.419364971
 21
17.7921372028
  0
LINE
  5
341
100
AcDbEntity
  8
0
100
AcDbLine
 62
7
  6
CONTINUOUS
 10
-7.138894247
 20
17.7921372028
 11
-7.138894247
 21
18.6590467134
  0
LINE
  5
342
100
AcDbEntity
  8
0
100
AcDbLine
 62
7
  6
CONTINUOUS
 10
-7.138894247
 20
18.9012714297
 11
-7.138894247
 21
19.6534429168
  0
LINE
  5
343
100
AcDbEntity
  8
RACCORDO
100
AcDbLine
 62
250
  6
CONTINUOUS
 10
-7.0099166932
 20
-23.3085132024
 11
-7.0099166932
 21
-14.825587482
  0
LINE
  5
344
100
AcDbEntity
  8
RACCORDO
100
AcDbLine
 62
7
  6
CONTINUOUS
 10
-19.4478293783
 20
-16.6868630099
 11
-19.8231598132
 21
-17.3369543928
  0
LINE
  5
345
100
AcDbEntity
  8
RACCORDO
100
AcDbLine
 62
250
  6
CONTINUOUS
 10
-19.6779356006
 20
-17.2531091545
 11
-18.9618157194
 21
-16.0127531238
  0
LINE
  5
346
100
AcDbEntity
  8
RACCORDO
100
AcDbLine
 62
250
  6
CONTINUOUS
 10
-19.5047568999
 20
-17.353093924
 11
-18.7885874777
 21
-16.1126520981
  0
LINE
  5
347
100
AcDbEntity
  8
RACCORDO
100
AcDbLine
 62
7
  6
CONTINUOUS
 10
13.7577938526
 20
23.4594258008
 11
13.8241840259
 21
23.5258159741
  0
LINE
  5
348
100
AcDbEntity
  8
0
100
AcDbLine
 62
7
  6
CONTINUOUS
 10
-13.6758159741
 20
2.4140389741
 11
-12.3798629741
 21
1.1180839741
  0
LINE
  5
349
100
AcDbEntity
  8
0
100
AcDbLine
 62
7
  6
CONTINUOUS
 10
-12.3069049741
 20
1.0451279741
 11
-10.1190739741
 21
-1.1427040259
  0
LINE
  5
34A
100
AcDbEntity
  8
0
100
AcDbLine
 62
7
  6
CONTINUOUS
 10
-17.3443359741
 20
6.0825579741
 11
-15.3432699741
 21
4.0814929741
  0
LINE
  5
34B
100
AcDbEntity
  8
0
100
AcDbLine
 62
7
  6
CONTINUOUS
 10
-15.2563229741
 20
3.9945439741
 11
-13.7875929741
 21
2.5258159741
  0
LINE
  5
34C
100
AcDbEntity
  8
0
100
AcDbLine
 62
7
  6
CONTINUOUS
 10
-12.3618779741
 20
1.3236549741
 11
-13.5640389741
 21
2.5258159741
  0
LINE
  5
34D
100
AcDbEntity
  8
0
100
AcDbLine
 62
7
  6
CONTINUOUS
 10
-13.6758159741
 20
2.6375929741
 11
-15.2777559741
 21
4.2395329741
  0
LINE
  5
34E
100
AcDbEntity
  8
0
100
AcDbLine
 62
7
  6
CONTINUOUS
 10
-10.0072959741
 20
-1.0309260259
 11
-12.2889199741
 21
1.2506969741
  0
LINE
  5
34F
100
AcDbEntity
  8
0
100
AcDbLine
 62
7
  6
CONTINUOUS
 10
-15.3647029741
 20
4.3264819741
 11
-17.2325579741
 21
6.1943359741
  0
LINE
  5
350
100
AcDbEntity
  8
0
100
AcDbLine
 62
7
  6
CONTINUOUS
 10
-14.9998431643
 20
14.7118625727
 11
-15.8424505424
 21
16.815393003
  0
LINE
  5
351
100
AcDbEntity
  8
0
100
AcDbLine
 62
7
  6
CONTINUOUS
 10
-15.8438449494
 20
16.1568446227
 11
-15.6173567229
 21
15.5787720834
  0
LINE
  5
352
100
AcDbEntity
  8
0
100
AcDbLine
 62
7
  6
CONTINUOUS
 10
-15.8129691839
 20
18.4094517549
 11
-16.3111632906
 21
19.8956676331
  0
LINE
  5
353
100
AcDbEntity
  8
0
100
AcDbLine
 62
250
  6
CONTINUOUS
 10
-6.3003215414
 20
25.3010058202
 11
-6.3003215414
 21
25.0011885721
  0
LINE
  5
354
100
AcDbEntity
  8
0
100
AcDbLine
 62
7
  6
CONTINUOUS
 10
-6.1877238818
 20
13.7478670422
 11
-6.1877238818
 21
11.6443366119
  0
LINE
  5
355
100
AcDbEntity
  8
0
100
AcDbLine
 62
250
  6
CONTINUOUS
 10
-6.100443376
 20
24.8013104067
 11
-6.100443376
 21
23.4385406494
  0
LINE
  5
356
100
AcDbEntity
  8
0
100
AcDbLine
 62
7
  6
CONTINUOUS
 10
-5.9072531577
 20
11.6443366119
 11
-5.9072531577
 21
12.574989469
  0
LINE
  5
357
100
AcDbEntity
  8
0
100
AcDbLine
 62
7
  6
CONTINUOUS
 10
-5.9072531577
 20
12.8172141852
 11
-5.9072531577
 21
13.505642326
  0
LINE
  5
358
100
AcDbEntity
  8
0
100
AcDbLine
 62
250
  6
CONTINUOUS
 10
-5.8006261279
 20
24.8013104067
 11
-5.8006261279
 21
23.443594417
  0
LINE
  5
359
100
AcDbEntity
  8
0
100
AcDbLine
 62
7
  6
CONTINUOUS
 10
-5.7758159741
 20
24.8261205605
 11
-5.7758159741
 21
23.4559957143
  0
LINE
  5
35A
100
AcDbEntity
  8
RACCORDO
100
AcDbLine
 62
250
  6
CONTINUOUS
 10
-5.5101451505
 20
-25.3082085927
 11
-5.5101451505
 21
-24.8082847451
  0
LINE
  5
35B
100
AcDbEntity
  8
0
100
AcDbLine
 62
7
  6
CONTINUOUS
 10
-5.468818572
 20
16.815393003
 11
-5.468818572
 21
14.7118625727
  0
LINE
  5
35C
100
AcDbEntity
  8
0
100
AcDbLine
 62
7
  6
CONTINUOUS
 10
-5.188347848
 20
14.9540872889
 11
-5.188347848
 21
15.6807614376
  0
LINE
  5
35D
100
AcDbEntity
  8
0
100
AcDbLine
 62
7
  6
CONTINUOUS
 10
-5.188347848
 20
15.9229861538
 11
-5.188347848
 21
16.5731682868
  0
LINE
  5
35E
100
AcDbEntity
  8
0
100
AcDbLine
 62
7
  6
CONTINUOUS
 10
0.7354011372
 20
15.5787720834
 11
0.9626859732
 21
16.1928994195
  0
LINE
  5
35F
100
AcDbEntity
  8
0
100
AcDbLine
 62
7
  6
CONTINUOUS
 10
0.9373878356
 20
16.815393003
 11
0.1378072893
 21
14.7118625727
  0
LINE
  5
360
100
AcDbEntity
  8
0
100
AcDbLine
 62
7
  6
CONTINUOUS
 10
5.5587803503
 20
16.815393003
 11
4.5771328162
 21
15.4512853906
  0
LINE
  5
361
100
AcDbEntity
  8
0
100
AcDbLine
 62
7
  6
CONTINUOUS
 10
4.8325046037
 20
15.4512853906
 11
5.5077856732
 21
16.3899062875
  0
LINE
  5
362
100
AcDbEntity
  8
RACCORDO
100
AcDbLine
 62
250
  6
CONTINUOUS
 10
-23.6758159741
 20
-14.4744886356
 11
-23.5269909728
 21
-14.3255346357
  0
LINE
  5
363
100
AcDbEntity
  8
RACCORDO
100
AcDbLine
 62
250
  6
CONTINUOUS
 10
14.3244886356
 20
23.5258159741
 11
14.1756636344
 21
23.3769909728
  0
LINE
  5
364
100
AcDbEntity
  8
0
100
AcDbLine
 62
7
  6
CONTINUOUS
 10
-10.1190739741
 20
-1.1427040259
 11
-10.0072959741
 21
-1.0309260259
  0
LINE
  5
365
100
AcDbEntity
  8
RACCORDO
100
AcDbLine
 62
250
  6
CONTINUOUS
 10
13.6170455456
 20
21.3110813702
 11
13.5817801494
 21
21.2758159741
  0
LINE
  5
366
100
AcDbEntity
  8
RACCORDO
100
AcDbLine
 62
250
  6
CONTINUOUS
 10
-21.4610813702
 20
-13.7670455456
 11
-21.4258159741
 21
-13.7317801494
  0
LINE
  5
367
100
AcDbEntity
  8
RACCORDO
100
AcDbLine
 62
250
  6
CONTINUOUS
 10
14.1094494221
 20
20.8186774937
 11
14.0741840259
 21
20.7834120975
  0
LINE
  5
368
100
AcDbEntity
  8
RACCORDO
100
AcDbLine
 62
250
  6
CONTINUOUS
 10
-20.9686774937
 20
-14.2594494221
 11
-20.9334120975
 21
-14.2241840259
  0
LINE
  5
369
100
AcDbEntity
  8
RACCORDO
100
AcDbLine
 62
7
  6
CONTINUOUS
 10
17.6242144869
 20
-4.4741840259
 11
16.524153565
 21
-4.4741840259
  0
LINE
  5
36A
100
AcDbEntity
  8
RACCORDO
100
AcDbLine
 62
7
  6
CONTINUOUS
 10
-23.8757855131
 20
-4.4741840259
 11
-24.975846435
 21
-4.4741840259
  0
LINE
  5
36B
100
AcDbEntity
  8
0
100
AcDbLine
 62
7
  6
CONTINUOUS
 10
-13.7460911535
 20
10.6293464043
 11
-12.9429249892
 21
9.4168286108
  0
LINE
  5
36C
100
AcDbEntity
  8
0
100
AcDbLine
 62
7
  6
CONTINUOUS
 10
-13.0070667376
 20
9.9875307132
 11
-13.4124345414
 21
10.6293464043
  0
LINE
  5
36D
100
AcDbEntity
  8
RACCORDO
100
AcDbLine
 62
7
  6
CONTINUOUS
 10
-19.8231598132
 20
24.3885863409
 11
-19.4478293783
 21
23.738494958
  0
LINE
  5
36E
100
AcDbEntity
  8
RACCORDO
100
AcDbLine
 62
250
  6
CONTINUOUS
 10
-18.9618108067
 20
23.0643765671
 11
-19.6779356006
 21
24.3047411026
  0
LINE
  5
36F
100
AcDbEntity
  8
RACCORDO
100
AcDbLine
 62
250
  6
CONTINUOUS
 10
-18.7885841863
 20
23.1642783453
 11
-19.5047568999
 21
24.4047258721
  0
LINE
  5
370
100
AcDbEntity
  8
0
100
AcDbLine
 62
7
  6
CONTINUOUS
 10
-12.5520986636
 20
17.7921372028
 11
-13.3947060417
 21
19.8956676331
  0
LINE
  5
371
100
AcDbEntity
  8
0
100
AcDbLine
 62
7
  6
CONTINUOUS
 10
-13.3961004487
 20
19.2371192527
 11
-13.1696122222
 21
18.6590467134
  0
LINE
  5
372
100
AcDbEntity
  8
0
100
AcDbLine
 62
7
  6
CONTINUOUS
 10
-13.0849531602
 20
18.4295706665
 11
-12.8502980819
 21
17.7921372028
  0
LINE
  5
373
100
AcDbEntity
  8
0
100
AcDbLine
 62
7
  6
CONTINUOUS
 10
-10.3437900652
 20
13.4291503103
 11
-9.7372321724
 21
11.6443366119
  0
LINE
  5
374
100
AcDbEntity
  8
0
100
AcDbLine
 62
7
  6
CONTINUOUS
 10
-9.6985877626
 20
12.261651164
 11
-10.1967818693
 21
13.7478670422
  0
LINE
  5
375
100
AcDbEntity
  8
0
100
AcDbLine
 62
7
  6
CONTINUOUS
 10
-4.0409676133
 20
15.6807614376
 11
-4.0409676133
 21
15.9229861538
  0
LINE
  5
376
100
AcDbEntity
  8
0
100
AcDbLine
 62
7
  6
CONTINUOUS
 10
-3.9644755976
 20
16.5731682868
 11
-3.9644755976
 21
16.815393003
  0
LINE
  5
377
100
AcDbEntity
  8
0
100
AcDbLine
 62
7
  6
CONTINUOUS
 10
-3.9134809205
 20
14.7118625727
 11
-3.9134809205
 21
14.9540872889
  0
LINE
  5
378
100
AcDbEntity
  8
0
100
AcDbLine
 62
7
  6
CONTINUOUS
 10
-3.518272173
 20
16.815393003
 11
-3.518272173
 21
14.7118625727
  0
LINE
  5
379
100
AcDbEntity
  8
0
100
AcDbLine
 62
7
  6
CONTINUOUS
 10
-3.237801449
 20
14.7118625727
 11
-3.237801449
 21
16.3251669362
  0
LINE
  5
37A
100
AcDbEntity
  8
0
100
AcDbLine
 62
7
  6
CONTINUOUS
 10
-2.16691323
 20
16.815393003
 11
-2.16691323
 21
15.2020888341
  0
LINE
  5
37B
100
AcDbEntity
  8
0
100
AcDbLine
 62
7
  6
CONTINUOUS
 10
0.433815302
 20
14.7118625727
 11
0.6555227046
 21
15.3492960364
  0
LINE
  5
37C
100
AcDbEntity
  8
RACCORDO
100
AcDbLine
 62
250
  6
CONTINUOUS
 10
16.3241840259
 20
21.5261205837
 11
16.1753590247
 21
21.3771665839
  0
LINE
  5
37D
100
AcDbEntity
  8
RACCORDO
100
AcDbLine
 62
250
  6
CONTINUOUS
 10
-21.6761205837
 20
-16.4741840259
 11
-21.5272955825
 21
-16.3253590247
  0
LINE
  5
37E
100
AcDbEntity
  8
RACCORDO
100
AcDbLine
 62
7
  6
CONTINUOUS
 10
-21.1094258008
 20
-16.4077938526
 11
-21.1758159741
 21
-16.4741840259
  0
LINE
  5
37F
100
AcDbEntity
  8
DRAFT
100
AcDbLine
 62
7
  6
CONTINUOUS
 10
16.3241840259
 20
20.5258159741
 11
16.1758159741
 21
20.3774479222
  0
LINE
  5
380
100
AcDbEntity
  8
RACCORDO
100
AcDbLine
 62
7
  6
CONTINUOUS
 10
16.1753590247
 20
20.3769909728
 11
16.1758159741
 21
20.3774479222
  0
LINE
  5
381
100
AcDbEntity
  8
DRAFT
100
AcDbLine
 62
7
  6
CONTINUOUS
 10
-20.0602284859
 20
-16.3869087013
 11
-20.0776835508
 21
-16.4043637662
  0
LINE
  5
382
100
AcDbEntity
  8
RACCORDO
100
AcDbLine
 62
250
  6
CONTINUOUS
 10
-24.8789296793
 20
-4.3772672702
 11
-23.9727019115
 21
-4.3772676275
  0
LINE
  5
383
100
AcDbEntity
  8
RACCORDO
100
AcDbLine
 62
250
  6
CONTINUOUS
 10
16.6210703207
 20
-4.3772672702
 11
17.5272980885
 21
-4.3772676275
  0
LINE
  5
384
100
AcDbEntity
  8
0
100
AcDbLine
 62
7
  6
CONTINUOUS
 10
-17.1922629741
 20
-2.9829980259
 11
-10.1922629741
 21
-2.9829980259
  0
LINE
  5
385
100
AcDbEntity
  8
0
100
AcDbLine
 62
7
  6
CONTINUOUS
 10
-10.0072959741
 20
6.0825579741
 11
-10.1190739741
 21
6.1943359741
  0
LINE
  5
386
100
AcDbEntity
  8
0
100
AcDbLine
 62
7
  6
CONTINUOUS
 10
-10.5605174429
 20
16.815393003
 11
-9.7517738452
 21
14.7118625727
  0
LINE
  5
387
100
AcDbEntity
  8
0
100
AcDbLine
 62
7
  6
CONTINUOUS
 10
-6.9705717389
 20
12.2817700757
 11
-6.7359166606
 21
11.6443366119
  0
LINE
  5
388
100
AcDbEntity
  8
0
100
AcDbLine
 62
7
  6
CONTINUOUS
 10
-9.7161172558
 20
15.291130318
 11
-10.2623182192
 21
16.815393003
  0
LINE
  5
389
100
AcDbEntity
  8
0
100
AcDbLine
 62
7
  6
CONTINUOUS
 10
-1.8864425059
 20
14.7118625727
 11
-1.8864425059
 21
16.815393003
  0
LINE
  5
38A
100
AcDbEntity
  8
RACCORDO
100
AcDbLine
 62
250
  6
CONTINUOUS
 10
-1.8414867976
 20
-25.3082085927
 11
-1.8414867976
 21
-24.8082847451
  0
LINE
  5
38B
100
AcDbEntity
  8
0
100
AcDbLine
 62
7
  6
CONTINUOUS
 10
-1.5932231126
 20
14.9642465398
 11
-1.5932231126
 21
14.7118625727
  0
LINE
  5
38C
100
AcDbEntity
  8
0
100
AcDbLine
 62
7
  6
CONTINUOUS
 10
-1.4657364199
 20
16.815393003
 11
-1.4657364199
 21
16.5731682868
  0
LINE
  5
38D
100
AcDbEntity
  8
RACCORDO
100
AcDbLine
 62
250
  6
CONTINUOUS
 10
-0.3417152549
 20
-14.825587482
 11
-0.3417152549
 21
-23.3085132024
  0
LINE
  5
38E
100
AcDbEntity
  8
0
100
AcDbLine
 62
7
  6
CONTINUOUS
 10
-0.0046192837
 20
13.7478670422
 11
-0.0046192837
 21
13.505642326
  0
LINE
  5
38F
100
AcDbEntity
  8
0
100
AcDbLine
 62
7
  6
CONTINUOUS
 10
0.0258578852
 20
16.5731682868
 11
0.0258578852
 21
16.815393003
  0
LINE
  5
390
100
AcDbEntity
  8
0
100
AcDbLine
 62
7
  6
CONTINUOUS
 10
0.0768525623
 20
14.7118625727
 11
0.0768525623
 21
14.9540872889
  0
LINE
  5
391
100
AcDbEntity
  8
RACCORDO
100
AcDbLine
 62
250
  6
CONTINUOUS
 10
0.1582085927
 20
-15.9357547878
 11
0.1582085927
 21
-23.3083707393
  0
LINE
  5
392
100
AcDbEntity
  8
RACCORDO
100
AcDbLine
 62
7
  6
CONTINUOUS
 10
0.1758159741
 20
-16.3258159741
 11
0.1758159741
 21
-23.3261205837
  0
LINE
  5
393
100
AcDbEntity
  8
0
100
AcDbLine
 62
7
  6
CONTINUOUS
 10
5.4326882591
 20
13.7478670422
 11
4.6331077127
 21
11.6443366119
  0
LINE
  5
394
100
AcDbEntity
  8
0
100
AcDbLine
 62
250
  6
CONTINUOUS
 10
-20.0602284859
 20
-17.3369543928
 11
-20.0776835508
 21
-17.3544094577
  0
LINE
  5
395
100
AcDbEntity
  8
0
100
AcDbLine
 62
250
  6
CONTINUOUS
 10
-19.7602741774
 20
-17.6369087013
 11
-19.7777292423
 21
-17.6543637662
  0
LINE
  5
396
100
AcDbEntity
  8
0
100
AcDbLine
 62
7
  6
CONTINUOUS
 10
16.2818269477
 20
-1.1818269477
 11
16.4202803619
 21
-1.1776410774
  0
LINE
  5
397
100
AcDbEntity
  8
0
100
AcDbLine
 62
7
  6
CONTINUOUS
 10
-10.1922629741
 20
-1.9829980259
 11
-17.1922629741
 21
-1.9829980259
  0
LINE
  5
398
100
AcDbEntity
  8
RACCORDO
100
AcDbLine
 62
250
  6
CONTINUOUS
 10
-25.0308780086
 20
-1.3777241847
 11
-23.8207539395
 21
-1.3777241847
  0
LINE
  5
399
100
AcDbEntity
  8
RACCORDO
100
AcDbLine
 62
250
  6
CONTINUOUS
 10
16.4691219914
 20
-1.3777241847
 11
17.6792460605
 21
-1.3777241847
  0
LINE
  5
39A
100
AcDbEntity
  8
RACCORDO
100
AcDbLine
 62
250
  6
CONTINUOUS
 10
-23.7724102427
 20
-1.1333262985
 11
-23.5849582466
 21
-1.1333262985
  0
LINE
  5
39B
100
AcDbEntity
  8
RACCORDO
100
AcDbLine
 62
250
  6
CONTINUOUS
 10
16.2333262985
 20
-1.1333262985
 11
16.4207782945
 21
-1.1333262985
  0
LINE
  5
39C
100
AcDbEntity
  8
RACCORDO
100
AcDbLine
 62
250
  6
CONTINUOUS
 10
-23.7735643377
 20
-0.8333719899
 11
-23.5798131169
 21
-0.8333719899
  0
LINE
  5
39D
100
AcDbEntity
  8
RACCORDO
100
AcDbLine
 62
250
  6
CONTINUOUS
 10
16.2281811688
 20
-0.8333719899
 11
16.4219323895
 21
-0.8333719899
  0
LINE
  5
39E
100
AcDbEntity
  8
0
100
AcDbLine
 62
7
  6
CONTINUOUS
 10
-14.9701749741
 20
-0.8153090259
 11
-14.4959429741
 21
-0.8153090259
  0
LINE
  5
39F
100
AcDbEntity
  8
0
100
AcDbLine
 62
7
  6
CONTINUOUS
 10
-14.6145019741
 20
-0.6967510259
 11
-14.8516169741
 21
-0.6967510259
  0
LINE
  5
3A0
100
AcDbEntity
  8
0
100
AcDbLine
 62
7
  6
CONTINUOUS
 10
-14.8516169741
 20
-0.2225190259
 11
-14.6145019741
 21
-0.2225190259
  0
LINE
  5
3A1
100
AcDbEntity
  8
0
100
AcDbLine
 62
7
  6
CONTINUOUS
 10
-14.4959429741
 20
-0.1829980259
 11
-13.1806939741
 21
-0.1829980259
  0
LINE
  5
3A2
100
AcDbEntity
  8
0
100
AcDbLine
 62
7
  6
CONTINUOUS
 10
-13.1806936539
 20
-0.1039600259
 11
-14.8977499741
 21
-0.1039600259
  0
LINE
  5
3A3
100
AcDbEntity
  8
0
100
AcDbLine
 62
7
  6
CONTINUOUS
 10
-23.77191231
 20
-1.1776410774
 11
-23.6334588958
 21
-1.1818269477
  0
LINE
  5
3A4
100
AcDbEntity
  8
RACCORDO
100
AcDbLine
 62
250
  6
CONTINUOUS
 10
14.3244886356
 20
-16.4741840259
 11
14.1755366826
 21
-16.3253590247
  0
LINE
  5
3A5
100
AcDbEntity
  8
RACCORDO
100
AcDbLine
 62
7
  6
CONTINUOUS
 10
13.7577938526
 20
-16.4077938526
 11
13.8241840259
 21
-16.4741840259
  0
LINE
  5
3A6
100
AcDbEntity
  8
RACCORDO
100
AcDbLine
 62
250
  6
CONTINUOUS
 10
-23.6758159741
 20
21.5261205837
 11
-23.5269909728
 21
21.3772955825
  0
LINE
  5
3A7
100
AcDbEntity
  8
RACCORDO
100
AcDbLine
 62
250
  6
CONTINUOUS
 10
13.6170455456
 20
-14.2594494221
 11
13.5817801494
 21
-14.2241840259
  0
LINE
  5
3A8
100
AcDbEntity
  8
RACCORDO
100
AcDbLine
 62
250
  6
CONTINUOUS
 10
-21.4610813702
 20
20.8186774937
 11
-21.4258159741
 21
20.7834120975
  0
LINE
  5
3A9
100
AcDbEntity
  8
RACCORDO
100
AcDbLine
 62
250
  6
CONTINUOUS
 10
14.1094494221
 20
-13.7670455456
 11
14.0741840259
 21
-13.7317801494
  0
LINE
  5
3AA
100
AcDbEntity
  8
RACCORDO
100
AcDbLine
 62
250
  6
CONTINUOUS
 10
-20.9686774937
 20
21.3110813702
 11
-20.9334120975
 21
21.2758159741
  0
LINE
  5
3AB
100
AcDbEntity
  8
0
100
AcDbLine
 62
7
  6
CONTINUOUS
 10
-6.4377172423
 20
11.6443366119
 11
-7.2803246204
 21
13.7478670422
  0
LINE
  5
3AC
100
AcDbEntity
  8
0
100
AcDbLine
 62
7
  6
CONTINUOUS
 10
-7.2817190274
 20
13.0893186619
 11
-7.0552308009
 21
12.5112461226
  0
LINE
  5
3AD
100
AcDbEntity
  8
0
100
AcDbLine
 62
7
  6
CONTINUOUS
 10
0.6838088571
 20
13.505642326
 11
0.6838088571
 21
11.6443366119
  0
LINE
  5
3AE
100
AcDbEntity
  8
0
100
AcDbLine
 62
7
  6
CONTINUOUS
 10
0.9642795811
 20
11.6443366119
 11
0.9642795811
 21
13.505642326
  0
LINE
  5
3AF
100
AcDbEntity
  8
0
100
AcDbLine
 62
7
  6
CONTINUOUS
 10
1.652707722
 20
13.505642326
 11
1.652707722
 21
13.7478670422
  0
LINE
  5
3B0
100
AcDbEntity
  8
0
100
AcDbLine
 62
7
  6
CONTINUOUS
 10
1.9714244538
 20
13.7478670422
 11
1.9714244538
 21
11.6443366119
  0
LINE
  5
3B1
100
AcDbEntity
  8
0
100
AcDbLine
 62
7
  6
CONTINUOUS
 10
2.2518951779
 20
11.6443366119
 11
2.2518951779
 21
13.7478670422
  0
LINE
  5
3B2
100
AcDbEntity
  8
0
100
AcDbLine
 62
7
  6
CONTINUOUS
 10
4.9291157255
 20
11.6443366119
 11
5.1508231281
 21
12.2817700757
  0
LINE
  5
3B3
100
AcDbEntity
  8
0
100
AcDbLine
 62
7
  6
CONTINUOUS
 10
5.2307015606
 20
12.5112461226
 11
5.4579863966
 21
13.1253734587
  0
LINE
  5
3B4
100
AcDbEntity
  8
RACCORDO
100
AcDbLine
 62
250
  6
CONTINUOUS
 10
23.1583707393
 20
20.3598405408
 11
23.1761205837
 21
20.3774479222
  0
LINE
  5
3B5
100
AcDbEntity
  8
RACCORDO
100
AcDbLine
 62
7
  6
CONTINUOUS
 10
14.675587482
 20
0.9350496364
 11
14.1094494221
 21
0.9350496364
  0
LINE
  5
3B6
100
AcDbEntity
  8
RACCORDO
100
AcDbLine
 62
7
  6
CONTINUOUS
 10
-21.4610813702
 20
0.9350496364
 11
-22.0272194301
 21
0.9350496364
  0
LINE
  5
3B7
100
AcDbEntity
  8
DRAFT
100
AcDbLine
 62
7
  6
CONTINUOUS
 10
14.0741840259
 20
0.9385406494
 11
12.7369087013
 21
0.9385406494
  0
LINE
  5
3B8
100
AcDbEntity
  8
DRAFT
100
AcDbLine
 62
7
  6
CONTINUOUS
 10
-21.4258159741
 20
0.9385406494
 11
-20.0885406494
 21
0.9385406494
  0
LINE
  5
3B9
100
AcDbEntity
  8
RACCORDO
100
AcDbLine
 62
7
  6
CONTINUOUS
 10
14.1844673425
 20
0.9612322338
 11
12.7596002857
 21
0.9612322338
  0
LINE
  5
3BA
100
AcDbEntity
  8
RACCORDO
100
AcDbLine
 62
7
  6
CONTINUOUS
 10
-21.5360992906
 20
0.9612322338
 11
-20.1112322338
 21
0.9612322338
  0
LINE
  5
3BB
100
AcDbEntity
  8
0
100
AcDbLine
 62
7
  6
CONTINUOUS
 10
14.7403997143
 20
1.0258159741
 11
14.3241840259
 21
1.0258159741
  0
LINE
  5
3BC
100
AcDbEntity
  8
0
100
AcDbLine
 62
7
  6
CONTINUOUS
 10
-21.6758159741
 20
1.0258159741
 11
-22.0920316624
 21
1.0258159741
  0
LINE
  5
3BD
100
AcDbEntity
  8
DRAFT
100
AcDbLine
 62
7
  6
CONTINUOUS
 10
14.0741840259
 20
0.9385406494
 11
14.1094494221
 21
0.9350496364
  0
LINE
  5
3BE
100
AcDbEntity
  8
RACCORDO
100
AcDbLine
 62
250
  6
CONTINUOUS
 10
-21.6761205837
 20
23.5258159741
 11
-21.5271665839
 21
23.3769909728
  0
LINE
  5
3BF
100
AcDbEntity
  8
RACCORDO
100
AcDbLine
 62
7
  6
CONTINUOUS
 10
-21.1094258008
 20
23.4594258008
 11
-21.1758159741
 21
23.5258159741
  0
LINE
  5
3C0
100
AcDbEntity
  8
RACCORDO
100
AcDbLine
 62
250
  6
CONTINUOUS
 10
16.3241840259
 20
-14.4744886356
 11
16.1753590247
 21
-14.3255392952
  0
LINE
  5
3C1
100
AcDbEntity
  8
0
100
AcDbLine
 62
7
  6
CONTINUOUS
 10
-11.0838104861
 20
18.2293767771
 11
-10.808120586
 21
17.7921372028
  0
LINE
  5
3C2
100
AcDbEntity
  8
0
100
AcDbLine
 62
7
  6
CONTINUOUS
 10
-4.9694290648
 20
12.0815761862
 11
-4.6937391647
 21
11.6443366119
  0
LINE
  5
3C3
100
AcDbEntity
  8
0
100
AcDbLine
 62
7
  6
CONTINUOUS
 10
-10.4786471949
 20
17.7921372028
 11
-10.8360083365
 21
18.3640347057
  0
LINE
  5
3C4
100
AcDbEntity
  8
0
100
AcDbLine
 62
7
  6
CONTINUOUS
 10
-4.3642657736
 20
11.6443366119
 11
-4.7216269152
 21
12.2162341148
  0
LINE
  5
3C5
100
AcDbEntity
  8
0
100
AcDbLine
 62
7
  6
CONTINUOUS
 10
-4.3011200302
 20
18.4295706665
 11
-4.0664649518
 21
17.7921372028
  0
LINE
  5
3C6
100
AcDbEntity
  8
0
100
AcDbLine
 62
7
  6
CONTINUOUS
 10
3.2257738731
 20
16.2990719946
 11
3.2257738731
 21
16.0488794331
  0
LINE
  5
3C7
100
AcDbEntity
  8
0
100
AcDbLine
 62
7
  6
CONTINUOUS
 10
3.7484693133
 20
16.360823331
 11
3.7484693133
 21
14.7118625727
  0
LINE
  5
3C8
100
AcDbEntity
  8
0
100
AcDbLine
 62
7
  6
CONTINUOUS
 10
4.0034426988
 20
14.7118625727
 11
4.0034426988
 21
16.8281416723
  0
LINE
  5
3C9
100
AcDbEntity
  8
0
100
AcDbLine
 62
7
  6
CONTINUOUS
 10
4.5771328162
 20
15.4512853906
 11
4.5771328162
 21
15.2090606744
  0
LINE
  5
3CA
100
AcDbEntity
  8
0
100
AcDbLine
 62
7
  6
CONTINUOUS
 10
9.0851819089
 20
13.7478670422
 11
8.5059143582
 21
12.2236043572
  0
LINE
  5
3CB
100
AcDbEntity
  8
0
100
AcDbLine
 62
7
  6
CONTINUOUS
 10
8.546152376
 20
11.6443366119
 11
9.3851741361
 21
13.7478670422
  0
LINE
  5
3CC
100
AcDbEntity
  8
RACCORDO
100
AcDbLine
 62
250
  6
CONTINUOUS
 10
25.1582085927
 20
18.360003688
 11
25.1758159741
 21
18.3777525319
  0
LINE
  5
3CD
100
AcDbEntity
  8
RACCORDO
100
AcDbLine
 62
250
  6
CONTINUOUS
 10
17.5272977311
 20
11.4288992183
 11
17.6242144869
 21
11.5258159741
  0
LINE
  5
3CE
100
AcDbEntity
  8
RACCORDO
100
AcDbLine
 62
250
  6
CONTINUOUS
 10
17.7272672702
 20
11.2289296793
 11
17.8241840259
 21
11.325846435
  0
LINE
  5
3CF
100
AcDbEntity
  8
RACCORDO
100
AcDbLine
 62
250
  6
CONTINUOUS
 10
-19.5144009121
 20
-16.3253590247
 11
-19.6210080791
 21
-16.3869087013
  0
LINE
  5
3D0
100
AcDbEntity
  8
RACCORDO
100
AcDbLine
 62
250
  6
CONTINUOUS
 10
-19.3412222113
 20
-16.6253133333
 11
-19.4478293783
 21
-16.6868630099
  0
LINE
  5
3D1
100
AcDbEntity
  8
DRAFT
100
AcDbLine
 62
7
  6
CONTINUOUS
 10
-21.4258159741
 20
0.9385406494
 11
-21.4610813702
 21
0.9350496364
  0
LINE
  5
3D2
100
AcDbEntity
  8
DRAFT
100
AcDbLine
 62
7
  6
CONTINUOUS
 10
14.0741840259
 20
6.1130912987
 11
14.1094494221
 21
6.1165823117
  0
LINE
  5
3D3
100
AcDbEntity
  8
0
100
AcDbLine
 62
7
  6
CONTINUOUS
 10
-14.1895679741
 20
3.5713399741
 11
-12.8063899741
 21
3.5713399741
  0
LINE
  5
3D4
100
AcDbEntity
  8
0
100
AcDbLine
 62
7
  6
CONTINUOUS
 10
-12.8854289741
 20
3.6503789741
 11
-14.1105289741
 21
3.6503789741
  0
LINE
  5
3D5
100
AcDbEntity
  8
0
100
AcDbLine
 62
7
  6
CONTINUOUS
 10
-14.1105289741
 20
3.8874959741
 11
-12.8854289741
 21
3.8874959741
  0
LINE
  5
3D6
100
AcDbEntity
  8
0
100
AcDbLine
 62
7
  6
CONTINUOUS
 10
-12.8063899741
 20
3.9665339741
 11
-14.1895679741
 21
3.9665339741
  0
LINE
  5
3D7
100
AcDbEntity
  8
0
100
AcDbLine
 62
7
  6
CONTINUOUS
 10
-12.0513149741
 20
3.9665339741
 11
-11.3441739741
 21
3.9665339741
  0
LINE
  5
3D8
100
AcDbEntity
  8
0
100
AcDbLine
 62
7
  6
CONTINUOUS
 10
-11.4232129741
 20
4.0455729741
 11
-12.0442819741
 21
4.0455729741
  0
LINE
  5
3D9
100
AcDbEntity
  8
0
100
AcDbLine
 62
7
  6
CONTINUOUS
 10
-12.2135999741
 20
4.7569199741
 11
-12.0615059741
 21
4.7569199741
  0
LINE
  5
3DA
100
AcDbEntity
  8
0
100
AcDbLine
 62
7
  6
CONTINUOUS
 10
-11.9821649741
 20
4.7569199741
 11
-11.5564889741
 21
4.7569199741
  0
LINE
  5
3DB
100
AcDbEntity
  8
0
100
AcDbLine
 62
7
  6
CONTINUOUS
 10
-11.4774489741
 20
4.8359599741
 11
-11.9752499741
 21
4.8359599741
  0
LINE
  5
3DC
100
AcDbEntity
  8
0
100
AcDbLine
 62
7
  6
CONTINUOUS
 10
-12.0545909741
 20
4.8359599741
 11
-12.2926389741
 21
4.8359599741
  0
LINE
  5
3DD
100
AcDbEntity
  8
DRAFT
100
AcDbLine
 62
7
  6
CONTINUOUS
 10
-21.4258159741
 20
6.1130912987
 11
-21.4610813702
 21
6.1165823117
  0
LINE
  5
3DE
100
AcDbEntity
  8
0
100
AcDbLine
 62
250
  6
CONTINUOUS
 10
-20.7758159741
 20
24.8261205605
 11
-20.7510058202
 21
24.8013104067
  0
LINE
  5
3DF
100
AcDbEntity
  8
0
100
AcDbLine
 62
250
  6
CONTINUOUS
 10
-20.2761205605
 20
25.3258159741
 11
-20.2513104067
 21
25.3010058202
  0
LINE
  5
3E0
100
AcDbEntity
  8
0
100
AcDbLine
 62
7
  6
CONTINUOUS
 10
-3.7682655336
 20
17.7921372028
 11
-4.6108729117
 21
19.8956676331
  0
LINE
  5
3E1
100
AcDbEntity
  8
0
100
AcDbLine
 62
7
  6
CONTINUOUS
 10
-4.6122673187
 20
19.2371192527
 11
-4.3857790922
 21
18.6590467134
  0
LINE
  5
3E2
100
AcDbEntity
  8
0
100
AcDbLine
 62
7
  6
CONTINUOUS
 10
5.5077856732
 20
16.3899062875
 11
5.5077856732
 21
15.4512853906
  0
LINE
  5
3E3
100
AcDbEntity
  8
0
100
AcDbLine
 62
7
  6
CONTINUOUS
 10
5.5077856732
 20
15.2090606744
 11
5.5077856732
 21
14.7118625727
  0
LINE
  5
3E4
100
AcDbEntity
  8
0
100
AcDbLine
 62
7
  6
CONTINUOUS
 10
5.7627590587
 20
14.7118625727
 11
5.7627590587
 21
15.2090606744
  0
LINE
  5
3E5
100
AcDbEntity
  8
0
100
AcDbLine
 62
7
  6
CONTINUOUS
 10
5.7627590587
 20
15.4512853906
 11
5.7627590587
 21
16.815393003
  0
LINE
  5
3E6
100
AcDbEntity
  8
0
100
AcDbLine
 62
7
  6
CONTINUOUS
 10
6.0432297827
 20
15.2090606744
 11
6.0432297827
 21
15.4512853906
  0
LINE
  5
3E7
100
AcDbEntity
  8
DRAFT
100
AcDbLine
 62
7
  6
CONTINUOUS
 10
16.3241840259
 20
8.2758159741
 11
16.2818269477
 21
8.2334588958
  0
LINE
  5
3E8
100
AcDbEntity
  8
RACCORDO
100
AcDbLine
 62
7
  6
CONTINUOUS
 10
16.2333262985
 20
8.1849582466
 11
16.2818269477
 21
8.2334588958
  0
LINE
  5
3E9
100
AcDbEntity
  8
RACCORDO
100
AcDbLine
 62
7
  6
CONTINUOUS
 10
14.7403997143
 20
6.0258159741
 11
14.8310250961
 21
6.1164413558
  0
LINE
  5
3EA
100
AcDbEntity
  8
RACCORDO
100
AcDbLine
 62
7
  6
CONTINUOUS
 10
-7.5269909728
 20
-16.3253590247
 11
-7.5274479222
 21
-16.3258159741
  0
LINE
  5
3EB
100
AcDbEntity
  8
DRAFT
100
AcDbLine
 62
7
  6
CONTINUOUS
 10
-7.6059957143
 20
-16.4043637662
 11
-7.5274479222
 21
-16.3258159741
  0
LINE
  5
3EC
100
AcDbEntity
  8
RACCORDO
100
AcDbLine
 62
7
  6
CONTINUOUS
 10
17.7350108784
 20
8.4366428265
 11
17.8241840259
 21
8.5258159741
  0
LINE
  5
3ED
100
AcDbEntity
  8
RACCORDO
100
AcDbLine
 62
250
  6
CONTINUOUS
 10
-19.6779356006
 20
-17.2531091545
 11
-19.8231598132
 21
-17.3369543928
  0
LINE
  5
3EE
100
AcDbEntity
  8
RACCORDO
100
AcDbLine
 62
250
  6
CONTINUOUS
 10
-17.5630415983
 20
-16.1126570726
 11
-17.3898627124
 21
-16.0126726153
  0
LINE
  5
3EF
100
AcDbEntity
  8
RACCORDO
100
AcDbLine
 62
250
  6
CONTINUOUS
 10
-19.5047568999
 20
-17.5530634631
 11
-19.6499811124
 21
-17.6369087013
  0
LINE
  5
3F0
100
AcDbEntity
  8
RACCORDO
100
AcDbLine
 62
250
  6
CONTINUOUS
 10
-16.6736963475
 20
-17.2531091545
 11
-16.8468750483
 21
-17.353093924
  0
LINE
  5
3F1
100
AcDbEntity
  8
0
100
AcDbLine
 62
7
  6
CONTINUOUS
 10
-16.0864959741
 20
5.1521139741
 11
-15.4369379741
 21
5.1521139741
  0
LINE
  5
3F2
100
AcDbEntity
  8
0
100
AcDbLine
 62
7
  6
CONTINUOUS
 10
-15.3575959741
 20
5.1521139741
 11
-12.0269299741
 21
5.1521139741
  0
LINE
  5
3F3
100
AcDbEntity
  8
0
100
AcDbLine
 62
7
  6
CONTINUOUS
 10
-11.9475899741
 20
5.1521139741
 11
-11.6998489741
 21
5.1521139741
  0
LINE
  5
3F4
100
AcDbEntity
  8
0
100
AcDbLine
 62
7
  6
CONTINUOUS
 10
-12.2442248022
 20
5.4682689741
 11
-14.8613969741
 21
5.4682689741
  0
LINE
  5
3F5
100
AcDbEntity
  8
0
100
AcDbLine
 62
7
  6
CONTINUOUS
 10
-15.2565909741
 20
5.4682689741
 11
-15.3852559741
 21
5.4682689741
  0
LINE
  5
3F6
100
AcDbEntity
  8
0
100
AcDbLine
 62
7
  6
CONTINUOUS
 10
-15.4645969741
 20
5.4682689741
 11
-16.0864959741
 21
5.4682689741
  0
LINE
  5
3F7
100
AcDbEntity
  8
0
100
AcDbLine
 62
7
  6
CONTINUOUS
 10
-14.9404359741
 20
5.5473089741
 11
-15.1775509741
 21
5.5473089741
  0
LINE
  5
3F8
100
AcDbEntity
  8
0
100
AcDbLine
 62
7
  6
CONTINUOUS
 10
-14.0314899741
 20
5.7844249741
 11
-12.9644669741
 21
5.7844249741
  0
LINE
  5
3F9
100
AcDbEntity
  8
0
100
AcDbLine
 62
7
  6
CONTINUOUS
 10
-13.0435069741
 20
5.8634629741
 11
-13.9524519741
 21
5.8634629741
  0
LINE
  5
3FA
100
AcDbEntity
  8
0
100
AcDbLine
 62
7
  6
CONTINUOUS
 10
14.7403997143
 20
6.0258159741
 11
14.3241840259
 21
6.0258159741
  0
LINE
  5
3FB
100
AcDbEntity
  8
0
100
AcDbLine
 62
7
  6
CONTINUOUS
 10
-21.6758159741
 20
6.0258159741
 11
-22.0920316624
 21
6.0258159741
  0
LINE
  5
3FC
100
AcDbEntity
  8
0
100
AcDbLine
 62
7
  6
CONTINUOUS
 10
-15.1775509741
 20
6.0610589741
 11
-14.9404359741
 21
6.0610589741
  0
LINE
  5
3FD
100
AcDbEntity
  8
RACCORDO
100
AcDbLine
 62
7
  6
CONTINUOUS
 10
14.1844673425
 20
6.0903997143
 11
12.7596002857
 21
6.0903997143
  0
LINE
  5
3FE
100
AcDbEntity
  8
RACCORDO
100
AcDbLine
 62
7
  6
CONTINUOUS
 10
-21.5360992906
 20
6.0903997143
 11
-20.1112322338
 21
6.0903997143
  0
LINE
  5
3FF
100
AcDbEntity
  8
DRAFT
100
AcDbLine
 62
7
  6
CONTINUOUS
 10
14.0741840259
 20
6.1130912987
 11
12.7369087013
 21
6.1130912987
  0
LINE
  5
400
100
AcDbEntity
  8
DRAFT
100
AcDbLine
 62
7
  6
CONTINUOUS
 10
-21.4258159741
 20
6.1130912987
 11
-20.0885406494
 21
6.1130912987
  0
LINE
  5
401
100
AcDbEntity
  8
RACCORDO
100
AcDbLine
 62
7
  6
CONTINUOUS
 10
-22.0272194301
 20
6.1165823117
 11
-21.4610813702
 21
6.1165823117
  0
LINE
  5
402
100
AcDbEntity
  8
RACCORDO
100
AcDbLine
 62
7
  6
CONTINUOUS
 10
14.1094494221
 20
6.1165823117
 11
14.675587482
 21
6.1165823117
  0
LINE
  5
403
100
AcDbEntity
  8
0
100
AcDbLine
 62
7
  6
CONTINUOUS
 10
-14.8613969741
 20
6.1400989741
 11
-15.2565909741
 21
6.1400989741
  0
LINE
  5
404
100
AcDbEntity
  8
0
100
AcDbLine
 62
7
  6
CONTINUOUS
 10
-13.9524519741
 20
6.1796179741
 11
-13.0435069741
 21
6.1796179741
  0
LINE
  5
405
100
AcDbEntity
  8
0
100
AcDbLine
 62
7
  6
CONTINUOUS
 10
-12.9644669741
 20
6.2586569741
 11
-14.0314899741
 21
6.2586569741
  0
LINE
  5
406
100
AcDbEntity
  8
0
100
AcDbLine
 62
7
  6
CONTINUOUS
 10
-3.237801449
 20
16.3251669362
 11
-2.1846417296
 21
14.7118625727
  0
LINE
  5
407
100
AcDbEntity
  8
0
100
AcDbLine
 62
7
  6
CONTINUOUS
 10
-2.16691323
 20
15.2020888341
 11
-3.2200727548
 21
16.815393003
  0
LINE
  5
408
100
AcDbEntity
  8
0
100
AcDbLine
 62
7
  6
CONTINUOUS
 10
2.0833736633
 20
14.7118625727
 11
1.2407662852
 21
16.815393003
  0
LINE
  5
409
100
AcDbEntity
  8
0
100
AcDbLine
 62
7
  6
CONTINUOUS
 10
1.2393718783
 20
16.1568446227
 11
1.4658601048
 21
15.5787720834
  0
LINE
  5
40A
100
AcDbEntity
  8
0
100
AcDbLine
 62
7
  6
CONTINUOUS
 10
1.5505191668
 20
15.3492960364
 11
1.7851742451
 21
14.7118625727
  0
LINE
  5
40B
100
AcDbEntity
  8
0
100
AcDbLine
 62
7
  6
CONTINUOUS
 10
9.6206260184
 20
13.7478670422
 11
9.6206260184
 21
11.6443366119
  0
LINE
  5
40C
100
AcDbEntity
  8
DRAFT
100
AcDbLine
 62
7
  6
CONTINUOUS
 10
12.7596002857
 20
0.9612322338
 11
12.7369087013
 21
0.9385406494
  0
LINE
  5
40D
100
AcDbEntity
  8
RACCORDO
100
AcDbLine
 62
7
  6
CONTINUOUS
 10
14.6843911901
 20
0.9698074498
 11
14.7403997143
 21
1.0258159741
  0
LINE
  5
40E
100
AcDbEntity
  8
0
100
AcDbLine
 62
7
  6
CONTINUOUS
 10
-23.77191231
 20
8.2292730255
 11
-23.6334588958
 21
8.2334588958
  0
LINE
  5
40F
100
AcDbEntity
  8
RACCORDO
100
AcDbLine
 62
250
  6
CONTINUOUS
 10
16.4219323895
 20
7.885003938
 11
16.2281811688
 21
7.885003938
  0
LINE
  5
410
100
AcDbEntity
  8
RACCORDO
100
AcDbLine
 62
250
  6
CONTINUOUS
 10
-23.5798131169
 20
7.885003938
 11
-23.7735643377
 21
7.885003938
  0
LINE
  5
411
100
AcDbEntity
  8
RACCORDO
100
AcDbLine
 62
250
  6
CONTINUOUS
 10
16.4207782945
 20
8.1849582466
 11
16.2333262985
 21
8.1849582466
  0
LINE
  5
412
100
AcDbEntity
  8
RACCORDO
100
AcDbLine
 62
250
  6
CONTINUOUS
 10
-23.5849582466
 20
8.1849582466
 11
-23.7724102427
 21
8.1849582466
  0
LINE
  5
413
100
AcDbEntity
  8
RACCORDO
100
AcDbLine
 62
250
  6
CONTINUOUS
 10
-25.0308780086
 20
8.4293561328
 11
-23.8207539395
 21
8.4293561328
  0
LINE
  5
414
100
AcDbEntity
  8
RACCORDO
100
AcDbLine
 62
250
  6
CONTINUOUS
 10
16.4691219914
 20
8.4293561328
 11
17.6792460605
 21
8.4293561328
  0
LINE
  5
415
100
AcDbEntity
  8
0
100
AcDbLine
 62
7
  6
CONTINUOUS
 10
-19.6758159741
 20
8.5258159741
 11
-19.39534525
 21
8.5258159741
  0
LINE
  5
416
100
AcDbEntity
  8
0
100
AcDbLine
 62
7
  6
CONTINUOUS
 10
-18.3627030388
 20
8.5258159741
 11
-18.0822323148
 21
8.5258159741
  0
LINE
  5
417
100
AcDbEntity
  8
0
100
AcDbLine
 62
7
  6
CONTINUOUS
 10
-17.3455981163
 20
8.5258159741
 11
-17.0495901035
 21
8.5258159741
  0
LINE
  5
418
100
AcDbEntity
  8
0
100
AcDbLine
 62
7
  6
CONTINUOUS
 10
-15.6982311605
 20
8.5258159741
 11
-15.4000317422
 21
8.5258159741
  0
LINE
  5
419
100
AcDbEntity
  8
0
100
AcDbLine
 62
7
  6
CONTINUOUS
 10
-15.1755357202
 20
8.5258159741
 11
-13.8496741157
 21
8.5258159741
  0
LINE
  5
41A
100
AcDbEntity
  8
0
100
AcDbLine
 62
7
  6
CONTINUOUS
 10
-12.9429249892
 20
8.5258159741
 11
-12.6624542652
 21
8.5258159741
  0
LINE
  5
41B
100
AcDbEntity
  8
0
100
AcDbLine
 62
7
  6
CONTINUOUS
 10
-13.8496741157
 20
8.7680406903
 11
-14.8950649962
 21
8.7680406903
  0
LINE
  5
41C
100
AcDbEntity
  8
0
100
AcDbLine
 62
7
  6
CONTINUOUS
 10
-16.8278827009
 20
9.1632494378
 11
-15.9328862388
 21
9.1632494378
  0
LINE
  5
41D
100
AcDbEntity
  8
0
100
AcDbLine
 62
7
  6
CONTINUOUS
 10
-16.0175453008
 20
9.3927254847
 11
-16.7480042684
 21
9.3927254847
  0
LINE
  5
41E
100
AcDbEntity
  8
0
100
AcDbLine
 62
7
  6
CONTINUOUS
 10
16.2818269477
 20
8.2334588958
 11
16.4202803619
 21
8.2292730255
  0
LINE
  5
41F
100
AcDbEntity
  8
RACCORDO
100
AcDbLine
 62
250
  6
CONTINUOUS
 10
17.6242144869
 20
-4.4741840259
 11
17.5272980885
 21
-4.3772676275
  0
LINE
  5
420
100
AcDbEntity
  8
RACCORDO
100
AcDbLine
 62
250
  6
CONTINUOUS
 10
17.8241840259
 20
-4.2742144869
 11
17.7272672702
 21
-4.1772977311
  0
LINE
  5
421
100
AcDbEntity
  8
0
100
AcDbLine
 62
7
  6
CONTINUOUS
 10
9.9010967425
 20
11.6443366119
 11
9.9010967425
 21
13.7478670422
  0
LINE
  5
422
100
AcDbEntity
  8
RACCORDO
100
AcDbLine
 62
250
  6
CONTINUOUS
 10
-7.5098405408
 20
-23.3083717399
 11
-7.5274479222
 21
-23.3261205837
  0
LINE
  5
423
100
AcDbEntity
  8
0
100
AcDbLine
 62
7
  6
CONTINUOUS
 10
4.1896929076
 20
13.1056529491
 11
4.4701636316
 21
13.1701930995
  0
LINE
  5
424
100
AcDbEntity
  8
0
100
AcDbLine
 62
7
  6
CONTINUOUS
 10
-19.0511311796
 20
10.3871216881
 11
-18.3627030388
 21
10.3871216881
  0
LINE
  5
425
100
AcDbEntity
  8
0
100
AcDbLine
 62
7
  6
CONTINUOUS
 10
-18.0822323148
 20
10.3871216881
 11
-17.3938041739
 21
10.3871216881
  0
LINE
  5
426
100
AcDbEntity
  8
0
100
AcDbLine
 62
7
  6
CONTINUOUS
 10
-11.8210420931
 20
10.6293464043
 11
-12.1594793346
 21
10.6293464043
  0
LINE
  5
427
100
AcDbEntity
  8
0
100
AcDbLine
 62
7
  6
CONTINUOUS
 10
-13.4124345414
 20
10.6293464043
 11
-13.7460911535
 21
10.6293464043
  0
LINE
  5
428
100
AcDbEntity
  8
0
100
AcDbLine
 62
7
  6
CONTINUOUS
 10
-14.8950649962
 20
10.6293464043
 11
-15.1755357202
 21
10.6293464043
  0
LINE
  5
429
100
AcDbEntity
  8
0
100
AcDbLine
 62
7
  6
CONTINUOUS
 10
-16.2426391203
 20
10.6293464043
 11
-16.5460175699
 21
10.6293464043
  0
LINE
  5
42A
100
AcDbEntity
  8
0
100
AcDbLine
 62
7
  6
CONTINUOUS
 10
-17.3938041739
 20
10.6293464043
 11
-19.0511311796
 21
10.6293464043
  0
LINE
  5
42B
100
AcDbEntity
  8
0
100
AcDbLine
 62
7
  6
CONTINUOUS
 10
-19.39534525
 20
10.6293464043
 11
-19.6758159741
 21
10.6293464043
  0
LINE
  5
42C
100
AcDbEntity
  8
RACCORDO
100
AcDbLine
 62
250
  6
CONTINUOUS
 10
-23.9727022689
 20
11.4288992183
 11
-24.8789296793
 21
11.4288992183
  0
LINE
  5
42D
100
AcDbEntity
  8
RACCORDO
100
AcDbLine
 62
250
  6
CONTINUOUS
 10
17.5272977311
 20
11.4288992183
 11
16.6210699634
 21
11.4288995756
  0
LINE
  5
42E
100
AcDbEntity
  8
RACCORDO
100
AcDbLine
 62
7
  6
CONTINUOUS
 10
-24.975846435
 20
11.5258159741
 11
-23.8757855131
 21
11.5258159741
  0
LINE
  5
42F
100
AcDbEntity
  8
RACCORDO
100
AcDbLine
 62
7
  6
CONTINUOUS
 10
16.524153565
 20
11.5258159741
 11
17.6242144869
 21
11.5258159741
  0
LINE
  5
430
100
AcDbEntity
  8
0
100
AcDbLine
 62
7
  6
CONTINUOUS
 10
-10.6242607893
 20
11.6443366119
 11
-10.3437900652
 21
11.6443366119
  0
LINE
  5
431
100
AcDbEntity
  8
0
100
AcDbLine
 62
7
  6
CONTINUOUS
 10
-9.7372321724
 20
11.6443366119
 11
-9.4985930742
 21
11.6443366119
  0
LINE
  5
432
100
AcDbEntity
  8
0
100
AcDbLine
 62
7
  6
CONTINUOUS
 10
-8.8776930987
 20
11.6443366119
 11
-8.5972223746
 21
11.6443366119
  0
LINE
  5
433
100
AcDbEntity
  8
0
100
AcDbLine
 62
7
  6
CONTINUOUS
 10
-8.3832836164
 20
11.6443366119
 11
-8.0872756037
 21
11.6443366119
  0
LINE
  5
434
100
AcDbEntity
  8
0
100
AcDbLine
 62
7
  6
CONTINUOUS
 10
-6.7359166606
 20
11.6443366119
 11
-6.4377172423
 21
11.6443366119
  0
LINE
  5
435
100
AcDbEntity
  8
0
100
AcDbLine
 62
7
  6
CONTINUOUS
 10
-6.1877238818
 20
11.6443366119
 11
-5.9072531577
 21
11.6443366119
  0
LINE
  5
436
100
AcDbEntity
  8
0
100
AcDbLine
 62
7
  6
CONTINUOUS
 10
-4.6937391647
 20
11.6443366119
 11
-4.3642657736
 21
11.6443366119
  0
LINE
  5
437
100
AcDbEntity
  8
0
100
AcDbLine
 62
7
  6
CONTINUOUS
 10
0.6838088571
 20
11.6443366119
 11
0.9642795811
 21
11.6443366119
  0
LINE
  5
438
100
AcDbEntity
  8
0
100
AcDbLine
 62
7
  6
CONTINUOUS
 10
1.9714244538
 20
11.6443366119
 11
2.2518951779
 21
11.6443366119
  0
LINE
  5
439
100
AcDbEntity
  8
0
100
AcDbLine
 62
7
  6
CONTINUOUS
 10
4.6331077127
 20
11.6443366119
 11
4.9291157255
 21
11.6443366119
  0
LINE
  5
43A
100
AcDbEntity
  8
0
100
AcDbLine
 62
7
  6
CONTINUOUS
 10
6.2804746685
 20
11.6443366119
 11
6.5786740868
 21
11.6443366119
  0
LINE
  5
43B
100
AcDbEntity
  8
0
100
AcDbLine
 62
7
  6
CONTINUOUS
 10
8.2443673398
 20
11.6443366119
 11
8.546152376
 21
11.6443366119
  0
LINE
  5
43C
100
AcDbEntity
  8
0
100
AcDbLine
 62
7
  6
CONTINUOUS
 10
9.6206260184
 20
11.6443366119
 11
9.9010967425
 21
11.6443366119
  0
LINE
  5
43D
100
AcDbEntity
  8
0
100
AcDbLine
 62
7
  6
CONTINUOUS
 10
-19.6503186355
 20
13.2124229327
 11
-19.39534525
 21
13.1741769249
  0
LINE
  5
43E
100
AcDbEntity
  8
0
100
AcDbLine
 62
7
  6
CONTINUOUS
 10
-13.122999967
 20
13.2124229327
 11
-12.8680265815
 21
13.1741769249
  0
LINE
  5
43F
100
AcDbEntity
  8
0
100
AcDbLine
 62
7
  6
CONTINUOUS
 10
-20.7510058202
 20
23.443594417
 11
-20.7758159741
 21
23.4559957143
  0
LINE
  5
440
100
AcDbEntity
  8
RACCORDO
100
AcDbLine
 62
250
  6
CONTINUOUS
 10
-19.6210080791
 20
23.4385406494
 11
-19.5144009121
 21
23.3769909728
  0
LINE
  5
441
100
AcDbEntity
  8
RACCORDO
100
AcDbLine
 62
250
  6
CONTINUOUS
 10
-19.4478293783
 20
23.738494958
 11
-19.3412222113
 21
23.6769452814
  0
LINE
  5
442
100
AcDbEntity
  8
RACCORDO
100
AcDbLine
 62
250
  6
CONTINUOUS
 10
-19.6779356006
 20
24.3047411026
 11
-19.8231598132
 21
24.3885863409
  0
LINE
  5
443
100
AcDbEntity
  8
RACCORDO
100
AcDbLine
 62
250
  6
CONTINUOUS
 10
-17.3898620822
 20
23.0643056512
 11
-17.5630410387
 21
23.16428999
  0
LINE
  5
444
100
AcDbEntity
  8
RACCORDO
100
AcDbLine
 62
250
  6
CONTINUOUS
 10
-19.5047568999
 20
24.6046954112
 11
-19.6499811124
 21
24.6885406494
  0
LINE
  5
445
100
AcDbEntity
  8
DRAFT
100
AcDbLine
 62
7
  6
CONTINUOUS
 10
16.3241840259
 20
-1.2241840259
 11
16.2818269477
 21
-1.1818269477
  0
LINE
  5
446
100
AcDbEntity
  8
RACCORDO
100
AcDbLine
 62
7
  6
CONTINUOUS
 10
16.2333262985
 20
-1.1333262985
 11
16.2818269477
 21
-1.1818269477
  0
LINE
  5
447
100
AcDbEntity
  8
RACCORDO
100
AcDbLine
 62
7
  6
CONTINUOUS
 10
14.7403997143
 20
1.0258159741
 11
14.8310250961
 21
0.9351905923
  0
LINE
  5
448
100
AcDbEntity
  8
RACCORDO
100
AcDbLine
 62
7
  6
CONTINUOUS
 10
17.7350108784
 20
-1.3850108784
 11
17.8241840259
 21
-1.4741840259
  0
LINE
  5
449
100
AcDbEntity
  8
0
100
AcDbLine
 62
7
  6
CONTINUOUS
 10
6.5786740868
 20
11.6443366119
 11
5.7360667087
 21
13.7478670422
  0
LINE
  5
44A
100
AcDbEntity
  8
0
100
AcDbLine
 62
7
  6
CONTINUOUS
 10
5.7346723017
 20
13.0893186619
 11
5.9611605282
 21
12.5112461226
  0
LINE
  5
44B
100
AcDbEntity
  8
0
100
AcDbLine
 62
7
  6
CONTINUOUS
 10
7.4356237421
 20
13.7478670422
 11
8.2443673398
 21
11.6443366119
  0
LINE
  5
44C
100
AcDbEntity
  8
0
100
AcDbLine
 62
7
  6
CONTINUOUS
 10
6.0458195902
 20
12.2817700757
 11
6.2804746685
 21
11.6443366119
  0
LINE
  5
44D
100
AcDbEntity
  8
0
100
AcDbLine
 62
7
  6
CONTINUOUS
 10
8.2800239292
 20
12.2236043572
 11
7.7338229658
 21
13.7478670422
  0
LINE
  5
44E
100
AcDbEntity
  8
DRAFT
100
AcDbLine
 62
7
  6
CONTINUOUS
 10
12.7369087013
 20
6.1130912987
 11
12.7369087013
 21
0.9385406494
  0
LINE
  5
44F
100
AcDbEntity
  8
DRAFT
100
AcDbLine
 62
7
  6
CONTINUOUS
 10
12.7596002857
 20
6.0903997143
 11
12.7596002857
 21
0.9612322338
  0
LINE
  5
450
100
AcDbEntity
  8
RACCORDO
100
AcDbLine
 62
7
  6
CONTINUOUS
 10
14.0741840259
 20
-13.7317801494
 11
14.0741840259
 21
0.9385406494
  0
LINE
  5
451
100
AcDbEntity
  8
RACCORDO
100
AcDbLine
 62
7
  6
CONTINUOUS
 10
14.0741840259
 20
6.1130912987
 11
14.0741840259
 21
20.7834120975
  0
LINE
  5
452
100
AcDbEntity
  8
RACCORDO
100
AcDbLine
 62
7
  6
CONTINUOUS
 10
14.1094494221
 20
-13.7670455456
 11
14.1094494221
 21
0.9350496364
  0
LINE
  5
453
100
AcDbEntity
  8
RACCORDO
100
AcDbLine
 62
7
  6
CONTINUOUS
 10
14.1094494221
 20
6.1165823117
 11
14.1094494221
 21
20.8186774937
  0
LINE
  5
454
100
AcDbEntity
  8
RACCORDO
100
AcDbLine
 62
250
  6
CONTINUOUS
 10
14.1756636344
 20
-16.3253590247
 11
14.1756636344
 21
-14.825587482
  0
LINE
  5
455
100
AcDbEntity
  8
RACCORDO
100
AcDbLine
 62
250
  6
CONTINUOUS
 10
14.1756636344
 20
21.8772194301
 11
14.1756636344
 21
23.3769909728
  0
LINE
  5
456
100
AcDbEntity
  8
IMPORT_IGES
100
AcDbLine
 62
7
  6
CONTINUOUS
 10
14.3241840259
 20
0.9615869756
 11
14.3241840259
 21
6.0900449726
  0
LINE
  5
457
100
AcDbEntity
  8
RACCORDO
100
AcDbLine
 62
7
  6
CONTINUOUS
 10
16.4133571735
 20
-1.3850108784
 11
16.3241840259
 21
-1.4741840259
  0
LINE
  5
458
100
AcDbEntity
  8
RACCORDO
100
AcDbLine
 62
250
  6
CONTINUOUS
 10
16.4211007817
 20
-4.1772977311
 11
16.3241840259
 21
-4.2742144869
  0
LINE
  5
459
100
AcDbEntity
  8
RACCORDO
100
AcDbLine
 62
250
  6
CONTINUOUS
 10
-5.5100026874
 20
-25.3082085927
 11
-5.5277525319
 21
-25.3258159741
  0
LINE
  5
45A
100
AcDbEntity
  8
0
100
AcDbLine
 62
7
  6
CONTINUOUS
 10
-12.8935239201
 20
12.2307753986
 11
-13.1484973056
 21
12.1925293907
  0
LINE
  5
45B
100
AcDbEntity
  8
0
100
AcDbLine
 62
7
  6
CONTINUOUS
 10
-13.6966900844
 20
13.2124229327
 11
-13.4417166989
 21
13.2379202712
  0
LINE
  5
45C
100
AcDbEntity
  8
0
100
AcDbLine
 62
7
  6
CONTINUOUS
 10
-1.6237002816
 20
12.345513422
 11
-1.8914223363
 21
12.3327647528
  0
LINE
  5
45D
100
AcDbEntity
  8
0
100
AcDbLine
 62
7
  6
CONTINUOUS
 10
-0.5655607318
 20
13.1486795863
 11
-0.2850900077
 21
13.1614282556
  0
LINE
  5
45E
100
AcDbEntity
  8
0
100
AcDbLine
 62
7
  6
CONTINUOUS
 10
-7.8655682011
 20
12.2817700757
 11
-6.9705717389
 21
12.2817700757
  0
LINE
  5
45F
100
AcDbEntity
  8
0
100
AcDbLine
 62
7
  6
CONTINUOUS
 10
5.1508231281
 20
12.2817700757
 11
6.0458195902
 21
12.2817700757
  0
LINE
  5
460
100
AcDbEntity
  8
0
100
AcDbLine
 62
7
  6
CONTINUOUS
 10
5.9611605282
 20
12.5112461226
 11
5.2307015606
 21
12.5112461226
  0
LINE
  5
461
100
AcDbEntity
  8
0
100
AcDbLine
 62
7
  6
CONTINUOUS
 10
-7.0552308009
 20
12.5112461226
 11
-7.7856897685
 21
12.5112461226
  0
LINE
  5
462
100
AcDbEntity
  8
0
100
AcDbLine
 62
7
  6
CONTINUOUS
 10
-5.9072531577
 20
12.574989469
 11
-5.5875404209
 21
12.574989469
  0
LINE
  5
463
100
AcDbEntity
  8
RACCORDO
100
AcDbLine
 62
7
  6
CONTINUOUS
 10
23.1761205837
 20
12.6741840259
 11
16.1758159741
 21
12.6741840259
  0
LINE
  5
464
100
AcDbEntity
  8
RACCORDO
100
AcDbLine
 62
250
  6
CONTINUOUS
 10
23.1583717399
 20
12.6917914073
 11
15.7857547878
 21
12.6917914073
  0
LINE
  5
465
100
AcDbEntity
  8
0
100
AcDbLine
 62
7
  6
CONTINUOUS
 10
-5.3148383412
 20
12.8172141852
 11
-5.9072531577
 21
12.8172141852
  0
LINE
  5
466
100
AcDbEntity
  8
RACCORDO
100
AcDbLine
 62
250
  6
CONTINUOUS
 10
23.1585132024
 20
13.1917152549
 11
14.675587482
 21
13.1917152549
  0
LINE
  5
467
100
AcDbEntity
  8
0
100
AcDbLine
 62
7
  6
CONTINUOUS
 10
-5.9072531577
 20
13.505642326
 11
-5.2479077789
 21
13.505642326
  0
LINE
  5
468
100
AcDbEntity
  8
0
100
AcDbLine
 62
7
  6
CONTINUOUS
 10
-0.0046192837
 20
13.505642326
 11
0.6838088571
 21
13.505642326
  0
LINE
  5
469
100
AcDbEntity
  8
0
100
AcDbLine
 62
7
  6
CONTINUOUS
 10
0.9642795811
 20
13.505642326
 11
1.652707722
 21
13.505642326
  0
LINE
  5
46A
100
AcDbEntity
  8
0
100
AcDbLine
 62
7
  6
CONTINUOUS
 10
9.9010967425
 20
13.7478670422
 11
9.6206260184
 21
13.7478670422
  0
LINE
  5
46B
100
AcDbEntity
  8
0
100
AcDbLine
 62
7
  6
CONTINUOUS
 10
9.3851741361
 20
13.7478670422
 11
9.0851819089
 21
13.7478670422
  0
LINE
  5
46C
100
AcDbEntity
  8
0
100
AcDbLine
 62
7
  6
CONTINUOUS
 10
7.7338229658
 20
13.7478670422
 11
7.4356237421
 21
13.7478670422
  0
LINE
  5
46D
100
AcDbEntity
  8
0
100
AcDbLine
 62
7
  6
CONTINUOUS
 10
5.7360667087
 20
13.7478670422
 11
5.4326882591
 21
13.7478670422
  0
LINE
  5
46E
100
AcDbEntity
  8
0
100
AcDbLine
 62
7
  6
CONTINUOUS
 10
2.2518951779
 20
13.7478670422
 11
1.9714244538
 21
13.7478670422
  0
LINE
  5
46F
100
AcDbEntity
  8
0
100
AcDbLine
 62
7
  6
CONTINUOUS
 10
1.652707722
 20
13.7478670422
 11
-0.0046192837
 21
13.7478670422
  0
LINE
  5
470
100
AcDbEntity
  8
0
100
AcDbLine
 62
7
  6
CONTINUOUS
 10
-5.2592620412
 20
13.7478670422
 11
-6.1877238818
 21
13.7478670422
  0
LINE
  5
471
100
AcDbEntity
  8
0
100
AcDbLine
 62
7
  6
CONTINUOUS
 10
-7.2803246204
 20
13.7478670422
 11
-7.5837030701
 21
13.7478670422
  0
LINE
  5
472
100
AcDbEntity
  8
0
100
AcDbLine
 62
7
  6
CONTINUOUS
 10
-8.5972223746
 20
13.7478670422
 11
-8.9621529597
 21
13.7478670422
  0
LINE
  5
473
100
AcDbEntity
  8
0
100
AcDbLine
 62
7
  6
CONTINUOUS
 10
-10.1967818693
 20
13.7478670422
 11
-10.6242607893
 21
13.7478670422
  0
LINE
  5
474
100
AcDbEntity
  8
0
100
AcDbLine
 62
7
  6
CONTINUOUS
 10
4.5211583087
 20
12.3122474391
 11
4.2406875847
 21
12.3825644184
  0
LINE
  5
475
100
AcDbEntity
  8
0
100
AcDbLine
 62
7
  6
CONTINUOUS
 10
-5.8257813117
 20
15.3797733999
 11
-6.1062520357
 21
15.4500903792
  0
LINE
  5
476
100
AcDbEntity
  8
RACCORDO
100
AcDbLine
 62
250
  6
CONTINUOUS
 10
-16.8468750483
 20
24.4047258721
 11
-16.6736963475
 21
24.3047411026
  0
LINE
  5
477
100
AcDbEntity
  8
DRAFT
100
AcDbLine
 62
7
  6
CONTINUOUS
 10
12.7596002857
 20
6.0903997143
 11
12.7369087013
 21
6.1130912987
  0
LINE
  5
478
100
AcDbEntity
  8
RACCORDO
100
AcDbLine
 62
250
  6
CONTINUOUS
 10
14.675587482
 20
0.9350496364
 11
14.675587482
 21
-14.3256636344
  0
LINE
  5
479
100
AcDbEntity
  8
RACCORDO
100
AcDbLine
 62
250
  6
CONTINUOUS
 10
14.675587482
 20
6.1165823117
 11
14.675587482
 21
13.1917152549
  0
LINE
  5
47A
100
AcDbEntity
  8
RACCORDO
100
AcDbLine
 62
250
  6
CONTINUOUS
 10
14.675587482
 20
19.8599166932
 11
14.675587482
 21
21.3772955825
  0
LINE
  5
47B
100
AcDbEntity
  8
RACCORDO
100
AcDbLine
 62
250
  6
CONTINUOUS
 10
14.6931187225
 20
6.0730969658
 11
14.6931187225
 21
6.0258159741
  0
LINE
  5
47C
100
AcDbEntity
  8
RACCORDO
100
AcDbLine
 62
250
  6
CONTINUOUS
 10
14.6931187225
 20
1.0258159741
 11
14.6931187225
 21
0.9785349823
  0
LINE
  5
47D
100
AcDbEntity
  8
DRAFT
100
AcDbLine
 62
7
  6
CONTINUOUS
 10
14.7403997143
 20
6.0258159741
 11
14.7403997143
 21
1.0258159741
  0
LINE
  5
47E
100
AcDbEntity
  8
RACCORDO
100
AcDbLine
 62
7
  6
CONTINUOUS
 10
14.8310250961
 20
0.9351905923
 11
14.8310250961
 21
6.1164413558
  0
LINE
  5
47F
100
AcDbEntity
  8
RACCORDO
100
AcDbLine
 62
250
  6
CONTINUOUS
 10
16.1753590247
 20
12.6746409753
 11
16.1753590247
 21
-14.3255392952
  0
LINE
  5
480
100
AcDbEntity
  8
RACCORDO
100
AcDbLine
 62
250
  6
CONTINUOUS
 10
16.1753590247
 20
20.3769909728
 11
16.1753590247
 21
21.3771665839
  0
LINE
  5
481
100
AcDbEntity
  8
RACCORDO
100
AcDbLine
 62
7
  6
CONTINUOUS
 10
16.2281811688
 20
7.885003938
 11
16.2281811688
 21
-0.8333719899
  0
LINE
  5
482
100
AcDbEntity
  8
DRAFT
100
AcDbLine
 62
7
  6
CONTINUOUS
 10
16.3241840259
 20
-1.4741840259
 11
16.3241840259
 21
-1.1818269477
  0
LINE
  5
483
100
AcDbEntity
  8
RACCORDO
100
AcDbLine
 62
7
  6
CONTINUOUS
 10
16.3241840259
 20
-14.4744886356
 11
16.3241840259
 21
-1.2241840259
  0
LINE
  5
484
100
AcDbEntity
  8
RACCORDO
100
AcDbLine
 62
7
  6
CONTINUOUS
 10
16.3241840259
 20
8.5258159741
 11
16.3241840259
 21
11.325846435
  0
LINE
  5
485
100
AcDbEntity
  8
DRAFT
100
AcDbLine
 62
7
  6
CONTINUOUS
 10
16.3241840259
 20
8.2334588958
 11
16.3241840259
 21
12.5258159741
  0
LINE
  5
486
100
AcDbEntity
  8
RACCORDO
100
AcDbLine
 62
7
  6
CONTINUOUS
 10
16.3241840259
 20
11.7257855131
 11
16.3241840259
 21
12.6741840259
  0
LINE
  5
487
100
AcDbEntity
  8
RACCORDO
100
AcDbLine
 62
7
  6
CONTINUOUS
 10
16.3241840259
 20
20.3774479222
 11
16.3241840259
 21
21.5261205837
  0
LINE
  5
488
100
AcDbEntity
  8
RACCORDO
100
AcDbLine
 62
7
  6
CONTINUOUS
 10
16.4219323895
 20
-0.8850870308
 11
16.4219323895
 21
7.9367189789
  0
LINE
  5
489
100
AcDbEntity
  8
RACCORDO
100
AcDbLine
 62
250
  6
CONTINUOUS
 10
16.4691219914
 20
8.4293561328
 11
16.4691219914
 21
-1.3777241847
  0
LINE
  5
48A
100
AcDbEntity
  8
RACCORDO
100
AcDbLine
 62
250
  6
CONTINUOUS
 10
16.6690915305
 20
8.4293561328
 11
16.6690915305
 21
-1.3777241847
  0
LINE
  5
48B
100
AcDbEntity
  8
RACCORDO
100
AcDbLine
 62
250
  6
CONTINUOUS
 10
16.6210703207
 20
-4.3772672702
 11
16.524153565
 21
-4.4741840259
  0
LINE
  5
48C
100
AcDbEntity
  8
0
100
AcDbLine
 62
7
  6
CONTINUOUS
 10
-19.4208425886
 20
12.2307753986
 11
-19.6758159741
 21
12.1925293907
  0
LINE
  5
48D
100
AcDbEntity
  8
0
100
AcDbLine
 62
7
  6
CONTINUOUS
 10
-16.9603494186
 20
13.2124229327
 11
-16.7053760331
 21
13.2379202712
  0
LINE
  5
48E
100
AcDbEntity
  8
RACCORDO
100
AcDbLine
 62
250
  6
CONTINUOUS
 10
25.1582085927
 20
14.6914867976
 11
24.6582847451
 21
14.6914867976
  0
LINE
  5
48F
100
AcDbEntity
  8
0
100
AcDbLine
 62
7
  6
CONTINUOUS
 10
-18.8670723764
 20
14.7118625727
 11
-18.5652873402
 21
14.7118625727
  0
LINE
  5
490
100
AcDbEntity
  8
0
100
AcDbLine
 62
7
  6
CONTINUOUS
 10
-17.4908136977
 20
14.7118625727
 11
-17.2103429737
 21
14.7118625727
  0
LINE
  5
491
100
AcDbEntity
  8
0
100
AcDbLine
 62
7
  6
CONTINUOUS
 10
-16.9454095384
 20
14.7118625727
 11
-16.6494015256
 21
14.7118625727
  0
LINE
  5
492
100
AcDbEntity
  8
0
100
AcDbLine
 62
7
  6
CONTINUOUS
 10
-15.2980425826
 20
14.7118625727
 11
-14.9998431643
 21
14.7118625727
  0
LINE
  5
493
100
AcDbEntity
  8
0
100
AcDbLine
 62
7
  6
CONTINUOUS
 10
-14.7753471423
 20
14.7118625727
 11
-13.4494855378
 21
14.7118625727
  0
LINE
  5
494
100
AcDbEntity
  8
0
100
AcDbLine
 62
7
  6
CONTINUOUS
 10
-13.1180201366
 20
14.7118625727
 11
-11.5626824852
 21
14.7118625727
  0
LINE
  5
495
100
AcDbEntity
  8
0
100
AcDbLine
 62
7
  6
CONTINUOUS
 10
-9.7517738452
 20
14.7118625727
 11
-9.449988809
 21
14.7118625727
  0
LINE
  5
496
100
AcDbEntity
  8
0
100
AcDbLine
 62
7
  6
CONTINUOUS
 10
-8.3755151666
 20
14.7118625727
 11
-8.0950444425
 21
14.7118625727
  0
LINE
  5
497
100
AcDbEntity
  8
0
100
AcDbLine
 62
7
  6
CONTINUOUS
 10
-5.468818572
 20
14.7118625727
 11
-3.9134809205
 21
14.7118625727
  0
LINE
  5
498
100
AcDbEntity
  8
0
100
AcDbLine
 62
7
  6
CONTINUOUS
 10
-3.518272173
 20
14.7118625727
 11
-3.237801449
 21
14.7118625727
  0
LINE
  5
499
100
AcDbEntity
  8
0
100
AcDbLine
 62
7
  6
CONTINUOUS
 10
-2.1846417296
 20
14.7118625727
 11
-1.8864425059
 21
14.7118625727
  0
LINE
  5
49A
100
AcDbEntity
  8
0
100
AcDbLine
 62
7
  6
CONTINUOUS
 10
-1.5932231126
 20
14.7118625727
 11
0.0768525623
 21
14.7118625727
  0
LINE
  5
49B
100
AcDbEntity
  8
0
100
AcDbLine
 62
7
  6
CONTINUOUS
 10
0.1378072893
 20
14.7118625727
 11
0.433815302
 21
14.7118625727
  0
LINE
  5
49C
100
AcDbEntity
  8
0
100
AcDbLine
 62
7
  6
CONTINUOUS
 10
1.7851742451
 20
14.7118625727
 11
2.0833736633
 21
14.7118625727
  0
LINE
  5
49D
100
AcDbEntity
  8
0
100
AcDbLine
 62
7
  6
CONTINUOUS
 10
3.7484693133
 20
14.7118625727
 11
4.0034426988
 21
14.7118625727
  0
LINE
  5
49E
100
AcDbEntity
  8
0
100
AcDbLine
 62
7
  6
CONTINUOUS
 10
5.5077856732
 20
14.7118625727
 11
5.7627590587
 21
14.7118625727
  0
LINE
  5
49F
100
AcDbEntity
  8
0
100
AcDbLine
 62
7
  6
CONTINUOUS
 10
0.0768525623
 20
14.9540872889
 11
-1.2755021912
 21
14.9540872889
  0
LINE
  5
4A0
100
AcDbEntity
  8
0
100
AcDbLine
 62
7
  6
CONTINUOUS
 10
-3.9134809205
 20
14.9540872889
 11
-5.188347848
 21
14.9540872889
  0
LINE
  5
4A1
100
AcDbEntity
  8
0
100
AcDbLine
 62
7
  6
CONTINUOUS
 10
-11.5626824852
 20
14.9540872889
 11
-12.8375494126
 21
14.9540872889
  0
LINE
  5
4A2
100
AcDbEntity
  8
0
100
AcDbLine
 62
7
  6
CONTINUOUS
 10
-13.4494855378
 20
14.9540872889
 11
-14.4948764183
 21
14.9540872889
  0
LINE
  5
4A3
100
AcDbEntity
  8
0
100
AcDbLine
 62
7
  6
CONTINUOUS
 10
4.5771328162
 20
15.2090606744
 11
5.5077856732
 21
15.2090606744
  0
LINE
  5
4A4
100
AcDbEntity
  8
0
100
AcDbLine
 62
7
  6
CONTINUOUS
 10
5.7627590587
 20
15.2090606744
 11
6.0432297827
 21
15.2090606744
  0
LINE
  5
4A5
100
AcDbEntity
  8
0
100
AcDbLine
 62
7
  6
CONTINUOUS
 10
-16.4276941231
 20
15.3492960364
 11
-15.5326976609
 21
15.3492960364
  0
LINE
  5
4A6
100
AcDbEntity
  8
0
100
AcDbLine
 62
7
  6
CONTINUOUS
 10
0.6555227046
 20
15.3492960364
 11
1.5505191668
 21
15.3492960364
  0
LINE
  5
4A7
100
AcDbEntity
  8
0
100
AcDbLine
 62
7
  6
CONTINUOUS
 10
6.0432297827
 20
15.4512853906
 11
5.7627590587
 21
15.4512853906
  0
LINE
  5
4A8
100
AcDbEntity
  8
0
100
AcDbLine
 62
7
  6
CONTINUOUS
 10
5.5077856732
 20
15.4512853906
 11
4.8325046037
 21
15.4512853906
  0
LINE
  5
4A9
100
AcDbEntity
  8
0
100
AcDbLine
 62
7
  6
CONTINUOUS
 10
1.4658601048
 20
15.5787720834
 11
0.7354011372
 21
15.5787720834
  0
LINE
  5
4AA
100
AcDbEntity
  8
0
100
AcDbLine
 62
7
  6
CONTINUOUS
 10
-15.6173567229
 20
15.5787720834
 11
-16.3478156905
 21
15.5787720834
  0
LINE
  5
4AB
100
AcDbEntity
  8
0
100
AcDbLine
 62
7
  6
CONTINUOUS
 10
-12.8375494126
 20
15.6807614376
 11
-11.6901691779
 21
15.6807614376
  0
LINE
  5
4AC
100
AcDbEntity
  8
0
100
AcDbLine
 62
7
  6
CONTINUOUS
 10
-5.188347848
 20
15.6807614376
 11
-4.0409676133
 21
15.6807614376
  0
LINE
  5
4AD
100
AcDbEntity
  8
0
100
AcDbLine
 62
7
  6
CONTINUOUS
 10
-4.0409676133
 20
15.9229861538
 11
-5.188347848
 21
15.9229861538
  0
LINE
  5
4AE
100
AcDbEntity
  8
0
100
AcDbLine
 62
7
  6
CONTINUOUS
 10
-11.6901691779
 20
15.9229861538
 11
-12.8375494126
 21
15.9229861538
  0
LINE
  5
4AF
100
AcDbEntity
  8
0
100
AcDbLine
 62
7
  6
CONTINUOUS
 10
-12.8375494126
 20
16.5731682868
 11
-11.6136771623
 21
16.5731682868
  0
LINE
  5
4B0
100
AcDbEntity
  8
0
100
AcDbLine
 62
7
  6
CONTINUOUS
 10
-5.188347848
 20
16.5731682868
 11
-3.9644755976
 21
16.5731682868
  0
LINE
  5
4B1
100
AcDbEntity
  8
0
100
AcDbLine
 62
7
  6
CONTINUOUS
 10
-1.4657364199
 20
16.5731682868
 11
-0.300029888
 21
16.5731682868
  0
LINE
  5
4B2
100
AcDbEntity
  8
0
100
AcDbLine
 62
7
  6
CONTINUOUS
 10
5.7627590587
 20
16.815393003
 11
5.5587803503
 21
16.815393003
  0
LINE
  5
4B3
100
AcDbEntity
  8
0
100
AcDbLine
 62
7
  6
CONTINUOUS
 10
1.2407662852
 20
16.815393003
 11
0.9373878356
 21
16.815393003
  0
LINE
  5
4B4
100
AcDbEntity
  8
0
100
AcDbLine
 62
7
  6
CONTINUOUS
 10
0.0258578852
 20
16.815393003
 11
-1.4657364199
 21
16.815393003
  0
LINE
  5
4B5
100
AcDbEntity
  8
0
100
AcDbLine
 62
7
  6
CONTINUOUS
 10
-1.8864425059
 20
16.815393003
 11
-2.16691323
 21
16.815393003
  0
LINE
  5
4B6
100
AcDbEntity
  8
0
100
AcDbLine
 62
7
  6
CONTINUOUS
 10
-3.2200727548
 20
16.815393003
 11
-3.518272173
 21
16.815393003
  0
LINE
  5
4B7
100
AcDbEntity
  8
0
100
AcDbLine
 62
7
  6
CONTINUOUS
 10
-3.9644755976
 20
16.815393003
 11
-5.468818572
 21
16.815393003
  0
LINE
  5
4B8
100
AcDbEntity
  8
0
100
AcDbLine
 62
7
  6
CONTINUOUS
 10
-8.0950444425
 20
16.815393003
 11
-8.3755151666
 21
16.815393003
  0
LINE
  5
4B9
100
AcDbEntity
  8
0
100
AcDbLine
 62
7
  6
CONTINUOUS
 10
-8.6109670489
 20
16.815393003
 11
-8.9109592761
 21
16.815393003
  0
LINE
  5
4BA
100
AcDbEntity
  8
0
100
AcDbLine
 62
7
  6
CONTINUOUS
 10
-10.2623182192
 20
16.815393003
 11
-10.5605174429
 21
16.815393003
  0
LINE
  5
4BB
100
AcDbEntity
  8
0
100
AcDbLine
 62
7
  6
CONTINUOUS
 10
-11.6136771623
 20
16.815393003
 11
-13.1180201366
 21
16.815393003
  0
LINE
  5
4BC
100
AcDbEntity
  8
0
100
AcDbLine
 62
7
  6
CONTINUOUS
 10
-14.4948764183
 20
16.815393003
 11
-14.7753471423
 21
16.815393003
  0
LINE
  5
4BD
100
AcDbEntity
  8
0
100
AcDbLine
 62
7
  6
CONTINUOUS
 10
-15.8424505424
 20
16.815393003
 11
-16.145828992
 21
16.815393003
  0
LINE
  5
4BE
100
AcDbEntity
  8
0
100
AcDbLine
 62
7
  6
CONTINUOUS
 10
-17.2103429737
 20
16.815393003
 11
-17.4908136977
 21
16.815393003
  0
LINE
  5
4BF
100
AcDbEntity
  8
0
100
AcDbLine
 62
7
  6
CONTINUOUS
 10
-17.7262655801
 20
16.815393003
 11
-18.0262578073
 21
16.815393003
  0
LINE
  5
4C0
100
AcDbEntity
  8
0
100
AcDbLine
 62
7
  6
CONTINUOUS
 10
-19.3776167504
 20
16.815393003
 11
-19.6758159741
 21
16.815393003
  0
LINE
  5
4C1
100
AcDbEntity
  8
0
100
AcDbLine
 62
7
  6
CONTINUOUS
 10
4.0034426988
 20
16.8281416723
 11
3.8391044052
 21
16.8281416723
  0
LINE
  5
4C2
100
AcDbEntity
  8
RACCORDO
100
AcDbLine
 62
7
  6
CONTINUOUS
 10
14.6843911901
 20
6.0818244983
 11
14.7403997143
 21
6.0258159741
  0
LINE
  5
4C3
100
AcDbEntity
  8
RACCORDO
100
AcDbLine
 62
250
  6
CONTINUOUS
 10
17.4792765214
 20
-1.3777241847
 11
17.4792765214
 21
8.4293561328
  0
LINE
  5
4C4
100
AcDbEntity
  8
RACCORDO
100
AcDbLine
 62
250
  6
CONTINUOUS
 10
17.6792460605
 20
-1.3777241847
 11
17.6792460605
 21
8.4293561328
  0
LINE
  5
4C5
100
AcDbEntity
  8
RACCORDO
100
AcDbLine
 62
7
  6
CONTINUOUS
 10
17.7264356623
 20
-0.8850870308
 11
17.7264356623
 21
7.9367189789
  0
LINE
  5
4C6
100
AcDbEntity
  8
RACCORDO
100
AcDbLine
 62
7
  6
CONTINUOUS
 10
17.8241840259
 20
11.325846435
 11
17.8241840259
 21
8.5258159741
  0
LINE
  5
4C7
100
AcDbEntity
  8
RACCORDO
100
AcDbLine
 62
7
  6
CONTINUOUS
 10
17.8241840259
 20
-1.4741840259
 11
17.8241840259
 21
-4.2742144869
  0
LINE
  5
4C8
100
AcDbEntity
  8
0
100
AcDbLine
 62
7
  6
CONTINUOUS
 10
-6.1572467128
 20
16.1731789099
 11
-5.8767759888
 21
16.2377190602
  0
LINE
  5
4C9
100
AcDbEntity
  8
0
100
AcDbLine
 62
7
  6
CONTINUOUS
 10
-9.2041786694
 20
18.4933140129
 11
-9.4719007242
 21
18.4805653436
  0
LINE
  5
4CA
100
AcDbEntity
  8
0
100
AcDbLine
 62
7
  6
CONTINUOUS
 10
-18.8670723764
 20
17.7921372028
 11
-18.5652873402
 21
17.7921372028
  0
LINE
  5
4CB
100
AcDbEntity
  8
0
100
AcDbLine
 62
7
  6
CONTINUOUS
 10
-17.4908136977
 20
17.7921372028
 11
-17.2103429737
 21
17.7921372028
  0
LINE
  5
4CC
100
AcDbEntity
  8
0
100
AcDbLine
 62
7
  6
CONTINUOUS
 10
-16.7386422106
 20
17.7921372028
 11
-16.4581714865
 21
17.7921372028
  0
LINE
  5
4CD
100
AcDbEntity
  8
0
100
AcDbLine
 62
7
  6
CONTINUOUS
 10
-15.8516135937
 20
17.7921372028
 11
-15.6129744955
 21
17.7921372028
  0
LINE
  5
4CE
100
AcDbEntity
  8
0
100
AcDbLine
 62
7
  6
CONTINUOUS
 10
-14.99207452
 20
17.7921372028
 11
-14.7116037959
 21
17.7921372028
  0
LINE
  5
4CF
100
AcDbEntity
  8
0
100
AcDbLine
 62
7
  6
CONTINUOUS
 10
-14.4976650377
 20
17.7921372028
 11
-14.201657025
 21
17.7921372028
  0
LINE
  5
4D0
100
AcDbEntity
  8
0
100
AcDbLine
 62
7
  6
CONTINUOUS
 10
-12.8502980819
 20
17.7921372028
 11
-12.5520986636
 21
17.7921372028
  0
LINE
  5
4D1
100
AcDbEntity
  8
0
100
AcDbLine
 62
7
  6
CONTINUOUS
 10
-12.3021053031
 20
17.7921372028
 11
-12.021634579
 21
17.7921372028
  0
LINE
  5
4D2
100
AcDbEntity
  8
0
100
AcDbLine
 62
7
  6
CONTINUOUS
 10
-10.808120586
 20
17.7921372028
 11
-10.4786471949
 21
17.7921372028
  0
LINE
  5
4D3
100
AcDbEntity
  8
0
100
AcDbLine
 62
7
  6
CONTINUOUS
 10
-7.419364971
 20
17.7921372028
 11
-7.138894247
 21
17.7921372028
  0
LINE
  5
4D4
100
AcDbEntity
  8
0
100
AcDbLine
 62
7
  6
CONTINUOUS
 10
-5.7138319077
 20
17.7921372028
 11
-5.4178238949
 21
17.7921372028
  0
LINE
  5
4D5
100
AcDbEntity
  8
0
100
AcDbLine
 62
7
  6
CONTINUOUS
 10
-4.0664649518
 20
17.7921372028
 11
-3.7682655336
 21
17.7921372028
  0
LINE
  5
4D6
100
AcDbEntity
  8
RACCORDO
100
AcDbLine
 62
250
  6
CONTINUOUS
 10
25.1582085927
 20
18.3601451505
 11
24.6582847451
 21
18.3601451505
  0
LINE
  5
4D7
100
AcDbEntity
  8
0
100
AcDbLine
 62
7
  6
CONTINUOUS
 10
-13.9799496224
 20
18.4295706665
 11
-13.0849531602
 21
18.4295706665
  0
LINE
  5
4D8
100
AcDbEntity
  8
0
100
AcDbLine
 62
7
  6
CONTINUOUS
 10
-5.1961164923
 20
18.4295706665
 11
-4.3011200302
 21
18.4295706665
  0
LINE
  5
4D9
100
AcDbEntity
  8
0
100
AcDbLine
 62
7
  6
CONTINUOUS
 10
-4.3857790922
 20
18.6590467134
 11
-5.1162380597
 21
18.6590467134
  0
LINE
  5
4DA
100
AcDbEntity
  8
0
100
AcDbLine
 62
7
  6
CONTINUOUS
 10
-13.1696122222
 20
18.6590467134
 11
-13.9000711898
 21
18.6590467134
  0
LINE
  5
4DB
100
AcDbEntity
  8
0
100
AcDbLine
 62
7
  6
CONTINUOUS
 10
-7.138894247
 20
18.6590467134
 11
-6.6154020027
 21
18.6590467134
  0
LINE
  5
4DC
100
AcDbEntity
  8
0
100
AcDbLine
 62
7
  6
CONTINUOUS
 10
-12.021634579
 20
18.7227900598
 11
-11.7019218422
 21
18.7227900598
  0
LINE
  5
4DD
100
AcDbEntity
  8
0
100
AcDbLine
 62
7
  6
CONTINUOUS
 10
-6.6124139878
 20
18.9012714297
 11
-7.138894247
 21
18.9012714297
  0
LINE
  5
4DE
100
AcDbEntity
  8
0
100
AcDbLine
 62
7
  6
CONTINUOUS
 10
-11.4292197625
 20
18.965014776
 11
-12.021634579
 21
18.965014776
  0
LINE
  5
4DF
100
AcDbEntity
  8
RACCORDO
100
AcDbLine
 62
7
  6
CONTINUOUS
 10
16.4133571735
 20
8.4366428265
 11
16.3241840259
 21
8.5258159741
  0
LINE
  5
4E0
100
AcDbEntity
  8
0
100
AcDbLine
 62
7
  6
CONTINUOUS
 10
-8.1460391196
 20
19.2964801772
 11
-7.8655683956
 21
19.3092288464
  0
LINE
  5
4E1
100
AcDbEntity
  8
0
100
AcDbLine
 62
7
  6
CONTINUOUS
 10
-12.021634579
 20
19.6534429168
 11
-11.3622892002
 21
19.6534429168
  0
LINE
  5
4E2
100
AcDbEntity
  8
0
100
AcDbLine
 62
7
  6
CONTINUOUS
 10
-7.138894247
 20
19.6534429168
 11
-6.6179914212
 21
19.6534429168
  0
LINE
  5
4E3
100
AcDbEntity
  8
RACCORDO
100
AcDbLine
 62
250
  6
CONTINUOUS
 10
14.675587482
 20
19.8599166932
 11
23.1585132024
 21
19.8599166932
  0
LINE
  5
4E4
100
AcDbEntity
  8
0
100
AcDbLine
 62
7
  6
CONTINUOUS
 10
-4.6108729117
 20
19.8956676331
 11
-4.9142513613
 21
19.8956676331
  0
LINE
  5
4E5
100
AcDbEntity
  8
0
100
AcDbLine
 62
7
  6
CONTINUOUS
 10
-6.6444847647
 20
19.8956676331
 11
-7.419364971
 21
19.8956676331
  0
LINE
  5
4E6
100
AcDbEntity
  8
0
100
AcDbLine
 62
7
  6
CONTINUOUS
 10
-11.3736434625
 20
19.8956676331
 11
-12.3021053031
 21
19.8956676331
  0
LINE
  5
4E7
100
AcDbEntity
  8
0
100
AcDbLine
 62
7
  6
CONTINUOUS
 10
-13.3947060417
 20
19.8956676331
 11
-13.6980844914
 21
19.8956676331
  0
LINE
  5
4E8
100
AcDbEntity
  8
0
100
AcDbLine
 62
7
  6
CONTINUOUS
 10
-14.7116037959
 20
19.8956676331
 11
-15.076534381
 21
19.8956676331
  0
LINE
  5
4E9
100
AcDbEntity
  8
0
100
AcDbLine
 62
7
  6
CONTINUOUS
 10
-16.3111632906
 20
19.8956676331
 11
-16.7386422106
 21
19.8956676331
  0
LINE
  5
4EA
100
AcDbEntity
  8
0
100
AcDbLine
 62
7
  6
CONTINUOUS
 10
-17.2103429737
 20
19.8956676331
 11
-17.4908136977
 21
19.8956676331
  0
LINE
  5
4EB
100
AcDbEntity
  8
0
100
AcDbLine
 62
7
  6
CONTINUOUS
 10
-17.7262655801
 20
19.8956676331
 11
-18.0262578073
 21
19.8956676331
  0
LINE
  5
4EC
100
AcDbEntity
  8
0
100
AcDbLine
 62
7
  6
CONTINUOUS
 10
-19.3776167504
 20
19.8956676331
 11
-19.6758159741
 21
19.8956676331
  0
LINE
  5
4ED
100
AcDbEntity
  8
RACCORDO
100
AcDbLine
 62
250
  6
CONTINUOUS
 10
15.7857547878
 20
20.3598405408
 11
23.1583707393
 21
20.3598405408
  0
LINE
  5
4EE
100
AcDbEntity
  8
RACCORDO
100
AcDbLine
 62
7
  6
CONTINUOUS
 10
16.1758159741
 20
20.3774479222
 11
23.1761205837
 21
20.3774479222
  0
LINE
  5
4EF
100
AcDbEntity
  8
RACCORDO
100
AcDbLine
 62
7
  6
CONTINUOUS
 10
13.5817801494
 20
21.2758159741
 11
-20.9334120975
 21
21.2758159741
  0
LINE
  5
4F0
100
AcDbEntity
  8
RACCORDO
100
AcDbLine
 62
7
  6
CONTINUOUS
 10
13.6170455456
 20
21.3110813702
 11
-20.9686774937
 21
21.3110813702
  0
LINE
  5
4F1
100
AcDbEntity
  8
RACCORDO
100
AcDbLine
 62
250
  6
CONTINUOUS
 10
-22.0272194301
 20
21.3772955825
 11
-23.5269909728
 21
21.3772955825
  0
LINE
  5
4F2
100
AcDbEntity
  8
RACCORDO
100
AcDbLine
 62
250
  6
CONTINUOUS
 10
14.675587482
 20
21.3772955825
 11
16.1753590247
 21
21.3772955817
  0
LINE
  5
4F3
100
AcDbEntity
  8
RACCORDO
100
AcDbLine
 62
250
  6
CONTINUOUS
 10
16.3241840259
 20
11.325846435
 11
16.4211007817
 21
11.2289296793
  0
LINE
  5
4F4
100
AcDbEntity
  8
RACCORDO
100
AcDbLine
 62
250
  6
CONTINUOUS
 10
16.524153565
 20
11.5258159741
 11
16.6210699634
 21
11.4288995756
  0
LINE
  5
4F5
100
AcDbEntity
  8
DRAFT
100
AcDbLine
 62
7
  6
CONTINUOUS
 10
16.3241840259
 20
12.5258159741
 11
16.1758159741
 21
12.6741840259
  0
LINE
  5
4F6
100
AcDbEntity
  8
RACCORDO
100
AcDbLine
 62
7
  6
CONTINUOUS
 10
16.1753590247
 20
12.6746409753
 11
16.1758159741
 21
12.6741840259
  0
LINE
  5
4F7
100
AcDbEntity
  8
RACCORDO
100
AcDbLine
 62
250
  6
CONTINUOUS
 10
23.1585132024
 20
20.3598405408
 11
23.1585132024
 21
19.8599166932
  0
LINE
  5
4F8
100
AcDbEntity
  8
RACCORDO
100
AcDbLine
 62
250
  6
CONTINUOUS
 10
23.1585132024
 20
12.6917914073
 11
23.1585132024
 21
13.1917152549
  0
LINE
  5
4F9
100
AcDbEntity
  8
RACCORDO
100
AcDbLine
 62
250
  6
CONTINUOUS
 10
14.1756636344
 20
21.8772194301
 11
-17.8522418186
 21
21.8772337359
  0
LINE
  5
4FA
100
AcDbEntity
  8
RACCORDO
100
AcDbLine
 62
250
  6
CONTINUOUS
 10
-18.4993891155
 20
21.8772228368
 11
-21.5272955825
 21
21.8772194301
  0
LINE
  5
4FB
100
AcDbEntity
  8
RACCORDO
100
AcDbLine
 62
250
  6
CONTINUOUS
 10
14.1756636344
 20
23.3769909728
 11
-16.837231036
 21
23.3769909728
  0
LINE
  5
4FC
100
AcDbEntity
  8
RACCORDO
100
AcDbLine
 62
250
  6
CONTINUOUS
 10
-19.5144009121
 20
23.3769909728
 11
-21.5271665839
 21
23.3769909728
  0
LINE
  5
4FD
100
AcDbEntity
  8
0
100
AcDbLine
 62
7
  6
CONTINUOUS
 10
-6.100443376
 20
23.4385406494
 11
-16.730623869
 21
23.4385406494
  0
LINE
  5
4FE
100
AcDbEntity
  8
0
100
AcDbLine
 62
7
  6
CONTINUOUS
 10
-19.6210080791
 20
23.4385406494
 11
-20.4511885721
 21
23.4385406494
  0
LINE
  5
4FF
100
AcDbEntity
  8
RACCORDO
100
AcDbLine
 62
7
  6
CONTINUOUS
 10
13.5578243136
 20
23.4559957143
 11
-5.7758159741
 21
23.4559957143
  0
LINE
  5
500
100
AcDbEntity
  8
RACCORDO
100
AcDbLine
 62
7
  6
CONTINUOUS
 10
-20.7758159741
 20
23.4559957143
 11
-20.9094562617
 21
23.4559957143
  0
LINE
  5
501
100
AcDbEntity
  8
RACCORDO
100
AcDbLine
 62
7
  6
CONTINUOUS
 10
14.3244886356
 20
23.5258159741
 11
13.8241840259
 21
23.5258159741
  0
LINE
  5
502
100
AcDbEntity
  8
RACCORDO
100
AcDbLine
 62
7
  6
CONTINUOUS
 10
-21.1758159741
 20
23.5258159741
 11
-21.6761205837
 21
23.5258159741
  0
LINE
  5
503
100
AcDbEntity
  8
DRAFT
100
AcDbLine
 62
7
  6
CONTINUOUS
 10
-21.1758159741
 20
23.5258159741
 11
-20.7758159741
 21
23.5258159741
  0
LINE
  5
504
100
AcDbEntity
  8
DRAFT
100
AcDbLine
 62
7
  6
CONTINUOUS
 10
-5.7758159741
 20
23.5258159741
 11
13.8241840259
 21
23.5258159741
  0
LINE
  5
505
100
AcDbEntity
  8
RACCORDO
100
AcDbLine
 62
250
  6
CONTINUOUS
 10
24.6582847451
 20
18.3601451505
 11
24.6582847451
 21
14.6914867976
  0
LINE
  5
506
100
AcDbEntity
  8
RACCORDO
100
AcDbLine
 62
250
  6
CONTINUOUS
 10
25.1582085927
 20
18.360003688
 11
25.1582085927
 21
14.6916292607
  0
LINE
  5
507
100
AcDbEntity
  8
RACCORDO
100
AcDbLine
 62
7
  6
CONTINUOUS
 10
25.1758159741
 20
18.3777525319
 11
25.1758159741
 21
14.6738794163
  0
LINE
  5
508
100
AcDbEntity
  8
RACCORDO
100
AcDbLine
 62
250
  6
CONTINUOUS
 10
-16.8468750483
 20
24.4047258721
 11
-19.5047568999
 21
24.4047258721
  0
LINE
  5
509
100
AcDbEntity
  8
RACCORDO
100
AcDbLine
 62
250
  6
CONTINUOUS
 10
-16.8468750483
 20
24.6046954112
 11
-19.5047568999
 21
24.6046954112
  0
LINE
  5
50A
100
AcDbEntity
  8
RACCORDO
100
AcDbLine
 62
7
  6
CONTINUOUS
 10
-16.7016508357
 20
24.6885406494
 11
-19.6499811124
 21
24.6885406494
  0
LINE
  5
50B
100
AcDbEntity
  8
0
100
AcDbLine
 62
250
  6
CONTINUOUS
 10
-5.8006261279
 20
24.8013104067
 11
-6.100443376
 21
24.8013104067
  0
LINE
  5
50C
100
AcDbEntity
  8
0
100
AcDbLine
 62
250
  6
CONTINUOUS
 10
-20.7510058202
 20
24.8013104067
 11
-20.4511885721
 21
24.8013104067
  0
LINE
  5
50D
100
AcDbEntity
  8
0
100
AcDbLine
 62
250
  6
CONTINUOUS
 10
-20.2513104067
 20
25.0011885721
 11
-6.3003215414
 21
25.0011885721
  0
LINE
  5
50E
100
AcDbEntity
  8
0
100
AcDbLine
 62
250
  6
CONTINUOUS
 10
-20.2513104067
 20
25.3010058202
 11
-6.3003215414
 21
25.3010058202
  0
LINE
  5
50F
100
AcDbEntity
  8
0
100
AcDbLine
 62
7
  6
CONTINUOUS
 10
-20.2761205605
 20
25.3258159741
 11
-6.2755113876
 21
25.3258159741
  0
LINE
  5
510
100
AcDbEntity
  8
RACCORDO
100
AcDbLine
 62
250
  6
CONTINUOUS
 10
23.1583717399
 20
12.6917914073
 11
23.1761205837
 21
12.6741840259
  0
LINE
  5
511
100
AcDbEntity
  8
RACCORDO
100
AcDbLine
 62
250
  6
CONTINUOUS
 10
25.1582085927
 20
14.6916292607
 11
25.1758159741
 21
14.6738794163
  0
ARC
  5
512
100
AcDbEntity
  8
RACCORDO
100
AcDbCircle
 62
250
  6
CONTINUOUS
 10
-21.5267781395
 20
-14.3251461943
 40
2.0002153773
100
AcDbArc
 50
180.0111277186
 51
269.9851779266
  0
ARC
  5
513
100
AcDbEntity
  8
RACCORDO
100
AcDbCircle
 62
250
  6
CONTINUOUS
 10
-1.8415784992
 20
-23.3084215008
 40
1.9997845929
100
AcDbArc
 50
269.9985747107
 51
0.0014539531
  0
ARC
  5
514
100
AcDbEntity
  8
RACCORDO
100
AcDbCircle
 62
250
  6
CONTINUOUS
 10
-5.5100536312
 20
-23.3084216832
 40
1.9997845929
100
AcDbArc
 50
179.9985694865
 51
270.0014591773
  0
ARC
  5
515
100
AcDbEntity
  8
RACCORDO
100
AcDbCircle
 62
250
  6
CONTINUOUS
 10
-1.8413967929
 20
-23.3086032071
 40
1.499676974
100
AcDbArc
 50
269.9965613417
 51
0.0034386583
  0
ARC
  5
516
100
AcDbEntity
  8
RACCORDO
100
AcDbCircle
 62
250
  6
CONTINUOUS
 10
-5.5102354731
 20
-23.308603525
 40
1.499676974
100
AcDbArc
 50
179.9965491956
 51
270.0034508044
  0
CIRCLE
  5
517
100
AcDbEntity
  8
DRAFT
100
AcDbCircle
 62
7
  6
CONTINUOUS
 10
-3.6758159741
 20
-20.9741840259
 40
1.4738174026
  0
ARC
  5
518
100
AcDbEntity
  8
0
100
AcDbCircle
 62
7
  6
CONTINUOUS
 10
-12.4902349741
 20
-0.1434790259
 40
0.6915890268
100
AcDbArc
 50
183.2757980106
 51
78.4375684829
  0
ARC
  5
519
100
AcDbEntity
  8
0
100
AcDbCircle
 62
7
  6
CONTINUOUS
 10
-12.4902349741
 20
-0.1434790259
 40
0.6915887102
100
AcDbArc
 50
84.9999939882
 51
176.7242004738
  0
ARC
  5
51A
100
AcDbEntity
  8
RACCORDO
100
AcDbCircle
 62
250
  6
CONTINUOUS
 10
-21.5273258312
 20
-14.3256938831
 40
0.4998924427
100
AcDbArc
 50
179.9965330202
 51
270.0034669799
  0
CIRCLE
  5
51B
100
AcDbEntity
  8
0
100
AcDbCircle
 62
7
  6
CONTINUOUS
 10
-12.4902349741
 20
-0.1434790259
 40
0.395194
  0
CIRCLE
  5
51C
100
AcDbEntity
  8
0
100
AcDbCircle
 62
7
  6
CONTINUOUS
 10
-12.4902349741
 20
-0.1434790259
 40
0.237116
  0
ARC
  5
51D
100
AcDbEntity
  8
RACCORDO
100
AcDbCircle
 62
250
  6
CONTINUOUS
 10
-19.514578883
 20
-16.5254313153
 40
0.2000761854
100
AcDbArc
 50
330.0509665936
 51
89.9490335221
  0
ARC
  5
51E
100
AcDbEntity
  8
RACCORDO
100
AcDbCircle
 62
250
  6
CONTINUOUS
 10
-16.8370530746
 20
-16.5254313098
 40
0.2000761798
100
AcDbArc
 50
90.0509637649
 51
209.949036235
  0
ARC
  5
51F
100
AcDbEntity
  8
RACCORDO
100
AcDbCircle
 62
250
  6
CONTINUOUS
 10
-19.504600983
 20
-17.3530039054
 40
0.2000609894
100
AcDbArc
 50
150.0446535784
 51
269.9553464197
  0
ARC
  5
520
100
AcDbEntity
  8
RACCORDO
100
AcDbCircle
 62
250
  6
CONTINUOUS
 10
-16.8470288527
 20
-17.3530051683
 40
0.2000590524
100
AcDbArc
 50
270.0440488712
 51
29.9559618831
  0
ARC
  5
521
100
AcDbEntity
  8
RACCORDO
100
AcDbCircle
 62
250
  6
CONTINUOUS
 10
-23.9727754424
 20
-4.1772245576
 40
0.2000430909
100
AcDbArc
 50
270.0209581928
 51
359.9790418072
  0
ARC
  5
522
100
AcDbEntity
  8
RACCORDO
100
AcDbCircle
 62
250
  6
CONTINUOUS
 10
-24.8788565057
 20
-4.1772245576
 40
0.2000430909
100
AcDbArc
 50
180.0209581914
 51
269.9790418085
  0
ARC
  5
523
100
AcDbEntity
  8
RACCORDO
100
AcDbCircle
 62
7
  6
CONTINUOUS
 10
-24.9758586326
 20
-4.2742266845
 40
0.1999569277
100
AcDbArc
 50
179.9965049109
 51
270.0034950891
  0
ARC
  5
524
100
AcDbEntity
  8
0
100
AcDbCircle
 62
7
  6
CONTINUOUS
 10
-5.4279071839
 20
13.7333133153
 40
4.3507740341
100
AcDbArc
 50
159.0191965858
 51
163.7921491218
  0
ARC
  5
525
100
AcDbEntity
  8
0
100
AcDbCircle
 62
7
  6
CONTINUOUS
 10
-14.543205715
 20
13.7333133153
 40
4.3507740341
100
AcDbArc
 50
159.0191965858
 51
163.7921491218
  0
ARC
  5
526
100
AcDbEntity
  8
0
100
AcDbCircle
 62
7
  6
CONTINUOUS
 10
-14.543205715
 20
16.8135879454
 40
4.3507740341
100
AcDbArc
 50
159.0191965858
 51
163.7921491218
  0
ARC
  5
527
100
AcDbEntity
  8
0
100
AcDbCircle
 62
7
  6
CONTINUOUS
 10
-13.8931719741
 20
1.9115269741
 40
4.1495340796
100
AcDbArc
 50
104.6184586192
 51
108.0305267473
  0
ARC
  5
528
100
AcDbEntity
  8
0
100
AcDbCircle
 62
7
  6
CONTINUOUS
 10
-13.8931719741
 20
1.9115269741
 40
4.1495332404
100
AcDbArc
 50
66.1507543039
 51
77.0671170606
  0
ARC
  5
529
100
AcDbEntity
  8
0
100
AcDbCircle
 62
7
  6
CONTINUOUS
 10
-13.8931719741
 20
1.9115269741
 40
4.1495330553
100
AcDbArc
 50
109.1821045055
 51
112.611034837
  0
ARC
  5
52A
100
AcDbEntity
  8
0
100
AcDbCircle
 62
7
  6
CONTINUOUS
 10
-13.8931719741
 20
1.9115269741
 40
4.1495329446
100
AcDbArc
 50
91.9102164208
 51
103.4934080096
  0
ARC
  5
52B
100
AcDbEntity
  8
0
100
AcDbCircle
 62
7
  6
CONTINUOUS
 10
-13.8931719741
 20
1.9115269741
 40
4.1495328232
100
AcDbArc
 50
78.1844560207
 51
90.8185522312
  0
ARC
  5
52C
100
AcDbEntity
  8
0
100
AcDbCircle
 62
7
  6
CONTINUOUS
 10
-13.8931719741
 20
1.9115269741
 40
4.0704948571
100
AcDbArc
 50
109.569598301
 51
111.7987290336
  0
ARC
  5
52D
100
AcDbEntity
  8
0
100
AcDbCircle
 62
7
  6
CONTINUOUS
 10
-13.8931719741
 20
1.9115269741
 40
4.0704947456
100
AcDbArc
 50
91.9473219034
 51
103.7605182759
  0
ARC
  5
52E
100
AcDbEntity
  8
0
100
AcDbCircle
 62
7
  6
CONTINUOUS
 10
-13.8931719741
 20
1.9115269741
 40
4.0704943835
100
AcDbArc
 50
104.9088329205
 51
108.3930483339
  0
ARC
  5
52F
100
AcDbEntity
  8
0
100
AcDbCircle
 62
7
  6
CONTINUOUS
 10
-13.8931719741
 20
1.9115269741
 40
4.0704939714
100
AcDbArc
 50
66.0805439087
 51
76.8115058751
  0
ARC
  5
530
100
AcDbEntity
  8
0
100
AcDbCircle
 62
7
  6
CONTINUOUS
 10
-13.8931719741
 20
1.9115269741
 40
4.0704931171
100
AcDbArc
 50
77.9516168429
 51
90.8344477644
  0
ARC
  5
531
100
AcDbEntity
  8
0
100
AcDbCircle
 62
7
  6
CONTINUOUS
 10
-18.7242624739
 20
10.923233505
 40
2.3864943943
100
AcDbArc
 50
337.4191892411
 51
347.6454766647
  0
ARC
  5
532
100
AcDbEntity
  8
0
100
AcDbCircle
 62
7
  6
CONTINUOUS
 10
-9.7619479741
 20
14.0417541429
 40
2.3864943943
100
AcDbArc
 50
337.4191892411
 51
347.6454766647
  0
ARC
  5
533
100
AcDbEntity
  8
0
100
AcDbCircle
 62
7
  6
CONTINUOUS
 10
-1.2408570684
 20
17.1092801036
 40
2.3864943943
100
AcDbArc
 50
337.4191892411
 51
347.6454766647
  0
ARC
  5
534
100
AcDbEntity
  8
0
100
AcDbCircle
 62
7
  6
CONTINUOUS
 10
-18.324073896
 20
17.1092801036
 40
2.3864943943
100
AcDbArc
 50
337.4191892411
 51
347.6454766647
  0
ARC
  5
535
100
AcDbEntity
  8
0
100
AcDbCircle
 62
7
  6
CONTINUOUS
 10
-7.0924962653
 20
20.1895547337
 40
2.3864943943
100
AcDbArc
 50
337.4191892411
 51
347.6454766647
  0
ARC
  5
536
100
AcDbEntity
  8
0
100
AcDbCircle
 62
7
  6
CONTINUOUS
 10
-15.8763293954
 20
20.1895547337
 40
2.3864943943
100
AcDbArc
 50
337.4191892411
 51
347.6454766647
  0
ARC
  5
537
100
AcDbEntity
  8
RACCORDO
100
AcDbCircle
 62
250
  6
CONTINUOUS
 10
-21.5267779773
 20
21.3767779744
 40
2.0002153773
100
AcDbArc
 50
90.0111324472
 51
179.985173198
  0
ARC
  5
538
100
AcDbEntity
  8
0
100
AcDbCircle
 62
250
  6
CONTINUOUS
 10
-6.3007119672
 20
24.8009199809
 40
0.5000859917
100
AcDbArc
 50
0.0447318117
 51
89.9552681883
  0
ARC
  5
539
100
AcDbEntity
  8
0
100
AcDbCircle
 62
250
  6
CONTINUOUS
 10
-20.2509199809
 20
24.8009199809
 40
0.5000859917
100
AcDbArc
 50
90.0447318117
 51
179.9552681883
  0
ARC
  5
53A
100
AcDbEntity
  8
RACCORDO
100
AcDbCircle
 62
250
  6
CONTINUOUS
 10
-21.5273258312
 20
21.3773258312
 40
0.4998924427
100
AcDbArc
 50
89.9965330202
 51
180.0034669799
  0
ARC
  5
53B
100
AcDbEntity
  8
0
100
AcDbCircle
 62
7
  6
CONTINUOUS
 10
-11.8974449741
 20
5.5473089741
 40
0.3556747846
100
AcDbArc
 50
303.74877499
 51
153.3682349513
  0
ARC
  5
53C
100
AcDbEntity
  8
0
100
AcDbCircle
 62
7
  6
CONTINUOUS
 10
-11.8974449741
 20
5.5473089741
 40
0.3556734017
100
AcDbArc
 50
166.1530524961
 51
192.8398305603
  0
ARC
  5
53D
100
AcDbEntity
  8
RACCORDO
100
AcDbCircle
 62
250
  6
CONTINUOUS
 10
-16.8370530652
 20
23.5770632634
 40
0.2000761852
100
AcDbArc
 50
150.050966577
 51
269.9490335387
  0
ARC
  5
53E
100
AcDbEntity
  8
RACCORDO
100
AcDbCircle
 62
250
  6
CONTINUOUS
 10
-19.5145788738
 20
23.5770632581
 40
0.2000761801
100
AcDbArc
 50
270.0509638597
 51
29.9490361403
  0
ARC
  5
53F
100
AcDbEntity
  8
RACCORDO
100
AcDbCircle
 62
250
  6
CONTINUOUS
 10
-19.504600983
 20
24.4046358535
 40
0.2000609894
100
AcDbArc
 50
90.0446535784
 51
209.9553464197
  0
ARC
  5
540
100
AcDbEntity
  8
RACCORDO
100
AcDbCircle
 62
250
  6
CONTINUOUS
 10
-16.8470283518
 20
24.4046373623
 40
0.2000587454
100
AcDbArc
 50
330.0439054921
 51
89.9560945079
  0
ARC
  5
541
100
AcDbEntity
  8
RACCORDO
100
AcDbCircle
 62
250
  6
CONTINUOUS
 10
-23.9727753932
 20
11.2288565549
 40
0.2000430909
100
AcDbArc
 50
0.0209441259
 51
89.9790558741
  0
ARC
  5
542
100
AcDbEntity
  8
RACCORDO
100
AcDbCircle
 62
250
  6
CONTINUOUS
 10
-24.8788565057
 20
11.2288565057
 40
0.2000430909
100
AcDbArc
 50
90.0209581929
 51
179.9790418071
  0
ARC
  5
543
100
AcDbEntity
  8
RACCORDO
100
AcDbCircle
 62
7
  6
CONTINUOUS
 10
-24.9758586326
 20
11.3258586326
 40
0.1999569277
100
AcDbArc
 50
89.9965049109
 51
180.0034950891
  0
ARC
  5
544
100
AcDbEntity
  8
0
100
AcDbCircle
 62
250
  6
CONTINUOUS
 10
-6.3002835382
 20
24.8013484099
 40
0.1998395282
100
AcDbArc
 50
359.9891041739
 51
90.0108958256
  0
ARC
  5
545
100
AcDbEntity
  8
0
100
AcDbCircle
 62
250
  6
CONTINUOUS
 10
-20.2513484099
 20
24.8013484099
 40
0.1998395282
100
AcDbArc
 50
89.9891041729
 51
180.0108958267
  0
ARC
  5
546
100
AcDbEntity
  8
RACCORDO
100
AcDbCircle
 62
250
  6
CONTINUOUS
 10
14.1751461973
 20
-14.3251461973
 40
2.0002153719
100
AcDbArc
 50
270.0111862474
 51
359.9887389313
  0
ARC
  5
547
100
AcDbEntity
  8
RACCORDO
100
AcDbCircle
 62
250
  6
CONTINUOUS
 10
14.1756940581
 20
-14.3256940581
 40
0.4998923247
100
AcDbArc
 50
269.9965129553
 51
0.0034870446
  0
ARC
  5
548
100
AcDbEntity
  8
RACCORDO
100
AcDbCircle
 62
250
  6
CONTINUOUS
 10
17.5272245576
 20
-4.1772245576
 40
0.2000430909
100
AcDbArc
 50
270.0209581928
 51
359.9790418072
  0
ARC
  5
549
100
AcDbEntity
  8
RACCORDO
100
AcDbCircle
 62
250
  6
CONTINUOUS
 10
16.6211434943
 20
-4.1772245576
 40
0.2000430909
100
AcDbArc
 50
180.0209581929
 51
269.9790418071
  0
ARC
  5
54A
100
AcDbEntity
  8
RACCORDO
100
AcDbCircle
 62
7
  6
CONTINUOUS
 10
17.6242266845
 20
-4.2742266845
 40
0.1999569277
100
AcDbArc
 50
269.9965049109
 51
0.0034950891
  0
ARC
  5
54B
100
AcDbEntity
  8
0
100
AcDbCircle
 62
7
  6
CONTINUOUS
 10
12.5682340012
 20
10.6657873545
 40
4.3507740341
100
AcDbArc
 50
159.0191965858
 51
163.7921491218
  0
ARC
  5
54C
100
AcDbEntity
  8
0
100
AcDbCircle
 62
7
  6
CONTINUOUS
 10
3.2544433551
 20
14.0417541429
 40
2.3864943943
100
AcDbArc
 50
337.4191892411
 51
347.6454766647
  0
ARC
  5
54D
100
AcDbEntity
  8
RACCORDO
100
AcDbCircle
 62
250
  6
CONTINUOUS
 10
14.1751460263
 20
21.3767779773
 40
2.0002153773
100
AcDbArc
 50
0.0111324472
 51
89.985173198
  0
ARC
  5
54E
100
AcDbEntity
  8
RACCORDO
100
AcDbCircle
 62
250
  6
CONTINUOUS
 10
23.1584215008
 20
14.6915784992
 40
1.9997845929
100
AcDbArc
 50
269.9985747107
 51
0.0014539531
  0
ARC
  5
54F
100
AcDbEntity
  8
RACCORDO
100
AcDbCircle
 62
250
  6
CONTINUOUS
 10
23.1584215008
 20
18.3600534489
 40
1.9997845929
100
AcDbArc
 50
359.9985747107
 51
90.0014539531
  0
ARC
  5
550
100
AcDbEntity
  8
RACCORDO
100
AcDbCircle
 62
250
  6
CONTINUOUS
 10
23.1586032071
 20
18.3602351552
 40
1.499676974
100
AcDbArc
 50
359.9965613417
 51
90.0034386583
  0
ARC
  5
551
100
AcDbEntity
  8
RACCORDO
100
AcDbCircle
 62
250
  6
CONTINUOUS
 10
23.1586032071
 20
14.6913967929
 40
1.499676974
100
AcDbArc
 50
269.9965613417
 51
0.0034386583
  0
CIRCLE
  5
552
100
AcDbEntity
  8
DRAFT
100
AcDbCircle
 62
7
  6
CONTINUOUS
 10
20.8241840259
 20
16.5258159741
 40
1.4738174026
  0
ARC
  5
553
100
AcDbEntity
  8
RACCORDO
100
AcDbCircle
 62
250
  6
CONTINUOUS
 10
14.1756937076
 20
21.3773256002
 40
0.4998926927
100
AcDbArc
 50
359.9965594963
 51
90.00344687
  0
ARC
  5
554
100
AcDbEntity
  8
RACCORDO
100
AcDbCircle
 62
250
  6
CONTINUOUS
 10
17.5272246068
 20
11.2288565549
 40
0.2000430909
100
AcDbArc
 50
0.0209441259
 51
89.9790558741
  0
ARC
  5
555
100
AcDbEntity
  8
RACCORDO
100
AcDbCircle
 62
250
  6
CONTINUOUS
 10
16.6211434451
 20
11.2288565549
 40
0.2000430909
100
AcDbArc
 50
90.0209441268
 51
179.9790558732
  0
ARC
  5
556
100
AcDbEntity
  8
RACCORDO
100
AcDbCircle
 62
7
  6
CONTINUOUS
 10
17.6242267278
 20
11.3258586759
 40
0.1999569277
100
AcDbArc
 50
359.9964925066
 51
90.0035074934
  0
SPLINE
  5
557
100
AcDbEntity
  8
RACCORDO
100
AcDbSpline
 62
250
  6
CONTINUOUS
 70
0
 71
3
 72
23
 73
19
 74
0
 42
0.0000001
 43
0.0000001
 44
0.0000000001
 40
0.0
 40
0.0
 40
0.0
 40
0.0
 40
0.1928297327
 40
0.3784525163
 40
0.5498911126
 40
0.6282467938
 40
0.7006909162
 40
0.7665313207
 40
0.8251492894
 40
0.8759914378
 40
0.9185830084
 40
0.9525313666
 40
0.9661638155
 40
0.9775267921
 40
0.9865958522
 40
0.9933569404
 40
0.9978077012
 40
1.0
 40
1.0
 40
1.0
 40
1.0
 10
-25.0308780086
 20
8.4293561328
 30
0.0
 10
-25.0308780508
 20
8.6093989376
 30
0.0
 10
-25.0314670223
 20
8.9627558367
 30
0.0
 10
-25.0341011369
 20
9.4761767878
 30
0.0
 10
-25.0377527004
 20
9.8827055004
 30
0.0
 10
-25.0415609672
 20
10.1835518446
 30
0.0
 10
-25.0446823625
 20
10.3858023776
 30
0.0
 10
-25.0481224889
 20
10.5696162355
 30
0.0
 10
-25.0518454067
 20
10.7332499473
 30
0.0
 10
-25.055804263
 20
10.8751658454
 30
0.0
 10
-25.0599631625
 20
10.9940254691
 30
0.0
 10
-25.0637397769
 20
11.07814518
 30
0.0
 10
-25.0669794731
 20
11.1330727592
 30
0.0
 10
-25.0692173631
 20
11.16482871
 30
0.0
 10
-25.0715283076
 20
11.1900410044
 30
0.0
 10
-25.073624448
 20
11.2090405078
 30
0.0
 10
-25.0760136742
 20
11.2210001312
 30
0.0
 10
-25.0774521706
 20
11.2274819406
 30
0.0
 10
-25.0788992183
 20
11.2289296793
 30
0.0
  0
SPLINE
  5
558
100
AcDbEntity
  8
RACCORDO
100
AcDbSpline
 62
250
  6
CONTINUOUS
 70
0
 71
3
 72
23
 73
19
 74
0
 42
0.0000001
 43
0.0000001
 44
0.0000000001
 40
0.0
 40
0.0
 40
0.0
 40
0.0
 40
0.0021922995
 40
0.0066430537
 40
0.0134041441
 40
0.0224732109
 40
0.0338361892
 40
0.0474686346
 40
0.0814169892
 40
0.1240085631
 40
0.1748507108
 40
0.2334686787
 40
0.2993090837
 40
0.3717532062
 40
0.4501088871
 40
0.6215474839
 40
0.8071702664
 40
1.0
 40
1.0
 40
1.0
 40
1.0
 10
-25.0788992183
 20
-4.1772977311
 30
0.0
 10
-25.0774521802
 20
-4.175849982
 30
0.0
 10
-25.0760136674
 20
-4.1693681972
 30
0.0
 10
-25.0736244491
 20
-4.1574085638
 30
0.0
 10
-25.0715283062
 20
-4.1384090646
 30
0.0
 10
-25.0692173644
 20
-4.1131967575
 30
0.0
 10
-25.0669794734
 20
-4.0814408032
 30
0.0
 10
-25.0637397766
 20
-4.0265132286
 30
0.0
 10
-25.0599631621
 20
-3.9423935215
 30
0.0
 10
-25.0558042634
 20
-3.8235338985
 30
0.0
 10
-25.0518454066
 20
-3.6816179987
 30
0.0
 10
-25.0481224888
 20
-3.5179842879
 30
0.0
 10
-25.0446823626
 20
-3.3341704302
 30
0.0
 10
-25.0415609672
 20
-3.1319198969
 30
0.0
 10
-25.0377527003
 20
-2.8310735525
 30
0.0
 10
-25.034101137
 20
-2.4245448407
 30
0.0
 10
-25.0314670221
 20
-1.9111238892
 30
0.0
 10
-25.0308780505
 20
-1.5577669903
 30
0.0
 10
-25.0308780086
 20
-1.3777241847
 30
0.0
  0
SPLINE
  5
559
100
AcDbEntity
  8
RACCORDO
100
AcDbSpline
 62
250
  6
CONTINUOUS
 70
0
 71
3
 72
23
 73
19
 74
0
 42
0.0000001
 43
0.0000001
 44
0.0000000001
 40
0.0
 40
0.0
 40
0.0
 40
0.0
 40
0.0021923347
 40
0.0066429236
 40
0.0134038502
 40
0.0224727862
 40
0.0338356538
 40
0.0474678955
 40
0.0814158745
 40
0.124006919
 40
0.1748481749
 40
0.2334657416
 40
0.299305619
 40
0.3717495018
 40
0.4501051864
 40
0.6215444411
 40
0.807168522
 40
1.0
 40
1.0
 40
1.0
 40
1.0
 10
17.7272672702
 20
-4.1772977311
 30
0.0
 10
17.725820425
 20
-4.1758497428
 30
0.0
 10
17.7243816083
 20
-4.1693684684
 30
0.0
 10
17.7219925748
 20
-4.1574088242
 30
0.0
 10
17.7198963556
 20
-4.1384098978
 30
0.0
 10
17.7175854671
 20
-4.1131979109
 30
0.0
 10
17.7153475824
 20
-4.0814423935
 30
0.0
 10
17.7121078855
 20
-4.0265154547
 30
0.0
 10
17.7083313111
 20
-3.9423967879
 30
0.0
 10
17.70417245
 20
-3.8235388399
 30
0.0
 10
17.7002135648
 20
-3.6816246441
 30
0.0
 10
17.6964907073
 20
-3.5179926318
 30
0.0
 10
17.6930505614
 20
-3.3341798658
 30
0.0
 10
17.6899291617
 20
-3.1319300455
 30
0.0
 10
17.6861208838
 20
-2.8310833071
 30
0.0
 10
17.682469238
 20
-2.4245527658
 30
0.0
 10
17.6798350898
 20
-1.911128359
 30
0.0
 10
17.6792461011
 20
-1.557768619
 30
0.0
 10
17.6792460605
 20
-1.3777241847
 30
0.0
  0
SPLINE
  5
55A
100
AcDbEntity
  8
RACCORDO
100
AcDbSpline
 62
250
  6
CONTINUOUS
 70
0
 71
3
 72
23
 73
19
 74
0
 42
0.0000001
 43
0.0000001
 44
0.0000000001
 40
0.0
 40
0.0
 40
0.0
 40
0.0
 40
0.1928314771
 40
0.3784555591
 40
0.5498948135
 40
0.6282504983
 40
0.7006943809
 40
0.7665342581
 40
0.8251518253
 40
0.8759930815
 40
0.9185841241
 40
0.9525321053
 40
0.9661643493
 40
0.9775272161
 40
0.9865961479
 40
0.9933570724
 40
0.9978076647
 40
1.0
 40
1.0
 40
1.0
 40
1.0
 10
17.6792460605
 20
8.4293561328
 30
0.0
 10
17.6792461015
 20
8.6094005663
 30
0.0
 10
17.6798350899
 20
8.9627603065
 30
0.0
 10
17.6824692378
 20
9.4761847131
 30
0.0
 10
17.6861208839
 20
9.8827152552
 30
0.0
 10
17.6899291616
 20
10.1835619932
 30
0.0
 10
17.6930505614
 20
10.3858118134
 30
0.0
 10
17.6964907073
 20
10.5696245795
 30
0.0
 10
17.7002135648
 20
10.7332565924
 30
0.0
 10
17.7041724497
 20
10.8751707872
 30
0.0
 10
17.7083313114
 20
10.9940287356
 30
0.0
 10
17.7121078858
 20
11.0781474049
 30
0.0
 10
17.7153475822
 20
11.1330743471
 30
0.0
 10
17.7175854663
 20
11.1648298624
 30
0.0
 10
17.7198963562
 20
11.1900418414
 30
0.0
 10
17.7219925746
 20
11.2090407674
 30
0.0
 10
17.7243816117
 20
11.2210004081
 30
0.0
 10
17.725820421
 20
11.2274816941
 30
0.0
 10
17.7272672702
 20
11.2289296793
 30
0.0
  0
SPLINE
  5
55B
100
AcDbEntity
  8
RACCORDO
100
AcDbSpline
 62
250
  6
CONTINUOUS
 70
0
 71
3
 72
23
 73
19
 74
0
 42
0.0000001
 43
0.0000001
 44
0.0000000001
 40
0.0
 40
0.0
 40
0.0
 40
0.0
 40
0.0021923347
 40
0.0066429236
 40
0.0134038502
 40
0.0224727862
 40
0.0338356538
 40
0.0474678955
 40
0.0814158745
 40
0.124006919
 40
0.1748481749
 40
0.2334657416
 40
0.299305619
 40
0.3717495018
 40
0.4501051864
 40
0.6215444411
 40
0.807168522
 40
1.0
 40
1.0
 40
1.0
 40
1.0
 10
-23.7727327298
 20
-4.1772977311
 30
0.0
 10
-23.774179575
 20
-4.1758497428
 30
0.0
 10
-23.7756183917
 20
-4.1693684684
 30
0.0
 10
-23.7780074252
 20
-4.1574088242
 30
0.0
 10
-23.7801036444
 20
-4.1384098978
 30
0.0
 10
-23.7824145329
 20
-4.1131979109
 30
0.0
 10
-23.7846524176
 20
-4.0814423935
 30
0.0
 10
-23.7878921145
 20
-4.0265154547
 30
0.0
 10
-23.7916686889
 20
-3.9423967879
 30
0.0
 10
-23.79582755
 20
-3.8235388399
 30
0.0
 10
-23.7997864352
 20
-3.6816246441
 30
0.0
 10
-23.8035092927
 20
-3.5179926318
 30
0.0
 10
-23.8069494386
 20
-3.3341798658
 30
0.0
 10
-23.8100708383
 20
-3.1319300455
 30
0.0
 10
-23.8138791162
 20
-2.8310833071
 30
0.0
 10
-23.817530762
 20
-2.4245527658
 30
0.0
 10
-23.8201649102
 20
-1.911128359
 30
0.0
 10
-23.8207538989
 20
-1.557768619
 30
0.0
 10
-23.8207539395
 20
-1.3777241847
 30
0.0
  0
SPLINE
  5
55C
100
AcDbEntity
  8
RACCORDO
100
AcDbSpline
 62
250
  6
CONTINUOUS
 70
0
 71
3
 72
23
 73
19
 74
0
 42
0.0000001
 43
0.0000001
 44
0.0000000001
 40
0.0
 40
0.0
 40
0.0
 40
0.0
 40
0.1928314771
 40
0.3784555591
 40
0.5498948135
 40
0.6282504983
 40
0.7006943809
 40
0.7665342581
 40
0.8251518253
 40
0.8759930815
 40
0.9185841241
 40
0.9525321053
 40
0.9661643493
 40
0.9775272161
 40
0.9865961479
 40
0.9933570724
 40
0.9978076647
 40
1.0
 40
1.0
 40
1.0
 40
1.0
 10
-23.8207539395
 20
8.4293561328
 30
0.0
 10
-23.8207538985
 20
8.6094005663
 30
0.0
 10
-23.8201649101
 20
8.9627603065
 30
0.0
 10
-23.8175307622
 20
9.4761847131
 30
0.0
 10
-23.8138791161
 20
9.8827152552
 30
0.0
 10
-23.8100708384
 20
10.1835619932
 30
0.0
 10
-23.8069494386
 20
10.3858118134
 30
0.0
 10
-23.8035092927
 20
10.5696245795
 30
0.0
 10
-23.7997864352
 20
10.7332565924
 30
0.0
 10
-23.7958275503
 20
10.8751707872
 30
0.0
 10
-23.7916686886
 20
10.9940287356
 30
0.0
 10
-23.7878921142
 20
11.0781474049
 30
0.0
 10
-23.7846524178
 20
11.1330743471
 30
0.0
 10
-23.7824145337
 20
11.1648298624
 30
0.0
 10
-23.7801036438
 20
11.1900418414
 30
0.0
 10
-23.7780074254
 20
11.2090407674
 30
0.0
 10
-23.7756183883
 20
11.2210004081
 30
0.0
 10
-23.774179579
 20
11.2274816941
 30
0.0
 10
-23.7727327298
 20
11.2289296793
 30
0.0
  0
SPLINE
  5
55D
100
AcDbEntity
  8
RACCORDO
100
AcDbSpline
 62
250
  6
CONTINUOUS
 70
0
 71
3
 72
23
 73
19
 74
0
 42
0.0000001
 43
0.0000001
 44
0.0000000001
 40
0.0
 40
0.0
 40
0.0
 40
0.0
 40
0.0021923347
 40
0.0066429236
 40
0.0134038502
 40
0.0224727862
 40
0.0338356538
 40
0.0474678955
 40
0.0814158745
 40
0.124006919
 40
0.1748481749
 40
0.2334657416
 40
0.299305619
 40
0.3717495018
 40
0.4501051864
 40
0.6215444411
 40
0.807168522
 40
1.0
 40
1.0
 40
1.0
 40
1.0
 10
16.4211007817
 20
11.2289296793
 30
0.0
 10
16.4225476268
 20
11.2274816909
 30
0.0
 10
16.4239864436
 20
11.2210004165
 30
0.0
 10
16.4263754771
 20
11.2090407723
 30
0.0
 10
16.4284716962
 20
11.1900418459
 30
0.0
 10
16.4307825848
 20
11.164829859
 30
0.0
 10
16.4330204695
 20
11.1330743416
 30
0.0
 10
16.4362601663
 20
11.0781474028
 30
0.0
 10
16.4400367408
 20
10.994028736
 30
0.0
 10
16.4441956019
 20
10.875170788
 30
0.0
 10
16.4481544871
 20
10.7332565922
 30
0.0
 10
16.4518773446
 20
10.5696245799
 30
0.0
 10
16.4553174905
 20
10.3858118139
 30
0.0
 10
16.4584388902
 20
10.1835619936
 30
0.0
 10
16.4622471681
 20
9.8827152552
 30
0.0
 10
16.4658988139
 20
9.476184714
 30
0.0
 10
16.4685329621
 20
8.9627603071
 30
0.0
 10
16.4691219508
 20
8.6094005671
 30
0.0
 10
16.4691219914
 20
8.4293561328
 30
0.0
  0
SPLINE
  5
55E
100
AcDbEntity
  8
RACCORDO
100
AcDbSpline
 62
250
  6
CONTINUOUS
 70
0
 71
3
 72
23
 73
19
 74
0
 42
0.0000001
 43
0.0000001
 44
0.0000000001
 40
0.0
 40
0.0
 40
0.0
 40
0.0
 40
0.1928314771
 40
0.3784555591
 40
0.5498948135
 40
0.6282504983
 40
0.7006943809
 40
0.7665342581
 40
0.8251518253
 40
0.8759930815
 40
0.9185841241
 40
0.9525321053
 40
0.9661643493
 40
0.9775272161
 40
0.9865961479
 40
0.9933570724
 40
0.9978076647
 40
1.0
 40
1.0
 40
1.0
 40
1.0
 10
16.4691219914
 20
-1.3777241847
 30
0.0
 10
16.4691219504
 20
-1.5577686182
 30
0.0
 10
16.468532962
 20
-1.9111283584
 30
0.0
 10
16.4658988141
 20
-2.424552765
 30
0.0
 10
16.462247168
 20
-2.8310833071
 30
0.0
 10
16.4584388903
 20
-3.1319300451
 30
0.0
 10
16.4553174905
 20
-3.3341798653
 30
0.0
 10
16.4518773446
 20
-3.5179926314
 30
0.0
 10
16.448154487
 20
-3.6816246443
 30
0.0
 10
16.4441956021
 20
-3.823538839
 30
0.0
 10
16.4400367405
 20
-3.9423967875
 30
0.0
 10
16.4362601661
 20
-4.0265154568
 30
0.0
 10
16.4330204697
 20
-4.081442399
 30
0.0
 10
16.4307825856
 20
-4.1131979143
 30
0.0
 10
16.4284716957
 20
-4.1384098933
 30
0.0
 10
16.4263754773
 20
-4.1574088193
 30
0.0
 10
16.4239864402
 20
-4.16936846
 30
0.0
 10
16.4225476309
 20
-4.175849746
 30
0.0
 10
16.4211007817
 20
-4.1772977311
 30
0.0
  0
SPLINE
  5
55F
100
AcDbEntity
  8
RACCORDO
100
AcDbSpline
 62
250
  6
CONTINUOUS
 70
0
 71
3
 72
23
 73
19
 74
0
 42
0.0000001
 43
0.0000001
 44
0.0000000001
 40
0.0
 40
0.0
 40
0.0
 40
0.0
 40
0.1928411217
 40
0.378474797
 40
0.5499234217
 40
0.6282835868
 40
0.700731757
 40
0.7665756578
 40
0.8251962425
 40
0.8760398212
 40
0.9186313349
 40
0.9525778263
 40
0.9662083522
 40
0.9775683838
 40
0.9866331205
 40
0.993387931
 40
0.9978287306
 40
1.0
 40
1.0
 40
1.0
 40
1.0
 10
-24.8309084695
 20
8.4293561328
 30
0.0
 10
-24.8309085154
 20
8.6222574705
 30
0.0
 10
-24.8314974726
 20
9.000850758
 30
0.0
 10
-24.834131541
 20
9.5509405081
 30
0.0
 10
-24.8377830513
 20
9.9865049741
 30
0.0
 10
-24.8415912818
 20
10.3088403696
 30
0.0
 10
-24.8447126628
 20
10.5255380148
 30
0.0
 10
-24.8481527516
 20
10.7224826437
 30
0.0
 10
-24.8518757022
 20
10.8978059473
 30
0.0
 10
-24.8558343828
 20
11.0498598217
 30
0.0
 10
-24.8599936887
 20
11.1772103671
 30
0.0
 10
-24.8637692655
 20
11.2673396082
 30
0.0
 10
-24.8670105799
 20
11.3261933925
 30
0.0
 10
-24.8692449852
 20
11.3602157985
 30
0.0
 10
-24.8715648352
 20
11.3872305449
 30
0.0
 10
-24.8736385338
 20
11.4075744878
 30
0.0
 10
-24.8760680309
 20
11.4203916575
 30
0.0
 10
-24.8774479065
 20
11.4273112305
 30
0.0
 10
-24.8789296793
 20
11.4288992183
 30
0.0
  0
SPLINE
  5
560
100
AcDbEntity
  8
RACCORDO
100
AcDbSpline
 62
250
  6
CONTINUOUS
 70
0
 71
3
 72
23
 73
19
 74
0
 42
0.0000001
 43
0.0000001
 44
0.0000000001
 40
0.0
 40
0.0
 40
0.0
 40
0.0
 40
0.19284286
 40
0.3784778453
 40
0.5499271838
 40
0.6282873151
 40
0.7007351259
 40
0.7665783384
 40
0.8251984337
 40
0.8760411338
 40
0.9186321594
 40
0.9525783006
 40
0.9662086395
 40
0.9775685932
 40
0.986633252
 40
0.9933879806
 40
0.9978287104
 40
1.0
 40
1.0
 40
1.0
 40
1.0
 10
-24.0207234786
 20
8.4293561328
 30
0.0
 10
-24.0207234339
 20
8.6222592091
 30
0.0
 10
-24.0201344594
 20
9.0008555454
 30
0.0
 10
-24.0175003575
 20
9.5509490581
 30
0.0
 10
-24.0138487676
 20
9.9865155135
 30
0.0
 10
-24.0100405294
 20
10.3088512293
 30
0.0
 10
-24.0069191463
 20
10.5255477923
 30
0.0
 10
-24.0034790355
 20
10.7224908827
 30
0.0
 10
-23.9997561423
 20
10.8978121302
 30
0.0
 10
-23.9957974335
 20
11.0498641459
 30
0.0
 10
-23.9916381658
 20
11.1772129753
 30
0.0
 10
-23.987862628
 20
11.2673411884
 30
0.0
 10
-23.9846213082
 20
11.3261943612
 30
0.0
 10
-23.9823869132
 20
11.3602164132
 30
0.0
 10
-23.980067098
 20
11.3872309529
 30
0.0
 10
-23.9779933572
 20
11.4075745911
 30
0.0
 10
-23.9755639805
 20
11.4203917796
 30
0.0
 10
-23.9741839358
 20
11.4273111041
 30
0.0
 10
-23.9727022689
 20
11.4288992183
 30
0.0
  0
SPLINE
  5
561
100
AcDbEntity
  8
RACCORDO
100
AcDbSpline
 62
250
  6
CONTINUOUS
 70
0
 71
3
 72
23
 73
19
 74
0
 42
0.0000001
 43
0.0000001
 44
0.0000000001
 40
0.0
 40
0.0
 40
0.0
 40
0.0
 40
0.0021712712
 40
0.0066120689
 40
0.0133668788
 40
0.0224316159
 40
0.0337916479
 40
0.0474221738
 40
0.081368665
 40
0.1239601788
 40
0.1748037574
 40
0.2334243421
 40
0.299268243
 40
0.3717164131
 40
0.4500765782
 40
0.6215252029
 40
0.8071588783
 40
1.0
 40
1.0
 40
1.0
 40
1.0
 10
-24.8789296793
 20
-4.3772672702
 30
0.0
 10
-24.8774479108
 20
-4.375679276
 30
0.0
 10
-24.8760680284
 20
-4.3687597115
 30
0.0
 10
-24.8736385348
 20
-4.3559425362
 30
0.0
 10
-24.8715648345
 20
-4.3355985986
 30
0.0
 10
-24.8692449856
 20
-4.3085838506
 30
0.0
 10
-24.8670105799
 20
-4.2745614443
 30
0.0
 10
-24.8637692655
 20
-4.2157076597
 30
0.0
 10
-24.8599936886
 20
-4.1255784189
 30
0.0
 10
-24.8558343829
 20
-3.9982278736
 30
0.0
 10
-24.8518757022
 20
-3.8461739992
 30
0.0
 10
-24.8481527516
 20
-3.6708506956
 30
0.0
 10
-24.8447126628
 20
-3.4739060667
 30
0.0
 10
-24.8415912819
 20
-3.2572084214
 30
0.0
 10
-24.8377830512
 20
-2.934873026
 30
0.0
 10
-24.8341315412
 20
-2.49930856
 30
0.0
 10
-24.8314974725
 20
-1.9492188099
 30
0.0
 10
-24.830908515
 20
-1.5706255224
 30
0.0
 10
-24.8309084695
 20
-1.3777241847
 30
0.0
  0
SPLINE
  5
562
100
AcDbEntity
  8
RACCORDO
100
AcDbSpline
 62
250
  6
CONTINUOUS
 70
0
 71
3
 72
23
 73
19
 74
0
 42
0.0000001
 43
0.0000001
 44
0.0000000001
 40
0.0
 40
0.0
 40
0.0
 40
0.0
 40
0.0021710465
 40
0.0066114332
 40
0.0133658719
 40
0.0224302947
 40
0.0337900304
 40
0.0474201629
 40
0.0813659582
 40
0.1239567389
 40
0.1747992845
 40
0.233419314
 40
0.2992625472
 40
0.3717104585
 40
0.4500707632
 40
0.6215206339
 40
0.8071563329
 40
1.0
 40
1.0
 40
1.0
 40
1.0
 10
-23.9727019362
 20
-4.3772676274
 30
0.0
 10
-23.9741835898
 20
-4.375679833
 30
0.0
 10
-23.9755637228
 20
-4.3687610497
 30
0.0
 10
-23.9779930764
 20
-4.3559448111
 30
0.0
 10
-23.9800668194
 20
-4.3356020028
 30
0.0
 10
-23.9823866357
 20
-4.3085882246
 30
0.0
 10
-23.984621042
 20
-4.2745668228
 30
0.0
 10
-23.9878623864
 20
-4.2157144176
 30
0.0
 10
-23.9916379476
 20
-4.1255869874
 30
0.0
 10
-23.9957972404
 20
-3.9982388864
 30
0.0
 10
-23.999755976
 20
-3.8461873134
 30
0.0
 10
-24.003478896
 20
-3.6708662397
 30
0.0
 10
-24.0069190327
 20
-3.4739230644
 30
0.0
 10
-24.0100404401
 20
-3.2572261741
 30
0.0
 10
-24.0138487104
 20
-2.9348896033
 30
0.0
 10
-24.0175003304
 20
-2.4993216622
 30
0.0
 10
-24.0201344545
 20
-1.9492260125
 30
0.0
 10
-24.0207234345
 20
-1.5706280976
 30
0.0
 10
-24.0207234786
 20
-1.3777241847
 30
0.0
  0
SPLINE
  5
563
100
AcDbEntity
  8
RACCORDO
100
AcDbSpline
 62
250
  6
CONTINUOUS
 70
0
 71
3
 72
23
 73
19
 74
0
 42
0.0000001
 43
0.0000001
 44
0.0000000001
 40
0.0
 40
0.0
 40
0.0
 40
0.0
 40
0.0021710465
 40
0.0066114332
 40
0.0133658719
 40
0.0224302947
 40
0.0337900304
 40
0.0474201629
 40
0.0813659582
 40
0.1239567389
 40
0.1747992845
 40
0.233419314
 40
0.2992625472
 40
0.3717104585
 40
0.4500707632
 40
0.6215206339
 40
0.8071563329
 40
1.0
 40
1.0
 40
1.0
 40
1.0
 10
17.5272980638
 20
-4.3772676274
 30
0.0
 10
17.5258164102
 20
-4.375679833
 30
0.0
 10
17.5244362772
 20
-4.3687610497
 30
0.0
 10
17.5220069236
 20
-4.3559448111
 30
0.0
 10
17.5199331806
 20
-4.3356020028
 30
0.0
 10
17.5176133643
 20
-4.3085882246
 30
0.0
 10
17.515378958
 20
-4.2745668228
 30
0.0
 10
17.5121376136
 20
-4.2157144176
 30
0.0
 10
17.5083620524
 20
-4.1255869874
 30
0.0
 10
17.5042027596
 20
-3.9982388864
 30
0.0
 10
17.500244024
 20
-3.8461873134
 30
0.0
 10
17.496521104
 20
-3.6708662397
 30
0.0
 10
17.4930809673
 20
-3.4739230644
 30
0.0
 10
17.4899595599
 20
-3.2572261741
 30
0.0
 10
17.4861512896
 20
-2.9348896033
 30
0.0
 10
17.4824996696
 20
-2.4993216622
 30
0.0
 10
17.4798655455
 20
-1.9492260125
 30
0.0
 10
17.4792765655
 20
-1.5706280976
 30
0.0
 10
17.4792765214
 20
-1.3777241847
 30
0.0
  0
SPLINE
  5
564
100
AcDbEntity
  8
RACCORDO
100
AcDbSpline
 62
250
  6
CONTINUOUS
 70
0
 71
3
 72
23
 73
19
 74
0
 42
0.0000001
 43
0.0000001
 44
0.0000000001
 40
0.0
 40
0.0
 40
0.0
 40
0.0
 40
0.19284286
 40
0.3784778453
 40
0.5499271838
 40
0.6282873151
 40
0.7007351259
 40
0.7665783384
 40
0.8251984337
 40
0.8760411338
 40
0.9186321594
 40
0.9525783006
 40
0.9662086395
 40
0.9775685932
 40
0.986633252
 40
0.9933879806
 40
0.9978287104
 40
1.0
 40
1.0
 40
1.0
 40
1.0
 10
16.6690915305
 20
-1.3777241847
 30
0.0
 10
16.6690914858
 20
-1.570627261
 30
0.0
 10
16.6685025113
 20
-1.9492235973
 30
0.0
 10
16.6658684094
 20
-2.49931711
 30
0.0
 10
16.6622168195
 20
-2.9348835654
 30
0.0
 10
16.6584085813
 20
-3.2572192812
 30
0.0
 10
16.6552871982
 20
-3.4739158442
 30
0.0
 10
16.6518470874
 20
-3.6708589346
 30
0.0
 10
16.6481241942
 20
-3.8461801821
 30
0.0
 10
16.6441654854
 20
-3.9982321978
 30
0.0
 10
16.6400062177
 20
-4.1255810272
 30
0.0
 10
16.6362306799
 20
-4.2157092403
 30
0.0
 10
16.6329893601
 20
-4.2745624131
 30
0.0
 10
16.6307549651
 20
-4.3085844651
 30
0.0
 10
16.6284351499
 20
-4.3355990048
 30
0.0
 10
16.6263614091
 20
-4.355942643
 30
0.0
 10
16.6239320324
 20
-4.3687598315
 30
0.0
 10
16.6225519876
 20
-4.375679156
 30
0.0
 10
16.6210703207
 20
-4.3772672702
 30
0.0
  0
SPLINE
  5
565
100
AcDbEntity
  8
RACCORDO
100
AcDbSpline
 62
250
  6
CONTINUOUS
 70
0
 71
3
 72
23
 73
19
 74
0
 42
0.0000001
 43
0.0000001
 44
0.0000000001
 40
0.0
 40
0.0
 40
0.0
 40
0.0
 40
0.19284286
 40
0.3784778453
 40
0.5499271838
 40
0.6282873151
 40
0.7007351259
 40
0.7665783384
 40
0.8251984337
 40
0.8760411338
 40
0.9186321594
 40
0.9525783006
 40
0.9662086395
 40
0.9775685932
 40
0.986633252
 40
0.9933879806
 40
0.9978287104
 40
1.0
 40
1.0
 40
1.0
 40
1.0
 10
17.4792765214
 20
8.4293561328
 30
0.0
 10
17.4792765661
 20
8.6222592091
 30
0.0
 10
17.4798655406
 20
9.0008555454
 30
0.0
 10
17.4824996425
 20
9.5509490581
 30
0.0
 10
17.4861512324
 20
9.9865155135
 30
0.0
 10
17.4899594706
 20
10.3088512293
 30
0.0
 10
17.4930808537
 20
10.5255477923
 30
0.0
 10
17.4965209645
 20
10.7224908827
 30
0.0
 10
17.5002438577
 20
10.8978121302
 30
0.0
 10
17.5042025665
 20
11.0498641459
 30
0.0
 10
17.5083618342
 20
11.1772129753
 30
0.0
 10
17.512137372
 20
11.2673411884
 30
0.0
 10
17.5153786918
 20
11.3261943612
 30
0.0
 10
17.5176130868
 20
11.3602164132
 30
0.0
 10
17.519932902
 20
11.3872309529
 30
0.0
 10
17.5220066428
 20
11.4075745911
 30
0.0
 10
17.5244360195
 20
11.4203917796
 30
0.0
 10
17.5258160642
 20
11.4273111041
 30
0.0
 10
17.5272977311
 20
11.4288992183
 30
0.0
  0
SPLINE
  5
566
100
AcDbEntity
  8
RACCORDO
100
AcDbSpline
 62
250
  6
CONTINUOUS
 70
0
 71
3
 72
23
 73
19
 74
0
 42
0.0000001
 43
0.0000001
 44
0.0000000001
 40
0.0
 40
0.0
 40
0.0
 40
0.0
 40
0.0021710465
 40
0.0066114332
 40
0.0133658719
 40
0.0224302947
 40
0.0337900304
 40
0.0474201629
 40
0.0813659582
 40
0.1239567389
 40
0.1747992845
 40
0.233419314
 40
0.2992625472
 40
0.3717104585
 40
0.4500707632
 40
0.6215206339
 40
0.8071563329
 40
1.0
 40
1.0
 40
1.0
 40
1.0
 10
16.6210699881
 20
11.4288995755
 30
0.0
 10
16.6225516416
 20
11.4273117811
 30
0.0
 10
16.6239317747
 20
11.4203929978
 30
0.0
 10
16.6263611283
 20
11.4075767593
 30
0.0
 10
16.6284348713
 20
11.3872339509
 30
0.0
 10
16.6307546876
 20
11.3602201727
 30
0.0
 10
16.6329890939
 20
11.3261987709
 30
0.0
 10
16.6362304383
 20
11.2673463657
 30
0.0
 10
16.6400059995
 20
11.1772189355
 30
0.0
 10
16.6441652923
 20
11.0498708345
 30
0.0
 10
16.6481240279
 20
10.8978192615
 30
0.0
 10
16.6518469479
 20
10.7224981878
 30
0.0
 10
16.6552870846
 20
10.5255550125
 30
0.0
 10
16.658408492
 20
10.3088581222
 30
0.0
 10
16.6622167623
 20
9.9865215514
 30
0.0
 10
16.6658683823
 20
9.5509536104
 30
0.0
 10
16.6685025064
 20
9.0008579606
 30
0.0
 10
16.6690914864
 20
8.6222600457
 30
0.0
 10
16.6690915305
 20
8.4293561328
 30
0.0
  0
LINE
  5
567
100
AcDbEntity
  8
0
100
AcDbLine
 62
7
  6
CONTINUOUS
 10
-12.1594793346
 20
10.6293464043
 11
-12.7931279793
 21
9.6490932772
  0
SPLINE
  5
568
100
AcDbEntity
  8
0
100
AcDbSpline
 62
7
  6
CONTINUOUS
 70
0
 71
3
 72
8
 73
4
 74
0
 42
0.0000001
 43
0.0000001
 44
0.0000000001
 40
0.0
 40
0.0
 40
0.0
 40
0.0
 40
1.0
 40
1.0
 40
1.0
 40
1.0
 10
-12.7931279793
 20
9.6490932772
 30
0.0
 10
-12.85665317
 20
9.7664676269
 30
0.0
 10
-12.929054269
 20
9.8792429366
 30
0.0
 10
-13.0070667376
 20
9.9875307132
 30
0.0
  0
SPLINE
  5
569
100
AcDbEntity
  8
0
100
AcDbSpline
 62
7
  6
CONTINUOUS
 70
0
 71
3
 72
9
 73
5
 74
0
 42
0.0000001
 43
0.0000001
 44
0.0000000001
 40
0.0
 40
0.0
 40
0.0
 40
0.0
 40
0.7097160398
 40
1.0
 40
1.0
 40
1.0
 40
1.0
 10
-16.3930335386
 20
10.4126190267
 30
0.0
 10
-16.3620944082
 20
10.3067304885
 30
0.0
 10
-16.3123178023
 20
10.1593594779
 30
0.0
 10
-16.2595805478
 20
10.0131557475
 30
0.0
 10
-16.2440335273
 20
9.970798024
 30
0.0
  0
SPLINE
  5
56A
100
AcDbEntity
  8
0
100
AcDbSpline
 62
7
  6
CONTINUOUS
 70
0
 71
3
 72
9
 73
5
 74
0
 42
0.0000001
 43
0.0000001
 44
0.0000000001
 40
0.0
 40
0.0
 40
0.0
 40
0.0
 40
0.2354134851
 40
1.0
 40
1.0
 40
1.0
 40
1.0
 10
8.3903795307
 20
11.8801870908
 30
0.0
 10
8.3828218909
 20
11.9074690819
 30
0.0
 10
8.3494118084
 20
12.0229963784
 30
0.0
 10
8.3111806457
 20
12.1370995133
 30
0.0
 10
8.2800239292
 20
12.2236043572
 30
0.0
  0
SPLINE
  5
56B
100
AcDbEntity
  8
0
100
AcDbSpline
 62
7
  6
CONTINUOUS
 70
0
 71
3
 72
9
 73
5
 74
0
 42
0.0000001
 43
0.0000001
 44
0.0000000001
 40
0.0
 40
0.0
 40
0.0
 40
0.0
 40
0.7097160398
 40
1.0
 40
1.0
 40
1.0
 40
1.0
 10
5.5856722904
 20
13.5311396645
 30
0.0
 10
5.6166114208
 20
13.4252511264
 30
0.0
 10
5.6663880267
 20
13.2778801158
 30
0.0
 10
5.7191252812
 20
13.1316763854
 30
0.0
 10
5.7346723017
 20
13.0893186619
 30
0.0
  0
SPLINE
  5
56C
100
AcDbEntity
  8
0
100
AcDbSpline
 62
7
  6
CONTINUOUS
 70
0
 71
3
 72
25
 73
21
 74
0
 42
0.0000001
 43
0.0000001
 44
0.0000000001
 40
0.0
 40
0.0
 40
0.0
 40
0.0
 40
0.089554156
 40
0.1730942529
 40
0.2150045645
 40
0.2575308525
 40
0.3019355513
 40
0.3493312319
 40
0.3919214172
 40
0.4333078997
 40
0.4741537433
 40
0.515148254
 40
0.5959439908
 40
0.6786940172
 40
0.767379547
 40
0.8147639027
 40
0.8649502274
 40
0.9117017452
 40
0.9573500184
 40
1.0
 40
1.0
 40
1.0
 40
1.0
 10
4.4701636316
 20
13.1701930995
 30
0.0
 10
4.4439602148
 20
13.2614704884
 30
0.0
 10
4.3708008886
 20
13.4334330596
 30
0.0
 10
4.2124030061
 20
13.6042861534
 30
0.0
 10
4.0606574314
 20
13.6991083762
 30
0.0
 10
3.9331015402
 20
13.7500422989
 30
0.0
 10
3.793249761
 20
13.7800676107
 30
0.0
 10
3.6505688075
 20
13.7889412671
 30
0.0
 10
3.5111832065
 20
13.7810620145
 30
0.0
 10
3.3806116458
 20
13.7572088512
 30
0.0
 10
3.2558741578
 20
13.7170107606
 30
0.0
 10
3.0994099872
 20
13.6436497682
 30
0.0
 10
2.9237134688
 20
13.510215211
 30
0.0
 10
2.7704073597
 20
13.2862150926
 30
0.0
 10
2.6945810331
 20
13.0641594802
 30
0.0
 10
2.6646238512
 20
12.8686217439
 30
0.0
 10
2.6575010768
 20
12.7154735403
 30
0.0
 10
2.6642989785
 20
12.5642220851
 30
0.0
 10
2.6847850043
 20
12.4222348933
 30
0.0
 10
2.7073486734
 20
12.3312070322
 30
0.0
 10
2.7203261765
 20
12.2878631961
 30
0.0
  0
SPLINE
  5
56D
100
AcDbEntity
  8
0
100
AcDbSpline
 62
7
  6
CONTINUOUS
 70
0
 71
3
 72
11
 73
7
 74
0
 42
0.0000001
 43
0.0000001
 44
0.0000000001
 40
0.0
 40
0.0
 40
0.0
 40
0.0
 40
0.2525992429
 40
0.4888102636
 40
0.730558892
 40
1.0
 40
1.0
 40
1.0
 40
1.0
 10
3.6494681686
 20
11.6060906041
 30
0.0
 10
3.7517688882
 20
11.6060906041
 30
0.0
 10
3.9520318973
 20
11.6319912891
 30
0.0
 10
4.219296167
 20
11.7739543487
 30
0.0
 10
4.4201008792
 20
12.0093625983
 30
0.0
 10
4.4942465585
 20
12.2064964632
 30
0.0
 10
4.5211583087
 20
12.3122474391
 30
0.0
  0
SPLINE
  5
56E
100
AcDbEntity
  8
0
100
AcDbSpline
 62
7
  6
CONTINUOUS
 70
0
 71
3
 72
18
 73
14
 74
0
 42
0.0000001
 43
0.0000001
 44
0.0000000001
 40
0.0
 40
0.0
 40
0.0
 40
0.0
 40
0.1872192563
 40
0.2722332145
 40
0.3161368592
 40
0.3626272512
 40
0.5153504847
 40
0.5933000921
 40
0.6758952811
 40
0.768047691
 40
0.8181006916
 40
0.8713085931
 40
1.0
 40
1.0
 40
1.0
 40
1.0
 10
4.2406875847
 20
12.3825644184
 30
0.0
 10
4.2083841183
 20
12.2339010784
 30
0.0
 10
4.1043638
 20
12.0128283781
 30
0.0
 10
3.8727438143
 20
11.8865873526
 30
0.0
 10
3.7335299313
 20
11.8534902645
 30
0.0
 10
3.5361894109
 20
11.8390061326
 30
0.0
 10
3.3050424337
 20
11.8986263295
 30
0.0
 10
3.1074213143
 20
12.0664140032
 30
0.0
 10
3.0076071631
 20
12.2501152506
 30
0.0
 10
2.9621421549
 20
12.4282082413
 30
0.0
 10
2.9433720922
 20
12.586069882
 30
0.0
 10
2.936003307
 20
12.7743682069
 30
0.0
 10
2.9526875287
 20
12.9236947994
 30
0.0
 10
2.9784429309
 20
13.0254454437
 30
0.0
  0
SPLINE
  5
56F
100
AcDbEntity
  8
0
100
AcDbSpline
 62
7
  6
CONTINUOUS
 70
0
 71
3
 72
9
 73
5
 74
0
 42
0.0000001
 43
0.0000001
 44
0.0000000001
 40
0.0
 40
0.0
 40
0.0
 40
0.0
 40
0.4786249203
 40
1.0
 40
1.0
 40
1.0
 40
1.0
 10
3.6331338814
 20
13.5438883338
 30
0.0
 10
3.7537813814
 20
13.5438883338
 30
0.0
 10
4.0243969006
 20
13.4779728213
 30
0.0
 10
4.1501328238
 20
13.2309811455
 30
0.0
 10
4.1896929076
 20
13.1056529491
 30
0.0
  0
SPLINE
  5
570
100
AcDbEntity
  8
0
100
AcDbSpline
 62
7
  6
CONTINUOUS
 70
0
 71
3
 72
12
 73
8
 74
0
 42
0.0000001
 43
0.0000001
 44
0.0000000001
 40
0.0
 40
0.0
 40
0.0
 40
0.0
 40
0.1606441131
 40
0.3160528741
 40
0.4695579901
 40
0.6257786262
 40
1.0
 40
1.0
 40
1.0
 40
1.0
 10
-1.8914223363
 20
12.3327647528
 30
0.0
 10
-1.8895755803
 20
12.2639263869
 30
0.0
 10
-1.8698405448
 20
12.1279867631
 30
0.0
 10
-1.7855170771
 20
11.942422491
 30
0.0
 10
-1.6538427604
 20
11.7886440633
 30
0.0
 10
-1.3999141533
 20
11.633574055
 30
0.0
 10
-1.1642131766
 20
11.6060906041
 30
0.0
 10
-1.0037961165
 20
11.6060906041
 30
0.0
  0
SPLINE
  5
571
100
AcDbEntity
  8
0
100
AcDbSpline
 62
7
  6
CONTINUOUS
 70
0
 71
3
 72
15
 73
11
 74
0
 42
0.0000001
 43
0.0000001
 44
0.0000000001
 40
0.0
 40
0.0
 40
0.0
 40
0.0
 40
0.1205523663
 40
0.2334839557
 40
0.3389214346
 40
0.4385318437
 40
0.6258636217
 40
0.7171536601
 40
0.8046135431
 40
1.0
 40
1.0
 40
1.0
 40
1.0
 10
-1.0037961165
 20
11.6060906041
 30
0.0
 10
-0.9328790837
 20
11.6060906041
 30
0.0
 10
-0.7949125451
 20
11.6183134977
 30
0.0
 10
-0.6035690833
 20
11.6797260035
 30
0.0
 10
-0.4418706476
 20
11.7785823153
 30
0.0
 10
-0.2873044759
 20
11.9538738455
 30
0.0
 10
-0.2187358645
 20
12.1801814493
 30
0.0
 10
-0.247617689
 20
12.3960397437
 30
0.0
 10
-0.3408337349
 20
12.5996859672
 30
0.0
 10
-0.4866185977
 20
12.7024556766
 30
0.0
 10
-0.5908588693
 20
12.7508814204
 30
0.0
  0
SPLINE
  5
572
100
AcDbEntity
  8
0
100
AcDbSpline
 62
7
  6
CONTINUOUS
 70
0
 71
3
 72
9
 73
5
 74
0
 42
0.0000001
 43
0.0000001
 44
0.0000000001
 40
0.0
 40
0.0
 40
0.0
 40
0.0
 40
0.1708537376
 40
1.0
 40
1.0
 40
1.0
 40
1.0
 10
-0.5908588693
 20
12.7508814204
 30
0.0
 10
-0.6154926846
 20
12.7621425767
 30
0.0
 10
-0.763940602
 20
12.8184366993
 30
0.0
 10
-0.9185550613
 20
12.8557051808
 30
0.0
 10
-1.0465241468
 20
12.8857383555
 30
0.0
  0
SPLINE
  5
573
100
AcDbEntity
  8
0
100
AcDbSpline
 62
7
  6
CONTINUOUS
 70
0
 71
3
 72
9
 73
5
 74
0
 42
0.0000001
 43
0.0000001
 44
0.0000000001
 40
0.0
 40
0.0
 40
0.0
 40
0.0
 40
0.6350560901
 40
1.0
 40
1.0
 40
1.0
 40
1.0
 10
-1.0465241468
 20
12.8857383555
 30
0.0
 10
-1.1367110163
 20
12.9069043894
 30
0.0
 10
-1.2753880842
 20
12.9450137812
 30
0.0
 10
-1.4161158762
 20
13.0005356328
 30
0.0
 10
-1.454780365
 20
13.0371287788
 30
0.0
  0
SPLINE
  5
574
100
AcDbEntity
  8
0
100
AcDbSpline
 62
7
  6
CONTINUOUS
 70
0
 71
3
 72
14
 73
10
 74
0
 42
0.0000001
 43
0.0000001
 44
0.0000000001
 40
0.0
 40
0.0
 40
0.0
 40
0.0
 40
0.1221754561
 40
0.2479284667
 40
0.3235721644
 40
0.3974374623
 40
0.5551234414
 40
0.7467267791
 40
1.0
 40
1.0
 40
1.0
 40
1.0
 10
-1.454780365
 20
13.0371287788
 30
0.0
 10
-1.4799769669
 20
13.0604986003
 30
0.0
 10
-1.5226330291
 20
13.1190067164
 30
0.0
 10
-1.538115343
 20
13.2113709363
 30
0.0
 10
-1.5300653965
 20
13.2888795152
 30
0.0
 10
-1.500408683
 20
13.3708455373
 30
0.0
 10
-1.4213402524
 20
13.4657713968
 30
0.0
 10
-1.2616353522
 20
13.5357820496
 30
0.0
 10
-1.1351954071
 20
13.5438883338
 30
0.0
 10
-1.0639538449
 20
13.5438883338
 30
0.0
  0
SPLINE
  5
575
100
AcDbEntity
  8
0
100
AcDbSpline
 62
7
  6
CONTINUOUS
 70
0
 71
3
 72
9
 73
5
 74
0
 42
0.0000001
 43
0.0000001
 44
0.0000000001
 40
0.0
 40
0.0
 40
0.0
 40
0.0
 40
0.5306823676
 40
1.0
 40
1.0
 40
1.0
 40
1.0
 10
-1.0639538449
 20
13.5438883338
 30
0.0
 10
-0.9404905555
 20
13.5438883338
 30
0.0
 10
-0.6777332366
 20
13.5053983529
 30
0.0
 10
-0.5771809754
 20
13.2572462607
 30
0.0
 10
-0.5655607318
 20
13.1486795863
 30
0.0
  0
SPLINE
  5
576
100
AcDbEntity
  8
0
100
AcDbSpline
 62
7
  6
CONTINUOUS
 70
0
 71
3
 72
12
 73
8
 74
0
 42
0.0000001
 43
0.0000001
 44
0.0000000001
 40
0.0
 40
0.0
 40
0.0
 40
0.0
 40
0.1573927117
 40
0.3102345594
 40
0.4642180775
 40
0.6271205374
 40
1.0
 40
1.0
 40
1.0
 40
1.0
 10
-0.2850900077
 20
13.1614282556
 30
0.0
 10
-0.287385064
 20
13.2203354259
 30
0.0
 10
-0.306069096
 20
13.3366570862
 30
0.0
 10
-0.3812823015
 20
13.4959637337
 30
0.0
 10
-0.5016679018
 20
13.6283481709
 30
0.0
 10
-0.7295874248
 20
13.7568594544
 30
0.0
 10
-0.9354460994
 20
13.78611305
 30
0.0
 10
-1.0751091008
 20
13.78611305
 30
0.0
  0
SPLINE
  5
577
100
AcDbEntity
  8
0
100
AcDbSpline
 62
7
  6
CONTINUOUS
 70
0
 71
3
 72
15
 73
11
 74
0
 42
0.0000001
 43
0.0000001
 44
0.0000000001
 40
0.0
 40
0.0
 40
0.0
 40
0.0
 40
0.1249524682
 40
0.2423294566
 40
0.350902176
 40
0.4524669683
 40
0.6444564726
 40
0.7304140431
 40
0.8144496174
 40
1.0
 40
1.0
 40
1.0
 40
1.0
 10
-1.0751091008
 20
13.78611305
 30
0.0
 10
-1.1428702288
 20
13.78611305
 30
0.0
 10
-1.2747354502
 20
13.7752235922
 30
0.0
 10
-1.4587975422
 20
13.7225694161
 30
0.0
 10
-1.616307362
 20
13.6350456545
 30
0.0
 10
-1.765175526
 20
13.471400985
 30
0.0
 10
-1.8289249868
 20
13.2613799904
 30
0.0
 10
-1.8029140631
 20
13.0647568966
 30
0.0
 10
-1.7226023613
 20
12.8861655835
 30
0.0
 10
-1.5999683677
 20
12.7904637798
 30
0.0
 10
-1.5105556715
 20
12.7443077875
 30
0.0
  0
SPLINE
  5
578
100
AcDbEntity
  8
0
100
AcDbSpline
 62
7
  6
CONTINUOUS
 70
0
 71
3
 72
9
 73
5
 74
0
 42
0.0000001
 43
0.0000001
 44
0.0000000001
 40
0.0
 40
0.0
 40
0.0
 40
0.0
 40
0.1806469784
 40
1.0
 40
1.0
 40
1.0
 40
1.0
 10
-1.5105556715
 20
12.7443077875
 30
0.0
 10
-1.4880214047
 20
12.732529364
 30
0.0
 10
-1.3587755448
 20
12.6761350434
 30
0.0
 10
-1.2219779215
 20
12.6400086666
 30
0.0
 10
-1.1100682921
 20
12.6121399686
 30
0.0
  0
SPLINE
  5
579
100
AcDbEntity
  8
0
100
AcDbSpline
 62
7
  6
CONTINUOUS
 70
0
 71
3
 72
9
 73
5
 74
0
 42
0.0000001
 43
0.0000001
 44
0.0000000001
 40
0.0
 40
0.0
 40
0.0
 40
0.0
 40
0.3500357027
 40
1.0
 40
1.0
 40
1.0
 40
1.0
 10
-1.1100682921
 20
12.6121399686
 30
0.0
 10
-1.0671674411
 20
12.6014564298
 30
0.0
 10
-0.9450952909
 20
12.5695718667
 30
0.0
 10
-0.821768294
 20
12.5393671655
 30
0.0
 10
-0.7456355151
 20
12.5086567042
 30
0.0
  0
SPLINE
  5
57A
100
AcDbEntity
  8
0
100
AcDbSpline
 62
7
  6
CONTINUOUS
 70
0
 71
3
 72
18
 73
14
 74
0
 42
0.0000001
 43
0.0000001
 44
0.0000000001
 40
0.0
 40
0.0
 40
0.0
 40
0.0
 40
0.1545390534
 40
0.2172269841
 40
0.2832409597
 40
0.4181299838
 40
0.4923825813
 40
0.5758976804
 40
0.6695117999
 40
0.7726248833
 40
0.8326192991
 40
0.8901039223
 40
1.0
 40
1.0
 40
1.0
 40
1.0
 10
-0.7456355151
 20
12.5086567042
 30
0.0
 10
-0.6778662547
 20
12.4818642107
 30
0.0
 10
-0.580065457
 20
12.4278533632
 30
0.0
 10
-0.5224833368
 20
12.3039500541
 30
0.0
 10
-0.5054114399
 20
12.179571307
 30
0.0
 10
-0.5471318621
 20
12.0469552416
 30
0.0
 10
-0.6453539198
 20
11.9471241763
 30
0.0
 10
-0.7512639216
 20
11.8907189314
 30
0.0
 10
-0.879405357
 20
11.8551323394
 30
0.0
 10
-1.0008244412
 20
11.84617755
 30
0.0
 10
-1.1048462707
 20
11.8508070493
 30
0.0
 10
-1.2111315911
 20
11.8663547296
 30
0.0
 10
-1.2868635166
 20
11.8907724012
 30
0.0
 10
-1.3342127689
 20
11.9122791486
 30
0.0
  0
SPLINE
  5
57B
100
AcDbEntity
  8
0
100
AcDbSpline
 62
7
  6
CONTINUOUS
 70
0
 71
3
 72
9
 73
5
 74
0
 42
0.0000001
 43
0.0000001
 44
0.0000000001
 40
0.0
 40
0.0
 40
0.0
 40
0.0
 40
0.7911658617
 40
1.0
 40
1.0
 40
1.0
 40
1.0
 10
-3.8929634124
 20
12.6646285559
 30
0.0
 10
-3.8929634124
 20
12.8549815397
 30
0.0
 10
-3.8649300054
 20
13.1129184063
 30
0.0
 10
-3.7158660964
 20
13.3066142431
 30
0.0
 10
-3.6794231534
 20
13.3412044319
 30
0.0
  0
SPLINE
  5
57C
100
AcDbEntity
  8
0
100
AcDbSpline
 62
7
  6
CONTINUOUS
 70
0
 71
3
 72
23
 73
19
 74
0
 42
0.0000001
 43
0.0000001
 44
0.0000000001
 40
0.0
 40
0.0
 40
0.0
 40
0.0
 40
0.1096369066
 40
0.1637859925
 40
0.22010619
 40
0.2601353892
 40
0.298850742
 40
0.3752461333
 40
0.4515838172
 40
0.5303787473
 40
0.6157752613
 40
0.661759834
 40
0.7105457103
 40
0.7857724969
 40
0.8534384666
 40
0.9155878707
 40
0.9748387305
 40
1.0
 40
1.0
 40
1.0
 40
1.0
 10
-3.6794231534
 20
13.3412044319
 30
0.0
 10
-3.6119281063
 20
13.4052680402
 30
0.0
 10
-3.4924775937
 20
13.4848839392
 30
0.0
 10
-3.3117262975
 20
13.5359759655
 30
0.0
 10
-3.183687709
 20
13.5468043982
 30
0.0
 10
-3.0689714217
 20
13.5397499455
 30
0.0
 10
-2.9395203728
 20
13.5135568523
 30
0.0
 10
-2.7887719592
 20
13.4466928712
 30
0.0
 10
-2.6371383948
 20
13.3169925118
 30
0.0
 10
-2.5286560885
 20
13.1406521365
 30
0.0
 10
-2.4765516232
 20
12.9682989827
 30
0.0
 10
-2.455646873
 20
12.8166154672
 30
0.0
 10
-2.4498360249
 20
12.6722762476
 30
0.0
 10
-2.459503125
 20
12.5093396627
 30
0.0
 10
-2.4967503288
 20
12.3384837921
 30
0.0
 10
-2.5604786617
 20
12.1898740213
 30
0.0
 10
-2.6345982079
 20
12.0886837324
 30
0.0
 10
-2.6854189244
 20
12.0378727132
 30
0.0
 10
-2.7012359497
 20
12.0234649008
 30
0.0
  0
SPLINE
  5
57D
100
AcDbEntity
  8
0
100
AcDbSpline
 62
7
  6
CONTINUOUS
 70
0
 71
3
 72
17
 73
13
 74
0
 42
0.0000001
 43
0.0000001
 44
0.0000000001
 40
0.0
 40
0.0
 40
0.0
 40
0.0
 40
0.1520102844
 40
0.2690237173
 40
0.370049287
 40
0.4725012244
 40
0.545743988
 40
0.6196611404
 40
0.6953092939
 40
0.775646705
 40
0.873777008
 40
1.0
 40
1.0
 40
1.0
 40
1.0
 10
-5.2479077789
 20
13.505642326
 30
0.0
 10
-5.1800644741
 20
13.505642326
 30
0.0
 10
-5.0586365366
 20
13.4970388762
 30
0.0
 10
-4.9042392336
 20
13.4246448122
 30
0.0
 10
-4.8149967924
 20
13.3058483361
 30
0.0
 10
-4.7918209787
 20
13.1807072617
 30
0.0
 10
-4.8074503815
 20
13.0690983956
 30
0.0
 10
-4.8503076289
 20
12.9776862201
 30
0.0
 10
-4.9210779804
 20
12.9007190215
 30
0.0
 10
-5.0239314645
 20
12.8482962587
 30
0.0
 10
-5.1582386496
 20
12.821585866
 30
0.0
 10
-5.2585040941
 20
12.8172141852
 30
0.0
 10
-5.3148383412
 20
12.8172141852
 30
0.0
  0
SPLINE
  5
57E
100
AcDbEntity
  8
0
100
AcDbSpline
 62
7
  6
CONTINUOUS
 70
0
 71
3
 72
9
 73
5
 74
0
 42
0.0000001
 43
0.0000001
 44
0.0000000001
 40
0.0
 40
0.0
 40
0.0
 40
0.0
 40
0.3222232674
 40
1.0
 40
1.0
 40
1.0
 40
1.0
 10
-5.5875404209
 20
12.574989469
 30
0.0
 10
-5.5710223297
 20
12.574989469
 30
0.0
 10
-5.5198453837
 20
12.5742271566
 30
0.0
 10
-5.4681712511
 20
12.5723209185
 30
0.0
 10
-5.4341579876
 20
12.5652288146
 30
0.0
  0
SPLINE
  5
57F
100
AcDbEntity
  8
0
100
AcDbSpline
 62
7
  6
CONTINUOUS
 70
0
 71
3
 72
12
 73
8
 74
0
 42
0.0000001
 43
0.0000001
 44
0.0000000001
 40
0.0
 40
0.0
 40
0.0
 40
0.0
 40
0.0974412774
 40
0.2003948476
 40
0.4882068918
 40
0.7085912992
 40
1.0
 40
1.0
 40
1.0
 40
1.0
 10
-5.4341579876
 20
12.5652288146
 30
0.0
 10
-5.4124713502
 20
12.5600267109
 30
0.0
 10
-5.3689103072
 20
12.5450282774
 30
0.0
 10
-5.2692749543
 20
12.4927626242
 30
0.0
 10
-5.1752528632
 20
12.3844296432
 30
0.0
 10
-5.0696446803
 20
12.2359855041
 30
0.0
 10
-5.0053398736
 20
12.1377792114
 30
0.0
 10
-4.9694290648
 20
12.0815761862
 30
0.0
  0
SPLINE
  5
580
100
AcDbEntity
  8
0
100
AcDbSpline
 62
7
  6
CONTINUOUS
 70
0
 71
3
 72
9
 73
5
 74
0
 42
0.0000001
 43
0.0000001
 44
0.0000000001
 40
0.0
 40
0.0
 40
0.0
 40
0.0
 40
0.2659540588
 40
1.0
 40
1.0
 40
1.0
 40
1.0
 10
-4.7216269152
 20
12.2162341148
 30
0.0
 10
-4.7390174571
 20
12.2424987278
 30
0.0
 10
-4.8064680964
 20
12.3398375307
 30
0.0
 10
-4.882788325
 20
12.4313092261
 30
0.0
 10
-4.9445293293
 20
12.4925216179
 30
0.0
  0
SPLINE
  5
581
100
AcDbEntity
  8
0
100
AcDbSpline
 62
7
  6
CONTINUOUS
 70
0
 71
3
 72
9
 73
5
 74
0
 42
0.0000001
 43
0.0000001
 44
0.0000000001
 40
0.0
 40
0.0
 40
0.0
 40
0.0
 40
0.209446698
 40
1.0
 40
1.0
 40
1.0
 40
1.0
 10
-4.9445293293
 20
12.4925216179
 30
0.0
 10
-4.9541990054
 20
12.501944255
 30
0.0
 10
-5.0030759677
 20
12.5441543111
 30
0.0
 10
-5.0592689774
 20
12.5769812361
 30
0.0
 10
-5.1044852009
 20
12.6004868075
 30
0.0
  0
SPLINE
  5
582
100
AcDbEntity
  8
0
100
AcDbSpline
 62
7
  6
CONTINUOUS
 70
0
 71
3
 72
19
 73
15
 74
0
 42
0.0000001
 43
0.0000001
 44
0.0000000001
 40
0.0
 40
0.0
 40
0.0
 40
0.0
 40
0.136569576
 40
0.2487419393
 40
0.3510973289
 40
0.4029098052
 40
0.4575312966
 40
0.5006597919
 40
0.54259345
 40
0.6258399794
 40
0.7059972618
 40
0.7829904054
 40
0.8757620861
 40
1.0
 40
1.0
 40
1.0
 40
1.0
 10
-5.1044852009
 20
12.6004868075
 30
0.0
 10
-5.015384723
 20
12.6128602486
 30
0.0
 10
-4.8531766814
 20
12.6498225186
 30
0.0
 10
-4.654624738
 20
12.7801136317
 30
0.0
 10
-4.5589376132
 20
12.9336421143
 30
0.0
 10
-4.5230983958
 20
13.0670818819
 30
0.0
 10
-4.5154387277
 20
13.1658295047
 30
0.0
 10
-4.5210904528
 20
13.2578837077
 30
0.0
 10
-4.5427176355
 20
13.3669586244
 30
0.0
 10
-4.5969046284
 20
13.4927281149
 30
0.0
 10
-4.6976382072
 20
13.6183289284
 30
0.0
 10
-4.8424174701
 20
13.7040051215
 30
0.0
 10
-5.0345381001
 20
13.7416415945
 30
0.0
 10
-5.1774291206
 20
13.7478670422
 30
0.0
 10
-5.2592620412
 20
13.7478670422
 30
0.0
  0
SPLINE
  5
583
100
AcDbEntity
  8
0
100
AcDbSpline
 62
7
  6
CONTINUOUS
 70
0
 71
3
 72
9
 73
5
 74
0
 42
0.0000001
 43
0.0000001
 44
0.0000000001
 40
0.0
 40
0.0
 40
0.0
 40
0.0
 40
0.7097160398
 40
1.0
 40
1.0
 40
1.0
 40
1.0
 10
-7.4307190388
 20
13.5311396645
 30
0.0
 10
-7.3997799083
 20
13.4252511264
 30
0.0
 10
-7.3500033024
 20
13.2778801158
 30
0.0
 10
-7.2972660479
 20
13.1316763854
 30
0.0
 10
-7.2817190274
 20
13.0893186619
 30
0.0
  0
SPLINE
  5
584
100
AcDbEntity
  8
0
100
AcDbSpline
 62
7
  6
CONTINUOUS
 70
0
 71
3
 72
9
 73
5
 74
0
 42
0.0000001
 43
0.0000001
 44
0.0000000001
 40
0.0
 40
0.0
 40
0.0
 40
0.0
 40
0.3106214921
 40
1.0
 40
1.0
 40
1.0
 40
1.0
 10
-9.4824579879
 20
12.2875469046
 30
0.0
 10
-9.4947395443
 20
12.2528218959
 30
0.0
 10
-9.5340508621
 20
12.1409524919
 30
0.0
 10
-9.5728335999
 20
12.0288786594
 30
0.0
 10
-9.5979928154
 20
11.9511014785
 30
0.0
  0
SPLINE
  5
585
100
AcDbEntity
  8
0
100
AcDbSpline
 62
7
  6
CONTINUOUS
 70
0
 71
3
 72
9
 73
5
 74
0
 42
0.0000001
 43
0.0000001
 44
0.0000000001
 40
0.0
 40
0.0
 40
0.0
 40
0.0
 40
0.1862683768
 40
1.0
 40
1.0
 40
1.0
 40
1.0
 10
-9.5979928154
 20
11.9511014785
 30
0.0
 10
-9.6039508651
 20
11.9704744532
 30
0.0
 10
-9.6365787268
 20
12.0742824093
 30
0.0
 10
-9.6706842956
 20
12.1776180165
 30
0.0
 10
-9.6985877626
 20
12.261651164
 30
0.0
  0
SPLINE
  5
586
100
AcDbEntity
  8
0
100
AcDbSpline
 62
7
  6
CONTINUOUS
 70
0
 71
3
 72
22
 73
18
 74
0
 42
0.0000001
 43
0.0000001
 44
0.0000000001
 40
0.0
 40
0.0
 40
0.0
 40
0.0
 40
0.1228859419
 40
0.2388293271
 40
0.2970197662
 40
0.353774889
 40
0.411662805
 40
0.4731097558
 40
0.5376989699
 40
0.5990398944
 40
0.6596136583
 40
0.7219929987
 40
0.7846275735
 40
0.8460899635
 40
0.9090554421
 40
0.9760193748
 40
1.0
 40
1.0
 40
1.0
 40
1.0
 10
-12.4489139089
 20
12.6674173698
 30
0.0
 10
-12.3921979719
 20
12.6674173698
 30
0.0
 10
-12.280062378
 20
12.6510915522
 30
0.0
 10
-12.1613283223
 20
12.5746112196
 30
0.0
 10
-12.0917392247
 20
12.4931472372
 30
0.0
 10
-12.0535468121
 20
12.4223732044
 30
0.0
 10
-12.0310689719
 20
12.3436494561
 30
0.0
 10
-12.024243236
 20
12.2586035015
 30
0.0
 10
-12.0313910878
 20
12.1719676493
 30
0.0
 10
-12.0551083818
 20
12.0885885141
 30
0.0
 10
-12.0953062447
 20
12.0129108785
 30
0.0
 10
-12.1503932914
 20
11.9466351054
 30
0.0
 10
-12.2170740808
 20
11.8913369164
 30
0.0
 10
-12.2942565353
 20
11.8511761241
 30
0.0
 10
-12.379993111
 20
11.8275327393
 30
0.0
 10
-12.4511524308
 20
11.8219031818
 30
0.0
 10
-12.4931992113
 20
11.8231639004
 30
0.0
 10
-12.5042588306
 20
11.8238542844
 30
0.0
  0
SPLINE
  5
587
100
AcDbEntity
  8
0
100
AcDbSpline
 62
7
  6
CONTINUOUS
 70
0
 71
3
 72
24
 73
20
 74
0
 42
0.0000001
 43
0.0000001
 44
0.0000000001
 40
0.0
 40
0.0
 40
0.0
 40
0.0
 40
0.1124390324
 40
0.1664524093
 40
0.2215494064
 40
0.2770680642
 40
0.3324309675
 40
0.389722399
 40
0.4508296207
 40
0.5185880958
 40
0.5822044
 40
0.6440131943
 40
0.7065518987
 40
0.7681557336
 40
0.8270541487
 40
0.8858445145
 40
0.947137939
 40
0.9921903883
 40
1.0
 40
1.0
 40
1.0
 40
1.0
 10
-13.1484973056
 20
12.1925293907
 30
0.0
 10
-13.1404127751
 20
12.1114353885
 30
0.0
 10
-13.109380434
 20
11.991196816
 30
0.0
 10
-13.0239477115
 20
11.8541608038
 30
0.0
 10
-12.9419538594
 20
11.7664860584
 30
0.0
 10
-12.8446148172
 20
11.6945575527
 30
0.0
 10
-12.7333964029
 20
11.6427350874
 30
0.0
 10
-12.6104775482
 20
11.612161763
 30
0.0
 10
-12.4753674963
 20
11.6026840529
 30
0.0
 10
-12.335621777
 20
11.613263493
 30
0.0
 10
-12.1993873667
 20
11.6492124948
 30
0.0
 10
-12.0764717481
 20
11.7102513982
 30
0.0
 10
-11.9700941517
 20
11.7943823549
 30
0.0
 10
-11.8820744724
 20
11.8947037572
 30
0.0
 10
-11.8175632041
 20
12.0086618225
 30
0.0
 10
-11.779362053
 20
12.1336954283
 30
0.0
 10
-11.7687536137
 20
12.2536726644
 30
0.0
 10
-11.7741219641
 20
12.3364932529
 30
0.0
 10
-11.7801567473
 20
12.3743605179
 30
0.0
 10
-11.7811290919
 20
12.3799411481
 30
0.0
  0
SPLINE
  5
588
100
AcDbEntity
  8
0
100
AcDbSpline
 62
7
  6
CONTINUOUS
 70
0
 71
3
 72
18
 73
14
 74
0
 42
0.0000001
 43
0.0000001
 44
0.0000000001
 40
0.0
 40
0.0
 40
0.0
 40
0.0
 40
0.1601550421
 40
0.3084158127
 40
0.4697908545
 40
0.5540785144
 40
0.6420406181
 40
0.733532906
 40
0.7800052131
 40
0.8277933673
 40
0.8957220479
 40
0.9595481454
 40
1.0
 40
1.0
 40
1.0
 40
1.0
 10
-12.1756144208
 20
12.7839482023
 30
0.0
 10
-12.0907712181
 20
12.8232427702
 30
0.0
 10
-11.9377270637
 20
12.9400375514
 30
0.0
 10
-11.8602879232
 20
13.220114309
 30
0.0
 10
-11.9281375359
 20
13.4523506991
 30
0.0
 10
-12.051873661
 20
13.6057077322
 30
0.0
 10
-12.1811047642
 20
13.6930438358
 30
0.0
 10
-12.3060246213
 20
13.7392455798
 30
0.0
 10
-12.413143449
 20
13.757678924
 30
0.0
 10
-12.507873834
 20
13.7626586374
 30
0.0
 10
-12.6128645269
 20
13.7552112653
 30
0.0
 10
-12.7110828689
 20
13.7313721037
 30
0.0
 10
-12.7674748376
 20
13.7078580833
 30
0.0
 10
-12.7887016197
 20
13.6974249997
 30
0.0
  0
SPLINE
  5
589
100
AcDbEntity
  8
0
100
AcDbSpline
 62
7
  6
CONTINUOUS
 70
0
 71
3
 72
16
 73
12
 74
0
 42
0.0000001
 43
0.0000001
 44
0.0000000001
 40
0.0
 40
0.0
 40
0.0
 40
0.0
 40
0.2754465559
 40
0.3950325473
 40
0.4565247543
 40
0.5218606479
 40
0.5875789382
 40
0.6488150883
 40
0.7664059399
 40
0.8813245124
 40
1.0
 40
1.0
 40
1.0
 40
1.0
 10
-12.8680265815
 20
13.1741769249
 30
0.0
 10
-12.852384909
 20
13.2749786968
 30
0.0
 10
-12.7962977287
 20
13.4275851753
 30
0.0
 10
-12.6468109803
 20
13.5175782682
 30
0.0
 10
-12.55806076
 20
13.5404160591
 30
0.0
 10
-12.4866137352
 20
13.5456793384
 30
0.0
 10
-12.4152964713
 20
13.5404242498
 30
0.0
 10
-12.3270819542
 20
13.5177287527
 30
0.0
 10
-12.2324473211
 20
13.4578712913
 30
0.0
 10
-12.1557881548
 20
13.3481395175
 30
0.0
 10
-12.1413524329
 20
13.2599585098
 30
0.0
 10
-12.1413524329
 20
13.2160085506
 30
0.0
  0
SPLINE
  5
58A
100
AcDbEntity
  8
0
100
AcDbSpline
 62
7
  6
CONTINUOUS
 70
0
 71
3
 72
13
 73
9
 74
0
 42
0.0000001
 43
0.0000001
 44
0.0000000001
 40
0.0
 40
0.0
 40
0.0
 40
0.0
 40
0.2581618591
 40
0.376389904
 40
0.4981370509
 40
0.6230494226
 40
0.7465876859
 40
1.0
 40
1.0
 40
1.0
 40
1.0
 10
-12.1413524329
 20
13.2160085506
 30
0.0
 10
-12.1413524329
 20
13.1630038329
 30
0.0
 10
-12.1546967049
 20
13.0830812753
 30
0.0
 10
-12.2124134281
 20
12.9969783398
 30
0.0
 10
-12.2707948702
 20
12.9487737631
 30
0.0
 10
-12.3376637108
 20
12.9120838561
 30
0.0
 10
-12.4342270381
 20
12.8753099326
 30
0.0
 10
-12.5124191755
 20
12.8652210419
 30
0.0
 10
-12.5644487364
 20
12.8652210419
 30
0.0
  0
SPLINE
  5
58B
100
AcDbEntity
  8
0
100
AcDbSpline
 62
7
  6
CONTINUOUS
 70
0
 71
3
 72
8
 73
4
 74
0
 42
0.0000001
 43
0.0000001
 44
0.0000000001
 40
0.0
 40
0.0
 40
0.0
 40
0.0
 40
1.0
 40
1.0
 40
1.0
 40
1.0
 10
-12.5644487364
 20
12.8652210419
 30
0.0
 10
-12.5784943663
 20
12.8652210419
 30
0.0
 10
-12.5925224098
 20
12.8666348266
 30
0.0
 10
-12.6064795632
 20
12.8682088623
 30
0.0
  0
SPLINE
  5
58C
100
AcDbEntity
  8
0
100
AcDbSpline
 62
7
  6
CONTINUOUS
 70
0
 71
3
 72
9
 73
5
 74
0
 42
0.0000001
 43
0.0000001
 44
0.0000000001
 40
0.0
 40
0.0
 40
0.0
 40
0.0
 40
0.290916541
 40
1.0
 40
1.0
 40
1.0
 40
1.0
 10
-12.6359609216
 20
12.6387328153
 30
0.0
 10
-12.6181628452
 20
12.6432931781
 30
0.0
 10
-12.5567439009
 20
12.6577088324
 30
0.0
 10
-12.4936965655
 20
12.6674173698
 30
0.0
 10
-12.4489139089
 20
12.6674173698
 30
0.0
  0
SPLINE
  5
58D
100
AcDbEntity
  8
0
100
AcDbSpline
 62
7
  6
CONTINUOUS
 70
0
 71
3
 72
11
 73
7
 74
0
 42
0.0000001
 43
0.0000001
 44
0.0000000001
 40
0.0
 40
0.0
 40
0.0
 40
0.0
 40
0.2244031992
 40
0.45122171
 40
0.7264139648
 40
1.0
 40
1.0
 40
1.0
 40
1.0
 10
-14.2779496451
 20
13.4749659561
 30
0.0
 10
-14.2455888365
 20
13.4972703871
 30
0.0
 10
-14.1733137352
 20
13.5329306897
 30
0.0
 10
-14.0457358477
 20
13.5507512505
 30
0.0
 10
-13.9081536866
 20
13.5268198105
 30
0.0
 10
-13.8277227952
 20
13.4680497716
 30
0.0
 10
-13.7946954186
 20
13.4333335313
 30
0.0
  0
SPLINE
  5
58E
100
AcDbEntity
  8
0
100
AcDbSpline
 62
7
  6
CONTINUOUS
 70
0
 71
3
 72
9
 73
5
 74
0
 42
0.0000001
 43
0.0000001
 44
0.0000000001
 40
0.0
 40
0.0
 40
0.0
 40
0.0
 40
0.203826354
 40
1.0
 40
1.0
 40
1.0
 40
1.0
 10
-13.7946954186
 20
13.4333335313
 30
0.0
 10
-13.7834920982
 20
13.4211790053
 30
0.0
 10
-13.7352244821
 20
13.3553478015
 30
0.0
 10
-13.7110284251
 20
13.2753799598
 30
0.0
 10
-13.6966900844
 20
13.2124229327
 30
0.0
  0
SPLINE
  5
58F
100
AcDbEntity
  8
0
100
AcDbSpline
 62
7
  6
CONTINUOUS
 70
0
 71
3
 72
25
 73
21
 74
0
 42
0.0000001
 43
0.0000001
 44
0.0000000001
 40
0.0
 40
0.0
 40
0.0
 40
0.0
 40
0.0813036513
 40
0.1558443927
 40
0.1931854589
 40
0.2308980322
 40
0.2703874228
 40
0.3128830292
 40
0.3696162741
 40
0.422537084
 40
0.4744096874
 40
0.5281602751
 40
0.5952875065
 40
0.6716203949
 40
0.7599173402
 40
0.8091603211
 40
0.86200692
 40
0.9091882896
 40
0.9530406072
 40
1.0
 40
1.0
 40
1.0
 40
1.0
 10
-13.4417166989
 20
13.2379202712
 30
0.0
 10
-13.4513786017
 20
13.313075458
 30
0.0
 10
-13.488909905
 20
13.4568073546
 30
0.0
 10
-13.6011259174
 20
13.6041051653
 30
0.0
 10
-13.7151831371
 20
13.6856534493
 30
0.0
 10
-13.8132114505
 20
13.7296638579
 30
0.0
 10
-13.9223563372
 20
13.7555089466
 30
0.0
 10
-14.0517670716
 20
13.7641076278
 30
0.0
 10
-14.1939505897
 20
13.751723789
 30
0.0
 10
-14.3388556366
 20
13.7060438836
 30
0.0
 10
-14.4660456343
 20
13.6280553147
 30
0.0
 10
-14.5809723087
 20
13.5133046503
 30
0.0
 10
-14.6767703231
 20
13.3542459613
 30
0.0
 10
-14.7454461729
 20
13.1481349479
 30
0.0
 10
-14.7777108162
 20
12.950790497
 30
0.0
 10
-14.790956605
 20
12.7737936607
 30
0.0
 10
-14.7941118866
 20
12.6346521663
 30
0.0
 10
-14.7911959824
 20
12.5005313345
 30
0.0
 10
-14.7814104804
 20
12.3722600371
 30
0.0
 10
-14.7694059912
 20
12.2883093207
 30
0.0
 10
-14.7612332599
 20
12.2452762845
 30
0.0
  0
SPLINE
  5
590
100
AcDbEntity
  8
0
100
AcDbSpline
 62
7
  6
CONTINUOUS
 70
0
 71
3
 72
22
 73
18
 74
0
 42
0.0000001
 43
0.0000001
 44
0.0000000001
 40
0.0
 40
0.0
 40
0.0
 40
0.0
 40
0.1325874029
 40
0.1984592486
 40
0.2682080929
 40
0.3098526969
 40
0.3498953844
 40
0.4279699044
 40
0.5060205338
 40
0.5877521825
 40
0.6727207475
 40
0.7156677513
 40
0.7596571959
 40
0.8247385073
 40
0.8853204047
 40
0.9435755901
 40
1.0
 40
1.0
 40
1.0
 40
1.0
 10
-14.5891964368
 20
11.8443313977
 30
0.0
 10
-14.5254499316
 20
11.769841123
 30
0.0
 10
-14.4052712719
 20
11.6749517184
 30
0.0
 10
-14.2146690354
 20
11.6151367672
 30
0.0
 10
-14.083178891
 20
11.6031912029
 30
0.0
 10
-13.9711444365
 20
11.6096069024
 30
0.0
 10
-13.8548181502
 20
11.6319845851
 30
0.0
 10
-13.7192787771
 20
11.6893312334
 30
0.0
 10
-13.581856555
 20
11.8032637727
 30
0.0
 10
-13.4812786327
 20
11.9563244889
 30
0.0
 10
-13.4281788919
 20
12.1035256432
 30
0.0
 10
-13.4068696751
 20
12.2291213273
 30
0.0
 10
-13.4010147166
 20
12.3415737241
 30
0.0
 10
-13.4101977071
 20
12.4672693269
 30
0.0
 10
-13.4441409371
 20
12.5998015227
 30
0.0
 10
-13.501269981
 20
12.7172200634
 30
0.0
 10
-13.5537825697
 20
12.7844847441
 30
0.0
 10
-13.5823828649
 20
12.8149789492
 30
0.0
  0
SPLINE
  5
591
100
AcDbEntity
  8
0
100
AcDbSpline
 62
7
  6
CONTINUOUS
 70
0
 71
3
 72
11
 73
7
 74
0
 42
0.0000001
 43
0.0000001
 44
0.0000000001
 40
0.0
 40
0.0
 40
0.0
 40
0.0
 40
0.3426107936
 40
0.6044566108
 40
0.8143265955
 40
1.0
 40
1.0
 40
1.0
 40
1.0
 10
-14.5381022565
 20
12.7293679072
 30
0.0
 10
-14.5372769755
 20
12.8225643298
 30
0.0
 10
-14.5290687992
 20
12.9872918717
 30
0.0
 10
-14.4776902052
 20
13.2048858478
 30
0.0
 10
-14.3922823947
 20
13.3639826995
 30
0.0
 10
-14.3180324509
 20
13.4442335199
 30
0.0
 10
-14.2779496451
 20
13.4749659561
 30
0.0
  0
SPLINE
  5
592
100
AcDbEntity
  8
0
100
AcDbSpline
 62
7
  6
CONTINUOUS
 70
0
 71
3
 72
9
 73
5
 74
0
 42
0.0000001
 43
0.0000001
 44
0.0000000001
 40
0.0
 40
0.0
 40
0.0
 40
0.0
 40
0.6001364234
 40
1.0
 40
1.0
 40
1.0
 40
1.0
 10
-16.1571832543
 20
12.6833532551
 30
0.0
 10
-16.1571832543
 20
12.8292319047
 30
0.0
 10
-16.1462388977
 20
13.0709160612
 30
0.0
 10
-16.0784357674
 20
13.3136483308
 30
0.0
 10
-16.0227245267
 20
13.3932947145
 30
0.0
  0
SPLINE
  5
593
100
AcDbEntity
  8
0
100
AcDbSpline
 62
7
  6
CONTINUOUS
 70
0
 71
3
 72
13
 73
9
 74
0
 42
0.0000001
 43
0.0000001
 44
0.0000000001
 40
0.0
 40
0.0
 40
0.0
 40
0.0
 40
0.2418297111
 40
0.3587506684
 40
0.4819025475
 40
0.6099630364
 40
0.7339475358
 40
1.0
 40
1.0
 40
1.0
 40
1.0
 10
-16.0227245267
 20
13.3932947145
 30
0.0
 10
-15.9883187205
 20
13.4393315125
 30
0.0
 10
-15.9223190588
 20
13.4995962948
 30
0.0
 10
-15.813293633
 20
13.5381593929
 30
0.0
 10
-15.725556474
 20
13.5470305351
 30
0.0
 10
-15.6360735737
 20
13.5372792531
 30
0.0
 10
-15.5199643082
 20
13.4923254078
 30
0.0
 10
-15.4507190618
 20
13.4244189934
 30
0.0
 10
-15.413676816
 20
13.3731757056
 30
0.0
  0
SPLINE
  5
594
100
AcDbEntity
  8
0
100
AcDbSpline
 62
7
  6
CONTINUOUS
 70
0
 71
3
 72
17
 73
13
 74
0
 42
0.0000001
 43
0.0000001
 44
0.0000000001
 40
0.0
 40
0.0
 40
0.0
 40
0.0
 40
0.0844580526
 40
0.1939587312
 40
0.3316668575
 40
0.4116386184
 40
0.4991820578
 40
0.5872976204
 40
0.6677250704
 40
0.8060064882
 40
0.915671004
 40
1.0
 40
1.0
 40
1.0
 40
1.0
 10
-15.413676816
 20
13.3731757056
 30
0.0
 10
-15.3902500019
 20
13.3407676551
 30
0.0
 10
-15.3512392392
 20
13.2560245712
 30
0.0
 10
-15.3153014832
 20
13.1028050011
 30
0.0
 10
-15.298512172
 20
12.9484729156
 30
0.0
 10
-15.2913879625
 20
12.8041297159
 30
0.0
 10
-15.2896879321
 20
12.6830824301
 30
0.0
 10
-15.2914010282
 20
12.5618188414
 30
0.0
 10
-15.2986110188
 20
12.4167214341
 30
0.0
 10
-15.3155926726
 20
12.2618321502
 30
0.0
 10
-15.3519503903
 20
12.108410422
 30
0.0
 10
-15.3915202624
 20
12.0238337531
 30
0.0
 10
-15.415270424
 20
11.9917378983
 30
0.0
  0
SPLINE
  5
595
100
AcDbEntity
  8
0
100
AcDbSpline
 62
7
  6
CONTINUOUS
 70
0
 71
3
 72
13
 73
9
 74
0
 42
0.0000001
 43
0.0000001
 44
0.0000000001
 40
0.0
 40
0.0
 40
0.0
 40
0.0
 40
0.2591154171
 40
0.3783560512
 40
0.500277571
 40
0.6221918694
 40
0.7413669728
 40
1.0
 40
1.0
 40
1.0
 40
1.0
 10
-15.415270424
 20
11.9917378983
 30
0.0
 10
-15.4526507839
 20
11.9412222585
 30
0.0
 10
-15.5211876122
 20
11.8742973
 30
0.0
 10
-15.6353732452
 20
11.8294819959
 30
0.0
 10
-15.7237273998
 20
11.8194554456
 30
0.0
 10
-15.812061689
 20
11.8294546286
 30
0.0
 10
-15.9261800292
 20
11.8740364773
 30
0.0
 10
-15.9947759861
 20
11.9406930429
 30
0.0
 10
-16.0321864768
 20
11.9910406948
 30
0.0
  0
SPLINE
  5
596
100
AcDbEntity
  8
0
100
AcDbSpline
 62
7
  6
CONTINUOUS
 70
0
 71
3
 72
9
 73
5
 74
0
 42
0.0000001
 43
0.0000001
 44
0.0000000001
 40
0.0
 40
0.0
 40
0.0
 40
0.0
 40
0.3855604367
 40
1.0
 40
1.0
 40
1.0
 40
1.0
 10
-16.0321864768
 20
11.9910406948
 30
0.0
 10
-16.0866083745
 20
12.0642825772
 30
0.0
 10
-16.1474648743
 20
12.3039061976
 30
0.0
 10
-16.1571832543
 20
12.5379386781
 30
0.0
 10
-16.1571832543
 20
12.6833532551
 30
0.0
  0
SPLINE
  5
597
100
AcDbEntity
  8
0
100
AcDbSpline
 62
7
  6
CONTINUOUS
 70
0
 71
3
 72
9
 73
5
 74
0
 42
0.0000001
 43
0.0000001
 44
0.0000000001
 40
0.0
 40
0.0
 40
0.0
 40
0.0
 40
0.203826354
 40
1.0
 40
1.0
 40
1.0
 40
1.0
 10
-17.0583547529
 20
13.4333335313
 30
0.0
 10
-17.0471514324
 20
13.4211790053
 30
0.0
 10
-16.9988838164
 20
13.3553478015
 30
0.0
 10
-16.9746877593
 20
13.2753799598
 30
0.0
 10
-16.9603494186
 20
13.2124229327
 30
0.0
  0
SPLINE
  5
598
100
AcDbEntity
  8
0
100
AcDbSpline
 62
7
  6
CONTINUOUS
 70
0
 71
3
 72
25
 73
21
 74
0
 42
0.0000001
 43
0.0000001
 44
0.0000000001
 40
0.0
 40
0.0
 40
0.0
 40
0.0
 40
0.0813036513
 40
0.1558443927
 40
0.1931854589
 40
0.2308980322
 40
0.2703874228
 40
0.3128830292
 40
0.3696162741
 40
0.422537084
 40
0.4744096874
 40
0.5281602751
 40
0.5952875065
 40
0.6716203949
 40
0.7599173402
 40
0.8091603211
 40
0.86200692
 40
0.9091882896
 40
0.9530406072
 40
1.0
 40
1.0
 40
1.0
 40
1.0
 10
-16.7053760331
 20
13.2379202712
 30
0.0
 10
-16.715037936
 20
13.313075458
 30
0.0
 10
-16.7525692393
 20
13.4568073546
 30
0.0
 10
-16.8647852516
 20
13.6041051653
 30
0.0
 10
-16.9788424714
 20
13.6856534493
 30
0.0
 10
-17.0768707848
 20
13.7296638579
 30
0.0
 10
-17.1860156714
 20
13.7555089466
 30
0.0
 10
-17.3154264058
 20
13.7641076278
 30
0.0
 10
-17.4576099239
 20
13.751723789
 30
0.0
 10
-17.6025149709
 20
13.7060438836
 30
0.0
 10
-17.7297049686
 20
13.6280553147
 30
0.0
 10
-17.8446316429
 20
13.5133046503
 30
0.0
 10
-17.9404296573
 20
13.3542459613
 30
0.0
 10
-18.0091055071
 20
13.1481349479
 30
0.0
 10
-18.0413701504
 20
12.950790497
 30
0.0
 10
-18.0546159393
 20
12.7737936607
 30
0.0
 10
-18.0577712208
 20
12.6346521663
 30
0.0
 10
-18.0548553166
 20
12.5005313345
 30
0.0
 10
-18.0450698146
 20
12.3722600371
 30
0.0
 10
-18.0330653255
 20
12.2883093207
 30
0.0
 10
-18.0248925942
 20
12.2452762845
 30
0.0
  0
SPLINE
  5
599
100
AcDbEntity
  8
0
100
AcDbSpline
 62
7
  6
CONTINUOUS
 70
0
 71
3
 72
22
 73
18
 74
0
 42
0.0000001
 43
0.0000001
 44
0.0000000001
 40
0.0
 40
0.0
 40
0.0
 40
0.0
 40
0.1325874029
 40
0.1984592486
 40
0.2682080929
 40
0.3098526969
 40
0.3498953844
 40
0.4279699044
 40
0.5060205338
 40
0.5877521825
 40
0.6727207475
 40
0.7156677513
 40
0.7596571959
 40
0.8247385073
 40
0.8853204047
 40
0.9435755901
 40
1.0
 40
1.0
 40
1.0
 40
1.0
 10
-17.8528557711
 20
11.8443313977
 30
0.0
 10
-17.7891092658
 20
11.769841123
 30
0.0
 10
-17.6689306061
 20
11.6749517184
 30
0.0
 10
-17.4783283696
 20
11.6151367672
 30
0.0
 10
-17.3468382252
 20
11.6031912029
 30
0.0
 10
-17.2348037707
 20
11.6096069024
 30
0.0
 10
-17.1184774845
 20
11.6319845851
 30
0.0
 10
-16.9829381113
 20
11.6893312334
 30
0.0
 10
-16.8455158892
 20
11.8032637727
 30
0.0
 10
-16.744937967
 20
11.9563244889
 30
0.0
 10
-16.6918382261
 20
12.1035256432
 30
0.0
 10
-16.6705290093
 20
12.2291213273
 30
0.0
 10
-16.6646740508
 20
12.3415737241
 30
0.0
 10
-16.6738570414
 20
12.4672693269
 30
0.0
 10
-16.7078002714
 20
12.5998015227
 30
0.0
 10
-16.7649293153
 20
12.7172200634
 30
0.0
 10
-16.817441904
 20
12.7844847441
 30
0.0
 10
-16.8460421991
 20
12.8149789492
 30
0.0
  0
SPLINE
  5
59A
100
AcDbEntity
  8
0
100
AcDbSpline
 62
7
  6
CONTINUOUS
 70
0
 71
3
 72
11
 73
7
 74
0
 42
0.0000001
 43
0.0000001
 44
0.0000000001
 40
0.0
 40
0.0
 40
0.0
 40
0.0
 40
0.3426107936
 40
0.6044566108
 40
0.8143265955
 40
1.0
 40
1.0
 40
1.0
 40
1.0
 10
-17.8017615907
 20
12.7293679072
 30
0.0
 10
-17.8009363097
 20
12.8225643298
 30
0.0
 10
-17.7927281334
 20
12.9872918717
 30
0.0
 10
-17.7413495395
 20
13.2048858478
 30
0.0
 10
-17.655941729
 20
13.3639826995
 30
0.0
 10
-17.5816917851
 20
13.4442335199
 30
0.0
 10
-17.5416089793
 20
13.4749659561
 30
0.0
  0
SPLINE
  5
59B
100
AcDbEntity
  8
0
100
AcDbSpline
 62
7
  6
CONTINUOUS
 70
0
 71
3
 72
11
 73
7
 74
0
 42
0.0000001
 43
0.0000001
 44
0.0000000001
 40
0.0
 40
0.0
 40
0.0
 40
0.0
 40
0.2244031992
 40
0.45122171
 40
0.7264139648
 40
1.0
 40
1.0
 40
1.0
 40
1.0
 10
-17.5416089793
 20
13.4749659561
 30
0.0
 10
-17.5092481708
 20
13.4972703871
 30
0.0
 10
-17.4369730695
 20
13.5329306897
 30
0.0
 10
-17.309395182
 20
13.5507512505
 30
0.0
 10
-17.1718130209
 20
13.5268198105
 30
0.0
 10
-17.0913821294
 20
13.4680497716
 30
0.0
 10
-17.0583547529
 20
13.4333335313
 30
0.0
  0
SPLINE
  5
59C
100
AcDbEntity
  8
0
100
AcDbSpline
 62
7
  6
CONTINUOUS
 70
0
 71
3
 72
24
 73
20
 74
0
 42
0.0000001
 43
0.0000001
 44
0.0000000001
 40
0.0
 40
0.0
 40
0.0
 40
0.0
 40
0.1124390324
 40
0.1664524093
 40
0.2215494064
 40
0.2770680642
 40
0.3324309675
 40
0.389722399
 40
0.4508296207
 40
0.5185880958
 40
0.5822044
 40
0.6440131943
 40
0.7065518987
 40
0.7681557336
 40
0.8270541487
 40
0.8858445145
 40
0.947137939
 40
0.9921903883
 40
1.0
 40
1.0
 40
1.0
 40
1.0
 10
-19.6758159741
 20
12.1925293907
 30
0.0
 10
-19.6677314436
 20
12.1114353885
 30
0.0
 10
-19.6366991025
 20
11.991196816
 30
0.0
 10
-19.55126638
 20
11.8541608038
 30
0.0
 10
-19.4692725279
 20
11.7664860584
 30
0.0
 10
-19.3719334857
 20
11.6945575527
 30
0.0
 10
-19.2607150714
 20
11.6427350874
 30
0.0
 10
-19.1377962166
 20
11.612161763
 30
0.0
 10
-19.0026861648
 20
11.6026840529
 30
0.0
 10
-18.8629404454
 20
11.613263493
 30
0.0
 10
-18.7267060351
 20
11.6492124948
 30
0.0
 10
-18.6037904166
 20
11.7102513982
 30
0.0
 10
-18.4974128201
 20
11.7943823549
 30
0.0
 10
-18.4093931408
 20
11.8947037572
 30
0.0
 10
-18.3448818726
 20
12.0086618225
 30
0.0
 10
-18.3066807215
 20
12.1336954283
 30
0.0
 10
-18.2960722822
 20
12.2536726644
 30
0.0
 10
-18.3014406326
 20
12.3364932529
 30
0.0
 10
-18.3074754157
 20
12.3743605179
 30
0.0
 10
-18.3084477603
 20
12.3799411481
 30
0.0
  0
SPLINE
  5
59D
100
AcDbEntity
  8
0
100
AcDbSpline
 62
7
  6
CONTINUOUS
 70
0
 71
3
 72
18
 73
14
 74
0
 42
0.0000001
 43
0.0000001
 44
0.0000000001
 40
0.0
 40
0.0
 40
0.0
 40
0.0
 40
0.1601550421
 40
0.3084158127
 40
0.4697908545
 40
0.5540785144
 40
0.6420406181
 40
0.733532906
 40
0.7800052131
 40
0.8277933673
 40
0.8957220479
 40
0.9595481454
 40
1.0
 40
1.0
 40
1.0
 40
1.0
 10
-18.7029330893
 20
12.7839482023
 30
0.0
 10
-18.6180898865
 20
12.8232427702
 30
0.0
 10
-18.4650457322
 20
12.9400375514
 30
0.0
 10
-18.3876065917
 20
13.220114309
 30
0.0
 10
-18.4554562043
 20
13.4523506991
 30
0.0
 10
-18.5791923295
 20
13.6057077322
 30
0.0
 10
-18.7084234327
 20
13.6930438358
 30
0.0
 10
-18.8333432898
 20
13.7392455798
 30
0.0
 10
-18.9404621175
 20
13.757678924
 30
0.0
 10
-19.0351925025
 20
13.7626586374
 30
0.0
 10
-19.1401831954
 20
13.7552112653
 30
0.0
 10
-19.2384015373
 20
13.7313721037
 30
0.0
 10
-19.2947935061
 20
13.7078580833
 30
0.0
 10
-19.3160202882
 20
13.6974249997
 30
0.0
  0
SPLINE
  5
59E
100
AcDbEntity
  8
0
100
AcDbSpline
 62
7
  6
CONTINUOUS
 70
0
 71
3
 72
16
 73
12
 74
0
 42
0.0000001
 43
0.0000001
 44
0.0000000001
 40
0.0
 40
0.0
 40
0.0
 40
0.0
 40
0.2754465559
 40
0.3950325473
 40
0.4565247543
 40
0.5218606479
 40
0.5875789382
 40
0.6488150883
 40
0.7664059399
 40
0.8813245124
 40
1.0
 40
1.0
 40
1.0
 40
1.0
 10
-19.39534525
 20
13.1741769249
 30
0.0
 10
-19.3797035775
 20
13.2749786968
 30
0.0
 10
-19.3236163972
 20
13.4275851753
 30
0.0
 10
-19.1741296488
 20
13.5175782682
 30
0.0
 10
-19.0853794284
 20
13.5404160591
 30
0.0
 10
-19.0139324037
 20
13.5456793384
 30
0.0
 10
-18.9426151398
 20
13.5404242498
 30
0.0
 10
-18.8544006227
 20
13.5177287527
 30
0.0
 10
-18.7597659895
 20
13.4578712913
 30
0.0
 10
-18.6831068233
 20
13.3481395175
 30
0.0
 10
-18.6686711014
 20
13.2599585098
 30
0.0
 10
-18.6686711014
 20
13.2160085506
 30
0.0
  0
SPLINE
  5
59F
100
AcDbEntity
  8
0
100
AcDbSpline
 62
7
  6
CONTINUOUS
 70
0
 71
3
 72
13
 73
9
 74
0
 42
0.0000001
 43
0.0000001
 44
0.0000000001
 40
0.0
 40
0.0
 40
0.0
 40
0.0
 40
0.2581618591
 40
0.376389904
 40
0.4981370509
 40
0.6230494226
 40
0.7465876859
 40
1.0
 40
1.0
 40
1.0
 40
1.0
 10
-18.6686711014
 20
13.2160085506
 30
0.0
 10
-18.6686711014
 20
13.1630038329
 30
0.0
 10
-18.6820153734
 20
13.0830812753
 30
0.0
 10
-18.7397320966
 20
12.9969783398
 30
0.0
 10
-18.7981135387
 20
12.9487737631
 30
0.0
 10
-18.8649823793
 20
12.9120838561
 30
0.0
 10
-18.9615457066
 20
12.8753099326
 30
0.0
 10
-19.039737844
 20
12.8652210419
 30
0.0
 10
-19.0917674049
 20
12.8652210419
 30
0.0
  0
SPLINE
  5
5A0
100
AcDbEntity
  8
0
100
AcDbSpline
 62
7
  6
CONTINUOUS
 70
0
 71
3
 72
8
 73
4
 74
0
 42
0.0000001
 43
0.0000001
 44
0.0000000001
 40
0.0
 40
0.0
 40
0.0
 40
0.0
 40
1.0
 40
1.0
 40
1.0
 40
1.0
 10
-19.0917674049
 20
12.8652210419
 30
0.0
 10
-19.1058130347
 20
12.8652210419
 30
0.0
 10
-19.1198410782
 20
12.8666348266
 30
0.0
 10
-19.1337982316
 20
12.8682088623
 30
0.0
  0
SPLINE
  5
5A1
100
AcDbEntity
  8
0
100
AcDbSpline
 62
7
  6
CONTINUOUS
 70
0
 71
3
 72
9
 73
5
 74
0
 42
0.0000001
 43
0.0000001
 44
0.0000000001
 40
0.0
 40
0.0
 40
0.0
 40
0.0
 40
0.290916541
 40
1.0
 40
1.0
 40
1.0
 40
1.0
 10
-19.1632795901
 20
12.6387328153
 30
0.0
 10
-19.1454815137
 20
12.6432931781
 30
0.0
 10
-19.0840625693
 20
12.6577088324
 30
0.0
 10
-19.021015234
 20
12.6674173698
 30
0.0
 10
-18.9762325774
 20
12.6674173698
 30
0.0
  0
SPLINE
  5
5A2
100
AcDbEntity
  8
0
100
AcDbSpline
 62
7
  6
CONTINUOUS
 70
0
 71
3
 72
22
 73
18
 74
0
 42
0.0000001
 43
0.0000001
 44
0.0000000001
 40
0.0
 40
0.0
 40
0.0
 40
0.0
 40
0.1228859419
 40
0.2388293271
 40
0.2970197662
 40
0.353774889
 40
0.411662805
 40
0.4731097558
 40
0.5376989699
 40
0.5990398944
 40
0.6596136583
 40
0.7219929987
 40
0.7846275735
 40
0.8460899635
 40
0.9090554421
 40
0.9760193748
 40
1.0
 40
1.0
 40
1.0
 40
1.0
 10
-18.9762325774
 20
12.6674173698
 30
0.0
 10
-18.9195166404
 20
12.6674173698
 30
0.0
 10
-18.8073810464
 20
12.6510915522
 30
0.0
 10
-18.6886469908
 20
12.5746112196
 30
0.0
 10
-18.6190578932
 20
12.4931472372
 30
0.0
 10
-18.5808654805
 20
12.4223732044
 30
0.0
 10
-18.5583876404
 20
12.3436494561
 30
0.0
 10
-18.5515619045
 20
12.2586035015
 30
0.0
 10
-18.5587097563
 20
12.1719676493
 30
0.0
 10
-18.5824270503
 20
12.0885885141
 30
0.0
 10
-18.6226249132
 20
12.0129108785
 30
0.0
 10
-18.6777119599
 20
11.9466351054
 30
0.0
 10
-18.7443927493
 20
11.8913369164
 30
0.0
 10
-18.8215752038
 20
11.8511761241
 30
0.0
 10
-18.9073117794
 20
11.8275327393
 30
0.0
 10
-18.9784710993
 20
11.8219031818
 30
0.0
 10
-19.0205178797
 20
11.8231639004
 30
0.0
 10
-19.0315774991
 20
11.8238542844
 30
0.0
  0
SPLINE
  5
5A3
100
AcDbEntity
  8
0
100
AcDbSpline
 62
7
  6
CONTINUOUS
 70
0
 71
3
 72
11
 73
7
 74
0
 42
0.0000001
 43
0.0000001
 44
0.0000000001
 40
0.0
 40
0.0
 40
0.0
 40
0.0
 40
0.2023283395
 40
0.445343536
 40
0.7157738534
 40
1.0
 40
1.0
 40
1.0
 40
1.0
 10
3.8391044052
 20
16.8281416723
 30
0.0
 10
3.8144139082
 20
16.778470978
 30
0.0
 10
3.7442544082
 20
16.6770492007
 30
0.0
 10
3.6052880436
 20
16.5376759453
 30
0.0
 10
3.4304857596
 20
16.4049815558
 30
0.0
 10
3.296383304
 20
16.3320273494
 30
0.0
 10
3.2257738731
 20
16.2990719946
 30
0.0
  0
SPLINE
  5
5A4
100
AcDbEntity
  8
0
100
AcDbSpline
 62
7
  6
CONTINUOUS
 70
0
 71
3
 72
9
 73
5
 74
0
 42
0.0000001
 43
0.0000001
 44
0.0000000001
 40
0.0
 40
0.0
 40
0.0
 40
0.0
 40
0.2212493112
 40
1.0
 40
1.0
 40
1.0
 40
1.0
 10
3.2257738731
 20
16.0488794331
 30
0.0
 10
3.2469747383
 20
16.056639203
 30
0.0
 10
3.3417004458
 20
16.094716888
 30
0.0
 10
3.4321850504
 20
16.1426734194
 30
0.0
 10
3.5008663647
 20
16.1826407627
 30
0.0
  0
SPLINE
  5
5A5
100
AcDbEntity
  8
0
100
AcDbSpline
 62
7
  6
CONTINUOUS
 70
0
 71
3
 72
9
 73
5
 74
0
 42
0.0000001
 43
0.0000001
 44
0.0000000001
 40
0.0
 40
0.0
 40
0.0
 40
0.0
 40
0.2798369702
 40
1.0
 40
1.0
 40
1.0
 40
1.0
 10
3.5008663647
 20
16.1826407627
 30
0.0
 10
3.5254871778
 20
16.1969682184
 30
0.0
 10
3.6123563286
 20
16.2499241092
 30
0.0
 10
3.6951350465
 20
16.3105270323
 30
0.0
 10
3.7484693133
 20
16.360823331
 30
0.0
  0
SPLINE
  5
5A6
100
AcDbEntity
  8
0
100
AcDbSpline
 62
7
  6
CONTINUOUS
 70
0
 71
3
 72
9
 73
5
 74
0
 42
0.0000001
 43
0.0000001
 44
0.0000000001
 40
0.0
 40
0.0
 40
0.0
 40
0.0
 40
0.7097160398
 40
1.0
 40
1.0
 40
1.0
 40
1.0
 10
1.0903718669
 20
16.5986656253
 30
0.0
 10
1.1213109974
 20
16.4927770872
 30
0.0
 10
1.1710876032
 20
16.3454060766
 30
0.0
 10
1.2238248577
 20
16.1992023461
 30
0.0
 10
1.2393718783
 20
16.1568446227
 30
0.0
  0
SPLINE
  5
5A7
100
AcDbEntity
  8
0
100
AcDbSpline
 62
7
  6
CONTINUOUS
 70
0
 71
3
 72
9
 73
5
 74
0
 42
0.0000001
 43
0.0000001
 44
0.0000000001
 40
0.0
 40
0.0
 40
0.0
 40
0.0
 40
0.0986341094
 40
1.0
 40
1.0
 40
1.0
 40
1.0
 10
-1.2755021912
 20
14.9540872889
 30
0.0
 10
-1.2327410256
 20
15.0073395773
 30
0.0
 10
-0.7992355141
 20
15.5472591496
 30
0.0
 10
-0.3651676413
 20
16.0867269092
 30
0.0
 10
0.0258578852
 20
16.5731682868
 30
0.0
  0
SPLINE
  5
5A8
100
AcDbEntity
  8
0
100
AcDbSpline
 62
7
  6
CONTINUOUS
 70
0
 71
3
 72
9
 73
5
 74
0
 42
0.0000001
 43
0.0000001
 44
0.0000000001
 40
0.0
 40
0.0
 40
0.0
 40
0.0
 40
0.2319301259
 40
1.0
 40
1.0
 40
1.0
 40
1.0
 10
-0.300029888
 20
16.5731682868
 30
0.0
 10
-0.3178498622
 20
16.5544965179
 30
0.0
 10
-0.3936119809
 20
16.4729683359
 30
0.0
 10
-0.4654164921
 20
16.3878191029
 30
0.0
 10
-0.5189484766
 20
16.3211829162
 30
0.0
  0
SPLINE
  5
5A9
100
AcDbEntity
  8
0
100
AcDbSpline
 62
7
  6
CONTINUOUS
 70
0
 71
3
 72
25
 73
21
 74
0
 42
0.0000001
 43
0.0000001
 44
0.0000000001
 40
0.0
 40
0.0
 40
0.0
 40
0.0
 40
0.089554156
 40
0.1730942529
 40
0.2150045645
 40
0.2575308525
 40
0.3019355513
 40
0.3493312319
 40
0.3919214172
 40
0.4333078997
 40
0.4741537433
 40
0.515148254
 40
0.5959439908
 40
0.6786940172
 40
0.767379547
 40
0.8147639027
 40
0.8649502274
 40
0.9117017452
 40
0.9573500184
 40
1.0
 40
1.0
 40
1.0
 40
1.0
 10
-5.8767759888
 20
16.2377190602
 30
0.0
 10
-5.9029794056
 20
16.3289964492
 30
0.0
 10
-5.9761387318
 20
16.5009590203
 30
0.0
 10
-6.1345366143
 20
16.6718121141
 30
0.0
 10
-6.286282189
 20
16.766634337
 30
0.0
 10
-6.4138380802
 20
16.8175682597
 30
0.0
 10
-6.5536898593
 20
16.8475935715
 30
0.0
 10
-6.6963708129
 20
16.8564672279
 30
0.0
 10
-6.8357564139
 20
16.8485879753
 30
0.0
 10
-6.9663279746
 20
16.824734812
 30
0.0
 10
-7.0910654626
 20
16.7845367214
 30
0.0
 10
-7.2475296332
 20
16.711175729
 30
0.0
 10
-7.4232261516
 20
16.5777411718
 30
0.0
 10
-7.5765322607
 20
16.3537410534
 30
0.0
 10
-7.6523585873
 20
16.1316854409
 30
0.0
 10
-7.6823157692
 20
15.9361477047
 30
0.0
 10
-7.6894385436
 20
15.7829995011
 30
0.0
 10
-7.6826406419
 20
15.6317480459
 30
0.0
 10
-7.6621546161
 20
15.4897608541
 30
0.0
 10
-7.639590947
 20
15.398732993
 30
0.0
 10
-7.6266134439
 20
15.3553891568
 30
0.0
  0
SPLINE
  5
5AA
100
AcDbEntity
  8
0
100
AcDbSpline
 62
7
  6
CONTINUOUS
 70
0
 71
3
 72
11
 73
7
 74
0
 42
0.0000001
 43
0.0000001
 44
0.0000000001
 40
0.0
 40
0.0
 40
0.0
 40
0.0
 40
0.2525992429
 40
0.4888102636
 40
0.730558892
 40
1.0
 40
1.0
 40
1.0
 40
1.0
 10
-6.6974714518
 20
14.6736165649
 30
0.0
 10
-6.5951707322
 20
14.6736165649
 30
0.0
 10
-6.3949077231
 20
14.6995172499
 30
0.0
 10
-6.1276434534
 20
14.8414803095
 30
0.0
 10
-5.9268387412
 20
15.0768885591
 30
0.0
 10
-5.8526930619
 20
15.274022424
 30
0.0
 10
-5.8257813117
 20
15.3797733999
 30
0.0
  0
SPLINE
  5
5AB
100
AcDbEntity
  8
0
100
AcDbSpline
 62
7
  6
CONTINUOUS
 70
0
 71
3
 72
18
 73
14
 74
0
 42
0.0000001
 43
0.0000001
 44
0.0000000001
 40
0.0
 40
0.0
 40
0.0
 40
0.0
 40
0.1872192563
 40
0.2722332145
 40
0.3161368592
 40
0.3626272512
 40
0.5153504847
 40
0.5933000921
 40
0.6758952811
 40
0.768047691
 40
0.8181006916
 40
0.8713085931
 40
1.0
 40
1.0
 40
1.0
 40
1.0
 10
-6.1062520357
 20
15.4500903792
 30
0.0
 10
-6.1385555021
 20
15.3014270392
 30
0.0
 10
-6.2425758204
 20
15.0803543389
 30
0.0
 10
-6.474195806
 20
14.9541133134
 30
0.0
 10
-6.6134096891
 20
14.9210162253
 30
0.0
 10
-6.8107502095
 20
14.9065320934
 30
0.0
 10
-7.0418971867
 20
14.9661522903
 30
0.0
 10
-7.2395183061
 20
15.133939964
 30
0.0
 10
-7.3393324573
 20
15.3176412114
 30
0.0
 10
-7.3847974655
 20
15.4957342021
 30
0.0
 10
-7.4035675282
 20
15.6535958427
 30
0.0
 10
-7.4109363134
 20
15.8418941677
 30
0.0
 10
-7.3942520917
 20
15.9912207602
 30
0.0
 10
-7.3684966895
 20
16.0929714045
 30
0.0
  0
SPLINE
  5
5AC
100
AcDbEntity
  8
0
100
AcDbSpline
 62
7
  6
CONTINUOUS
 70
0
 71
3
 72
9
 73
5
 74
0
 42
0.0000001
 43
0.0000001
 44
0.0000000001
 40
0.0
 40
0.0
 40
0.0
 40
0.0
 40
0.4786249203
 40
1.0
 40
1.0
 40
1.0
 40
1.0
 10
-6.713805739
 20
16.6114142946
 30
0.0
 10
-6.593158239
 20
16.6114142946
 30
0.0
 10
-6.3225427198
 20
16.545498782
 30
0.0
 10
-6.1968067966
 20
16.2985071063
 30
0.0
 10
-6.1572467128
 20
16.1731789099
 30
0.0
  0
SPLINE
  5
5AD
100
AcDbEntity
  8
0
100
AcDbSpline
 62
7
  6
CONTINUOUS
 70
0
 71
3
 72
9
 73
5
 74
0
 42
0.0000001
 43
0.0000001
 44
0.0000000001
 40
0.0
 40
0.0
 40
0.0
 40
0.0
 40
0.2354134851
 40
1.0
 40
1.0
 40
1.0
 40
1.0
 10
-9.6057616543
 20
14.9477130516
 30
0.0
 10
-9.6133192941
 20
14.9749950427
 30
0.0
 10
-9.6467293766
 20
15.0905223392
 30
0.0
 10
-9.6849605394
 20
15.2046254741
 30
0.0
 10
-9.7161172558
 20
15.291130318
 30
0.0
  0
SPLINE
  5
5AE
100
AcDbEntity
  8
0
100
AcDbSpline
 62
7
  6
CONTINUOUS
 70
0
 71
3
 72
9
 73
5
 74
0
 42
0.0000001
 43
0.0000001
 44
0.0000000001
 40
0.0
 40
0.0
 40
0.0
 40
0.0
 40
0.7097160398
 40
1.0
 40
1.0
 40
1.0
 40
1.0
 10
-15.9928449607
 20
16.5986656253
 30
0.0
 10
-15.9619058303
 20
16.4927770872
 30
0.0
 10
-15.9121292244
 20
16.3454060766
 30
0.0
 10
-15.8593919699
 20
16.1992023461
 30
0.0
 10
-15.8438449494
 20
16.1568446227
 30
0.0
  0
SPLINE
  5
5AF
100
AcDbEntity
  8
0
100
AcDbSpline
 62
7
  6
CONTINUOUS
 70
0
 71
3
 72
9
 73
5
 74
0
 42
0.0000001
 43
0.0000001
 44
0.0000000001
 40
0.0
 40
0.0
 40
0.0
 40
0.0
 40
0.2354134851
 40
1.0
 40
1.0
 40
1.0
 40
1.0
 10
-18.7210601855
 20
14.9477130516
 30
0.0
 10
-18.7286178253
 20
14.9749950427
 30
0.0
 10
-18.7620279078
 20
15.0905223392
 30
0.0
 10
-18.8002590705
 20
15.2046254741
 30
0.0
 10
-18.831415787
 20
15.291130318
 30
0.0
  0
SPLINE
  5
5B0
100
AcDbEntity
  8
0
100
AcDbSpline
 62
7
  6
CONTINUOUS
 70
0
 71
3
 72
9
 73
5
 74
0
 42
0.0000001
 43
0.0000001
 44
0.0000000001
 40
0.0
 40
0.0
 40
0.0
 40
0.0
 40
0.7097160398
 40
1.0
 40
1.0
 40
1.0
 40
1.0
 10
-4.76126733
 20
19.6789402554
 30
0.0
 10
-4.7303281995
 20
19.5730517172
 30
0.0
 10
-4.6805515937
 20
19.4256807067
 30
0.0
 10
-4.6278143392
 20
19.2794769762
 30
0.0
 10
-4.6122673187
 20
19.2371192527
 30
0.0
  0
SPLINE
  5
5B1
100
AcDbEntity
  8
0
100
AcDbSpline
 62
7
  6
CONTINUOUS
 70
0
 71
3
 72
15
 73
11
 74
0
 42
0.0000001
 43
0.0000001
 44
0.0000000001
 40
0.0
 40
0.0
 40
0.0
 40
0.0
 40
0.1818234323
 40
0.2742230203
 40
0.3716340726
 40
0.4851660516
 40
0.5943000072
 40
0.6975375539
 40
0.7935178969
 40
1.0
 40
1.0
 40
1.0
 40
1.0
 10
-6.0169117503
 20
18.8431057112
 30
0.0
 10
-5.9635644443
 20
18.9023876523
 30
0.0
 10
-5.8985850158
 20
19.0081578996
 30
0.0
 10
-5.8576614961
 20
19.1667070154
 30
0.0
 10
-5.8473046405
 20
19.2999327124
 30
0.0
 10
-5.8607369466
 20
19.4408084685
 30
0.0
 10
-5.9078804223
 20
19.577083724
 30
0.0
 10
-5.9793945461
 20
19.6933767363
 30
0.0
 10
-6.110520325
 20
19.8169837955
 30
0.0
 10
-6.2426338948
 20
19.8607063421
 30
0.0
 10
-6.3319432637
 20
19.8757479224
 30
0.0
  0
SPLINE
  5
5B2
100
AcDbEntity
  8
0
100
AcDbSpline
 62
7
  6
CONTINUOUS
 70
0
 71
3
 72
9
 73
5
 74
0
 42
0.0000001
 43
0.0000001
 44
0.0000000001
 40
0.0
 40
0.0
 40
0.0
 40
0.0
 40
0.1935112737
 40
1.0
 40
1.0
 40
1.0
 40
1.0
 10
-6.3319432637
 20
19.8757479224
 30
0.0
 10
-6.3518244373
 20
19.8794160235
 30
0.0
 10
-6.4554212245
 20
19.8936351446
 30
0.0
 10
-6.5602283717
 20
19.8956676331
 30
0.0
 10
-6.6444847647
 20
19.8956676331
 30
0.0
  0
SPLINE
  5
5B3
100
AcDbEntity
  8
0
100
AcDbSpline
 62
7
  6
CONTINUOUS
 70
0
 71
3
 72
9
 73
5
 74
0
 42
0.0000001
 43
0.0000001
 44
0.0000000001
 40
0.0
 40
0.0
 40
0.0
 40
0.0
 40
0.3152731366
 40
1.0
 40
1.0
 40
1.0
 40
1.0
 10
-6.6154020027
 20
18.6590467134
 30
0.0
 10
-6.5487159735
 20
18.6590467134
 30
0.0
 10
-6.3407008623
 20
18.668102197
 30
0.0
 10
-6.1137929505
 20
18.7354469365
 30
0.0
 10
-6.0169117503
 20
18.8431057112
 30
0.0
  0
SPLINE
  5
5B4
100
AcDbEntity
  8
0
100
AcDbSpline
 62
7
  6
CONTINUOUS
 70
0
 71
3
 72
9
 73
5
 74
0
 42
0.0000001
 43
0.0000001
 44
0.0000000001
 40
0.0
 40
0.0
 40
0.0
 40
0.0
 40
0.8336714283
 40
1.0
 40
1.0
 40
1.0
 40
1.0
 10
-6.6179914212
 20
19.6534429168
 30
0.0
 10
-6.547835662
 20
19.6534429168
 30
0.0
 10
-6.4632122036
 20
19.653067761
 30
0.0
 10
-6.3800973733
 20
19.6384380646
 30
0.0
 10
-6.3666036536
 20
19.6347184122
 30
0.0
  0
SPLINE
  5
5B5
100
AcDbEntity
  8
0
100
AcDbSpline
 62
7
  6
CONTINUOUS
 70
0
 71
3
 72
16
 73
12
 74
0
 42
0.0000001
 43
0.0000001
 44
0.0000000001
 40
0.0
 40
0.0
 40
0.0
 40
0.0
 40
0.1830996794
 40
0.2824687972
 40
0.3347380912
 40
0.3901799081
 40
0.4651885762
 40
0.533460504
 40
0.6606216576
 40
0.804680395
 40
1.0
 40
1.0
 40
1.0
 40
1.0
 10
-6.3666036536
 20
19.6347184122
 30
0.0
 10
-6.2990738713
 20
19.6154787602
 30
0.0
 10
-6.2035519228
 20
19.5437481726
 30
0.0
 10
-6.1500101763
 20
19.4252740474
 30
0.0
 10
-6.1341644139
 20
19.3471511419
 30
0.0
 10
-6.1301394387
 20
19.2770408798
 30
0.0
 10
-6.1357045542
 20
19.2006179471
 30
0.0
 10
-6.1619838228
 20
19.0999112634
 30
0.0
 10
-6.2366431533
 20
18.9857991688
 30
0.0
 10
-6.4063852135
 20
18.9094895913
 30
0.0
 10
-6.5375106961
 20
18.9012714297
 30
0.0
 10
-6.6124139878
 20
18.9012714297
 30
0.0
  0
SPLINE
  5
5B6
100
AcDbEntity
  8
0
100
AcDbSpline
 62
7
  6
CONTINUOUS
 70
0
 71
3
 72
18
 73
14
 74
0
 42
0.0000001
 43
0.0000001
 44
0.0000000001
 40
0.0
 40
0.0
 40
0.0
 40
0.0
 40
0.1545390534
 40
0.2172269841
 40
0.2832409597
 40
0.4181299838
 40
0.4923825813
 40
0.5758976804
 40
0.6695117999
 40
0.7726248833
 40
0.8326192991
 40
0.8901039223
 40
1.0
 40
1.0
 40
1.0
 40
1.0
 10
-8.3261139029
 20
18.656457295
 30
0.0
 10
-8.2583446426
 20
18.6296648015
 30
0.0
 10
-8.1605438449
 20
18.5756539541
 30
0.0
 10
-8.1029617247
 20
18.451750645
 30
0.0
 10
-8.0858898278
 20
18.3273718979
 30
0.0
 10
-8.12761025
 20
18.1947558324
 30
0.0
 10
-8.2258323076
 20
18.0949247671
 30
0.0
 10
-8.3317423094
 20
18.0385195222
 30
0.0
 10
-8.4598837449
 20
18.0029329302
 30
0.0
 10
-8.581302829
 20
17.9939781408
 30
0.0
 10
-8.6853246585
 20
17.9986076402
 30
0.0
 10
-8.791609979
 20
18.0141553205
 30
0.0
 10
-8.8673419044
 20
18.0385729921
 30
0.0
 10
-8.9146911567
 20
18.0600797394
 30
0.0
  0
SPLINE
  5
5B7
100
AcDbEntity
  8
0
100
AcDbSpline
 62
7
  6
CONTINUOUS
 70
0
 71
3
 72
12
 73
8
 74
0
 42
0.0000001
 43
0.0000001
 44
0.0000000001
 40
0.0
 40
0.0
 40
0.0
 40
0.0
 40
0.1606441131
 40
0.3160528741
 40
0.4695579901
 40
0.6257786262
 40
1.0
 40
1.0
 40
1.0
 40
1.0
 10
-9.4719007242
 20
18.4805653436
 30
0.0
 10
-9.4700539681
 20
18.4117269777
 30
0.0
 10
-9.4503189327
 20
18.275787354
 30
0.0
 10
-9.365995465
 20
18.0902230819
 30
0.0
 10
-9.2343211483
 20
17.9364446541
 30
0.0
 10
-8.9803925412
 20
17.7813746459
 30
0.0
 10
-8.7446915644
 20
17.753891195
 30
0.0
 10
-8.5842745044
 20
17.753891195
 30
0.0
  0
SPLINE
  5
5B8
100
AcDbEntity
  8
0
100
AcDbSpline
 62
7
  6
CONTINUOUS
 70
0
 71
3
 72
15
 73
11
 74
0
 42
0.0000001
 43
0.0000001
 44
0.0000000001
 40
0.0
 40
0.0
 40
0.0
 40
0.0
 40
0.1205523663
 40
0.2334839557
 40
0.3389214346
 40
0.4385318437
 40
0.6258636217
 40
0.7171536601
 40
0.8046135431
 40
1.0
 40
1.0
 40
1.0
 40
1.0
 10
-8.5842745044
 20
17.753891195
 30
0.0
 10
-8.5133574715
 20
17.753891195
 30
0.0
 10
-8.3753909329
 20
17.7661140886
 30
0.0
 10
-8.1840474711
 20
17.8275265943
 30
0.0
 10
-8.0223490354
 20
17.9263829061
 30
0.0
 10
-7.8677828638
 20
18.1016744364
 30
0.0
 10
-7.7992142523
 20
18.3279820402
 30
0.0
 10
-7.8280960769
 20
18.5438403346
 30
0.0
 10
-7.9213121228
 20
18.747486558
 30
0.0
 10
-8.0670969855
 20
18.8502562675
 30
0.0
 10
-8.1713372572
 20
18.8986820112
 30
0.0
  0
SPLINE
  5
5B9
100
AcDbEntity
  8
0
100
AcDbSpline
 62
7
  6
CONTINUOUS
 70
0
 71
3
 72
9
 73
5
 74
0
 42
0.0000001
 43
0.0000001
 44
0.0000000001
 40
0.0
 40
0.0
 40
0.0
 40
0.0
 40
0.1708537376
 40
1.0
 40
1.0
 40
1.0
 40
1.0
 10
-8.1713372572
 20
18.8986820112
 30
0.0
 10
-8.1959710725
 20
18.9099431676
 30
0.0
 10
-8.3444189898
 20
18.9662372902
 30
0.0
 10
-8.4990334492
 20
19.0035057717
 30
0.0
 10
-8.6270025346
 20
19.0335389463
 30
0.0
  0
SPLINE
  5
5BA
100
AcDbEntity
  8
0
100
AcDbSpline
 62
7
  6
CONTINUOUS
 70
0
 71
3
 72
9
 73
5
 74
0
 42
0.0000001
 43
0.0000001
 44
0.0000000001
 40
0.0
 40
0.0
 40
0.0
 40
0.0
 40
0.6350560901
 40
1.0
 40
1.0
 40
1.0
 40
1.0
 10
-8.6270025346
 20
19.0335389463
 30
0.0
 10
-8.7171894042
 20
19.0547049803
 30
0.0
 10
-8.8558664721
 20
19.092814372
 30
0.0
 10
-8.996594264
 20
19.1483362236
 30
0.0
 10
-9.0352587529
 20
19.1849293696
 30
0.0
  0
SPLINE
  5
5BB
100
AcDbEntity
  8
0
100
AcDbSpline
 62
7
  6
CONTINUOUS
 70
0
 71
3
 72
14
 73
10
 74
0
 42
0.0000001
 43
0.0000001
 44
0.0000000001
 40
0.0
 40
0.0
 40
0.0
 40
0.0
 40
0.1221754561
 40
0.2479284667
 40
0.3235721644
 40
0.3974374623
 40
0.5551234414
 40
0.7467267791
 40
1.0
 40
1.0
 40
1.0
 40
1.0
 10
-9.0352587529
 20
19.1849293696
 30
0.0
 10
-9.0604553547
 20
19.2082991911
 30
0.0
 10
-9.1031114169
 20
19.2668073072
 30
0.0
 10
-9.1185937309
 20
19.3591715271
 30
0.0
 10
-9.1105437844
 20
19.4366801061
 30
0.0
 10
-9.0808870708
 20
19.5186461281
 30
0.0
 10
-9.0018186403
 20
19.6135719877
 30
0.0
 10
-8.84211374
 20
19.6835826404
 30
0.0
 10
-8.715673795
 20
19.6916889247
 30
0.0
 10
-8.6444322328
 20
19.6916889247
 30
0.0
  0
SPLINE
  5
5BC
100
AcDbEntity
  8
0
100
AcDbSpline
 62
7
  6
CONTINUOUS
 70
0
 71
3
 72
9
 73
5
 74
0
 42
0.0000001
 43
0.0000001
 44
0.0000000001
 40
0.0
 40
0.0
 40
0.0
 40
0.0
 40
0.5306823676
 40
1.0
 40
1.0
 40
1.0
 40
1.0
 10
-8.6444322328
 20
19.6916889247
 30
0.0
 10
-8.5209689433
 20
19.6916889247
 30
0.0
 10
-8.2582116244
 20
19.6531989437
 30
0.0
 10
-8.1576593632
 20
19.4050468515
 30
0.0
 10
-8.1460391196
 20
19.2964801772
 30
0.0
  0
SPLINE
  5
5BD
100
AcDbEntity
  8
0
100
AcDbSpline
 62
7
  6
CONTINUOUS
 70
0
 71
3
 72
12
 73
8
 74
0
 42
0.0000001
 43
0.0000001
 44
0.0000000001
 40
0.0
 40
0.0
 40
0.0
 40
0.0
 40
0.1573927117
 40
0.3102345594
 40
0.4642180775
 40
0.6271205374
 40
1.0
 40
1.0
 40
1.0
 40
1.0
 10
-7.8655683956
 20
19.3092288464
 30
0.0
 10
-7.8678634519
 20
19.3681360167
 30
0.0
 10
-7.8865474839
 20
19.484457677
 30
0.0
 10
-7.9617606893
 20
19.6437643245
 30
0.0
 10
-8.0821462897
 20
19.7761487618
 30
0.0
 10
-8.3100658127
 20
19.9046600453
 30
0.0
 10
-8.5159244873
 20
19.9339136409
 30
0.0
 10
-8.6555874886
 20
19.9339136409
 30
0.0
  0
SPLINE
  5
5BE
100
AcDbEntity
  8
0
100
AcDbSpline
 62
7
  6
CONTINUOUS
 70
0
 71
3
 72
15
 73
11
 74
0
 42
0.0000001
 43
0.0000001
 44
0.0000000001
 40
0.0
 40
0.0
 40
0.0
 40
0.0
 40
0.1249524682
 40
0.2423294566
 40
0.350902176
 40
0.4524669683
 40
0.6444564726
 40
0.7304140431
 40
0.8144496174
 40
1.0
 40
1.0
 40
1.0
 40
1.0
 10
-8.6555874886
 20
19.9339136409
 30
0.0
 10
-8.7233486166
 20
19.9339136409
 30
0.0
 10
-8.855213838
 20
19.923024183
 30
0.0
 10
-9.0392759301
 20
19.870370007
 30
0.0
 10
-9.1967857499
 20
19.7828462453
 30
0.0
 10
-9.3456539138
 20
19.6192015759
 30
0.0
 10
-9.4094033747
 20
19.4091805812
 30
0.0
 10
-9.383392451
 20
19.2125574874
 30
0.0
 10
-9.3030807491
 20
19.0339661744
 30
0.0
 10
-9.1804467556
 20
18.9382643706
 30
0.0
 10
-9.0910340594
 20
18.8921083783
 30
0.0
  0
SPLINE
  5
5BF
100
AcDbEntity
  8
0
100
AcDbSpline
 62
7
  6
CONTINUOUS
 70
0
 71
3
 72
9
 73
5
 74
0
 42
0.0000001
 43
0.0000001
 44
0.0000000001
 40
0.0
 40
0.0
 40
0.0
 40
0.0
 40
0.1806469784
 40
1.0
 40
1.0
 40
1.0
 40
1.0
 10
-9.0910340594
 20
18.8921083783
 30
0.0
 10
-9.0684997925
 20
18.8803299548
 30
0.0
 10
-8.9392539326
 20
18.8239356343
 30
0.0
 10
-8.8024563093
 20
18.7878092574
 30
0.0
 10
-8.69054668
 20
18.7599405594
 30
0.0
  0
SPLINE
  5
5C0
100
AcDbEntity
  8
0
100
AcDbSpline
 62
7
  6
CONTINUOUS
 70
0
 71
3
 72
9
 73
5
 74
0
 42
0.0000001
 43
0.0000001
 44
0.0000000001
 40
0.0
 40
0.0
 40
0.0
 40
0.0
 40
0.3500357027
 40
1.0
 40
1.0
 40
1.0
 40
1.0
 10
-8.69054668
 20
18.7599405594
 30
0.0
 10
-8.647645829
 20
18.7492570207
 30
0.0
 10
-8.5255736787
 20
18.7173724576
 30
0.0
 10
-8.4022466818
 20
18.6871677563
 30
0.0
 10
-8.3261139029
 20
18.656457295
 30
0.0
  0
SPLINE
  5
5C1
100
AcDbEntity
  8
0
100
AcDbSpline
 62
7
  6
CONTINUOUS
 70
0
 71
3
 72
17
 73
13
 74
0
 42
0.0000001
 43
0.0000001
 44
0.0000000001
 40
0.0
 40
0.0
 40
0.0
 40
0.0
 40
0.1520102844
 40
0.2690237173
 40
0.370049287
 40
0.4725012244
 40
0.545743988
 40
0.6196611404
 40
0.6953092939
 40
0.775646705
 40
0.873777008
 40
1.0
 40
1.0
 40
1.0
 40
1.0
 10
-11.3622892002
 20
19.6534429168
 30
0.0
 10
-11.2944458954
 20
19.6534429168
 30
0.0
 10
-11.1730179579
 20
19.6448394671
 30
0.0
 10
-11.0186206549
 20
19.572445403
 30
0.0
 10
-10.9293782137
 20
19.4536489269
 30
0.0
 10
-10.9062024
 20
19.3285078525
 30
0.0
 10
-10.9218318028
 20
19.2168989865
 30
0.0
 10
-10.9646890502
 20
19.125486811
 30
0.0
 10
-11.0354594017
 20
19.0485196124
 30
0.0
 10
-11.1383128858
 20
18.9960968495
 30
0.0
 10
-11.2726200709
 20
18.9693864568
 30
0.0
 10
-11.3728855154
 20
18.965014776
 30
0.0
 10
-11.4292197625
 20
18.965014776
 30
0.0
  0
SPLINE
  5
5C2
100
AcDbEntity
  8
0
100
AcDbSpline
 62
7
  6
CONTINUOUS
 70
0
 71
3
 72
9
 73
5
 74
0
 42
0.0000001
 43
0.0000001
 44
0.0000000001
 40
0.0
 40
0.0
 40
0.0
 40
0.0
 40
0.3222232674
 40
1.0
 40
1.0
 40
1.0
 40
1.0
 10
-11.7019218422
 20
18.7227900598
 30
0.0
 10
-11.685403751
 20
18.7227900598
 30
0.0
 10
-11.6342268051
 20
18.7220277475
 30
0.0
 10
-11.5825526724
 20
18.7201215093
 30
0.0
 10
-11.5485394089
 20
18.7130294055
 30
0.0
  0
SPLINE
  5
5C3
100
AcDbEntity
  8
0
100
AcDbSpline
 62
7
  6
CONTINUOUS
 70
0
 71
3
 72
12
 73
8
 74
0
 42
0.0000001
 43
0.0000001
 44
0.0000000001
 40
0.0
 40
0.0
 40
0.0
 40
0.0
 40
0.0974412774
 40
0.2003948476
 40
0.4882068918
 40
0.7085912992
 40
1.0
 40
1.0
 40
1.0
 40
1.0
 10
-11.5485394089
 20
18.7130294055
 30
0.0
 10
-11.5268527715
 20
18.7078273017
 30
0.0
 10
-11.4832917285
 20
18.6928288683
 30
0.0
 10
-11.3836563756
 20
18.640563215
 30
0.0
 10
-11.2896342845
 20
18.532230234
 30
0.0
 10
-11.1840261016
 20
18.383786095
 30
0.0
 10
-11.1197212949
 20
18.2855798023
 30
0.0
 10
-11.0838104861
 20
18.2293767771
 30
0.0
  0
SPLINE
  5
5C4
100
AcDbEntity
  8
0
100
AcDbSpline
 62
7
  6
CONTINUOUS
 70
0
 71
3
 72
9
 73
5
 74
0
 42
0.0000001
 43
0.0000001
 44
0.0000000001
 40
0.0
 40
0.0
 40
0.0
 40
0.0
 40
0.2659540588
 40
1.0
 40
1.0
 40
1.0
 40
1.0
 10
-10.8360083365
 20
18.3640347057
 30
0.0
 10
-10.8533988784
 20
18.3902993186
 30
0.0
 10
-10.9208495177
 20
18.4876381216
 30
0.0
 10
-10.9971697463
 20
18.579109817
 30
0.0
 10
-11.0589107506
 20
18.6403222088
 30
0.0
  0
SPLINE
  5
5C5
100
AcDbEntity
  8
0
100
AcDbSpline
 62
7
  6
CONTINUOUS
 70
0
 71
3
 72
9
 73
5
 74
0
 42
0.0000001
 43
0.0000001
 44
0.0000000001
 40
0.0
 40
0.0
 40
0.0
 40
0.0
 40
0.209446698
 40
1.0
 40
1.0
 40
1.0
 40
1.0
 10
-11.0589107506
 20
18.6403222088
 30
0.0
 10
-11.0685804267
 20
18.6497448459
 30
0.0
 10
-11.117457389
 20
18.6919549019
 30
0.0
 10
-11.1736503987
 20
18.7247818269
 30
0.0
 10
-11.2188666222
 20
18.7482873984
 30
0.0
  0
SPLINE
  5
5C6
100
AcDbEntity
  8
0
100
AcDbSpline
 62
7
  6
CONTINUOUS
 70
0
 71
3
 72
19
 73
15
 74
0
 42
0.0000001
 43
0.0000001
 44
0.0000000001
 40
0.0
 40
0.0
 40
0.0
 40
0.0
 40
0.136569576
 40
0.2487419393
 40
0.3510973289
 40
0.4029098052
 40
0.4575312966
 40
0.5006597919
 40
0.54259345
 40
0.6258399794
 40
0.7059972618
 40
0.7829904054
 40
0.8757620861
 40
1.0
 40
1.0
 40
1.0
 40
1.0
 10
-11.2188666222
 20
18.7482873984
 30
0.0
 10
-11.1297661443
 20
18.7606608395
 30
0.0
 10
-10.9675581027
 20
18.7976231094
 30
0.0
 10
-10.7690061593
 20
18.9279142225
 30
0.0
 10
-10.6733190345
 20
19.0814427051
 30
0.0
 10
-10.6374798171
 20
19.2148824727
 30
0.0
 10
-10.629820149
 20
19.3136300956
 30
0.0
 10
-10.6354718741
 20
19.4056842985
 30
0.0
 10
-10.6570990568
 20
19.5147592152
 30
0.0
 10
-10.7112860497
 20
19.6405287057
 30
0.0
 10
-10.8120196285
 20
19.7661295192
 30
0.0
 10
-10.9567988914
 20
19.8518057124
 30
0.0
 10
-11.1489195214
 20
19.8894421853
 30
0.0
 10
-11.2918105419
 20
19.8956676331
 30
0.0
 10
-11.3736434625
 20
19.8956676331
 30
0.0
  0
SPLINE
  5
5C7
100
AcDbEntity
  8
0
100
AcDbSpline
 62
7
  6
CONTINUOUS
 70
0
 71
3
 72
9
 73
5
 74
0
 42
0.0000001
 43
0.0000001
 44
0.0000000001
 40
0.0
 40
0.0
 40
0.0
 40
0.0
 40
0.7097160398
 40
1.0
 40
1.0
 40
1.0
 40
1.0
 10
-13.5451004601
 20
19.6789402554
 30
0.0
 10
-13.5141613296
 20
19.5730517172
 30
0.0
 10
-13.4643847237
 20
19.4256807067
 30
0.0
 10
-13.4116474693
 20
19.2794769762
 30
0.0
 10
-13.3961004487
 20
19.2371192527
 30
0.0
  0
SPLINE
  5
5C8
100
AcDbEntity
  8
0
100
AcDbSpline
 62
7
  6
CONTINUOUS
 70
0
 71
3
 72
9
 73
5
 74
0
 42
0.0000001
 43
0.0000001
 44
0.0000000001
 40
0.0
 40
0.0
 40
0.0
 40
0.0
 40
0.3106214921
 40
1.0
 40
1.0
 40
1.0
 40
1.0
 10
-15.5968394092
 20
18.4353474954
 30
0.0
 10
-15.6091209656
 20
18.4006224868
 30
0.0
 10
-15.6484322834
 20
18.2887530827
 30
0.0
 10
-15.6872150212
 20
18.1766792503
 30
0.0
 10
-15.7123742367
 20
18.0989020694
 30
0.0
  0
SPLINE
  5
5C9
100
AcDbEntity
  8
0
100
AcDbSpline
 62
7
  6
CONTINUOUS
 70
0
 71
3
 72
9
 73
5
 74
0
 42
0.0000001
 43
0.0000001
 44
0.0000000001
 40
0.0
 40
0.0
 40
0.0
 40
0.0
 40
0.1862683768
 40
1.0
 40
1.0
 40
1.0
 40
1.0
 10
-15.7123742367
 20
18.0989020694
 30
0.0
 10
-15.7183322864
 20
18.118275044
 30
0.0
 10
-15.7509601481
 20
18.2220830001
 30
0.0
 10
-15.7850657169
 20
18.3254186073
 30
0.0
 10
-15.8129691839
 20
18.4094517549
 30
0.0
  0
SPLINE
  5
5CA
100
AcDbEntity
  8
0
100
AcDbSpline
 62
7
  6
CONTINUOUS
 70
0
 71
3
 72
9
 73
5
 74
0
 42
0.0000001
 43
0.0000001
 44
0.0000000001
 40
0.0
 40
0.0
 40
0.0
 40
0.0
 40
0.2354134851
 40
1.0
 40
1.0
 40
1.0
 40
1.0
 10
-18.7210601855
 20
18.0279876816
 30
0.0
 10
-18.7286178253
 20
18.0552696728
 30
0.0
 10
-18.7620279078
 20
18.1707969692
 30
0.0
 10
-18.8002590705
 20
18.2849001042
 30
0.0
 10
-18.831415787
 20
18.371404948
 30
0.0
  0
SPLINE
  5
5CB
100
AcDbEntity
  8
0
100
AcDbSpline
 62
7
  6
CONTINUOUS
 70
0
 71
3
 72
30
 73
26
 74
0
 42
0.0000001
 43
0.0000001
 44
0.0000000001
 40
0.0
 40
0.0
 40
0.0
 40
0.0
 40
0.0357944442
 40
0.080180424
 40
0.1230794501
 40
0.1650973323
 40
0.2457343152
 40
0.325384862
 40
0.3659170024
 40
0.4063841522
 40
0.4475757782
 40
0.4902411494
 40
0.554096477
 40
0.6139681259
 40
0.6724203958
 40
0.7322005216
 40
0.7935184851
 40
0.8248197103
 40
0.8569205588
 40
0.8902154244
 40
0.9249996655
 40
0.9615206128
 40
0.9805038574
 40
0.9901864827
 40
1.0
 40
1.0
 40
1.0
 40
1.0
 10
-2.1722707524
 20
12.7278014838
 30
0.0
 10
-2.1731362749
 20
12.7674136984
 30
0.0
 10
-2.1784395393
 20
12.8560618339
 30
0.0
 10
-2.199316387
 20
12.9909069197
 30
0.0
 10
-2.2375843769
 20
13.1291313815
 30
0.0
 10
-2.3074647018
 20
13.2987845375
 30
0.0
 10
-2.4327418373
 20
13.4882564891
 30
0.0
 10
-2.6085612484
 20
13.6297597343
 30
0.0
 10
-2.7673590895
 20
13.7105495222
 30
0.0
 10
-2.8956976761
 20
13.7545073618
 30
0.0
 10
-3.0311855198
 20
13.7806756706
 30
0.0
 10
-3.1946895705
 20
13.7901045571
 30
0.0
 10
-3.379210221
 20
13.77503146
 30
0.0
 10
-3.5744510949
 20
13.7192704202
 30
0.0
 10
-3.7488846262
 20
13.6241959316
 30
0.0
 10
-3.8999549892
 20
13.493005529
 30
0.0
 10
-4.0023568462
 20
13.3572707174
 30
0.0
 10
-4.0662991705
 20
13.2347287616
 30
0.0
 10
-4.1055833453
 20
13.1350137774
 30
0.0
 10
-4.1360624024
 20
13.0282855505
 30
0.0
 10
-4.1577824402
 20
12.9144720949
 30
0.0
 10
-4.1684320069
 20
12.8150405973
 30
0.0
 10
-4.17217085
 20
12.7430038134
 30
0.0
 10
-4.1732504378
 20
12.700442899
 30
0.0
 10
-4.1734436253
 20
12.6788725195
 30
0.0
 10
-4.1734341364
 20
12.6680149728
 30
0.0
  0
SPLINE
  5
5CC
100
AcDbEntity
  8
0
100
AcDbSpline
 62
7
  6
CONTINUOUS
 70
0
 71
3
 72
29
 73
25
 74
0
 42
0.0000001
 43
0.0000001
 44
0.0000000001
 40
0.0
 40
0.0
 40
0.0
 40
0.0
 40
0.0052119964
 40
0.0104063336
 40
0.020747259
 40
0.0412759045
 40
0.0820276766
 40
0.1228642605
 40
0.1638478451
 40
0.2046643361
 40
0.2445494238
 40
0.3246539208
 40
0.36554151
 40
0.4064490827
 40
0.4482210406
 40
0.4916513968
 40
0.6497154642
 40
0.7291084386
 40
0.8107706633
 40
0.8536268928
 40
0.897252534
 40
0.9423029114
 40
0.9893738811
 40
1.0
 40
1.0
 40
1.0
 40
1.0
 10
-4.1734341364
 20
12.6680149728
 30
0.0
 10
-4.1734290969
 20
12.6622484885
 30
0.0
 10
-4.1733589253
 20
12.6507350868
 30
0.0
 10
-4.1728891929
 20
12.6277849344
 30
0.0
 10
-4.1712634574
 20
12.5879128503
 30
0.0
 10
-4.1647529076
 20
12.508903782
 30
0.0
 10
-4.1459301906
 20
12.3972405872
 30
0.0
 10
-4.108336819
 20
12.2666381846
 30
0.0
 10
-4.0559907176
 20
12.1411588873
 30
0.0
 10
-3.9898131653
 20
12.0234355626
 30
0.0
 10
-3.880588278
 20
11.8823011065
 30
0.0
 10
-3.7410581578
 20
11.7672217442
 30
0.0
 10
-3.5819934947
 20
11.6839013816
 30
0.0
 10
-3.4524743467
 20
11.6385799924
 30
0.0
 10
-3.315032941
 20
11.6117903241
 30
0.0
 10
-3.0462718207
 20
11.5949239302
 30
0.0
 10
-2.7282701112
 20
11.6720317205
 30
0.0
 10
-2.4434340048
 20
11.8886547149
 30
0.0
 10
-2.3143957135
 20
12.0782902906
 30
0.0
 10
-2.241073333
 20
12.2495615777
 30
0.0
 10
-2.2007832342
 20
12.3898249008
 30
0.0
 10
-2.1768742188
 20
12.5384290019
 30
0.0
 10
-2.1713373957
 20
12.652173063
 30
0.0
 10
-2.172013809
 20
12.7160420024
 30
0.0
 10
-2.1722707524
 20
12.7278014838
 30
0.0
  0
SPLINE
  5
5CD
100
AcDbEntity
  8
0
100
AcDbSpline
 62
7
  6
CONTINUOUS
 70
0
 71
3
 72
21
 73
17
 74
0
 42
0.0000001
 43
0.0000001
 44
0.0000000001
 40
0.0
 40
0.0
 40
0.0
 40
0.0
 40
0.0572821314
 40
0.1258470279
 40
0.1897214136
 40
0.2514020577
 40
0.3661472392
 40
0.422037845
 40
0.480388413
 40
0.5619828973
 40
0.6431264781
 40
0.7265721072
 40
0.8156196588
 40
0.9079701849
 40
0.9538305498
 40
1.0
 40
1.0
 40
1.0
 40
1.0
 10
-13.6588088837
 20
12.2859646249
 30
0.0
 10
-13.6596237982
 20
12.2587367066
 30
0.0
 10
-13.6644728671
 20
12.1990340269
 30
0.0
 10
-13.6840286628
 20
12.1106239622
 30
0.0
 10
-13.7206611079
 20
12.0252290163
 30
0.0
 10
-13.7871688807
 20
11.9318042887
 30
0.0
 10
-13.8772469787
 20
11.8614548139
 30
0.0
 10
-13.9816370122
 20
11.8278827944
 30
0.0
 10
-14.074840544
 20
11.8191635132
 30
0.0
 10
-14.1803693534
 20
11.8331246324
 30
0.0
 10
-14.2883291405
 20
11.8822238611
 30
0.0
 10
-14.3805643192
 20
11.9625901707
 30
0.0
 10
-14.447257912
 20
12.0709942349
 30
0.0
 10
-14.4829731909
 20
12.1737591504
 30
0.0
 10
-14.4975619724
 20
12.2603002609
 30
0.0
 10
-14.499841975
 20
12.3040492914
 30
0.0
 10
-14.4998562487
 20
12.3259921134
 30
0.0
  0
SPLINE
  5
5CE
100
AcDbEntity
  8
0
100
AcDbSpline
 62
7
  6
CONTINUOUS
 70
0
 71
3
 72
25
 73
21
 74
0
 42
0.0000001
 43
0.0000001
 44
0.0000000001
 40
0.0
 40
0.0
 40
0.0
 40
0.0
 40
0.0347539307
 40
0.0680332786
 40
0.1310874588
 40
0.1916470167
 40
0.252361336
 40
0.3121850235
 40
0.3697384805
 40
0.4274567577
 40
0.4877549413
 40
0.5500326528
 40
0.6082409665
 40
0.6649476357
 40
0.7229202929
 40
0.7824351546
 40
0.8438444764
 40
0.9096759824
 40
0.9819951768
 40
1.0
 40
1.0
 40
1.0
 40
1.0
 10
-14.4998562487
 20
12.3259921134
 30
0.0
 10
-14.4998669932
 20
12.3425095142
 30
0.0
 10
-14.4986351049
 20
12.3748377722
 30
0.0
 10
-14.4910887447
 20
12.436707057
 30
0.0
 10
-14.4721539768
 20
12.5093039793
 30
0.0
 10
-14.4327332164
 20
12.5882657793
 30
0.0
 10
-14.3780710632
 20
12.6554766362
 30
0.0
 10
-14.3129792865
 20
12.7103017114
 30
0.0
 10
-14.2394375703
 20
12.7504274106
 30
0.0
 10
-14.1588361758
 20
12.7741925656
 30
0.0
 10
-14.0730293273
 20
12.7813925759
 30
0.0
 10
-13.9869862021
 20
12.7743178154
 30
0.0
 10
-13.9054869949
 20
12.7508211132
 30
0.0
 10
-13.8330094778
 20
12.7107271214
 30
0.0
 10
-13.7707270088
 20
12.6553014349
 30
0.0
 10
-13.7199136462
 20
12.5863705221
 30
0.0
 10
-13.6837287289
 20
12.5046656456
 30
0.0
 10
-13.6625211938
 20
12.4117561501
 30
0.0
 10
-13.6579577965
 20
12.337482791
 30
0.0
 10
-13.6585527412
 20
12.2945228584
 30
0.0
 10
-13.6588088837
 20
12.2859646249
 30
0.0
  0
SPLINE
  5
5CF
100
AcDbEntity
  8
0
100
AcDbSpline
 62
7
  6
CONTINUOUS
 70
0
 71
3
 72
26
 73
22
 74
0
 42
0.0000001
 43
0.0000001
 44
0.0000000001
 40
0.0
 40
0.0
 40
0.0
 40
0.0
 40
0.0514086387
 40
0.0974471149
 40
0.1736081682
 40
0.235833885
 40
0.2912395181
 40
0.3421169476
 40
0.3923164817
 40
0.4442419499
 40
0.4715075702
 40
0.5001160137
 40
0.538388431
 40
0.5740418655
 40
0.641159707
 40
0.7101420339
 40
0.788019059
 40
0.8825781268
 40
0.9382689632
 40
0.9683757102
 40
1.0
 40
1.0
 40
1.0
 40
1.0
 10
-15.0353001455
 20
12.6828690381
 30
0.0
 10
-15.0352688166
 20
12.7323928519
 30
0.0
 10
-15.0370140104
 20
12.8262572312
 30
0.0
 10
-15.0475452388
 20
12.9931369395
 30
0.0
 10
-15.0742517267
 20
13.169521304
 30
0.0
 10
-15.1325488578
 20
13.3474641332
 30
0.0
 10
-15.2033797407
 20
13.4943013617
 30
0.0
 10
-15.2984706288
 20
13.613526198
 30
0.0
 10
-15.4209395855
 20
13.6989379047
 30
0.0
 10
-15.5396282682
 20
13.7413657627
 30
0.0
 10
-15.6423119647
 20
13.7579784983
 30
0.0
 10
-15.7330287296
 20
13.762395841
 30
0.0
 10
-15.8319256822
 20
13.7560905922
 30
0.0
 10
-15.9651272235
 20
13.727114153
 30
0.0
 10
-16.1154206341
 20
13.6485576351
 30
0.0
 10
-16.2528820023
 20
13.4898619494
 30
0.0
 10
-16.3491839816
 20
13.275533437
 30
0.0
 10
-16.3917813075
 20
13.0585712167
 30
0.0
 10
-16.4068054398
 20
12.8854902217
 30
0.0
 10
-16.4114097025
 20
12.7724699896
 30
0.0
 10
-16.4121634009
 20
12.7130149635
 30
0.0
 10
-16.4121566398
 20
12.6825564511
 30
0.0
  0
SPLINE
  5
5D0
100
AcDbEntity
  8
0
100
AcDbSpline
 62
7
  6
CONTINUOUS
 70
0
 71
3
 72
27
 73
23
 74
0
 42
0.0000001
 43
0.0000001
 44
0.0000000001
 40
0.0
 40
0.0
 40
0.0
 40
0.0
 40
0.0252796481
 40
0.0496964664
 40
0.095991811
 40
0.1390168834
 40
0.178935151
 40
0.2159662216
 40
0.25041411
 40
0.3127249463
 40
0.3587973427
 40
0.4037716305
 40
0.4502022726
 40
0.500421986
 40
0.5389082568
 40
0.5747250804
 40
0.6420569868
 40
0.7111453153
 40
0.7889928355
 40
0.8832555906
 40
0.938644289
 40
1.0
 40
1.0
 40
1.0
 40
1.0
 10
-16.4121566398
 20
12.6825564511
 30
0.0
 10
-16.4121512352
 20
12.6582086956
 30
0.0
 10
-16.4116470857
 20
12.6103439518
 30
0.0
 10
-16.4084917627
 20
12.517940464
 30
0.0
 10
-16.4007155959
 20
12.4086200356
 30
0.0
 10
-16.3846737464
 20
12.2851022736
 30
0.0
 10
-16.3620533284
 20
12.1716974602
 30
0.0
 10
-16.3327538867
 20
12.0683077012
 30
0.0
 10
-16.2867244864
 20
11.9479677028
 30
0.0
 10
-16.2191702143
 20
11.8259760479
 30
0.0
 10
-16.1119921266
 20
11.7220875721
 30
0.0
 10
-15.9972274538
 20
11.653670489
 30
0.0
 10
-15.8654817812
 20
11.6137918863
 30
0.0
 10
-15.7350165936
 20
11.6030239399
 30
0.0
 10
-15.6149723903
 20
11.6106279266
 30
0.0
 10
-15.4811933117
 20
11.6397510047
 30
0.0
 10
-15.3305756853
 20
11.7187579608
 30
0.0
 10
-15.193251306
 20
11.8779733606
 30
0.0
 10
-15.0976559603
 20
12.0923822293
 30
0.0
 10
-15.0555034607
 20
12.3087777923
 30
0.0
 10
-15.0379889323
 20
12.5112844432
 30
0.0
 10
-15.0353375363
 20
12.6237628472
 30
0.0
 10
-15.0353001455
 20
12.6828690381
 30
0.0
  0
SPLINE
  5
5D1
100
AcDbEntity
  8
0
100
AcDbSpline
 62
7
  6
CONTINUOUS
 70
0
 71
3
 72
21
 73
17
 74
0
 42
0.0000001
 43
0.0000001
 44
0.0000000001
 40
0.0
 40
0.0
 40
0.0
 40
0.0
 40
0.0572821314
 40
0.1258470279
 40
0.1897214136
 40
0.2514020577
 40
0.3661472392
 40
0.422037845
 40
0.480388413
 40
0.5619828973
 40
0.6431264781
 40
0.7265721072
 40
0.8156196588
 40
0.9079701849
 40
0.9538305498
 40
1.0
 40
1.0
 40
1.0
 40
1.0
 10
-16.922468218
 20
12.2859646249
 30
0.0
 10
-16.9232831324
 20
12.2587367066
 30
0.0
 10
-16.9281322014
 20
12.1990340269
 30
0.0
 10
-16.9476879971
 20
12.1106239622
 30
0.0
 10
-16.9843204421
 20
12.0252290163
 30
0.0
 10
-17.0508282149
 20
11.9318042887
 30
0.0
 10
-17.1409063129
 20
11.8614548139
 30
0.0
 10
-17.2452963464
 20
11.8278827944
 30
0.0
 10
-17.3384998782
 20
11.8191635132
 30
0.0
 10
-17.4440286877
 20
11.8331246324
 30
0.0
 10
-17.5519884748
 20
11.8822238611
 30
0.0
 10
-17.6442236534
 20
11.9625901707
 30
0.0
 10
-17.7109172462
 20
12.0709942349
 30
0.0
 10
-17.7466325252
 20
12.1737591504
 30
0.0
 10
-17.7612213066
 20
12.2603002609
 30
0.0
 10
-17.7635013092
 20
12.3040492914
 30
0.0
 10
-17.7635155829
 20
12.3259921134
 30
0.0
  0
SPLINE
  5
5D2
100
AcDbEntity
  8
0
100
AcDbSpline
 62
7
  6
CONTINUOUS
 70
0
 71
3
 72
25
 73
21
 74
0
 42
0.0000001
 43
0.0000001
 44
0.0000000001
 40
0.0
 40
0.0
 40
0.0
 40
0.0
 40
0.0347539307
 40
0.0680332786
 40
0.1310874588
 40
0.1916470167
 40
0.252361336
 40
0.3121850235
 40
0.3697384805
 40
0.4274567577
 40
0.4877549413
 40
0.5500326528
 40
0.6082409665
 40
0.6649476357
 40
0.7229202929
 40
0.7824351546
 40
0.8438444764
 40
0.9096759824
 40
0.9819951768
 40
1.0
 40
1.0
 40
1.0
 40
1.0
 10
-17.7635155829
 20
12.3259921134
 30
0.0
 10
-17.7635263274
 20
12.3425095142
 30
0.0
 10
-17.7622944391
 20
12.3748377722
 30
0.0
 10
-17.754748079
 20
12.436707057
 30
0.0
 10
-17.7358133111
 20
12.5093039793
 30
0.0
 10
-17.6963925506
 20
12.5882657793
 30
0.0
 10
-17.6417303974
 20
12.6554766362
 30
0.0
 10
-17.5766386208
 20
12.7103017114
 30
0.0
 10
-17.5030969045
 20
12.7504274106
 30
0.0
 10
-17.4224955101
 20
12.7741925656
 30
0.0
 10
-17.3366886615
 20
12.7813925759
 30
0.0
 10
-17.2506455364
 20
12.7743178154
 30
0.0
 10
-17.1691463291
 20
12.7508211132
 30
0.0
 10
-17.096668812
 20
12.7107271214
 30
0.0
 10
-17.034386343
 20
12.6553014349
 30
0.0
 10
-16.9835729804
 20
12.5863705221
 30
0.0
 10
-16.9473880631
 20
12.5046656456
 30
0.0
 10
-16.926180528
 20
12.4117561501
 30
0.0
 10
-16.9216171307
 20
12.337482791
 30
0.0
 10
-16.9222120754
 20
12.2945228584
 30
0.0
 10
-16.922468218
 20
12.2859646249
 30
0.0
  0
SPLINE
  5
5D3
100
AcDbEntity
  8
0
100
AcDbSpline
 62
7
  6
CONTINUOUS
 70
0
 71
3
 72
13
 73
9
 74
0
 42
0.0000001
 43
0.0000001
 44
0.0000000001
 40
0.0
 40
0.0
 40
0.0
 40
0.0
 40
0.006002829
 40
0.1206106126
 40
0.2319178715
 40
0.3376718495
 40
0.5411880103
 40
1.0
 40
1.0
 40
1.0
 40
1.0
 10
2.7203261765
 20
12.2878631961
 30
0.0
 10
2.7210404662
 20
12.285477525
 30
0.0
 10
2.7355187169
 20
12.2375819358
 30
0.0
 10
2.7682391227
 20
12.1469803635
 30
0.0
 10
2.8292916725
 20
12.023245347
 30
0.0
 10
2.9283321067
 20
11.8792000416
 30
0.0
 10
3.1669361802
 20
11.6584087359
 30
0.0
 10
3.459205063
 20
11.6060906041
 30
0.0
 10
3.6494681686
 20
11.6060906041
 30
0.0
  0
SPLINE
  5
5D4
100
AcDbEntity
  8
0
100
AcDbSpline
 62
7
  6
CONTINUOUS
 70
0
 71
3
 72
13
 73
9
 74
0
 42
0.0000001
 43
0.0000001
 44
0.0000000001
 40
0.0
 40
0.0
 40
0.0
 40
0.0
 40
0.1043010254
 40
0.2149480373
 40
0.3218454549
 40
0.5344813954
 40
0.7554618715
 40
1.0
 40
1.0
 40
1.0
 40
1.0
 10
2.9784429309
 20
13.0254454437
 30
0.0
 10
2.9862188314
 20
13.0561653243
 30
0.0
 10
3.0048645269
 20
13.1187423163
 30
0.0
 10
3.0413440198
 20
13.209354287
 30
0.0
 10
3.1095804861
 20
13.3208736429
 30
0.0
 10
3.2277060816
 20
13.4385599977
 30
0.0
 10
3.4166640984
 20
13.5284129908
 30
0.0
 10
3.5591117743
 20
13.5438883338
 30
0.0
 10
3.6331338814
 20
13.5438883338
 30
0.0
  0
SPLINE
  5
5D5
100
AcDbEntity
  8
0
100
AcDbSpline
 62
7
  6
CONTINUOUS
 70
0
 71
3
 72
11
 73
7
 74
0
 42
0.0000001
 43
0.0000001
 44
0.0000000001
 40
0.0
 40
0.0
 40
0.0
 40
0.0
 40
0.2583644873
 40
0.4885486748
 40
0.7258189793
 40
1.0
 40
1.0
 40
1.0
 40
1.0
 10
-1.3342127689
 20
11.9122791486
 30
0.0
 10
-1.377350394
 20
11.9318729111
 30
0.0
 10
-1.4551940671
 20
11.9775173701
 30
0.0
 10
-1.5462480448
 20
12.0772562514
 30
0.0
 10
-1.6005536662
 20
12.2033782404
 30
0.0
 10
-1.6181202462
 20
12.2957225814
 30
0.0
 10
-1.6237002816
 20
12.345513422
 30
0.0
  0
SPLINE
  5
5D6
100
AcDbEntity
  8
0
100
AcDbSpline
 62
7
  6
CONTINUOUS
 70
0
 71
3
 72
18
 73
14
 74
0
 42
0.0000001
 43
0.0000001
 44
0.0000000001
 40
0.0
 40
0.0
 40
0.0
 40
0.0
 40
0.0468178284
 40
0.1278435302
 40
0.2100166526
 40
0.2970363561
 40
0.3826992487
 40
0.463990002
 40
0.544524976
 40
0.6280187937
 40
0.7139769292
 40
0.802357979
 40
1.0
 40
1.0
 40
1.0
 40
1.0
 10
-2.7012359497
 20
12.0234649008
 30
0.0
 10
-2.7212977773
 20
12.0051904755
 30
0.0
 10
-2.779016782
 20
11.9585301976
 30
0.0
 10
-2.8856625687
 20
11.8982686331
 30
0.0
 10
-3.02552529
 20
11.8566106978
 30
0.0
 10
-3.1732711171
 20
11.8440647539
 30
0.0
 10
-3.3205066644
 20
11.8565668336
 30
0.0
 10
-3.4587840761
 20
11.8979425665
 30
0.0
 10
-3.5834547897
 20
11.968101584
 30
0.0
 10
-3.6926822433
 20
12.0643880464
 30
0.0
 10
-3.7832947436
 20
12.1843598438
 30
0.0
 10
-3.8725780661
 20
12.3818409526
 30
0.0
 10
-3.8929634124
 20
12.5502771285
 30
0.0
 10
-3.8929634124
 20
12.6646285559
 30
0.0
  0
SPLINE
  5
5D7
100
AcDbEntity
  8
0
100
AcDbSpline
 62
7
  6
CONTINUOUS
 70
0
 71
3
 72
12
 73
8
 74
0
 42
0.0000001
 43
0.0000001
 44
0.0000000001
 40
0.0
 40
0.0
 40
0.0
 40
0.0
 40
0.0743144934
 40
0.1944842376
 40
0.4244801191
 40
0.6789867556
 40
1.0
 40
1.0
 40
1.0
 40
1.0
 10
-12.5042588306
 20
11.8238542844
 30
0.0
 10
-12.5193815991
 20
11.8247983058
 30
0.0
 10
-12.5588242479
 20
11.8290203852
 30
0.0
 10
-12.6430978927
 20
11.8497309681
 30
0.0
 10
-12.7529417988
 20
11.9136785213
 30
0.0
 10
-12.8472345561
 20
12.053068796
 30
0.0
 10
-12.8800591564
 20
12.1668032294
 30
0.0
 10
-12.8935239201
 20
12.2307753986
 30
0.0
  0
SPLINE
  5
5D8
100
AcDbEntity
  8
0
100
AcDbSpline
 62
7
  6
CONTINUOUS
 70
0
 71
3
 72
11
 73
7
 74
0
 42
0.0000001
 43
0.0000001
 44
0.0000000001
 40
0.0
 40
0.0
 40
0.0
 40
0.0
 40
0.1246479015
 40
0.4144825597
 40
0.6998779265
 40
1.0
 40
1.0
 40
1.0
 40
1.0
 10
-11.7811290919
 20
12.3799411481
 30
0.0
 10
-11.7853964215
 20
12.4044328651
 30
0.0
 10
-11.8047606731
 20
12.4849949634
 30
0.0
 10
-11.8717754123
 20
12.6111405398
 30
0.0
 10
-12.0059529671
 20
12.7283175973
 30
0.0
 10
-12.1173392154
 20
12.7704712666
 30
0.0
 10
-12.1756144208
 20
12.7839482023
 30
0.0
  0
SPLINE
  5
5D9
100
AcDbEntity
  8
0
100
AcDbSpline
 62
7
  6
CONTINUOUS
 70
0
 71
3
 72
11
 73
7
 74
0
 42
0.0000001
 43
0.0000001
 44
0.0000000001
 40
0.0
 40
0.0
 40
0.0
 40
0.0
 40
0.0610878426
 40
0.2386379819
 40
0.5997902063
 40
1.0
 40
1.0
 40
1.0
 40
1.0
 10
-12.7887016197
 20
13.6974249997
 30
0.0
 10
-12.7998647963
 20
13.6919382353
 30
0.0
 10
-12.8427722689
 20
13.6690874303
 30
0.0
 10
-12.9426988618
 20
13.5980478291
 30
0.0
 10
-13.06298705
 20
13.4435189753
 30
0.0
 10
-13.1086434464
 20
13.2925137956
 30
0.0
 10
-13.122999967
 20
13.2124229327
 30
0.0
  0
SPLINE
  5
5DA
100
AcDbEntity
  8
0
100
AcDbSpline
 62
7
  6
CONTINUOUS
 70
0
 71
3
 72
10
 73
6
 74
0
 42
0.0000001
 43
0.0000001
 44
0.0000000001
 40
0.0
 40
0.0
 40
0.0
 40
0.0
 40
0.1989537802
 40
0.6260871845
 40
1.0
 40
1.0
 40
1.0
 40
1.0
 10
-14.7612332599
 20
12.2452762845
 30
0.0
 10
-14.7557797163
 20
12.216560971
 30
0.0
 10
-14.7358644064
 20
12.126727161
 30
0.0
 10
-14.6879727773
 20
11.9871049743
 30
0.0
 10
-14.624882672
 20
11.8860321537
 30
0.0
 10
-14.5891964368
 20
11.8443313977
 30
0.0
  0
SPLINE
  5
5DB
100
AcDbEntity
  8
0
100
AcDbSpline
 62
7
  6
CONTINUOUS
 70
0
 71
3
 72
14
 73
10
 74
0
 42
0.0000001
 43
0.0000001
 44
0.0000000001
 40
0.0
 40
0.0
 40
0.0
 40
0.0
 40
0.0039064862
 40
0.1192576007
 40
0.2292624375
 40
0.3387392929
 40
0.4525735272
 40
0.7176209924
 40
1.0
 40
1.0
 40
1.0
 40
1.0
 10
-13.5823828649
 20
12.8149789492
 30
0.0
 10
-13.5833647919
 20
12.8160258994
 30
0.0
 10
-13.6134405883
 20
12.8478936936
 30
0.0
 10
-13.6770288642
 20
12.9036426889
 30
0.0
 10
-13.7845213254
 20
12.9648677731
 30
0.0
 10
-13.9023341662
 20
13.001007862
 30
0.0
 10
-14.0813979825
 20
13.01767964
 30
0.0
 10
-14.3279198771
 20
12.9615004224
 30
0.0
 10
-14.4810864122
 20
12.8158033948
 30
0.0
 10
-14.5381022565
 20
12.7293679072
 30
0.0
  0
SPLINE
  5
5DC
100
AcDbEntity
  8
0
100
AcDbSpline
 62
7
  6
CONTINUOUS
 70
0
 71
3
 72
10
 73
6
 74
0
 42
0.0000001
 43
0.0000001
 44
0.0000000001
 40
0.0
 40
0.0
 40
0.0
 40
0.0
 40
0.1989537802
 40
0.6260871845
 40
1.0
 40
1.0
 40
1.0
 40
1.0
 10
-18.0248925942
 20
12.2452762845
 30
0.0
 10
-18.0194390505
 20
12.216560971
 30
0.0
 10
-17.9995237406
 20
12.126727161
 30
0.0
 10
-17.9516321115
 20
11.9871049743
 30
0.0
 10
-17.8885420063
 20
11.8860321537
 30
0.0
 10
-17.8528557711
 20
11.8443313977
 30
0.0
  0
SPLINE
  5
5DD
100
AcDbEntity
  8
0
100
AcDbSpline
 62
7
  6
CONTINUOUS
 70
0
 71
3
 72
14
 73
10
 74
0
 42
0.0000001
 43
0.0000001
 44
0.0000000001
 40
0.0
 40
0.0
 40
0.0
 40
0.0
 40
0.0039064862
 40
0.1192576007
 40
0.2292624375
 40
0.3387392929
 40
0.4525735272
 40
0.7176209924
 40
1.0
 40
1.0
 40
1.0
 40
1.0
 10
-16.8460421991
 20
12.8149789492
 30
0.0
 10
-16.8470241261
 20
12.8160258994
 30
0.0
 10
-16.8770999225
 20
12.8478936936
 30
0.0
 10
-16.9406881985
 20
12.9036426889
 30
0.0
 10
-17.0481806596
 20
12.9648677731
 30
0.0
 10
-17.1659935004
 20
13.001007862
 30
0.0
 10
-17.3450573167
 20
13.01767964
 30
0.0
 10
-17.5915792113
 20
12.9615004224
 30
0.0
 10
-17.7447457464
 20
12.8158033948
 30
0.0
 10
-17.8017615907
 20
12.7293679072
 30
0.0
  0
SPLINE
  5
5DE
100
AcDbEntity
  8
0
100
AcDbSpline
 62
7
  6
CONTINUOUS
 70
0
 71
3
 72
11
 73
7
 74
0
 42
0.0000001
 43
0.0000001
 44
0.0000000001
 40
0.0
 40
0.0
 40
0.0
 40
0.0
 40
0.1246479015
 40
0.4144825597
 40
0.6998779265
 40
1.0
 40
1.0
 40
1.0
 40
1.0
 10
-18.3084477603
 20
12.3799411481
 30
0.0
 10
-18.3127150899
 20
12.4044328651
 30
0.0
 10
-18.3320793415
 20
12.4849949634
 30
0.0
 10
-18.3990940808
 20
12.6111405398
 30
0.0
 10
-18.5332716356
 20
12.7283175973
 30
0.0
 10
-18.6446578839
 20
12.7704712666
 30
0.0
 10
-18.7029330893
 20
12.7839482023
 30
0.0
  0
SPLINE
  5
5DF
100
AcDbEntity
  8
0
100
AcDbSpline
 62
7
  6
CONTINUOUS
 70
0
 71
3
 72
11
 73
7
 74
0
 42
0.0000001
 43
0.0000001
 44
0.0000000001
 40
0.0
 40
0.0
 40
0.0
 40
0.0
 40
0.0610878426
 40
0.2386379819
 40
0.5997902063
 40
1.0
 40
1.0
 40
1.0
 40
1.0
 10
-19.3160202882
 20
13.6974249997
 30
0.0
 10
-19.3271834648
 20
13.6919382353
 30
0.0
 10
-19.3700909374
 20
13.6690874303
 30
0.0
 10
-19.4700175302
 20
13.5980478291
 30
0.0
 10
-19.5903057185
 20
13.4435189753
 30
0.0
 10
-19.6359621149
 20
13.2925137956
 30
0.0
 10
-19.6503186355
 20
13.2124229327
 30
0.0
  0
SPLINE
  5
5E0
100
AcDbEntity
  8
0
100
AcDbSpline
 62
7
  6
CONTINUOUS
 70
0
 71
3
 72
12
 73
8
 74
0
 42
0.0000001
 43
0.0000001
 44
0.0000000001
 40
0.0
 40
0.0
 40
0.0
 40
0.0
 40
0.0743144934
 40
0.1944842376
 40
0.4244801191
 40
0.6789867556
 40
1.0
 40
1.0
 40
1.0
 40
1.0
 10
-19.0315774991
 20
11.8238542844
 30
0.0
 10
-19.0467002676
 20
11.8247983058
 30
0.0
 10
-19.0861429164
 20
11.8290203852
 30
0.0
 10
-19.1704165611
 20
11.8497309681
 30
0.0
 10
-19.2802604672
 20
11.9136785213
 30
0.0
 10
-19.3745532245
 20
12.053068796
 30
0.0
 10
-19.4073778249
 20
12.1668032294
 30
0.0
 10
-19.4208425886
 20
12.2307753986
 30
0.0
  0
SPLINE
  5
5E1
100
AcDbEntity
  8
0
100
AcDbSpline
 62
7
  6
CONTINUOUS
 70
0
 71
3
 72
13
 73
9
 74
0
 42
0.0000001
 43
0.0000001
 44
0.0000000001
 40
0.0
 40
0.0
 40
0.0
 40
0.0
 40
0.006002829
 40
0.1206106126
 40
0.2319178715
 40
0.3376718495
 40
0.5411880103
 40
1.0
 40
1.0
 40
1.0
 40
1.0
 10
-7.6266134439
 20
15.3553891568
 30
0.0
 10
-7.6258991542
 20
15.3530034857
 30
0.0
 10
-7.6114209035
 20
15.3051078966
 30
0.0
 10
-7.5787004977
 20
15.2145063243
 30
0.0
 10
-7.5176479479
 20
15.0907713077
 30
0.0
 10
-7.4186075137
 20
14.9467260024
 30
0.0
 10
-7.1800034402
 20
14.7259346967
 30
0.0
 10
-6.8877345574
 20
14.6736165649
 30
0.0
 10
-6.6974714518
 20
14.6736165649
 30
0.0
  0
SPLINE
  5
5E2
100
AcDbEntity
  8
0
100
AcDbSpline
 62
7
  6
CONTINUOUS
 70
0
 71
3
 72
13
 73
9
 74
0
 42
0.0000001
 43
0.0000001
 44
0.0000000001
 40
0.0
 40
0.0
 40
0.0
 40
0.0
 40
0.1043010254
 40
0.2149480373
 40
0.3218454549
 40
0.5344813954
 40
0.7554618715
 40
1.0
 40
1.0
 40
1.0
 40
1.0
 10
-7.3684966895
 20
16.0929714045
 30
0.0
 10
-7.360720789
 20
16.1236912851
 30
0.0
 10
-7.3420750935
 20
16.1862682771
 30
0.0
 10
-7.3055956006
 20
16.2768802478
 30
0.0
 10
-7.2373591342
 20
16.3883996037
 30
0.0
 10
-7.1192335388
 20
16.5060859585
 30
0.0
 10
-6.930275522
 20
16.5959389516
 30
0.0
 10
-6.7878278461
 20
16.6114142946
 30
0.0
 10
-6.713805739
 20
16.6114142946
 30
0.0
  0
SPLINE
  5
5E3
100
AcDbEntity
  8
0
100
AcDbSpline
 62
7
  6
CONTINUOUS
 70
0
 71
3
 72
11
 73
7
 74
0
 42
0.0000001
 43
0.0000001
 44
0.0000000001
 40
0.0
 40
0.0
 40
0.0
 40
0.0
 40
0.2583644873
 40
0.4885486748
 40
0.7258189793
 40
1.0
 40
1.0
 40
1.0
 40
1.0
 10
-8.9146911567
 20
18.0600797394
 30
0.0
 10
-8.9578287818
 20
18.0796735019
 30
0.0
 10
-9.035672455
 20
18.1253179609
 30
0.0
 10
-9.1267264327
 20
18.2250568422
 30
0.0
 10
-9.1810320541
 20
18.3511788312
 30
0.0
 10
-9.1985986341
 20
18.4435231723
 30
0.0
 10
-9.2041786694
 20
18.4933140129
 30
0.0
  0
SPLINE
  5
5E4
100
AcDbEntity
  8
RACCORDO
100
AcDbSpline
 62
250
  6
CONTINUOUS
 70
0
 71
3
 72
9
 73
5
 74
0
 42
0.0000001
 43
0.0000001
 44
0.0000000001
 40
0.0
 40
0.0
 40
0.0
 40
0.0
 40
0.4995776119
 40
1.0
 40
1.0
 40
1.0
 40
1.0
 10
-17.5630444704
 20
23.1642840462
 30
0.0
 10
-17.6331317634
 20
23.0428072953
 30
0.0
 10
-17.7313408557
 20
22.7757022928
 30
0.0
 10
-17.7810134536
 20
22.4991759608
 30
0.0
 10
-17.8004299249
 20
22.3600414728
 30
0.0
  0
SPLINE
  5
5E5
100
AcDbEntity
  8
RACCORDO
100
AcDbSpline
 62
250
  6
CONTINUOUS
 70
0
 71
3
 72
9
 73
5
 74
0
 42
0.0000001
 43
0.0000001
 44
0.0000000001
 40
0.0
 40
0.0
 40
0.0
 40
0.0
 40
0.4995776119
 40
1.0
 40
1.0
 40
1.0
 40
1.0
 10
-18.7885874777
 20
-16.1126520981
 30
0.0
 10
-18.7185001847
 20
-15.9911753472
 30
0.0
 10
-18.6202910924
 20
-15.7240703447
 30
0.0
 10
-18.5706184945
 20
-15.4475440127
 30
0.0
 10
-18.5512020232
 20
-15.3084095247
 30
0.0
  0
SPLINE
  5
5E6
100
AcDbEntity
  8
RACCORDO
100
AcDbSpline
 62
250
  6
CONTINUOUS
 70
0
 71
3
 72
8
 73
4
 74
0
 42
0.0000001
 43
0.0000001
 44
0.0000000001
 40
0.0
 40
0.0
 40
0.0
 40
0.0
 40
1.0
 40
1.0
 40
1.0
 40
1.0
 10
-18.5512020232
 20
-15.3084095247
 30
0.0
 10
-18.5288342492
 20
-15.148102554
 30
0.0
 10
-18.513948328
 20
-14.9868057023
 30
0.0
 10
-18.4993901646
 20
-14.8256017878
 30
0.0
  0
SPLINE
  5
5E7
100
AcDbEntity
  8
RACCORDO
100
AcDbSpline
 62
250
  6
CONTINUOUS
 70
0
 71
3
 72
9
 73
5
 74
0
 42
0.0000001
 43
0.0000001
 44
0.0000000001
 40
0.0
 40
0.0
 40
0.0
 40
0.0
 40
0.25059292
 40
1.0
 40
1.0
 40
1.0
 40
1.0
 10
-18.4993887987
 20
-14.825587482
 30
0.0
 10
-18.5122691873
 20
-14.8647770826
 30
0.0
 10
-18.5637550049
 20
-15.0211347466
 30
0.0
 10
-18.6160369521
 20
-15.1772422039
 30
0.0
 10
-18.6567900343
 20
-15.293682179
 30
0.0
  0
SPLINE
  5
5E8
100
AcDbEntity
  8
RACCORDO
100
AcDbSpline
 62
250
  6
CONTINUOUS
 70
0
 71
3
 72
10
 73
6
 74
0
 42
0.0000001
 43
0.0000001
 44
0.0000000001
 40
0.0
 40
0.0
 40
0.0
 40
0.0
 40
0.5041601325
 40
0.7531147544
 40
1.0
 40
1.0
 40
1.0
 40
1.0
 10
-18.6567883933
 20
-15.2936824081
 30
0.0
 10
-18.7001976595
 20
-15.4177189053
 30
0.0
 10
-18.7674548787
 20
-15.6022849972
 30
0.0
 10
-18.870547281
 20
-15.841756303
 30
0.0
 10
-18.9293172238
 20
-15.9571032458
 30
0.0
 10
-18.9617640119
 20
-16.0126770813
 30
0.0
  0
SPLINE
  5
5E9
100
AcDbEntity
  8
RACCORDO
100
AcDbSpline
 62
250
  6
CONTINUOUS
 70
0
 71
3
 72
10
 73
6
 74
0
 42
0.0000001
 43
0.0000001
 44
0.0000000001
 40
0.0
 40
0.0
 40
0.0
 40
0.0
 40
0.2468853549
 40
0.4958390477
 40
1.0
 40
1.0
 40
1.0
 40
1.0
 10
-17.3898688041
 20
-16.0126761307
 30
0.0
 10
-17.4223156448
 20
-15.9571026124
 30
0.0
 10
-17.4810826433
 20
-15.841755059
 30
0.0
 10
-17.584180188
 20
-15.6022872605
 30
0.0
 10
-17.6514327111
 20
-15.41772022
 30
0.0
 10
-17.6948428755
 20
-15.2936844074
 30
0.0
  0
SPLINE
  5
5EA
100
AcDbEntity
  8
RACCORDO
100
AcDbSpline
 62
250
  6
CONTINUOUS
 70
0
 71
3
 72
8
 73
4
 74
0
 42
0.0000001
 43
0.0000001
 44
0.0000000001
 40
0.0
 40
0.0
 40
0.0
 40
0.0
 40
1.0
 40
1.0
 40
1.0
 40
1.0
 10
-17.8522428097
 20
-14.8255910401
 30
0.0
 10
-17.8376952884
 20
-14.9868002745
 30
0.0
 10
-17.8227968278
 20
-15.1481003298
 30
0.0
 10
-17.8004287062
 20
-15.3084116356
 30
0.0
  0
SPLINE
  5
5EB
100
AcDbEntity
  8
RACCORDO
100
AcDbSpline
 62
250
  6
CONTINUOUS
 70
0
 71
3
 72
9
 73
5
 74
0
 42
0.0000001
 43
0.0000001
 44
0.0000000001
 40
0.0
 40
0.0
 40
0.0
 40
0.0
 40
0.2491476471
 40
1.0
 40
1.0
 40
1.0
 40
1.0
 10
-17.6948409716
 20
-15.2936841417
 30
0.0
 10
-17.7083903288
 20
-15.2549723559
 30
0.0
 10
-17.7620493237
 20
-15.0993416793
 30
0.0
 10
-17.8136547195
 20
-14.943014278
 30
0.0
 10
-17.8522431494
 20
-14.825587482
 30
0.0
  0
SPLINE
  5
5EC
100
AcDbEntity
  8
RACCORDO
100
AcDbSpline
 62
250
  6
CONTINUOUS
 70
0
 71
3
 72
10
 73
6
 74
0
 42
0.0000001
 43
0.0000001
 44
0.0000000001
 40
0.0
 40
0.0
 40
0.0
 40
0.0
 40
0.246885384
 40
0.4958390602
 40
1.0
 40
1.0
 40
1.0
 40
1.0
 10
-18.9617632626
 20
23.0643082605
 30
0.0
 10
-18.9293163801
 20
23.0087347317
 30
0.0
 10
-18.8705493917
 20
22.8933871161
 30
0.0
 10
-18.7674517739
 20
22.6539192523
 30
0.0
 10
-18.7001992361
 20
22.4693521506
 30
0.0
 10
-18.6567890442
 20
22.3453163023
 30
0.0
  0
SPLINE
  5
5ED
100
AcDbEntity
  8
RACCORDO
100
AcDbSpline
 62
250
  6
CONTINUOUS
 70
0
 71
3
 72
8
 73
4
 74
0
 42
0.0000001
 43
0.0000001
 44
0.0000000001
 40
0.0
 40
0.0
 40
0.0
 40
0.0
 40
1.0
 40
1.0
 40
1.0
 40
1.0
 10
-18.4993891155
 20
21.8772228368
 30
0.0
 10
-18.5139424451
 20
22.0384315842
 30
0.0
 10
-18.5288497273
 20
22.1997301601
 30
0.0
 10
-18.551203219
 20
22.3600435439
 30
0.0
  0
SPLINE
  5
5EE
100
AcDbEntity
  8
RACCORDO
100
AcDbSpline
 62
250
  6
CONTINUOUS
 70
0
 71
3
 72
9
 73
5
 74
0
 42
0.0000001
 43
0.0000001
 44
0.0000000001
 40
0.0
 40
0.0
 40
0.0
 40
0.0
 40
0.2491618801
 40
1.0
 40
1.0
 40
1.0
 40
1.0
 10
-18.6567911372
 20
22.3453160105
 30
0.0
 10
-18.643242523
 20
22.3066014868
 30
0.0
 10
-18.5895859252
 20
22.1509700163
 30
0.0
 10
-18.5379792827
 20
21.9946430709
 30
0.0
 10
-18.4993887987
 20
21.8772194301
 30
0.0
  0
SPLINE
  5
5EF
100
AcDbEntity
  8
RACCORDO
100
AcDbSpline
 62
250
  6
CONTINUOUS
 70
0
 71
3
 72
9
 73
5
 74
0
 42
0.0000001
 43
0.0000001
 44
0.0000000001
 40
0.0
 40
0.0
 40
0.0
 40
0.0
 40
0.2506056609
 40
1.0
 40
1.0
 40
1.0
 40
1.0
 10
-17.8522431494
 20
21.8772194301
 30
0.0
 10
-17.8393613468
 20
21.9164107782
 30
0.0
 10
-17.7878787909
 20
22.0727695498
 30
0.0
 10
-17.7355894638
 20
22.2288744796
 30
0.0
 10
-17.6948416516
 20
22.3453140905
 30
0.0
  0
SPLINE
  5
5F0
100
AcDbEntity
  8
RACCORDO
100
AcDbSpline
 62
250
  6
CONTINUOUS
 70
0
 71
3
 72
8
 73
4
 74
0
 42
0.0000001
 43
0.0000001
 44
0.0000000001
 40
0.0
 40
0.0
 40
0.0
 40
0.0
 40
1.0
 40
1.0
 40
1.0
 40
1.0
 10
-17.8004299249
 20
22.3600414728
 30
0.0
 10
-17.8227829633
 20
22.1997324454
 30
0.0
 10
-17.8376760136
 20
22.0384369613
 30
0.0
 10
-17.8522418186
 20
21.8772337359
 30
0.0
  0
SPLINE
  5
5F1
100
AcDbEntity
  8
RACCORDO
100
AcDbSpline
 62
250
  6
CONTINUOUS
 70
0
 71
3
 72
10
 73
6
 74
0
 42
0.0000001
 43
0.0000001
 44
0.0000000001
 40
0.0
 40
0.0
 40
0.0
 40
0.0
 40
0.5041601325
 40
0.7531147544
 40
1.0
 40
1.0
 40
1.0
 40
1.0
 10
-17.6948435548
 20
22.3453143562
 30
0.0
 10
-17.6514342886
 20
22.4693508534
 30
0.0
 10
-17.5841770694
 20
22.6539169453
 30
0.0
 10
-17.4810846671
 20
22.8933882511
 30
0.0
 10
-17.4223147243
 20
23.0087351939
 30
0.0
 10
-17.3898679363
 20
23.0643090294
 30
0.0
  0
SPLINE
  5
5F2
100
AcDbEntity
  8
RACCORDO
100
AcDbSpline
 62
7
  6
CONTINUOUS
 70
0
 71
3
 72
13
 73
9
 74
0
 42
0.0000001
 43
0.0000001
 44
0.0000000001
 40
0.0
 40
0.0
 40
0.0
 40
0.0
 40
0.2758478314
 40
0.5430135661
 40
0.6699485836
 40
0.789978861
 40
0.9007519243
 40
1.0
 40
1.0
 40
1.0
 40
1.0
 10
-0.3417152549
 20
-14.825587482
 30
0.0
 10
-0.2853434418
 20
-14.9232263265
 30
0.0
 10
-0.1743875986
 20
-15.1154210888
 30
0.0
 10
-0.0434035669
 20
-15.3560235266
 30
0.0
 10
0.0473705538
 20
-15.5455977179
 30
0.0
 10
0.1032392267
 20
-15.6808703045
 30
0.0
 10
0.1437822923
 20
-15.8096877148
 30
0.0
 10
0.1574294787
 20
-15.8951979208
 30
0.0
 10
0.1582085927
 20
-15.9357547878
 30
0.0
  0
SPLINE
  5
5F3
100
AcDbEntity
  8
RACCORDO
100
AcDbSpline
 62
7
  6
CONTINUOUS
 70
0
 71
3
 72
13
 73
9
 74
0
 42
0.0000001
 43
0.0000001
 44
0.0000000001
 40
0.0
 40
0.0
 40
0.0
 40
0.0
 40
0.0992552746
 40
0.2100352322
 40
0.3300636747
 40
0.4569973857
 40
0.7241621776
 40
1.0
 40
1.0
 40
1.0
 40
1.0
 10
-7.5098405408
 20
-15.9357547878
 30
0.0
 10
-7.5090613703
 20
-15.8951949813
 30
0.0
 10
-7.4954114696
 20
-15.8096792837
 30
0.0
 10
-7.4548673596
 20
-15.6808570324
 30
0.0
 10
-7.3989957985
 20
-15.5455839275
 30
0.0
 10
-7.3082222895
 20
-15.3560113746
 30
0.0
 10
-7.1772399607
 20
-15.1154136921
 30
0.0
 10
-7.0662864578
 20
-14.9232227782
 30
0.0
 10
-7.0099166932
 20
-14.825587482
 30
0.0
  0
SPLINE
  5
5F4
100
AcDbEntity
  8
RACCORDO
100
AcDbSpline
 62
7
  6
CONTINUOUS
 70
0
 71
3
 72
13
 73
9
 74
0
 42
0.0000001
 43
0.0000001
 44
0.0000000001
 40
0.0
 40
0.0
 40
0.0
 40
0.0
 40
0.2758478314
 40
0.5430135661
 40
0.6699485836
 40
0.789978861
 40
0.9007519243
 40
1.0
 40
1.0
 40
1.0
 40
1.0
 10
14.675587482
 20
19.8599166932
 30
0.0
 10
14.7732263265
 20
19.9162885064
 30
0.0
 10
14.9654210888
 20
20.0272443495
 30
0.0
 10
15.2060235266
 20
20.1582283812
 30
0.0
 10
15.3955977179
 20
20.2490025019
 30
0.0
 10
15.5308703045
 20
20.3048711748
 30
0.0
 10
15.6596877148
 20
20.3454142404
 30
0.0
 10
15.7451979208
 20
20.3590614268
 30
0.0
 10
15.7857547878
 20
20.3598405408
 30
0.0
  0
SPLINE
  5
5F5
100
AcDbEntity
  8
RACCORDO
100
AcDbSpline
 62
7
  6
CONTINUOUS
 70
0
 71
3
 72
13
 73
9
 74
0
 42
0.0000001
 43
0.0000001
 44
0.0000000001
 40
0.0
 40
0.0
 40
0.0
 40
0.0
 40
0.0992552746
 40
0.2100352322
 40
0.3300636747
 40
0.4569973857
 40
0.7241621776
 40
1.0
 40
1.0
 40
1.0
 40
1.0
 10
15.7857547878
 20
12.6917914073
 30
0.0
 10
15.7451949813
 20
12.6925705778
 30
0.0
 10
15.6596792837
 20
12.7062204786
 30
0.0
 10
15.5308570324
 20
12.7467645885
 30
0.0
 10
15.3955839275
 20
12.8026361497
 30
0.0
 10
15.2060113746
 20
12.8934096586
 30
0.0
 10
14.9654136921
 20
13.0243919874
 30
0.0
 10
14.7732227782
 20
13.1353454903
 30
0.0
 10
14.675587482
 20
13.1917152549
 30
0.0
  0
SPLINE
  5
5F6
100
AcDbEntity
  8
RACCORDO
100
AcDbSpline
 62
250
  6
CONTINUOUS
 70
0
 71
3
 72
22
 73
18
 74
0
 42
0.0000001
 43
0.0000001
 44
0.0000000001
 40
0.0
 40
0.0
 40
0.0
 40
0.0
 40
0.1770019724
 40
0.349973287
 40
0.5144638182
 40
0.6654636681
 40
0.7340411302
 40
0.7968769051
 40
0.8530187383
 40
0.9014858299
 40
0.9412754697
 40
0.9576198023
 40
0.9714518624
 40
0.9826657227
 40
0.9911855389
 40
0.9969681413
 40
1.0
 40
1.0
 40
1.0
 40
1.0
 10
-17.8522338262
 20
21.8772337359
 30
0.0
 10
-17.7937155042
 20
21.9666661568
 30
0.0
 10
-17.6777599806
 20
22.1433300768
 30
0.0
 10
-17.5065467262
 20
22.4025287253
 30
0.0
 10
-17.3431867327
 20
22.6480965545
 30
0.0
 10
-17.2139906119
 20
22.8406816927
 30
0.0
 10
-17.1184101876
 20
22.9819023915
 30
0.0
 10
-17.0546235974
 20
23.0754786265
 30
0.0
 10
-16.9973279457
 20
23.158783447
 30
0.0
 10
-16.9475099746
 20
23.2303387362
 30
0.0
 10
-16.9110067191
 20
23.2818861458
 30
0.0
 10
-16.8862142899
 20
23.3160889051
 30
0.0
 10
-16.8713589869
 20
23.3361974745
 30
0.0
 10
-16.8590710317
 20
23.3522887822
 30
0.0
 10
-16.8494983008
 20
23.3644307537
 30
0.0
 10
-16.8425960688
 20
23.3721689012
 30
0.0
 10
-16.8388615307
 20
23.376158581
 30
0.0
 10
-16.837231036
 20
23.3769909728
 30
0.0
  0
SPLINE
  5
5F7
100
AcDbEntity
  8
RACCORDO
100
AcDbSpline
 62
250
  6
CONTINUOUS
 70
0
 71
3
 72
22
 73
18
 74
0
 42
0.0000001
 43
0.0000001
 44
0.0000000001
 40
0.0
 40
0.0
 40
0.0
 40
0.0
 40
0.0030263545
 40
0.0088005915
 40
0.0173128678
 40
0.0285213183
 40
0.0423444597
 40
0.0586794525
 40
0.0984603045
 40
0.1469235406
 40
0.2030665337
 40
0.2659070878
 40
0.3344906514
 40
0.4855096761
 40
0.6500220843
 40
0.8229988014
 40
1.0
 40
1.0
 40
1.0
 40
1.0
 10
-16.83721631
 20
-16.3253618297
 30
0.0
 10
-16.8388449801
 20
-16.3245331211
 30
0.0
 10
-16.8425768424
 20
-16.320551848
 30
0.0
 10
-16.8494735256
 20
-16.3128262037
 30
0.0
 10
-16.8590410908
 20
-16.3006960237
 30
0.0
 10
-16.8713223406
 20
-16.284615951
 30
0.0
 10
-16.8861702704
 20
-16.2645192312
 30
0.0
 10
-16.910953683
 20
-16.2303293934
 30
0.0
 10
-16.9474493027
 20
-16.1787917572
 30
0.0
 10
-16.9972658947
 20
-16.107242488
 30
0.0
 10
-17.0545635759
 20
-16.0239358221
 30
0.0
 10
-17.1183555301
 20
-15.9303525394
 30
0.0
 10
-17.2139475348
 20
-15.7891148983
 30
0.0
 10
-17.3431612473
 20
-15.5965033904
 30
0.0
 10
-17.5065386325
 20
-15.3509085126
 30
0.0
 10
-17.6777632659
 20
-15.0916930206
 30
0.0
 10
-17.7937220392
 20
-14.915024373
 30
0.0
 10
-17.8522408298
 20
-14.8255910401
 30
0.0
  0
SPLINE
  5
5F8
100
AcDbEntity
  8
RACCORDO
100
AcDbSpline
 62
250
  6
CONTINUOUS
 70
0
 71
3
 72
22
 73
18
 74
0
 42
0.0000001
 43
0.0000001
 44
0.0000000001
 40
0.0
 40
0.0
 40
0.0
 40
0.0
 40
0.0030290174
 40
0.0088073324
 40
0.0173241475
 40
0.0285367773
 40
0.0423634802
 40
0.0587014967
 40
0.0984870517
 40
0.1469531864
 40
0.2030974337
 40
0.2659376657
 40
0.3345197357
 40
0.4855332882
 40
0.650038344
 40
0.8230076745
 40
1.0
 40
1.0
 40
1.0
 40
1.0
 10
-19.5144009121
 20
23.3769909728
 30
0.0
 10
-19.5127718359
 20
23.3761595465
 30
0.0
 10
-19.5090396015
 20
23.3721737578
 30
0.0
 10
-19.5021410439
 20
23.3644403028
 30
0.0
 10
-19.4925712238
 20
23.3523024691
 30
0.0
 10
-19.480286786
 20
23.3362155722
 30
0.0
 10
-19.4654354454
 20
23.3161135449
 30
0.0
 10
-19.4406479844
 20
23.2819185523
 30
0.0
 10
-19.4041487832
 20
23.2303761161
 30
0.0
 10
-19.3543299604
 20
23.1588225876
 30
0.0
 10
-19.2970316666
 20
23.0755143569
 30
0.0
 10
-19.233240565
 20
22.9819318171
 30
0.0
 10
-19.1376519325
 20
22.8406985817
 30
0.0
 10
-19.0084440892
 20
22.6480954109
 30
0.0
 10
-18.8450746474
 20
22.40251227
 30
0.0
 10
-18.6738590845
 20
22.1433103575
 30
0.0
 10
-18.5579064814
 20
21.9666510903
 30
0.0
 10
-18.4993910156
 20
21.8772228368
 30
0.0
  0
SPLINE
  5
5F9
100
AcDbEntity
  8
RACCORDO
100
AcDbSpline
 62
250
  6
CONTINUOUS
 70
0
 71
3
 72
22
 73
18
 74
0
 42
0.0000001
 43
0.0000001
 44
0.0000000001
 40
0.0
 40
0.0
 40
0.0
 40
0.0
 40
0.1770019724
 40
0.349973287
 40
0.5144638182
 40
0.6654636681
 40
0.7340411302
 40
0.7968769051
 40
0.8530187383
 40
0.9014858299
 40
0.9412754697
 40
0.9576198023
 40
0.9714518624
 40
0.9826657227
 40
0.9911855389
 40
0.9969681413
 40
1.0
 40
1.0
 40
1.0
 40
1.0
 10
-18.499398122
 20
-14.8256017878
 30
0.0
 10
-18.5579164439
 20
-14.9150342087
 30
0.0
 10
-18.6738719676
 20
-15.0916981287
 30
0.0
 10
-18.845085222
 20
-15.3508967772
 30
0.0
 10
-19.0084452154
 20
-15.5964646064
 30
0.0
 10
-19.1376413362
 20
-15.7890497446
 30
0.0
 10
-19.2332217605
 20
-15.9302704434
 30
0.0
 10
-19.2970083507
 20
-16.0238466784
 30
0.0
 10
-19.3543040024
 20
-16.1071514989
 30
0.0
 10
-19.4041219735
 20
-16.1787067881
 30
0.0
 10
-19.440625229
 20
-16.2302541977
 30
0.0
 10
-19.4654176582
 20
-16.264456957
 30
0.0
 10
-19.4802729613
 20
-16.2845655264
 30
0.0
 10
-19.4925609165
 20
-16.3006568341
 30
0.0
 10
-19.5021336474
 20
-16.3127988055
 30
0.0
 10
-19.5090358793
 20
-16.3205369531
 30
0.0
 10
-19.5127704174
 20
-16.3245266329
 30
0.0
 10
-19.5144009121
 20
-16.3253590247
 30
0.0
  0
SPLINE
  5
5FA
100
AcDbEntity
  8
RACCORDO
100
AcDbSpline
 62
250
  6
CONTINUOUS
 70
0
 71
3
 72
18
 73
14
 74
0
 42
0.0000001
 43
0.0000001
 44
0.0000000001
 40
0.0
 40
0.0
 40
0.0
 40
0.0
 40
0.0085491452
 40
0.0253305463
 40
0.050328479
 40
0.083418693
 40
0.124357987
 40
0.1728764074
 40
0.2914376813
 40
0.4363454719
 40
0.6047145096
 40
0.7936188577
 40
1.0
 40
1.0
 40
1.0
 40
1.0
 10
-19.3412222113
 20
23.6769452814
 30
0.0
 10
-19.3394469435
 20
23.6759114667
 30
0.0
 10
-19.3355262804
 20
23.6710225019
 30
0.0
 10
-19.3281306476
 20
23.6616152486
 30
0.0
 10
-19.3178770976
 20
23.6467449496
 30
0.0
 10
-19.304638136
 20
23.627005366
 30
0.0
 10
-19.2886057858
 20
23.602290446
 30
0.0
 10
-19.2617532543
 20
23.5601340399
 30
0.0
 10
-19.2221242847
 20
23.4964883543
 30
0.0
 10
-19.1679233584
 20
23.4079992547
 30
0.0
 10
-19.1054400266
 20
23.3047609467
 30
0.0
 10
-19.0357578568
 20
23.1886149556
 30
0.0
 10
-18.9871413392
 20
23.1070127279
 30
0.0
 10
-18.9618108067
 20
23.0643765671
 30
0.0
  0
SPLINE
  5
5FB
100
AcDbEntity
  8
RACCORDO
100
AcDbSpline
 62
250
  6
CONTINUOUS
 70
0
 71
3
 72
9
 73
5
 74
0
 42
0.0000001
 43
0.0000001
 44
0.0000000001
 40
0.0
 40
0.0
 40
0.0
 40
0.0
 40
0.5004234338
 40
1.0
 40
1.0
 40
1.0
 40
1.0
 10
-17.8004287062
 20
-15.3084116356
 30
0.0
 10
-17.7810128766
 20
-15.4475449877
 30
0.0
 10
-17.7313420687
 20
-15.7240685211
 30
0.0
 10
-17.6331347363
 20
-15.9911711411
 30
0.0
 10
-17.563047934
 20
-16.112646099
 30
0.0
  0
SPLINE
  5
5FC
100
AcDbEntity
  8
RACCORDO
100
AcDbSpline
 62
250
  6
CONTINUOUS
 70
0
 71
3
 72
18
 73
14
 74
0
 42
0.0000001
 43
0.0000001
 44
0.0000000001
 40
0.0
 40
0.0
 40
0.0
 40
0.0
 40
0.2063678639
 40
0.3952485112
 40
0.5636042839
 40
0.70851194
 40
0.8270766973
 40
0.87560331
 40
0.9165563528
 40
0.9496531679
 40
0.9746548807
 40
0.9914444041
 40
1.0
 40
1.0
 40
1.0
 40
1.0
 10
-18.9618157194
 20
-16.0127531238
 30
0.0
 10
-18.9871442118
 20
-16.0553859813
 30
0.0
 10
-19.0357555599
 20
-16.1369794049
 30
0.0
 10
-19.1054306936
 20
-16.2531133359
 30
0.0
 10
-19.1679082013
 20
-16.3563427813
 30
0.0
 10
-19.2221071292
 20
-16.4448286178
 30
0.0
 10
-19.2617366647
 20
-16.508475978
 30
0.0
 10
-19.2885919231
 20
-16.5506370778
 30
0.0
 10
-19.3046273699
 20
-16.5753576456
 30
0.0
 10
-19.3178696189
 20
-16.5951017006
 30
0.0
 10
-19.3281261447
 20
-16.6099748268
 30
0.0
 10
-19.3355241968
 20
-16.6193859354
 30
0.0
 10
-19.3394462255
 20
-16.6242777288
 30
0.0
 10
-19.3412222113
 20
-16.6253133333
 30
0.0
  0
SPLINE
  5
5FD
100
AcDbEntity
  8
RACCORDO
100
AcDbSpline
 62
250
  6
CONTINUOUS
 70
0
 71
3
 72
18
 73
14
 74
0
 42
0.0000001
 43
0.0000001
 44
0.0000000001
 40
0.0
 40
0.0
 40
0.0
 40
0.0
 40
0.0085484716
 40
0.0253298018
 40
0.0503280324
 40
0.0834183198
 40
0.1243573465
 40
0.1728754646
 40
0.2914361473
 40
0.436343399
 40
0.6047125794
 40
0.7936183228
 40
1.0
 40
1.0
 40
1.0
 40
1.0
 10
-17.0104097368
 20
-16.6253133333
 30
0.0
 10
-17.0121850241
 20
-16.6242798478
 30
0.0
 10
-17.0161055454
 20
-16.6193907468
 30
0.0
 10
-17.0235011781
 20
-16.6099836882
 30
0.0
 10
-17.0337547403
 20
-16.5951130909
 30
0.0
 10
-17.046993798
 20
-16.5753733924
 30
0.0
 10
-17.0630261951
 20
-16.5506584097
 30
0.0
 10
-17.0898787702
 20
-16.5085019903
 30
0.0
 10
-17.1295078148
 20
-16.4448561914
 30
0.0
 10
-17.1837089574
 20
-16.3563667297
 30
0.0
 10
-17.2461928015
 20
-16.2531275531
 30
0.0
 10
-17.3158756373
 20
-16.1369803757
 30
0.0
 10
-17.3644926773
 20
-16.0553772158
 30
0.0
 10
-17.3898234236
 20
-16.0127406655
 30
0.0
  0
SPLINE
  5
5FE
100
AcDbEntity
  8
RACCORDO
100
AcDbSpline
 62
250
  6
CONTINUOUS
 70
0
 71
3
 72
18
 73
14
 74
0
 42
0.0000001
 43
0.0000001
 44
0.0000000001
 40
0.0
 40
0.0
 40
0.0
 40
0.0
 40
0.2063678639
 40
0.3952485112
 40
0.5636042839
 40
0.70851194
 40
0.8270766973
 40
0.87560331
 40
0.9165563528
 40
0.9496531679
 40
0.9746548807
 40
0.9914444041
 40
1.0
 40
1.0
 40
1.0
 40
1.0
 10
-17.3898162287
 20
23.0643850719
 30
0.0
 10
-17.3644877363
 20
23.1070179294
 30
0.0
 10
-17.3158763882
 20
23.188611353
 30
0.0
 10
-17.2462012545
 20
23.304745284
 30
0.0
 10
-17.1837237468
 20
23.4079747294
 30
0.0
 10
-17.1295248189
 20
23.496460566
 30
0.0
 10
-17.0898952835
 20
23.5601079261
 30
0.0
 10
-17.063040025
 20
23.602269026
 30
0.0
 10
-17.0470045782
 20
23.6269895937
 30
0.0
 10
-17.0337623292
 20
23.6467336488
 30
0.0
 10
-17.0235058034
 20
23.6616067749
 30
0.0
 10
-17.0161077513
 20
23.6710178835
 30
0.0
 10
-17.0121857226
 20
23.675909677
 30
0.0
 10
-17.0104097368
 20
23.6769452814
 30
0.0
  0
SPLINE
  5
5FF
100
AcDbEntity
  8
RACCORDO
100
AcDbSpline
 62
250
  6
CONTINUOUS
 70
0
 71
3
 72
9
 73
5
 74
0
 42
0.0000001
 43
0.0000001
 44
0.0000000001
 40
0.0
 40
0.0
 40
0.0
 40
0.0
 40
0.500423444
 40
1.0
 40
1.0
 40
1.0
 40
1.0
 10
-18.551203219
 20
22.3600435439
 30
0.0
 10
-18.5706190649
 20
22.4991769614
 30
0.0
 10
-18.6202899174
 20
22.7757006147
 30
0.0
 10
-18.7184973144
 20
23.042803357
 30
0.0
 10
-18.7885841863
 20
23.1642783453
 30
0.0
  0
ELLIPSE
  5
600
100
AcDbEntity
  8
RACCORDO
100
AcDbEllipse
 62
7
  6
CONTINUOUS
 10
-23.8758464397
 20
11.7258464397
 30
0.0
 11
-0.1414644378
 21
0.1414644378
 31
0.0
 40
0.9996954599
 41
-3.9268385236
 42
-2.3563467834
  0
ELLIPSE
  5
601
100
AcDbEntity
  8
RACCORDO
100
AcDbEllipse
 62
7
  6
CONTINUOUS
 10
14.3238793699
 20
21.525511318
 30
0.0
 11
-1.4146443783
 21
-1.4146443783
 31
0.0
 40
0.9996954599
 41
8.6395320906
 42
10.2100238309
  0
ELLIPSE
  5
602
100
AcDbEntity
  8
RACCORDO
100
AcDbEllipse
 62
7
  6
CONTINUOUS
 10
16.5242144916
 20
-4.6742144916
 30
0.0
 11
0.1414644378
 21
-0.1414644378
 31
0.0
 40
0.9996954599
 41
2.3563467836
 42
3.9268385237
  0
ELLIPSE
  5
603
100
AcDbEntity
  8
RACCORDO
100
AcDbEllipse
 62
7
  6
CONTINUOUS
 10
14.3238793699
 20
-14.4738793699
 30
0.0
 11
-1.4146443783
 21
1.4146443783
 31
0.0
 40
0.9996954599
 41
8.6395320906
 42
10.2100238309
  0
ELLIPSE
  5
604
100
AcDbEntity
  8
RACCORDO
100
AcDbEllipse
 62
7
  6
CONTINUOUS
 10
-25.0867951429
 20
-0.8850870308
 30
0.0
 11
-0.0
 21
0.5
 31
0.0
 40
0.0174550649
 41
-3.1241393611
 42
-1.5707963268
  0
ELLIPSE
  5
605
100
AcDbEntity
  8
RACCORDO
100
AcDbEllipse
 62
7
  6
CONTINUOUS
 10
-23.7648368052
 20
-0.8850870308
 30
0.0
 11
0.0
 21
0.5
 31
0.0
 40
0.0174550649
 41
-4.7123889804
 42
-3.1590459461
  0
ELLIPSE
  5
606
100
AcDbEntity
  8
RACCORDO
100
AcDbEllipse
 62
7
  6
CONTINUOUS
 10
-23.7648368052
 20
7.9367189789
 30
0.0
 11
0.0
 21
0.5
 31
0.0
 40
0.0174550649
 41
0.0174532925
 42
1.5707963268
  0
ELLIPSE
  5
607
100
AcDbEntity
  8
RACCORDO
100
AcDbEllipse
 62
7
  6
CONTINUOUS
 10
-25.0867951429
 20
7.9367189789
 30
0.0
 11
0.0
 21
0.5
 31
0.0
 40
0.0174550649
 41
-1.5707963268
 42
-0.0174532925
  0
ELLIPSE
  5
608
100
AcDbEntity
  8
RACCORDO
100
AcDbEllipse
 62
7
  6
CONTINUOUS
 10
17.7351631948
 20
7.9367189789
 30
0.0
 11
0.0
 21
0.5
 31
0.0
 40
0.0174550649
 41
0.0174532925
 42
1.5707963268
  0
ELLIPSE
  5
609
100
AcDbEntity
  8
RACCORDO
100
AcDbEllipse
 62
7
  6
CONTINUOUS
 10
16.4132048571
 20
7.9367189789
 30
0.0
 11
0.0
 21
0.5
 31
0.0
 40
0.0174550649
 41
-1.5707963268
 42
-0.0174532925
  0
ELLIPSE
  5
60A
100
AcDbEntity
  8
RACCORDO
100
AcDbEllipse
 62
7
  6
CONTINUOUS
 10
16.4132048571
 20
-0.8850870308
 30
0.0
 11
-0.0
 21
0.5
 31
0.0
 40
0.0174550649
 41
-3.1241393611
 42
-1.5707963268
  0
ELLIPSE
  5
60B
100
AcDbEntity
  8
RACCORDO
100
AcDbEllipse
 62
7
  6
CONTINUOUS
 10
17.7351631948
 20
-0.8850870308
 30
0.0
 11
0.0
 21
0.5
 31
0.0
 40
0.0174550649
 41
-4.7123889804
 42
-3.1590459461
  0
ELLIPSE
  5
60C
100
AcDbEntity
  8
RACCORDO
100
AcDbEllipse
 62
7
  6
CONTINUOUS
 10
16.5242144916
 20
11.7258464397
 30
0.0
 11
0.1414644378
 21
0.1414644378
 31
0.0
 40
0.9996954599
 41
-3.9268385237
 42
-2.3563467836
  0
ELLIPSE
  5
60D
100
AcDbEntity
  8
RACCORDO
100
AcDbEllipse
 62
7
  6
CONTINUOUS
 10
-23.8758464397
 20
-4.6742144916
 30
0.0
 11
0.1414644378
 21
0.1414644378
 31
0.0
 40
0.9996954599
 41
-0.7852458701
 42
0.78524587
  0
ELLIPSE
  5
60E
100
AcDbEntity
  8
RACCORDO
100
AcDbEllipse
 62
7
  6
CONTINUOUS
 10
-23.8758464397
 20
-4.2741535603
 30
0.0
 11
0.1414644378
 21
-0.1414644378
 31
0.0
 40
0.9996954599
 41
-0.78524587
 42
0.7852458701
  0
ELLIPSE
  5
60F
100
AcDbEntity
  8
RACCORDO
100
AcDbEllipse
 62
7
  6
CONTINUOUS
 10
-20.8111865354
 20
23.4612322338
 30
0.0
 11
0.3
 21
0.0
 31
0.0
 40
0.0174550649
 41
3.1590459461
 42
4.7123889804
  0
ELLIPSE
  5
610
100
AcDbEntity
  8
RACCORDO
100
AcDbEllipse
 62
7
  6
CONTINUOUS
 10
13.4595545873
 20
23.4612322338
 30
0.0
 11
0.3
 21
-0.0
 31
0.0
 40
0.0174550649
 41
4.7123889804
 42
6.2657320147
  0
ELLIPSE
  5
611
100
AcDbEntity
  8
RACCORDO
100
AcDbEllipse
 62
7
  6
CONTINUOUS
 10
16.5242144916
 20
11.3257855084
 30
0.0
 11
-0.1414644378
 21
0.1414644378
 31
0.0
 40
0.9996954599
 41
-0.78524587
 42
0.7852458701
  0
ELLIPSE
  5
612
100
AcDbEntity
  8
RACCORDO
100
AcDbEllipse
 62
7
  6
CONTINUOUS
 10
16.5242144916
 20
-4.2741535603
 30
0.0
 11
0.1414644378
 21
0.1414644378
 31
0.0
 40
0.9996954599
 41
-3.9268385237
 42
-2.3563467836
  0
ELLIPSE
  5
613
100
AcDbEntity
  8
RACCORDO
100
AcDbEllipse
 62
7
  6
CONTINUOUS
 10
-23.8758464397
 20
11.3257855084
 30
0.0
 11
0.1414644378
 21
0.1414644378
 31
0.0
 40
0.9996954599
 41
-0.7852458701
 42
0.78524587
  0
ELLIPSE
  5
614
100
AcDbEntity
  8
RACCORDO
100
AcDbEllipse
 62
7
  6
CONTINUOUS
 10
14.3238793699
 20
21.525511318
 30
0.0
 11
1.4146443783
 21
1.4146443783
 31
0.0
 40
0.9996954599
 41
-0.7852458701
 42
0.7852458701
  0
ELLIPSE
  5
615
100
AcDbEntity
  8
RACCORDO
100
AcDbEllipse
 62
7
  6
CONTINUOUS
 10
14.3238793699
 20
-14.4738793699
 30
0.0
 11
1.4146443783
 21
-1.4146443783
 31
0.0
 40
0.9996954599
 41
-0.7852458701
 42
0.7852458701
  0
ELLIPSE
  5
616
100
AcDbEntity
  8
RACCORDO
100
AcDbEllipse
 62
7
  6
CONTINUOUS
 10
-21.675511318
 20
-14.4738793699
 30
0.0
 11
1.4146443783
 21
1.4146443783
 31
0.0
 40
0.9996954599
 41
-3.9268385237
 42
-2.3563467834
  0
ELLIPSE
  5
617
100
AcDbEntity
  8
RACCORDO
100
AcDbEllipse
 62
7
  6
CONTINUOUS
 10
-21.675511318
 20
21.525511318
 30
0.0
 11
1.4146443783
 21
-1.4146443783
 31
0.0
 40
0.9996954599
 41
2.3563467834
 42
3.9268385237
  0
ELLIPSE
  5
618
100
AcDbEntity
  8
0
100
AcDbEllipse
 62
7
  6
CONTINUOUS
 10
-16.5739940957
 20
-17.3543180678
 30
0.0
 11
0.2121966568
 21
-0.2121966568
 31
0.0
 40
0.9996954599
 41
-0.7852458701
 42
0.7852458701
  0
ELLIPSE
  5
619
100
AcDbEntity
  8
0
100
AcDbEllipse
 62
7
  6
CONTINUOUS
 10
-19.7776378524
 20
-17.3543180678
 30
0.0
 11
0.2121966568
 21
0.2121966568
 31
0.0
 40
0.9996954599
 41
2.3563467834
 42
3.9268385237
  0
ELLIPSE
  5
61A
100
AcDbEntity
  8
0
100
AcDbEllipse
 62
7
  6
CONTINUOUS
 10
-20.2755112019
 20
24.8255112019
 30
0.0
 11
-0.3539842723
 21
0.3539842723
 31
0.0
 40
0.998782766
 41
-0.7847891758
 42
0.7847891758
  0
ELLIPSE
  5
61B
100
AcDbEntity
  8
0
100
AcDbEllipse
 62
7
  6
CONTINUOUS
 10
-6.2761207462
 20
24.8255112019
 30
0.0
 11
0.3539842723
 21
0.3539842723
 31
0.0
 40
0.998782766
 41
-0.7847891758
 42
0.7847891758
  0
ELLIPSE
  5
61C
100
AcDbEntity
  8
RACCORDO
100
AcDbEllipse
 62
7
  6
CONTINUOUS
 10
23.175511318
 20
18.3771432661
 30
0.0
 11
1.4146443783
 21
1.4146443783
 31
0.0
 40
0.9996954599
 41
-0.7852458701
 42
0.7852458701
  0
ELLIPSE
  5
61D
100
AcDbEntity
  8
RACCORDO
100
AcDbEllipse
 62
7
  6
CONTINUOUS
 10
23.175511318
 20
14.674488682
 30
0.0
 11
1.4146443783
 21
-1.4146443783
 31
0.0
 40
0.9996954599
 41
-0.7852458701
 42
0.7852458701
  0
ELLIPSE
  5
61E
100
AcDbEntity
  8
RACCORDO
100
AcDbEllipse
 62
7
  6
CONTINUOUS
 10
-5.5271432661
 20
-23.325511318
 30
0.0
 11
1.4146443783
 21
1.4146443783
 31
0.0
 40
0.9996954599
 41
-3.9268385237
 42
-2.3563467834
  0
ELLIPSE
  5
61F
100
AcDbEntity
  8
RACCORDO
100
AcDbEllipse
 62
7
  6
CONTINUOUS
 10
-1.824488682
 20
-23.325511318
 30
0.0
 11
1.4146443783
 21
-1.4146443783
 31
0.0
 40
0.9996954599
 41
-0.7852458701
 42
0.7852458701
  0
ELLIPSE
  5
620
100
AcDbEntity
  8
RACCORDO
100
AcDbEllipse
 62
7
  6
CONTINUOUS
 10
13.5578243136
 20
23.4594867273
 30
0.0
 11
0.2
 21
-0.0
 31
0.0
 40
0.0174550649
 41
-1.5707963268
 42
-0.0174532925
  0
ELLIPSE
  5
621
100
AcDbEntity
  8
RACCORDO
100
AcDbEllipse
 62
7
  6
CONTINUOUS
 10
-20.9094562617
 20
-16.4078547792
 30
0.0
 11
0.2
 21
-0.0
 31
0.0
 40
0.0174550649
 41
1.5707963268
 42
3.1241393611
  0
ELLIPSE
  5
622
100
AcDbEntity
  8
RACCORDO
100
AcDbEllipse
 62
7
  6
CONTINUOUS
 10
-20.9094562617
 20
23.4594867273
 30
0.0
 11
0.2
 21
-0.0
 31
0.0
 40
0.0174550649
 41
-3.1241393611
 42
-1.5707963268
  0
ELLIPSE
  5
623
100
AcDbEntity
  8
RACCORDO
100
AcDbEllipse
 62
7
  6
CONTINUOUS
 10
13.5578243136
 20
-16.4078547792
 30
0.0
 11
0.2
 21
-0.0
 31
0.0
 40
0.0174550649
 41
0.0174532925
 42
1.5707963268
  0
ELLIPSE
  5
624
100
AcDbEntity
  8
RACCORDO
100
AcDbEllipse
 62
7
  6
CONTINUOUS
 10
-21.5360992906
 20
0.9699597663
 30
0.0
 11
0.5
 21
-0.0
 31
0.0
 40
0.0174550649
 41
-3.1241393611
 42
-1.5707963268
  0
ELLIPSE
  5
625
100
AcDbEntity
  8
RACCORDO
100
AcDbEllipse
 62
7
  6
CONTINUOUS
 10
14.1844673425
 20
0.9699597663
 30
0.0
 11
0.5
 21
-0.0
 31
0.0
 40
0.0174550649
 41
-1.5707963268
 42
-0.0174532925
  0
ELLIPSE
  5
626
100
AcDbEntity
  8
RACCORDO
100
AcDbEllipse
 62
7
  6
CONTINUOUS
 10
-21.5360992906
 20
6.0816721818
 30
0.0
 11
0.5
 21
-0.0
 31
0.0
 40
0.0174550649
 41
1.5707963268
 42
3.1241393611
  0
ELLIPSE
  5
627
100
AcDbEntity
  8
RACCORDO
100
AcDbEllipse
 62
7
  6
CONTINUOUS
 10
14.1844673425
 20
6.0816721818
 30
0.0
 11
0.5
 21
-0.0
 31
0.0
 40
0.0174550649
 41
0.0174532925
 42
1.5707963268
  0
ELLIPSE
  5
628
100
AcDbEntity
  8
0
100
AcDbEllipse
 62
7
  6
CONTINUOUS
 10
-20.4511885721
 20
23.4437771689
 30
0.0
 11
0.3
 21
0.0
 31
0.0
 40
0.0174550649
 41
-3.1066860685
 42
-1.5707963268
  0
ELLIPSE
  5
629
100
AcDbEntity
  8
0
100
AcDbEllipse
 62
7
  6
CONTINUOUS
 10
-6.100443376
 20
23.4437771689
 30
0.0
 11
0.3
 21
-0.0
 31
0.0
 40
0.0174550649
 41
-1.5707963268
 42
-0.034906585
  0
ELLIPSE
  5
62A
100
AcDbEntity
  8
RACCORDO
100
AcDbEllipse
 62
7
  6
CONTINUOUS
 10
-19.6498755845
 20
-17.4368782357
 30
0.0
 11
0.1733105926
 21
0.1000609173
 31
0.0
 40
0.9993911978
 41
2.0946588419
 42
4.1885264653
  0
ELLIPSE
  5
62B
100
AcDbEntity
  8
RACCORDO
100
AcDbEllipse
 62
7
  6
CONTINUOUS
 10
-16.7017563636
 20
-17.4368782357
 30
0.0
 11
0.1733105926
 21
-0.1000609173
 31
0.0
 40
0.9993911978
 41
-1.0469338117
 42
1.0469338117
  0
ELLIPSE
  5
62C
100
AcDbEntity
  8
RACCORDO
100
AcDbEllipse
 62
7
  6
CONTINUOUS
 10
-16.7017563636
 20
24.4885101838
 30
0.0
 11
0.1733105926
 21
0.1000609173
 31
0.0
 40
0.9993911978
 41
-1.0469338117
 42
1.0469338117
  0
ELLIPSE
  5
62D
100
AcDbEntity
  8
RACCORDO
100
AcDbEllipse
 62
7
  6
CONTINUOUS
 10
-19.6498755845
 20
24.4885101838
 30
0.0
 11
0.1733105926
 21
-0.1000609173
 31
0.0
 40
0.9993911978
 41
2.0946588419
 42
4.1885264653
  0
ELLIPSE
  5
62E
100
AcDbEntity
  8
RACCORDO
100
AcDbEllipse
 62
7
  6
CONTINUOUS
 10
13.6017361161
 20
20.8033680643
 30
0.0
 11
0.3643800228
 21
0.3643800228
 31
0.0
 40
0.9702875252
 41
-0.7703190329
 42
0.7703190329
  0
ELLIPSE
  5
62F
100
AcDbEntity
  8
RACCORDO
100
AcDbEllipse
 62
7
  6
CONTINUOUS
 10
-20.9533680643
 20
20.8033680643
 30
0.0
 11
-0.3643800228
 21
0.3643800228
 31
0.0
 40
0.9702875252
 41
-0.7703190329
 42
0.7703190329
  0
ELLIPSE
  5
630
100
AcDbEntity
  8
RACCORDO
100
AcDbEllipse
 62
7
  6
CONTINUOUS
 10
-20.9533680643
 20
-13.7517361161
 30
0.0
 11
0.3643800228
 21
0.3643800228
 31
0.0
 40
0.9702875252
 41
-3.9119116865
 42
-2.3712736207
  0
ELLIPSE
  5
631
100
AcDbEntity
  8
RACCORDO
100
AcDbEllipse
 62
7
  6
CONTINUOUS
 10
13.6017361161
 20
-13.7517361161
 30
0.0
 11
-0.3643800228
 21
0.3643800228
 31
0.0
 40
0.9702875252
 41
-3.9119116865
 42
-2.3712736207
  0
ELLIPSE
  5
632
100
AcDbEntity
  8
RACCORDO
100
AcDbEllipse
 62
7
  6
CONTINUOUS
 10
16.2334176883
 20
7.885003938
 30
0.0
 11
-0.0
 21
0.3
 31
0.0
 40
0.0174550649
 41
0.0174532925
 42
1.5707963268
  0
ELLIPSE
  5
633
100
AcDbEntity
  8
RACCORDO
100
AcDbEllipse
 62
7
  6
CONTINUOUS
 10
16.2334176883
 20
-0.8333719899
 30
0.0
 11
0.0
 21
0.3
 31
0.0
 40
0.0174550649
 41
-4.7123889804
 42
-3.1590459461
  0
ELLIPSE
  5
634
100
AcDbEntity
  8
RACCORDO
100
AcDbEllipse
 62
7
  6
CONTINUOUS
 10
-23.5850496364
 20
-0.8333719899
 30
0.0
 11
-0.0
 21
0.3
 31
0.0
 40
0.0174550649
 41
-3.1241393611
 42
-1.5707963268
  0
ELLIPSE
  5
635
100
AcDbEntity
  8
RACCORDO
100
AcDbEllipse
 62
7
  6
CONTINUOUS
 10
-23.5850496364
 20
7.885003938
 30
0.0
 11
0.0
 21
0.3
 31
0.0
 40
0.0174550649
 41
-1.5707963268
 42
-0.0174532925
  0
ELLIPSE
  5
636
100
AcDbEntity
  8
RACCORDO
100
AcDbEllipse
 62
7
  6
CONTINUOUS
 10
14.675587482
 20
20.3774479222
 30
0.0
 11
1.5
 21
-0.0
 31
0.0
 40
0.0174550649
 41
-0.7375601251
 42
-0.0174532925
  0
ELLIPSE
  5
637
100
AcDbEntity
  8
RACCORDO
100
AcDbEllipse
 62
7
  6
CONTINUOUS
 10
-7.5274479222
 20
-14.825587482
 30
0.0
 11
0.0
 21
1.5
 31
0.0
 40
0.0174550649
 41
-3.1241393611
 42
-2.4040325285
  0
ELLIPSE
  5
638
100
AcDbEntity
  8
RACCORDO
100
AcDbEllipse
 62
7
  6
CONTINUOUS
 10
14.675587482
 20
12.6741840259
 30
0.0
 11
1.5
 21
-0.0
 31
0.0
 40
0.0174550649
 41
0.0174532925
 42
0.7375601251
  0
ELLIPSE
  5
639
100
AcDbEntity
  8
RACCORDO
100
AcDbEllipse
 62
7
  6
CONTINUOUS
 10
0.1758159741
 20
-14.825587482
 30
0.0
 11
0.0
 21
1.5
 31
0.0
 40
0.0174550649
 41
-3.8791527787
 42
-3.1590459461
  0
ELLIPSE
  5
63A
100
AcDbEntity
  8
RACCORDO
100
AcDbEllipse
 62
7
  6
CONTINUOUS
 10
-22.0272194301
 20
6.0903997143
 30
0.0
 11
1.5
 21
-0.0
 31
0.0
 40
0.0174550649
 41
1.5707963268
 42
1.6746077618
  0
ELLIPSE
  5
63B
100
AcDbEntity
  8
RACCORDO
100
AcDbEllipse
 62
7
  6
CONTINUOUS
 10
14.675587482
 20
6.0903997143
 30
0.0
 11
1.5
 21
-0.0
 31
0.0
 40
0.0174550649
 41
1.4669848918
 42
1.5707963268
  0
ELLIPSE
  5
63C
100
AcDbEntity
  8
RACCORDO
100
AcDbEllipse
 62
7
  6
CONTINUOUS
 10
-22.0272194301
 20
0.9612322338
 30
0.0
 11
1.5
 21
-0.0
 31
0.0
 40
0.0174550649
 41
-1.6746077618
 42
-1.5707963268
  0
ELLIPSE
  5
63D
100
AcDbEntity
  8
RACCORDO
100
AcDbEllipse
 62
7
  6
CONTINUOUS
 10
14.675587482
 20
0.9612322338
 30
0.0
 11
1.5
 21
-0.0
 31
0.0
 40
0.0174550649
 41
-1.5707963268
 42
-1.4669848918
  0
ELLIPSE
  5
63E
100
AcDbEntity
  8
RACCORDO
100
AcDbEllipse
 62
7
  6
CONTINUOUS
 10
-19.621113607
 20
23.638571115
 30
0.0
 11
-0.1733105926
 21
0.1000609173
 31
0.0
 40
0.9993911978
 41
2.0946588419
 42
4.1885264653
  0
ELLIPSE
  5
63F
100
AcDbEntity
  8
RACCORDO
100
AcDbEllipse
 62
7
  6
CONTINUOUS
 10
-16.7305183411
 20
23.638571115
 30
0.0
 11
-0.1733105926
 21
-0.1000609173
 31
0.0
 40
0.9993911978
 41
-1.0469338117
 42
1.0469338117
  0
ELLIPSE
  5
640
100
AcDbEntity
  8
RACCORDO
100
AcDbEllipse
 62
7
  6
CONTINUOUS
 10
-19.621113607
 20
-16.5869391669
 30
0.0
 11
0.1733105926
 21
0.1000609173
 31
0.0
 40
0.9993911978
 41
-1.0469338117
 42
1.0469338117
  0
ELLIPSE
  5
641
100
AcDbEntity
  8
0
100
AcDbEllipse
 62
7
  6
CONTINUOUS
 10
-19.7601827875
 20
-17.3368630029
 30
0.0
 11
0.2121966568
 21
0.2121966568
 31
0.0
 40
0.9996954599
 41
2.3563467834
 42
3.9268385237
  0
ELLIPSE
  5
642
100
AcDbEntity
  8
RACCORDO
100
AcDbEllipse
 62
7
  6
CONTINUOUS
 10
-16.7305183411
 20
-16.5869391669
 30
0.0
 11
0.1733105926
 21
-0.1000609173
 31
0.0
 40
0.9993911978
 41
2.0946588419
 42
4.1885264653
  0
ELLIPSE
  5
643
100
AcDbEntity
  8
0
100
AcDbEllipse
 62
7
  6
CONTINUOUS
 10
-16.5914491606
 20
-17.3368630029
 30
0.0
 11
0.2121966568
 21
-0.2121966568
 31
0.0
 40
0.9996954599
 41
-0.7852458701
 42
0.7852458701
  0
ELLIPSE
  5
644
100
AcDbEntity
  8
RACCORDO
100
AcDbEllipse
 62
7
  6
CONTINUOUS
 10
13.56647072
 20
-13.71647072
 30
0.0
 11
-0.3643800228
 21
0.3643800228
 31
0.0
 40
0.9702875252
 41
2.3712736207
 42
3.9119116865
  0
ELLIPSE
  5
645
100
AcDbEntity
  8
RACCORDO
100
AcDbEllipse
 62
7
  6
CONTINUOUS
 10
-20.9181026681
 20
-13.71647072
 30
0.0
 11
0.3643800228
 21
0.3643800228
 31
0.0
 40
0.9702875252
 41
2.3712736207
 42
3.9119116865
  0
ELLIPSE
  5
646
100
AcDbEntity
  8
RACCORDO
100
AcDbEllipse
 62
7
  6
CONTINUOUS
 10
-20.9181026681
 20
20.7681026681
 30
0.0
 11
0.3643800228
 21
-0.3643800228
 31
0.0
 40
0.9702875252
 41
2.3712736207
 42
3.9119116865
  0
ELLIPSE
  5
647
100
AcDbEntity
  8
RACCORDO
100
AcDbEllipse
 62
7
  6
CONTINUOUS
 10
13.56647072
 20
20.7681026681
 30
0.0
 11
-0.3643800228
 21
-0.3643800228
 31
0.0
 40
0.9702875252
 41
2.3712736207
 42
3.9119116865
  0
ENDSEC
  0
SECTION
  2
OBJECTS
  0
DICTIONARY
  5
C
100
AcDbDictionary
280
0
281
1
  3
ACAD_GROUP
350
D
  3
ACAD_MLINESTYLE
350
17
  3
ACAD_LAYOUT
350
1A
  3
ACAD_PLOTSETTINGS
350
19
  3
ACAD_PLOTSTYLENAME
350
E
  0
DICTIONARY
  5
D
102
{ACAD_REACTORS
330
C
102
}
100
AcDbDictionary
280
0
281
1
  0
ACDBDICTIONARYWDFLT
  5
E
102
{ACAD_REACTORS
330
C
102
}
100
AcDbDictionary
281
1
  3
Normal
350
F
100
AcDbDictionaryWithDefault
340
F
  0
DICTIONARY
  5
17
102
{ACAD_REACTORS
330
C
102
}
100
AcDbDictionary
280
0
281
1
  3
Standard
350
18
  0
DICTIONARY
  5
19
102
{ACAD_REACTORS
330
C
102
}
100
AcDbDictionary
281
1
  0
DICTIONARY
  5
1A
102
{ACAD_REACTORS
330
C
102
}
100
AcDbDictionary
281
1
  3
Model
350
648
  3
Layout1
350
649
  0
ACDBPLACEHOLDER
  5
F
102
{ACAD_REACTORS
330
E
102
}
  0
MLINESTYLE
  5
18
102
{ACAD_REACTORS
330
17
102
}
100
AcDbMlineStyle
  2
STANDARD
 70
0
  3

 62
256
 51
90.0
 52
90.0
 71
2
 49
0.5
 62
256
  6
BYLAYER
 49
-0.5
 62
256
  6
BYLAYER
  0
LAYOUT
  5
648
102
{ACAD_REACTORS
330
1A
102
}
100
AcDbPlotSettings
  1

  2
none_device
  4

  6

 40
0.0
 41
0.0
 42
0.0
 43
0.0
 44
210.0
 45
297.0
 46
0.0
 47
0.0
 48
0.0
 49
0.0
140
0.0
141
0.0
142
1.0
143
1.0
 70
1024
 72
1
 73
0
 74
0
  7

 75
0
147
1.0
148
0.0
149
0.0
100
AcDbLayout
  1
Model
 70
0
 71
0
 10
0.0
 20
0.0
 11
210.0
 21
297.0
 12
0.0
 22
0.0
 32
0.0
 14
0.0
 24
0.0
 34
0.0
 15
0.0
 25
0.0
 35
0.0
146
0.0
 13
0.0
 23
0.0
 33
0.0
 16
1.0
 26
0.0
 36
0.0
 17
0.0
 27
1.0
 37
0.0
 76
0
330
236
345
0
346
0
  0
LAYOUT
  5
649
102
{ACAD_REACTORS
330
1A
102
}
100
AcDbPlotSettings
  1

  2
none_device
  4

  6

 40
0.0
 41
0.0
 42
0.0
 43
0.0
 44
210.0
 45
297.0
 46
0.0
 47
0.0
 48
0.0
 49
0.0
140
0.0
141
0.0
142
1.0
143
1.0
 70
0
 72
1
 73
0
 74
0
  7

 75
0
147
1.0
148
0.0
149
0.0
100
AcDbLayout
  1
Layout1
 70
0
 71
1
 10
0.0
 20
0.0
 11
210.0
 21
297.0
 12
0.0
 22
0.0
 32
0.0
 14
0.0
 24
0.0
 34
0.0
 15
0.0
 25
0.0
 35
0.0
146
0.0
 13
0.0
 23
0.0
 33
0.0
 16
1.0
 26
0.0
 36
0.0
 17
0.0
 27
1.0
 37
0.0
 76
0
330
237
345
0
346
0
  0
ENDSEC
  0
EOF
