  0
SECTION
  2
HEADER
  9
$ACADVER
  1
AC1015
  9
$DWGCODEPAGE
  3
ANSI_1252
  9
$EXTMAX
 10
297.0
 20
210.0
 30
0.0
  9
$EXTMIN
 10
0.0
 20
0.0
 30
0.0
  9
$LIMMIN
 10
0.0
 20
0.0
  9
$LIMMAX
 10
297.0
 20
210.0
  9
$VIEWCTR
 10
148.5
 20
105.0
  9
$VIEWSIZE
 40
210.0
  9
$CLAYER
  8
0
  9
$LTSCALE
 40
16.335
  9
$CELTYPE
  6
BYLAYER
  9
$DIMSCALE
 40
1.0
  9
$DIMASZ
 40
3.0
  9
$DIMEXO
 40
0.5
  9
$DIMDLI
 40
11.286
  9
$DIMEXE
 40
1.5
  9
$DIMCEN
 40
2.673
  9
$DIMLFAC
 40
1.0
  9
$DIMBLK
  1
_FILLED
  9
$DIMALT
 70
0
  9
$DIMALTF
 40
0.0393700787
  9
$DIMTXT
 40
3.0
  9
$DIMTOL
 70
1
  9
$DIMLIM
 70
0
  9
$DIMTFAC
 40
1.0
  9
$DIMTP
 40
0.01
  9
$DIMTM
 40
0.01
  9
$DIMGAP
 40
0.625
  9
$DIMDSEP
 70
44
  9
$AUNITS
 70
0
  9
$PDMODE
 70
3
  9
$PDSIZE
 40
3.0
  9
$HANDSEED
  5
4CC
  9
$TILEMODE
 70
1
  9
$MEASUREMENT
 70
1
  9
$INSUNITS
 70
4
  0
ENDSEC
  0
SECTION
  2
CLASSES
  0
CLASS
  1
ACDBDICTIONARYWDFLT
  2
AcDbDictionaryWithDefault
  3
AutoCAD 2000
 90
0
280
0
281
0
  0
CLASS
  1
ACDBPLACEHOLDER
  2
AcDbPlaceHolder
  3
AutoCAD 2000
 90
0
280
0
281
0
  0
CLASS
  1
LAYOUT
  2
AcDbLayout
  3
AutoCAD 2000
 90
0
280
0
281
0
  0
ENDSEC
  0
SECTION
  2
TABLES
  0
TABLE
  2
VPORT
  5
8
100
AcDbSymbolTable
 70
2
  0
VPORT
  5
1F4
100
AcDbSymbolTableRecord
100
AcDbViewportTableRecord
  2
*ACTIVE
 70
0
 10
0.0
 20
0.0
 11
1.0
 21
1.0
 12
148.5
 22
105.0
 13
0.0
 23
0.0
 14
1.0
 24
1.0
 15
0.0
 25
0.0
 16
0.0
 26
0.0
 36
1.0
 17
0.0
 27
0.0
 37
0.0
 40
210.0
 41
1.4142857143
 42
50.0
 43
0.0
 44
0.0
 50
0.0
 51
0.0
 71
0
 72
100
 73
1
 74
1
 75
0
 76
0
 77
0
 78
0
  0
ENDTAB
  0
TABLE
  2
LTYPE
  5
5
100
AcDbSymbolTable
 70
6
  0
LTYPE
  5
14
100
AcDbSymbolTableRecord
100
AcDbLinetypeTableRecord
  2
BYBLOCK
 70
0
  3

 72
65
 73
0
 40
0.0
  0
LTYPE
  5
15
100
AcDbSymbolTableRecord
100
AcDbLinetypeTableRecord
  2
BYLAYER
 70
0
  3

 72
65
 73
0
 40
0.0
  0
LTYPE
  5
16
100
AcDbSymbolTableRecord
100
AcDbLinetypeTableRecord
  2
CONTINUOUS
 70
64
  3
Solid line
 72
65
 73
0
 40
0.0
  0
LTYPE
  5
1F5
100
AcDbSymbolTableRecord
100
AcDbLinetypeTableRecord
  2
CENTER
 70
64
  3
____ _ ____ _ ____ _ ____ _ ____ _ ____ _ ____
 72
65
 73
4
 40
0.6
 49
0.375
 74
0
 49
-0.075
 74
0
 49
0.075
 74
0
 49
-0.075
 74
0
  0
LTYPE
  5
1F6
100
AcDbSymbolTableRecord
100
AcDbLinetypeTableRecord
  2
HIDDEN
 70
64
  3
- - - - - - - - - - - - - - - - - - - -
 72
65
 73
2
 40
0.2
 49
0.1
 74
0
 49
-0.1
 74
0
  0
LTYPE
  5
1F7
100
AcDbSymbolTableRecord
100
AcDbLinetypeTableRecord
  2
PHANTOM
 70
64
  3
_____ _ _ _____ _ _ _____ _ _ _____
 72
65
 73
6
 40
0.8
 49
0.45
 74
0
 49
-0.05
 74
0
 49
0.1
 74
0
 49
-0.05
 74
0
 49
0.1
 74
0
 49
-0.05
 74
0
  0
LTYPE
  5
1F8
100
AcDbSymbolTableRecord
100
AcDbLinetypeTableRecord
  2
DOT
 70
64
  3
. . . . . . . . . . . . . . . . . . . .
 72
65
 73
2
 40
0.2
 49
0.1
 74
0
 49
-0.1
 74
0
  0
LTYPE
  5
1F9
100
AcDbSymbolTableRecord
100
AcDbLinetypeTableRecord
  2
DASHED
 70
64
  3
- - - - - - - - - - - - - - - - - - - -
 72
65
 73
2
 40
0.2
 49
0.1
 74
0
 49
-0.1
 74
0
  0
ENDTAB
  0
TABLE
  2
LAYER
  5
2
100
AcDbSymbolTable
 70
36
  0
LAYER
  5
10
100
AcDbSymbolTableRecord
100
AcDbLayerTableRecord
  2
0
 70
0
 62
7
  6
CONTINUOUS
370
-3
390
F
  0
LAYER
  5
1FA
100
AcDbSymbolTableRecord
100
AcDbLayerTableRecord
  2
DEFAULT_1
 70
0
 62
7
  6
CENTER
370
-3
390
F
  0
LAYER
  5
1FB
100
AcDbSymbolTableRecord
100
AcDbLayerTableRecord
  2
DEFAULT_2
 70
0
 62
7
  6
HIDDEN
370
-3
390
F
  0
LAYER
  5
1FC
100
AcDbSymbolTableRecord
100
AcDbLayerTableRecord
  2
DEFAULT_3
 70
0
 62
7
  6
PHANTOM
370
-3
390
F
  0
LAYER
  5
1FD
100
AcDbSymbolTableRecord
100
AcDbLayerTableRecord
  2
ASSI
 70
0
 62
7
  6
CONTINUOUS
370
-3
390
F
  0
LAYER
  5
1FE
100
AcDbSymbolTableRecord
100
AcDbLayerTableRecord
  2
COORDINATE
 70
0
 62
7
  6
CONTINUOUS
370
-3
390
F
  0
LAYER
  5
1FF
100
AcDbSymbolTableRecord
100
AcDbLayerTableRecord
  2
COPY_PUBLISH
 70
0
 62
7
  6
CONTINUOUS
370
-3
390
F
  0
LAYER
  5
200
100
AcDbSymbolTableRecord
100
AcDbLayerTableRecord
  2
COSMETICI
 70
0
 62
7
  6
CONTINUOUS
370
-3
390
F
  0
LAYER
  5
201
100
AcDbSymbolTableRecord
100
AcDbLayerTableRecord
  2
CURVE
 70
0
 62
7
  6
CONTINUOUS
370
-3
390
F
  0
LAYER
  5
202
100
AcDbSymbolTableRecord
100
AcDbLayerTableRecord
  2
DRAFT
 70
0
 62
7
  6
CONTINUOUS
370
-3
390
F
  0
LAYER
  5
203
100
AcDbSymbolTableRecord
100
AcDbLayerTableRecord
  2
IMPORT_IGES
 70
0
 62
7
  6
CONTINUOUS
370
-3
390
F
  0
LAYER
  5
204
100
AcDbSymbolTableRecord
100
AcDbLayerTableRecord
  2
NOTE
 70
0
 62
7
  6
CONTINUOUS
370
-3
390
F
  0
LAYER
  5
205
100
AcDbSymbolTableRecord
100
AcDbLayerTableRecord
  2
PIANI
 70
0
 62
7
  6
CONTINUOUS
370
-3
390
F
  0
LAYER
  5
206
100
AcDbSymbolTableRecord
100
AcDbLayerTableRecord
  2
PUNTI
 70
0
 62
7
  6
CONTINUOUS
370
-3
390
F
  0
LAYER
  5
207
100
AcDbSymbolTableRecord
100
AcDbLayerTableRecord
  2
RACCORDO
 70
0
 62
7
  6
CONTINUOUS
370
-3
390
F
  0
LAYER
  5
208
100
AcDbSymbolTableRecord
100
AcDbLayerTableRecord
  2
SIMBOLI
 70
0
 62
7
  6
CONTINUOUS
370
-3
390
F
  0
LAYER
  5
209
100
AcDbSymbolTableRecord
100
AcDbLayerTableRecord
  2
SMUSSO
 70
0
 62
7
  6
CONTINUOUS
370
-3
390
F
  0
LAYER
  5
20A
100
AcDbSymbolTableRecord
100
AcDbLayerTableRecord
  2
SNAPLINE
 70
0
 62
7
  6
CONTINUOUS
370
-3
390
F
  0
LAYER
  5
20B
100
AcDbSymbolTableRecord
100
AcDbLayerTableRecord
  2
SUPERFICI
 70
0
 62
7
  6
CONTINUOUS
370
-3
390
F
  0
LAYER
  5
20C
100
AcDbSymbolTableRecord
100
AcDbLayerTableRecord
  2
TRASH
 70
0
 62
7
  6
CONTINUOUS
370
-3
390
F
  0
ENDTAB
  0
TABLE
  2
STYLE
  5
3
100
AcDbSymbolTable
 70
1
  0
STYLE
  5
11
100
AcDbSymbolTableRecord
100
AcDbTextStyleTableRecord
  2
STANDARD
 70
0
 40
0.0
 41
0.8
 50
0.0
 71
0
 42
0.2
  3
txt
  4

  0
STYLE
  5
20D
100
AcDbSymbolTableRecord
100
AcDbTextStyleTableRecord
  2
TEXTSTYLE_1
 70
0
 40
0.0
 41
0.8
 50
0.0
 71
0
 42
0.2
  3
gdt
  4

  0
ENDTAB
  0
TABLE
  2
VIEW
  5
6
100
AcDbSymbolTable
 70
0
  0
ENDTAB
  0
TABLE
  2
UCS
  5
7
100
AcDbSymbolTable
 70
0
  0
ENDTAB
  0
TABLE
  2
APPID
  5
9
100
AcDbSymbolTable
 70
1
  0
APPID
  5
20E
100
AcDbSymbolTableRecord
100
AcDbRegAppTableRecord
  2
ACAD
 70
0
  0
ENDTAB
  0
TABLE
  2
BLOCK_RECORD
  5
1
100
AcDbSymbolTable
 70
0
  0
BLOCK_RECORD
  5
20F
100
AcDbSymbolTableRecord
100
AcDbBlockTableRecord
  2
*Model_Space
  0
BLOCK_RECORD
  5
210
100
AcDbSymbolTableRecord
100
AcDbBlockTableRecord
  2
*Paper_Space
  0
ENDTAB
  0
TABLE
  2
DIMSTYLE
  5
A
100
AcDbSymbolTable
 70
1
100
AcDbDimStyleTable
 71
0
  0
DIMSTYLE
105
211
100
AcDbSymbolTableRecord
100
AcDbDimStyleTableRecord
  2
STANDARD
 70
0
  3

  4

 40
1.0
 41
3.0
 42
0.5
 43
0.38
 44
1.5
 45
0.0
 46
0.0
 47
0.01
 48
0.01
140
3.0
141
0.09
142
0.0
143
25.4
144
1.0
145
0.0
146
1.0
147
0.625
 71
1.0
 72
0.0
 73
0
 74
0
 75
0
 76
0
 77
1
 78
8
170
0
171
2
172
0
173
0
174
0
175
0
176
0
177
0
178
0
270
2
271
2
272
2
273
2
274
2
275
0
280
0
281
0
282
0
283
1
284
8
285
0
286
0
287
3
288
0
340
11
278
44
  0
ENDTAB
  0
ENDSEC
  0
SECTION
  2
BLOCKS
  0
BLOCK
  5
20
100
AcDbEntity
  8
0
100
AcDbBlockBegin
  2
*Model_Space
 70
0
 10
0.0
 20
0.0
 30
0.0
  3
*Model_Space
  1

  0
ENDBLK
  5
21
100
AcDbEntity
  8
0
100
AcDbBlockEnd
  0
BLOCK
  5
1C
100
AcDbEntity
  8
0
100
AcDbBlockBegin
  2
*Paper_Space
 70
0
 10
0.0
 20
0.0
 30
0.0
  3
*Paper_Space
  1

  0
ENDBLK
  5
1D
100
AcDbEntity
  8
0
100
AcDbBlockEnd
  0
ENDSEC
  0
SECTION
  2
ENTITIES
  0
LINE
  5
212
100
AcDbEntity
  8
DRAFT
100
AcDbLine
 62
7
  6
CONTINUOUS
 10
-46.4021842054
 20
32.866376155
 11
-46.3847291405
 21
32.88383122
  0
LWPOLYLINE
  5
213
100
AcDbEntity
  8
RACCORDO
100
AcDbPolyline
 62
7
  6
CONTINUOUS
 90
7
 70
0
 10
-41.7022755219
 20
30.1773831595
 10
-41.7006915234
 20
30.178639076
 10
-41.6977991615
 20
30.1815970345
 10
-41.6935984363
 20
30.1860602452
 10
-41.6879336348
 20
30.1918132207
 10
-41.68096047
 20
30.1986700754
 10
-41.6645453749
 20
30.2151848956
  0
LWPOLYLINE
  5
214
100
AcDbEntity
  8
RACCORDO
100
AcDbPolyline
 62
7
  6
CONTINUOUS
 90
5
 70
0
 10
-40.1257139868
 20
-78.8204510213
 10
-40.1070535972
 20
-78.8299527492
 10
-40.0875138529
 20
-78.8374478959
 10
-40.0673139111
 20
-78.8428570254
 10
-40.0594916307
 20
-78.8443567704
  0
LINE
  5
215
100
AcDbEntity
  8
DRAFT
100
AcDbLine
 62
7
  6
CONTINUOUS
 10
-38.972510595
 20
-81.6039502346
 11
-38.986719889
 21
-81.5917316891
  0
LINE
  5
216
100
AcDbEntity
  8
DRAFT
100
AcDbLine
 62
7
  6
CONTINUOUS
 10
-46.4021842054
 20
-81.5742766242
 11
-46.3847291405
 21
-81.5917316891
  0
LINE
  5
217
100
AcDbEntity
  8
RACCORDO
100
AcDbLine
 62
7
  6
CONTINUOUS
 10
-41.6551034445
 20
30.2245394127
 11
-41.6346335328
 21
30.2450743497
  0
LINE
  5
218
100
AcDbEntity
  8
RACCORDO
100
AcDbLine
 62
7
  6
CONTINUOUS
 10
-41.5516798657
 20
30.3279645921
 11
-41.5145972026
 21
30.3651517126
  0
LINE
  5
219
100
AcDbEntity
  8
RACCORDO
100
AcDbLine
 62
7
  6
CONTINUOUS
 10
-41.3842278753
 20
27.1471142664
 11
-41.3213979599
 21
27.2099441818
  0
LINE
  5
21A
100
AcDbEntity
  8
RACCORDO
100
AcDbLine
 62
253
  6
CONTINUOUS
 10
-41.242806519
 20
27.2056624492
 11
-41.1798547367
 21
27.2686142315
  0
LINE
  5
21B
100
AcDbEntity
  8
RACCORDO
100
AcDbLine
 62
253
  6
CONTINUOUS
 10
-48.1713690045
 20
19.8460497654
 11
-48.4688304604
 21
19.5485883094
  0
LINE
  5
21C
100
AcDbEntity
  8
RACCORDO
100
AcDbLine
 62
253
  6
CONTINUOUS
 10
-40.379915668
 20
27.2686142315
 11
-40.4428674503
 21
27.2056624492
  0
LINE
  5
21D
100
AcDbEntity
  8
RACCORDO
100
AcDbLine
 62
253
  6
CONTINUOUS
 10
-47.872510595
 20
19.547191356
 11
-48.169972051
 21
19.2497299
  0
LINE
  5
21E
100
AcDbEntity
  8
RACCORDO
100
AcDbLine
 62
253
  6
CONTINUOUS
 10
-40.1796170796
 20
27.0689737418
 11
-40.2428979112
 21
27.0056929102
  0
LINE
  5
21F
100
AcDbEntity
  8
RACCORDO
100
AcDbLine
 62
7
  6
CONTINUOUS
 10
-41.6346335328
 20
30.2450743497
 11
-41.5516798657
 21
30.3279645921
  0
LINE
  5
220
100
AcDbEntity
  8
RACCORDO
100
AcDbLine
 62
7
  6
CONTINUOUS
 10
-41.5145972026
 20
30.3651517126
 11
-41.5023059829
 21
30.3773526986
  0
LINE
  5
221
100
AcDbEntity
  8
RACCORDO
100
AcDbLine
 62
7
  6
CONTINUOUS
 10
-41.6645453749
 20
30.2151848956
 11
-41.6551034445
 21
30.2245394127
  0
LWPOLYLINE
  5
222
100
AcDbEntity
  8
RACCORDO
100
AcDbPolyline
 62
253
  6
CONTINUOUS
 90
9
 70
0
 10
-41.3842278753
 20
27.1471142664
 10
-41.3766340137
 20
27.1543204141
 10
-41.3603660281
 20
27.16749268
 10
-41.3428094795
 20
27.1788915694
 10
-41.3241568008
 20
27.1883921223
 10
-41.3046124735
 20
27.1958901803
 10
-41.2843907302
 20
27.201303557
 10
-41.2637131993
 20
27.2045729246
 10
-41.242806519
 20
27.2056624492
  0
LWPOLYLINE
  5
223
100
AcDbEntity
  8
RACCORDO
100
AcDbPolyline
 62
7
  6
CONTINUOUS
 90
5
 70
0
 10
-41.3213979702
 20
27.2099441715
 10
-41.3099111128
 20
27.2205671248
 10
-41.2960576446
 20
27.2313945414
 10
-41.2812912219
 20
27.2409756303
 10
-41.2657541664
 20
27.2492171215
  0
LWPOLYLINE
  5
224
100
AcDbEntity
  8
RACCORDO
100
AcDbPolyline
 62
253
  6
CONTINUOUS
 90
7
 70
0
 10
-41.3765160634
 20
27.4169181024
 10
-41.345911857
 20
27.4324974788
 10
-41.314438578
 20
27.4452894825
 10
-41.2820962265
 20
27.4552941135
 10
-41.2488848025
 20
27.4625113718
 10
-41.2148043059
 20
27.4669412575
 10
-41.1798547367
 20
27.4685837706
  0
LWPOLYLINE
  5
225
100
AcDbEntity
  8
RACCORDO
100
AcDbPolyline
 62
7
  6
CONTINUOUS
 90
4
 70
0
 10
-41.2657541664
 20
27.2492171215
 10
-41.2495357208
 20
27.2560708135
 10
-41.2327127744
 20
27.2614913422
 10
-41.2294196564
 20
27.2623640223
  0
LINE
  5
226
100
AcDbEntity
  8
RACCORDO
100
AcDbLine
 62
7
  6
CONTINUOUS
 10
23.1222927189
 20
-78.8428570232
 11
23.1424926607
 21
-78.8374478938
  0
LINE
  5
227
100
AcDbEntity
  8
RACCORDO
100
AcDbLine
 62
7
  6
CONTINUOUS
 10
23.0757303347
 20
-78.3867741218
 11
23.0958437434
 21
-78.3814372493
  0
LINE
  5
228
100
AcDbEntity
  8
RACCORDO
100
AcDbLine
 62
7
  6
CONTINUOUS
 10
23.1144704046
 20
-78.844356774
 11
23.1222927189
 21
-78.8428570232
  0
LINE
  5
229
100
AcDbEntity
  8
RACCORDO
100
AcDbLine
 62
7
  6
CONTINUOUS
 10
23.060840927
 20
-78.3893230166
 11
23.0757303347
 21
-78.3867741218
  0
LINE
  5
22A
100
AcDbEntity
  8
DRAFT
100
AcDbLine
 62
7
  6
CONTINUOUS
 10
25.9994218244
 20
-79.9434771956
 11
25.921458667
 21
-79.9472161057
  0
LINE
  5
22B
100
AcDbEntity
  8
DRAFT
100
AcDbLine
 62
7
  6
CONTINUOUS
 10
25.2994218244
 20
-79.9434771956
 11
25.221458667
 21
-79.9472161057
  0
LINE
  5
22C
100
AcDbEntity
  8
RACCORDO
100
AcDbLine
 62
7
  6
CONTINUOUS
 10
27.5275655574
 20
-81.6039502346
 11
22.027489405
 21
-81.6039502346
  0
LINE
  5
22D
100
AcDbEntity
  8
DRAFT
100
AcDbLine
 62
7
  6
CONTINUOUS
 10
22.027489405
 20
-81.6039502346
 11
-38.972510595
 21
-81.6039502346
  0
LINE
  5
22E
100
AcDbEntity
  8
RACCORDO
100
AcDbLine
 62
7
  6
CONTINUOUS
 10
-38.972510595
 20
-81.6039502346
 11
-46.9725867475
 21
-81.6039502346
  0
LINE
  5
22F
100
AcDbEntity
  8
RACCORDO
100
AcDbLine
 62
7
  6
CONTINUOUS
 10
27.5153470119
 20
-81.5917316891
 11
22.041698699
 21
-81.5917316891
  0
LINE
  5
230
100
AcDbEntity
  8
DRAFT
100
AcDbLine
 62
7
  6
CONTINUOUS
 10
21.013280111
 20
-81.5917316891
 11
-7.958301301
 21
-81.5917316891
  0
LINE
  5
231
100
AcDbEntity
  8
DRAFT
100
AcDbLine
 62
7
  6
CONTINUOUS
 10
-8.986719889
 20
-81.5917316891
 11
-37.958301301
 21
-81.5917316891
  0
LINE
  5
232
100
AcDbEntity
  8
DRAFT
100
AcDbLine
 62
7
  6
CONTINUOUS
 10
-38.986719889
 20
-81.5917316891
 11
-46.3847291405
 21
-81.5917316891
  0
LINE
  5
233
100
AcDbEntity
  8
RACCORDO
100
AcDbLine
 62
7
  6
CONTINUOUS
 10
-46.4021842054
 20
-81.5742766242
 11
-46.9429131371
 21
-81.5742766242
  0
LWPOLYLINE
  5
234
100
AcDbEntity
  8
RACCORDO
100
AcDbPolyline
 62
253
  6
CONTINUOUS
 90
3
 70
0
 10
-40.0594916307
 20
-78.8443567704
 10
-40.0466719916
 20
-78.846126175
 10
-40.0258141172
 20
-78.8472232958
  0
LWPOLYLINE
  5
235
100
AcDbEntity
  8
RACCORDO
100
AcDbPolyline
 62
7
  6
CONTINUOUS
 90
7
 70
0
 10
-40.1131012038
 20
-78.3399691258
 10
-40.096777143
 20
-78.3531270267
 10
-40.079141974
 20
-78.3645177533
 10
-40.0604110438
 20
-78.3739971991
 10
-40.0408649351
 20
-78.3814372511
 10
-40.0207515264
 20
-78.3867741236
 10
-40.005862134
 20
-78.3893230163
  0
LINE
  5
236
100
AcDbEntity
  8
RACCORDO
100
AcDbLine
 62
253
  6
CONTINUOUS
 10
-40.0269570071
 20
-78.8461988849
 11
-40.0258141172
 21
-78.8472232958
  0
LINE
  5
237
100
AcDbEntity
  8
RACCORDO
100
AcDbLine
 62
7
  6
CONTINUOUS
 10
-40.1279589969
 20
-78.3251745211
 11
-40.1131012038
 21
-78.3399691258
  0
LINE
  5
238
100
AcDbEntity
  8
RACCORDO
100
AcDbLine
 62
7
  6
CONTINUOUS
 10
-41.6551192688
 20
-78.9324557061
 11
-41.6345843317
 21
-78.9529256178
  0
LINE
  5
239
100
AcDbEntity
  8
RACCORDO
100
AcDbLine
 62
253
  6
CONTINUOUS
 10
-48.1713690045
 20
-68.5539502346
 11
-48.4688304604
 21
-68.2564887786
  0
LINE
  5
23A
100
AcDbEntity
  8
RACCORDO
100
AcDbLine
 62
253
  6
CONTINUOUS
 10
-47.872510595
 20
-68.2550918252
 11
-48.169972051
 21
-67.9576303692
  0
LINE
  5
23B
100
AcDbEntity
  8
RACCORDO
100
AcDbLine
 62
7
  6
CONTINUOUS
 10
-41.6236207312
 20
-78.9639535992
 11
-41.5145069689
 21
-79.0729619481
  0
LINE
  5
23C
100
AcDbEntity
  8
RACCORDO
100
AcDbLine
 62
7
  6
CONTINUOUS
 10
-41.6345843317
 20
-78.9529256178
 11
-41.6236207312
 21
-78.9639535992
  0
LINE
  5
23D
100
AcDbEntity
  8
RACCORDO
100
AcDbLine
 62
7
  6
CONTINUOUS
 10
-41.5145069689
 20
-79.0729619481
 11
-41.5023059829
 21
-79.0852531677
  0
LINE
  5
23E
100
AcDbEntity
  8
RACCORDO
100
AcDbLine
 62
7
  6
CONTINUOUS
 10
-41.6644737858
 20
-78.9230137758
 11
-41.6551192688
 21
-78.9324557061
  0
LINE
  5
23F
100
AcDbEntity
  8
DRAFT
100
AcDbLine
 62
7
  6
CONTINUOUS
 10
-37.7120038906
 20
-79.96616878
 11
-37.722510595
 21
-79.9539502346
  0
LWPOLYLINE
  5
240
100
AcDbEntity
  8
RACCORDO
100
AcDbPolyline
 62
7
  6
CONTINUOUS
 90
7
 70
0
 10
-41.7022755219
 20
-78.8852836287
 10
-41.7010196054
 20
-78.8868676272
 10
-41.6980616469
 20
-78.8897599891
 10
-41.6935984363
 20
-78.8939607143
 10
-41.6878454608
 20
-78.8996255158
 10
-41.680988606
 20
-78.9065986806
 10
-41.6644737858
 20
-78.9230137758
  0
LINE
  5
241
100
AcDbEntity
  8
RACCORDO
100
AcDbLine
 62
253
  6
CONTINUOUS
 10
-50.072510595
 20
11.7449081748
 11
-49.775049139
 21
12.0423696308
  0
LINE
  5
242
100
AcDbEntity
  8
RACCORDO
100
AcDbLine
 62
253
  6
CONTINUOUS
 10
-49.7736521856
 20
11.4460497654
 11
-49.4761907296
 21
11.7435112214
  0
LINE
  5
243
100
AcDbEntity
  8
RACCORDO
100
AcDbLine
 62
253
  6
CONTINUOUS
 10
-1.0016522194
 20
-78.6989916642
 11
-1.19861377
 21
-78.7337160101
  0
LINE
  5
244
100
AcDbEntity
  8
RACCORDO
100
AcDbLine
 62
253
  6
CONTINUOUS
 10
-1.0177798348
 20
-78.6075134794
 11
-1.2147413854
 21
-78.6422378255
  0
LWPOLYLINE
  5
245
100
AcDbEntity
  8
RACCORDO
100
AcDbPolyline
 62
253
  6
CONTINUOUS
 90
16
 70
0
 10
23.0847943324
 20
-78.4856602417
 10
23.1048484874
 20
-78.4841035883
 10
23.1246045885
 20
-78.481127183
 10
23.1438620937
 20
-78.4767612391
 10
23.1624255221
 20
-78.4710500749
 10
23.1801064383
 20
-78.4640516637
 10
23.1967253652
 20
-78.4558370456
 10
23.2121136058
 20
-78.4464896064
 10
23.2261149557
 20
-78.436104231
 10
23.2385872886
 20
-78.4247863402
 10
23.2494039994
 20
-78.4126508207
 10
23.2584552886
 20
-78.3998208589
 10
23.2656492776
 20
-78.3864266904
 10
23.2709129409
 20
-78.3726042779
 10
23.2741928478
 20
-78.3584939313
 10
23.2754557041
 20
-78.3442388833
  0
LWPOLYLINE
  5
246
100
AcDbEntity
  8
RACCORDO
100
AcDbPolyline
 62
253
  6
CONTINUOUS
 90
16
 70
0
 10
23.090108549
 20
-78.7886751109
 10
23.1102682942
 20
-78.7871221032
 10
23.1300004441
 20
-78.7841389707
 10
23.1491745
 20
-78.7797748967
 10
23.1677087008
 20
-78.774079666
 10
23.1854204035
 20
-78.7670831192
 10
23.2020357333
 20
-78.7588501828
 10
23.2174029671
 20
-78.7495132816
 10
23.2314178362
 20
-78.7391442316
 10
23.2438958095
 20
-78.7277996163
 10
23.2547044302
 20
-78.7156623088
 10
23.2637574417
 20
-78.7028651102
 10
23.2709565104
 20
-78.6894406228
 10
23.2762218237
 20
-78.6755363328
 10
23.2795002875
 20
-78.6614038331
 10
23.2807624641
 20
-78.6472537546
  0
LWPOLYLINE
  5
247
100
AcDbEntity
  8
RACCORDO
100
AcDbPolyline
 62
253
  6
CONTINUOUS
 90
3
 70
0
 10
23.080792925
 20
-78.8472232937
 10
23.1016507994
 20
-78.8461261729
 10
23.1144704046
 20
-78.844356774
  0
LWPOLYLINE
  5
248
100
AcDbEntity
  8
RACCORDO
100
AcDbPolyline
 62
253
  6
CONTINUOUS
 90
16
 70
0
 10
23.0706542178
 20
-78.4270845865
 10
23.0915526196
 20
-78.4259831988
 10
23.1122221517
 20
-78.4227038271
 10
23.132436443
 20
-78.4172823844
 10
23.1519741069
 20
-78.4097782442
 10
23.1706211689
 20
-78.4002735886
 10
23.1881734095
 20
-78.3888725079
 10
23.2044385962
 20
-78.3756998626
 10
23.2192385911
 20
-78.3608999166
 10
23.2324113044
 20
-78.3446347537
 10
23.2438124657
 20
-78.3270825064
 10
23.253317206
 20
-78.3084354049
 10
23.2608214259
 20
-78.2888976691
 10
23.266242935
 20
-78.2686832746
 10
23.2695223523
 20
-78.2480136093
 10
23.2706237569
 20
-78.2271150475
  0
LWPOLYLINE
  5
249
100
AcDbEntity
  8
RACCORDO
100
AcDbPolyline
 62
253
  6
CONTINUOUS
 90
3
 70
0
 10
23.0346263506
 20
-78.3910567192
 10
23.0552499217
 20
-78.3899841033
 10
23.060840927
 20
-78.3893230166
  0
LINE
  5
24A
100
AcDbEntity
  8
DRAFT
100
AcDbLine
 62
7
  6
CONTINUOUS
 10
-41.9005781756
 20
-79.9434771956
 11
-41.978541333
 21
-79.9472161057
  0
LINE
  5
24B
100
AcDbEntity
  8
DRAFT
100
AcDbLine
 62
7
  6
CONTINUOUS
 10
-42.6005781756
 20
-79.9434771956
 11
-42.678541333
 21
-79.9472161057
  0
LWPOLYLINE
  5
24C
100
AcDbEntity
  8
RACCORDO
100
AcDbPolyline
 62
253
  6
CONTINUOUS
 90
19
 70
0
 10
-16.1403305213
 20
-78.8643375508
 10
-16.1253684952
 20
-78.8637768401
 10
-16.110483162
 20
-78.8620968129
 10
-16.0957582078
 20
-78.8593052744
 10
-16.0813108327
 20
-78.8554268604
 10
-16.0671868665
 20
-78.850476343
 10
-16.0533691774
 20
-78.8444332234
 10
-16.0399245586
 20
-78.8372952652
 10
-16.0269669583
 20
-78.8290900781
 10
-16.0145628283
 20
-78.819824416
 10
-16.0027739521
 20
-78.8094957965
 10
-15.9917322546
 20
-78.7981675065
 10
-15.9815949234
 20
-78.7859693715
 10
-15.9724535425
 20
-78.7730033344
 10
-15.9643483936
 20
-78.7593173928
 10
-15.9573357574
 20
-78.7449856676
 10
-15.9514698554
 20
-78.7300915608
 10
-15.9468004751
 20
-78.7147284077
 10
-15.9433689707
 20
-78.6989916642
  0
LINE
  5
24D
100
AcDbEntity
  8
RACCORDO
100
AcDbLine
 62
7
  6
CONTINUOUS
 10
-40.1585511317
 20
-78.8661830306
 11
-40.0429283779
 21
-78.8643375565
  0
LINE
  5
24E
100
AcDbEntity
  8
RACCORDO
100
AcDbLine
 62
7
  6
CONTINUOUS
 10
-0.8046906688
 20
-78.8643375508
 11
-0.9250986596
 21
-78.8662530644
  0
LINE
  5
24F
100
AcDbEntity
  8
RACCORDO
100
AcDbLine
 62
7
  6
CONTINUOUS
 10
-0.9250986596
 20
-78.8662530644
 11
-0.9967296902
 21
-78.8670607891
  0
LINE
  5
250
100
AcDbEntity
  8
RACCORDO
100
AcDbLine
 62
7
  6
CONTINUOUS
 10
-40.2460414887
 20
-78.867155686
 11
-40.1585511317
 21
-78.8661830306
  0
LINE
  5
251
100
AcDbEntity
  8
RACCORDO
100
AcDbLine
 62
7
  6
CONTINUOUS
 10
-0.9967296902
 20
-78.8670607891
 11
-1.0807908481
 21
-78.8676223219
  0
LINE
  5
252
100
AcDbEntity
  8
RACCORDO
100
AcDbLine
 62
7
  6
CONTINUOUS
 10
-40.3324432918
 20
-78.8676759027
 11
-40.2460414887
 21
-78.867155686
  0
LINE
  5
253
100
AcDbEntity
  8
RACCORDO
100
AcDbLine
 62
253
  6
CONTINUOUS
 10
-40.0258141172
 20
-78.8472232958
 11
-31.8106301013
 21
-78.8388469335
  0
LINE
  5
254
100
AcDbEntity
  8
RACCORDO
100
AcDbLine
 62
253
  6
CONTINUOUS
 10
-40.0351297324
 20
-78.7886751767
 11
-31.817965389
 21
-78.7802988226
  0
LINE
  5
255
100
AcDbEntity
  8
RACCORDO
100
AcDbLine
 62
253
  6
CONTINUOUS
 10
-40.0298155183
 20
-78.4856603218
 11
-31.8237614101
 21
-78.4772955596
  0
LINE
  5
256
100
AcDbEntity
  8
RACCORDO
100
AcDbLine
 62
253
  6
CONTINUOUS
 10
-40.0156754108
 20
-78.4270845893
 11
-31.8129776895
 21
-78.4187323584
  0
LINE
  5
257
100
AcDbEntity
  8
RACCORDO
100
AcDbLine
 62
253
  6
CONTINUOUS
 10
-39.9796475423
 20
-78.3910567209
 11
-31.8202962949
 21
-78.3829331598
  0
LINE
  5
258
100
AcDbEntity
  8
RACCORDO
100
AcDbLine
 62
253
  6
CONTINUOUS
 10
-31.8106301013
 20
-78.8388469335
 11
-23.5960825608
 21
-78.8329776761
  0
LINE
  5
259
100
AcDbEntity
  8
RACCORDO
100
AcDbLine
 62
253
  6
CONTINUOUS
 10
-31.817965389
 20
-78.7802988226
 11
-23.6004849298
 21
-78.7744295604
  0
LINE
  5
25A
100
AcDbEntity
  8
RACCORDO
100
AcDbLine
 62
253
  6
CONTINUOUS
 10
-31.8237614101
 20
-78.4772955596
 11
-23.6174102786
 21
-78.471430924
  0
LINE
  5
25B
100
AcDbEntity
  8
RACCORDO
100
AcDbLine
 62
253
  6
CONTINUOUS
 10
-31.8129776895
 20
-78.4187323584
 11
-23.6108538568
 21
-78.412876455
  0
LINE
  5
25C
100
AcDbEntity
  8
RACCORDO
100
AcDbLine
 62
253
  6
CONTINUOUS
 10
-31.8202962949
 20
-78.3829331598
 11
-23.6641254587
 21
-78.3772261766
  0
LINE
  5
25D
100
AcDbEntity
  8
RACCORDO
100
AcDbLine
 62
253
  6
CONTINUOUS
 10
-31.8303902013
 20
-78.1829636295
 11
-23.6703696642
 21
-78.1772566539
  0
LINE
  5
25E
100
AcDbEntity
  8
RACCORDO
100
AcDbLine
 62
253
  6
CONTINUOUS
 10
-23.5960825608
 20
-78.8329776761
 11
-16.0454002681
 21
-78.8298468513
  0
LINE
  5
25F
100
AcDbEntity
  8
RACCORDO
100
AcDbLine
 62
253
  6
CONTINUOUS
 10
-23.6004849298
 20
-78.7744295604
 11
-15.9786056163
 21
-78.7712759313
  0
LINE
  5
260
100
AcDbEntity
  8
RACCORDO
100
AcDbLine
 62
253
  6
CONTINUOUS
 10
-23.6174102786
 20
-78.471430924
 11
-15.9045233244
 21
-78.4682420454
  0
LINE
  5
261
100
AcDbEntity
  8
RACCORDO
100
AcDbLine
 62
253
  6
CONTINUOUS
 10
-23.6108538568
 20
-78.412876455
 11
-15.8941898092
 21
-78.4096899377
  0
LINE
  5
262
100
AcDbEntity
  8
RACCORDO
100
AcDbLine
 62
253
  6
CONTINUOUS
 10
-23.6641254587
 20
-78.3772261766
 11
-15.8879019489
 21
-78.3740720412
  0
LINE
  5
263
100
AcDbEntity
  8
RACCORDO
100
AcDbLine
 62
253
  6
CONTINUOUS
 10
-23.6703696642
 20
-78.1772566539
 11
-15.8478077771
 21
-78.174088422
  0
LINE
  5
264
100
AcDbEntity
  8
RACCORDO
100
AcDbLine
 62
7
  6
CONTINUOUS
 10
27.0897384114
 20
-79.96616878
 11
22.2879961094
 21
-79.96616878
  0
LINE
  5
265
100
AcDbEntity
  8
DRAFT
100
AcDbLine
 62
7
  6
CONTINUOUS
 10
20.7669827005
 20
-79.96616878
 11
-7.7120038906
 21
-79.96616878
  0
LINE
  5
266
100
AcDbEntity
  8
DRAFT
100
AcDbLine
 62
7
  6
CONTINUOUS
 10
-9.2330172995
 20
-79.96616878
 11
-37.7120038906
 21
-79.96616878
  0
LINE
  5
267
100
AcDbEntity
  8
RACCORDO
100
AcDbLine
 62
7
  6
CONTINUOUS
 10
-39.2330172995
 20
-79.96616878
 11
-44.0347596014
 21
-79.96616878
  0
LINE
  5
268
100
AcDbEntity
  8
DRAFT
100
AcDbLine
 62
7
  6
CONTINUOUS
 10
22.277489405
 20
-79.9539502346
 11
20.777489405
 21
-79.9539502346
  0
LINE
  5
269
100
AcDbEntity
  8
DRAFT
100
AcDbLine
 62
7
  6
CONTINUOUS
 10
-7.722510595
 20
-79.9539502346
 11
-9.222510595
 21
-79.9539502346
  0
LINE
  5
26A
100
AcDbEntity
  8
DRAFT
100
AcDbLine
 62
7
  6
CONTINUOUS
 10
-37.722510595
 20
-79.9539502346
 11
-39.222510595
 21
-79.9539502346
  0
LINE
  5
26B
100
AcDbEntity
  8
RACCORDO
100
AcDbLine
 62
7
  6
CONTINUOUS
 10
-44.012068017
 20
-79.9434771956
 11
-42.9444430144
 21
-79.9434771956
  0
LINE
  5
26C
100
AcDbEntity
  8
DRAFT
100
AcDbLine
 62
7
  6
CONTINUOUS
 10
-42.6005781756
 20
-79.9434771956
 11
-42.2444430144
 21
-79.9434771956
  0
LINE
  5
26D
100
AcDbEntity
  8
DRAFT
100
AcDbLine
 62
7
  6
CONTINUOUS
 10
-41.9005781756
 20
-79.9434771956
 11
-41.8620375561
 21
-79.9434771956
  0
LINE
  5
26E
100
AcDbEntity
  8
DRAFT
100
AcDbLine
 62
7
  6
CONTINUOUS
 10
24.917016366
 20
-79.9434771956
 11
24.9555569856
 21
-79.9434771956
  0
LINE
  5
26F
100
AcDbEntity
  8
DRAFT
100
AcDbLine
 62
7
  6
CONTINUOUS
 10
25.2994218244
 20
-79.9434771956
 11
25.6555569856
 21
-79.9434771956
  0
LINE
  5
270
100
AcDbEntity
  8
RACCORDO
100
AcDbLine
 62
7
  6
CONTINUOUS
 10
25.9994218244
 20
-79.9434771956
 11
27.067046827
 21
-79.9434771956
  0
LINE
  5
271
100
AcDbEntity
  8
RACCORDO
100
AcDbLine
 62
253
  6
CONTINUOUS
 10
24.7572543319
 20
-79.8851922365
 11
-41.7022755219
 21
-79.8851922365
  0
LINE
  5
272
100
AcDbEntity
  8
RACCORDO
100
AcDbLine
 62
253
  6
CONTINUOUS
 10
24.5572847928
 20
-79.0852531677
 11
-41.5023059829
 21
-79.0852531677
  0
LINE
  5
273
100
AcDbEntity
  8
RACCORDO
100
AcDbLine
 62
253
  6
CONTINUOUS
 10
24.7572543319
 20
-78.8852836287
 11
-41.7022755219
 21
-78.8852836287
  0
LINE
  5
274
100
AcDbEntity
  8
RACCORDO
100
AcDbLine
 62
7
  6
CONTINUOUS
 10
-41.6848813836
 20
-78.8677676372
 11
-40.3324432918
 21
-78.8676759027
  0
LINE
  5
275
100
AcDbEntity
  8
RACCORDO
100
AcDbLine
 62
7
  6
CONTINUOUS
 10
-1.0807908481
 20
-78.8676223219
 11
-15.7959591751
 21
-78.8677676372
  0
LINE
  5
276
100
AcDbEntity
  8
RACCORDO
100
AcDbLine
 62
253
  6
CONTINUOUS
 10
23.4978462602
 20
-78.6643680118
 11
23.2978767212
 21
-78.6643680118
  0
LINE
  5
277
100
AcDbEntity
  8
RACCORDO
100
AcDbLine
 62
253
  6
CONTINUOUS
 10
-40.2428979112
 20
-78.6643680118
 11
-40.4428674503
 21
-78.6643680118
  0
LINE
  5
278
100
AcDbEntity
  8
RACCORDO
100
AcDbLine
 62
253
  6
CONTINUOUS
 10
-1.2147413854
 20
-78.6422378255
 11
-15.7302798046
 21
-78.6422378255
  0
LINE
  5
279
100
AcDbEntity
  8
RACCORDO
100
AcDbLine
 62
7
  6
CONTINUOUS
 10
24.7398601935
 20
-78.4839502346
 11
24.297785329
 21
-78.4839502346
  0
LINE
  5
27A
100
AcDbEntity
  8
RACCORDO
100
AcDbLine
 62
7
  6
CONTINUOUS
 10
-41.242806519
 20
-78.4839502346
 11
-41.6848813836
 21
-78.4839502346
  0
LINE
  5
27B
100
AcDbEntity
  8
RACCORDO
100
AcDbLine
 62
253
  6
CONTINUOUS
 10
-40.1796170805
 20
-78.1910871819
 11
-31.8303902013
 21
-78.1829636295
  0
LINE
  5
27C
100
AcDbEntity
  8
RACCORDO
100
AcDbLine
 62
253
  6
CONTINUOUS
 10
-1.2957781221
 20
-78.1490408636
 11
-15.649243068
 21
-78.1490408636
  0
LINE
  5
27D
100
AcDbEntity
  8
DRAFT
100
AcDbLine
 62
7
  6
CONTINUOUS
 10
28.0152708595
 20
-77.3147614866
 11
27.2897079504
 21
-77.3147614866
  0
LINE
  5
27E
100
AcDbEntity
  8
RACCORDO
100
AcDbLine
 62
7
  6
CONTINUOUS
 10
27.0704769134
 20
-77.1320584015
 11
26.777489405
 21
-77.1320584015
  0
LINE
  5
27F
100
AcDbEntity
  8
DRAFT
100
AcDbLine
 62
7
  6
CONTINUOUS
 10
28.013525353
 20
-77.1039502346
 11
26.777489405
 21
-77.1039502346
  0
LINE
  5
280
100
AcDbEntity
  8
RACCORDO
100
AcDbLine
 62
253
  6
CONTINUOUS
 10
-15.4579917529
 20
-77.0610704371
 11
-1.4870294372
 21
-77.0610704371
  0
LINE
  5
281
100
AcDbEntity
  8
RACCORDO
100
AcDbLine
 62
7
  6
CONTINUOUS
 10
-15.4579917529
 20
-76.8939502346
 11
-1.4870294372
 21
-76.8939502346
  0
LINE
  5
282
100
AcDbEntity
  8
RACCORDO
100
AcDbLine
 62
253
  6
CONTINUOUS
 10
-0.8995472431
 20
-78.829900518
 11
10.1956389874
 21
-78.8352058315
  0
LINE
  5
283
100
AcDbEntity
  8
RACCORDO
100
AcDbLine
 62
253
  6
CONTINUOUS
 10
-0.9664479991
 20
-78.7713319187
 11
10.2010359032
 21
-78.7766575854
  0
LINE
  5
284
100
AcDbEntity
  8
RACCORDO
100
AcDbLine
 62
253
  6
CONTINUOUS
 10
-1.0404872351
 20
-78.4683022926
 11
10.1566786045
 21
-78.4736187867
  0
LINE
  5
285
100
AcDbEntity
  8
RACCORDO
100
AcDbLine
 62
253
  6
CONTINUOUS
 10
-1.0508207145
 20
-78.4097503588
 11
10.1481987704
 21
-78.4150609349
  0
LINE
  5
286
100
AcDbEntity
  8
RACCORDO
100
AcDbLine
 62
253
  6
CONTINUOUS
 10
-1.0571071856
 20
-78.3741403151
 11
10.0244822838
 21
-78.3792515121
  0
LINE
  5
287
100
AcDbEntity
  8
RACCORDO
100
AcDbLine
 62
253
  6
CONTINUOUS
 10
-1.0972122509
 20
-78.1741585752
 11
10.0320081865
 21
-78.1792818692
  0
LWPOLYLINE
  5
288
100
AcDbEntity
  8
RACCORDO
100
AcDbPolyline
 62
253
  6
CONTINUOUS
 90
3
 70
0
 10
10.0244822838
 20
-78.3792515121
 10
18.6992853572
 20
-78.3864387149
 10
23.0346263506
 20
-78.3910567192
  0
LWPOLYLINE
  5
289
100
AcDbEntity
  8
RACCORDO
100
AcDbPolyline
 62
253
  6
CONTINUOUS
 90
3
 70
0
 10
10.0320081865
 20
-78.1792818692
 10
18.7110749389
 20
-78.186469119
 10
23.2345958896
 20
-78.1910871802
  0
LWPOLYLINE
  5
28A
100
AcDbEntity
  8
RACCORDO
100
AcDbPolyline
 62
253
  6
CONTINUOUS
 90
3
 70
0
 10
10.1956389874
 20
-78.8352058315
 10
18.7990760126
 20
-78.8425344228
 10
23.080792925
 20
-78.8472232937
  0
LWPOLYLINE
  5
28B
100
AcDbEntity
  8
RACCORDO
100
AcDbPolyline
 62
253
  6
CONTINUOUS
 90
3
 70
0
 10
10.2010359032
 20
-78.7766575854
 10
18.8076581005
 20
-78.7839862034
 10
23.0901085471
 20
-78.788675115
  0
LWPOLYLINE
  5
28C
100
AcDbEntity
  8
RACCORDO
100
AcDbPolyline
 62
253
  6
CONTINUOUS
 90
3
 70
0
 10
10.1566786045
 20
-78.4736187867
 10
18.7843273016
 20
-78.4809581484
 10
23.0847943324
 20
-78.4856602418
  0
LWPOLYLINE
  5
28D
100
AcDbEntity
  8
RACCORDO
100
AcDbPolyline
 62
253
  6
CONTINUOUS
 90
3
 70
0
 10
10.1481987704
 20
-78.4150609349
 10
18.7714422645
 20
-78.4223894347
 10
23.0706542179
 20
-78.4270845865
  0
LINE
  5
28E
100
AcDbEntity
  8
RACCORDO
100
AcDbLine
 62
7
  6
CONTINUOUS
 10
-15.7959591751
 20
-78.8677676372
 11
-15.8798577071
 21
-78.8675494242
  0
LINE
  5
28F
100
AcDbEntity
  8
RACCORDO
100
AcDbLine
 62
7
  6
CONTINUOUS
 10
23.3592445489
 20
-78.8675538011
 11
24.7398601935
 21
-78.8677676372
  0
LINE
  5
290
100
AcDbEntity
  8
RACCORDO
100
AcDbLine
 62
7
  6
CONTINUOUS
 10
-15.8798577071
 20
-78.8675494242
 11
-15.9680450264
 21
-78.8668671263
  0
LINE
  5
291
100
AcDbEntity
  8
RACCORDO
100
AcDbLine
 62
7
  6
CONTINUOUS
 10
23.2716980406
 20
-78.8668825014
 11
23.3592445489
 21
-78.8675538011
  0
LINE
  5
292
100
AcDbEntity
  8
RACCORDO
100
AcDbLine
 62
7
  6
CONTINUOUS
 10
-15.9680450264
 20
-78.8668671263
 11
-16.0833780293
 21
-78.8653188015
  0
LINE
  5
293
100
AcDbEntity
  8
RACCORDO
100
AcDbLine
 62
7
  6
CONTINUOUS
 10
23.1555901159
 20
-78.8653305013
 11
23.2716980406
 21
-78.8668825014
  0
LINE
  5
294
100
AcDbEntity
  8
RACCORDO
100
AcDbLine
 62
7
  6
CONTINUOUS
 10
-16.0833780293
 20
-78.8653188015
 11
-16.1403305213
 21
-78.8643375508
  0
LINE
  5
295
100
AcDbEntity
  8
RACCORDO
100
AcDbLine
 62
7
  6
CONTINUOUS
 10
23.0979071886
 20
-78.8643375573
 11
23.1555901159
 21
-78.8653305013
  0
LWPOLYLINE
  5
296
100
AcDbEntity
  8
RACCORDO
100
AcDbPolyline
 62
7
  6
CONTINUOUS
 90
8
 70
0
 10
-0.8046906688
 20
-78.8538645124
 10
-0.8189182276
 20
-78.8533575686
 10
-0.8330830354
 20
-78.8518380018
 10
-0.8471130092
 20
-78.8493115161
 10
-0.8609892888
 20
-78.8457734528
 10
-0.8745857976
 20
-78.8412478099
 10
-0.8876820165
 20
-78.8358244975
 10
-0.9002019241
 20
-78.8295736539
  0
LWPOLYLINE
  5
297
100
AcDbEntity
  8
RACCORDO
100
AcDbPolyline
 62
253
  6
CONTINUOUS
 90
22
 70
0
 10
-40.0429283779
 20
-78.8643375565
 10
-40.0589362922
 20
-78.8637011194
 10
-40.0748461172
 20
-78.861785
 10
-40.090555682
 20
-78.8586002394
 10
-40.1059747471
 20
-78.8541624946
 10
-40.1209925357
 20
-78.8485008702
 10
-40.1354815941
 20
-78.8416662923
 10
-40.1494198728
 20
-78.83366605
 10
-40.1626469417
 20
-78.8245891627
 10
-40.1748750681
 20
-78.8146812842
 10
-40.1860170644
 20
-78.8041170714
 10
-40.1961199538
 20
-78.7929611785
 10
-40.2051581798
 20
-78.7813495464
 10
-40.2130936327
 20
-78.769467784
 10
-40.2200038732
 20
-78.7573470387
 10
-40.2260128283
 20
-78.7448623099
 10
-40.2311213449
 20
-78.7320502735
 10
-40.2353079166
 20
-78.7190093419
 10
-40.2386003193
 20
-78.7056724972
 10
-40.2409813646
 20
-78.6920553337
 10
-40.2424189641
 20
-78.6782653975
 10
-40.2428979112
 20
-78.6643680118
  0
LINE
  5
298
100
AcDbEntity
  8
DRAFT
100
AcDbLine
 62
7
  6
CONTINUOUS
 10
-42.8664798571
 20
-79.9472161057
 11
-42.9444430144
 21
-79.9434771956
  0
LINE
  5
299
100
AcDbEntity
  8
DRAFT
100
AcDbLine
 62
7
  6
CONTINUOUS
 10
-42.1664798571
 20
-79.9472161057
 11
-42.2444430144
 21
-79.9434771956
  0
LINE
  5
29A
100
AcDbEntity
  8
DRAFT
100
AcDbLine
 62
7
  6
CONTINUOUS
 10
25.0335201429
 20
-79.9472161057
 11
24.9555569856
 21
-79.9434771956
  0
LINE
  5
29B
100
AcDbEntity
  8
DRAFT
100
AcDbLine
 62
7
  6
CONTINUOUS
 10
25.7335201429
 20
-79.9472161057
 11
25.6555569856
 21
-79.9434771956
  0
LWPOLYLINE
  5
29C
100
AcDbEntity
  8
RACCORDO
100
AcDbPolyline
 62
253
  6
CONTINUOUS
 90
3
 70
0
 10
-40.005862134
 20
-78.3893230163
 10
-40.0002711135
 20
-78.3899841051
 10
-39.9796475423
 20
-78.3910567209
  0
LINE
  5
29D
100
AcDbEntity
  8
RACCORDO
100
AcDbLine
 62
253
  6
CONTINUOUS
 10
-15.9433689707
 20
-78.6989916642
 11
-15.7464074201
 21
-78.7337160103
  0
LINE
  5
29E
100
AcDbEntity
  8
RACCORDO
100
AcDbLine
 62
253
  6
CONTINUOUS
 10
-15.9272413552
 20
-78.6075134794
 11
-15.7302798046
 21
-78.6422378255
  0
LINE
  5
29F
100
AcDbEntity
  8
RACCORDO
100
AcDbLine
 62
253
  6
CONTINUOUS
 10
-50.072510595
 20
-60.452808644
 11
-49.775049139
 21
-60.7502701
  0
LINE
  5
2A0
100
AcDbEntity
  8
RACCORDO
100
AcDbLine
 62
253
  6
CONTINUOUS
 10
-49.7736521856
 20
-60.1539502346
 11
-49.4761907296
 21
-60.4514116906
  0
LWPOLYLINE
  5
2A1
100
AcDbEntity
  8
RACCORDO
100
AcDbPolyline
 62
7
  6
CONTINUOUS
 90
6
 70
0
 10
-40.198952639
 20
-78.7472553644
 10
-40.1875435558
 20
-78.7648115013
 10
-40.1743624026
 20
-78.7810786924
 10
-40.159553598
 20
-78.7958789876
 10
-40.1432791885
 20
-78.8090505304
 10
-40.1257139868
 20
-78.8204510213
  0
LWPOLYLINE
  5
2A2
100
AcDbEntity
  8
RACCORDO
100
AcDbPolyline
 62
7
  6
CONTINUOUS
 90
12
 70
0
 10
-40.2659031427
 20
29.6834852993
 10
-40.2665977886
 20
29.682054095
 10
-40.2672709925
 20
29.6784969401
 10
-40.2679227544
 20
29.6728515909
 10
-40.2685595572
 20
29.6651781853
 10
-40.2691749181
 20
29.6555585885
 10
-40.2697493884
 20
29.6440955076
 10
-40.2702816642
 20
29.6309114059
 10
-40.2707730495
 20
29.6161472901
 10
-40.2712080083
 20
29.5999612063
 10
-40.271584737
 20
29.5825262715
 10
-40.2721587886
 20
29.5446689138
  0
LINE
  5
2A3
100
AcDbEntity
  8
DRAFT
100
AcDbLine
 62
7
  6
CONTINUOUS
 10
-47.4428369847
 20
9.2757924875
 11
-47.472510595
 21
9.2460497654
  0
LWPOLYLINE
  5
2A4
100
AcDbEntity
  8
RACCORDO
100
AcDbPolyline
 62
7
  6
CONTINUOUS
 90
16
 70
0
 10
-15.458487662
 20
-76.8939502346
 10
-15.4770777854
 20
-76.8948160988
 10
-15.4955069357
 20
-76.8974061927
 10
-15.5136155418
 20
-76.9016980874
 10
-15.5312467917
 20
-76.9076546122
 10
-15.5482480419
 20
-76.9152241931
 10
-15.5644721332
 20
-76.9243413153
 10
-15.579778595
 20
-76.9349270593
 10
-15.5940348696
 20
-76.946889769
 10
-15.6071175073
 20
-76.9601258724
 10
-15.618913227
 20
-76.974520781
 10
-15.6293198714
 20
-76.9899498506
 10
-15.6382473023
 20
-77.0062794541
 10
-15.6456182113
 20
-77.0233681837
 10
-15.65136878
 20
-77.0410680822
 10
-15.6554492127
 20
-77.0592258885
  0
LINE
  5
2A5
100
AcDbEntity
  8
DRAFT
100
AcDbLine
 62
7
  6
CONTINUOUS
 10
26.777489405
 20
-75.6039502346
 11
28.013525353
 21
-75.6039502346
  0
LINE
  5
2A6
100
AcDbEntity
  8
RACCORDO
100
AcDbLine
 62
7
  6
CONTINUOUS
 10
27.0704769134
 20
-75.5758420676
 11
26.777489405
 21
-75.5758420676
  0
LINE
  5
2A7
100
AcDbEntity
  8
DRAFT
100
AcDbLine
 62
7
  6
CONTINUOUS
 10
28.0152708595
 20
-75.3931389825
 11
27.2897079504
 21
-75.3931389825
  0
LINE
  5
2A8
100
AcDbEntity
  8
DRAFT
100
AcDbLine
 62
7
  6
CONTINUOUS
 10
-44.2347291405
 20
-75.3147614866
 11
-46.1847291405
 21
-75.3147614866
  0
LINE
  5
2A9
100
AcDbEntity
  8
RACCORDO
100
AcDbLine
 62
7
  6
CONTINUOUS
 10
-44.0154981035
 20
-75.1320584015
 11
-43.722510595
 21
-75.1320584015
  0
LINE
  5
2AA
100
AcDbEntity
  8
DRAFT
100
AcDbLine
 62
7
  6
CONTINUOUS
 10
-43.722510595
 20
-75.1039502346
 11
-46.1585465431
 21
-75.1039502346
  0
LINE
  5
2AB
100
AcDbEntity
  8
DRAFT
100
AcDbLine
 62
7
  6
CONTINUOUS
 10
-46.1585465431
 20
-73.6039502346
 11
-43.722510595
 21
-73.6039502346
  0
LINE
  5
2AC
100
AcDbEntity
  8
RACCORDO
100
AcDbLine
 62
7
  6
CONTINUOUS
 10
-44.0154981035
 20
-73.5758420676
 11
-43.722510595
 21
-73.5758420676
  0
LINE
  5
2AD
100
AcDbEntity
  8
DRAFT
100
AcDbLine
 62
7
  6
CONTINUOUS
 10
-46.1847291405
 20
-73.3931389825
 11
-44.2347291405
 21
-73.3931389825
  0
LINE
  5
2AE
100
AcDbEntity
  8
DRAFT
100
AcDbLine
 62
7
  6
CONTINUOUS
 10
-47.4428369847
 20
-57.9836929566
 11
-47.472510595
 21
-57.9539502346
  0
LINE
  5
2AF
100
AcDbEntity
  8
RACCORDO
100
AcDbLine
 62
7
  6
CONTINUOUS
 10
-49.775049139
 20
-66.5626674834
 11
-49.8158629915
 21
-66.038085666
  0
LINE
  5
2B0
100
AcDbEntity
  8
RACCORDO
100
AcDbLine
 62
7
  6
CONTINUOUS
 10
-49.8158629915
 20
-66.038085666
 11
-49.8303162511
 21
-65.8428204987
  0
LINE
  5
2B1
100
AcDbEntity
  8
RACCORDO
100
AcDbLine
 62
7
  6
CONTINUOUS
 10
-49.8299216072
 20
17.1403517038
 11
-49.8001085216
 21
17.5363978923
  0
LINE
  5
2B2
100
AcDbEntity
  8
RACCORDO
100
AcDbLine
 62
7
  6
CONTINUOUS
 10
-49.8001085216
 20
17.5363978923
 11
-49.775049139
 21
17.8547670143
  0
LINE
  5
2B3
100
AcDbEntity
  8
RACCORDO
100
AcDbLine
 62
7
  6
CONTINUOUS
 10
-40.3069268873
 20
27.3308039461
 11
-40.2995065713
 21
27.3580417874
  0
LINE
  5
2B4
100
AcDbEntity
  8
RACCORDO
100
AcDbLine
 62
7
  6
CONTINUOUS
 10
-40.2995065713
 20
27.3580417874
 11
-40.2725105955
 21
27.4538953044
  0
LINE
  5
2B5
100
AcDbEntity
  8
RACCORDO
100
AcDbLine
 62
7
  6
CONTINUOUS
 10
-49.7736521856
 20
-68.5539502346
 11
-48.1713690045
 21
-68.5539502346
  0
LINE
  5
2B6
100
AcDbEntity
  8
RACCORDO
100
AcDbLine
 62
7
  6
CONTINUOUS
 10
-49.4761907296
 20
-68.2564887786
 11
-48.4688304604
 21
-68.2564887786
  0
LINE
  5
2B7
100
AcDbEntity
  8
RACCORDO
100
AcDbLine
 62
7
  6
CONTINUOUS
 10
-48.169972051
 20
-62.1452329857
 11
-48.1291581985
 21
-62.6698148032
  0
LINE
  5
2B8
100
AcDbEntity
  8
RACCORDO
100
AcDbLine
 62
7
  6
CONTINUOUS
 10
-48.1291581985
 20
-62.6698148032
 11
-48.1062764703
 21
-62.9826677638
  0
LINE
  5
2B9
100
AcDbEntity
  8
RACCORDO
100
AcDbLine
 62
7
  6
CONTINUOUS
 10
-49.8303162511
 20
-65.8428204987
 11
-49.8497253844
 21
-65.5663225652
  0
LINE
  5
2BA
100
AcDbEntity
  8
RACCORDO
100
AcDbLine
 62
7
  6
CONTINUOUS
 10
-48.1062764703
 20
-62.9826677638
 11
-48.0952958056
 21
-63.141577904
  0
LWPOLYLINE
  5
2BB
100
AcDbEntity
  8
RACCORDO
100
AcDbPolyline
 62
7
  6
CONTINUOUS
 90
22
 70
0
 10
-47.472510595
 20
-81.104026387
 10
-47.471119122
 20
-81.1413066069
 10
-47.4669445471
 20
-81.1784289623
 10
-47.4599988578
 20
-81.2151850627
 10
-47.4502950156
 20
-81.2514149721
 10
-47.4378839762
 20
-81.2868624364
 10
-47.4228900122
 20
-81.3211884701
 10
-47.4054784152
 20
-81.3541040851
 10
-47.3857208159
 20
-81.3855501985
 10
-47.3636111147
 20
-81.4155328828
 10
-47.3391501829
 20
-81.4439794112
 10
-47.3125397716
 20
-81.4705898224
 10
-47.2840932433
 20
-81.4950507543
 10
-47.2541105589
 20
-81.5171604555
 10
-47.2226644456
 20
-81.5369180547
 10
-47.1897488305
 20
-81.5543296518
 10
-47.1554227968
 20
-81.5693236158
 10
-47.1199753326
 20
-81.5817346552
 10
-47.0837454231
 20
-81.5914384973
 10
-47.0469893227
 20
-81.5983841867
 10
-47.0098669674
 20
-81.6025587616
 10
-46.9725867475
 20
-81.6039502346
  0
LINE
  5
2BC
100
AcDbEntity
  8
RACCORDO
100
AcDbLine
 62
7
  6
CONTINUOUS
 10
-50.072510595
 20
19.547191356
 11
-50.072510595
 21
16.875887153
  0
LINE
  5
2BD
100
AcDbEntity
  8
RACCORDO
100
AcDbLine
 62
7
  6
CONTINUOUS
 10
-50.072510595
 20
14.4162123778
 11
-50.072510595
 21
11.7449081748
  0
LINE
  5
2BE
100
AcDbEntity
  8
RACCORDO
100
AcDbLine
 62
7
  6
CONTINUOUS
 10
-50.072510595
 20
-60.452808644
 11
-50.072510595
 21
-63.124112847
  0
LINE
  5
2BF
100
AcDbEntity
  8
RACCORDO
100
AcDbLine
 62
7
  6
CONTINUOUS
 10
-50.072510595
 20
-65.5837876222
 11
-50.072510595
 21
-68.2550918252
  0
LINE
  5
2C0
100
AcDbEntity
  8
DRAFT
100
AcDbLine
 62
7
  6
CONTINUOUS
 10
-49.897533268
 20
-65.7202712271
 11
-49.897533268
 21
-65.5335944
  0
LINE
  5
2C1
100
AcDbEntity
  8
DRAFT
100
AcDbLine
 62
7
  6
CONTINUOUS
 10
-49.897533268
 20
-63.1743060691
 11
-49.897533268
 21
-62.9876292421
  0
LINE
  5
2C2
100
AcDbEntity
  8
DRAFT
100
AcDbLine
 62
7
  6
CONTINUOUS
 10
-49.897533268
 20
17.0123707579
 11
-49.897533268
 21
16.8256939309
  0
LINE
  5
2C3
100
AcDbEntity
  8
DRAFT
100
AcDbLine
 62
7
  6
CONTINUOUS
 10
-49.897533268
 20
14.4664056
 11
-49.897533268
 21
14.2797287729
  0
LINE
  5
2C4
100
AcDbEntity
  8
RACCORDO
100
AcDbLine
 62
7
  6
CONTINUOUS
 10
-49.775049139
 20
19.2497299
 11
-49.775049139
 21
17.8547670143
  0
LINE
  5
2C5
100
AcDbEntity
  8
RACCORDO
100
AcDbLine
 62
7
  6
CONTINUOUS
 10
-49.775049139
 20
13.4373325166
 11
-49.775049139
 21
12.0423696308
  0
LINE
  5
2C6
100
AcDbEntity
  8
RACCORDO
100
AcDbLine
 62
7
  6
CONTINUOUS
 10
-49.775049139
 20
-60.7502701
 11
-49.775049139
 21
-62.1452329857
  0
LINE
  5
2C7
100
AcDbEntity
  8
RACCORDO
100
AcDbLine
 62
7
  6
CONTINUOUS
 10
-49.775049139
 20
-66.5626674834
 11
-49.775049139
 21
-67.9576303692
  0
LINE
  5
2C8
100
AcDbEntity
  8
RACCORDO
100
AcDbLine
 62
7
  6
CONTINUOUS
 10
-48.169972051
 20
-67.9576303692
 11
-48.169972051
 21
-66.5626674834
  0
LINE
  5
2C9
100
AcDbEntity
  8
RACCORDO
100
AcDbLine
 62
7
  6
CONTINUOUS
 10
-48.169972051
 20
-62.1452329857
 11
-48.169972051
 21
-60.7502701
  0
LINE
  5
2CA
100
AcDbEntity
  8
RACCORDO
100
AcDbLine
 62
7
  6
CONTINUOUS
 10
-48.169972051
 20
12.0423696308
 11
-48.169972051
 21
13.4373325166
  0
LINE
  5
2CB
100
AcDbEntity
  8
RACCORDO
100
AcDbLine
 62
7
  6
CONTINUOUS
 10
-48.169972051
 20
17.8547670143
 11
-48.169972051
 21
19.2497299
  0
LINE
  5
2CC
100
AcDbEntity
  8
DRAFT
100
AcDbLine
 62
7
  6
CONTINUOUS
 10
-48.0474879221
 20
-65.7202712271
 11
-48.0474879221
 21
-65.5335944
  0
LINE
  5
2CD
100
AcDbEntity
  8
DRAFT
100
AcDbLine
 62
7
  6
CONTINUOUS
 10
-48.0474879221
 20
-63.1743060691
 11
-48.0474879221
 21
-62.9876292421
  0
LINE
  5
2CE
100
AcDbEntity
  8
DRAFT
100
AcDbLine
 62
7
  6
CONTINUOUS
 10
-48.0474879221
 20
17.0123707579
 11
-48.0474879221
 21
16.8256939309
  0
LINE
  5
2CF
100
AcDbEntity
  8
DRAFT
100
AcDbLine
 62
7
  6
CONTINUOUS
 10
-48.0474879221
 20
14.4664056
 11
-48.0474879221
 21
14.2797287729
  0
LWPOLYLINE
  5
2D0
100
AcDbEntity
  8
RACCORDO
100
AcDbPolyline
 62
7
  6
CONTINUOUS
 90
22
 70
0
 10
-47.472510595
 20
32.3961259178
 10
-47.471119122
 20
32.4334061378
 10
-47.4669445471
 20
32.4705284931
 10
-47.4599988578
 20
32.5072845935
 10
-47.4502950156
 20
32.543514503
 10
-47.4378839762
 20
32.5789619672
 10
-47.4228900122
 20
32.6132880009
 10
-47.4054784152
 20
32.6462036159
 10
-47.3857208159
 20
32.6776497293
 10
-47.3636111147
 20
32.7076324136
 10
-47.3391501829
 20
32.736078942
 10
-47.3125397716
 20
32.7626893533
 10
-47.2840932433
 20
32.7871502851
 10
-47.2541105589
 20
32.8092599863
 10
-47.2226644456
 20
32.8290175856
 10
-47.1897488305
 20
32.8464291826
 10
-47.1554227968
 20
32.8614231466
 10
-47.1199753326
 20
32.873834186
 10
-47.0837454231
 20
32.8835380282
 10
-47.0469893227
 20
32.8904837175
 10
-47.0098669674
 20
32.8946582924
 10
-46.9725867475
 20
32.8960497654
  0
LWPOLYLINE
  5
2D1
100
AcDbEntity
  8
RACCORDO
100
AcDbPolyline
 62
7
  6
CONTINUOUS
 90
3
 70
0
 10
-49.8497253844
 20
16.858422096
 10
-49.8327858832
 20
17.1007832444
 10
-49.8299216072
 20
17.1403517038
  0
LINE
  5
2D2
100
AcDbEntity
  8
RACCORDO
100
AcDbLine
 62
7
  6
CONTINUOUS
 10
-48.0952958056
 20
14.4336774348
 11
-48.1122353069
 21
14.1913162864
  0
LINE
  5
2D3
100
AcDbEntity
  8
RACCORDO
100
AcDbLine
 62
7
  6
CONTINUOUS
 10
-48.1122353069
 20
14.1913162864
 11
-48.1386084777
 21
13.8375337555
  0
LINE
  5
2D4
100
AcDbEntity
  8
RACCORDO
100
AcDbLine
 62
7
  6
CONTINUOUS
 10
-48.1386084777
 20
13.8375337555
 11
-48.169972051
 21
13.4373325166
  0
LINE
  5
2D5
100
AcDbEntity
  8
DRAFT
100
AcDbLine
 62
7
  6
CONTINUOUS
 10
-46.1847291405
 20
24.6852385134
 11
-46.1585465431
 21
24.8960497654
  0
LINE
  5
2D6
100
AcDbEntity
  8
RACCORDO
100
AcDbLine
 62
7
  6
CONTINUOUS
 10
-44.2347291405
 20
24.6852385134
 11
-44.2154676425
 21
24.8403239867
  0
LWPOLYLINE
  5
2D7
100
AcDbEntity
  8
RACCORDO
100
AcDbPolyline
 62
253
  6
CONTINUOUS
 90
16
 70
0
 10
23.3778733831
 20
27.2603332708
 10
23.361677336
 20
27.2548088778
 10
23.3460310369
 20
27.2479297808
 10
23.3310466872
 20
27.2397497703
 10
23.3168321784
 20
27.2303329213
 10
23.3034873262
 20
27.2197500592
 10
23.2911039426
 20
27.2080772229
 10
23.2797701219
 20
27.1954013361
 10
23.2695652207
 20
27.181815648
 10
23.2605581932
 20
27.1674143144
 10
23.2528285009
 20
27.1523354507
 10
23.2464097501
 20
27.1366575281
 10
23.2413171756
 20
27.120380524
 10
23.2376085772
 20
27.103575931
 10
23.2353528476
 20
27.0863986537
 10
23.2345958896
 20
27.0689737418
  0
LINE
  5
2D8
100
AcDbEntity
  8
DRAFT
100
AcDbLine
 62
7
  6
CONTINUOUS
 10
28.2647914483
 20
-62.6539502346
 11
28.0152708595
 21
-62.6539502346
  0
LINE
  5
2D9
100
AcDbEntity
  8
0
100
AcDbLine
 62
7
  6
CONTINUOUS
 10
28.2647914483
 20
-62.6539502346
 11
33.8774411678
 21
-62.6539502346
  0
LWPOLYLINE
  5
2DA
100
AcDbEntity
  8
RACCORDO
100
AcDbPolyline
 62
7
  6
CONTINUOUS
 90
5
 70
0
 10
-0.9002019241
 20
-78.8295736539
 10
-0.9121231641
 20
-78.822545945
 10
-0.9233350632
 20
-78.8148544835
 10
-0.9337803164
 20
-78.8066037498
 10
-0.9434794837
 20
-78.7978446993
  0
LINE
  5
2DB
100
AcDbEntity
  8
DRAFT
100
AcDbLine
 62
7
  6
CONTINUOUS
 10
-8.972510595
 20
-81.6039502346
 11
-8.986719889
 21
-81.5917316891
  0
LINE
  5
2DC
100
AcDbEntity
  8
DRAFT
100
AcDbLine
 62
7
  6
CONTINUOUS
 10
-46.1847291405
 20
-73.3931389825
 11
-46.1585465431
 21
-73.6039502346
  0
LINE
  5
2DD
100
AcDbEntity
  8
RACCORDO
100
AcDbLine
 62
7
  6
CONTINUOUS
 10
-44.2347291405
 20
-73.3931389825
 11
-44.2154676425
 21
-73.5482244559
  0
LWPOLYLINE
  5
2DE
100
AcDbEntity
  8
RACCORDO
100
AcDbPolyline
 62
253
  6
CONTINUOUS
 90
16
 70
0
 10
-40.2257836562
 20
-78.6472537556
 10
-40.2245214763
 20
-78.661403856
 10
-40.2212430044
 20
-78.6755363723
 10
-40.2159776803
 20
-78.6894406733
 10
-40.2087786006
 20
-78.7028651657
 10
-40.1997255795
 20
-78.7156623644
 10
-40.1889169503
 20
-78.7277996698
 10
-40.1764389693
 20
-78.7391442817
 10
-40.1624240945
 20
-78.7495133267
 10
-40.1470568579
 20
-78.7588502214
 10
-40.1304415287
 20
-78.7670831503
 10
-40.1127298302
 20
-78.7740796894
 10
-40.0941956364
 20
-78.7797749129
 10
-40.07502159
 20
-78.7841389806
 10
-40.0552894524
 20
-78.7871221082
 10
-40.0351297221
 20
-78.788675113
  0
LWPOLYLINE
  5
2DF
100
AcDbEntity
  8
RACCORDO
100
AcDbPolyline
 62
253
  6
CONTINUOUS
 90
16
 70
0
 10
-40.2204768962
 20
-78.3442389246
 10
-40.219214045
 20
-78.3584939757
 10
-40.2159341423
 20
-78.3726043255
 10
-40.2106704822
 20
-78.3864267416
 10
-40.2034764956
 20
-78.3998209137
 10
-40.1944252079
 20
-78.4126508792
 10
-40.1836084978
 20
-78.4247864023
 10
-40.1711361646
 20
-78.4361042966
 10
-40.1571348137
 20
-78.4464896753
 10
-40.1417465714
 20
-78.4558371174
 10
-40.1251276421
 20
-78.464051738
 10
-40.107446723
 20
-78.4710501514
 10
-40.0888832913
 20
-78.4767613173
 10
-40.0696257823
 20
-78.4811272623
 10
-40.0498696773
 20
-78.4841036682
 10
-40.0298155183
 20
-78.4856603217
  0
LINE
  5
2E0
100
AcDbEntity
  8
RACCORDO
100
AcDbLine
 62
7
  6
CONTINUOUS
 10
-49.775049139
 20
13.4373325166
 11
-49.8158629915
 21
13.961914334
  0
LINE
  5
2E1
100
AcDbEntity
  8
RACCORDO
100
AcDbLine
 62
7
  6
CONTINUOUS
 10
-48.169972051
 20
17.8547670143
 11
-48.1291581985
 21
17.3301851968
  0
LWPOLYLINE
  5
2E2
100
AcDbEntity
  8
RACCORDO
100
AcDbPolyline
 62
253
  6
CONTINUOUS
 90
9
 70
0
 10
-40.0351297221
 20
-78.788675113
 10
-40.0342737298
 20
-78.8002135887
 10
-40.0333561768
 20
-78.8106389681
 10
-40.0323837404
 20
-78.8198753852
 10
-40.031363497
 20
-78.8278556264
 10
-40.030302871
 20
-78.8345216191
 10
-40.0292095801
 20
-78.8398248547
 10
-40.0280915802
 20
-78.8437267413
 10
-40.0269570071
 20
-78.8461988849
  0
LINE
  5
2E3
100
AcDbEntity
  8
RACCORDO
100
AcDbLine
 62
7
  6
CONTINUOUS
 10
-49.8158629915
 20
13.961914334
 11
-49.8387447197
 21
14.2747672947
  0
LINE
  5
2E4
100
AcDbEntity
  8
RACCORDO
100
AcDbLine
 62
7
  6
CONTINUOUS
 10
-48.1291581985
 20
17.3301851968
 11
-48.1062764703
 21
17.0173322362
  0
LINE
  5
2E5
100
AcDbEntity
  8
RACCORDO
100
AcDbLine
 62
7
  6
CONTINUOUS
 10
-49.8387447197
 20
14.2747672947
 11
-49.8497253844
 21
14.4336774348
  0
LINE
  5
2E6
100
AcDbEntity
  8
RACCORDO
100
AcDbLine
 62
7
  6
CONTINUOUS
 10
-48.1062764703
 20
17.0173322362
 11
-48.0952958056
 21
16.858422096
  0
LWPOLYLINE
  5
2E7
100
AcDbEntity
  8
RACCORDO
100
AcDbPolyline
 62
7
  6
CONTINUOUS
 90
22
 70
0
 10
-44.2154676425
 20
-79.746937743
 10
-44.2148671329
 20
-79.7592062702
 10
-44.2134783108
 20
-79.771473146
 10
-44.2112773608
 20
-79.7837383703
 10
-44.2082453225
 20
-79.7960575682
 10
-44.2043645852
 20
-79.8083751146
 10
-44.1996156989
 20
-79.8205241349
 10
-44.1939939089
 20
-79.8325048252
 10
-44.1874878838
 20
-79.8443169895
 10
-44.1800616109
 20
-79.8557931649
 10
-44.1717190115
 20
-79.8669450196
 10
-44.1624535019
 20
-79.8777608855
 10
-44.1521955245
 20
-79.8880382947
 10
-44.1409582773
 20
-79.8978087754
 10
-44.128743667
 20
-79.9070407994
 10
-44.1154434468
 20
-79.9154373144
 10
-44.1010173865
 20
-79.9230548364
 10
-44.08556021
 20
-79.9298368494
 10
-44.0691779662
 20
-79.9353167519
 10
-44.0519720518
 20
-79.9393390102
 10
-44.0340352749
 20
-79.9420591581
 10
-44.0154981035
 20
-79.9434771956
  0
LINE
  5
2E8
100
AcDbEntity
  8
RACCORDO
100
AcDbLine
 62
7
  6
CONTINUOUS
 10
-47.872510595
 20
-68.2550918252
 11
-47.872510595
 21
-65.5837876222
  0
LINE
  5
2E9
100
AcDbEntity
  8
RACCORDO
100
AcDbLine
 62
7
  6
CONTINUOUS
 10
-47.872510595
 20
-63.124112847
 11
-47.872510595
 21
-60.452808644
  0
LINE
  5
2EA
100
AcDbEntity
  8
RACCORDO
100
AcDbLine
 62
7
  6
CONTINUOUS
 10
-47.872510595
 20
11.7449081748
 11
-47.872510595
 21
14.4162123778
  0
LINE
  5
2EB
100
AcDbEntity
  8
RACCORDO
100
AcDbLine
 62
7
  6
CONTINUOUS
 10
-47.872510595
 20
16.875887153
 11
-47.872510595
 21
19.547191356
  0
LINE
  5
2EC
100
AcDbEntity
  8
RACCORDO
100
AcDbLine
 62
7
  6
CONTINUOUS
 10
-47.472510595
 20
32.3961259178
 11
-47.472510595
 21
22.0460497654
  0
LINE
  5
2ED
100
AcDbEntity
  8
DRAFT
100
AcDbLine
 62
7
  6
CONTINUOUS
 10
-47.472510595
 20
9.2460497654
 11
-47.472510595
 21
-57.9539502346
  0
LINE
  5
2EE
100
AcDbEntity
  8
RACCORDO
100
AcDbLine
 62
7
  6
CONTINUOUS
 10
-47.472510595
 20
-70.7539502346
 11
-47.472510595
 21
-81.104026387
  0
LINE
  5
2EF
100
AcDbEntity
  8
DRAFT
100
AcDbLine
 62
7
  6
CONTINUOUS
 10
-47.4602920496
 20
-20.6039502346
 11
-47.4602920496
 21
-28.1039502346
  0
LINE
  5
2F0
100
AcDbEntity
  8
RACCORDO
100
AcDbLine
 62
7
  6
CONTINUOUS
 10
-47.4428369847
 20
32.3664523075
 11
-47.4428369847
 21
22.0163070434
  0
LINE
  5
2F1
100
AcDbEntity
  8
DRAFT
100
AcDbLine
 62
7
  6
CONTINUOUS
 10
-47.4428369847
 20
9.2757924875
 11
-47.4428369847
 21
-20.5864951697
  0
LINE
  5
2F2
100
AcDbEntity
  8
DRAFT
100
AcDbLine
 62
7
  6
CONTINUOUS
 10
-47.4428369847
 20
-28.1214052995
 11
-47.4428369847
 21
-57.9836929566
  0
LINE
  5
2F3
100
AcDbEntity
  8
RACCORDO
100
AcDbLine
 62
7
  6
CONTINUOUS
 10
-47.4428369847
 20
-70.7242075125
 11
-47.4428369847
 21
-81.0743527766
  0
LINE
  5
2F4
100
AcDbEntity
  8
DRAFT
100
AcDbLine
 62
7
  6
CONTINUOUS
 10
-46.4021842054
 20
32.866376155
 11
-46.4021842054
 21
-20.5864951697
  0
LINE
  5
2F5
100
AcDbEntity
  8
DRAFT
100
AcDbLine
 62
7
  6
CONTINUOUS
 10
-46.4021842054
 20
-28.1214052995
 11
-46.4021842054
 21
-81.5742766242
  0
LINE
  5
2F6
100
AcDbEntity
  8
DRAFT
100
AcDbLine
 62
7
  6
CONTINUOUS
 10
-46.3847291405
 20
32.88383122
 11
-46.3847291405
 21
-20.6039502346
  0
LINE
  5
2F7
100
AcDbEntity
  8
DRAFT
100
AcDbLine
 62
7
  6
CONTINUOUS
 10
-46.3847291405
 20
-28.1039502346
 11
-46.3847291405
 21
-81.5917316891
  0
LINE
  5
2F8
100
AcDbEntity
  8
DRAFT
100
AcDbLine
 62
7
  6
CONTINUOUS
 10
-46.1847291405
 20
-75.3147614866
 11
-46.1847291405
 21
-73.3931389825
  0
LINE
  5
2F9
100
AcDbEntity
  8
DRAFT
100
AcDbLine
 62
7
  6
CONTINUOUS
 10
-46.1847291405
 20
24.6852385134
 11
-46.1847291405
 21
26.6068610175
  0
LINE
  5
2FA
100
AcDbEntity
  8
DRAFT
100
AcDbLine
 62
7
  6
CONTINUOUS
 10
-46.1585465431
 20
-75.1039502346
 11
-46.1585465431
 21
-73.6039502346
  0
LINE
  5
2FB
100
AcDbEntity
  8
DRAFT
100
AcDbLine
 62
7
  6
CONTINUOUS
 10
-46.1585465431
 20
24.8960497654
 11
-46.1585465431
 21
26.3960497654
  0
LINE
  5
2FC
100
AcDbEntity
  8
RACCORDO
100
AcDbLine
 62
7
  6
CONTINUOUS
 10
-44.2347291405
 20
31.0582987718
 11
-44.2347291405
 21
26.6068610175
  0
LINE
  5
2FD
100
AcDbEntity
  8
DRAFT
100
AcDbLine
 62
7
  6
CONTINUOUS
 10
-44.2347291405
 20
24.6852385134
 11
-44.2347291405
 21
-73.3931389825
  0
LINE
  5
2FE
100
AcDbEntity
  8
RACCORDO
100
AcDbLine
 62
7
  6
CONTINUOUS
 10
-44.2347291405
 20
-75.3147614866
 11
-44.2347291405
 21
-79.766199241
  0
LINE
  5
2FF
100
AcDbEntity
  8
RACCORDO
100
AcDbLine
 62
253
  6
CONTINUOUS
 10
-44.2154676425
 20
-79.746937743
 11
-44.2154676425
 21
-75.1596760133
  0
LINE
  5
300
100
AcDbEntity
  8
RACCORDO
100
AcDbLine
 62
253
  6
CONTINUOUS
 10
-44.2154676425
 20
-73.5482244559
 11
-44.2154676425
 21
24.8403239867
  0
LINE
  5
301
100
AcDbEntity
  8
RACCORDO
100
AcDbLine
 62
253
  6
CONTINUOUS
 10
-44.2154676425
 20
26.4517755441
 11
-44.2154676425
 21
31.0390372738
  0
LINE
  5
302
100
AcDbEntity
  8
RACCORDO
100
AcDbLine
 62
253
  6
CONTINUOUS
 10
-44.0154981035
 20
-79.9434771956
 11
-44.0154981035
 21
-75.1320584015
  0
LINE
  5
303
100
AcDbEntity
  8
RACCORDO
100
AcDbLine
 62
253
  6
CONTINUOUS
 10
-44.0154981035
 20
-73.5758420676
 11
-44.0154981035
 21
24.8679415985
  0
LINE
  5
304
100
AcDbEntity
  8
RACCORDO
100
AcDbLine
 62
253
  6
CONTINUOUS
 10
-44.0154981035
 20
26.4241579324
 11
-44.0154981035
 21
31.2355767265
  0
LINE
  5
305
100
AcDbEntity
  8
DRAFT
100
AcDbLine
 62
7
  6
CONTINUOUS
 10
-43.722510595
 20
26.4241579324
 11
-43.722510595
 21
24.8679415985
  0
LINE
  5
306
100
AcDbEntity
  8
DRAFT
100
AcDbLine
 62
7
  6
CONTINUOUS
 10
-43.722510595
 20
-73.5758420676
 11
-43.722510595
 21
-75.1320584015
  0
LWPOLYLINE
  5
307
100
AcDbEntity
  8
RACCORDO
100
AcDbPolyline
 62
7
  6
CONTINUOUS
 90
22
 70
0
 10
-44.2154676425
 20
31.0390372738
 10
-44.2148811411
 20
31.0510197075
 10
-44.2135259695
 20
31.063159021
 10
-44.2113686652
 20
31.0754041835
 10
-44.2083778191
 20
31.0876980922
 10
-44.2045275135
 20
31.0999825081
 10
-44.1997975063
 20
31.1121980904
 10
-44.1941752147
 20
31.1242638763
 10
-44.1876427606
 20
31.1361212492
 10
-44.1801714276
 20
31.1477344279
 10
-44.1717603826
 20
31.1590080173
 10
-44.1624008421
 20
31.169866594
 10
-44.1520409702
 20
31.1802825143
 10
-44.1406919046
 20
31.1901386745
 10
-44.1283582135
 20
31.1993323947
 10
-44.1149631486
 20
31.207816475
 10
-44.1005826773
 20
31.2154187024
 10
-44.0852096474
 20
31.2220251616
 10
-44.0686214891
 20
31.2275773179
 10
-44.0507831552
 20
31.2318660294
 10
-44.0318853973
 20
31.2346126459
 10
-44.012068017
 20
31.2355767265
  0
LWPOLYLINE
  5
308
100
AcDbEntity
  8
RACCORDO
100
AcDbPolyline
 62
7
  6
CONTINUOUS
 90
9
 70
0
 10
-41.4427760581
 20
27.0056929102
 10
-41.4416865596
 20
27.0265993416
 10
-41.4384172711
 20
27.0472766255
 10
-41.4330040269
 20
27.0674981324
 10
-41.425506167
 20
27.0870422126
 10
-41.4160058682
 20
27.1056946752
 10
-41.4046072273
 20
27.1232511274
 10
-41.3914351528
 20
27.13951915
 10
-41.3842278753
 20
27.1471142664
  0
LINE
  5
309
100
AcDbEntity
  8
RACCORDO
100
AcDbLine
 62
7
  6
CONTINUOUS
 10
-49.8497253844
 20
-63.141577904
 11
-49.8327858832
 21
-62.8992167556
  0
LINE
  5
30A
100
AcDbEntity
  8
RACCORDO
100
AcDbLine
 62
7
  6
CONTINUOUS
 10
-48.0952958056
 20
-65.5663225652
 11
-48.1122353069
 21
-65.8086837136
  0
LINE
  5
30B
100
AcDbEntity
  8
RACCORDO
100
AcDbLine
 62
7
  6
CONTINUOUS
 10
-49.8327858832
 20
-62.8992167556
 11
-49.8064127124
 21
-62.5454342246
  0
LINE
  5
30C
100
AcDbEntity
  8
RACCORDO
100
AcDbLine
 62
7
  6
CONTINUOUS
 10
-48.1122353069
 20
-65.8086837136
 11
-48.1386084777
 21
-66.1624662445
  0
LINE
  5
30D
100
AcDbEntity
  8
RACCORDO
100
AcDbLine
 62
7
  6
CONTINUOUS
 10
-49.8064127124
 20
-62.5454342246
 11
-49.775049139
 21
-62.1452329857
  0
LINE
  5
30E
100
AcDbEntity
  8
RACCORDO
100
AcDbLine
 62
7
  6
CONTINUOUS
 10
-48.1386084777
 20
-66.1624662445
 11
-48.169972051
 21
-66.5626674834
  0
LWPOLYLINE
  5
30F
100
AcDbEntity
  8
RACCORDO
100
AcDbPolyline
 62
253
  6
CONTINUOUS
 90
16
 70
0
 10
23.3274894052
 20
27.4499801092
 10
23.2954162181
 20
27.4383012554
 10
23.2648628309
 20
27.424248437
 10
23.2358292631
 20
27.4078216538
 10
23.2081391946
 20
27.3888696796
 10
23.1819689797
 20
27.3675437408
 10
23.1578476533
 20
27.3442975162
 10
23.1358176165
 20
27.3190956556
 10
23.1158365075
 20
27.2919735093
 10
23.0983062232
 20
27.263490807
 10
23.0832750777
 20
27.2336922229
 10
23.0706947898
 20
27.2025330828
 10
23.0608223645
 20
27.170439094
 10
23.053743477
 20
27.1375521587
 10
23.049372471
 20
27.1037303746
 10
23.0477093515
 20
27.0689737418
  0
LINE
  5
310
100
AcDbEntity
  8
RACCORDO
100
AcDbLine
 62
7
  6
CONTINUOUS
 10
-48.4688304604
 20
-60.4514116906
 11
-49.4761907296
 21
-60.4514116906
  0
LINE
  5
311
100
AcDbEntity
  8
RACCORDO
100
AcDbLine
 62
7
  6
CONTINUOUS
 10
-48.1713690045
 20
-60.1539502346
 11
-49.7736521856
 21
-60.1539502346
  0
LINE
  5
312
100
AcDbEntity
  8
0
100
AcDbLine
 62
7
  6
CONTINUOUS
 10
33.8774411222
 20
-58.6539502346
 11
28.2647914483
 21
-58.6539502346
  0
LINE
  5
313
100
AcDbEntity
  8
DRAFT
100
AcDbLine
 62
7
  6
CONTINUOUS
 10
-7.7120038906
 20
-79.96616878
 11
-7.722510595
 21
-79.9539502346
  0
LINE
  5
314
100
AcDbEntity
  8
DRAFT
100
AcDbLine
 62
7
  6
CONTINUOUS
 10
-39.2330172995
 20
-79.96616878
 11
-38.986719889
 21
-81.5917316891
  0
LINE
  5
315
100
AcDbEntity
  8
DRAFT
100
AcDbLine
 62
7
  6
CONTINUOUS
 10
-39.222510595
 20
-79.9539502346
 11
-38.972510595
 21
-81.6039502346
  0
LWPOLYLINE
  5
316
100
AcDbEntity
  8
RACCORDO
100
AcDbPolyline
 62
7
  6
CONTINUOUS
 90
6
 70
0
 10
-40.2257836562
 20
-78.6472537568
 10
-40.2246814337
 20
-78.6681600787
 10
-40.2213995824
 20
-78.6888372617
 10
-40.2159740724
 20
-78.7090586794
 10
-40.2084643115
 20
-78.72860283
 10
-40.198952639
 20
-78.7472553644
  0
LWPOLYLINE
  5
317
100
AcDbEntity
  8
RACCORDO
100
AcDbPolyline
 62
7
  6
CONTINUOUS
 90
8
 70
0
 10
-40.1796170814
 20
-78.1910871819
 10
-40.1785093121
 20
-78.2120460487
 10
-40.1752109874
 20
-78.2327739815
 10
-40.1697584593
 20
-78.2530426554
 10
-40.1622108576
 20
-78.2726309357
 10
-40.1526518447
 20
-78.2913207309
 10
-40.1411908768
 20
-78.3089004829
 10
-40.1279589969
 20
-78.3251745211
  0
LWPOLYLINE
  5
318
100
AcDbEntity
  8
RACCORDO
100
AcDbPolyline
 62
253
  6
CONTINUOUS
 90
16
 70
0
 10
-40.2156449498
 20
-78.2271150503
 10
-40.2145435476
 20
-78.2480135888
 10
-40.2112641369
 20
-78.2686832353
 10
-40.2058426371
 20
-78.2888976157
 10
-40.1983384278
 20
-78.3084353426
 10
-40.1888336984
 20
-78.3270824403
 10
-40.177432547
 20
-78.344634688
 10
-40.1642598416
 20
-78.3608998555
 10
-40.1494598515
 20
-78.3756998093
 10
-40.1331946664
 20
-78.3888724642
 10
-40.1156424235
 20
-78.4002735558
 10
-40.0969953552
 20
-78.4097782223
 10
-40.0774576817
 20
-78.4172823724
 10
-40.0572433779
 20
-78.4227038228
 10
-40.0365738304
 20
-78.4259831997
 10
-40.0156754107
 20
-78.4270845893
  0
LWPOLYLINE
  5
319
100
AcDbEntity
  8
RACCORDO
100
AcDbPolyline
 62
253
  6
CONTINUOUS
 90
11
 70
0
 10
-39.9909027456
 20
-78.2900794582
 10
-39.9901525778
 20
-78.3075136259
 10
-39.9892898481
 20
-78.3237003656
 10
-39.9883238008
 20
-78.3384662104
 10
-39.9872647873
 20
-78.3516529235
 10
-39.9861241547
 20
-78.3631192057
 10
-39.9849141243
 20
-78.3727421906
 10
-39.9836476632
 20
-78.3804187543
 10
-39.9823383417
 20
-78.3860666418
 10
-39.9810001887
 20
-78.3896253408
 10
-39.9796475423
 20
-78.3910567209
  0
LWPOLYLINE
  5
31A
100
AcDbEntity
  8
RACCORDO
100
AcDbPolyline
 62
253
  6
CONTINUOUS
 90
10
 70
0
 10
-40.4428674503
 20
-78.6643680118
 10
-40.4421434177
 20
-78.6881924299
 10
-40.4400405696
 20
-78.7117715722
 10
-40.4365589061
 20
-78.7351054388
 10
-40.4316770013
 20
-78.7582751485
 10
-40.425416281
 20
-78.7811995823
 10
-40.4178410227
 20
-78.8036353836
 10
-40.4089726523
 20
-78.8255014334
 10
-40.3987897439
 20
-78.8468788505
 10
-40.3872922975
 20
-78.8677676351
  0
LWPOLYLINE
  5
31B
100
AcDbEntity
  8
RACCORDO
100
AcDbPolyline
 62
253
  6
CONTINUOUS
 90
6
 70
0
 10
-39.9927305237
 20
-78.1910871819
 10
-39.9926368758
 20
-78.2117618113
 10
-39.9924040511
 20
-78.2322149148
 10
-39.9920345444
 20
-78.2522273434
 10
-39.9915323156
 20
-78.2715846552
 10
-39.9909027456
 20
-78.2900794582
  0
LINE
  5
31C
100
AcDbEntity
  8
DRAFT
100
AcDbLine
 62
7
  6
CONTINUOUS
 10
-42.9444430144
 20
31.2355767265
 11
-42.9444430144
 21
-79.9434771956
  0
LINE
  5
31D
100
AcDbEntity
  8
DRAFT
100
AcDbLine
 62
253
  6
CONTINUOUS
 10
-42.8664798571
 20
31.2393156365
 11
-42.8664798571
 21
-79.9472161057
  0
LINE
  5
31E
100
AcDbEntity
  8
DRAFT
100
AcDbLine
 62
253
  6
CONTINUOUS
 10
-42.678541333
 20
31.2393156365
 11
-42.678541333
 21
-79.9472161057
  0
LINE
  5
31F
100
AcDbEntity
  8
DRAFT
100
AcDbLine
 62
7
  6
CONTINUOUS
 10
-42.6005781756
 20
31.2355767265
 11
-42.6005781756
 21
-79.9434771956
  0
LINE
  5
320
100
AcDbEntity
  8
DRAFT
100
AcDbLine
 62
7
  6
CONTINUOUS
 10
-42.2444430144
 20
31.2355767265
 11
-42.2444430144
 21
-79.9434771956
  0
LINE
  5
321
100
AcDbEntity
  8
DRAFT
100
AcDbLine
 62
253
  6
CONTINUOUS
 10
-42.1664798571
 20
31.2393156365
 11
-42.1664798571
 21
-79.9472161057
  0
LINE
  5
322
100
AcDbEntity
  8
DRAFT
100
AcDbLine
 62
253
  6
CONTINUOUS
 10
-41.978541333
 20
31.2393156365
 11
-41.978541333
 21
-79.9472161057
  0
LINE
  5
323
100
AcDbEntity
  8
DRAFT
100
AcDbLine
 62
7
  6
CONTINUOUS
 10
-41.9005781756
 20
31.2355767265
 11
-41.9005781756
 21
-79.9434771956
  0
LINE
  5
324
100
AcDbEntity
  8
DRAFT
100
AcDbLine
 62
7
  6
CONTINUOUS
 10
-41.8620375561
 20
31.2355767265
 11
-41.8620375561
 21
-79.9434771956
  0
LINE
  5
325
100
AcDbEntity
  8
RACCORDO
100
AcDbLine
 62
253
  6
CONTINUOUS
 10
-41.7713833959
 20
-79.8528230355
 11
-41.7713833959
 21
31.1449225663
  0
LINE
  5
326
100
AcDbEntity
  8
RACCORDO
100
AcDbLine
 62
7
  6
CONTINUOUS
 10
-41.7022755219
 20
31.1772917673
 11
-41.7022755219
 21
30.1772613064
  0
LINE
  5
327
100
AcDbEntity
  8
RACCORDO
100
AcDbLine
 62
7
  6
CONTINUOUS
 10
-41.7022755219
 20
-78.8851617755
 11
-41.7022755219
 21
-79.8851922365
  0
LINE
  5
328
100
AcDbEntity
  8
DRAFT
100
AcDbLine
 62
7
  6
CONTINUOUS
 10
-41.6848813836
 20
-78.4839502346
 11
-41.6848813836
 21
-78.8677676372
  0
LINE
  5
329
100
AcDbEntity
  8
RACCORDO
100
AcDbLine
 62
253
  6
CONTINUOUS
 10
-41.5023059829
 20
30.3773526986
 11
-41.5023059829
 21
31.3772613064
  0
LINE
  5
32A
100
AcDbEntity
  8
RACCORDO
100
AcDbLine
 62
253
  6
CONTINUOUS
 10
-41.5023059829
 20
-79.0852531677
 11
-41.5023059829
 21
-80.0851617755
  0
LINE
  5
32B
100
AcDbEntity
  8
ASSI
100
AcDbLine
 62
7
  6
CONTINUOUS
 10
-41.472510595
 20
29.6896597976
 11
-41.472510595
 21
-78.4875021741
  0
LINE
  5
32C
100
AcDbEntity
  8
RACCORDO
100
AcDbLine
 62
7
  6
CONTINUOUS
 10
-41.4427760581
 20
-78.4875021741
 11
-41.4427760581
 21
27.0056929102
  0
LINE
  5
32D
100
AcDbEntity
  8
RACCORDO
100
AcDbLine
 62
253
  6
CONTINUOUS
 10
-41.242806519
 20
-78.4839502346
 11
-41.242806519
 21
27.2056624492
  0
LINE
  5
32E
100
AcDbEntity
  8
RACCORDO
100
AcDbLine
 62
253
  6
CONTINUOUS
 10
-41.1798547367
 20
27.2686142315
 11
-41.1798547367
 21
27.4685837706
  0
LINE
  5
32F
100
AcDbEntity
  8
RACCORDO
100
AcDbLine
 62
253
  6
CONTINUOUS
 10
-40.4428674503
 20
27.2056624492
 11
-40.4428674503
 21
-78.6643680118
  0
LINE
  5
330
100
AcDbEntity
  8
RACCORDO
100
AcDbLine
 62
253
  6
CONTINUOUS
 10
-40.379915668
 20
27.2686142315
 11
-40.379915668
 21
27.4685837706
  0
LINE
  5
331
100
AcDbEntity
  8
RACCORDO
100
AcDbLine
 62
253
  6
CONTINUOUS
 10
-40.2428979112
 20
27.0056929102
 11
-40.2428979112
 21
-78.6643680118
  0
LINE
  5
332
100
AcDbEntity
  8
RACCORDO
100
AcDbLine
 62
253
  6
CONTINUOUS
 10
-40.1796170796
 20
27.0689737418
 11
-40.1796170805
 21
-78.191087181
  0
LINE
  5
333
100
AcDbEntity
  8
RACCORDO
100
AcDbLine
 62
253
  6
CONTINUOUS
 10
-39.9927305415
 20
27.0689737418
 11
-39.9927305379
 21
-78.1910871819
  0
LINE
  5
334
100
AcDbEntity
  8
RACCORDO
100
AcDbLine
 62
7
  6
CONTINUOUS
 10
-40.2724598789
 20
29.5041953476
 11
-40.2725609151
 21
27.4539057385
  0
LINE
  5
335
100
AcDbEntity
  8
RACCORDO
100
AcDbLine
 62
7
  6
CONTINUOUS
 10
-41.3766750729
 20
27.3462629331
 11
-41.3765160425
 21
29.4835157603
  0
LINE
  5
336
100
AcDbEntity
  8
RACCORDO
100
AcDbLine
 62
7
  6
CONTINUOUS
 10
-40.2721587886
 20
29.5446689138
 11
-40.2724598789
 21
29.5041953476
  0
LINE
  5
337
100
AcDbEntity
  8
RACCORDO
100
AcDbLine
 62
7
  6
CONTINUOUS
 10
-41.3773636848
 20
27.251895333
 11
-41.3766750729
 21
27.3462629331
  0
LINE
  5
338
100
AcDbEntity
  8
RACCORDO
100
AcDbLine
 62
7
  6
CONTINUOUS
 10
-41.3786532938
 20
27.1526888479
 11
-41.3773636848
 21
27.251895333
  0
LINE
  5
339
100
AcDbEntity
  8
RACCORDO
100
AcDbLine
 62
253
  6
CONTINUOUS
 10
-40.0298155183
 20
-78.4856603218
 11
-40.0351297324
 21
-78.7886751767
  0
LINE
  5
33A
100
AcDbEntity
  8
RACCORDO
100
AcDbLine
 62
253
  6
CONTINUOUS
 10
-40.2198025912
 20
-78.3103896948
 11
-40.2257836551
 21
-78.6472537556
  0
LINE
  5
33B
100
AcDbEntity
  8
DRAFT
100
AcDbLine
 62
7
  6
CONTINUOUS
 10
-46.1847291405
 20
-75.3147614866
 11
-46.1585465431
 21
-75.1039502346
  0
LINE
  5
33C
100
AcDbEntity
  8
DRAFT
100
AcDbLine
 62
7
  6
CONTINUOUS
 10
-47.4428369847
 20
-20.5864951697
 11
-47.4602920496
 21
-20.6039502346
  0
LWPOLYLINE
  5
33D
100
AcDbEntity
  8
RACCORDO
100
AcDbPolyline
 62
253
  6
CONTINUOUS
 90
10
 70
0
 10
23.0706542178
 20
-78.4270845865
 10
23.0724299424
 20
-78.4281160276
 10
23.0741497362
 20
-78.4305982012
 10
23.0758218498
 20
-78.4345091565
 10
23.0774727769
 20
-78.4398136077
 10
23.0790919418
 20
-78.4464709615
 10
23.0806318355
 20
-78.4544424932
 10
23.0820816119
 20
-78.4636777869
 10
23.0834668409
 20
-78.4741082902
 10
23.0847943343
 20
-78.4856602373
  0
LINE
  5
33E
100
AcDbEntity
  8
DRAFT
100
AcDbLine
 62
7
  6
CONTINUOUS
 10
-47.4428369847
 20
-28.1214052995
 11
-47.4602920496
 21
-28.1039502346
  0
LWPOLYLINE
  5
33F
100
AcDbEntity
  8
RACCORDO
100
AcDbPolyline
 62
7
  6
CONTINUOUS
 90
11
 70
0
 10
-0.9434794837
 20
-78.7978446993
 10
-0.9524527791
 20
-78.7886173493
 10
-0.9606668115
 20
-78.779015982
 10
-0.9681444634
 20
-78.7690770639
 10
-0.9749689691
 20
-78.758727211
 10
-0.9811155942
 20
-78.7480193933
 10
-0.9865733894
 20
-78.7369896982
 10
-0.9913960318
 20
-78.7255073926
 10
-0.9955582213
 20
-78.7135463848
 10
-0.9989907343
 20
-78.7012024598
 10
-0.9995473106
 20
-78.6985499852
  0
LINE
  5
340
100
AcDbEntity
  8
DRAFT
100
AcDbLine
 62
7
  6
CONTINUOUS
 10
-46.1847291405
 20
26.6068610175
 11
-46.1585465431
 21
26.3960497654
  0
LWPOLYLINE
  5
341
100
AcDbEntity
  8
RACCORDO
100
AcDbPolyline
 62
7
  6
CONTINUOUS
 90
10
 70
0
 10
-41.6277949001
 20
30.0828674036
 10
-41.6286767391
 20
30.0945011547
 10
-41.6296101712
 20
30.1048922738
 10
-41.6305951966
 20
30.1140407608
 10
-41.631640081
 20
30.1219983552
 10
-41.6327365586
 20
30.1287133176
 10
-41.6338598321
 20
30.1340304297
 10
-41.6350016358
 20
30.1378979521
 10
-41.6361702353
 20
30.1403676243
 10
-41.6373656308
 20
30.1414394462
  0
LINE
  5
342
100
AcDbEntity
  8
RACCORDO
100
AcDbLine
 62
7
  6
CONTINUOUS
 10
-41.6067730731
 20
29.7798328099
 11
-41.6277949001
 21
30.0828674036
  0
LINE
  5
343
100
AcDbEntity
  8
RACCORDO
100
AcDbLine
 62
7
  6
CONTINUOUS
 10
-44.2347291405
 20
-75.3147614866
 11
-44.2154676425
 21
-75.1596760133
  0
LINE
  5
344
100
AcDbEntity
  8
RACCORDO
100
AcDbLine
 62
7
  6
CONTINUOUS
 10
-44.2347291405
 20
26.6068610175
 11
-44.2154676425
 21
26.4517755441
  0
LINE
  5
345
100
AcDbEntity
  8
DRAFT
100
AcDbLine
 62
7
  6
CONTINUOUS
 10
-37.972510595
 20
-81.6039502346
 11
-37.722510595
 21
-79.9539502346
  0
LINE
  5
346
100
AcDbEntity
  8
DRAFT
100
AcDbLine
 62
7
  6
CONTINUOUS
 10
-37.958301301
 20
-81.5917316891
 11
-37.7120038906
 21
-79.96616878
  0
LINE
  5
347
100
AcDbEntity
  8
DRAFT
100
AcDbLine
 62
7
  6
CONTINUOUS
 10
-46.4021842054
 20
-28.1214052995
 11
-46.3847291405
 21
-28.1039502346
  0
LINE
  5
348
100
AcDbEntity
  8
DRAFT
100
AcDbLine
 62
7
  6
CONTINUOUS
 10
21.027489405
 20
-81.6039502346
 11
21.013280111
 21
-81.5917316891
  0
LINE
  5
349
100
AcDbEntity
  8
DRAFT
100
AcDbLine
 62
7
  6
CONTINUOUS
 10
-46.4021842054
 20
-20.5864951697
 11
-46.3847291405
 21
-20.6039502346
  0
LWPOLYLINE
  5
34A
100
AcDbEntity
  8
RACCORDO
100
AcDbPolyline
 62
7
  6
CONTINUOUS
 90
11
 70
0
 10
-40.3228955743
 20
27.2603299047
 10
-40.3230827407
 20
27.2615140617
 10
-40.3228490293
 20
27.2640667975
 10
-40.3222049892
 20
27.2679859024
 10
-40.3211738352
 20
27.273264688
 10
-40.3197592961
 20
27.2798749647
 10
-40.3179434804
 20
27.2877600326
 10
-40.3157247303
 20
27.2968646161
 10
-40.3131321321
 20
27.3071311212
 10
-40.3101948845
 20
27.3184728624
 10
-40.3069268873
 20
27.3308039461
  0
LINE
  5
34B
100
AcDbEntity
  8
RACCORDO
100
AcDbLine
 62
7
  6
CONTINUOUS
 10
24.8263622058
 20
31.1449225663
 11
24.917016366
 21
31.2355767265
  0
LINE
  5
34C
100
AcDbEntity
  8
RACCORDO
100
AcDbLine
 62
7
  6
CONTINUOUS
 10
24.7572543319
 20
30.1772613064
 11
24.7313068076
 21
30.1513137821
  0
LWPOLYLINE
  5
34D
100
AcDbEntity
  8
RACCORDO
100
AcDbPolyline
 62
7
  6
CONTINUOUS
 90
8
 70
0
 10
24.6923444407
 20
30.1414394462
 10
24.6911490452
 20
30.1403676253
 10
24.6899804457
 20
30.137897954
 10
24.688838642
 20
30.1340304324
 10
24.6877153685
 20
30.1287133212
 10
24.6866188908
 20
30.1219983597
 10
24.6855740064
 20
30.1140407653
 10
24.684588981
 20
30.1048922775
  0
LINE
  5
34E
100
AcDbEntity
  8
RACCORDO
100
AcDbLine
 62
253
  6
CONTINUOUS
 10
23.080792925
 20
-78.8472232937
 11
23.0979071886
 21
-78.8643375573
  0
LINE
  5
34F
100
AcDbEntity
  8
RACCORDO
100
AcDbLine
 62
253
  6
CONTINUOUS
 10
23.280762464
 20
-78.6472537546
 11
23.2978767212
 21
-78.6643680118
  0
LINE
  5
350
100
AcDbEntity
  8
RACCORDO
100
AcDbLine
 62
253
  6
CONTINUOUS
 10
23.0346263506
 20
-78.3910567192
 11
23.0706542179
 21
-78.4270845865
  0
LINE
  5
351
100
AcDbEntity
  8
RACCORDO
100
AcDbLine
 62
7
  6
CONTINUOUS
 10
24.8263622058
 20
-79.8528230355
 11
24.917016366
 21
-79.9434771956
  0
LINE
  5
352
100
AcDbEntity
  8
RACCORDO
100
AcDbLine
 62
253
  6
CONTINUOUS
 10
23.2345958896
 20
-78.1910871802
 11
23.2706237569
 21
-78.2271150475
  0
LINE
  5
353
100
AcDbEntity
  8
RACCORDO
100
AcDbLine
 62
7
  6
CONTINUOUS
 10
24.7398601935
 20
-78.8677676372
 11
24.7572543319
 21
-78.8851617755
  0
LINE
  5
354
100
AcDbEntity
  8
RACCORDO
100
AcDbLine
 62
253
  6
CONTINUOUS
 10
27.5153470119
 20
-81.5917316891
 11
27.5275655574
 21
-81.6039502346
  0
LWPOLYLINE
  5
355
100
AcDbEntity
  8
RACCORDO
100
AcDbPolyline
 62
253
  6
CONTINUOUS
 90
16
 70
0
 10
-1.0988165715
 20
-78.147196315
 10
-1.1004892174
 20
-78.1441214119
 10
-1.104216509
 20
-78.1414441968
 10
-1.1099592316
 20
-78.1391928369
 10
-1.1176569657
 20
-78.1373910189
 10
-1.127228723
 20
-78.1360576998
 10
-1.1385737986
 20
-78.1352069077
 10
-1.1515728304
 20
-78.1348475936
 10
-1.166089055
 20
-78.1349835382
 10
-1.1819697461
 20
-78.135613311
 10
-1.1990478222
 20
-78.1367302862
 10
-1.2171436038
 20
-78.1383227122
 10
-1.2360667041
 20
-78.1403738348
 10
-1.2556180319
 20
-78.142862074
 10
-1.2755918866
 20
-78.1457612511
 10
-1.2957781221
 20
-78.1490408636
  0
LWPOLYLINE
  5
356
100
AcDbEntity
  8
RACCORDO
100
AcDbPolyline
 62
253
  6
CONTINUOUS
 90
16
 70
0
 10
-1.2900678866
 20
-77.0592258885
 10
-1.2917187118
 20
-77.056174314
 10
-1.2954021868
 20
-77.0535080729
 10
-1.3010939817
 20
-77.0512577192
 10
-1.3087548905
 20
-77.049448567
 10
-1.318313998
 20
-77.0481046953
 10
-1.3296550419
 20
-77.0472449912
 10
-1.342646942
 20
-77.0468786478
 10
-1.3571613892
 20
-77.0470086349
 10
-1.3730483772
 20
-77.0476337559
 10
-1.3901432506
 20
-77.0487478676
 10
-1.4082643241
 20
-77.0503394414
 10
-1.4272171046
 20
-77.052391507
 10
-1.4468002086
 20
-77.054882226
 10
-1.4668080654
 20
-77.0577854193
 10
-1.4870294372
 20
-77.0610704371
  0
LWPOLYLINE
  5
357
100
AcDbEntity
  8
RACCORDO
100
AcDbPolyline
 62
253
  6
CONTINUOUS
 90
10
 70
0
 10
-40.2156449498
 20
-78.2271150503
 10
-40.2160967553
 20
-78.228425739
 10
-40.2165422972
 20
-78.2313313396
 10
-40.2169815755
 20
-78.2358318521
 10
-40.2174162306
 20
-78.2419582597
 10
-40.2178446222
 20
-78.2496795792
 10
-40.2182618289
 20
-78.2589028613
 10
-40.2186678199
 20
-78.269647454
 10
-40.2190626261
 20
-78.2818940091
 10
-40.2198025912
 20
-78.3103896948
  0
LINE
  5
358
100
AcDbEntity
  8
RACCORDO
100
AcDbLine
 62
253
  6
CONTINUOUS
 10
28.5153470119
 20
32.88383122
 11
28.5275655574
 21
32.8960497654
  0
LINE
  5
359
100
AcDbEntity
  8
RACCORDO
100
AcDbLine
 62
253
  6
CONTINUOUS
 10
27.0897384114
 20
31.2582683109
 11
27.067046827
 21
31.2355767265
  0
LINE
  5
35A
100
AcDbEntity
  8
RACCORDO
100
AcDbLine
 62
253
  6
CONTINUOUS
 10
27.2897079504
 20
31.0582987718
 11
27.2704464524
 21
31.0390372738
  0
LINE
  5
35B
100
AcDbEntity
  8
RACCORDO
100
AcDbLine
 62
253
  6
CONTINUOUS
 10
29.0152708595
 20
32.3839073724
 11
29.027489405
 21
32.3961259178
  0
LINE
  5
35C
100
AcDbEntity
  8
RACCORDO
100
AcDbLine
 62
253
  6
CONTINUOUS
 10
28.0152708595
 20
-81.0918078416
 11
28.027489405
 21
-81.104026387
  0
LINE
  5
35D
100
AcDbEntity
  8
RACCORDO
100
AcDbLine
 62
253
  6
CONTINUOUS
 10
27.067046827
 20
-79.9434771956
 11
27.0897384114
 21
-79.96616878
  0
LINE
  5
35E
100
AcDbEntity
  8
RACCORDO
100
AcDbLine
 62
253
  6
CONTINUOUS
 10
27.2704464524
 20
-79.746937743
 11
27.2897079504
 21
-79.766199241
  0
LINE
  5
35F
100
AcDbEntity
  8
DRAFT
100
AcDbLine
 62
7
  6
CONTINUOUS
 10
22.2879961094
 20
-79.96616878
 11
22.277489405
 21
-79.9539502346
  0
LINE
  5
360
100
AcDbEntity
  8
RACCORDO
100
AcDbLine
 62
253
  6
CONTINUOUS
 10
-16.1403305213
 20
-78.8538645118
 11
-16.1403305213
 21
-78.8643375508
  0
LINE
  5
361
100
AcDbEntity
  8
RACCORDO
100
AcDbLine
 62
253
  6
CONTINUOUS
 10
-15.4579917529
 20
-76.8939502346
 11
-15.4579917529
 21
-77.0610704371
  0
LINE
  5
362
100
AcDbEntity
  8
DRAFT
100
AcDbLine
 62
7
  6
CONTINUOUS
 10
-9.2330172995
 20
-79.96616878
 11
-8.986719889
 21
-81.5917316891
  0
LINE
  5
363
100
AcDbEntity
  8
DRAFT
100
AcDbLine
 62
7
  6
CONTINUOUS
 10
-9.222510595
 20
-79.9539502346
 11
-8.972510595
 21
-81.6039502346
  0
LINE
  5
364
100
AcDbEntity
  8
RACCORDO
100
AcDbLine
 62
253
  6
CONTINUOUS
 10
-48.1713690045
 20
-60.1539502346
 11
-48.4688304604
 21
-60.4514116906
  0
LINE
  5
365
100
AcDbEntity
  8
RACCORDO
100
AcDbLine
 62
253
  6
CONTINUOUS
 10
-47.872510595
 20
-60.452808644
 11
-48.169972051
 21
-60.7502701
  0
LINE
  5
366
100
AcDbEntity
  8
DRAFT
100
AcDbLine
 62
7
  6
CONTINUOUS
 10
-46.4021842054
 20
-28.1214052995
 11
-47.4428369847
 21
-28.1214052995
  0
LINE
  5
367
100
AcDbEntity
  8
DRAFT
100
AcDbLine
 62
7
  6
CONTINUOUS
 10
-47.4602920496
 20
-28.1039502346
 11
-46.3847291405
 21
-28.1039502346
  0
LINE
  5
368
100
AcDbEntity
  8
RACCORDO
100
AcDbLine
 62
253
  6
CONTINUOUS
 10
-48.1713690045
 20
11.4460497654
 11
-48.4688304604
 21
11.7435112214
  0
LINE
  5
369
100
AcDbEntity
  8
RACCORDO
100
AcDbLine
 62
253
  6
CONTINUOUS
 10
-47.872510595
 20
11.7449081748
 11
-48.169972051
 21
12.0423696308
  0
LWPOLYLINE
  5
36A
100
AcDbEntity
  8
RACCORDO
100
AcDbPolyline
 62
7
  6
CONTINUOUS
 90
16
 70
0
 10
-1.2895719774
 20
-77.0592258885
 10
-1.2936523493
 20
-77.041068304
 10
-1.299402817
 20
-77.0233686125
 10
-1.3067735876
 20
-77.0062800696
 10
-1.3157008331
 20
-76.9899506482
 10
-1.3261072578
 20
-76.9745217283
 10
-1.337902777
 20
-76.9601268785
 10
-1.35098527
 20
-76.9468907372
 10
-1.3652414588
 20
-76.934927926
 10
-1.3805479102
 20
-76.9243420318
 10
-1.3967721028
 20
-76.9152247181
 10
-1.4137735506
 20
-76.9076549433
 10
-1.4314050185
 20
-76.901698268
 10
-1.4495138297
 20
-76.8974062727
 10
-1.4679431918
 20
-76.8948161187
 10
-1.486533528
 20
-76.8939502346
  0
LWPOLYLINE
  5
36B
100
AcDbEntity
  8
RACCORDO
100
AcDbPolyline
 62
253
  6
CONTINUOUS
 90
19
 70
0
 10
-1.0016522194
 20
-78.6989916642
 10
-0.9982082992
 20
-78.7147760226
 10
-0.9935267285
 20
-78.7301621573
 10
-0.9876544958
 20
-78.7450558129
 10
-0.9806356671
 20
-78.7593861486
 10
-0.9725372282
 20
-78.7730503115
 10
-0.9634624658
 20
-78.7859221081
 10
-0.953520444
 20
-78.7979099548
 10
-0.9427735259
 20
-78.8089951192
 10
-0.931261762
 20
-78.8191709105
 10
-0.9190669936
 20
-78.8283883537
 10
-0.9062684258
 20
-78.8366094256
 10
-0.8928871525
 20
-78.8438313358
 10
-0.878981869
 20
-78.8500211148
 10
-0.864651409
 20
-78.855133532
 10
-0.8499721736
 20
-78.8591417126
 10
-0.8350266754
 20
-78.8620224091
 10
-0.8199036545
 20
-78.8637578428
 10
-0.8046906688
 20
-78.8643375508
  0
LWPOLYLINE
  5
36C
100
AcDbEntity
  8
RACCORDO
100
AcDbPolyline
 62
253
  6
CONTINUOUS
 90
7
 70
0
 10
-1.19861377
 20
-78.7337160103
 10
-1.1935603556
 20
-78.7576931097
 10
-1.1872248566
 20
-78.7810161446
 10
-1.1796072731
 20
-78.8036851147
 10
-1.170707605
 20
-78.8257000202
 10
-1.1605258522
 20
-78.847060861
 10
-1.1490620149
 20
-78.8677676372
  0
LINE
  5
36D
100
AcDbEntity
  8
RACCORDO
100
AcDbLine
 62
253
  6
CONTINUOUS
 10
-1.2147413854
 20
-78.6422378255
 11
-1.19861377
 21
-78.7337160103
  0
LINE
  5
36E
100
AcDbEntity
  8
RACCORDO
100
AcDbLine
 62
253
  6
CONTINUOUS
 10
-1.4870294372
 20
-77.0610704371
 11
-1.2957781221
 21
-78.1490408636
  0
LINE
  5
36F
100
AcDbEntity
  8
RACCORDO
100
AcDbLine
 62
7
  6
CONTINUOUS
 10
-1.2900678866
 20
-77.0592258885
 11
-1.0016522194
 21
-78.6989916642
  0
LINE
  5
370
100
AcDbEntity
  8
RACCORDO
100
AcDbLine
 62
253
  6
CONTINUOUS
 10
-1.2957781221
 20
-78.1490408636
 11
-1.2147413854
 21
-78.6422378255
  0
LINE
  5
371
100
AcDbEntity
  8
RACCORDO
100
AcDbLine
 62
253
  6
CONTINUOUS
 10
-15.7302798046
 20
-78.6422378255
 11
-15.649243068
 21
-78.1490408636
  0
LINE
  5
372
100
AcDbEntity
  8
RACCORDO
100
AcDbLine
 62
253
  6
CONTINUOUS
 10
-15.649243068
 20
-78.1490408636
 11
-15.4579917529
 21
-77.0610704371
  0
LINE
  5
373
100
AcDbEntity
  8
RACCORDO
100
AcDbLine
 62
253
  6
CONTINUOUS
 10
-15.7464074201
 20
-78.7337160103
 11
-15.7302798046
 21
-78.6422378255
  0
LINE
  5
374
100
AcDbEntity
  8
RACCORDO
100
AcDbLine
 62
7
  6
CONTINUOUS
 10
-15.6549533035
 20
-77.0592258885
 11
-15.9433689707
 21
-78.6989916642
  0
LINE
  5
375
100
AcDbEntity
  8
RACCORDO
100
AcDbLine
 62
253
  6
CONTINUOUS
 10
-50.072510595
 20
-68.2550918252
 11
-49.775049139
 21
-67.9576303692
  0
LINE
  5
376
100
AcDbEntity
  8
RACCORDO
100
AcDbLine
 62
253
  6
CONTINUOUS
 10
-49.7736521856
 20
-68.5539502346
 11
-49.4761907296
 21
-68.2564887786
  0
LINE
  5
377
100
AcDbEntity
  8
DRAFT
100
AcDbLine
 62
7
  6
CONTINUOUS
 10
-47.4602920496
 20
-20.6039502346
 11
-46.3847291405
 21
-20.6039502346
  0
LINE
  5
378
100
AcDbEntity
  8
DRAFT
100
AcDbLine
 62
7
  6
CONTINUOUS
 10
-46.4021842054
 20
-20.5864951697
 11
-47.4428369847
 21
-20.5864951697
  0
LINE
  5
379
100
AcDbEntity
  8
RACCORDO
100
AcDbLine
 62
253
  6
CONTINUOUS
 10
-50.072510595
 20
19.547191356
 11
-49.775049139
 21
19.2497299
  0
LINE
  5
37A
100
AcDbEntity
  8
RACCORDO
100
AcDbLine
 62
253
  6
CONTINUOUS
 10
-49.7736521856
 20
19.8460497654
 11
-49.4761907296
 21
19.5485883094
  0
LINE
  5
37B
100
AcDbEntity
  8
RACCORDO
100
AcDbLine
 62
253
  6
CONTINUOUS
 10
-1.4870294372
 20
-76.8939502346
 11
-1.4870294372
 21
-77.0610704371
  0
LINE
  5
37C
100
AcDbEntity
  8
RACCORDO
100
AcDbLine
 62
253
  6
CONTINUOUS
 10
-0.8046906688
 20
-78.8643375508
 11
-0.8046906688
 21
-78.8538645118
  0
LWPOLYLINE
  5
37D
100
AcDbEntity
  8
RACCORDO
100
AcDbPolyline
 62
7
  6
CONTINUOUS
 90
5
 70
0
 10
-15.9433689707
 20
-78.6885186253
 10
-15.9462717059
 20
-78.7021810093
 10
-15.9501610714
 20
-78.7157335436
 10
-15.9550446447
 20
-78.7291012408
 10
-15.9608929515
 20
-78.7421433024
  0
LINE
  5
37E
100
AcDbEntity
  8
DRAFT
100
AcDbLine
 62
7
  6
CONTINUOUS
 10
-47.4428369847
 20
-70.7242075125
 11
-47.472510595
 21
-70.7539502346
  0
LINE
  5
37F
100
AcDbEntity
  8
DRAFT
100
AcDbLine
 62
7
  6
CONTINUOUS
 10
28.027489405
 20
4.3460497654
 11
28.0152708595
 21
4.33383122
  0
LINE
  5
380
100
AcDbEntity
  8
DRAFT
100
AcDbLine
 62
7
  6
CONTINUOUS
 10
29.0152708595
 20
4.33383122
 11
29.027489405
 21
4.3460497654
  0
LINE
  5
381
100
AcDbEntity
  8
DRAFT
100
AcDbLine
 62
7
  6
CONTINUOUS
 10
-47.4428369847
 20
22.0163070434
 11
-47.472510595
 21
22.0460497654
  0
LINE
  5
382
100
AcDbEntity
  8
DRAFT
100
AcDbLine
 62
7
  6
CONTINUOUS
 10
-7.972510595
 20
-81.6039502346
 11
-7.722510595
 21
-79.9539502346
  0
LINE
  5
383
100
AcDbEntity
  8
DRAFT
100
AcDbLine
 62
7
  6
CONTINUOUS
 10
-7.958301301
 20
-81.5917316891
 11
-7.7120038906
 21
-79.96616878
  0
LINE
  5
384
100
AcDbEntity
  8
DRAFT
100
AcDbLine
 62
7
  6
CONTINUOUS
 10
-39.2330172995
 20
-79.96616878
 11
-39.222510595
 21
-79.9539502346
  0
LINE
  5
385
100
AcDbEntity
  8
RACCORDO
100
AcDbLine
 62
253
  6
CONTINUOUS
 10
-47.4428369847
 20
-81.0743527766
 11
-47.472510595
 21
-81.104026387
  0
LINE
  5
386
100
AcDbEntity
  8
RACCORDO
100
AcDbLine
 62
253
  6
CONTINUOUS
 10
-46.9429131371
 20
-81.5742766242
 11
-46.9725867475
 21
-81.6039502346
  0
LINE
  5
387
100
AcDbEntity
  8
RACCORDO
100
AcDbLine
 62
253
  6
CONTINUOUS
 10
-44.2347291405
 20
-79.766199241
 11
-44.2154676425
 21
-79.746937743
  0
LINE
  5
388
100
AcDbEntity
  8
RACCORDO
100
AcDbLine
 62
253
  6
CONTINUOUS
 10
-47.472510595
 20
32.3961259178
 11
-47.4428369847
 21
32.3664523075
  0
LINE
  5
389
100
AcDbEntity
  8
RACCORDO
100
AcDbLine
 62
253
  6
CONTINUOUS
 10
-46.9725867475
 20
32.8960497654
 11
-46.9429131371
 21
32.866376155
  0
LINE
  5
38A
100
AcDbEntity
  8
RACCORDO
100
AcDbLine
 62
253
  6
CONTINUOUS
 10
-44.2154676425
 20
31.0390372738
 11
-44.2347291405
 21
31.0582987718
  0
LINE
  5
38B
100
AcDbEntity
  8
RACCORDO
100
AcDbLine
 62
253
  6
CONTINUOUS
 10
-44.0347596014
 20
-79.96616878
 11
-44.012068017
 21
-79.9434771956
  0
LINE
  5
38C
100
AcDbEntity
  8
RACCORDO
100
AcDbLine
 62
7
  6
CONTINUOUS
 10
-41.6848813836
 20
-78.8677676372
 11
-41.7022755219
 21
-78.8851617755
  0
LINE
  5
38D
100
AcDbEntity
  8
RACCORDO
100
AcDbLine
 62
253
  6
CONTINUOUS
 10
-40.1796170805
 20
-78.191087181
 11
-40.2156449498
 21
-78.2271150503
  0
LINE
  5
38E
100
AcDbEntity
  8
RACCORDO
100
AcDbLine
 62
7
  6
CONTINUOUS
 10
-41.8620375561
 20
-79.9434771956
 11
-41.7713833959
 21
-79.8528230355
  0
LINE
  5
38F
100
AcDbEntity
  8
RACCORDO
100
AcDbLine
 62
253
  6
CONTINUOUS
 10
-39.9796475423
 20
-78.3910567209
 11
-40.0156754108
 21
-78.4270845893
  0
LINE
  5
390
100
AcDbEntity
  8
RACCORDO
100
AcDbLine
 62
253
  6
CONTINUOUS
 10
-40.2257836551
 20
-78.6472537556
 11
-40.2428979112
 21
-78.6643680118
  0
LINE
  5
391
100
AcDbEntity
  8
RACCORDO
100
AcDbLine
 62
253
  6
CONTINUOUS
 10
-40.0258141172
 20
-78.8472232958
 11
-40.0429283779
 21
-78.8643375565
  0
LWPOLYLINE
  5
392
100
AcDbEntity
  8
RACCORDO
100
AcDbPolyline
 62
7
  6
CONTINUOUS
 90
10
 70
0
 10
-41.5972025169
 20
29.7212608018
 10
-41.598397876
 20
29.7223325851
 10
-41.5995664434
 20
29.7248022199
 10
-41.6007082194
 20
29.7286697061
 10
-41.6018314698
 20
29.7339867732
 10
-41.6029279286
 20
29.7407016917
 10
-41.6039727981
 20
29.7486592734
 10
-41.6049578124
 20
29.757807789
 10
-41.6058912374
 20
29.7681989678
 10
-41.6067730731
 20
29.7798328099
  0
LINE
  5
393
100
AcDbEntity
  8
RACCORDO
100
AcDbLine
 62
253
  6
CONTINUOUS
 10
-44.012068017
 20
31.2355767265
 11
-44.0347596014
 21
31.2582683109
  0
LINE
  5
394
100
AcDbEntity
  8
RACCORDO
100
AcDbLine
 62
7
  6
CONTINUOUS
 10
-41.6763279976
 20
30.1513137821
 11
-41.7022755219
 21
30.1772613064
  0
LINE
  5
395
100
AcDbEntity
  8
RACCORDO
100
AcDbLine
 62
7
  6
CONTINUOUS
 10
-41.8620375561
 20
31.2355767265
 11
-41.7713833959
 21
31.1449225663
  0
LWPOLYLINE
  5
396
100
AcDbEntity
  8
RACCORDO
100
AcDbPolyline
 62
253
  6
CONTINUOUS
 90
8
 70
0
 10
23.2706237569
 20
-78.2271150475
 10
23.2712285661
 20
-78.2292845858
 10
23.2718191518
 20
-78.2342330178
 10
23.2723955142
 20
-78.2419603437
 10
23.2729613305
 20
-78.2525570147
 10
23.2735129235
 20
-78.2659325794
 10
23.2740392606
 20
-78.281815684
 10
23.2745366643
 20
-78.3001158772
  0
LWPOLYLINE
  5
397
100
AcDbEntity
  8
RACCORDO
100
AcDbPolyline
 62
7
  6
CONTINUOUS
 90
5
 70
0
 10
-15.9608929515
 20
-78.7421433024
 10
-15.9677239619
 20
-78.7548488941
 10
-15.9756478327
 20
-78.7673133533
 10
-15.9847485721
 20
-78.7795057226
 10
-15.9949859218
 20
-78.7912220387
  0
LWPOLYLINE
  5
398
100
AcDbEntity
  8
RACCORDO
100
AcDbPolyline
 62
253
  6
CONTINUOUS
 90
16
 70
0
 10
-15.6549533035
 20
-77.0592258885
 10
-15.6533024783
 20
-77.0561743141
 10
-15.6496190035
 20
-77.053508073
 10
-15.6439272087
 20
-77.0512577193
 10
-15.6362662996
 20
-77.049448567
 10
-15.6267071917
 20
-77.0481046952
 10
-15.6153661474
 20
-77.0472449912
 10
-15.6023742477
 20
-77.0468786478
 10
-15.5878598013
 20
-77.0470086349
 10
-15.5719728139
 20
-77.0476337559
 10
-15.5548779403
 20
-77.0487478676
 10
-15.5367568661
 20
-77.0503394414
 10
-15.5178040851
 20
-77.0523915071
 10
-15.498220981
 20
-77.054882226
 10
-15.4782131243
 20
-77.0577854194
 10
-15.4579917529
 20
-77.0610704371
  0
LWPOLYLINE
  5
399
100
AcDbEntity
  8
RACCORDO
100
AcDbPolyline
 62
253
  6
CONTINUOUS
 90
16
 70
0
 10
-15.8462046186
 20
-78.147196315
 10
-15.8445319724
 20
-78.1441214116
 10
-15.8408046801
 20
-78.1414441963
 10
-15.8350619566
 20
-78.1391928364
 10
-15.8273642216
 20
-78.1373910184
 10
-15.8177924634
 20
-78.1360576995
 10
-15.8064473869
 20
-78.1352069075
 10
-15.7934483544
 20
-78.1348475936
 10
-15.7789321295
 20
-78.1349835383
 10
-15.7630514383
 20
-78.1356133113
 10
-15.7459733625
 20
-78.1367302867
 10
-15.7278775815
 20
-78.1383227126
 10
-15.7089544821
 20
-78.1403738352
 10
-15.6894031554
 20
-78.1428620744
 10
-15.6694293019
 20
-78.1457612513
 10
-15.649243068
 20
-78.1490408636
  0
LWPOLYLINE
  5
39A
100
AcDbEntity
  8
RACCORDO
100
AcDbPolyline
 62
253
  6
CONTINUOUS
 90
7
 70
0
 10
-15.7959591751
 20
-78.8677676372
 10
-15.7844783235
 20
-78.8470155561
 10
-15.7742863621
 20
-78.8256275324
 10
-15.7653832911
 20
-78.8036035659
 10
-15.7577691104
 20
-78.7809436567
 10
-15.7514438201
 20
-78.7576478048
 10
-15.7464074201
 20
-78.7337160103
  0
LINE
  5
39B
100
AcDbEntity
  8
DRAFT
100
AcDbLine
 62
7
  6
CONTINUOUS
 10
20.7669827005
 20
-79.96616878
 11
21.013280111
 21
-81.5917316891
  0
LINE
  5
39C
100
AcDbEntity
  8
DRAFT
100
AcDbLine
 62
7
  6
CONTINUOUS
 10
20.777489405
 20
-79.9539502346
 11
21.027489405
 21
-81.6039502346
  0
LWPOLYLINE
  5
39D
100
AcDbEntity
  8
RACCORDO
100
AcDbPolyline
 62
7
  6
CONTINUOUS
 90
11
 70
0
 10
23.3778737463
 20
27.2603320492
 10
23.3780331314
 20
27.261547416
 10
23.3777980106
 20
27.2641811136
 10
23.3771610821
 20
27.2681979905
 10
23.376120946
 20
27.2735506775
 10
23.3746820915
 20
27.2801883637
 10
23.3728526068
 20
27.2880637627
 10
23.3706479165
 20
27.2971150895
 10
23.368084276
 20
27.307271615
 10
23.3651742619
 20
27.3184718575
 10
23.3584283187
 20
27.3436827389
  0
LINE
  5
39E
100
AcDbEntity
  8
DRAFT
100
AcDbLine
 62
7
  6
CONTINUOUS
 10
-37.972510595
 20
-81.6039502346
 11
-37.958301301
 21
-81.5917316891
  0
LINE
  5
39F
100
AcDbEntity
  8
DRAFT
100
AcDbLine
 62
7
  6
CONTINUOUS
 10
29.0152708595
 20
4.33383122
 11
28.0152708595
 21
4.33383122
  0
LINE
  5
3A0
100
AcDbEntity
  8
DRAFT
100
AcDbLine
 62
7
  6
CONTINUOUS
 10
29.027489405
 20
4.3460497654
 11
28.027489405
 21
4.3460497654
  0
LINE
  5
3A1
100
AcDbEntity
  8
DRAFT
100
AcDbLine
 62
7
  6
CONTINUOUS
 10
28.0152708595
 20
4.6852385134
 11
27.2897079504
 21
4.6852385134
  0
LINE
  5
3A2
100
AcDbEntity
  8
RACCORDO
100
AcDbLine
 62
7
  6
CONTINUOUS
 10
27.0704769134
 20
4.8679415985
 11
26.777489405
 21
4.8679415985
  0
LINE
  5
3A3
100
AcDbEntity
  8
DRAFT
100
AcDbLine
 62
7
  6
CONTINUOUS
 10
28.013525353
 20
4.8960497654
 11
26.777489405
 21
4.8960497654
  0
LINE
  5
3A4
100
AcDbEntity
  8
RACCORDO
100
AcDbLine
 62
253
  6
CONTINUOUS
 10
23.2745366643
 20
-78.3001158772
 11
23.2754557041
 21
-78.3442388833
  0
LINE
  5
3A5
100
AcDbEntity
  8
RACCORDO
100
AcDbLine
 62
253
  6
CONTINUOUS
 10
23.0847943324
 20
-78.4856602418
 11
23.0901085471
 21
-78.788675115
  0
LINE
  5
3A6
100
AcDbEntity
  8
RACCORDO
100
AcDbLine
 62
253
  6
CONTINUOUS
 10
23.2754557041
 20
-78.3442388833
 11
23.280762464
 21
-78.6472537546
  0
LINE
  5
3A7
100
AcDbEntity
  8
RACCORDO
100
AcDbLine
 62
7
  6
CONTINUOUS
 10
23.3265625711
 20
29.5825273209
 11
23.327136658
 21
29.5446704354
  0
LINE
  5
3A8
100
AcDbEntity
  8
RACCORDO
100
AcDbLine
 62
7
  6
CONTINUOUS
 10
23.327136658
 20
29.5446704354
 11
23.3274382704
 21
29.5041961435
  0
LINE
  5
3A9
100
AcDbEntity
  8
RACCORDO
100
AcDbLine
 62
253
  6
CONTINUOUS
 10
23.0477093515
 20
27.0689737418
 11
23.0477093529
 21
-78.1910871802
  0
LINE
  5
3AA
100
AcDbEntity
  8
RACCORDO
100
AcDbLine
 62
253
  6
CONTINUOUS
 10
23.2345958896
 20
27.0689737418
 11
23.2345958896
 21
-78.1910871802
  0
LINE
  5
3AB
100
AcDbEntity
  8
RACCORDO
100
AcDbLine
 62
253
  6
CONTINUOUS
 10
23.2978767212
 20
-78.6643680118
 11
23.2978767212
 21
27.0056929102
  0
LINE
  5
3AC
100
AcDbEntity
  8
RACCORDO
100
AcDbLine
 62
7
  6
CONTINUOUS
 10
23.3274382704
 20
29.5041961435
 11
23.3274894047
 21
27.4538953044
  0
LINE
  5
3AD
100
AcDbEntity
  8
RACCORDO
100
AcDbLine
 62
253
  6
CONTINUOUS
 10
23.4348944779
 20
27.2686142315
 11
23.4348944779
 21
27.4685837706
  0
LINE
  5
3AE
100
AcDbEntity
  8
RACCORDO
100
AcDbLine
 62
253
  6
CONTINUOUS
 10
23.4978462602
 20
-78.6643680118
 11
23.4978462602
 21
27.2056624492
  0
LINE
  5
3AF
100
AcDbEntity
  8
RACCORDO
100
AcDbLine
 62
253
  6
CONTINUOUS
 10
24.2348335467
 20
27.2686142315
 11
24.2348335467
 21
27.4685837706
  0
LINE
  5
3B0
100
AcDbEntity
  8
RACCORDO
100
AcDbLine
 62
253
  6
CONTINUOUS
 10
24.297785329
 20
27.2056624492
 11
24.297785329
 21
-78.4839502346
  0
LINE
  5
3B1
100
AcDbEntity
  8
RACCORDO
100
AcDbLine
 62
253
  6
CONTINUOUS
 10
23.2807569471
 20
-78.6486794951
 11
23.2807624641
 21
-78.6472537546
  0
LWPOLYLINE
  5
3B2
100
AcDbEntity
  8
RACCORDO
100
AcDbPolyline
 62
253
  6
CONTINUOUS
 90
6
 70
0
 10
23.0477093543
 20
-78.1910871802
 10
23.0476157084
 20
-78.2117617909
 10
23.0473828854
 20
-78.2322148753
 10
23.0470133799
 20
-78.2522272849
 10
23.0465111514
 20
-78.2715845824
 10
23.0458815809
 20
-78.2900793726
  0
LINE
  5
3B3
100
AcDbEntity
  8
RACCORDO
100
AcDbLine
 62
253
  6
CONTINUOUS
 10
23.2345641487
 20
-78.1945895851
 11
23.2345958896
 21
-78.1910871802
  0
LWPOLYLINE
  5
3B4
100
AcDbEntity
  8
RACCORDO
100
AcDbPolyline
 62
253
  6
CONTINUOUS
 90
16
 70
0
 10
23.2978767212
 20
27.0056929102
 10
23.298978104
 20
27.0265912652
 10
23.3022574582
 20
27.0472607386
 10
23.3076788669
 20
27.0674749622
 10
23.3151829469
 20
27.0870125375
 10
23.3246875167
 20
27.1056595108
 10
23.3360885135
 20
27.1232117078
 10
23.3492610996
 20
27.1394769049
 10
23.3640610123
 20
27.1542769424
 10
23.3803261726
 20
27.1674497195
 10
23.3978784659
 20
27.1788509644
 10
23.4165256551
 20
27.1883557879
 10
23.4360634771
 20
27.1958600657
 10
23.4562779366
 20
27.2012816068
 10
23.4769476567
 20
27.2045610402
 10
23.4978462602
 20
27.2056624492
  0
LINE
  5
3B5
100
AcDbEntity
  8
RACCORDO
100
AcDbLine
 62
7
  6
CONTINUOUS
 10
24.6827737101
 20
30.0828674034
 11
24.6617518839
 21
29.7798328195
  0
LWPOLYLINE
  5
3B6
100
AcDbEntity
  8
RACCORDO
100
AcDbPolyline
 62
7
  6
CONTINUOUS
 90
10
 70
0
 10
24.6617518839
 20
29.7798328195
 10
24.6608700479
 20
29.7681989705
 10
24.6599366227
 20
29.7578077866
 10
24.6589516083
 20
29.7486592678
 10
24.6579067386
 20
29.7407016855
 10
24.6568102798
 20
29.7339867684
 10
24.6556870294
 20
29.7286697028
 10
24.6545452534
 20
29.7248022176
 10
24.6533766859
 20
29.7223325839
 10
24.6521813269
 20
29.7212608018
  0
LWPOLYLINE
  5
3B7
100
AcDbEntity
  8
RACCORDO
100
AcDbPolyline
 62
7
  6
CONTINUOUS
 90
3
 70
0
 10
24.684588981
 20
30.1048922775
 10
24.6836555489
 20
30.0945011568
 10
24.6827737101
 20
30.0828674034
  0
LINE
  5
3B8
100
AcDbEntity
  8
RACCORDO
100
AcDbLine
 62
7
  6
CONTINUOUS
 10
27.2704464524
 20
6.4517755441
 11
27.2897079504
 21
6.6068610175
  0
LINE
  5
3B9
100
AcDbEntity
  8
DRAFT
100
AcDbLine
 62
7
  6
CONTINUOUS
 10
28.027489405
 20
6.5084824332
 11
28.013525353
 21
6.3960497654
  0
LINE
  5
3BA
100
AcDbEntity
  8
DRAFT
100
AcDbLine
 62
7
  6
CONTINUOUS
 10
28.0152708595
 20
4.6852385134
 11
28.027489405
 21
4.7836170977
  0
LINE
  5
3BB
100
AcDbEntity
  8
DRAFT
100
AcDbLine
 62
7
  6
CONTINUOUS
 10
26.777489405
 20
6.3960497654
 11
28.013525353
 21
6.3960497654
  0
LINE
  5
3BC
100
AcDbEntity
  8
RACCORDO
100
AcDbLine
 62
7
  6
CONTINUOUS
 10
27.0704769134
 20
6.4241579324
 11
26.777489405
 21
6.4241579324
  0
LINE
  5
3BD
100
AcDbEntity
  8
DRAFT
100
AcDbLine
 62
7
  6
CONTINUOUS
 10
28.0152708595
 20
6.6068610175
 11
27.2897079504
 21
6.6068610175
  0
LINE
  5
3BE
100
AcDbEntity
  8
RACCORDO
100
AcDbLine
 62
7
  6
CONTINUOUS
 10
27.2704464524
 20
-77.1596760133
 11
27.2897079504
 21
-77.3147614866
  0
LINE
  5
3BF
100
AcDbEntity
  8
DRAFT
100
AcDbLine
 62
7
  6
CONTINUOUS
 10
28.027489405
 20
-77.2163829023
 11
28.013525353
 21
-77.1039502346
  0
LINE
  5
3C0
100
AcDbEntity
  8
DRAFT
100
AcDbLine
 62
7
  6
CONTINUOUS
 10
28.0152708595
 20
-75.3931389825
 11
28.027489405
 21
-75.4915175668
  0
LINE
  5
3C1
100
AcDbEntity
  8
RACCORDO
100
AcDbLine
 62
7
  6
CONTINUOUS
 10
24.4325647165
 20
27.2312796706
 11
24.4336325417
 21
27.1526884099
  0
LINE
  5
3C2
100
AcDbEntity
  8
RACCORDO
100
AcDbLine
 62
7
  6
CONTINUOUS
 10
24.4317572334
 20
27.3260470116
 11
24.4325647165
 21
27.2312796706
  0
LINE
  5
3C3
100
AcDbEntity
  8
RACCORDO
100
AcDbLine
 62
7
  6
CONTINUOUS
 10
24.4315089876
 20
27.3948139145
 11
24.4317572334
 21
27.3260470116
  0
LINE
  5
3C4
100
AcDbEntity
  8
RACCORDO
100
AcDbLine
 62
7
  6
CONTINUOUS
 10
24.4314948525
 20
29.4835157603
 11
24.4315089876
 21
27.3948139145
  0
LINE
  5
3C5
100
AcDbEntity
  8
RACCORDO
100
AcDbLine
 62
7
  6
CONTINUOUS
 10
24.497754868
 20
27.0056929102
 11
24.497754868
 21
-78.4875021741
  0
LINE
  5
3C6
100
AcDbEntity
  8
ASSI
100
AcDbLine
 62
7
  6
CONTINUOUS
 10
24.527489405
 20
29.6896597976
 11
24.527489405
 21
-78.4875021741
  0
LINE
  5
3C7
100
AcDbEntity
  8
RACCORDO
100
AcDbLine
 62
253
  6
CONTINUOUS
 10
24.5572847928
 20
30.3773526986
 11
24.5572847928
 21
31.3772613064
  0
LINE
  5
3C8
100
AcDbEntity
  8
RACCORDO
100
AcDbLine
 62
253
  6
CONTINUOUS
 10
24.5572847928
 20
-79.0852531677
 11
24.5572847929
 21
-80.0851617755
  0
LINE
  5
3C9
100
AcDbEntity
  8
DRAFT
100
AcDbLine
 62
7
  6
CONTINUOUS
 10
24.7398601935
 20
-78.4839502346
 11
24.7398601935
 21
-78.8677676372
  0
LINE
  5
3CA
100
AcDbEntity
  8
RACCORDO
100
AcDbLine
 62
7
  6
CONTINUOUS
 10
24.7572543319
 20
-79.8851922365
 11
24.7572543319
 21
-78.8851617755
  0
LINE
  5
3CB
100
AcDbEntity
  8
RACCORDO
100
AcDbLine
 62
7
  6
CONTINUOUS
 10
24.7572543319
 20
30.1772613064
 11
24.7572543319
 21
31.1772917673
  0
LINE
  5
3CC
100
AcDbEntity
  8
RACCORDO
100
AcDbLine
 62
253
  6
CONTINUOUS
 10
24.8263622058
 20
-79.8528230355
 11
24.8263622058
 21
31.1449225663
  0
LINE
  5
3CD
100
AcDbEntity
  8
DRAFT
100
AcDbLine
 62
7
  6
CONTINUOUS
 10
24.917016366
 20
31.2355767265
 11
24.917016366
 21
-79.9434771956
  0
LINE
  5
3CE
100
AcDbEntity
  8
DRAFT
100
AcDbLine
 62
7
  6
CONTINUOUS
 10
24.9555569856
 20
31.2355767265
 11
24.9555569856
 21
-79.9434771956
  0
LINE
  5
3CF
100
AcDbEntity
  8
DRAFT
100
AcDbLine
 62
253
  6
CONTINUOUS
 10
25.0335201429
 20
31.2393156365
 11
25.0335201429
 21
-79.9472161057
  0
LINE
  5
3D0
100
AcDbEntity
  8
DRAFT
100
AcDbLine
 62
253
  6
CONTINUOUS
 10
25.221458667
 20
31.2393156365
 11
25.221458667
 21
-79.9472161057
  0
LINE
  5
3D1
100
AcDbEntity
  8
DRAFT
100
AcDbLine
 62
7
  6
CONTINUOUS
 10
25.2994218244
 20
31.2355767265
 11
25.2994218244
 21
-79.9434771956
  0
LINE
  5
3D2
100
AcDbEntity
  8
DRAFT
100
AcDbLine
 62
7
  6
CONTINUOUS
 10
25.6555569856
 20
31.2355767265
 11
25.6555569856
 21
-79.9434771956
  0
LINE
  5
3D3
100
AcDbEntity
  8
DRAFT
100
AcDbLine
 62
253
  6
CONTINUOUS
 10
25.7335201429
 20
31.2393156365
 11
25.7335201429
 21
-79.9472161057
  0
LINE
  5
3D4
100
AcDbEntity
  8
DRAFT
100
AcDbLine
 62
253
  6
CONTINUOUS
 10
25.921458667
 20
31.2393156365
 11
25.921458667
 21
-79.9472161057
  0
LINE
  5
3D5
100
AcDbEntity
  8
DRAFT
100
AcDbLine
 62
7
  6
CONTINUOUS
 10
25.9994218244
 20
31.2355767265
 11
25.9994218244
 21
-79.9434771956
  0
LINE
  5
3D6
100
AcDbEntity
  8
DRAFT
100
AcDbLine
 62
7
  6
CONTINUOUS
 10
26.777489405
 20
-77.1320584015
 11
26.777489405
 21
-75.5758420676
  0
LINE
  5
3D7
100
AcDbEntity
  8
DRAFT
100
AcDbLine
 62
7
  6
CONTINUOUS
 10
26.777489405
 20
4.8679415985
 11
26.777489405
 21
6.4241579324
  0
LINE
  5
3D8
100
AcDbEntity
  8
RACCORDO
100
AcDbLine
 62
253
  6
CONTINUOUS
 10
27.0704769134
 20
-79.9434771956
 11
27.0704769134
 21
-77.1320584015
  0
LINE
  5
3D9
100
AcDbEntity
  8
RACCORDO
100
AcDbLine
 62
253
  6
CONTINUOUS
 10
27.0704769134
 20
-75.5758420676
 11
27.0704769134
 21
4.8679415985
  0
LINE
  5
3DA
100
AcDbEntity
  8
RACCORDO
100
AcDbLine
 62
253
  6
CONTINUOUS
 10
27.0704769134
 20
6.4241579324
 11
27.0704769134
 21
31.2355767265
  0
LINE
  5
3DB
100
AcDbEntity
  8
RACCORDO
100
AcDbLine
 62
253
  6
CONTINUOUS
 10
27.2704464524
 20
-79.746937743
 11
27.2704464524
 21
-77.1596760133
  0
LINE
  5
3DC
100
AcDbEntity
  8
RACCORDO
100
AcDbLine
 62
253
  6
CONTINUOUS
 10
27.2704464524
 20
-75.5482244559
 11
27.2704464524
 21
4.8403239867
  0
LINE
  5
3DD
100
AcDbEntity
  8
RACCORDO
100
AcDbLine
 62
253
  6
CONTINUOUS
 10
27.2704464524
 20
6.4517755441
 11
27.2704464524
 21
31.0390372738
  0
LINE
  5
3DE
100
AcDbEntity
  8
RACCORDO
100
AcDbLine
 62
7
  6
CONTINUOUS
 10
27.2897079504
 20
31.0582987718
 11
27.2897079504
 21
6.6068610175
  0
LINE
  5
3DF
100
AcDbEntity
  8
DRAFT
100
AcDbLine
 62
7
  6
CONTINUOUS
 10
27.2897079504
 20
4.6852385134
 11
27.2897079504
 21
-75.3931389825
  0
LINE
  5
3E0
100
AcDbEntity
  8
RACCORDO
100
AcDbLine
 62
7
  6
CONTINUOUS
 10
27.2897079504
 20
-77.3147614866
 11
27.2897079504
 21
-79.766199241
  0
LINE
  5
3E1
100
AcDbEntity
  8
DRAFT
100
AcDbLine
 62
7
  6
CONTINUOUS
 10
28.013525353
 20
6.3960497654
 11
28.013525353
 21
4.8960497654
  0
LINE
  5
3E2
100
AcDbEntity
  8
DRAFT
100
AcDbLine
 62
7
  6
CONTINUOUS
 10
28.013525353
 20
-75.6039502346
 11
28.013525353
 21
-77.1039502346
  0
LINE
  5
3E3
100
AcDbEntity
  8
RACCORDO
100
AcDbLine
 62
7
  6
CONTINUOUS
 10
28.0152708595
 20
-81.0918078416
 11
28.0152708595
 21
-77.3147614866
  0
LINE
  5
3E4
100
AcDbEntity
  8
DRAFT
100
AcDbLine
 62
7
  6
CONTINUOUS
 10
28.0152708595
 20
-75.3931389825
 11
28.0152708595
 21
-62.6539502346
  0
LINE
  5
3E5
100
AcDbEntity
  8
DRAFT
100
AcDbLine
 62
7
  6
CONTINUOUS
 10
28.0152708595
 20
19.3460497654
 11
28.0152708595
 21
6.6068610175
  0
LINE
  5
3E6
100
AcDbEntity
  8
DRAFT
100
AcDbLine
 62
7
  6
CONTINUOUS
 10
28.0152708595
 20
4.6852385134
 11
28.0152708595
 21
4.33383122
  0
LINE
  5
3E7
100
AcDbEntity
  8
DRAFT
100
AcDbLine
 62
7
  6
CONTINUOUS
 10
28.027489405
 20
19.3460497654
 11
28.027489405
 21
6.5084824332
  0
LINE
  5
3E8
100
AcDbEntity
  8
DRAFT
100
AcDbLine
 62
7
  6
CONTINUOUS
 10
28.027489405
 20
4.7836170977
 11
28.027489405
 21
4.3460497654
  0
LINE
  5
3E9
100
AcDbEntity
  8
DRAFT
100
AcDbLine
 62
7
  6
CONTINUOUS
 10
28.027489405
 20
-62.6539502346
 11
28.027489405
 21
-75.4915175668
  0
LINE
  5
3EA
100
AcDbEntity
  8
RACCORDO
100
AcDbLine
 62
7
  6
CONTINUOUS
 10
28.027489405
 20
-77.2163829023
 11
28.027489405
 21
-81.104026387
  0
LINE
  5
3EB
100
AcDbEntity
  8
0
100
AcDbLine
 62
7
  6
CONTINUOUS
 10
28.2647914483
 20
23.3460497654
 11
28.2647914483
 21
19.3460497654
  0
LINE
  5
3EC
100
AcDbEntity
  8
0
100
AcDbLine
 62
7
  6
CONTINUOUS
 10
28.2647914483
 20
-58.6539502346
 11
28.2647914483
 21
-62.6539502346
  0
LINE
  5
3ED
100
AcDbEntity
  8
DRAFT
100
AcDbLine
 62
7
  6
CONTINUOUS
 10
29.0152708595
 20
-58.6539502346
 11
29.0152708595
 21
4.33383122
  0
LINE
  5
3EE
100
AcDbEntity
  8
RACCORDO
100
AcDbLine
 62
7
  6
CONTINUOUS
 10
29.0152708595
 20
23.3460497654
 11
29.0152708595
 21
32.3839073724
  0
LINE
  5
3EF
100
AcDbEntity
  8
DRAFT
100
AcDbLine
 62
7
  6
CONTINUOUS
 10
29.027489405
 20
-58.6539502346
 11
29.027489405
 21
4.3460497654
  0
LINE
  5
3F0
100
AcDbEntity
  8
RACCORDO
100
AcDbLine
 62
7
  6
CONTINUOUS
 10
29.027489405
 20
23.3460497654
 11
29.027489405
 21
32.3961259178
  0
LWPOLYLINE
  5
3F1
100
AcDbEntity
  8
RACCORDO
100
AcDbPolyline
 62
253
  6
CONTINUOUS
 90
22
 70
0
 10
23.2978767212
 20
-78.6643680118
 10
23.2973718143
 20
-78.6786346801
 10
23.2958652854
 20
-78.6927274173
 10
23.293386171
 20
-78.7065778332
 10
23.2899791721
 20
-78.7200822104
 10
23.2856755995
 20
-78.7332205148
 10
23.2804662561
 20
-78.7460478188
 10
23.274366113
 20
-78.7585126246
 10
23.2674052457
 20
-78.7705408514
 10
23.2595648248
 20
-78.7821392071
 10
23.2509104509
 20
-78.7931853255
 10
23.241430545
 20
-78.8036706939
 10
23.230937852
 20
-78.8137229117
 10
23.2193425121
 20
-78.8232923327
 10
23.2067286258
 20
-78.8321786407
 10
23.1931461899
 20
-78.8402390618
 10
23.1785392304
 20
-78.8473918087
 10
23.1630541258
 20
-78.8534525251
 10
23.1471028122
 20
-78.8582095528
 10
23.130909168
 20
-78.8616070499
 10
23.1144732583
 20
-78.863655703
 10
23.0979071886
 20
-78.8643375573
  0
LWPOLYLINE
  5
3F2
100
AcDbEntity
  8
RACCORDO
100
AcDbPolyline
 62
253
  6
CONTINUOUS
 90
11
 70
0
 10
23.0458815809
 20
-78.2900793726
 10
23.0451314131
 20
-78.3075135195
 10
23.0442686852
 20
-78.3237002181
 10
23.0433026406
 20
-78.3384660237
 10
23.0422436283
 20
-78.3516527339
 10
23.041102993
 20
-78.3631190562
 10
23.0398929572
 20
-78.3727420939
 10
23.0386264899
 20
-78.3804187001
 10
23.0373171626
 20
-78.3860666157
 10
23.0359790033
 20
-78.3896253324
 10
23.0346263506
 20
-78.3910567192
  0
LINE
  5
3F3
100
AcDbEntity
  8
RACCORDO
100
AcDbLine
 62
7
  6
CONTINUOUS
 10
23.2796602415
 20
-78.6681600765
 11
23.2807569471
 21
-78.6486794951
  0
LINE
  5
3F4
100
AcDbEntity
  8
RACCORDO
100
AcDbLine
 62
7
  6
CONTINUOUS
 10
23.2334881203
 20
-78.212046047
 11
23.2345641487
 21
-78.1945895851
  0
LWPOLYLINE
  5
3F5
100
AcDbEntity
  8
RACCORDO
100
AcDbPolyline
 62
253
  6
CONTINUOUS
 90
9
 70
0
 10
23.090108549
 20
-78.7886751109
 10
23.0892525567
 20
-78.8002135889
 10
23.0883350031
 20
-78.8106389696
 10
23.0873625652
 20
-78.8198753874
 10
23.0863423195
 20
-78.8278556286
 10
23.0852816903
 20
-78.8345216209
 10
23.0841883963
 20
-78.8398248554
 10
23.0830703935
 20
-78.8437267407
 10
23.0819358176
 20
-78.8461988833
  0
LINE
  5
3F6
100
AcDbEntity
  8
DRAFT
100
AcDbLine
 62
7
  6
CONTINUOUS
 10
-9.2330172995
 20
-79.96616878
 11
-9.222510595
 21
-79.9539502346
  0
LWPOLYLINE
  5
3F7
100
AcDbEntity
  8
RACCORDO
100
AcDbPolyline
 62
7
  6
CONTINUOUS
 90
5
 70
0
 10
-15.9949859218
 20
-78.7912220387
 10
-16.0062932335
 20
-78.8022795
 10
-16.0186830515
 20
-78.8125966551
 10
-16.0320793514
 20
-78.8220215458
 10
-16.046215315
 20
-78.8303256465
  0
LWPOLYLINE
  5
3F8
100
AcDbEntity
  8
RACCORDO
100
AcDbPolyline
 62
253
  6
CONTINUOUS
 90
13
 70
0
 10
-40.0156754107
 20
-78.4270845894
 10
-40.0169987152
 20
-78.4277234812
 10
-40.0182976321
 20
-78.4291832893
 10
-40.0195756738
 20
-78.4314556091
 10
-40.0208445501
 20
-78.4345284296
 10
-40.0220994123
 20
-78.4383869702
 10
-40.0233188549
 20
-78.4430144667
 10
-40.0245054088
 20
-78.4483889957
 10
-40.0256629418
 20
-78.454488072
 10
-40.0267719991
 20
-78.4612923891
 10
-40.0278281094
 20
-78.4687773658
 10
-40.0288416865
 20
-78.4769108787
 10
-40.0298155063
 20
-78.48566024
  0
LINE
  5
3F9
100
AcDbEntity
  8
RACCORDO
100
AcDbLine
 62
7
  6
CONTINUOUS
 10
-49.7736521856
 20
11.4460497654
 11
-48.1713690045
 21
11.4460497654
  0
LINE
  5
3FA
100
AcDbEntity
  8
RACCORDO
100
AcDbLine
 62
7
  6
CONTINUOUS
 10
-49.4761907296
 20
11.7435112214
 11
-48.4688304604
 21
11.7435112214
  0
LWPOLYLINE
  5
3FB
100
AcDbEntity
  8
RACCORDO
100
AcDbPolyline
 62
253
  6
CONTINUOUS
 90
19
 70
0
 10
-40.2725607924
 20
27.4500018396
 10
-40.2463126098
 20
27.4407525611
 10
-40.2209141765
 20
27.4297575957
 10
-40.1963655014
 20
27.4170169434
 10
-40.1725141364
 20
27.402437172
 10
-40.1495125456
 20
27.3861117136
 10
-40.1278181102
 20
27.3683208649
 10
-40.1074918054
 20
27.3490561062
 10
-40.088472679
 20
27.3283259573
 10
-40.0710352262
 20
27.3064362744
 10
-40.0552021339
 20
27.283367374
 10
-40.0409507368
 20
27.2591389396
 10
-40.028487504
 20
27.2341158779
 10
-40.0178420929
 20
27.2083845065
 10
-40.0089848631
 20
27.1818585079
 10
-40.0020333368
 20
27.1546438366
 10
-39.9970266913
 20
27.126775811
 10
-39.9939257588
 20
27.0982191127
 10
-39.9927305415
 20
27.0689737418
  0
LWPOLYLINE
  5
3FC
100
AcDbEntity
  8
RACCORDO
100
AcDbPolyline
 62
7
  6
CONTINUOUS
 90
22
 70
0
 10
27.2704464524
 20
31.0390372738
 10
27.2698459428
 20
31.051305801
 10
27.2684571208
 20
31.0635726768
 10
27.2662561708
 20
31.0758379012
 10
27.2632241324
 20
31.088157099
 10
27.2593433951
 20
31.1004746454
 10
27.2545945089
 20
31.1126236657
 10
27.2489727188
 20
31.1246043561
 10
27.2424666938
 20
31.1364165203
 10
27.2350404209
 20
31.1478926957
 10
27.2266978214
 20
31.1590445505
 10
27.2174323118
 20
31.1698604163
 10
27.2071743344
 20
31.1801378255
 10
27.1959370873
 20
31.1899083062
 10
27.1837224769
 20
31.1991403303
 10
27.1704222568
 20
31.2075368452
 10
27.1559961964
 20
31.2151543673
 10
27.14053902
 20
31.2219363802
 10
27.1241567762
 20
31.2274162827
 10
27.1069508617
 20
31.2314385411
 10
27.0890140848
 20
31.234158689
 10
27.0704769134
 20
31.2355767265
  0
LWPOLYLINE
  5
3FD
100
AcDbEntity
  8
RACCORDO
100
AcDbPolyline
 62
7
  6
CONTINUOUS
 90
22
 70
0
 10
29.027489405
 20
32.3961259178
 10
29.026097932
 20
32.4334061378
 10
29.021923357
 20
32.4705284931
 10
29.0149776677
 20
32.5072845935
 10
29.0052738256
 20
32.543514503
 10
28.9928627861
 20
32.5789619672
 10
28.9778688221
 20
32.6132880009
 10
28.9604572251
 20
32.6462036159
 10
28.9406996259
 20
32.6776497293
 10
28.9185899247
 20
32.7076324136
 10
28.8941289928
 20
32.736078942
 10
28.8675185816
 20
32.7626893533
 10
28.8390720532
 20
32.7871502851
 10
28.8090893688
 20
32.8092599863
 10
28.7776432555
 20
32.8290175856
 10
28.7447276405
 20
32.8464291826
 10
28.7104016067
 20
32.8614231466
 10
28.6749541425
 20
32.873834186
 10
28.6387242331
 20
32.8835380282
 10
28.6019681327
 20
32.8904837175
 10
28.5648457773
 20
32.8946582924
 10
28.5275655574
 20
32.8960497654
  0
LINE
  5
3FE
100
AcDbEntity
  8
0
100
AcDbLine
 62
7
  6
CONTINUOUS
 10
33.877489405
 20
23.3460497654
 11
33.877489405
 21
19.3460497654
  0
LINE
  5
3FF
100
AcDbEntity
  8
0
100
AcDbLine
 62
7
  6
CONTINUOUS
 10
33.877489405
 20
-58.6539502346
 11
33.877489405
 21
-62.6539502346
  0
LWPOLYLINE
  5
400
100
AcDbEntity
  8
RACCORDO
100
AcDbPolyline
 62
7
  6
CONTINUOUS
 90
22
 70
0
 10
28.027489405
 20
-81.104026387
 10
28.026097932
 20
-81.1413066069
 10
28.021923357
 20
-81.1784289623
 10
28.0149776677
 20
-81.2151850627
 10
28.0052738256
 20
-81.2514149721
 10
27.9928627861
 20
-81.2868624364
 10
27.9778688221
 20
-81.3211884701
 10
27.9604572251
 20
-81.3541040851
 10
27.9406996259
 20
-81.3855501985
 10
27.9185899247
 20
-81.4155328828
 10
27.8941289928
 20
-81.4439794112
 10
27.8675185816
 20
-81.4705898224
 10
27.8390720532
 20
-81.4950507543
 10
27.8090893688
 20
-81.5171604555
 10
27.7776432555
 20
-81.5369180547
 10
27.7447276405
 20
-81.5543296518
 10
27.7104016067
 20
-81.5693236158
 10
27.6749541425
 20
-81.5817346552
 10
27.6387242331
 20
-81.5914384973
 10
27.6019681327
 20
-81.5983841867
 10
27.5648457773
 20
-81.6025587616
 10
27.5275655574
 20
-81.6039502346
  0
LWPOLYLINE
  5
401
100
AcDbEntity
  8
RACCORDO
100
AcDbPolyline
 62
7
  6
CONTINUOUS
 90
22
 70
0
 10
27.2704464524
 20
-79.746937743
 10
27.2698599511
 20
-79.7589201767
 10
27.2685047794
 20
-79.7710594902
 10
27.2663474751
 20
-79.7833046527
 10
27.263356629
 20
-79.7955985614
 10
27.2595063235
 20
-79.8078829773
 10
27.2547763163
 20
-79.8200985596
 10
27.2491540247
 20
-79.8321643454
 10
27.2426215705
 20
-79.8440217184
 10
27.2351502375
 20
-79.855634897
 10
27.2267391926
 20
-79.8669084865
 10
27.217379652
 20
-79.8777670632
 10
27.2070197802
 20
-79.8881829835
 10
27.1956707146
 20
-79.8980391437
 10
27.1833370234
 20
-79.9072328639
 10
27.1699419585
 20
-79.9157169441
 10
27.1555614872
 20
-79.9233191715
 10
27.1401884574
 20
-79.9299256308
 10
27.123600299
 20
-79.9354777871
 10
27.1057619651
 20
-79.9397664986
 10
27.0868642072
 20
-79.9425131151
 10
27.067046827
 20
-79.9434771956
  0
LINE
  5
402
100
AcDbEntity
  8
RACCORDO
100
AcDbLine
 62
7
  6
CONTINUOUS
 10
27.2704464524
 20
-75.5482244559
 11
27.2897079504
 21
-75.3931389825
  0
LINE
  5
403
100
AcDbEntity
  8
DRAFT
100
AcDbLine
 62
7
  6
CONTINUOUS
 10
28.027489405
 20
-75.4915175668
 11
28.013525353
 21
-75.6039502346
  0
LINE
  5
404
100
AcDbEntity
  8
DRAFT
100
AcDbLine
 62
7
  6
CONTINUOUS
 10
22.027489405
 20
-81.6039502346
 11
22.277489405
 21
-79.9539502346
  0
LINE
  5
405
100
AcDbEntity
  8
DRAFT
100
AcDbLine
 62
7
  6
CONTINUOUS
 10
22.041698699
 20
-81.5917316891
 11
22.2879961094
 21
-79.96616878
  0
LWPOLYLINE
  5
406
100
AcDbEntity
  8
RACCORDO
100
AcDbPolyline
 62
253
  6
CONTINUOUS
 90
7
 70
0
 10
23.3778733831
 20
27.2603332708
 10
23.3870857526
 20
27.2628323945
 10
23.396442377
 20
27.2648960028
 10
23.4059229106
 20
27.2665143344
 10
23.4155063231
 20
27.2676785541
 10
23.4251709385
 20
27.2683808006
 10
23.4348944779
 20
27.2686142315
  0
LWPOLYLINE
  5
407
100
AcDbEntity
  8
RACCORDO
100
AcDbPolyline
 62
253
  6
CONTINUOUS
 90
7
 70
0
 10
23.3274894047
 20
27.4538953044
 10
23.3444160588
 20
27.4582776757
 10
23.3617323894
 20
27.4618863295
 10
23.3794383966
 20
27.4647212659
 10
23.3975340804
 20
27.4667824849
 10
23.4160194409
 20
27.4680699864
 10
23.4348944779
 20
27.4685837706
  0
LINE
  5
408
100
AcDbEntity
  8
RACCORDO
100
AcDbLine
 62
7
  6
CONTINUOUS
 10
24.6521813269
 20
29.7212608018
 11
24.4417344082
 21
29.6679266815
  0
LINE
  5
409
100
AcDbEntity
  8
DRAFT
100
AcDbLine
 62
7
  6
CONTINUOUS
 10
28.2647914483
 20
19.3460497654
 11
28.0152708595
 21
19.3460497654
  0
LINE
  5
40A
100
AcDbEntity
  8
0
100
AcDbLine
 62
7
  6
CONTINUOUS
 10
28.2647914483
 20
19.3460497654
 11
33.8774411222
 21
19.3460497654
  0
LINE
  5
40B
100
AcDbEntity
  8
RACCORDO
100
AcDbLine
 62
7
  6
CONTINUOUS
 10
-48.4688304604
 20
19.5485883094
 11
-49.4761907296
 21
19.5485883094
  0
LWPOLYLINE
  5
40C
100
AcDbEntity
  8
RACCORDO
100
AcDbPolyline
 62
253
  6
CONTINUOUS
 90
19
 70
0
 10
-40.3228945733
 20
27.2603332709
 10
-40.3094081252
 20
27.2558416895
 10
-40.2962771265
 20
27.2504052708
 10
-40.2835676471
 20
27.2440513067
 10
-40.2713417677
 20
27.2368107279
 10
-40.2596631455
 20
27.2287206639
 10
-40.2485958533
 20
27.2198254825
 10
-40.2381966528
 20
27.2101726588
 10
-40.2285150017
 20
27.199810205
 10
-40.2195983034
 20
27.1887897919
 10
-40.21148909
 20
27.1771648641
 10
-40.204229285
 20
27.1649966636
 10
-40.1978580125
 20
27.152353614
 10
-40.1924226582
 20
27.1393471517
 10
-40.187923875
 20
27.1259989657
 10
-40.1843508663
 20
27.112236741
 10
-40.1817418312
 20
27.0980759949
 10
-40.1801516423
 20
27.0836306238
 10
-40.1796170796
 20
27.0689737418
  0
LINE
  5
40D
100
AcDbEntity
  8
RACCORDO
100
AcDbLine
 62
7
  6
CONTINUOUS
 10
27.2704464524
 20
4.8403239867
 11
27.2897079504
 21
4.6852385134
  0
LINE
  5
40E
100
AcDbEntity
  8
DRAFT
100
AcDbLine
 62
7
  6
CONTINUOUS
 10
28.027489405
 20
4.7836170977
 11
28.013525353
 21
4.8960497654
  0
LINE
  5
40F
100
AcDbEntity
  8
DRAFT
100
AcDbLine
 62
7
  6
CONTINUOUS
 10
28.0152708595
 20
6.6068610175
 11
28.027489405
 21
6.5084824332
  0
LINE
  5
410
100
AcDbEntity
  8
DRAFT
100
AcDbLine
 62
7
  6
CONTINUOUS
 10
28.0152708595
 20
-77.3147614866
 11
28.027489405
 21
-77.2163829023
  0
LINE
  5
411
100
AcDbEntity
  8
DRAFT
100
AcDbLine
 62
7
  6
CONTINUOUS
 10
-7.972510595
 20
-81.6039502346
 11
-7.958301301
 21
-81.5917316891
  0
LWPOLYLINE
  5
412
100
AcDbEntity
  8
RACCORDO
100
AcDbPolyline
 62
7
  6
CONTINUOUS
 90
7
 70
0
 10
-16.046215315
 20
-78.8303256465
 10
-16.0609321918
 20
-78.8374214241
 10
-16.0761936699
 20
-78.8432969106
 10
-16.0918731484
 20
-78.8479027188
 10
-16.1078563884
 20
-78.8512092477
 10
-16.124044844
 20
-78.853200027
 10
-16.1403305213
 20
-78.853864511
  0
LINE
  5
413
100
AcDbEntity
  8
RACCORDO
100
AcDbLine
 62
7
  6
CONTINUOUS
 10
24.7313068076
 20
30.1513137821
 11
24.6923444407
 21
30.1414394462
  0
LINE
  5
414
100
AcDbEntity
  8
RACCORDO
100
AcDbLine
 62
7
  6
CONTINUOUS
 10
-48.1713690045
 20
19.8460497654
 11
-49.7736521856
 21
19.8460497654
  0
LINE
  5
415
100
AcDbEntity
  8
0
100
AcDbLine
 62
7
  6
CONTINUOUS
 10
33.8774411222
 20
23.3460497654
 11
28.2647914483
 21
23.3460497654
  0
LINE
  5
416
100
AcDbEntity
  8
RACCORDO
100
AcDbLine
 62
7
  6
CONTINUOUS
 10
-41.3825109548
 20
29.6672558769
 11
-41.3867555982
 21
29.6679266815
  0
LINE
  5
417
100
AcDbEntity
  8
RACCORDO
100
AcDbLine
 62
7
  6
CONTINUOUS
 10
-41.3867555982
 20
29.6679266815
 11
-41.5972025169
 21
29.7212608018
  0
LINE
  5
418
100
AcDbEntity
  8
RACCORDO
100
AcDbLine
 62
7
  6
CONTINUOUS
 10
-41.6763279976
 20
30.1513137821
 11
-41.6373656308
 21
30.1414394462
  0
LWPOLYLINE
  5
419
100
AcDbEntity
  8
RACCORDO
100
AcDbPolyline
 62
7
  6
CONTINUOUS
 90
5
 70
0
 10
23.3463090704
 20
27.3873808872
 10
23.3418359346
 20
27.402921776
 10
23.3371802563
 20
27.4185821001
 10
23.3323867668
 20
27.4343062373
 10
23.3274893062
 20
27.449980109
  0
LWPOLYLINE
  5
41A
100
AcDbEntity
  8
RACCORDO
100
AcDbPolyline
 62
7
  6
CONTINUOUS
 90
3
 70
0
 10
23.3584283187
 20
27.3436827389
 10
23.3546265471
 20
27.3575296749
 10
23.3463090704
 20
27.3873808872
  0
LINE
  5
41B
100
AcDbEntity
  8
DRAFT
100
AcDbLine
 62
7
  6
CONTINUOUS
 10
-44.2347291405
 20
24.6852385134
 11
-46.1847291405
 21
24.6852385134
  0
LINE
  5
41C
100
AcDbEntity
  8
RACCORDO
100
AcDbLine
 62
7
  6
CONTINUOUS
 10
-44.0154981035
 20
24.8679415985
 11
-43.722510595
 21
24.8679415985
  0
LINE
  5
41D
100
AcDbEntity
  8
DRAFT
100
AcDbLine
 62
7
  6
CONTINUOUS
 10
-43.722510595
 20
24.8960497654
 11
-46.1585465431
 21
24.8960497654
  0
LINE
  5
41E
100
AcDbEntity
  8
DRAFT
100
AcDbLine
 62
7
  6
CONTINUOUS
 10
-46.1585465431
 20
26.3960497654
 11
-43.722510595
 21
26.3960497654
  0
LINE
  5
41F
100
AcDbEntity
  8
RACCORDO
100
AcDbLine
 62
7
  6
CONTINUOUS
 10
-44.0154981035
 20
26.4241579324
 11
-43.722510595
 21
26.4241579324
  0
LINE
  5
420
100
AcDbEntity
  8
DRAFT
100
AcDbLine
 62
7
  6
CONTINUOUS
 10
-46.1847291405
 20
26.6068610175
 11
-44.2347291405
 21
26.6068610175
  0
LINE
  5
421
100
AcDbEntity
  8
RACCORDO
100
AcDbLine
 62
253
  6
CONTINUOUS
 10
23.2978767212
 20
27.0056929102
 11
24.497754868
 21
27.0056929102
  0
LINE
  5
422
100
AcDbEntity
  8
RACCORDO
100
AcDbLine
 62
253
  6
CONTINUOUS
 10
-40.2428979112
 20
27.0056929102
 11
-41.4427760581
 21
27.0056929102
  0
LINE
  5
423
100
AcDbEntity
  8
RACCORDO
100
AcDbLine
 62
253
  6
CONTINUOUS
 10
-40.1796170796
 20
27.0689737418
 11
-39.9927305415
 21
27.0689737418
  0
LINE
  5
424
100
AcDbEntity
  8
RACCORDO
100
AcDbLine
 62
253
  6
CONTINUOUS
 10
23.0477093515
 20
27.0689737418
 11
23.2345958896
 21
27.0689737418
  0
LINE
  5
425
100
AcDbEntity
  8
RACCORDO
100
AcDbLine
 62
253
  6
CONTINUOUS
 10
-41.242806519
 20
27.2056624492
 11
-40.4428674503
 21
27.2056624492
  0
LINE
  5
426
100
AcDbEntity
  8
RACCORDO
100
AcDbLine
 62
253
  6
CONTINUOUS
 10
23.4978462602
 20
27.2056624492
 11
24.297785329
 21
27.2056624492
  0
LINE
  5
427
100
AcDbEntity
  8
RACCORDO
100
AcDbLine
 62
253
  6
CONTINUOUS
 10
-41.1798547367
 20
27.2686142315
 11
-40.379915668
 21
27.2686142315
  0
LINE
  5
428
100
AcDbEntity
  8
RACCORDO
100
AcDbLine
 62
253
  6
CONTINUOUS
 10
23.4348944779
 20
27.2686142315
 11
24.2348335467
 21
27.2686142315
  0
LINE
  5
429
100
AcDbEntity
  8
RACCORDO
100
AcDbLine
 62
253
  6
CONTINUOUS
 10
-41.1798547367
 20
27.4685837706
 11
-40.379915668
 21
27.4685837706
  0
LINE
  5
42A
100
AcDbEntity
  8
RACCORDO
100
AcDbLine
 62
253
  6
CONTINUOUS
 10
23.4348944779
 20
27.4685837706
 11
24.2348335467
 21
27.4685837706
  0
LWPOLYLINE
  5
42B
100
AcDbEntity
  8
RACCORDO
100
AcDbPolyline
 62
253
  6
CONTINUOUS
 90
7
 70
0
 10
-40.379915668
 20
27.2686142315
 10
-40.3702764723
 20
27.268384865
 10
-40.3606619901
 20
27.2676915627
 10
-40.3510945045
 20
27.2665362393
 10
-40.3415961666
 20
27.2649218784
 10
-40.3321889447
 20
27.2628525243
 10
-40.3228945733
 20
27.2603332709
  0
LWPOLYLINE
  5
42C
100
AcDbEntity
  8
RACCORDO
100
AcDbPolyline
 62
253
  6
CONTINUOUS
 90
7
 70
0
 10
-40.379915668
 20
27.4685837706
 10
-40.3614779328
 20
27.4681306049
 10
-40.3432583082
 20
27.46688017
 10
-40.3252567942
 20
27.4648324659
 10
-40.3074733906
 20
27.4619874926
 10
-40.2899080976
 20
27.4583452502
 10
-40.2725609151
 20
27.4539057385
  0
LWPOLYLINE
  5
42D
100
AcDbEntity
  8
RACCORDO
100
AcDbPolyline
 62
253
  6
CONTINUOUS
 90
10
 70
0
 10
24.2348335467
 20
27.4685837706
 10
24.2579559414
 20
27.4678827048
 10
24.280784292
 20
27.4659137539
 10
24.3033185984
 20
27.4626769181
 10
24.3255905137
 20
27.4581615386
 10
24.3475683848
 20
27.452378274
 10
24.3691572528
 20
27.4453591001
 10
24.3903254649
 20
27.4371146755
 10
24.411104674
 20
27.4276343416
 10
24.4314948801
 20
27.4169180983
  0
LWPOLYLINE
  5
42E
100
AcDbEntity
  8
RACCORDO
100
AcDbPolyline
 62
253
  6
CONTINUOUS
 90
5
 70
0
 10
24.2348335467
 20
27.2686142315
 10
24.2491433635
 20
27.2680974716
 10
24.2633714733
 20
27.2665601106
 10
24.2774453638
 20
27.2640118865
 10
24.2843627743
 20
27.2623731937
  0
LWPOLYLINE
  5
42F
100
AcDbEntity
  8
RACCORDO
100
AcDbPolyline
 62
7
  6
CONTINUOUS
 90
9
 70
0
 10
24.297785329
 20
27.2056624492
 10
24.3186917568
 20
27.2045729511
 10
24.3393690392
 20
27.2013036633
 10
24.3595905468
 20
27.1958904195
 10
24.3791346342
 20
27.1883925569
 10
24.397787105
 20
27.178892253
 10
24.4153435536
 20
27.1674936131
 10
24.4316115516
 20
27.1543215594
 10
24.4392066852
 20
27.1471142664
  0
LWPOLYLINE
  5
430
100
AcDbEntity
  8
RACCORDO
100
AcDbPolyline
 62
253
  6
CONTINUOUS
 90
16
 70
0
 10
-40.4428674503
 20
27.2056624492
 10
-40.4219690988
 20
27.2045610668
 10
-40.4012996268
 20
27.2012817133
 10
-40.3810854027
 20
27.1958603049
 10
-40.3615478202
 20
27.1883562223
 10
-40.3429008387
 20
27.1788516474
 10
-40.3253486453
 20
27.1674506516
 10
-40.3090834727
 20
27.1542780863
 10
-40.294283464
 20
27.1394782091
 10
-40.2811106975
 20
27.1232130756
 10
-40.2697094407
 20
27.1056607818
 10
-40.2602045988
 20
27.0870135743
 10
-40.2527003075
 20
27.0674757326
 10
-40.247278759
 20
27.0472612592
 10
-40.2439993215
 20
27.0265915259
 10
-40.2428979112
 20
27.0056929102
  0
LWPOLYLINE
  5
431
100
AcDbEntity
  8
RACCORDO
100
AcDbPolyline
 62
7
  6
CONTINUOUS
 90
11
 70
0
 10
23.3208819527
 20
29.6834852993
 10
23.3215762189
 20
29.6820539969
 10
23.3222491353
 20
29.6784966382
 10
23.3229007018
 20
29.6728510663
 10
23.3235374324
 20
29.6651775289
 10
23.324152813
 20
29.6555579565
 10
23.3247273024
 20
29.6440950184
 10
23.3252595637
 20
29.630911194
 10
23.3257509337
 20
29.6161475017
 10
23.3261858813
 20
29.5999618484
 10
23.3265625711
 20
29.5825273209
  0
LWPOLYLINE
  5
432
100
AcDbEntity
  8
RACCORDO
100
AcDbPolyline
 62
7
  6
CONTINUOUS
 90
5
 70
0
 10
23.2539314468
 20
-78.7472553623
 10
23.2634431193
 20
-78.7286028279
 10
23.2709528803
 20
-78.7090586773
 10
23.2763783902
 20
-78.6888372595
 10
23.2796602415
 20
-78.6681600765
  0
LWPOLYLINE
  5
433
100
AcDbEntity
  8
RACCORDO
100
AcDbPolyline
 62
253
  6
CONTINUOUS
 90
10
 70
0
 10
23.4422711087
 20
-78.8677676324
 10
23.4537742339
 20
-78.8468641245
 10
23.4639606048
 20
-78.8254777225
 10
23.4728302215
 20
-78.8036084266
 10
23.4804034475
 20
-78.7811778613
 10
23.4866599192
 20
-78.7582644019
 10
23.4915385455
 20
-78.7351031747
 10
23.4950189626
 20
-78.7117725549
 10
23.4971215341
 20
-78.6881941673
 10
23.4978462602
 20
-78.6643680118
  0
LWPOLYLINE
  5
434
100
AcDbEntity
  8
RACCORDO
100
AcDbPolyline
 62
253
  6
CONTINUOUS
 90
4
 70
0
 10
-41.2294196564
 20
27.2623640223
 10
-41.2153950616
 20
27.2654220077
 10
-41.1977298398
 20
27.2678086383
 10
-41.1798547367
 20
27.2686142315
  0
LINE
  5
435
100
AcDbEntity
  8
DRAFT
100
AcDbLine
 62
7
  6
CONTINUOUS
 10
25.7335201429
 20
31.2393156365
 11
25.6555569856
 21
31.2355767265
  0
LINE
  5
436
100
AcDbEntity
  8
DRAFT
100
AcDbLine
 62
7
  6
CONTINUOUS
 10
25.0335201429
 20
31.2393156365
 11
24.9555569856
 21
31.2355767265
  0
LINE
  5
437
100
AcDbEntity
  8
DRAFT
100
AcDbLine
 62
7
  6
CONTINUOUS
 10
-42.1664798571
 20
31.2393156365
 11
-42.2444430144
 21
31.2355767265
  0
LINE
  5
438
100
AcDbEntity
  8
DRAFT
100
AcDbLine
 62
7
  6
CONTINUOUS
 10
-42.8664798571
 20
31.2393156365
 11
-42.9444430144
 21
31.2355767265
  0
LINE
  5
439
100
AcDbEntity
  8
RACCORDO
100
AcDbLine
 62
253
  6
CONTINUOUS
 10
24.6521813269
 20
29.7212608018
 11
13.6839127583
 21
29.710010992
  0
LINE
  5
43A
100
AcDbEntity
  8
RACCORDO
100
AcDbLine
 62
253
  6
CONTINUOUS
 10
24.6617518822
 20
29.7798327851
 11
13.6904719691
 21
29.7685699889
  0
LINE
  5
43B
100
AcDbEntity
  8
RACCORDO
100
AcDbLine
 62
253
  6
CONTINUOUS
 10
24.6827737107
 20
30.0828674031
 11
13.6879382507
 21
30.0715761527
  0
LINE
  5
43C
100
AcDbEntity
  8
RACCORDO
100
AcDbLine
 62
253
  6
CONTINUOUS
 10
24.6923444407
 20
30.1414394462
 11
13.6939762894
 21
30.1301346171
  0
LINE
  5
43D
100
AcDbEntity
  8
RACCORDO
100
AcDbLine
 62
253
  6
CONTINUOUS
 10
13.6839127583
 20
29.710010992
 11
2.7088539391
 21
29.7032299389
  0
LINE
  5
43E
100
AcDbEntity
  8
RACCORDO
100
AcDbLine
 62
253
  6
CONTINUOUS
 10
13.6904719691
 20
29.7685699889
 11
2.7120369726
 21
29.7617810415
  0
LINE
  5
43F
100
AcDbEntity
  8
RACCORDO
100
AcDbLine
 62
253
  6
CONTINUOUS
 10
13.6879382507
 20
30.0715761527
 11
2.6863469686
 21
30.0647783518
  0
LINE
  5
440
100
AcDbEntity
  8
RACCORDO
100
AcDbLine
 62
253
  6
CONTINUOUS
 10
13.6939762894
 20
30.1301346171
 11
2.6892203268
 21
30.123328842
  0
LINE
  5
441
100
AcDbEntity
  8
RACCORDO
100
AcDbLine
 62
253
  6
CONTINUOUS
 10
6.8470680127
 20
29.4694234458
 11
-1.4128158883
 21
29.4660820286
  0
LINE
  5
442
100
AcDbEntity
  8
RACCORDO
100
AcDbLine
 62
253
  6
CONTINUOUS
 10
6.8439716018
 20
29.669394735
 11
-1.4142988191
 21
29.6660519378
  0
LINE
  5
443
100
AcDbEntity
  8
RACCORDO
100
AcDbLine
 62
253
  6
CONTINUOUS
 10
-1.4128158883
 20
29.4660820286
 11
-9.7712467516
 21
29.4651922258
  0
LINE
  5
444
100
AcDbEntity
  8
RACCORDO
100
AcDbLine
 62
253
  6
CONTINUOUS
 10
24.4314948525
 20
29.4835157603
 11
6.8470680127
 21
29.4694234458
  0
LINE
  5
445
100
AcDbEntity
  8
RACCORDO
100
AcDbLine
 62
253
  6
CONTINUOUS
 10
-1.4142988191
 20
29.6660519378
 11
-9.7711220075
 21
29.6651617667
  0
LINE
  5
446
100
AcDbEntity
  8
RACCORDO
100
AcDbLine
 62
253
  6
CONTINUOUS
 10
24.4349249389
 20
29.6834852993
 11
6.8439716018
 21
29.669394735
  0
LINE
  5
447
100
AcDbEntity
  8
RACCORDO
100
AcDbLine
 62
253
  6
CONTINUOUS
 10
2.7088539391
 20
29.7032299389
 11
-8.3177337341
 21
29.7009145741
  0
LINE
  5
448
100
AcDbEntity
  8
RACCORDO
100
AcDbLine
 62
253
  6
CONTINUOUS
 10
2.7120369726
 20
29.7617810415
 11
-8.3178723566
 21
29.7594630977
  0
LINE
  5
449
100
AcDbEntity
  8
RACCORDO
100
AcDbLine
 62
253
  6
CONTINUOUS
 10
2.6863469686
 20
30.0647783518
 11
-8.363394799
 21
30.0624707163
  0
LINE
  5
44A
100
AcDbEntity
  8
RACCORDO
100
AcDbLine
 62
253
  6
CONTINUOUS
 10
2.6892203268
 20
30.123328842
 11
-8.3636939242
 21
30.1210185563
  0
LINE
  5
44B
100
AcDbEntity
  8
RACCORDO
100
AcDbLine
 62
253
  6
CONTINUOUS
 10
-41.7022755219
 20
30.1773831595
 11
24.7572543319
 21
30.1773831595
  0
LINE
  5
44C
100
AcDbEntity
  8
RACCORDO
100
AcDbLine
 62
253
  6
CONTINUOUS
 10
-41.5023059829
 20
30.3773526986
 11
24.5572847928
 21
30.3773526986
  0
LINE
  5
44D
100
AcDbEntity
  8
RACCORDO
100
AcDbLine
 62
253
  6
CONTINUOUS
 10
24.7572543319
 20
31.1772917673
 11
-41.7022755219
 21
31.1772917673
  0
LINE
  5
44E
100
AcDbEntity
  8
RACCORDO
100
AcDbLine
 62
7
  6
CONTINUOUS
 10
-44.012068017
 20
31.2355767265
 11
-42.9444430144
 21
31.2355767265
  0
LINE
  5
44F
100
AcDbEntity
  8
DRAFT
100
AcDbLine
 62
7
  6
CONTINUOUS
 10
-42.6005781756
 20
31.2355767265
 11
-42.2444430144
 21
31.2355767265
  0
LINE
  5
450
100
AcDbEntity
  8
DRAFT
100
AcDbLine
 62
7
  6
CONTINUOUS
 10
-41.9005781756
 20
31.2355767265
 11
-41.8620375561
 21
31.2355767265
  0
LINE
  5
451
100
AcDbEntity
  8
DRAFT
100
AcDbLine
 62
7
  6
CONTINUOUS
 10
24.917016366
 20
31.2355767265
 11
24.9555569856
 21
31.2355767265
  0
LINE
  5
452
100
AcDbEntity
  8
DRAFT
100
AcDbLine
 62
7
  6
CONTINUOUS
 10
25.2994218244
 20
31.2355767265
 11
25.6555569856
 21
31.2355767265
  0
LINE
  5
453
100
AcDbEntity
  8
RACCORDO
100
AcDbLine
 62
7
  6
CONTINUOUS
 10
25.9994218244
 20
31.2355767265
 11
27.067046827
 21
31.2355767265
  0
LINE
  5
454
100
AcDbEntity
  8
RACCORDO
100
AcDbLine
 62
7
  6
CONTINUOUS
 10
-44.0347596014
 20
31.2582683109
 11
27.0897384114
 21
31.2582683109
  0
LINE
  5
455
100
AcDbEntity
  8
RACCORDO
100
AcDbLine
 62
7
  6
CONTINUOUS
 10
-46.4021842054
 20
32.866376155
 11
-46.9429131371
 21
32.866376155
  0
LINE
  5
456
100
AcDbEntity
  8
RACCORDO
100
AcDbLine
 62
7
  6
CONTINUOUS
 10
-46.3847291405
 20
32.88383122
 11
28.5153470119
 21
32.88383122
  0
LINE
  5
457
100
AcDbEntity
  8
RACCORDO
100
AcDbLine
 62
7
  6
CONTINUOUS
 10
28.5275655574
 20
32.8960497654
 11
-46.9725867475
 21
32.8960497654
  0
LINE
  5
458
100
AcDbEntity
  8
RACCORDO
100
AcDbLine
 62
253
  6
CONTINUOUS
 10
-9.7712467516
 20
29.4651922258
 11
-18.3638387588
 21
29.4669762544
  0
LINE
  5
459
100
AcDbEntity
  8
RACCORDO
100
AcDbLine
 62
253
  6
CONTINUOUS
 10
-9.7711220075
 20
29.6651617667
 11
-18.3616772957
 21
29.6669465518
  0
LINE
  5
45A
100
AcDbEntity
  8
RACCORDO
100
AcDbLine
 62
253
  6
CONTINUOUS
 10
-8.3177337341
 20
29.7009145741
 11
-23.2215271899
 21
29.704953125
  0
LINE
  5
45B
100
AcDbEntity
  8
RACCORDO
100
AcDbLine
 62
253
  6
CONTINUOUS
 10
-8.3178723566
 20
29.7594630977
 11
-23.2266288936
 21
29.7635067636
  0
LINE
  5
45C
100
AcDbEntity
  8
RACCORDO
100
AcDbLine
 62
253
  6
CONTINUOUS
 10
-8.363394799
 20
30.0624707163
 11
-23.292164382
 21
30.0665508646
  0
LINE
  5
45D
100
AcDbEntity
  8
RACCORDO
100
AcDbLine
 62
253
  6
CONTINUOUS
 10
-8.3636939242
 20
30.1210185563
 11
-23.2969126811
 21
30.1251037558
  0
LINE
  5
45E
100
AcDbEntity
  8
RACCORDO
100
AcDbLine
 62
253
  6
CONTINUOUS
 10
-18.3638387588
 20
29.4669762544
 11
-27.1608336342
 21
29.4715052622
  0
LINE
  5
45F
100
AcDbEntity
  8
RACCORDO
100
AcDbLine
 62
253
  6
CONTINUOUS
 10
-18.3616772957
 20
29.6669465518
 11
-27.1570054323
 21
29.6714774632
  0
LINE
  5
460
100
AcDbEntity
  8
RACCORDO
100
AcDbLine
 62
253
  6
CONTINUOUS
 10
-27.1608336342
 20
29.4715052622
 11
-41.3765160425
 21
29.4835157603
  0
LINE
  5
461
100
AcDbEntity
  8
RACCORDO
100
AcDbLine
 62
253
  6
CONTINUOUS
 10
-27.1570054323
 20
29.6714774632
 11
-41.3799461289
 21
29.6834852993
  0
LINE
  5
462
100
AcDbEntity
  8
RACCORDO
100
AcDbLine
 62
253
  6
CONTINUOUS
 10
-23.2215271899
 20
29.704953125
 11
-41.5972025169
 21
29.7212608018
  0
LINE
  5
463
100
AcDbEntity
  8
RACCORDO
100
AcDbLine
 62
253
  6
CONTINUOUS
 10
-23.2266288936
 20
29.7635067636
 11
-41.6067730719
 21
29.7798327851
  0
LINE
  5
464
100
AcDbEntity
  8
RACCORDO
100
AcDbLine
 62
253
  6
CONTINUOUS
 10
-23.292164382
 20
30.0665508646
 11
-41.6277949011
 21
30.0828674031
  0
LINE
  5
465
100
AcDbEntity
  8
RACCORDO
100
AcDbLine
 62
253
  6
CONTINUOUS
 10
-23.2969126811
 20
30.1251037558
 11
-41.6373656308
 21
30.1414394462
  0
LINE
  5
466
100
AcDbEntity
  8
DRAFT
100
AcDbLine
 62
7
  6
CONTINUOUS
 10
-42.6005781756
 20
31.2355767265
 11
-42.678541333
 21
31.2393156365
  0
LINE
  5
467
100
AcDbEntity
  8
DRAFT
100
AcDbLine
 62
7
  6
CONTINUOUS
 10
-41.9005781756
 20
31.2355767265
 11
-41.978541333
 21
31.2393156365
  0
LINE
  5
468
100
AcDbEntity
  8
DRAFT
100
AcDbLine
 62
7
  6
CONTINUOUS
 10
25.2994218244
 20
31.2355767265
 11
25.221458667
 21
31.2393156365
  0
LINE
  5
469
100
AcDbEntity
  8
DRAFT
100
AcDbLine
 62
7
  6
CONTINUOUS
 10
25.9994218244
 20
31.2355767265
 11
25.921458667
 21
31.2393156365
  0
LWPOLYLINE
  5
46A
100
AcDbEntity
  8
RACCORDO
100
AcDbPolyline
 62
7
  6
CONTINUOUS
 90
7
 70
0
 10
23.1829378052
 20
-78.3251745194
 10
23.196169685
 20
-78.3089004811
 10
23.2076306529
 20
-78.2913207291
 10
23.2171896658
 20
-78.2726309339
 10
23.2247372675
 20
-78.2530426537
 10
23.2301897957
 20
-78.2327739797
 10
23.2334881203
 20
-78.212046047
  0
LINE
  5
46B
100
AcDbEntity
  8
DRAFT
100
AcDbLine
 62
7
  6
CONTINUOUS
 10
20.7669827005
 20
-79.96616878
 11
20.777489405
 21
-79.9539502346
  0
LINE
  5
46C
100
AcDbEntity
  8
RACCORDO
100
AcDbLine
 62
7
  6
CONTINUOUS
 10
24.7100822545
 20
-78.9324398819
 11
24.6896123428
 21
-78.9529748189
  0
LINE
  5
46D
100
AcDbEntity
  8
RACCORDO
100
AcDbLine
 62
7
  6
CONTINUOUS
 10
23.1680800121
 20
-78.339969124
 11
23.1829378052
 21
-78.3251745194
  0
LINE
  5
46E
100
AcDbEntity
  8
RACCORDO
100
AcDbLine
 62
7
  6
CONTINUOUS
 10
24.6785843614
 20
-78.9639384194
 11
24.5695760125
 21
-79.0730521817
  0
LINE
  5
46F
100
AcDbEntity
  8
RACCORDO
100
AcDbLine
 62
7
  6
CONTINUOUS
 10
24.6896123428
 20
-78.9529748189
 11
24.6785843614
 21
-78.9639384194
  0
LINE
  5
470
100
AcDbEntity
  8
RACCORDO
100
AcDbLine
 62
7
  6
CONTINUOUS
 10
24.5695760125
 20
-79.0730521817
 11
24.5572847928
 21
-79.0852531677
  0
LINE
  5
471
100
AcDbEntity
  8
RACCORDO
100
AcDbLine
 62
7
  6
CONTINUOUS
 10
24.7195241848
 20
-78.9230853648
 11
24.7100822545
 21
-78.9324398819
  0
LINE
  5
472
100
AcDbEntity
  8
RACCORDO
100
AcDbLine
 62
253
  6
CONTINUOUS
 10
23.0819358176
 20
-78.8461988833
 11
23.080792925
 21
-78.8472232937
  0
LWPOLYLINE
  5
473
100
AcDbEntity
  8
RACCORDO
100
AcDbPolyline
 62
7
  6
CONTINUOUS
 90
4
 70
0
 10
23.1153898522
 20
-78.3739971973
 10
23.1341207823
 20
-78.3645177515
 10
23.1517559513
 20
-78.3531270249
 10
23.1680800121
 20
-78.339969124
  0
LWPOLYLINE
  5
474
100
AcDbEntity
  8
RACCORDO
100
AcDbPolyline
 62
7
  6
CONTINUOUS
 90
3
 70
0
 10
23.1424926607
 20
-78.8374478938
 10
23.162032405
 20
-78.8299527471
 10
23.1806927946
 20
-78.8204510192
  0
LINE
  5
475
100
AcDbEntity
  8
RACCORDO
100
AcDbLine
 62
7
  6
CONTINUOUS
 10
23.0958437434
 20
-78.3814372493
 11
23.1153898522
 21
-78.3739971973
  0
LWPOLYLINE
  5
476
100
AcDbEntity
  8
RACCORDO
100
AcDbPolyline
 62
7
  6
CONTINUOUS
 90
5
 70
0
 10
24.2843627743
 20
27.2623731937
 10
24.2912791655
 20
27.2604718596
 10
24.3048178185
 20
27.2559577728
 10
24.3180340342
 20
27.2504757538
 10
24.3308304109
 20
27.2440613746
  0
LINE
  5
477
100
AcDbEntity
  8
RACCORDO
100
AcDbLine
 62
7
  6
CONTINUOUS
 10
24.3308304109
 20
27.2440613746
 11
24.3431669008
 21
27.2367297169
  0
LWPOLYLINE
  5
478
100
AcDbEntity
  8
RACCORDO
100
AcDbPolyline
 62
7
  6
CONTINUOUS
 90
3
 70
0
 10
24.3431669008
 20
27.2367297169
 10
24.355085857
 20
27.2284294284
 10
24.3665317206
 20
27.2191482137
  0
LINE
  5
479
100
AcDbEntity
  8
RACCORDO
100
AcDbLine
 62
7
  6
CONTINUOUS
 10
24.3665317206
 20
27.2191482137
 11
24.376376713
 21
27.2099442386
  0
LINE
  5
47A
100
AcDbEntity
  8
RACCORDO
100
AcDbLine
 62
7
  6
CONTINUOUS
 10
24.7100980787
 20
30.2245552369
 11
24.6895631417
 21
30.2450251486
  0
LINE
  5
47B
100
AcDbEntity
  8
RACCORDO
100
AcDbLine
 62
7
  6
CONTINUOUS
 10
24.6066728993
 20
30.3279788158
 11
24.5694857788
 21
30.3650614789
  0
LINE
  5
47C
100
AcDbEntity
  8
RACCORDO
100
AcDbLine
 62
253
  6
CONTINUOUS
 10
23.2978767212
 20
27.0056929102
 11
23.2345958896
 21
27.0689737418
  0
LINE
  5
47D
100
AcDbEntity
  8
RACCORDO
100
AcDbLine
 62
253
  6
CONTINUOUS
 10
23.4978462602
 20
27.2056624492
 11
23.4348944779
 21
27.2686142315
  0
LINE
  5
47E
100
AcDbEntity
  8
RACCORDO
100
AcDbLine
 62
253
  6
CONTINUOUS
 10
24.2348335467
 20
27.2686142315
 11
24.297785329
 21
27.2056624492
  0
LINE
  5
47F
100
AcDbEntity
  8
RACCORDO
100
AcDbLine
 62
7
  6
CONTINUOUS
 10
24.3763767526
 20
27.209944199
 11
24.4392066852
 21
27.1471142664
  0
LINE
  5
480
100
AcDbEntity
  8
RACCORDO
100
AcDbLine
 62
7
  6
CONTINUOUS
 10
24.6895631417
 20
30.2450251486
 11
24.6066728993
 21
30.3279788158
  0
LINE
  5
481
100
AcDbEntity
  8
RACCORDO
100
AcDbLine
 62
7
  6
CONTINUOUS
 10
24.5694857788
 20
30.3650614789
 11
24.5572847928
 21
30.3773526986
  0
LINE
  5
482
100
AcDbEntity
  8
RACCORDO
100
AcDbLine
 62
7
  6
CONTINUOUS
 10
24.7194525958
 20
30.2151133066
 11
24.7100980787
 21
30.2245552369
  0
LWPOLYLINE
  5
483
100
AcDbEntity
  8
RACCORDO
100
AcDbPolyline
 62
7
  6
CONTINUOUS
 90
9
 70
0
 10
24.4392066852
 20
27.1471142664
 10
24.446412787
 20
27.1395204558
 10
24.4595850423
 20
27.1232524971
 10
24.4709839436
 20
27.1056959479
 10
24.4804845149
 20
27.0870432509
 10
24.4879825864
 20
27.0674989039
 10
24.4933959704
 20
27.0472771467
 10
24.4966653422
 20
27.0265996027
 10
24.497754868
 20
27.0056929102
  0
LWPOLYLINE
  5
484
100
AcDbEntity
  8
RACCORDO
100
AcDbPolyline
 62
7
  6
CONTINUOUS
 90
7
 70
0
 10
24.7572543319
 20
30.1773831595
 10
24.7559984154
 20
30.1789671581
 10
24.7530404569
 20
30.1818595199
 10
24.7485772462
 20
30.1860602452
 10
24.7428242707
 20
30.1917250466
 10
24.735967416
 20
30.1986982115
 10
24.7194525958
 20
30.2151133066
  0
LINE
  5
485
100
AcDbEntity
  8
DRAFT
100
AcDbLine
 62
7
  6
CONTINUOUS
 10
22.027489405
 20
-81.6039502346
 11
22.041698699
 21
-81.5917316891
  0
LWPOLYLINE
  5
486
100
AcDbEntity
  8
RACCORDO
100
AcDbPolyline
 62
7
  6
CONTINUOUS
 90
7
 70
0
 10
24.7572543319
 20
-78.8852836287
 10
24.7556703333
 20
-78.8865395452
 10
24.7527779715
 20
-78.8894975037
 10
24.7485772462
 20
-78.8939607143
 10
24.7429124448
 20
-78.8997136899
 10
24.73593928
 20
-78.9065705446
 10
24.7195241848
 20
-78.9230853648
  0
LWPOLYLINE
  5
487
100
AcDbEntity
  8
RACCORDO
100
AcDbPolyline
 62
7
  6
CONTINUOUS
 90
6
 70
0
 10
23.1806927946
 20
-78.8204510192
 10
23.1982579963
 20
-78.8090505283
 10
23.2145324058
 20
-78.7958789855
 10
23.2293412104
 20
-78.7810786903
 10
23.2425223636
 20
-78.7648114992
 10
23.2539314468
 20
-78.7472553623
  0
ARC
  5
488
100
AcDbEntity
  8
DRAFT
100
AcDbCircle
 62
7
  6
CONTINUOUS
 10
-47.472510595
 20
15.6460497654
 40
6.4
100
AcDbArc
 50
90.0
 51
270.0
  0
ARC
  5
489
100
AcDbEntity
  8
DRAFT
100
AcDbCircle
 62
7
  6
CONTINUOUS
 10
-47.472510595
 20
-64.3539502346
 40
6.4
100
AcDbArc
 50
90.0
 51
270.0
  0
ARC
  5
48A
100
AcDbEntity
  8
DRAFT
100
AcDbCircle
 62
7
  6
CONTINUOUS
 10
-47.472510595
 20
15.6460497654
 40
6.3703263896
100
AcDbArc
 50
89.733109627
 51
270.266890373
  0
ARC
  5
48B
100
AcDbEntity
  8
DRAFT
100
AcDbCircle
 62
7
  6
CONTINUOUS
 10
-47.472510595
 20
-64.3539502346
 40
6.3703263896
100
AcDbArc
 50
89.733109627
 51
270.266890373
  0
ARC
  5
48C
100
AcDbEntity
  8
DRAFT
100
AcDbCircle
 62
7
  6
CONTINUOUS
 10
-48.972510595
 20
15.6460497654
 40
2.35
100
AcDbArc
 50
70.0313601105
 51
109.9686398895
  0
ARC
  5
48D
100
AcDbEntity
  8
DRAFT
100
AcDbCircle
 62
7
  6
CONTINUOUS
 10
-48.972510595
 20
15.6460497654
 40
2.35
100
AcDbArc
 50
250.0313601105
 51
289.9686398895
  0
ARC
  5
48E
100
AcDbEntity
  8
DRAFT
100
AcDbCircle
 62
7
  6
CONTINUOUS
 10
-48.972510595
 20
-64.3539502346
 40
2.35
100
AcDbArc
 50
250.0313601105
 51
289.9686398895
  0
ARC
  5
48F
100
AcDbEntity
  8
DRAFT
100
AcDbCircle
 62
7
  6
CONTINUOUS
 10
-48.972510595
 20
-64.3539502346
 40
2.35
100
AcDbArc
 50
70.0313601105
 51
109.9686398895
  0
ARC
  5
490
100
AcDbEntity
  8
DRAFT
100
AcDbCircle
 62
7
  6
CONTINUOUS
 10
-48.972510595
 20
15.6460497654
 40
1.65
100
AcDbArc
 50
304.0986720093
 51
55.9013279907
  0
ARC
  5
491
100
AcDbEntity
  8
DRAFT
100
AcDbCircle
 62
7
  6
CONTINUOUS
 10
-48.972510595
 20
15.6460497654
 40
1.65
100
AcDbArc
 50
124.0986720093
 51
235.9013279907
  0
ARC
  5
492
100
AcDbEntity
  8
DRAFT
100
AcDbCircle
 62
7
  6
CONTINUOUS
 10
-48.972510595
 20
-64.3539502346
 40
1.65
100
AcDbArc
 50
304.0986720093
 51
55.9013279907
  0
ARC
  5
493
100
AcDbEntity
  8
DRAFT
100
AcDbCircle
 62
7
  6
CONTINUOUS
 10
-48.972510595
 20
-64.3539502346
 40
1.65
100
AcDbArc
 50
124.0986720093
 51
235.9013279907
  0
CIRCLE
  5
494
100
AcDbEntity
  8
0
100
AcDbCircle
 62
7
  6
CONTINUOUS
 10
-48.972510595
 20
-64.3539502346
 40
1.5
  0
CIRCLE
  5
495
100
AcDbEntity
  8
0
100
AcDbCircle
 62
7
  6
CONTINUOUS
 10
-48.972510595
 20
15.6460497654
 40
1.5
  0
ARC
  5
496
100
AcDbEntity
  8
0
100
AcDbCircle
 62
7
  6
CONTINUOUS
 10
-48.972510595
 20
-64.3539502346
 40
1.2
100
AcDbArc
 50
255.0
 51
195.0
  0
ARC
  5
497
100
AcDbEntity
  8
0
100
AcDbCircle
 62
7
  6
CONTINUOUS
 10
-48.972510595
 20
15.6460497654
 40
1.2
100
AcDbArc
 50
255.0
 51
195.0
  0
ELLIPSE
  5
498
100
AcDbEntity
  8
RACCORDO
100
AcDbEllipse
 62
7
  6
CONTINUOUS
 10
-41.5023059829
 20
30.177322233
 30
0.0
 11
0.2
 21
-0.0
 31
0.0
 40
0.0174550649
 41
3.1241393611
 42
3.1590459461
  0
ELLIPSE
  5
499
100
AcDbEntity
  8
RACCORDO
100
AcDbEllipse
 62
7
  6
CONTINUOUS
 10
24.5572847928
 20
-78.8852227021
 30
0.0
 11
0.2
 21
0.0
 31
0.0
 40
0.0174550649
 41
-0.0174532925
 42
0.0174532925
  0
ELLIPSE
  5
49A
100
AcDbEntity
  8
RACCORDO
100
AcDbEllipse
 62
7
  6
CONTINUOUS
 10
-41.3800070555
 20
29.4835157603
 30
0.0
 11
-0.0
 21
0.2
 31
0.0
 40
0.0174550649
 41
4.7123889804
 42
6.2657320147
  0
ELLIPSE
  5
49B
100
AcDbEntity
  8
RACCORDO
100
AcDbEllipse
 62
7
  6
CONTINUOUS
 10
24.4349858654
 20
29.4835157603
 30
0.0
 11
0.0
 21
0.2
 31
0.0
 40
0.0174550649
 41
0.7420167423
 42
1.5707963268
  0
ELLIPSE
  5
49C
100
AcDbEntity
  8
RACCORDO
100
AcDbEllipse
 62
7
  6
CONTINUOUS
 10
24.5572847928
 20
30.177322233
 30
0.0
 11
0.2
 21
0.0
 31
0.0
 40
0.0174550649
 41
-0.0174532925
 42
0.0174532925
  0
ELLIPSE
  5
49D
100
AcDbEntity
  8
RACCORDO
100
AcDbEllipse
 62
7
  6
CONTINUOUS
 10
-41.5023059829
 20
-78.8852227021
 30
0.0
 11
0.2
 21
-0.0
 31
0.0
 40
0.0174550649
 41
3.1241393611
 42
3.1590459461
  0
ELLIPSE
  5
49E
100
AcDbEntity
  8
RACCORDO
100
AcDbEllipse
 62
7
  6
CONTINUOUS
 10
27.0704769134
 20
4.8398334315
 30
0.0
 11
0.2
 21
-0.0
 31
0.0
 40
0.1405408347
 41
0.0174532925
 42
1.5707963268
  0
ELLIPSE
  5
49F
100
AcDbEntity
  8
RACCORDO
100
AcDbEllipse
 62
7
  6
CONTINUOUS
 10
27.0704769134
 20
-75.5477339007
 30
0.0
 11
0.2
 21
0.0
 31
0.0
 40
0.1405408347
 41
-1.5707963268
 42
-0.0174532925
  0
ELLIPSE
  5
4A0
100
AcDbEntity
  8
RACCORDO
100
AcDbEllipse
 62
7
  6
CONTINUOUS
 10
-44.0154981035
 20
24.8398334315
 30
0.0
 11
0.2
 21
-0.0
 31
0.0
 40
0.1405408347
 41
1.5707963268
 42
3.1241393611
  0
ELLIPSE
  5
4A1
100
AcDbEntity
  8
RACCORDO
100
AcDbEllipse
 62
7
  6
CONTINUOUS
 10
-44.0154981035
 20
-73.5477339007
 30
0.0
 11
0.2
 21
-0.0
 31
0.0
 40
0.1405408347
 41
-3.1241393611
 42
-1.5707963268
  0
ELLIPSE
  5
4A2
100
AcDbEntity
  8
RACCORDO
100
AcDbEllipse
 62
7
  6
CONTINUOUS
 10
-44.0346986749
 20
-79.7661383144
 30
0.0
 11
0.1414644378
 21
0.1414644378
 31
0.0
 40
0.9996954599
 41
2.3563467834
 42
3.9268385237
  0
ELLIPSE
  5
4A3
100
AcDbEntity
  8
RACCORDO
100
AcDbEllipse
 62
7
  6
CONTINUOUS
 10
-44.0154981035
 20
-75.1601665685
 30
0.0
 11
0.2
 21
0.0
 31
0.0
 40
0.1405408347
 41
1.5707963268
 42
3.1241393611
  0
ELLIPSE
  5
4A4
100
AcDbEntity
  8
RACCORDO
100
AcDbEllipse
 62
7
  6
CONTINUOUS
 10
-44.0346986749
 20
31.0582378453
 30
0.0
 11
0.1414644378
 21
-0.1414644378
 31
0.0
 40
0.9996954599
 41
2.3563467834
 42
3.9268385237
  0
ELLIPSE
  5
4A5
100
AcDbEntity
  8
RACCORDO
100
AcDbEllipse
 62
7
  6
CONTINUOUS
 10
-44.0154981035
 20
26.4522660993
 30
0.0
 11
0.2
 21
0.0
 31
0.0
 40
0.1405408347
 41
-3.1241393611
 42
-1.5707963268
  0
ELLIPSE
  5
4A6
100
AcDbEntity
  8
DRAFT
100
AcDbEllipse
 62
7
  6
CONTINUOUS
 10
25.827489405
 20
31.2387186381
 30
0.0
 11
0.1
 21
0.0
 31
0.0
 40
0.0174550649
 41
0.3490658504
 42
2.7925268032
  0
ELLIPSE
  5
4A7
100
AcDbEntity
  8
DRAFT
100
AcDbEllipse
 62
7
  6
CONTINUOUS
 10
25.127489405
 20
31.2387186381
 30
0.0
 11
0.1
 21
0.0
 31
0.0
 40
0.0174550649
 41
0.3490658504
 42
2.7925268032
  0
ELLIPSE
  5
4A8
100
AcDbEntity
  8
RACCORDO
100
AcDbEllipse
 62
7
  6
CONTINUOUS
 10
24.3264383583
 20
31.1450748827
 30
0.0
 11
0.5
 21
0.0
 31
0.0
 40
0.0174550649
 41
5.7519026441
 42
6.2657320147
  0
ELLIPSE
  5
4A9
100
AcDbEntity
  8
RACCORDO
100
AcDbEllipse
 62
7
  6
CONTINUOUS
 10
-41.2714595483
 20
31.1450748827
 30
0.0
 11
0.5
 21
-0.0
 31
0.0
 40
0.0174550649
 41
-3.1241393611
 42
-2.6103099891
  0
ELLIPSE
  5
4AA
100
AcDbEntity
  8
DRAFT
100
AcDbEllipse
 62
7
  6
CONTINUOUS
 10
-42.072510595
 20
31.2387186381
 30
0.0
 11
0.1
 21
0.0
 31
0.0
 40
0.0174550649
 41
0.3490658504
 42
2.7925268032
  0
ELLIPSE
  5
4AB
100
AcDbEntity
  8
DRAFT
100
AcDbEllipse
 62
7
  6
CONTINUOUS
 10
-42.772510595
 20
31.2387186381
 30
0.0
 11
0.1
 21
0.0
 31
0.0
 40
0.0174550649
 41
0.3490658504
 42
2.7925268032
  0
ELLIPSE
  5
4AC
100
AcDbEntity
  8
DRAFT
100
AcDbEllipse
 62
7
  6
CONTINUOUS
 10
-42.772510595
 20
-79.9466191073
 30
0.0
 11
0.1
 21
0.0
 31
0.0
 40
0.0174550649
 41
-2.7925268032
 42
-0.3490658504
  0
ELLIPSE
  5
4AD
100
AcDbEntity
  8
DRAFT
100
AcDbEllipse
 62
7
  6
CONTINUOUS
 10
-42.072510595
 20
-79.9466191073
 30
0.0
 11
0.1
 21
0.0
 31
0.0
 40
0.0174550649
 41
-2.7925268032
 42
-0.3490658504
  0
ELLIPSE
  5
4AE
100
AcDbEntity
  8
RACCORDO
100
AcDbEllipse
 62
7
  6
CONTINUOUS
 10
-41.2714595483
 20
-79.8529753519
 30
0.0
 11
0.5
 21
-0.0
 31
0.0
 40
0.0174550649
 41
8.8934952963
 42
9.4073246682
  0
ELLIPSE
  5
4AF
100
AcDbEntity
  8
RACCORDO
100
AcDbEllipse
 62
7
  6
CONTINUOUS
 10
24.3264383583
 20
-79.8529753519
 30
0.0
 11
0.5
 21
0.0
 31
0.0
 40
0.0174550649
 41
0.0174532925
 42
0.5312826631
  0
ELLIPSE
  5
4B0
100
AcDbEntity
  8
DRAFT
100
AcDbEllipse
 62
7
  6
CONTINUOUS
 10
25.127489405
 20
-79.9466191073
 30
0.0
 11
0.1
 21
-0.0
 31
0.0
 40
0.0174550649
 41
-2.7925268032
 42
-0.3490658504
  0
ELLIPSE
  5
4B1
100
AcDbEntity
  8
DRAFT
100
AcDbEllipse
 62
7
  6
CONTINUOUS
 10
25.827489405
 20
-79.9466191073
 30
0.0
 11
0.1
 21
0.0
 31
0.0
 40
0.0174550649
 41
-2.7925268032
 42
-0.3490658504
  0
ELLIPSE
  5
4B2
100
AcDbEntity
  8
RACCORDO
100
AcDbEllipse
 62
7
  6
CONTINUOUS
 10
27.0704769134
 20
-77.1601665685
 30
0.0
 11
0.2
 21
0.0
 31
0.0
 40
0.1405408347
 41
0.0174532925
 42
1.5707963268
  0
ELLIPSE
  5
4B3
100
AcDbEntity
  8
RACCORDO
100
AcDbEllipse
 62
7
  6
CONTINUOUS
 10
27.0896774848
 20
-79.7661383144
 30
0.0
 11
0.1414644378
 21
-0.1414644378
 31
0.0
 40
0.9996954599
 41
-0.7852458701
 42
0.7852458701
  0
ELLIPSE
  5
4B4
100
AcDbEntity
  8
RACCORDO
100
AcDbEllipse
 62
7
  6
CONTINUOUS
 10
27.0704769134
 20
6.4522660993
 30
0.0
 11
0.2
 21
-0.0
 31
0.0
 40
0.1405408347
 41
-1.5707963268
 42
-0.0174532925
  0
ELLIPSE
  5
4B5
100
AcDbEntity
  8
RACCORDO
100
AcDbEllipse
 62
7
  6
CONTINUOUS
 10
27.0896774848
 20
31.0582378453
 30
0.0
 11
0.1414644378
 21
0.1414644378
 31
0.0
 40
0.9996954599
 41
-0.7852458701
 42
0.7852458701
  0
ELLIPSE
  5
4B6
100
AcDbEntity
  8
RACCORDO
100
AcDbEllipse
 62
7
  6
CONTINUOUS
 10
-49.7713646438
 20
11.7471957167
 30
0.0
 11
0.2137495824
 21
0.2137495824
 31
0.0
 40
0.9924325091
 41
2.3599925885
 42
3.9231927187
  0
ELLIPSE
  5
4B7
100
AcDbEntity
  8
RACCORDO
100
AcDbEllipse
 62
7
  6
CONTINUOUS
 10
-48.1736565463
 20
11.7471957167
 30
0.0
 11
0.2137495824
 21
-0.2137495824
 31
0.0
 40
0.9924325091
 41
-0.7816000651
 42
0.7816000651
  0
ELLIPSE
  5
4B8
100
AcDbEntity
  8
RACCORDO
100
AcDbEllipse
 62
7
  6
CONTINUOUS
 10
-48.1736565463
 20
19.5449038142
 30
0.0
 11
0.2137495824
 21
0.2137495824
 31
0.0
 40
0.9924325091
 41
-0.7816000651
 42
0.7816000651
  0
ELLIPSE
  5
4B9
100
AcDbEntity
  8
RACCORDO
100
AcDbEllipse
 62
7
  6
CONTINUOUS
 10
-49.7713646438
 20
19.5449038142
 30
0.0
 11
0.2137495824
 21
-0.2137495824
 31
0.0
 40
0.9924325091
 41
2.3599925885
 42
3.9231927187
  0
ELLIPSE
  5
4BA
100
AcDbEntity
  8
RACCORDO
100
AcDbEllipse
 62
7
  6
CONTINUOUS
 10
-48.1736565463
 20
-68.2528042833
 30
0.0
 11
0.2137495824
 21
-0.2137495824
 31
0.0
 40
0.9924325091
 41
-0.7816000651
 42
0.7816000651
  0
ELLIPSE
  5
4BB
100
AcDbEntity
  8
RACCORDO
100
AcDbEllipse
 62
7
  6
CONTINUOUS
 10
-49.7713646438
 20
-68.2528042833
 30
0.0
 11
0.2137495824
 21
0.2137495824
 31
0.0
 40
0.9924325091
 41
-3.9231927187
 42
-2.3599925885
  0
ELLIPSE
  5
4BC
100
AcDbEntity
  8
RACCORDO
100
AcDbEllipse
 62
7
  6
CONTINUOUS
 10
-48.1736565463
 20
-60.4550961858
 30
0.0
 11
0.2137495824
 21
0.2137495824
 31
0.0
 40
0.9924325091
 41
-0.7816000651
 42
0.7816000651
  0
ELLIPSE
  5
4BD
100
AcDbEntity
  8
RACCORDO
100
AcDbEllipse
 62
7
  6
CONTINUOUS
 10
-49.7713646438
 20
-60.4550961858
 30
0.0
 11
0.2137495824
 21
-0.2137495824
 31
0.0
 40
0.9924325091
 41
2.3599925885
 42
3.9231927187
  0
ELLIPSE
  5
4BE
100
AcDbEntity
  8
RACCORDO
100
AcDbEllipse
 62
7
  6
CONTINUOUS
 10
-46.9427608206
 20
32.366299991
 30
0.0
 11
0.3536610946
 21
-0.3536610946
 31
0.0
 40
0.9996954599
 41
2.3563467834
 42
3.9268385237
  0
ELLIPSE
  5
4BF
100
AcDbEntity
  8
RACCORDO
100
AcDbEllipse
 62
7
  6
CONTINUOUS
 10
-46.9427608206
 20
-81.0742004602
 30
0.0
 11
-0.3536610946
 21
-0.3536610946
 31
0.0
 40
0.9996954599
 41
-0.7852458701
 42
0.7852458701
  0
ELLIPSE
  5
4C0
100
AcDbEntity
  8
RACCORDO
100
AcDbEllipse
 62
7
  6
CONTINUOUS
 10
-49.4739031878
 20
12.0446571727
 30
0.0
 11
0.2137495824
 21
0.2137495824
 31
0.0
 40
0.9924325091
 41
2.3599925885
 42
3.9231927187
  0
ELLIPSE
  5
4C1
100
AcDbEntity
  8
RACCORDO
100
AcDbEllipse
 62
7
  6
CONTINUOUS
 10
-48.4711180023
 20
12.0446571727
 30
0.0
 11
-0.2137495824
 21
0.2137495824
 31
0.0
 40
0.9924325091
 41
2.3599925885
 42
3.9231927187
  0
ELLIPSE
  5
4C2
100
AcDbEntity
  8
RACCORDO
100
AcDbEllipse
 62
7
  6
CONTINUOUS
 10
-48.4711180023
 20
19.2474423582
 30
0.0
 11
-0.2137495824
 21
-0.2137495824
 31
0.0
 40
0.9924325091
 41
2.3599925885
 42
3.9231927187
  0
ELLIPSE
  5
4C3
100
AcDbEntity
  8
RACCORDO
100
AcDbEllipse
 62
7
  6
CONTINUOUS
 10
-49.4739031878
 20
19.2474423582
 30
0.0
 11
0.2137495824
 21
-0.2137495824
 31
0.0
 40
0.9924325091
 41
2.3599925885
 42
3.9231927187
  0
ELLIPSE
  5
4C4
100
AcDbEntity
  8
RACCORDO
100
AcDbEllipse
 62
7
  6
CONTINUOUS
 10
-48.4711180023
 20
-67.9553428273
 30
0.0
 11
-0.2137495824
 21
0.2137495824
 31
0.0
 40
0.9924325091
 41
2.3599925885
 42
3.9231927187
  0
ELLIPSE
  5
4C5
100
AcDbEntity
  8
RACCORDO
100
AcDbEllipse
 62
7
  6
CONTINUOUS
 10
-49.4739031878
 20
-67.9553428273
 30
0.0
 11
0.2137495824
 21
0.2137495824
 31
0.0
 40
0.9924325091
 41
2.3599925885
 42
3.9231927187
  0
ELLIPSE
  5
4C6
100
AcDbEntity
  8
RACCORDO
100
AcDbEllipse
 62
7
  6
CONTINUOUS
 10
-48.4711180023
 20
-60.7525576418
 30
0.0
 11
-0.2137495824
 21
-0.2137495824
 31
0.0
 40
0.9924325091
 41
2.3599925885
 42
3.9231927187
  0
ELLIPSE
  5
4C7
100
AcDbEntity
  8
RACCORDO
100
AcDbEllipse
 62
7
  6
CONTINUOUS
 10
-49.4739031878
 20
-60.7525576418
 30
0.0
 11
0.2137495824
 21
-0.2137495824
 31
0.0
 40
0.9924325091
 41
2.3599925885
 42
3.9231927187
  0
ELLIPSE
  5
4C8
100
AcDbEntity
  8
RACCORDO
100
AcDbEllipse
 62
7
  6
CONTINUOUS
 10
28.5151946955
 20
32.3837550559
 30
0.0
 11
0.3536610946
 21
0.3536610946
 31
0.0
 40
0.9996954599
 41
-0.7852458701
 42
0.7852458701
  0
ELLIPSE
  5
4C9
100
AcDbEntity
  8
RACCORDO
100
AcDbEllipse
 62
7
  6
CONTINUOUS
 10
27.5151946955
 20
-81.0916555251
 30
0.0
 11
0.3536610946
 21
-0.3536610946
 31
0.0
 40
0.9996954599
 41
-0.7852458701
 42
0.7852458701
  0
ENDSEC
  0
SECTION
  2
OBJECTS
  0
DICTIONARY
  5
C
100
AcDbDictionary
280
0
281
1
  3
ACAD_GROUP
350
D
  3
ACAD_MLINESTYLE
350
17
  3
ACAD_LAYOUT
350
1A
  3
ACAD_PLOTSETTINGS
350
19
  3
ACAD_PLOTSTYLENAME
350
E
  0
DICTIONARY
  5
D
102
{ACAD_REACTORS
330
C
102
}
100
AcDbDictionary
280
0
281
1
  0
ACDBDICTIONARYWDFLT
  5
E
102
{ACAD_REACTORS
330
C
102
}
100
AcDbDictionary
281
1
  3
Normal
350
F
100
AcDbDictionaryWithDefault
340
F
  0
DICTIONARY
  5
17
102
{ACAD_REACTORS
330
C
102
}
100
AcDbDictionary
280
0
281
1
  3
Standard
350
18
  0
DICTIONARY
  5
19
102
{ACAD_REACTORS
330
C
102
}
100
AcDbDictionary
281
1
  0
DICTIONARY
  5
1A
102
{ACAD_REACTORS
330
C
102
}
100
AcDbDictionary
281
1
  3
Model
350
4CA
  3
Layout1
350
4CB
  0
ACDBPLACEHOLDER
  5
F
102
{ACAD_REACTORS
330
E
102
}
  0
MLINESTYLE
  5
18
102
{ACAD_REACTORS
330
17
102
}
100
AcDbMlineStyle
  2
STANDARD
 70
0
  3

 62
256
 51
90.0
 52
90.0
 71
2
 49
0.5
 62
256
  6
BYLAYER
 49
-0.5
 62
256
  6
BYLAYER
  0
LAYOUT
  5
4CA
102
{ACAD_REACTORS
330
1A
102
}
100
AcDbPlotSettings
  1

  2
none_device
  4
ISO_A4_(297.00_x_210.00_MM)
  6

 40
0.0
 41
0.0
 42
0.0
 43
0.0
 44
297.0
 45
210.0
 46
0.0
 47
0.0
 48
0.0
 49
0.0
140
0.0
141
0.0
142
1.0
143
1.0
 70
1024
 72
1
 73
0
 74
0
  7

 75
0
147
1.0
148
0.0
149
0.0
100
AcDbLayout
  1
Model
 70
0
 71
0
 10
0.0
 20
0.0
 11
297.0
 21
210.0
 12
0.0
 22
0.0
 32
0.0
 14
0.0
 24
0.0
 34
0.0
 15
0.0
 25
0.0
 35
0.0
146
0.0
 13
0.0
 23
0.0
 33
0.0
 16
1.0
 26
0.0
 36
0.0
 17
0.0
 27
1.0
 37
0.0
 76
0
330
20F
345
0
346
0
  0
LAYOUT
  5
4CB
102
{ACAD_REACTORS
330
1A
102
}
100
AcDbPlotSettings
  1

  2
none_device
  4
ISO_A4_(297.00_x_210.00_MM)
  6

 40
0.0
 41
0.0
 42
0.0
 43
0.0
 44
297.0
 45
210.0
 46
0.0
 47
0.0
 48
0.0
 49
0.0
140
0.0
141
0.0
142
1.0
143
1.0
 70
0
 72
1
 73
0
 74
0
  7

 75
0
147
1.0
148
0.0
149
0.0
100
AcDbLayout
  1
Layout1
 70
0
 71
1
 10
0.0
 20
0.0
 11
297.0
 21
210.0
 12
0.0
 22
0.0
 32
0.0
 14
0.0
 24
0.0
 34
0.0
 15
0.0
 25
0.0
 35
0.0
146
0.0
 13
0.0
 23
0.0
 33
0.0
 16
1.0
 26
0.0
 36
0.0
 17
0.0
 27
1.0
 37
0.0
 76
0
330
210
345
0
346
0
  0
ENDSEC
  0
EOF
