  0
SECTION
  2
HEADER
  9
$ACADVER
  1
AC1021
  9
$DWGCODEPAGE
  3
ANSI_1252
  9
$EXTMAX
 10
420.0
 20
297.0
 30
0.0
  9
$EXTMIN
 10
0.0
 20
-0.0
 30
0.0
  9
$LIMMIN
 10
0.0
 20
-0.0
  9
$LIMMAX
 10
420.0
 20
297.0
  9
$VIEWCTR
 10
210.0
 20
148.5
  9
$VIEWSIZE
 40
297.0
  9
$CLAYER
  8
0
  9
$LTSCALE
 40
23.1
  9
$CELTYPE
  6
BYLAYER
  9
$DIMSCALE
 40
1.0
  9
$DIMASZ
 40
3.0
  9
$DIMEXO
 40
0.5
  9
$DIMDLI
 40
15.96
  9
$DIMEXE
 40
1.5
  9
$DIMCEN
 40
3.78
  9
$DIMLFAC
 40
1.0
  9
$DIMBLK
  1
_FILLED
  9
$DIMALT
 70
0
  9
$DIMALTF
 40
25.4
  9
$DIMTXT
 40
3.0
  9
$DIMTOL
 70
1
  9
$DIMLIM
 70
0
  9
$DIMTFAC
 40
1.0
  9
$DIMTP
 40
0.01
  9
$DIMTM
 40
0.01
  9
$DIMGAP
 40
0.625
  9
$DIMDSEP
 70
44
  9
$AUNITS
 70
0
  9
$PDMODE
 70
3
  9
$PDSIZE
 40
3.0
  9
$HANDSEED
  5
385
  9
$TILEMODE
 70
1
  9
$MEASUREMENT
 70
1
  9
$INSUNITS
 70
4
  0
ENDSEC
  0
SECTION
  2
CLASSES
  0
CLASS
  1
ACDBDICTIONARYWDFLT
  2
AcDbDictionaryWithDefault
  3
AutoCAD 2000
 90
0
 91
1
280
0
281
0
  0
CLASS
  1
ACDBPLACEHOLDER
  2
AcDbPlaceHolder
  3
AutoCAD 2000
 90
0
 91
1
280
0
281
0
  0
CLASS
  1
LAYOUT
  2
AcDbLayout
  3
AutoCAD 2000
 90
0
 91
0
280
0
281
0
  0
ENDSEC
  0
SECTION
  2
TABLES
  0
TABLE
  2
VPORT
  5
8
100
AcDbSymbolTable
 70
2
  0
VPORT
  5
1F4
100
AcDbSymbolTableRecord
100
AcDbViewportTableRecord
  2
*ACTIVE
 70
0
 10
0.0
 20
0.0
 11
1.0
 21
1.0
 12
210.0
 22
148.5
 13
0.0
 23
0.0
 14
1.0
 24
1.0
 15
0.0
 25
0.0
 16
0.0
 26
0.0
 36
1.0
 17
0.0
 27
0.0
 37
0.0
 40
297.0
 41
1.4141414141
 42
50.0
 43
0.0
 44
0.0
 50
0.0
 51
0.0
 71
0
 72
100
 73
1
 74
1
 75
0
 76
0
 77
0
 78
0
  0
ENDTAB
  0
TABLE
  2
LTYPE
  5
5
100
AcDbSymbolTable
 70
6
  0
LTYPE
  5
14
100
AcDbSymbolTableRecord
100
AcDbLinetypeTableRecord
  2
BYBLOCK
 70
0
  3

 72
65
 73
0
 40
0.0
  0
LTYPE
  5
15
100
AcDbSymbolTableRecord
100
AcDbLinetypeTableRecord
  2
BYLAYER
 70
0
  3

 72
65
 73
0
 40
0.0
  0
LTYPE
  5
16
100
AcDbSymbolTableRecord
100
AcDbLinetypeTableRecord
  2
CONTINUOUS
 70
64
  3
Solid line
 72
65
 73
0
 40
0.0
  0
LTYPE
  5
1F5
100
AcDbSymbolTableRecord
100
AcDbLinetypeTableRecord
  2
CENTER
 70
64
  3
____ _ ____ _ ____ _ ____ _ ____ _ ____ _ ____
 72
65
 73
4
 40
0.6
 49
0.375
 74
0
 49
-0.075
 74
0
 49
0.075
 74
0
 49
-0.075
 74
0
  0
LTYPE
  5
1F6
100
AcDbSymbolTableRecord
100
AcDbLinetypeTableRecord
  2
HIDDEN
 70
64
  3
- - - - - - - - - - - - - - - - - - - -
 72
65
 73
2
 40
0.2
 49
0.1
 74
0
 49
-0.1
 74
0
  0
LTYPE
  5
1F7
100
AcDbSymbolTableRecord
100
AcDbLinetypeTableRecord
  2
PHANTOM
 70
64
  3
_____ _ _ _____ _ _ _____ _ _ _____
 72
65
 73
6
 40
0.8
 49
0.45
 74
0
 49
-0.05
 74
0
 49
0.1
 74
0
 49
-0.05
 74
0
 49
0.1
 74
0
 49
-0.05
 74
0
  0
LTYPE
  5
1F8
100
AcDbSymbolTableRecord
100
AcDbLinetypeTableRecord
  2
DOT
 70
64
  3
. . . . . . . . . . . . . . . . . . . .
 72
65
 73
2
 40
0.2
 49
0.1
 74
0
 49
-0.1
 74
0
  0
LTYPE
  5
1F9
100
AcDbSymbolTableRecord
100
AcDbLinetypeTableRecord
  2
DASHED
 70
64
  3
- - - - - - - - - - - - - - - - - - - -
 72
65
 73
2
 40
0.2
 49
0.1
 74
0
 49
-0.1
 74
0
  0
ENDTAB
  0
TABLE
  2
LAYER
  5
2
100
AcDbSymbolTable
 70
36
  0
LAYER
  5
10
100
AcDbSymbolTableRecord
100
AcDbLayerTableRecord
  2
0
 70
0
 62
7
  6
CONTINUOUS
370
-3
390
F
  0
LAYER
  5
1FA
100
AcDbSymbolTableRecord
100
AcDbLayerTableRecord
  2
DEFAULT_1
 70
0
 62
7
  6
CENTER
370
-3
390
F
  0
LAYER
  5
1FB
100
AcDbSymbolTableRecord
100
AcDbLayerTableRecord
  2
DEFAULT_2
 70
0
 62
7
  6
HIDDEN
370
-3
390
F
  0
LAYER
  5
1FC
100
AcDbSymbolTableRecord
100
AcDbLayerTableRecord
  2
DEFAULT_3
 70
0
 62
7
  6
PHANTOM
370
-3
390
F
  0
LAYER
  5
1FD
100
AcDbSymbolTableRecord
100
AcDbLayerTableRecord
  2
ASSI
 70
0
 62
7
  6
CONTINUOUS
370
-3
390
F
  0
LAYER
  5
1FE
100
AcDbSymbolTableRecord
100
AcDbLayerTableRecord
  2
COLOR5
 70
0
 62
7
  6
CONTINUOUS
370
-3
390
F
  0
LAYER
  5
1FF
100
AcDbSymbolTableRecord
100
AcDbLayerTableRecord
  2
COORDINATE
 70
0
 62
7
  6
CONTINUOUS
370
-3
390
F
  0
LAYER
  5
200
100
AcDbSymbolTableRecord
100
AcDbLayerTableRecord
  2
COORD_ORIGINE
 70
0
 62
7
  6
CONTINUOUS
370
-3
390
F
  0
LAYER
  5
201
100
AcDbSymbolTableRecord
100
AcDbLayerTableRecord
  2
COPY_PUBLISH
 70
0
 62
7
  6
CONTINUOUS
370
-3
390
F
  0
LAYER
  5
202
100
AcDbSymbolTableRecord
100
AcDbLayerTableRecord
  2
COSMETICI
 70
0
 62
7
  6
CONTINUOUS
370
-3
390
F
  0
LAYER
  5
203
100
AcDbSymbolTableRecord
100
AcDbLayerTableRecord
  2
CURVE
 70
0
 62
7
  6
CONTINUOUS
370
-3
390
F
  0
LAYER
  5
204
100
AcDbSymbolTableRecord
100
AcDbLayerTableRecord
  2
DRAFT
 70
0
 62
7
  6
CONTINUOUS
370
-3
390
F
  0
LAYER
  5
205
100
AcDbSymbolTableRecord
100
AcDbLayerTableRecord
  2
IMPORT_IGES
 70
0
 62
7
  6
CONTINUOUS
370
-3
390
F
  0
LAYER
  5
206
100
AcDbSymbolTableRecord
100
AcDbLayerTableRecord
  2
NOTE
 70
0
 62
7
  6
CONTINUOUS
370
-3
390
F
  0
LAYER
  5
207
100
AcDbSymbolTableRecord
100
AcDbLayerTableRecord
  2
PIANI
 70
0
 62
7
  6
CONTINUOUS
370
-3
390
F
  0
LAYER
  5
208
100
AcDbSymbolTableRecord
100
AcDbLayerTableRecord
  2
PIANI_ORIGINE
 70
0
 62
7
  6
CONTINUOUS
370
-3
390
F
  0
LAYER
  5
209
100
AcDbSymbolTableRecord
100
AcDbLayerTableRecord
  2
PUNTI
 70
0
 62
7
  6
CONTINUOUS
370
-3
390
F
  0
LAYER
  5
20A
100
AcDbSymbolTableRecord
100
AcDbLayerTableRecord
  2
RACCORDO
 70
0
 62
7
  6
CONTINUOUS
370
-3
390
F
  0
LAYER
  5
20B
100
AcDbSymbolTableRecord
100
AcDbLayerTableRecord
  2
SIMBOLI
 70
0
 62
7
  6
CONTINUOUS
370
-3
390
F
  0
LAYER
  5
20C
100
AcDbSymbolTableRecord
100
AcDbLayerTableRecord
  2
SMUSSO
 70
0
 62
7
  6
CONTINUOUS
370
-3
390
F
  0
LAYER
  5
20D
100
AcDbSymbolTableRecord
100
AcDbLayerTableRecord
  2
SNAPLINE
 70
0
 62
7
  6
CONTINUOUS
370
-3
390
F
  0
LAYER
  5
20E
100
AcDbSymbolTableRecord
100
AcDbLayerTableRecord
  2
SUPERFICI
 70
0
 62
7
  6
CONTINUOUS
370
-3
390
F
  0
LAYER
  5
20F
100
AcDbSymbolTableRecord
100
AcDbLayerTableRecord
  2
TRASH
 70
0
 62
7
  6
CONTINUOUS
370
-3
390
F
  0
ENDTAB
  0
TABLE
  2
STYLE
  5
3
100
AcDbSymbolTable
 70
1
  0
STYLE
  5
11
100
AcDbSymbolTableRecord
100
AcDbTextStyleTableRecord
  2
STANDARD
 70
0
 40
0.0
 41
0.8
 50
0.0
 71
0
 42
0.2
  3
txt
  4

  0
STYLE
  5
210
100
AcDbSymbolTableRecord
100
AcDbTextStyleTableRecord
  2
TEXTSTYLE_1
 70
0
 40
0.0
 41
0.8
 50
0.0
 71
0
 42
0.2
  3
gdt
  4

  0
ENDTAB
  0
TABLE
  2
VIEW
  5
6
100
AcDbSymbolTable
 70
0
  0
ENDTAB
  0
TABLE
  2
UCS
  5
7
100
AcDbSymbolTable
 70
0
  0
ENDTAB
  0
TABLE
  2
APPID
  5
9
100
AcDbSymbolTable
 70
1
  0
APPID
  5
211
100
AcDbSymbolTableRecord
100
AcDbRegAppTableRecord
  2
ACAD
 70
0
  0
ENDTAB
  0
TABLE
  2
BLOCK_RECORD
  5
1
100
AcDbSymbolTable
 70
0
  0
BLOCK_RECORD
  5
212
100
AcDbSymbolTableRecord
100
AcDbBlockTableRecord
  2
*Model_Space
  0
BLOCK_RECORD
  5
213
100
AcDbSymbolTableRecord
100
AcDbBlockTableRecord
  2
*Paper_Space
  0
ENDTAB
  0
TABLE
  2
DIMSTYLE
  5
A
100
AcDbSymbolTable
 70
1
100
AcDbDimStyleTable
 71
0
  0
DIMSTYLE
105
214
100
AcDbSymbolTableRecord
100
AcDbDimStyleTableRecord
  2
STANDARD
 70
0
  3

  4

 40
1.0
 41
3.0
 42
0.5
 43
0.38
 44
1.5
 45
0.0
 46
0.0
 47
0.01
 48
0.01
140
3.0
141
0.09
142
0.0
143
25.4
144
1.0
145
0.0
146
1.0
147
0.625
 71
1.0
 72
0.0
 73
0
 74
0
 75
0
 76
0
 77
1
 78
8
170
0
171
1
172
0
173
0
174
0
175
0
176
0
177
0
178
0
270
2
271
2
272
2
273
2
274
2
275
0
280
0
281
0
282
0
283
1
284
8
285
0
286
0
287
3
288
0
340
11
278
44
  0
ENDTAB
  0
ENDSEC
  0
SECTION
  2
BLOCKS
  0
BLOCK
  5
20
100
AcDbEntity
  8
0
100
AcDbBlockBegin
  2
*Model_Space
 70
0
 10
0.0
 20
0.0
 30
0.0
  3
*Model_Space
  1

  0
ENDBLK
  5
21
100
AcDbEntity
  8
0
100
AcDbBlockEnd
  0
BLOCK
  5
1C
100
AcDbEntity
  8
0
100
AcDbBlockBegin
  2
*Paper_Space
 70
0
 10
0.0
 20
0.0
 30
0.0
  3
*Paper_Space
  1

  0
ENDBLK
  5
1D
100
AcDbEntity
  8
0
100
AcDbBlockEnd
  0
ENDSEC
  0
SECTION
  2
ENTITIES
  0
LINE
  5
215
100
AcDbEntity
  8
ASSI
100
AcDbLine
 62
7
  6
CONTINUOUS
 10
-81.0978543528
 20
-37.8544342202
 11
-89.8210200819
 21
67.6537588586
  0
LWPOLYLINE
  5
216
100
AcDbEntity
  8
ASSI
100
AcDbPolyline
 62
7
  6
CONTINUOUS
 90
28
 70
0
 10
-74.9
 20
-48.7098877917
 10
-74.8986085462
 20
-48.7429628367
 10
-74.8945572803
 20
-48.7757062511
 10
-74.8878462024
 20
-48.8081180348
 10
-74.8784346962
 20
-48.8403053726
 10
-74.866363378
 20
-48.8721610797
 10
-74.8517540966
 20
-48.9033636018
 10
-74.8345811473
 20
-48.9339063234
 10
-74.8148702349
 20
-48.96379586
 10
-74.792820323
 20
-48.9927305041
 10
-74.768407722
 20
-49.0207005844
 10
-74.7416561215
 20
-49.0477157722
 10
-74.7128355545
 20
-49.0735033738
 10
-74.6819250662
 20
-49.098050956
 10
-74.6489456115
 20
-49.1213709521
 10
-74.6142300877
 20
-49.143227968
 10
-74.5777609118
 20
-49.1636071863
 10
-74.5395556669
 20
-49.1825234245
 10
-74.5
 20
-49.1997857402
 10
-74.4590802339
 20
-49.2153773824
 10
-74.4168100458
 20
-49.2293151023
 10
-74.3736161147
 20
-49.2414582112
 10
-74.3294890847
 20
-49.2517885331
 10
-74.2844383117
 20
-49.2603242441
 10
-74.2389185421
 20
-49.2669791839
 10
-74.193081358
 20
-49.2717246326
 10
-74.1467751773
 20
-49.2745893102
 10
-74.1
 20
-49.2755732166
  0
LINE
  5
217
100
AcDbEntity
  8
ASSI
100
AcDbLine
 62
7
  6
CONTINUOUS
 10
-74.9
 20
-55.7809556035
 11
-74.9
 21
-41.3483661051
  0
LINE
  5
218
100
AcDbEntity
  8
ASSI
100
AcDbLine
 62
253
  6
CONTINUOUS
 10
-74.1
 20
-56.3466410285
 11
-74.1
 21
-49.2755732166
  0
LINE
  5
219
100
AcDbEntity
  8
ASSI
100
AcDbLine
 62
7
  6
CONTINUOUS
 10
57.5
 20
-69.8256040586
 11
-57.5
 21
-69.8256040586
  0
LWPOLYLINE
  5
21A
100
AcDbEntity
  8
ASSI
100
AcDbPolyline
 62
7
  6
CONTINUOUS
 90
30
 70
0
 10
-57.5361440706
 20
-57.4932649782
 10
-57.5564087828
 20
-57.4273941783
 10
-57.5810140528
 20
-57.362424588
 10
-57.6099893343
 20
-57.2983623226
 10
-57.6433051735
 20
-57.2352012667
 10
-57.6807360093
 20
-57.1733690454
 10
-57.7223097647
 20
-57.1128746759
 10
-57.7679985166
 20
-57.0537091409
 10
-57.8174929343
 20
-56.9962730144
 10
-57.8708188419
 20
-56.9405780316
 10
-57.9279504153
 20
-56.8866124573
 10
-57.9885008513
 20
-56.8347416594
 10
-58.0524933493
 20
-56.7849798526
 10
-58.1199047101
 20
-56.7373128224
 10
-58.1902785321
 20
-56.692063293
 10
-58.2636349179
 20
-56.6492476691
 10
-58.3399537651
 20
-56.6088495462
 10
-58.4187183651
 20
-56.5711424353
 10
-58.4999453142
 20
-56.5361445969
 10
-58.5836180161
 20
-56.5038377706
 10
-58.669169974
 20
-56.4744406863
 10
-58.7566139399
 20
-56.4479730885
 10
-58.8459371617
 20
-56.4244152326
 10
-58.9365348863
 20
-56.4039266146
 10
-59.0284157621
 20
-56.3865280613
 10
-59.1215711406
 20
-56.3721987459
 10
-59.2153703235
 20
-56.3610356834
 10
-59.3096030779
 20
-56.3530712122
 10
-59.4044796368
 20
-56.3482729939
 10
-59.5
 20
-56.3466410285
  0
LINE
  5
21B
100
AcDbEntity
  8
ASSI
100
AcDbLine
 62
7
  6
CONTINUOUS
 10
-57.5203571162
 20
-57.5595910164
 11
-57.5361440706
 21
-57.4932649782
  0
LINE
  5
21C
100
AcDbEntity
  8
ASSI
100
AcDbLine
 62
7
  6
CONTINUOUS
 10
-57.5
 20
-47.6814481813
 11
-79.7886953819
 21
-39.5690265017
  0
LINE
  5
21D
100
AcDbEntity
  8
ASSI
100
AcDbLine
 62
253
  6
CONTINUOUS
 10
-59.5
 20
-49.2755732166
 11
-59.5
 21
-56.3466410285
  0
LINE
  5
21E
100
AcDbEntity
  8
ASSI
100
AcDbLine
 62
7
  6
CONTINUOUS
 10
-57.5
 20
-69.825630579
 11
-57.5
 21
-47.6814481813
  0
LWPOLYLINE
  5
21F
100
AcDbEntity
  8
ASSI
100
AcDbPolyline
 62
7
  6
CONTINUOUS
 90
30
 70
0
 10
59.5
 20
-56.3466410285
 10
59.4044796368
 20
-56.3482729939
 10
59.3096030779
 20
-56.3530712122
 10
59.2153703235
 20
-56.3610356834
 10
59.1215711406
 20
-56.3721987459
 10
59.0284157621
 20
-56.3865280613
 10
58.9365348863
 20
-56.4039266146
 10
58.8459371617
 20
-56.4244152326
 10
58.7566139399
 20
-56.4479730885
 10
58.669169974
 20
-56.4744406863
 10
58.5836180161
 20
-56.5038377706
 10
58.4999453142
 20
-56.5361445969
 10
58.4187183651
 20
-56.5711424353
 10
58.3399537651
 20
-56.6088495462
 10
58.2636349179
 20
-56.6492476691
 10
58.1902785321
 20
-56.692063293
 10
58.1199047101
 20
-56.7373128224
 10
58.0524933493
 20
-56.7849798526
 10
57.9885008513
 20
-56.8347416594
 10
57.9279504153
 20
-56.8866124573
 10
57.8708188419
 20
-56.9405780316
 10
57.8174929343
 20
-56.9962730144
 10
57.7679985166
 20
-57.0537091409
 10
57.7223097647
 20
-57.1128746759
 10
57.6807360093
 20
-57.1733690454
 10
57.6433051735
 20
-57.2352012667
 10
57.6099893343
 20
-57.2983623226
 10
57.5810140528
 20
-57.362424588
 10
57.5564087828
 20
-57.4273941783
 10
57.5361440706
 20
-57.4932649782
  0
LINE
  5
220
100
AcDbEntity
  8
ASSI
100
AcDbLine
 62
7
  6
CONTINUOUS
 10
-74.1
 20
-56.3466410285
 11
-59.5
 21
-56.3466410285
  0
LINE
  5
221
100
AcDbEntity
  8
ASSI
100
AcDbLine
 62
7
  6
CONTINUOUS
 10
74.1
 20
-56.3466410285
 11
59.5
 21
-56.3466410285
  0
LWPOLYLINE
  5
222
100
AcDbEntity
  8
ASSI
100
AcDbPolyline
 62
7
  6
CONTINUOUS
 90
28
 70
0
 10
-74.1
 20
-56.3466410285
 10
-74.1467751773
 20
-56.345657122
 10
-74.193081358
 20
-56.3427924445
 10
-74.2389185421
 20
-56.3380469958
 10
-74.2844383117
 20
-56.3313920559
 10
-74.3294890847
 20
-56.3228563449
 10
-74.3736161147
 20
-56.312526023
 10
-74.4168100458
 20
-56.3003829141
 10
-74.4590802339
 20
-56.2864451943
 10
-74.5
 20
-56.2708535521
 10
-74.5395556669
 20
-56.2535912363
 10
-74.5777609118
 20
-56.2346749982
 10
-74.6142300877
 20
-56.2142957799
 10
-74.6489456115
 20
-56.192438764
 10
-74.6819250662
 20
-56.1691187679
 10
-74.7128355545
 20
-56.1445711857
 10
-74.7416561215
 20
-56.1187835841
 10
-74.768407722
 20
-56.0917683963
 10
-74.792820323
 20
-56.063798316
 10
-74.8148702349
 20
-56.0348636719
 10
-74.8345811473
 20
-56.0049741352
 10
-74.8517540966
 20
-55.9744314136
 10
-74.866363378
 20
-55.9432288915
 10
-74.8784346962
 20
-55.9113731845
 10
-74.8878462024
 20
-55.8791858467
 10
-74.8945572803
 20
-55.846774063
 10
-74.8986085462
 20
-55.8140306486
 10
-74.9
 20
-55.7809556035
  0
LINE
  5
223
100
AcDbEntity
  8
ASSI
100
AcDbLine
 62
7
  6
CONTINUOUS
 10
-49.3879604479
 20
17.6537588586
 11
-47.6517305404
 21
-3.3462411414
  0
LWPOLYLINE
  5
224
100
AcDbEntity
  8
ASSI
100
AcDbPolyline
 62
7
  6
CONTINUOUS
 90
28
 70
0
 10
74.1
 20
-49.2755732166
 10
74.1467751773
 20
-49.2745893102
 10
74.193081358
 20
-49.2717246326
 10
74.2389185421
 20
-49.2669791839
 10
74.2844383117
 20
-49.2603242441
 10
74.3294890847
 20
-49.2517885331
 10
74.3736161147
 20
-49.2414582112
 10
74.4168100458
 20
-49.2293151023
 10
74.4590802339
 20
-49.2153773824
 10
74.5
 20
-49.1997857402
 10
74.5395556669
 20
-49.1825234245
 10
74.5777609118
 20
-49.1636071863
 10
74.6142300877
 20
-49.143227968
 10
74.6489456115
 20
-49.1213709521
 10
74.6819250662
 20
-49.098050956
 10
74.7128355545
 20
-49.0735033738
 10
74.7416561215
 20
-49.0477157722
 10
74.768407722
 20
-49.0207005844
 10
74.792820323
 20
-48.9927305041
 10
74.8148702349
 20
-48.96379586
 10
74.8345811473
 20
-48.9339063234
 10
74.8517540966
 20
-48.9033636018
 10
74.866363378
 20
-48.8721610797
 10
74.8784346962
 20
-48.8403053726
 10
74.8878462024
 20
-48.8081180348
 10
74.8945572803
 20
-48.7757062511
 10
74.8986085462
 20
-48.7429628367
 10
74.9
 20
-48.7098877917
  0
LINE
  5
225
100
AcDbEntity
  8
ASSI
100
AcDbLine
 62
253
  6
CONTINUOUS
 10
57.5
 20
-51.8256040586
 11
-57.5
 21
-51.8256040586
  0
LINE
  5
226
100
AcDbEntity
  8
ASSI
100
AcDbLine
 62
7
  6
CONTINUOUS
 10
-74.1
 20
-49.2755732166
 11
-59.5
 21
-49.2755732166
  0
LINE
  5
227
100
AcDbEntity
  8
ASSI
100
AcDbLine
 62
7
  6
CONTINUOUS
 10
74.1
 20
-49.2755732166
 11
59.5
 21
-49.2755732166
  0
LWPOLYLINE
  5
228
100
AcDbEntity
  8
ASSI
100
AcDbPolyline
 62
7
  6
CONTINUOUS
 90
34
 70
0
 10
-59.5
 20
-49.2755732166
 10
-59.4044796368
 20
-49.277205182
 10
-59.3096030779
 20
-49.2820034003
 10
-59.2153703235
 20
-49.2899678715
 10
-59.1215711406
 20
-49.301130934
 10
-59.0284157621
 20
-49.3154602495
 10
-58.9365348863
 20
-49.3328588027
 10
-58.8459371617
 20
-49.3533474207
 10
-58.7566139399
 20
-49.3769052766
 10
-58.669169974
 20
-49.4033728744
 10
-58.5836180161
 20
-49.4327699588
 10
-58.4999453142
 20
-49.4650767851
 10
-58.4187183651
 20
-49.5000746235
 10
-58.3399537651
 20
-49.5377817343
 10
-58.2636349179
 20
-49.5781798573
 10
-58.1902785321
 20
-49.6209954812
 10
-58.1199047101
 20
-49.6662450105
 10
-58.0524933493
 20
-49.7139120408
 10
-57.9885008513
 20
-49.7636738476
 10
-57.9279504153
 20
-49.8155446454
 10
-57.8708188419
 20
-49.8695102198
 10
-57.8174929343
 20
-49.9252052026
 10
-57.7679985166
 20
-49.9826413291
 10
-57.7223097647
 20
-50.041806864
 10
-57.6807360093
 20
-50.1023012336
 10
-57.6433051735
 20
-50.1641334548
 10
-57.6099893343
 20
-50.2272945107
 10
-57.5810140528
 20
-50.2913567761
 10
-57.5564087828
 20
-50.3563263664
 10
-57.5361440706
 20
-50.4221971663
 10
-57.5203571162
 20
-50.4885232046
 10
-57.509093653
 20
-50.5551558243
 10
-57.5023079476
 20
-50.6222436824
 10
-57.5
 20
-50.689786779
  0
LWPOLYLINE
  5
229
100
AcDbEntity
  8
0
100
AcDbPolyline
 62
7
  6
CONTINUOUS
 90
4
 70
0
 10
-29.25
 20
6.4358622924
 10
-29.2495241636
 20
6.4720346161
 10
-29.2457185515
 20
6.5443280376
 10
-29.2394551669
 20
6.6059878173
  0
LINE
  5
22A
100
AcDbEntity
  8
0
100
AcDbLine
 62
7
  6
CONTINUOUS
 10
-29.1523019773
 20
7.307682215
 11
-29.2394551669
 21
6.6059878173
  0
LINE
  5
22B
100
AcDbEntity
  8
0
100
AcDbLine
 62
7
  6
CONTINUOUS
 10
-29.0940251766
 20
7.5672331423
 11
-29.0423723752
 21
7.9737569219
  0
LINE
  5
22C
100
AcDbEntity
  8
0
100
AcDbLine
 62
7
  6
CONTINUOUS
 10
-29.0423723752
 20
7.1252287845
 11
-29.0940251766
 21
6.7187050049
  0
LWPOLYLINE
  5
22D
100
AcDbEntity
  8
0
100
AcDbPolyline
 62
7
  6
CONTINUOUS
 90
4
 70
0
 10
-29.1523042953
 20
7.3076823589
 10
-29.1413395655
 20
7.379896073
 10
-29.1210619702
 20
7.4737687308
 10
-29.0940251766
 20
7.5672331423
  0
LWPOLYLINE
  5
22E
100
AcDbEntity
  8
0
100
AcDbPolyline
 62
7
  6
CONTINUOUS
 90
4
 70
0
 10
-29.0423723752
 20
7.9737569219
 10
-29.0410988563
 20
7.9813582211
 10
-29.039250736
 20
7.988856274
 10
-29.037916458
 20
7.993155102
  0
LWPOLYLINE
  5
22F
100
AcDbEntity
  8
0
100
AcDbPolyline
 62
7
  6
CONTINUOUS
 90
20
 70
0
 10
-29.037916458
 20
7.993155102
 10
-29.0368280144
 20
7.9962510806
 10
-29.0338181037
 20
8.0035651621
 10
-29.0302335916
 20
8.0107759972
 10
-29.0261122416
 20
8.0178160224
 10
-29.0214492191
 20
8.0246817156
 10
-29.0162493586
 20
8.031376599
 10
-29.0105649276
 20
8.0378436759
 10
-29.0043931694
 20
8.0440794239
 10
-28.9977368407
 20
8.0500873655
 10
-28.9906564784
 20
8.0558210717
 10
-28.9831508273
 20
8.0612775487
 10
-28.9752211426
 20
8.0664597904
 10
-28.9669317275
 20
8.07133035
 10
-28.9582810521
 20
8.0758872671
 10
-28.9492706463
 20
8.0801325022
 10
-28.9399694032
 20
8.0840344894
 10
-28.9304002873
 20
8.0875827069
 10
-28.9205403342
 20
8.0907876764
 10
-28.9103895437
 20
8.0936493982
  0
LWPOLYLINE
  5
230
100
AcDbEntity
  8
0
100
AcDbPolyline
 62
7
  6
CONTINUOUS
 90
4
 70
0
 10
-23.7605448331
 20
6.6059878173
 10
-23.7542814485
 20
6.5443280376
 10
-23.7504758364
 20
6.4720346161
 10
-23.75
 20
6.4358622924
  0
LWPOLYLINE
  5
231
100
AcDbEntity
  8
0
100
AcDbPolyline
 62
7
  6
CONTINUOUS
 90
9
 70
0
 10
-29.247321713
 20
6.148738109
 10
-29.2456562686
 20
6.1317822729
 10
-29.2436092448
 20
6.1169782025
 10
-29.2412020772
 20
6.1044159606
 10
-29.238566534
 20
6.0941697428
 10
-29.2356866139
 20
6.086298662
 10
-29.232578318
 20
6.0808569146
 10
-29.2294214182
 20
6.0778848496
 10
-29.2272056051
 20
6.0772836486
  0
LINE
  5
232
100
AcDbEntity
  8
0
100
AcDbLine
 62
7
  6
CONTINUOUS
 10
-27.0722536018
 20
7.5476134731
 11
-27.0507049529
 21
7.3266288072
  0
LINE
  5
233
100
AcDbEntity
  8
0
100
AcDbLine
 62
7
  6
CONTINUOUS
 10
-27.1564962216
 20
8.411980679
 11
-27.1000000064
 21
7.8322267992
  0
LWPOLYLINE
  5
234
100
AcDbEntity
  8
0
100
AcDbPolyline
 62
7
  6
CONTINUOUS
 90
5
 70
0
 10
-29.2499857652
 20
6.223730258
 10
-29.2499323145
 20
6.2116291515
 10
-29.2495047096
 20
6.188757308
 10
-29.2486270136
 20
6.1677570554
 10
-29.247321713
 20
6.148738109
  0
LINE
  5
235
100
AcDbEntity
  8
0
100
AcDbLine
 62
7
  6
CONTINUOUS
 10
-29.25
 20
6.223730258
 11
-29.25
 21
6.4358622924
  0
LINE
  5
236
100
AcDbEntity
  8
0
100
AcDbLine
 62
7
  6
CONTINUOUS
 10
-27.6999999991
 20
4.1966853897
 11
-27.6999999991
 21
4.1259747116
  0
LINE
  5
237
100
AcDbEntity
  8
0
100
AcDbLine
 62
7
  6
CONTINUOUS
 10
-27.5
 20
4.6247020499
 11
-27.5
 21
4.2783350477
  0
LINE
  5
238
100
AcDbEntity
  8
0
100
AcDbLine
 62
7
  6
CONTINUOUS
 10
-27.5
 20
3.8221669518
 11
-27.5
 21
3.4612563475
  0
LINE
  5
239
100
AcDbEntity
  8
ASSI
100
AcDbLine
 62
7
  6
CONTINUOUS
 10
-26.0
 20
-5.1814481813
 11
-26.0
 21
-4.7364248504
  0
LINE
  5
23A
100
AcDbEntity
  8
0
100
AcDbLine
 62
7
  6
CONTINUOUS
 10
-25.5
 20
4.3771334007
 11
-25.5
 21
4.3249245417
  0
LINE
  5
23B
100
AcDbEntity
  8
0
100
AcDbLine
 62
7
  6
CONTINUOUS
 10
-23.75
 20
6.223730258
 11
-23.75
 21
6.4358622924
  0
LINE
  5
23C
100
AcDbEntity
  8
0
100
AcDbLine
 62
7
  6
CONTINUOUS
 10
-26.2718264709
 20
9.1208416157
 11
-26.27180726
 21
7.6348692845
  0
LINE
  5
23D
100
AcDbEntity
  8
0
100
AcDbLine
 62
7
  6
CONTINUOUS
 10
-26.7283532711
 20
7.6348804214
 11
-26.7279845008
 21
9.1208580959
  0
LWPOLYLINE
  5
23E
100
AcDbEntity
  8
0
100
AcDbPolyline
 62
7
  6
CONTINUOUS
 90
24
 70
0
 10
-25.5
 20
4.3249245417
 10
-25.500066429
 20
4.3135313182
 10
-25.503393004
 20
4.24354118
 10
-25.5117238695
 20
4.1738413686
 10
-25.5250174206
 20
4.1046825643
 10
-25.5432067806
 20
4.0363131193
 10
-25.5662005909
 20
3.9689762087
 10
-25.5938833679
 20
3.902909823
 10
-25.6261154854
 20
3.8383466769
 10
-25.6627343086
 20
3.7755115966
 10
-25.7035561504
 20
3.7146189439
 10
-25.7483769568
 20
3.6558728201
 10
-25.7969717978
 20
3.5994680523
 10
-25.8490967097
 20
3.5455878134
 10
-25.9044912698
 20
3.4944014745
 10
-25.9628785202
 20
3.446065419
 10
-26.0239646556
 20
3.4007232901
 10
-26.0874414952
 20
3.3585039119
 10
-26.1529903613
 20
3.3195191309
 10
-26.2202820082
 20
3.2838646509
 10
-26.2889765155
 20
3.2516202768
 10
-26.3587281501
 20
3.2228477716
 10
-26.4291872514
 20
3.1975908739
 10
-26.5
 20
3.1758759944
  0
LWPOLYLINE
  5
23F
100
AcDbEntity
  8
0
100
AcDbPolyline
 62
7
  6
CONTINUOUS
 90
4
 70
0
 10
-23.75
 20
6.4358622924
 10
-23.7504758364
 20
6.3996899687
 10
-23.7542814485
 20
6.3273965472
 10
-23.7618871206
 20
6.2552551775
  0
LWPOLYLINE
  5
240
100
AcDbEntity
  8
ASSI
100
AcDbPolyline
 62
7
  6
CONTINUOUS
 90
52
 70
0
 10
-26.0
 20
-4.7364248504
 10
-25.9942637091
 20
-4.4747083394
 10
-25.9772004142
 20
-4.2137340087
 10
-25.9488101155
 20
-3.9535018584
 10
-25.909044425
 20
-3.6937666056
 10
-25.8579517305
 20
-3.4347735331
 10
-25.7956771962
 20
-3.1772584893
 10
-25.7221890222
 20
-2.9212256774
 10
-25.6375190083
 20
-2.6666708942
 10
-25.5419077181
 20
-2.4143173779
 10
-25.4353240358
 20
-2.1641713886
 10
-25.3177990772
 20
-1.9162266663
 10
-25.1896667529
 20
-1.6711876687
 10
-25.0508968967
 20
-1.4290626594
 10
-24.9015196749
 20
-1.1898433748
 10
-24.7419594963
 20
-0.9542094823
 10
-24.5721874017
 20
-0.7221711782
 10
-24.3922323505
 20
-0.4937182661
 10
-24.2026056288
 20
-0.2694998239
 10
-24.0032797315
 20
-0.049527894
 10
-23.7942821638
 20
0.166209566
 10
-23.5762067274
 20
0.3770996052
 10
-23.3490276057
 20
0.583128438
 10
-23.1127706152
 20
0.7843098499
 10
-22.8681070066
 20
0.9800722466
 10
-22.6150128727
 20
1.1704002169
 10
-22.3535121207
 20
1.3553091719
 10
-22.0843477238
 20
1.5342737503
 10
-21.8074978874
 20
1.707277047
 10
-21.5229844061
 20
1.8743359671
 10
-21.2316156366
 20
2.0349758646
 10
-20.933372083
 20
2.1891784846
 10
-20.6282732412
 20
2.3369620819
 10
-20.3171859545
 20
2.4779067755
 10
-20.0000931927
 20
2.6119931163
 10
-19.677011986
 20
2.7392405534
 10
-19.3488602693
 20
2.8592875527
 10
-19.0156236227
 20
2.972113637
 10
-18.6773164662
 20
3.0777392835
 10
-18.3348999942
 20
3.1758643898
 10
-17.9883625205
 20
3.2664676252
 10
-17.6377157315
 20
3.3495703204
 10
-17.2839558809
 20
3.4249363649
 10
-16.9270741156
 20
3.4925437566
 10
-16.5670792887
 20
3.5524144976
 10
-16.2049942138
 20
3.6043784838
 10
-15.8408129463
 20
3.6484132293
 10
-15.4745414307
 20
3.68454122
 10
-15.1072203136
 20
3.7126598095
 10
-14.7391964772
 20
3.7327347822
 10
-14.3701230393
 20
3.7448003537
 10
-14.0
 20
3.7488565239
  0
LWPOLYLINE
  5
241
100
AcDbEntity
  8
ASSI
100
AcDbPolyline
 62
7
  6
CONTINUOUS
 90
13
 70
0
 10
-27.85
 20
4.1024099145
 10
-27.848107778
 20
4.1525956159
 10
-27.8425675313
 20
4.2023727579
 10
-27.8333792598
 20
4.2517413404
 10
-27.8204978637
 20
4.3008341965
 10
-27.803968443
 20
4.3495184932
 10
-27.783926297
 20
4.397395731
 10
-27.7603425942
 20
4.4444592858
 10
-27.7332461663
 20
4.4907157817
 10
-27.7028588077
 20
4.5357865918
 10
-27.6691535072
 20
4.5796619843
 10
-27.632157276
 20
4.622351691
 10
-27.6011749363
 20
4.6542408175
  0
LWPOLYLINE
  5
242
100
AcDbEntity
  8
ASSI
100
AcDbPolyline
 62
7
  6
CONTINUOUS
 90
47
 70
0
 10
-25.15
 20
4.1024099145
 10
-25.151892222
 20
4.052224213
 10
-25.1574324687
 20
4.0024470711
 10
-25.1666207402
 20
3.9530784886
 10
-25.1795021363
 20
3.9039856324
 10
-25.196031557
 20
3.8553013358
 10
-25.216073703
 20
3.807424098
 10
-25.2396574058
 20
3.7603605432
 10
-25.2667538337
 20
3.7141040473
 10
-25.2971411923
 20
3.6690332372
 10
-25.3308464928
 20
3.6251578447
 10
-25.367842724
 20
3.582468138
 10
-25.4078270576
 20
3.5413135485
 10
-25.4508240194
 20
3.501706676
 10
-25.4968090837
 20
3.4636349208
 10
-25.5454058454
 20
3.4274099145
 10
-25.5966357406
 20
3.3930468148
 10
-25.6504773333
 20
3.3605304639
 10
-25.7064899094
 20
3.3301270207
 10
-25.764691288
 20
3.3018538272
 10
-25.8250636502
 20
3.2756935413
 10
-25.8871128254
 20
3.2518602948
 10
-25.9508525763
 20
3.2303731874
 10
-26.0162691401
 20
3.2112131195
 10
-26.0828270576
 20
3.1945369233
 10
-26.1505356966
 20
3.180364986
 10
-26.2193856892
 20
3.1686769205
 10
-26.2888134722
 20
3.159568398
 10
-26.3588237879
 20
3.1530605908
 10
-26.4294118939
 20
3.1491323267
 10
-26.5
 20
3.1478157599
 10
-26.5705881061
 20
3.1491323267
 10
-26.6411762121
 20
3.1530605908
 10
-26.7111865278
 20
3.159568398
 10
-26.7806143108
 20
3.1686769205
 10
-26.8494643034
 20
3.180364986
 10
-26.9171729424
 20
3.1945369233
 10
-26.9837308599
 20
3.2112131195
 10
-27.0491474237
 20
3.2303731874
 10
-27.1128871746
 20
3.2518602948
 10
-27.1749363498
 20
3.2756935413
 10
-27.235308712
 20
3.3018538272
 10
-27.2935100906
 20
3.3301270207
 10
-27.3495226667
 20
3.3605304639
 10
-27.4033642594
 20
3.3930468148
 10
-27.4545941546
 20
3.4274099145
 10
-27.5031909163
 20
3.4636349208
  0
LWPOLYLINE
  5
243
100
AcDbEntity
  8
0
100
AcDbPolyline
 62
7
  6
CONTINUOUS
 90
11
 70
0
 10
-27.6999999991
 20
4.1966853897
 10
-27.6991258161
 20
4.218328242
 10
-27.6933045088
 20
4.2564614851
 10
-27.6820461077
 20
4.2941868866
 10
-27.6654019103
 20
4.3312460102
 10
-27.6434477531
 20
4.3673834554
 10
-27.6162836669
 20
4.4023480212
 10
-27.5840334205
 20
4.4358938508
 10
-27.546843957
 20
4.4677815513
 10
-27.504884724
 20
4.4977792852
 10
-27.5
 20
4.5007061151
  0
LWPOLYLINE
  5
244
100
AcDbEntity
  8
0
100
AcDbPolyline
 62
7
  6
CONTINUOUS
 90
5
 70
0
 10
-23.7526782925
 20
6.1487380541
 10
-23.7513729887
 20
6.1677570296
 10
-23.7504952904
 20
6.1887573079
 10
-23.7500676852
 20
6.211629163
 10
-23.7500142348
 20
6.223730258
  0
LINE
  5
245
100
AcDbEntity
  8
0
100
AcDbLine
 62
7
  6
CONTINUOUS
 10
-25.949293021
 20
7.3266501025
 11
-25.9277465037
 21
7.547613461
  0
LINE
  5
246
100
AcDbEntity
  8
0
100
AcDbLine
 62
7
  6
CONTINUOUS
 10
-25.9000001418
 20
7.8322272907
 11
-25.8435041219
 21
8.4119805894
  0
LINE
  5
247
100
AcDbEntity
  8
0
100
AcDbLine
 62
7
  6
CONTINUOUS
 10
-26.2611776274
 20
7.5899360584
 11
-26.1194209054
 21
8.7524013955
  0
LINE
  5
248
100
AcDbEntity
  8
0
100
AcDbLine
 62
7
  6
CONTINUOUS
 10
-26.2718517819
 20
7.6348649261
 11
-26.1315730276
 21
8.7631252995
  0
LINE
  5
249
100
AcDbEntity
  8
0
100
AcDbLine
 62
7
  6
CONTINUOUS
 10
-25.9413855636
 20
7.5672331423
 11
-25.9000001418
 21
7.8322272907
  0
LWPOLYLINE
  5
24A
100
AcDbEntity
  8
0
100
AcDbPolyline
 62
7
  6
CONTINUOUS
 90
3
 70
0
 10
-23.7618871206
 20
6.2552551775
 10
-23.7732821644
 20
6.1833649211
 10
-23.7884506274
 20
6.1118252575
  0
LINE
  5
24B
100
AcDbEntity
  8
TRASH
100
AcDbLine
 62
7
  6
CONTINUOUS
 10
-26.7388223825
 20
7.5899360623
 11
-26.7281482281
 21
7.63486493
  0
LINE
  5
24C
100
AcDbEntity
  8
0
100
AcDbLine
 62
7
  6
CONTINUOUS
 10
-26.2033061136
 20
6.7778504868
 11
-26.2720154992
 21
6.5047635598
  0
LINE
  5
24D
100
AcDbEntity
  8
0
100
AcDbLine
 62
7
  6
CONTINUOUS
 10
-26.1314308276
 20
7.0581474687
 11
-26.2033061136
 21
6.7778504868
  0
LINE
  5
24E
100
AcDbEntity
  8
0
100
AcDbLine
 62
7
  6
CONTINUOUS
 10
-23.8043676889
 20
6.0511362881
 11
-23.7884506274
 21
6.1118252575
  0
LINE
  5
24F
100
AcDbEntity
  8
0
100
AcDbLine
 62
7
  6
CONTINUOUS
 10
-25.9000001418
 20
7.8322272907
 11
-25.7313755005
 21
8.3675042163
  0
LWPOLYLINE
  5
250
100
AcDbEntity
  8
0
100
AcDbPolyline
 62
7
  6
CONTINUOUS
 90
6
 70
0
 10
-25.3566307002
 20
4.667561713
 10
-25.3703850104
 20
4.6266875104
 10
-25.4002760801
 20
4.554458977
 10
-25.4351778658
 20
4.4837776136
 10
-25.4749313429
 20
4.4148789214
 10
-25.5193553805
 20
4.3479902794
  0
LWPOLYLINE
  5
251
100
AcDbEntity
  8
0
100
AcDbPolyline
 62
7
  6
CONTINUOUS
 90
4
 70
0
 10
-26.8254332131
 20
8.8795924512
 10
-26.8360965274
 20
8.851345592
 10
-26.8468074096
 20
8.8225722892
 10
-26.8685691724
 20
8.7630001368
  0
LWPOLYLINE
  5
252
100
AcDbEntity
  8
0
100
AcDbPolyline
 62
7
  6
CONTINUOUS
 90
3
 70
0
 10
-26.7947639422
 20
8.9588051834
 10
-26.8046438773
 20
8.9336144072
 10
-26.8254332131
 20
8.8795924512
  0
LWPOLYLINE
  5
253
100
AcDbEntity
  8
0
100
AcDbPolyline
 62
7
  6
CONTINUOUS
 90
3
 70
0
 10
-26.7671742941
 20
9.0274741145
 10
-26.775986871
 20
9.00579064
 10
-26.7947639422
 20
8.9588051834
  0
LWPOLYLINE
  5
254
100
AcDbEntity
  8
0
100
AcDbPolyline
 62
7
  6
CONTINUOUS
 90
40
 70
0
 10
-25.3867270641
 20
4.6579093853
 10
-25.4002760801
 20
4.6251696551
 10
-25.4351778658
 20
4.5544882917
 10
-25.4749313429
 20
4.4855895995
 10
-25.5193553805
 20
4.4187009575
 10
-25.5682475675
 20
4.3540405859
 10
-25.6213851342
 20
4.2918165525
 10
-25.6785259675
 20
4.2322258238
 10
-25.7394097141
 20
4.1754533686
 10
-25.8037589668
 20
4.1216713142
 10
-25.8712805285
 20
4.0710381628
 10
-25.9416667478
 20
4.0236980693
 10
-26.0145969211
 20
3.9797801841
 10
-26.0897387538
 20
3.9393980647
 10
-26.166749874
 20
3.9026491588
 10
-26.2452793931
 20
3.8696143596
 10
-26.3249695039
 20
3.8403576379
 10
-26.4054571113
 20
3.8149257501
 10
-26.4863754865
 20
3.7933480253
 10
-26.5673559382
 20
3.775636232
 10
-26.648029492
 20
3.7617845239
 10
-26.7280285721
 20
3.751769467
 10
-26.8069886758
 20
3.7455501464
 10
-26.8845500342
 20
3.7430683522
 10
-26.960359252
 20
3.7442488453
 10
-27.0340709167
 20
3.7489997
 10
-27.1053491735
 20
3.7572127227
 10
-27.1738692547
 20
3.7687639453
 10
-27.23931896
 20
3.7835141894
 10
-27.3014000787
 20
3.8013097011
 10
-27.3598297486
 20
3.8219828509
 10
-27.4143417446
 20
3.8453528983
 10
-27.464687692
 20
3.8712268143
 10
-27.510638198
 20
3.899400162
 10
-27.551983897
 20
3.9296580272
 10
-27.5885364041
 20
3.9617759979
 10
-27.6201291743
 20
3.9955211872
 10
-27.6466182605
 20
4.0306532937
 10
-27.6678829698
 20
4.066925697
 10
-27.6838264133
 20
4.104086581
  0
LINE
  5
255
100
AcDbEntity
  8
0
100
AcDbLine
 62
7
  6
CONTINUOUS
 10
-26.7505837672
 20
9.0675871736
 11
-26.7671742941
 21
9.0274741145
  0
LWPOLYLINE
  5
256
100
AcDbEntity
  8
0
100
AcDbPolyline
 62
7
  6
CONTINUOUS
 90
3
 70
0
 10
-26.7279845008
 20
9.1208580959
 10
-26.7352060521
 20
9.104048412
 10
-26.7505837672
 20
9.0675871736
  0
LWPOLYLINE
  5
257
100
AcDbEntity
  8
TRASH
100
AcDbPolyline
 62
7
  6
CONTINUOUS
 90
3
 70
0
 10
-26.8289944357
 20
7.3922551649
 10
-26.8077939354
 20
7.4381217701
 10
-26.738824741
 20
7.5899349533
  0
LWPOLYLINE
  5
258
100
AcDbEntity
  8
TRASH
100
AcDbPolyline
 62
7
  6
CONTINUOUS
 90
3
 70
0
 10
-26.8877546028
 20
7.2677934288
 10
-26.8689849871
 20
7.3071948858
 10
-26.8289944357
 20
7.3922551649
  0
LWPOLYLINE
  5
259
100
AcDbEntity
  8
TRASH
100
AcDbPolyline
 62
7
  6
CONTINUOUS
 90
3
 70
0
 10
-26.9399333479
 20
7.1614493238
 10
-26.9234392519
 20
7.1946590913
 10
-26.8877546028
 20
7.2677934288
  0
LWPOLYLINE
  5
25A
100
AcDbEntity
  8
0
100
AcDbPolyline
 62
7
  6
CONTINUOUS
 90
34
 70
0
 10
-26.0417424305
 20
4.5185073435
 10
-26.0570903522
 20
4.4941058295
 10
-26.0744610011
 20
4.4705434689
 10
-26.0938598132
 20
4.4478475866
 10
-26.1154232064
 20
4.4259331698
 10
-26.1390262104
 20
4.4049511146
 10
-26.1642807418
 20
4.3852802399
 10
-26.1912166258
 20
4.366979237
 10
-26.2198107193
 20
4.3500560773
 10
-26.2495916982
 20
4.3347990052
 10
-26.2805626087
 20
4.3212667044
 10
-26.3127199311
 20
4.3094554298
 10
-26.3455785672
 20
4.299538923
 10
-26.3791260472
 20
4.2915595933
 10
-26.4133678586
 20
4.2855099169
 10
-26.447843095
 20
4.281465216
 10
-26.4825409863
 20
4.2794485268
 10
-26.5174616672
 20
4.2794485996
 10
-26.5521596356
 20
4.2814654551
 10
-26.5866350701
 20
4.2855103619
 10
-26.6208771564
 20
4.2915602697
 10
-26.6544248561
 20
4.2995398452
 10
-26.6872836001
 20
4.3094566034
 10
-26.7194409756
 20
4.3212681399
 10
-26.7504119223
 20
4.3348007206
 10
-26.7801930143
 20
4.350058174
 10
-26.8087872041
 20
4.3669817334
 10
-26.8357229256
 20
4.3852829085
 10
-26.8609768378
 20
4.4049535756
 10
-26.8845789661
 20
4.4259351835
 10
-26.9061415818
 20
4.4478491076
 10
-26.9255398319
 20
4.4705445212
 10
-26.942910016
 20
4.4941063741
 10
-26.9582575695
 20
4.5185073435
  0
LWPOLYLINE
  5
25B
100
AcDbEntity
  8
0
100
AcDbPolyline
 62
7
  6
CONTINUOUS
 90
39
 70
0
 10
-25.6854868868
 20
4.5787406779
 10
-25.6992989023
 20
4.557896745
 10
-25.7424895177
 20
4.5004778457
 10
-25.7892829963
 20
4.445253515
 10
-25.8394572658
 20
4.3923938331
 10
-25.8927735306
 20
4.3420583467
 10
-25.9489789368
 20
4.294393752
 10
-26.0078069827
 20
4.2495341682
 10
-26.0689774475
 20
4.2076013605
 10
-26.1321981638
 20
4.1687034537
 10
-26.1971683372
 20
4.1329332069
 10
-26.2635790176
 20
4.1003684056
 10
-26.3311131548
 20
4.0710721151
 10
-26.3994480693
 20
4.0450917107
 10
-26.4682601015
 20
4.0224576588
 10
-26.5372250409
 20
4.0031843632
 10
-26.6060160491
 20
3.9872712293
 10
-26.6743047039
 20
3.9747022769
 10
-26.7417656502
 20
3.9654453055
 10
-26.8080780341
 20
3.9594522246
 10
-26.8729261681
 20
3.9566594383
 10
-26.9360006422
 20
3.956988071
 10
-26.9970015416
 20
3.9603443128
 10
-27.0556383456
 20
3.9666199302
 10
-27.1116307087
 20
3.9756925417
 10
-27.1647120217
 20
3.9874264278
 10
-27.214630265
 20
4.0016733589
 10
-27.2611479293
 20
4.0182730411
 10
-27.3040435457
 20
4.0370538655
 10
-27.3431137174
 20
4.0578341928
 10
-27.3781735966
 20
4.0804233014
 10
-27.4090564447
 20
4.1046215215
 10
-27.4356151829
 20
4.1302213775
 10
-27.4577236952
 20
4.1570091758
 10
-27.4752767382
 20
4.1847655539
 10
-27.4881902559
 20
4.2132658629
 10
-27.496402422
 20
4.2422815733
 10
-27.4998742042
 20
4.2715822294
 10
-27.5
 20
4.2783350477
  0
LINE
  5
25C
100
AcDbEntity
  8
0
100
AcDbLine
 62
7
  6
CONTINUOUS
 10
-26.0608819424
 20
7.1602914008
 11
-26.1037453227
 21
7.0955578861
  0
LINE
  5
25D
100
AcDbEntity
  8
0
100
AcDbLine
 62
7
  6
CONTINUOUS
 10
-26.1037453227
 20
7.0955578861
 11
-26.1194209546
 21
7.0720867824
  0
LINE
  5
25E
100
AcDbEntity
  8
0
100
AcDbLine
 62
7
  6
CONTINUOUS
 10
-25.8435037784
 20
7.4835548264
 11
-26.0608819424
 21
7.1602914008
  0
LINE
  5
25F
100
AcDbEntity
  8
0
100
AcDbLine
 62
7
  6
CONTINUOUS
 10
-27.0586148063
 20
7.5672331423
 11
-27.0722536018
 21
7.5476134731
  0
LINE
  5
260
100
AcDbEntity
  8
0
100
AcDbLine
 62
7
  6
CONTINUOUS
 10
-27.1564962216
 20
8.411980679
 11
-27.1463309785
 21
8.4256791987
  0
LINE
  5
261
100
AcDbEntity
  8
0
100
AcDbLine
 62
7
  6
CONTINUOUS
 10
-27.1463309785
 20
8.4256791987
 11
-27.1259257494
 21
8.4528115214
  0
LWPOLYLINE
  5
262
100
AcDbEntity
  8
0
100
AcDbPolyline
 62
7
  6
CONTINUOUS
 90
39
 70
0
 10
-25.5193553805
 20
4.3479902794
 10
-25.5682475675
 20
4.2833299078
 10
-25.6213851342
 20
4.2211058743
 10
-25.6785259675
 20
4.1615151457
 10
-25.7394097141
 20
4.1047426904
 10
-25.8037589668
 20
4.050960636
 10
-25.8712805285
 20
4.0003274847
 10
-25.9416667478
 20
3.9529873912
 10
-26.0145969211
 20
3.9090695059
 10
-26.0897387538
 20
3.8686873866
 10
-26.166749874
 20
3.8319384806
 10
-26.2452793931
 20
3.7989036815
 10
-26.3249695039
 20
3.7696469598
 10
-26.4054571113
 20
3.744215072
 10
-26.4863754865
 20
3.7226373472
 10
-26.5673559382
 20
3.7049255539
 10
-26.648029492
 20
3.6910738458
 10
-26.7280285721
 20
3.6810587889
 10
-26.8069886758
 20
3.6748394682
 10
-26.8845500342
 20
3.672357674
 10
-26.960359252
 20
3.6735381672
 10
-27.0340709167
 20
3.6782890218
 10
-27.1053491735
 20
3.6865020446
 10
-27.1738692547
 20
3.6980532672
 10
-27.23931896
 20
3.7128035113
 10
-27.3014000787
 20
3.730599023
 10
-27.3598297486
 20
3.7512721728
 10
-27.4143417446
 20
3.7746422201
 10
-27.464687692
 20
3.8005161362
 10
-27.510638198
 20
3.8286894839
 10
-27.551983897
 20
3.8589473491
 10
-27.5885364041
 20
3.8910653198
 10
-27.6201291743
 20
3.9248105091
 10
-27.6466182605
 20
3.9599426156
 10
-27.6678829698
 20
3.9962150189
 10
-27.6838264133
 20
4.0333759029
 10
-27.6943759476
 20
4.0711694034
 10
-27.6994835057
 20
4.1093367738
 10
-27.6999999991
 20
4.1259747116
  0
LINE
  5
263
100
AcDbEntity
  8
0
100
AcDbLine
 62
7
  6
CONTINUOUS
 10
-27.1259257494
 20
8.4528115214
 11
-27.1054388422
 21
8.4796796985
  0
LINE
  5
264
100
AcDbEntity
  8
0
100
AcDbLine
 62
7
  6
CONTINUOUS
 10
-27.1054388422
 20
8.4796796985
 11
-27.0849130064
 21
8.5061946641
  0
LINE
  5
265
100
AcDbEntity
  8
0
100
AcDbLine
 62
7
  6
CONTINUOUS
 10
-27.0849130064
 20
8.5061946641
 11
-27.064357691
 21
8.5324051833
  0
LINE
  5
266
100
AcDbEntity
  8
0
100
AcDbLine
 62
7
  6
CONTINUOUS
 10
-27.064357691
 20
8.5324051833
 11
-27.0436974399
 21
8.5583682992
  0
LINE
  5
267
100
AcDbEntity
  8
0
100
AcDbLine
 62
7
  6
CONTINUOUS
 10
-27.0436974399
 20
8.5583682992
 11
-27.0225033927
 21
8.58467947
  0
LWPOLYLINE
  5
268
100
AcDbEntity
  8
0
100
AcDbPolyline
 62
7
  6
CONTINUOUS
 90
3
 70
0
 10
-27.0225033927
 20
8.58467947
 10
-27.0004703853
 20
8.6116612396
 10
-26.9889886643
 20
8.6255750937
  0
LWPOLYLINE
  5
269
100
AcDbEntity
  8
0
100
AcDbPolyline
 62
7
  6
CONTINUOUS
 90
3
 70
0
 10
-26.9889886643
 20
8.6255750937
 10
-26.9649573045
 20
8.6543855896
 10
-26.9522858137
 20
8.669420382
  0
LWPOLYLINE
  5
26A
100
AcDbEntity
  8
0
100
AcDbPolyline
 62
7
  6
CONTINUOUS
 90
4
 70
0
 10
-26.9522858137
 20
8.669420382
 10
-26.9111815057
 20
8.717517517
 10
-26.8962546773
 20
8.7346946544
 10
-26.8805790454
 20
8.7524014513
  0
LINE
  5
26B
100
AcDbEntity
  8
0
100
AcDbLine
 62
7
  6
CONTINUOUS
 10
-26.1194209546
 20
7.0720867824
 11
-26.1314308276
 21
7.0581474687
  0
LINE
  5
26C
100
AcDbEntity
  8
0
100
AcDbLine
 62
7
  6
CONTINUOUS
 10
-26.8685691724
 20
8.7630001368
 11
-26.8805790454
 21
8.7524014513
  0
LWPOLYLINE
  5
26D
100
AcDbEntity
  8
0
100
AcDbPolyline
 62
253
  6
CONTINUOUS
 90
49
 70
0
 10
-28.9103895437
 20
7.2451212607
 10
-28.8735530228
 20
7.1515900993
 10
-28.8294638337
 20
7.0596411208
 10
-28.7782566961
 20
6.9695552861
 10
-28.7200880787
 20
6.8816078624
 10
-28.6551357227
 20
6.7960675839
 10
-28.5835980988
 20
6.7131958306
 10
-28.5056938005
 20
6.6332458284
 10
-28.4216608722
 20
6.5564618718
 10
-28.331756082
 20
6.4830785798
 10
-28.2362541369
 20
6.4133201789
 10
-28.1354468599
 20
6.3473998301
 10
-28.0296422966
 20
6.2855189709
 10
-27.919163773
 20
6.2278666965
 10
-27.8043488469
 20
6.174619154
 10
-27.6855482873
 20
6.1259390215
 10
-27.5631250393
 20
6.0819750322
 10
-27.437453234
 20
6.0428615536
 10
-27.3089169925
 20
6.0087181365
 10
-27.1779091489
 20
5.9796491165
 10
-27.0448299469
 20
5.9557432896
 10
-26.9100859312
 20
5.9370736829
 10
-26.7740887925
 20
5.9236973438
 10
-26.6372541184
 20
5.9156551536
 10
-26.500000027
 20
5.912971689
 10
-26.36274589
 20
5.9156551532
 10
-26.2259111279
 20
5.9236973501
 10
-26.0899139317
 20
5.9370736991
 10
-25.9551699263
 20
5.9557433097
 10
-25.8220907631
 20
5.9796491342
 10
-25.6910829443
 20
6.0087181518
 10
-25.5625466917
 20
6.042861575
 10
-25.4368748636
 20
6.0819750647
 10
-25.3144516081
 20
6.1259390617
 10
-25.1956510765
 20
6.1746191875
 10
-25.0808361896
 20
6.227866715
 10
-24.9703576784
 20
6.2855189847
 10
-24.8645530784
 20
6.3473998683
 10
-24.7637457465
 20
6.4133202595
 10
-24.6682437695
 20
6.4830786944
 10
-24.5783389819
 20
6.5564619978
 10
-24.4943060718
 20
6.633245952
 10
-24.4164017971
 20
6.7131959441
 10
-24.3448642016
 20
6.7960676773
 10
-24.2799118757
 20
6.8816079265
 10
-24.2217432804
 20
6.9695553244
 10
-24.1705361554
 20
7.0596411415
 10
-24.1264469738
 20
7.1515901071
 10
-24.0896104563
 20
7.2451212607
  0
LWPOLYLINE
  5
26E
100
AcDbEntity
  8
0
100
AcDbPolyline
 62
253
  6
CONTINUOUS
 90
28
 70
0
 10
-29.0423723752
 20
7.1252287845
 10
-29.0094672644
 20
7.036544833
 10
-28.9703799776
 20
6.9491262734
 10
-28.9252071488
 20
6.8631884093
 10
-28.874060842
 20
6.7789435645
 10
-28.8170670307
 20
6.6965984666
 10
-28.7543648083
 20
6.6163539018
 10
-28.6861068863
 20
6.5384058204
 10
-28.6124627021
 20
6.4629481863
 10
-28.533617217
 20
6.3901701395
 10
-28.4497682582
 20
6.3202530407
 10
-28.3611202516
 20
6.2533661805
 10
-28.2678863292
 20
6.1896702138
 10
-28.1702912735
 20
6.1293195617
 10
-28.0685793778
 20
6.072466105
 10
-27.9630092278
 20
6.0192540984
 10
-27.8538455295
 20
5.969815738
 10
-27.7413539131
 20
5.9242701367
 10
-27.6258081232
 20
5.8827275182
 10
-27.5074447648
 20
5.845275681
 10
-27.3866015719
 20
5.8120241561
 10
-27.2637220557
 20
5.7830860603
 10
-27.1392163059
 20
5.7585350356
 10
-27.0132976211
 20
5.7383905857
 10
-26.8861209399
 20
5.7226693924
 10
-26.7579439189
 20
5.711406589
 10
-26.6291319709
 20
5.7046375434
 10
-26.5
 20
5.7023792543
  0
LINE
  5
26F
100
AcDbEntity
  8
0
100
AcDbLine
 62
7
  6
CONTINUOUS
 10
-27.2686226472
 20
8.3675043615
 11
-27.1000000064
 21
7.8322267992
  0
LWPOLYLINE
  5
270
100
AcDbEntity
  8
0
100
AcDbPolyline
 62
7
  6
CONTINUOUS
 90
8
 70
0
 10
-29.0940251766
 20
6.7187050049
 10
-29.1210619702
 20
6.8121694164
 10
-29.1413395655
 20
6.9060420742
 10
-29.1548579623
 20
7.0003229784
 10
-29.1616171607
 20
7.0952842931
 10
-29.1616171607
 20
7.1906538541
 10
-29.1548579623
 20
7.2856151688
 10
-29.1523042953
 20
7.3076823589
  0
LINE
  5
271
100
AcDbEntity
  8
0
100
AcDbLine
 62
7
  6
CONTINUOUS
 10
-27.6838264133
 20
4.104086581
 11
-27.6943759476
 21
4.1418800815
  0
LINE
  5
272
100
AcDbEntity
  8
0
100
AcDbLine
 62
7
  6
CONTINUOUS
 10
-29.1956323111
 20
6.0511362881
 11
-29.2115493726
 21
6.1118252575
  0
LINE
  5
273
100
AcDbEntity
  8
0
100
AcDbLine
 62
7
  6
CONTINUOUS
 10
-26.7846653197
 20
6.7297198292
 11
-26.8684269708
 21
7.0579822172
  0
LINE
  5
274
100
AcDbEntity
  8
0
100
AcDbLine
 62
7
  6
CONTINUOUS
 10
-26.7281735282
 20
6.5047800399
 11
-26.7846653197
 21
6.7297198292
  0
LINE
  5
275
100
AcDbEntity
  8
TRASH
100
AcDbLine
 62
7
  6
CONTINUOUS
 10
-26.2718517819
 20
7.6348649261
 11
-26.2611776274
 21
7.5899360584
  0
LWPOLYLINE
  5
276
100
AcDbEntity
  8
0
100
AcDbPolyline
 62
7
  6
CONTINUOUS
 90
7
 70
0
 10
-23.7884506274
 20
6.1118252575
 10
-23.7858311383
 20
6.1001484302
 10
-23.7830679758
 20
6.0908194135
 10
-23.7801611399
 20
6.0838922196
 10
-23.7770465383
 20
6.0794076238
 10
-23.7737882634
 20
6.0773999474
 10
-23.7727943948
 20
6.0772836486
  0
LINE
  5
277
100
AcDbEntity
  8
0
100
AcDbLine
 62
7
  6
CONTINUOUS
 10
-29.2115493726
 20
6.1118252575
 11
-29.2267178356
 21
6.1833649211
  0
LWPOLYLINE
  5
278
100
AcDbEntity
  8
0
100
AcDbPolyline
 62
7
  6
CONTINUOUS
 90
22
 70
0
 10
-23.9576276248
 20
7.1252287845
 10
-23.9589011437
 20
7.1328300837
 10
-23.960749264
 20
7.1403281366
 10
-23.9631719856
 20
7.1477229432
 10
-23.9661818963
 20
7.1550370246
 10
-23.9697664084
 20
7.1622478597
 10
-23.9738877584
 20
7.169287885
 10
-23.9785507809
 20
7.1761535782
 10
-23.9837506414
 20
7.1828484616
 10
-23.9894350724
 20
7.1893155385
 10
-23.9956068306
 20
7.1955512865
 10
-24.0022631593
 20
7.201559228
 10
-24.0093435216
 20
7.2072929343
 10
-24.0168491727
 20
7.2127494113
 10
-24.0247788574
 20
7.217931653
 10
-24.0330682725
 20
7.2228022125
 10
-24.0417189479
 20
7.2273591297
 10
-24.0507293537
 20
7.2316043648
 10
-24.0600305968
 20
7.235506352
 10
-24.0695997127
 20
7.2390545694
 10
-24.0794596658
 20
7.242259539
 10
-24.0896104563
 20
7.2451212607
  0
LWPOLYLINE
  5
279
100
AcDbEntity
  8
0
100
AcDbPolyline
 62
7
  6
CONTINUOUS
 90
5
 70
0
 10
-29.2267178356
 20
6.1833649211
 10
-29.2381128794
 20
6.2552551775
 10
-29.2457185515
 20
6.3273965472
 10
-29.2495241636
 20
6.3996899687
 10
-29.25
 20
6.4358622924
  0
LINE
  5
27A
100
AcDbEntity
  8
0
100
AcDbLine
 62
7
  6
CONTINUOUS
 10
-27.1000000064
 20
7.8322267992
 11
-27.0586148063
 21
7.5672331423
  0
LWPOLYLINE
  5
27B
100
AcDbEntity
  8
0
100
AcDbPolyline
 62
7
  6
CONTINUOUS
 90
3
 70
0
 10
-27.6943759476
 20
4.1418800815
 10
-27.6994835057
 20
4.1800474519
 10
-27.6999999991
 20
4.1966853897
  0
LINE
  5
27C
100
AcDbEntity
  8
0
100
AcDbLine
 62
7
  6
CONTINUOUS
 10
-23.9059748234
 20
6.7187050049
 11
-23.9576276248
 21
7.1252287845
  0
LINE
  5
27D
100
AcDbEntity
  8
0
100
AcDbLine
 62
7
  6
CONTINUOUS
 10
-23.9576276248
 20
7.9737569219
 11
-23.9059748234
 21
7.5672331423
  0
LINE
  5
27E
100
AcDbEntity
  8
0
100
AcDbLine
 62
7
  6
CONTINUOUS
 10
-23.8476980227
 20
7.307682215
 11
-23.7605448331
 21
6.6059878173
  0
LINE
  5
27F
100
AcDbEntity
  8
0
100
AcDbLine
 62
7
  6
CONTINUOUS
 10
-26.8685691724
 20
8.7630001368
 11
-26.7281482281
 21
7.63486493
  0
LINE
  5
280
100
AcDbEntity
  8
0
100
AcDbLine
 62
7
  6
CONTINUOUS
 10
-26.8805790454
 20
8.7524014513
 11
-26.7388223825
 21
7.5899360623
  0
LWPOLYLINE
  5
281
100
AcDbEntity
  8
0
100
AcDbPolyline
 62
7
  6
CONTINUOUS
 90
8
 70
0
 10
-23.8476957047
 20
7.3076823589
 10
-23.8451420377
 20
7.2856151688
 10
-23.8383828393
 20
7.1906538541
 10
-23.8383828393
 20
7.0952842931
 10
-23.8451420377
 20
7.0003229784
 10
-23.8586604345
 20
6.9060420742
 10
-23.8789380298
 20
6.8121694164
 10
-23.9059748234
 20
6.7187050049
  0
LINE
  5
282
100
AcDbEntity
  8
0
100
AcDbLine
 62
7
  6
CONTINUOUS
 10
-27.2686226472
 20
8.3675043615
 11
-27.2133730864
 21
8.3897134035
  0
LWPOLYLINE
  5
283
100
AcDbEntity
  8
0
100
AcDbPolyline
 62
7
  6
CONTINUOUS
 90
3
 70
0
 10
-27.2133730864
 20
8.3897134035
 10
-27.1756590936
 20
8.4045674345
 10
-27.1564962216
 20
8.411980679
  0
LINE
  5
284
100
AcDbEntity
  8
0
100
AcDbLine
 62
7
  6
CONTINUOUS
 10
-27.0722536018
 20
7.5476134731
 11
-27.208177791
 21
7.499968082
  0
LWPOLYLINE
  5
285
100
AcDbEntity
  8
0
100
AcDbPolyline
 62
7
  6
CONTINUOUS
 90
3
 70
0
 10
-25.7313773528
 20
7.5189762241
 10
-25.749635734
 20
7.5132836452
 10
-25.8435037784
 20
7.4835548264
  0
LWPOLYLINE
  5
286
100
AcDbEntity
  8
ASSI
100
AcDbPolyline
 62
7
  6
CONTINUOUS
 90
15
 70
0
 10
-27.5031909163
 20
3.4636349208
 10
-27.5491759806
 20
3.501706676
 10
-27.5921729424
 20
3.5413135485
 10
-27.632157276
 20
3.582468138
 10
-27.6691535072
 20
3.6251578447
 10
-27.7028588077
 20
3.6690332372
 10
-27.7332461663
 20
3.7141040473
 10
-27.7603425942
 20
3.7603605432
 10
-27.783926297
 20
3.807424098
 10
-27.803968443
 20
3.8553013358
 10
-27.8204978637
 20
3.9039856324
 10
-27.8333792598
 20
3.9530784886
 10
-27.8425675313
 20
4.0024470711
 10
-27.848107778
 20
4.052224213
 10
-27.85
 20
4.1024099145
  0
LINE
  5
287
100
AcDbEntity
  8
0
100
AcDbLine
 62
7
  6
CONTINUOUS
 10
-26.8805790946
 20
7.0720868568
 11
-26.8684269708
 21
7.0579822172
  0
LWPOLYLINE
  5
288
100
AcDbEntity
  8
0
100
AcDbPolyline
 62
7
  6
CONTINUOUS
 90
3
 70
0
 10
-26.0545508389
 20
8.6774919026
 10
-26.0314849916
 20
8.6501249324
 10
-26.0205035939
 20
8.6370135906
  0
LINE
  5
289
100
AcDbEntity
  8
0
100
AcDbLine
 62
7
  6
CONTINUOUS
 10
-26.0205035939
 20
8.6370135906
 11
-25.9996236715
 21
8.6117520474
  0
LINE
  5
28A
100
AcDbEntity
  8
0
100
AcDbLine
 62
7
  6
CONTINUOUS
 10
-25.9996236715
 20
8.6117520474
 11
-25.9799107516
 21
8.5876604595
  0
LINE
  5
28B
100
AcDbEntity
  8
0
100
AcDbLine
 62
7
  6
CONTINUOUS
 10
-25.9799107516
 20
8.5876604595
 11
-25.9610963539
 21
8.5643583617
  0
LINE
  5
28C
100
AcDbEntity
  8
0
100
AcDbLine
 62
7
  6
CONTINUOUS
 10
-25.9610963539
 20
8.5643583617
 11
-25.9427873516
 21
8.5414188765
  0
LINE
  5
28D
100
AcDbEntity
  8
0
100
AcDbLine
 62
7
  6
CONTINUOUS
 10
-25.9427873516
 20
8.5414188765
 11
-25.9247562442
 21
8.5185728909
  0
LINE
  5
28E
100
AcDbEntity
  8
0
100
AcDbLine
 62
7
  6
CONTINUOUS
 10
-25.9247562442
 20
8.5185728909
 11
-25.9066667856
 21
8.4953618725
  0
LINE
  5
28F
100
AcDbEntity
  8
0
100
AcDbLine
 62
7
  6
CONTINUOUS
 10
-25.9066667856
 20
8.4953618725
 11
-25.8885650719
 21
8.4718578157
  0
LINE
  5
290
100
AcDbEntity
  8
0
100
AcDbLine
 62
7
  6
CONTINUOUS
 10
-25.8885650719
 20
8.4718578157
 11
-25.8704844015
 21
8.4480639763
  0
LWPOLYLINE
  5
291
100
AcDbEntity
  8
0
100
AcDbPolyline
 62
7
  6
CONTINUOUS
 90
3
 70
0
 10
-25.8704844015
 20
8.4480639763
 10
-25.8524778547
 20
8.4240745853
 10
-25.8435041219
 20
8.4119805894
  0
LINE
  5
292
100
AcDbEntity
  8
0
100
AcDbLine
 62
7
  6
CONTINUOUS
 10
-25.9277465037
 20
7.547613461
 11
-25.9413855636
 21
7.5672331423
  0
LWPOLYLINE
  5
293
100
AcDbEntity
  8
0
100
AcDbPolyline
 62
7
  6
CONTINUOUS
 90
3
 70
0
 10
-26.8805790946
 20
7.0720868568
 10
-26.9207305487
 20
7.1326223383
 10
-27.1564958781
 20
7.4835549855
  0
LINE
  5
294
100
AcDbEntity
  8
TRASH
100
AcDbLine
 62
7
  6
CONTINUOUS
 10
-26.0765698022
 20
7.1947130979
 11
-26.0600799629
 21
7.1614891404
  0
LWPOLYLINE
  5
295
100
AcDbEntity
  8
0
100
AcDbPolyline
 62
7
  6
CONTINUOUS
 90
9
 70
0
 10
-25.0388754298
 20
4.7887749931
 10
-25.0159113173
 20
4.7417711005
 10
-24.9817669266
 20
4.6586275736
 10
-24.9534381478
 20
4.5741163659
 10
-24.9310334944
 20
4.4884944873
 10
-24.9146387875
 20
4.4020232021
 10
-24.9043168269
 20
4.3149670284
 10
-24.9001071509
 20
4.2275927246
 10
-24.9000000009
 20
4.2112433276
  0
LWPOLYLINE
  5
296
100
AcDbEntity
  8
TRASH
100
AcDbPolyline
 62
7
  6
CONTINUOUS
 90
3
 70
0
 10
-26.1310877607
 20
7.3073423271
 10
-26.1122958208
 20
7.2679138357
 10
-26.0765698022
 20
7.1947130979
  0
LWPOLYLINE
  5
297
100
AcDbEntity
  8
TRASH
100
AcDbPolyline
 62
7
  6
CONTINUOUS
 90
3
 70
0
 10
-26.1922848033
 20
7.4382902871
 10
-26.1710887897
 20
7.3924336927
 10
-26.1310877607
 20
7.3073423271
  0
LINE
  5
298
100
AcDbEntity
  8
TRASH
100
AcDbLine
 62
7
  6
CONTINUOUS
 10
-26.2611739822
 20
7.589930926
 11
-26.1922848033
 21
7.4382902871
  0
LWPOLYLINE
  5
299
100
AcDbEntity
  8
0
100
AcDbPolyline
 62
7
  6
CONTINUOUS
 90
6
 70
0
 10
-26.2718264709
 20
9.1208416157
 10
-26.2624189759
 20
9.0988785047
 10
-26.253008307
 20
9.0766199597
 10
-26.2435945035
 20
9.0540659784
 10
-26.2341794165
 20
9.0312231166
 10
-26.2247612722
 20
9.0080848136
  0
LINE
  5
29A
100
AcDbEntity
  8
0
100
AcDbLine
 62
7
  6
CONTINUOUS
 10
-26.2247612722
 20
9.0080848136
 11
-26.2058875235
 21
8.9608309808
  0
LWPOLYLINE
  5
29B
100
AcDbEntity
  8
0
100
AcDbPolyline
 62
253
  6
CONTINUOUS
 90
49
 70
0
 10
-24.0896104563
 20
8.0936493982
 10
-24.1264469772
 20
8.1871805595
 10
-24.1705361663
 20
8.279129538
 10
-24.2217433039
 20
8.3692153728
 10
-24.2799119213
 20
8.4571627965
 10
-24.3448642773
 20
8.542703075
 10
-24.4164019012
 20
8.6255748283
 10
-24.4943061995
 20
8.7055248305
 10
-24.5783391278
 20
8.7823087871
 10
-24.668243918
 20
8.8556920791
 10
-24.7637458631
 20
8.92545048
 10
-24.8645531401
 20
8.9913708288
 10
-24.9703577034
 20
9.053251688
 10
-25.080836227
 20
9.1109039623
 10
-25.1956511531
 20
9.1641515048
 10
-25.3144517127
 20
9.2128316374
 10
-25.4368749607
 20
9.2567956266
 10
-25.562546766
 20
9.2959091053
 10
-25.6910830075
 20
9.3300525224
 10
-25.8220908511
 20
9.3591215424
 10
-25.9551700531
 20
9.3830273693
 10
-26.0899140688
 20
9.401696976
 10
-26.2259112075
 20
9.4150733151
 10
-26.3627458816
 20
9.4231155053
 10
-26.499999973
 20
9.4257989699
 10
-26.63725411
 20
9.4231155056
 10
-26.7740888721
 20
9.4150733088
 10
-26.9100860683
 20
9.4016969598
 10
-27.0448300737
 20
9.3830273491
 10
-27.1779092369
 20
9.3591215247
 10
-27.3089170557
 20
9.330052507
 10
-27.4374533083
 20
9.2959090839
 10
-27.5631251364
 20
9.2567955942
 10
-27.6855483919
 20
9.2128315972
 10
-27.8043489235
 20
9.1641514714
 10
-27.9191638104
 20
9.1109039439
 10
-28.0296423216
 20
9.0532516742
 10
-28.1354469216
 20
8.9913707906
 10
-28.2362542535
 20
8.9254503994
 10
-28.3317562305
 20
8.8556919645
 10
-28.4216610181
 20
8.7823086611
 10
-28.5056939282
 20
8.7055247069
 10
-28.5835982029
 20
8.6255747148
 10
-28.6551357984
 20
8.5427029816
 10
-28.7200881243
 20
8.4571627324
 10
-28.7782567196
 20
8.3692153345
 10
-28.8294638446
 20
8.2791295174
 10
-28.8735530262
 20
8.1871805518
 10
-28.9103895437
 20
8.0936493982
  0
LINE
  5
29C
100
AcDbEntity
  8
0
100
AcDbLine
 62
7
  6
CONTINUOUS
 10
-26.2058875235
 20
8.9608309808
 11
-26.1869992486
 21
8.9123606984
  0
LINE
  5
29D
100
AcDbEntity
  8
0
100
AcDbLine
 62
7
  6
CONTINUOUS
 10
-26.1869992486
 20
8.9123606984
 11
-26.1681758276
 21
8.8628534797
  0
LWPOLYLINE
  5
29E
100
AcDbEntity
  8
0
100
AcDbPolyline
 62
7
  6
CONTINUOUS
 90
50
 70
0
 10
-23.9620779777
 20
7.9931405443
 10
-23.9994107508
 20
8.0930017009
 10
-24.0445465138
 20
8.1921561102
 10
-24.0971575207
 20
8.2895386041
 10
-24.1571433805
 20
8.3848392861
 10
-24.2243859077
 20
8.4777607898
 10
-24.2987553226
 20
8.5680216
 10
-24.380207743
 20
8.6554489589
 10
-24.4684792048
 20
8.7396460375
 10
-24.5630155726
 20
8.8200483144
 10
-24.6634338176
 20
8.8963572409
 10
-24.7695442911
 20
8.9684494865
 10
-24.8809796816
 20
9.0360848669
 10
-24.9974581123
 20
9.0990996477
 10
-25.1186090454
 20
9.1572959544
 10
-25.2438749095
 20
9.2104251907
 10
-25.3728127284
 20
9.2583359012
 10
-25.5050997561
 20
9.300939455
 10
-25.6403149882
 20
9.3381240945
 10
-25.7780556347
 20
9.3698007901
 10
-25.9179169375
 20
9.3958943053
 10
-26.0594568904
 20
9.4163381936
 10
-26.2022602553
 20
9.4310868908
 10
-26.345907253
 20
9.4401081691
 10
-26.4899400522
 20
9.4433835559
 10
-26.6339132812
 20
9.4409138322
 10
-26.7774319386
 20
9.4327136501
 10
-26.9201141317
 20
9.4188060618
 10
-27.0615736775
 20
9.3992228966
 10
-27.2013682681
 20
9.3740163893
 10
-27.3390413095
 20
9.3432615525
 10
-27.4741975552
 20
9.3070388095
 10
-27.6064386021
 20
9.2654434719
 10
-27.7353249415
 20
9.218602798
 10
-27.860511249
 20
9.1666291865
 10
-27.9816050085
 20
9.1096681526
 10
-28.0981346892
 20
9.047932336
 10
-28.2097931226
 20
8.9815797381
 10
-28.3162421345
 20
8.9108018847
 10
-28.4170266081
 20
8.8359073599
 10
-28.511829408
 20
8.7571599098
 10
-28.600461263
 20
8.6747418103
 10
-28.6827046476
 20
8.5888661269
 10
-28.7584041367
 20
8.4996840985
 10
-28.827264412
 20
8.4075272786
 10
-28.8889289157
 20
8.3129179629
 10
-28.9432187497
 20
8.2162542671
 10
-28.990097578
 20
8.1177393656
 10
-29.0294940581
 20
8.0176456981
 10
-29.0379171169
 20
7.9931552121
  0
LINE
  5
29F
100
AcDbEntity
  8
0
100
AcDbLine
 62
7
  6
CONTINUOUS
 10
-26.1681758276
 20
8.8628534797
 11
-26.1496772166
 21
8.8130429782
  0
LINE
  5
2A0
100
AcDbEntity
  8
0
100
AcDbLine
 62
7
  6
CONTINUOUS
 10
-26.1496772166
 20
8.8130429782
 11
-26.1315730276
 21
8.7631252995
  0
LWPOLYLINE
  5
2A1
100
AcDbEntity
  8
0
100
AcDbPolyline
 62
7
  6
CONTINUOUS
 90
4
 70
0
 10
-23.9620789453
 20
7.9931403827
 10
-23.9607323646
 20
7.9887947964
 10
-23.9588957844
 20
7.9813280479
 10
-23.9576276248
 20
7.9737569219
  0
LWPOLYLINE
  5
2A2
100
AcDbEntity
  8
0
100
AcDbPolyline
 62
7
  6
CONTINUOUS
 90
4
 70
0
 10
-23.9059748234
 20
7.5672331423
 10
-23.8789380298
 20
7.4737687308
 10
-23.8586604345
 20
7.379896073
 10
-23.8476957047
 20
7.3076823589
  0
LINE
  5
2A3
100
AcDbEntity
  8
ASSI
100
AcDbLine
 62
253
  6
CONTINUOUS
 10
-14.0
 20
3.7488565239
 11
-14.0
 21
-3.322211288
  0
LINE
  5
2A4
100
AcDbEntity
  8
0
100
AcDbLine
 62
7
  6
CONTINUOUS
 10
-26.1315730276
 20
8.7631252995
 11
-26.1194209054
 21
8.7524013955
  0
LWPOLYLINE
  5
2A5
100
AcDbEntity
  8
0
100
AcDbPolyline
 62
7
  6
CONTINUOUS
 90
3
 70
0
 10
-26.1194209054
 20
8.7524013955
 10
-26.1055530946
 20
8.7366979244
 10
-26.0921840332
 20
8.7213459414
  0
LWPOLYLINE
  5
2A6
100
AcDbEntity
  8
0
100
AcDbPolyline
 62
7
  6
CONTINUOUS
 90
3
 70
0
 10
-26.0921840332
 20
8.7213459414
 10
-26.0667267016
 20
8.6917362716
 10
-26.0545508389
 20
8.6774919026
  0
LINE
  5
2A7
100
AcDbEntity
  8
0
100
AcDbLine
 62
7
  6
CONTINUOUS
 10
27.2686226472
 20
7.5189762241
 11
27.2319521918
 21
7.5074925187
  0
LWPOLYLINE
  5
2A8
100
AcDbEntity
  8
0
100
AcDbPolyline
 62
7
  6
CONTINUOUS
 90
22
 70
0
 10
24.0896104563
 20
7.2451212607
 10
24.0794178893
 20
7.2422474456
 10
24.0695165538
 20
7.2390261264
 10
24.0599064498
 20
7.235457303
 10
24.0505618883
 20
7.2315289523
 10
24.0415085582
 20
7.2272530975
 10
24.032823527
 20
7.2226658079
 10
24.0245102515
 20
7.2177646148
 10
24.0165652748
 20
7.212551987
 10
24.0090552939
 20
7.2070713993
 10
24.001984053
 20
7.2013209656
 10
23.9953478079
 20
7.195302572
 10
23.9892020228
 20
7.189065353
 10
23.9835503908
 20
7.1826077585
 10
23.9783892188
 20
7.1759313385
 10
23.9737628918
 20
7.1690898772
 10
23.9696750128
 20
7.1620810815
 10
23.9661219788
 20
7.1549072445
 10
23.9631373654
 20
7.1476290299
 10
23.9607323646
 20
7.140266659
 10
23.9588957844
 20
7.1327999105
 10
23.9576276248
 20
7.1252287845
  0
LWPOLYLINE
  5
2A9
100
AcDbEntity
  8
0
100
AcDbPolyline
 62
7
  6
CONTINUOUS
 90
9
 70
0
 10
29.2272056052
 20
6.0772836486
 10
29.229421408
 20
6.0778848442
 10
29.2325783071
 20
6.0808568999
 10
29.2356866026
 20
6.0862986368
 10
29.2385665229
 20
6.0941697066
 10
29.2412020667
 20
6.1044159115
 10
29.2436092352
 20
6.1169781402
 10
29.2456562606
 20
6.1317822047
 10
29.2473217075
 20
6.1487380541
  0
LWPOLYLINE
  5
2AA
100
AcDbEntity
  8
0
100
AcDbPolyline
 62
7
  6
CONTINUOUS
 90
3
 70
0
 10
26.5
 20
3.1758759944
 10
26.4303081992
 20
3.1579716557
 10
26.3966660186
 20
3.1509546513
  0
LWPOLYLINE
  5
2AB
100
AcDbEntity
  8
0
100
AcDbPolyline
 62
7
  6
CONTINUOUS
 90
39
 70
0
 10
26.9582575695
 20
4.5185073435
 10
27.0440968868
 20
4.5297642933
 10
27.1292184646
 20
4.5429058969
 10
27.2136223029
 20
4.5579321541
 10
27.297391258
 20
4.574861898
 10
27.3804424736
 20
4.5936762956
 10
27.4625273809
 20
4.6143188478
 10
27.5436435615
 20
4.6367951442
 10
27.6237934338
 20
4.6610995953
 10
27.7027356832
 20
4.6871589333
 10
27.7804665459
 20
4.7149784088
 10
27.8569897858
 20
4.7445527711
 10
27.9320753793
 20
4.7757930005
 10
28.0057189974
 20
4.8087041033
 10
28.0779249693
 20
4.8432810731
 10
28.1484762591
 20
4.8794198708
 10
28.2173678867
 20
4.91712519
 10
28.2846048322
 20
4.9563923371
 10
28.3499850008
 20
4.9971031922
 10
28.4135028058
 20
5.0392620939
 10
28.4751638338
 20
5.0828647037
 10
28.534782749
 20
5.1277798859
 10
28.592353409
 20
5.1740115852
 10
28.6478819563
 20
5.221555857
 10
28.7012014822
 20
5.2702697317
 10
28.7523053436
 20
5.3201567247
 10
28.8012001836
 20
5.3712133205
 10
28.8477390229
 20
5.4232860038
 10
28.8919147774
 20
5.4763778289
 10
28.9337345312
 20
5.5304857414
 10
28.9730725573
 20
5.5854470626
 10
29.0099213943
 20
5.6412643585
 10
29.0442885037
 20
5.6979350631
 10
29.0760705427
 20
5.7552887994
 10
29.1052597398
 20
5.8133276219
 10
29.1318638666
 20
5.8720494762
 10
29.155802896
 20
5.9312778209
 10
29.1770501523
 20
5.9909538092
 10
29.1956323111
 20
6.0511362881
  0
LWPOLYLINE
  5
2AC
100
AcDbEntity
  8
ASSI
100
AcDbPolyline
 62
7
  6
CONTINUOUS
 90
23
 70
0
 10
-14.0
 20
-3.322211288
 10
-14.3701230393
 20
-3.3262674582
 10
-14.7391964772
 20
-3.3383330297
 10
-15.1072203136
 20
-3.3584080024
 10
-15.4745414307
 20
-3.3865265919
 10
-15.8408129463
 20
-3.4226545826
 10
-16.2049942138
 20
-3.4666893281
 10
-16.5670792887
 20
-3.5186533143
 10
-16.9270741156
 20
-3.5785240553
 10
-17.2839558809
 20
-3.6461314469
 10
-17.6377157315
 20
-3.7214974914
 10
-17.9883625205
 20
-3.8046001866
 10
-18.3348999942
 20
-3.8952034221
 10
-18.6773164662
 20
-3.9933285284
 10
-19.0156236227
 20
-4.0989541749
 10
-19.3488602693
 20
-4.2117802592
 10
-19.677011986
 20
-4.3318272585
 10
-20.0000931927
 20
-4.4590746955
 10
-20.3171859545
 20
-4.5931610364
 10
-20.6282732412
 20
-4.73410573
 10
-20.933372083
 20
-4.8818893273
 10
-21.2316156366
 20
-5.0360919473
 10
-21.4952628856
 20
-5.1814481813
  0
LINE
  5
2AD
100
AcDbEntity
  8
ASSI
100
AcDbLine
 62
7
  6
CONTINUOUS
 10
-45.6585312829
 20
-5.1814481813
 11
45.6585312829
 21
-5.1814481813
  0
LINE
  5
2AE
100
AcDbEntity
  8
ASSI
100
AcDbLine
 62
7
  6
CONTINUOUS
 10
-14.0
 20
-3.322211288
 11
14.0
 21
-3.322211288
  0
LWPOLYLINE
  5
2AF
100
AcDbEntity
  8
0
100
AcDbPolyline
 62
7
  6
CONTINUOUS
 90
39
 70
0
 10
-26.9582575695
 20
4.5185073435
 10
-27.0440968868
 20
4.5297642933
 10
-27.1292184646
 20
4.5429058969
 10
-27.2136223029
 20
4.5579321541
 10
-27.297391258
 20
4.574861898
 10
-27.3804424736
 20
4.5936762956
 10
-27.4625273809
 20
4.6143188478
 10
-27.5436435615
 20
4.6367951442
 10
-27.6237934338
 20
4.6610995953
 10
-27.7027356832
 20
4.6871589333
 10
-27.7804665459
 20
4.7149784088
 10
-27.8569897858
 20
4.7445527711
 10
-27.9320753793
 20
4.7757930005
 10
-28.0057189974
 20
4.8087041033
 10
-28.0779249693
 20
4.8432810731
 10
-28.1484762591
 20
4.8794198708
 10
-28.2173678867
 20
4.91712519
 10
-28.2846048322
 20
4.9563923371
 10
-28.3499850008
 20
4.9971031922
 10
-28.4135028058
 20
5.0392620939
 10
-28.4751638338
 20
5.0828647037
 10
-28.534782749
 20
5.1277798859
 10
-28.592353409
 20
5.1740115852
 10
-28.6478819563
 20
5.221555857
 10
-28.7012014822
 20
5.2702697317
 10
-28.7523053436
 20
5.3201567247
 10
-28.8012001836
 20
5.3712133205
 10
-28.8477390229
 20
5.4232860038
 10
-28.8919147774
 20
5.4763778289
 10
-28.9337345312
 20
5.5304857414
 10
-28.9730725573
 20
5.5854470626
 10
-29.0099213943
 20
5.6412643585
 10
-29.0442885037
 20
5.6979350631
 10
-29.0760705427
 20
5.7552887994
 10
-29.1052597398
 20
5.8133276219
 10
-29.1318638666
 20
5.8720494762
 10
-29.155802896
 20
5.9312778209
 10
-29.1770501523
 20
5.9909538092
 10
-29.1956323111
 20
6.0511362881
  0
LWPOLYLINE
  5
2B0
100
AcDbEntity
  8
0
100
AcDbPolyline
 62
7
  6
CONTINUOUS
 90
34
 70
0
 10
-24.0896104563
 20
7.2451212607
 10
-24.1373987609
 20
7.2574253765
 10
-24.1852437442
 20
7.2694678406
 10
-24.2331454059
 20
7.281248653
 10
-24.2810834018
 20
7.2927625537
 10
-24.3290780762
 20
7.3040148028
 10
-24.3771904625
 20
7.3150211804
 10
-24.4254193937
 20
7.3257829714
 10
-24.4737660368
 20
7.3362988909
 10
-24.5222949255
 20
7.3465808643
 10
-24.5710243493
 20
7.3566336546
 10
-24.6199360189
 20
7.3664524989
 10
-24.6690395995
 20
7.3760350334
 10
-24.7183756518
 20
7.3853880374
 10
-24.7679036152
 20
7.3945047317
 10
-24.8175114735
 20
7.4033624149
 10
-24.8671671777
 20
7.4119541704
 10
-24.9169027768
 20
7.4202869148
 10
-24.9667024017
 20
7.4283586964
 10
-25.0165145725
 20
7.4361627701
 10
-25.0663907691
 20
7.4437058811
 10
-25.116469561
 20
7.4510063124
 10
-25.1667854043
 20
7.4580709925
 10
-25.2173038429
 20
7.4648929931
 10
-25.268060079
 20
7.4714698124
 10
-25.3191021313
 20
7.4778068651
 10
-25.3703819809
 20
7.4838987367
 10
-25.4217907738
 20
7.4897266812
 10
-25.4733424576
 20
7.4952895673
 10
-25.5250230845
 20
7.5005885264
 10
-25.5766819572
 20
7.5056082068
 10
-25.6282688433
 20
7.5103434913
 10
-25.6798339751
 20
7.5147994971
 10
-25.7313773528
 20
7.5189762241
  0
LINE
  5
2B1
100
AcDbEntity
  8
0
100
AcDbLine
 62
7
  6
CONTINUOUS
 10
-27.1939799261
 20
7.4954696765
 11
-27.2686244995
 21
7.5189760789
  0
LINE
  5
2B2
100
AcDbEntity
  8
0
100
AcDbLine
 62
7
  6
CONTINUOUS
 10
-27.1564958781
 20
7.4835549855
 11
-27.1939799261
 21
7.4954696765
  0
LINE
  5
2B3
100
AcDbEntity
  8
0
100
AcDbLine
 62
7
  6
CONTINUOUS
 10
-25.7918144234
 20
7.4999662377
 11
-25.9277465037
 21
7.547613461
  0
LINE
  5
2B4
100
AcDbEntity
  8
0
100
AcDbLine
 62
7
  6
CONTINUOUS
 10
-25.8435041219
 20
8.4119805894
 11
-25.8060200739
 21
8.3973795482
  0
LINE
  5
2B5
100
AcDbEntity
  8
0
100
AcDbLine
 62
7
  6
CONTINUOUS
 10
-25.8060200739
 20
8.3973795482
 11
-25.7686745504
 21
8.3825537132
  0
LINE
  5
2B6
100
AcDbEntity
  8
0
100
AcDbLine
 62
7
  6
CONTINUOUS
 10
-25.7686745504
 20
8.3825537132
 11
-25.7313755005
 21
8.3675042163
  0
LINE
  5
2B7
100
AcDbEntity
  8
0
100
AcDbLine
 62
7
  6
CONTINUOUS
 10
25.7313773528
 20
8.3675043615
 11
25.7866269136
 21
8.3897134035
  0
LWPOLYLINE
  5
2B8
100
AcDbEntity
  8
0
100
AcDbPolyline
 62
7
  6
CONTINUOUS
 90
3
 70
0
 10
25.7866269136
 20
8.3897134035
 10
25.8243409064
 20
8.4045674345
 10
25.8435037784
 20
8.411980679
  0
LINE
  5
2B9
100
AcDbEntity
  8
0
100
AcDbLine
 62
7
  6
CONTINUOUS
 10
25.9277463982
 20
7.5476134731
 11
25.791822209
 21
7.499968082
  0
LINE
  5
2BA
100
AcDbEntity
  8
0
100
AcDbLine
 62
7
  6
CONTINUOUS
 10
27.2319521918
 20
7.5074925187
 11
27.1564962216
 21
7.4835548264
  0
LWPOLYLINE
  5
2BB
100
AcDbEntity
  8
0
100
AcDbPolyline
 62
7
  6
CONTINUOUS
 90
34
 70
0
 10
24.0896104563
 20
8.0936493982
 10
24.1373987609
 20
8.1059535139
 10
24.1852437442
 20
8.117995978
 10
24.2331454059
 20
8.1297767905
 10
24.2810834018
 20
8.1412906912
 10
24.3290780762
 20
8.1525429402
 10
24.3771904625
 20
8.1635493178
 10
24.4254193937
 20
8.1743111088
 10
24.4737660368
 20
8.1848270283
 10
24.5222949255
 20
8.1951090017
 10
24.5710243493
 20
8.2051617921
 10
24.6199360189
 20
8.2149806363
 10
24.6690395995
 20
8.2245631708
 10
24.7183756518
 20
8.2339161748
 10
24.7679036152
 20
8.2430328691
 10
24.8175114735
 20
8.2518905523
 10
24.8671671777
 20
8.2604823078
 10
24.9169027768
 20
8.2688150522
 10
24.9667024017
 20
8.2768868338
 10
25.0165145725
 20
8.2846909075
 10
25.0663907691
 20
8.2922340185
 10
25.116469561
 20
8.2995344498
 10
25.1667854043
 20
8.3065991299
 10
25.2173038429
 20
8.3134211305
 10
25.268060079
 20
8.3199979498
 10
25.3191021313
 20
8.3263350026
 10
25.3703819809
 20
8.3324268741
 10
25.4217907738
 20
8.3382548186
 10
25.4733424576
 20
8.3438177047
 10
25.5250230845
 20
8.3491166638
 10
25.5766819572
 20
8.3541363442
 10
25.6282688433
 20
8.3588716287
 10
25.6798339751
 20
8.3633276345
 10
25.7313773528
 20
8.3675043615
  0
LWPOLYLINE
  5
2BC
100
AcDbEntity
  8
TRASH
100
AcDbPolyline
 62
7
  6
CONTINUOUS
 90
10
 70
0
 10
26.261175259
 20
7.5899349533
 10
26.3136441901
 20
7.5969261607
 10
26.366522645
 20
7.6021866222
 10
26.4196965134
 20
7.6057043196
 10
26.4730381778
 20
7.6074720084
 10
26.5264452596
 20
7.6074850215
 10
26.5798403387
 20
7.6057370768
 10
26.6331196195
 20
7.6022252419
 10
26.6861537119
 20
7.5969541644
 10
26.7388260178
 20
7.589930926
  0
LWPOLYLINE
  5
2BD
100
AcDbEntity
  8
0
100
AcDbPolyline
 62
7
  6
CONTINUOUS
 90
39
 70
0
 10
-26.0417424305
 20
4.5185073435
 10
-25.9559031132
 20
4.5297642933
 10
-25.8707815354
 20
4.5429058969
 10
-25.7863776971
 20
4.5579321541
 10
-25.702608742
 20
4.574861898
 10
-25.6195575264
 20
4.5936762956
 10
-25.5374726191
 20
4.6143188478
 10
-25.4563564385
 20
4.6367951442
 10
-25.3762065662
 20
4.6610995953
 10
-25.2972643168
 20
4.6871589333
 10
-25.2195334541
 20
4.7149784088
 10
-25.1430102142
 20
4.7445527711
 10
-25.0679246207
 20
4.7757930005
 10
-24.9942810026
 20
4.8087041033
 10
-24.9220750307
 20
4.8432810731
 10
-24.8515237409
 20
4.8794198708
 10
-24.7826321133
 20
4.91712519
 10
-24.7153951678
 20
4.9563923371
 10
-24.6500149992
 20
4.9971031922
 10
-24.5864971942
 20
5.0392620939
 10
-24.5248361662
 20
5.0828647037
 10
-24.465217251
 20
5.1277798859
 10
-24.407646591
 20
5.1740115852
 10
-24.3521180437
 20
5.221555857
 10
-24.2987985178
 20
5.2702697317
 10
-24.2476946564
 20
5.3201567247
 10
-24.1987998164
 20
5.3712133205
 10
-24.1522609771
 20
5.4232860038
 10
-24.1080852226
 20
5.4763778289
 10
-24.0662654688
 20
5.5304857414
 10
-24.0269274427
 20
5.5854470626
 10
-23.9900786057
 20
5.6412643585
 10
-23.9557114963
 20
5.6979350631
 10
-23.9239294573
 20
5.7552887994
 10
-23.8947402602
 20
5.8133276219
 10
-23.8681361334
 20
5.8720494762
 10
-23.844197104
 20
5.9312778209
 10
-23.8229498477
 20
5.9909538092
 10
-23.8043676889
 20
6.0511362881
  0
LWPOLYLINE
  5
2BE
100
AcDbEntity
  8
0
100
AcDbPolyline
 62
7
  6
CONTINUOUS
 90
7
 70
0
 10
23.7727943949
 20
6.0772836486
 10
23.7737882543
 20
6.0773999452
 10
23.7770465308
 20
6.0794076161
 10
23.7801611341
 20
6.0838922089
 10
23.7830679718
 20
6.0908194027
 10
23.7858311362
 20
6.1001484229
 10
23.7884506274
 20
6.1118252575
  0
LWPOLYLINE
  5
2BF
100
AcDbEntity
  8
0
100
AcDbPolyline
 62
7
  6
CONTINUOUS
 90
7
 70
0
 10
26.9582575695
 20
4.5185073435
 10
26.8826695642
 20
4.5102371985
 10
26.806688429
 20
4.5034490075
 10
26.7303720702
 20
4.4981537605
 10
26.6537790303
 20
4.4943613254
 10
26.576968445
 20
4.4920804298
 10
26.5
 20
4.4913186441
  0
LWPOLYLINE
  5
2C0
100
AcDbEntity
  8
0
100
AcDbPolyline
 62
7
  6
CONTINUOUS
 90
7
 70
0
 10
-26.0417424305
 20
4.5185073435
 10
-26.1173304358
 20
4.5102371985
 10
-26.193311571
 20
4.5034490075
 10
-26.2696279298
 20
4.4981537605
 10
-26.3462209697
 20
4.4943613254
 10
-26.423031555
 20
4.4920804298
 10
-26.5
 20
4.4913186441
  0
LWPOLYLINE
  5
2C1
100
AcDbEntity
  8
0
100
AcDbPolyline
 62
7
  6
CONTINUOUS
 90
34
 70
0
 10
25.7313755005
 20
7.5189760789
 10
25.679831424
 20
7.5147992856
 10
25.628265514
 20
7.5103431965
 10
25.5766777704
 20
7.5056078114
 10
25.5250179046
 20
7.5005880073
 10
25.4733362053
 20
7.4952889073
 10
25.4217835388
 20
7.4897258806
 10
25.3703738712
 20
7.4838977949
 10
25.3190932363
 20
7.4778057824
 10
25.2680506016
 20
7.4714686097
 10
25.2172940436
 20
7.4648916982
 10
25.1667754858
 20
7.4580696264
 10
25.1164596657
 20
7.4510048962
 10
25.066381076
 20
7.4437044437
 10
25.016505224
 20
7.4361613328
 10
24.9666933693
 20
7.428357257
 10
24.9168939681
 20
7.4202854627
 10
24.8671585642
 20
7.4119527035
 10
24.8175030492
 20
7.4033609341
 10
24.7678953426
 20
7.3945032308
 10
24.718367525
 20
7.3853865173
 10
24.6690317297
 20
7.3760335193
 10
24.6199285647
 20
7.3664510242
 10
24.571017422
 20
7.3566322446
 10
24.522288611
 20
7.346579544
 10
24.4737604411
 20
7.3362976908
 10
24.4254146029
 20
7.3257819167
 10
24.3771864777
 20
7.31502028
 10
24.3290748968
 20
7.3040140672
 10
24.2810810289
 20
7.2927619918
 10
24.2331437621
 20
7.2812482535
 10
24.1852427257
 20
7.2694675855
 10
24.1373982904
 20
7.2574252546
 10
24.0896104563
 20
7.2451212607
  0
LWPOLYLINE
  5
2C2
100
AcDbEntity
  8
0
100
AcDbPolyline
 62
253
  6
CONTINUOUS
 90
28
 70
0
 10
26.5
 20
5.7023792543
 10
26.6292335758
 20
5.7046411007
 10
26.7581492766
 20
5.711421004
 10
26.8864314019
 20
5.7227022158
 10
27.0137140254
 20
5.7384496187
 10
27.1397383017
 20
5.7586282297
 10
27.2643474571
 20
5.7832213198
 10
27.3873268579
 20
5.8122092924
 10
27.5082659749
 20
5.8455185256
 10
27.6267208034
 20
5.8830359043
 10
27.742354509
 20
5.9246524659
 10
27.8549276575
 20
5.9702797047
 10
27.9641608331
 20
6.0198049195
 10
28.0697825351
 20
6.0731053555
 10
28.1715335905
 20
6.1300505771
 10
28.2691660322
 20
6.1905026316
 10
28.3624684196
 20
6.2543348164
 10
28.4511761526
 20
6.321370523
 10
28.5349907139
 20
6.3913758279
 10
28.6136762952
 20
6.464128902
 10
28.6871011615
 20
6.5394815157
 10
28.7551454265
 20
6.6172974876
 10
28.8176520092
 20
6.6973935461
 10
28.8744630094
 20
6.7795634048
 10
28.9254603512
 20
6.8636359517
 10
28.9705210614
 20
6.9494166167
 10
29.0095247243
 20
7.0366854077
 10
29.0423723752
 20
7.1252287845
  0
LWPOLYLINE
  5
2C3
100
AcDbEntity
  8
0
100
AcDbPolyline
 62
253
  6
CONTINUOUS
 90
28
 70
0
 10
-26.5
 20
5.7023792543
 10
-26.3707664242
 20
5.7046411007
 10
-26.2418507234
 20
5.711421004
 10
-26.1135685981
 20
5.7227022158
 10
-25.9862859746
 20
5.7384496187
 10
-25.8602616983
 20
5.7586282297
 10
-25.7356525429
 20
5.7832213198
 10
-25.6126731421
 20
5.8122092924
 10
-25.4917340251
 20
5.8455185256
 10
-25.3732791966
 20
5.8830359043
 10
-25.257645491
 20
5.9246524659
 10
-25.1450723425
 20
5.9702797047
 10
-25.0358391669
 20
6.0198049195
 10
-24.9302174649
 20
6.0731053555
 10
-24.8284664095
 20
6.1300505771
 10
-24.7308339678
 20
6.1905026316
 10
-24.6375315804
 20
6.2543348164
 10
-24.5488238474
 20
6.321370523
 10
-24.4650092861
 20
6.3913758279
 10
-24.3863237048
 20
6.464128902
 10
-24.3128988385
 20
6.5394815157
 10
-24.2448545735
 20
6.6172974876
 10
-24.1823479908
 20
6.6973935461
 10
-24.1255369906
 20
6.7795634048
 10
-24.0745396488
 20
6.8636359517
 10
-24.0294789386
 20
6.9494166167
 10
-23.9904752757
 20
7.0366854077
 10
-23.9576276248
 20
7.1252287845
  0
LINE
  5
2C4
100
AcDbEntity
  8
ASSI
100
AcDbLine
 62
7
  6
CONTINUOUS
 10
-14.0
 20
3.7488565239
 11
14.0
 21
3.7488565239
  0
LINE
  5
2C5
100
AcDbEntity
  8
0
100
AcDbLine
 62
7
  6
CONTINUOUS
 10
-29.2271780287
 20
6.0772836486
 11
-29.2024900507
 21
6.0772836486
  0
LINE
  5
2C6
100
AcDbEntity
  8
0
100
AcDbLine
 62
7
  6
CONTINUOUS
 10
-23.7975099493
 20
6.0772836486
 11
-23.7728219713
 21
6.0772836486
  0
LINE
  5
2C7
100
AcDbEntity
  8
0
100
AcDbLine
 62
7
  6
CONTINUOUS
 10
23.7728219713
 20
6.0772836486
 11
23.7975099493
 21
6.0772836486
  0
LINE
  5
2C8
100
AcDbEntity
  8
0
100
AcDbLine
 62
7
  6
CONTINUOUS
 10
29.2024900507
 20
6.0772836486
 11
29.2271780287
 21
6.0772836486
  0
LINE
  5
2C9
100
AcDbEntity
  8
0
100
AcDbLine
 62
7
  6
CONTINUOUS
 10
29.0940251766
 20
7.5672331423
 11
27.0586144364
 21
7.5672331423
  0
LINE
  5
2CA
100
AcDbEntity
  8
0
100
AcDbLine
 62
7
  6
CONTINUOUS
 10
25.9413851937
 20
7.5672331423
 11
23.9059748234
 21
7.5672331423
  0
LINE
  5
2CB
100
AcDbEntity
  8
0
100
AcDbLine
 62
7
  6
CONTINUOUS
 10
-23.9059748234
 20
7.5672331423
 11
-25.9413855636
 21
7.5672331423
  0
LINE
  5
2CC
100
AcDbEntity
  8
0
100
AcDbLine
 62
7
  6
CONTINUOUS
 10
-27.0586148063
 20
7.5672331423
 11
-29.0940251766
 21
7.5672331423
  0
LWPOLYLINE
  5
2CD
100
AcDbEntity
  8
0
100
AcDbPolyline
 62
7
  6
CONTINUOUS
 90
7
 70
0
 10
-26.5
 20
4.4913186441
 10
-26.576968445
 20
4.4920804298
 10
-26.6537790303
 20
4.4943613254
 10
-26.7303720702
 20
4.4981537605
 10
-26.806688429
 20
4.5034490075
 10
-26.8826695642
 20
4.5102371985
 10
-26.9582575695
 20
4.5185073435
  0
LWPOLYLINE
  5
2CE
100
AcDbEntity
  8
0
100
AcDbPolyline
 62
7
  6
CONTINUOUS
 90
7
 70
0
 10
26.5
 20
4.4913186441
 10
26.423031555
 20
4.4920804298
 10
26.3462209697
 20
4.4943613254
 10
26.2696279298
 20
4.4981537605
 10
26.193311571
 20
4.5034490075
 10
26.1173304358
 20
4.5102371985
 10
26.0417424305
 20
4.5185073435
  0
LWPOLYLINE
  5
2CF
100
AcDbEntity
  8
ASSI
100
AcDbPolyline
 62
7
  6
CONTINUOUS
 90
52
 70
0
 10
14.0
 20
3.7488565239
 10
14.3701230393
 20
3.7448003537
 10
14.7391964772
 20
3.7327347822
 10
15.1072203136
 20
3.7126598095
 10
15.4745414307
 20
3.68454122
 10
15.8408129463
 20
3.6484132293
 10
16.2049942138
 20
3.6043784838
 10
16.5670792887
 20
3.5524144976
 10
16.9270741156
 20
3.4925437566
 10
17.2839558809
 20
3.4249363649
 10
17.6377157315
 20
3.3495703204
 10
17.9883625205
 20
3.2664676252
 10
18.3348999942
 20
3.1758643898
 10
18.6773164662
 20
3.0777392835
 10
19.0156236227
 20
2.972113637
 10
19.3488602693
 20
2.8592875527
 10
19.677011986
 20
2.7392405534
 10
20.0000931927
 20
2.6119931163
 10
20.3171859545
 20
2.4779067755
 10
20.6282732412
 20
2.3369620819
 10
20.933372083
 20
2.1891784846
 10
21.2316156366
 20
2.0349758646
 10
21.5229844061
 20
1.8743359671
 10
21.8074978874
 20
1.707277047
 10
22.0843477238
 20
1.5342737503
 10
22.3535121207
 20
1.3553091719
 10
22.6150128727
 20
1.1704002169
 10
22.8681070066
 20
0.9800722466
 10
23.1127706152
 20
0.7843098499
 10
23.3490276057
 20
0.583128438
 10
23.5762067274
 20
0.3770996052
 10
23.7942821638
 20
0.166209566
 10
24.0032797315
 20
-0.049527894
 10
24.2026056288
 20
-0.2694998239
 10
24.3922323505
 20
-0.4937182661
 10
24.5721874017
 20
-0.7221711782
 10
24.7419594963
 20
-0.9542094823
 10
24.9015196749
 20
-1.1898433748
 10
25.0508968967
 20
-1.4290626594
 10
25.1896667529
 20
-1.6711876687
 10
25.3177990772
 20
-1.9162266663
 10
25.4353240358
 20
-2.1641713886
 10
25.5419077181
 20
-2.4143173779
 10
25.6375190083
 20
-2.6666708942
 10
25.7221890222
 20
-2.9212256774
 10
25.7956771962
 20
-3.1772584893
 10
25.8579517305
 20
-3.4347735331
 10
25.909044425
 20
-3.6937666056
 10
25.9488101155
 20
-3.9535018584
 10
25.9772004142
 20
-4.2137340087
 10
25.9942637091
 20
-4.4747083394
 10
26.0
 20
-4.7364248504
  0
LWPOLYLINE
  5
2D0
100
AcDbEntity
  8
0
100
AcDbPolyline
 62
7
  6
CONTINUOUS
 90
10
 70
0
 10
-26.7281735282
 20
6.5047800399
 10
-26.6776664734
 20
6.5008682095
 10
-26.627026951
 20
6.4979312902
 10
-26.5762925901
 20
6.4959714898
 10
-26.5255007967
 20
6.4949902875
 10
-26.4746896112
 20
6.4949884521
 10
-26.4238976797
 20
6.495965985
 10
-26.3731630425
 20
6.4979221197
 10
-26.3225231059
 20
6.5008553797
 10
-26.2720154992
 20
6.5047635598
  0
LWPOLYLINE
  5
2D1
100
AcDbEntity
  8
0
100
AcDbPolyline
 62
7
  6
CONTINUOUS
 90
10
 70
0
 10
-26.2718264709
 20
9.1208416157
 10
-26.3223335259
 20
9.1247534462
 10
-26.3729730483
 20
9.1276903655
 10
-26.4237074094
 20
9.1296501658
 10
-26.4744992028
 20
9.1306313682
 10
-26.5253103884
 20
9.1306332035
 10
-26.57610232
 20
9.1296556707
 10
-26.6268369573
 20
9.127699536
 10
-26.677476894
 20
9.124766276
 10
-26.7279845008
 20
9.1208580959
  0
LWPOLYLINE
  5
2D2
100
AcDbEntity
  8
0
100
AcDbPolyline
 62
7
  6
CONTINUOUS
 90
10
 70
0
 10
26.2718264718
 20
6.5047800399
 10
26.3223335266
 20
6.5008682095
 10
26.372973049
 20
6.4979312902
 10
26.4237074099
 20
6.4959714898
 10
26.4744992033
 20
6.4949902875
 10
26.5253103888
 20
6.4949884521
 10
26.5761023203
 20
6.495965985
 10
26.6268369575
 20
6.4979221197
 10
26.6774768941
 20
6.5008553797
 10
26.7279845008
 20
6.5047635598
  0
LWPOLYLINE
  5
2D3
100
AcDbEntity
  8
0
100
AcDbPolyline
 62
7
  6
CONTINUOUS
 90
34
 70
0
 10
-25.7313755005
 20
8.3675042163
 10
-25.679831424
 20
8.3633274231
 10
-25.628265514
 20
8.3588713339
 10
-25.5766777704
 20
8.3541359488
 10
-25.5250179046
 20
8.3491161447
 10
-25.4733362053
 20
8.3438170447
 10
-25.4217835388
 20
8.3382540181
 10
-25.3703738712
 20
8.3324259323
 10
-25.3190932363
 20
8.3263339198
 10
-25.2680506016
 20
8.3199967471
 10
-25.2172940436
 20
8.3134198356
 10
-25.1667754858
 20
8.3065977638
 10
-25.1164596657
 20
8.2995330336
 10
-25.066381076
 20
8.2922325811
 10
-25.016505224
 20
8.2846894702
 10
-24.9666933693
 20
8.2768853944
 10
-24.9168939681
 20
8.2688136001
 10
-24.8671585642
 20
8.2604808409
 10
-24.8175030492
 20
8.2518890715
 10
-24.7678953426
 20
8.2430313682
 10
-24.718367525
 20
8.2339146548
 10
-24.6690317297
 20
8.2245616568
 10
-24.6199285647
 20
8.2149791616
 10
-24.571017422
 20
8.205160382
 10
-24.522288611
 20
8.1951076814
 10
-24.4737604411
 20
8.1848258282
 10
-24.4254146029
 20
8.1743100541
 10
-24.3771864777
 20
8.1635484174
 10
-24.3290748968
 20
8.1525422046
 10
-24.2810810289
 20
8.1412901292
 10
-24.2331437621
 20
8.129776391
 10
-24.1852427257
 20
8.1179957229
 10
-24.1373982904
 20
8.105953392
 10
-24.0896104563
 20
8.0936493982
  0
LWPOLYLINE
  5
2D4
100
AcDbEntity
  8
0
100
AcDbPolyline
 62
7
  6
CONTINUOUS
 90
39
 70
0
 10
26.0417424305
 20
4.5185073435
 10
25.9559031132
 20
4.5297642933
 10
25.8707815354
 20
4.5429058969
 10
25.7863776971
 20
4.5579321541
 10
25.702608742
 20
4.574861898
 10
25.6195575264
 20
4.5936762956
 10
25.5374726191
 20
4.6143188478
 10
25.4563564385
 20
4.6367951442
 10
25.3762065662
 20
4.6610995953
 10
25.2972643168
 20
4.6871589333
 10
25.2195334541
 20
4.7149784088
 10
25.1430102142
 20
4.7445527711
 10
25.0679246207
 20
4.7757930005
 10
24.9942810026
 20
4.8087041033
 10
24.9220750307
 20
4.8432810731
 10
24.8515237409
 20
4.8794198708
 10
24.7826321133
 20
4.91712519
 10
24.7153951678
 20
4.9563923371
 10
24.6500149992
 20
4.9971031922
 10
24.5864971942
 20
5.0392620939
 10
24.5248361662
 20
5.0828647037
 10
24.465217251
 20
5.1277798859
 10
24.407646591
 20
5.1740115852
 10
24.3521180437
 20
5.221555857
 10
24.2987985178
 20
5.2702697317
 10
24.2476946564
 20
5.3201567247
 10
24.1987998164
 20
5.3712133205
 10
24.1522609771
 20
5.4232860038
 10
24.1080852226
 20
5.4763778289
 10
24.0662654688
 20
5.5304857414
 10
24.0269274427
 20
5.5854470626
 10
23.9900786057
 20
5.6412643585
 10
23.9557114963
 20
5.6979350631
 10
23.9239294573
 20
5.7552887994
 10
23.8947402602
 20
5.8133276219
 10
23.8681361334
 20
5.8720494762
 10
23.844197104
 20
5.9312778209
 10
23.8229498477
 20
5.9909538092
 10
23.8043676889
 20
6.0511362881
  0
LWPOLYLINE
  5
2D5
100
AcDbEntity
  8
0
100
AcDbPolyline
 62
7
  6
CONTINUOUS
 90
20
 70
0
 10
-24.0896104563
 20
8.0936493982
 10
-24.0794178893
 20
8.0907755831
 10
-24.0695165538
 20
8.0875542638
 10
-24.0599064498
 20
8.0839854404
 10
-24.0505618883
 20
8.0800570898
 10
-24.0415085582
 20
8.075781235
 10
-24.032823527
 20
8.0711939453
 10
-24.0245102515
 20
8.0662927523
 10
-24.0165652748
 20
8.0610801244
 10
-24.0090552939
 20
8.0555995368
 10
-24.001984053
 20
8.049849103
 10
-23.9953478079
 20
8.0438307095
 10
-23.9892020228
 20
8.0375934905
 10
-23.9835503908
 20
8.031135896
 10
-23.9783892188
 20
8.0244594759
 10
-23.9737628918
 20
8.0176180147
 10
-23.9696750128
 20
8.0106092189
 10
-23.9661219788
 20
8.0034353819
 10
-23.9631373654
 20
7.9961571673
 10
-23.9620789453
 20
7.9931403827
  0
LWPOLYLINE
  5
2D6
100
AcDbEntity
  8
ASSI
100
AcDbPolyline
 62
7
  6
CONTINUOUS
 90
23
 70
0
 10
21.4952628856
 20
-5.1814481813
 10
21.2316156366
 20
-5.0360919473
 10
20.933372083
 20
-4.8818893273
 10
20.6282732412
 20
-4.73410573
 10
20.3171859545
 20
-4.5931610364
 10
20.0000931927
 20
-4.4590746955
 10
19.677011986
 20
-4.3318272585
 10
19.3488602693
 20
-4.2117802592
 10
19.0156236227
 20
-4.0989541749
 10
18.6773164662
 20
-3.9933285284
 10
18.3348999942
 20
-3.8952034221
 10
17.9883625205
 20
-3.8046001866
 10
17.6377157315
 20
-3.7214974914
 10
17.2839558809
 20
-3.6461314469
 10
16.9270741156
 20
-3.5785240553
 10
16.5670792887
 20
-3.5186533143
 10
16.2049942138
 20
-3.4666893281
 10
15.8408129463
 20
-3.4226545826
 10
15.4745414307
 20
-3.3865265919
 10
15.1072203136
 20
-3.3584080024
 10
14.7391964772
 20
-3.3383330297
 10
14.3701230393
 20
-3.3262674582
 10
14.0
 20
-3.322211288
  0
LINE
  5
2D7
100
AcDbEntity
  8
ASSI
100
AcDbLine
 62
253
  6
CONTINUOUS
 10
14.0
 20
3.7488565239
 11
14.0
 21
-3.322211288
  0
LINE
  5
2D8
100
AcDbEntity
  8
0
100
AcDbLine
 62
7
  6
CONTINUOUS
 10
25.8435037784
 20
8.411980679
 11
25.8536690215
 21
8.4256791987
  0
LINE
  5
2D9
100
AcDbEntity
  8
0
100
AcDbLine
 62
7
  6
CONTINUOUS
 10
25.8536690215
 20
8.4256791987
 11
25.8740742506
 21
8.4528115214
  0
LINE
  5
2DA
100
AcDbEntity
  8
0
100
AcDbLine
 62
7
  6
CONTINUOUS
 10
25.8740742506
 20
8.4528115214
 11
25.8945611578
 21
8.4796796985
  0
LINE
  5
2DB
100
AcDbEntity
  8
0
100
AcDbLine
 62
7
  6
CONTINUOUS
 10
25.8945611578
 20
8.4796796985
 11
25.9150869936
 21
8.5061946641
  0
LINE
  5
2DC
100
AcDbEntity
  8
0
100
AcDbLine
 62
7
  6
CONTINUOUS
 10
25.9150869936
 20
8.5061946641
 11
25.935642309
 21
8.5324051833
  0
LINE
  5
2DD
100
AcDbEntity
  8
0
100
AcDbLine
 62
7
  6
CONTINUOUS
 10
25.935642309
 20
8.5324051833
 11
25.9563025601
 21
8.5583682992
  0
LINE
  5
2DE
100
AcDbEntity
  8
0
100
AcDbLine
 62
7
  6
CONTINUOUS
 10
25.9563025601
 20
8.5583682992
 11
25.9774966073
 21
8.58467947
  0
LWPOLYLINE
  5
2DF
100
AcDbEntity
  8
0
100
AcDbPolyline
 62
7
  6
CONTINUOUS
 90
3
 70
0
 10
25.9774966073
 20
8.58467947
 10
25.9995296147
 20
8.6116612396
 10
26.0110113357
 20
8.6255750937
  0
LWPOLYLINE
  5
2E0
100
AcDbEntity
  8
0
100
AcDbPolyline
 62
7
  6
CONTINUOUS
 90
3
 70
0
 10
26.0110113357
 20
8.6255750937
 10
26.0350426955
 20
8.6543855896
 10
26.0477141863
 20
8.669420382
  0
LWPOLYLINE
  5
2E1
100
AcDbEntity
  8
0
100
AcDbPolyline
 62
7
  6
CONTINUOUS
 90
4
 70
0
 10
26.0477141863
 20
8.669420382
 10
26.0888184943
 20
8.717517517
 10
26.1037453227
 20
8.7346946544
 10
26.1194209546
 20
8.7524014513
  0
LINE
  5
2E2
100
AcDbEntity
  8
0
100
AcDbLine
 62
7
  6
CONTINUOUS
 10
26.8805790454
 20
7.0720867824
 11
26.8685691724
 21
7.0581474687
  0
LINE
  5
2E3
100
AcDbEntity
  8
0
100
AcDbLine
 62
7
  6
CONTINUOUS
 10
26.1314308276
 20
8.7630001368
 11
26.1194209546
 21
8.7524014513
  0
LWPOLYLINE
  5
2E4
100
AcDbEntity
  8
0
100
AcDbPolyline
 62
7
  6
CONTINUOUS
 90
22
 70
0
 10
-28.9103895437
 20
7.2451212607
 10
-28.9205821107
 20
7.2422474456
 10
-28.9304834462
 20
7.2390261264
 10
-28.9400935502
 20
7.235457303
 10
-28.9494381117
 20
7.2315289523
 10
-28.9584914418
 20
7.2272530975
 10
-28.967176473
 20
7.2226658079
 10
-28.9754897485
 20
7.2177646148
 10
-28.9834347252
 20
7.212551987
 10
-28.9909447061
 20
7.2070713993
 10
-28.998015947
 20
7.2013209656
 10
-29.0046521921
 20
7.195302572
 10
-29.0107979772
 20
7.189065353
 10
-29.0164496092
 20
7.1826077585
 10
-29.0216107812
 20
7.1759313385
 10
-29.0262371082
 20
7.1690898772
 10
-29.0303249872
 20
7.1620810815
 10
-29.0338780212
 20
7.1549072445
 10
-29.0368626346
 20
7.1476290299
 10
-29.0392676354
 20
7.140266659
 10
-29.0411042156
 20
7.1327999105
 10
-29.0423723752
 20
7.1252287845
  0
LWPOLYLINE
  5
2E5
100
AcDbEntity
  8
0
100
AcDbPolyline
 62
7
  6
CONTINUOUS
 90
9
 70
0
 10
-23.7727943948
 20
6.0772836486
 10
-23.770578592
 20
6.0778848442
 10
-23.7674216929
 20
6.0808568999
 10
-23.7643133974
 20
6.0862986368
 10
-23.7614334771
 20
6.0941697066
 10
-23.7587979333
 20
6.1044159115
 10
-23.7563907648
 20
6.1169781402
 10
-23.7543437394
 20
6.1317822047
 10
-23.7526782925
 20
6.1487380541
  0
LWPOLYLINE
  5
2E6
100
AcDbEntity
  8
0
100
AcDbPolyline
 62
7
  6
CONTINUOUS
 90
34
 70
0
 10
-28.9103895437
 20
8.0936493982
 10
-28.8626012391
 20
8.1059535139
 10
-28.8147562558
 20
8.117995978
 10
-28.7668545941
 20
8.1297767905
 10
-28.7189165982
 20
8.1412906912
 10
-28.6709219238
 20
8.1525429402
 10
-28.6228095375
 20
8.1635493178
 10
-28.5745806063
 20
8.1743111088
 10
-28.5262339632
 20
8.1848270283
 10
-28.4777050745
 20
8.1951090017
 10
-28.4289756507
 20
8.2051617921
 10
-28.3800639811
 20
8.2149806363
 10
-28.3309604005
 20
8.2245631708
 10
-28.2816243482
 20
8.2339161748
 10
-28.2320963848
 20
8.2430328691
 10
-28.1824885265
 20
8.2518905523
 10
-28.1328328223
 20
8.2604823078
 10
-28.0830972232
 20
8.2688150522
 10
-28.0332975983
 20
8.2768868338
 10
-27.9834854275
 20
8.2846909075
 10
-27.9336092309
 20
8.2922340185
 10
-27.883530439
 20
8.2995344498
 10
-27.8332145957
 20
8.3065991299
 10
-27.7826961571
 20
8.3134211305
 10
-27.731939921
 20
8.3199979498
 10
-27.6808978687
 20
8.3263350026
 10
-27.6296180191
 20
8.3324268741
 10
-27.5782092262
 20
8.3382548186
 10
-27.5266575424
 20
8.3438177047
 10
-27.4749769155
 20
8.3491166638
 10
-27.4233180428
 20
8.3541363442
 10
-27.3717311567
 20
8.3588716287
 10
-27.3201660249
 20
8.3633276345
 10
-27.2686226472
 20
8.3675043615
  0
LWPOLYLINE
  5
2E7
100
AcDbEntity
  8
0
100
AcDbPolyline
 62
7
  6
CONTINUOUS
 90
3
 70
0
 10
-26.5
 20
3.1758759944
 10
-26.5696918008
 20
3.1579716557
 10
-26.6033339814
 20
3.1509546513
  0
LWPOLYLINE
  5
2E8
100
AcDbEntity
  8
TRASH
100
AcDbPolyline
 62
7
  6
CONTINUOUS
 90
10
 70
0
 10
-26.738824741
 20
7.5899349533
 10
-26.6863558099
 20
7.5969261607
 10
-26.633477355
 20
7.6021866222
 10
-26.5803034866
 20
7.6057043196
 10
-26.5269618222
 20
7.6074720084
 10
-26.4735547404
 20
7.6074850215
 10
-26.4201596613
 20
7.6057370768
 10
-26.3668803805
 20
7.6022252419
 10
-26.3138462881
 20
7.5969541644
 10
-26.2611739822
 20
7.589930926
  0
LWPOLYLINE
  5
2E9
100
AcDbEntity
  8
0
100
AcDbPolyline
 62
7
  6
CONTINUOUS
 90
7
 70
0
 10
-29.2272056051
 20
6.0772836486
 10
-29.2262117457
 20
6.0773999452
 10
-29.2229534692
 20
6.0794076161
 10
-29.2198388659
 20
6.0838922089
 10
-29.2169320282
 20
6.0908194027
 10
-29.2141688638
 20
6.1001484229
 10
-29.2115493726
 20
6.1118252575
  0
LWPOLYLINE
  5
2EA
100
AcDbEntity
  8
0
100
AcDbPolyline
 62
7
  6
CONTINUOUS
 90
34
 70
0
 10
-27.2686244995
 20
7.5189760789
 10
-27.320168576
 20
7.5147992856
 10
-27.371734486
 20
7.5103431965
 10
-27.4233222296
 20
7.5056078114
 10
-27.4749820954
 20
7.5005880073
 10
-27.5266637947
 20
7.4952889073
 10
-27.5782164612
 20
7.4897258806
 10
-27.6296261288
 20
7.4838977949
 10
-27.6809067637
 20
7.4778057824
 10
-27.7319493984
 20
7.4714686097
 10
-27.7827059564
 20
7.4648916982
 10
-27.8332245142
 20
7.4580696264
 10
-27.8835403343
 20
7.4510048962
 10
-27.933618924
 20
7.4437044437
 10
-27.983494776
 20
7.4361613328
 10
-28.0333066307
 20
7.428357257
 10
-28.0831060319
 20
7.4202854627
 10
-28.1328414358
 20
7.4119527035
 10
-28.1824969508
 20
7.4033609341
 10
-28.2321046574
 20
7.3945032308
 10
-28.281632475
 20
7.3853865173
 10
-28.3309682703
 20
7.3760335193
 10
-28.3800714353
 20
7.3664510242
 10
-28.428982578
 20
7.3566322446
 10
-28.477711389
 20
7.346579544
 10
-28.5262395589
 20
7.3362976908
 10
-28.5745853971
 20
7.3257819167
 10
-28.6228135223
 20
7.31502028
 10
-28.6709251032
 20
7.3040140672
 10
-28.7189189711
 20
7.2927619918
 10
-28.7668562379
 20
7.2812482535
 10
-28.8147572743
 20
7.2694675855
 10
-28.8626017096
 20
7.2574252546
 10
-28.9103895437
 20
7.2451212607
  0
LWPOLYLINE
  5
2EB
100
AcDbEntity
  8
0
100
AcDbPolyline
 62
7
  6
CONTINUOUS
 90
10
 70
0
 10
26.7281735291
 20
9.1208416157
 10
26.6776664741
 20
9.1247534462
 10
26.6270269517
 20
9.1276903655
 10
26.5762925906
 20
9.1296501658
 10
26.5255007972
 20
9.1306313682
 10
26.4746896116
 20
9.1306332035
 10
26.42389768
 20
9.1296556707
 10
26.3731630427
 20
9.127699536
 10
26.322523106
 20
9.124766276
 10
26.2720154992
 20
9.1208580959
  0
LWPOLYLINE
  5
2EC
100
AcDbEntity
  8
0
100
AcDbPolyline
 62
7
  6
CONTINUOUS
 90
34
 70
0
 10
27.2686244995
 20
8.3675042163
 10
27.320168576
 20
8.3633274231
 10
27.371734486
 20
8.3588713339
 10
27.4233222296
 20
8.3541359488
 10
27.4749820954
 20
8.3491161447
 10
27.5266637947
 20
8.3438170447
 10
27.5782164612
 20
8.3382540181
 10
27.6296261288
 20
8.3324259323
 10
27.6809067637
 20
8.3263339198
 10
27.7319493984
 20
8.3199967471
 10
27.7827059564
 20
8.3134198356
 10
27.8332245142
 20
8.3065977638
 10
27.8835403343
 20
8.2995330336
 10
27.933618924
 20
8.2922325811
 10
27.983494776
 20
8.2846894702
 10
28.0333066307
 20
8.2768853944
 10
28.0831060319
 20
8.2688136001
 10
28.1328414358
 20
8.2604808409
 10
28.1824969508
 20
8.2518890715
 10
28.2321046574
 20
8.2430313682
 10
28.281632475
 20
8.2339146548
 10
28.3309682703
 20
8.2245616568
 10
28.3800714353
 20
8.2149791616
 10
28.428982578
 20
8.205160382
 10
28.477711389
 20
8.1951076814
 10
28.5262395589
 20
8.1848258282
 10
28.5745853971
 20
8.1743100541
 10
28.6228135223
 20
8.1635484174
 10
28.6709251032
 20
8.1525422046
 10
28.7189189711
 20
8.1412901292
 10
28.7668562379
 20
8.129776391
 10
28.8147572743
 20
8.1179957229
 10
28.8626017096
 20
8.105953392
 10
28.9103895437
 20
8.0936493982
  0
LWPOLYLINE
  5
2ED
100
AcDbEntity
  8
0
100
AcDbPolyline
 62
7
  6
CONTINUOUS
 90
34
 70
0
 10
28.9103895437
 20
7.2451212607
 10
28.8626012391
 20
7.2574253765
 10
28.8147562558
 20
7.2694678406
 10
28.7668545941
 20
7.281248653
 10
28.7189165982
 20
7.2927625537
 10
28.6709219238
 20
7.3040148028
 10
28.6228095375
 20
7.3150211804
 10
28.5745806063
 20
7.3257829714
 10
28.5262339632
 20
7.3362988909
 10
28.4777050745
 20
7.3465808643
 10
28.4289756507
 20
7.3566336546
 10
28.3800639811
 20
7.3664524989
 10
28.3309604005
 20
7.3760350334
 10
28.2816243482
 20
7.3853880374
 10
28.2320963848
 20
7.3945047317
 10
28.1824885265
 20
7.4033624149
 10
28.1328328223
 20
7.4119541704
 10
28.0830972232
 20
7.4202869148
 10
28.0332975983
 20
7.4283586964
 10
27.9834854275
 20
7.4361627701
 10
27.9336092309
 20
7.4437058811
 10
27.883530439
 20
7.4510063124
 10
27.8332145957
 20
7.4580709925
 10
27.7826961571
 20
7.4648929931
 10
27.731939921
 20
7.4714698124
 10
27.6808978687
 20
7.4778068651
 10
27.6296180191
 20
7.4838987367
 10
27.5782092262
 20
7.4897266812
 10
27.5266575424
 20
7.4952895673
 10
27.4749769155
 20
7.5005885264
 10
27.4233180428
 20
7.5056082068
 10
27.3717311567
 20
7.5103434913
 10
27.3201660249
 20
7.5147994971
 10
27.2686226472
 20
7.5189762241
  0
LWPOLYLINE
  5
2EE
100
AcDbEntity
  8
0
100
AcDbPolyline
 62
7
  6
CONTINUOUS
 90
20
 70
0
 10
28.9103895437
 20
8.0936493982
 10
28.9205821107
 20
8.0907755831
 10
28.9304834462
 20
8.0875542638
 10
28.9400935502
 20
8.0839854404
 10
28.9494381117
 20
8.0800570898
 10
28.9584914418
 20
8.075781235
 10
28.967176473
 20
8.0711939453
 10
28.9754897485
 20
8.0662927523
 10
28.9834347252
 20
8.0610801244
 10
28.9909447061
 20
8.0555995368
 10
28.998015947
 20
8.049849103
 10
29.0046521921
 20
8.0438307095
 10
29.0107979772
 20
8.0375934905
 10
29.0164496092
 20
8.031135896
 10
29.0216107812
 20
8.0244594759
 10
29.0262371082
 20
8.0176180147
 10
29.0303249872
 20
8.0106092189
 10
29.0338780212
 20
8.0034353819
 10
29.0368626346
 20
7.9961571673
 10
29.0379210547
 20
7.9931403827
  0
LINE
  5
2EF
100
AcDbEntity
  8
0
100
AcDbLine
 62
7
  6
CONTINUOUS
 10
25.8060200739
 20
7.4954696765
 11
25.7313755005
 21
7.5189760789
  0
LINE
  5
2F0
100
AcDbEntity
  8
0
100
AcDbLine
 62
7
  6
CONTINUOUS
 10
25.8435041219
 20
7.4835549855
 11
25.8060200739
 21
7.4954696765
  0
LINE
  5
2F1
100
AcDbEntity
  8
0
100
AcDbLine
 62
7
  6
CONTINUOUS
 10
27.2081855766
 20
7.4999662377
 11
27.0722534963
 21
7.547613461
  0
LINE
  5
2F2
100
AcDbEntity
  8
0
100
AcDbLine
 62
7
  6
CONTINUOUS
 10
23.75
 20
6.223730258
 11
23.75
 21
6.4358622924
  0
LWPOLYLINE
  5
2F3
100
AcDbEntity
  8
0
100
AcDbPolyline
 62
7
  6
CONTINUOUS
 90
4
 70
0
 10
23.75
 20
6.4358622924
 10
23.7504758364
 20
6.4720346161
 10
23.7542814485
 20
6.5443280376
 10
23.7605448331
 20
6.6059878173
  0
LINE
  5
2F4
100
AcDbEntity
  8
0
100
AcDbLine
 62
7
  6
CONTINUOUS
 10
23.8476980227
 20
7.307682215
 11
23.7605448331
 21
6.6059878173
  0
LINE
  5
2F5
100
AcDbEntity
  8
0
100
AcDbLine
 62
7
  6
CONTINUOUS
 10
23.9059748234
 20
7.5672331423
 11
23.9576276248
 21
7.9737569219
  0
LINE
  5
2F6
100
AcDbEntity
  8
0
100
AcDbLine
 62
7
  6
CONTINUOUS
 10
23.9576276248
 20
7.1252287845
 11
23.9059748234
 21
6.7187050049
  0
LWPOLYLINE
  5
2F7
100
AcDbEntity
  8
0
100
AcDbPolyline
 62
7
  6
CONTINUOUS
 90
4
 70
0
 10
23.8476957047
 20
7.3076823589
 10
23.8586604345
 20
7.379896073
 10
23.8789380298
 20
7.4737687308
 10
23.9059748234
 20
7.5672331423
  0
LWPOLYLINE
  5
2F8
100
AcDbEntity
  8
0
100
AcDbPolyline
 62
7
  6
CONTINUOUS
 90
4
 70
0
 10
23.9576276248
 20
7.9737569219
 10
23.9589011437
 20
7.9813582211
 10
23.960749264
 20
7.988856274
 10
23.962083542
 20
7.993155102
  0
LINE
  5
2F9
100
AcDbEntity
  8
0
100
AcDbLine
 62
7
  6
CONTINUOUS
 10
27.0999998582
 20
7.8322272907
 11
27.2686244995
 21
8.3675042163
  0
LWPOLYLINE
  5
2FA
100
AcDbEntity
  8
0
100
AcDbPolyline
 62
7
  6
CONTINUOUS
 90
20
 70
0
 10
23.962083542
 20
7.993155102
 10
23.9631719856
 20
7.9962510806
 10
23.9661818963
 20
8.0035651621
 10
23.9697664084
 20
8.0107759972
 10
23.9738877584
 20
8.0178160224
 10
23.9785507809
 20
8.0246817156
 10
23.9837506414
 20
8.031376599
 10
23.9894350724
 20
8.0378436759
 10
23.9956068306
 20
8.0440794239
 10
24.0022631593
 20
8.0500873655
 10
24.0093435216
 20
8.0558210717
 10
24.0168491727
 20
8.0612775487
 10
24.0247788574
 20
8.0664597904
 10
24.0330682725
 20
8.07133035
 10
24.0417189479
 20
8.0758872671
 10
24.0507293537
 20
8.0801325022
 10
24.0600305968
 20
8.0840344894
 10
24.0695997127
 20
8.0875827069
 10
24.0794596658
 20
8.0907876764
 10
24.0896104563
 20
8.0936493982
  0
LWPOLYLINE
  5
2FB
100
AcDbEntity
  8
0
100
AcDbPolyline
 62
7
  6
CONTINUOUS
 90
4
 70
0
 10
26.1745667869
 20
8.8795924512
 10
26.1639034726
 20
8.851345592
 10
26.1531925904
 20
8.8225722892
 10
26.1314308276
 20
8.7630001368
  0
LWPOLYLINE
  5
2FC
100
AcDbEntity
  8
0
100
AcDbPolyline
 62
7
  6
CONTINUOUS
 90
3
 70
0
 10
26.2052360578
 20
8.9588051834
 10
26.1953561227
 20
8.9336144072
 10
26.1745667869
 20
8.8795924512
  0
LWPOLYLINE
  5
2FD
100
AcDbEntity
  8
0
100
AcDbPolyline
 62
7
  6
CONTINUOUS
 90
3
 70
0
 10
26.2328257059
 20
9.0274741145
 10
26.224013129
 20
9.00579064
 10
26.2052360578
 20
8.9588051834
  0
LWPOLYLINE
  5
2FE
100
AcDbEntity
  8
0
100
AcDbPolyline
 62
7
  6
CONTINUOUS
 90
40
 70
0
 10
27.6132729359
 20
4.6579093853
 10
27.5997239199
 20
4.6251696551
 10
27.5648221342
 20
4.5544882917
 10
27.5250686571
 20
4.4855895995
 10
27.4806446195
 20
4.4187009575
 10
27.4317524325
 20
4.3540405859
 10
27.3786148658
 20
4.2918165525
 10
27.3214740325
 20
4.2322258238
 10
27.2605902859
 20
4.1754533686
 10
27.1962410332
 20
4.1216713142
 10
27.1287194715
 20
4.0710381628
 10
27.0583332522
 20
4.0236980693
 10
26.9854030789
 20
3.9797801841
 10
26.9102612462
 20
3.9393980647
 10
26.833250126
 20
3.9026491588
 10
26.7547206069
 20
3.8696143596
 10
26.6750304961
 20
3.8403576379
 10
26.5945428887
 20
3.8149257501
 10
26.5136245135
 20
3.7933480253
 10
26.4326440618
 20
3.775636232
 10
26.351970508
 20
3.7617845239
 10
26.2719714279
 20
3.751769467
 10
26.1930113242
 20
3.7455501464
 10
26.1154499658
 20
3.7430683522
 10
26.039640748
 20
3.7442488453
 10
25.9659290833
 20
3.7489997
 10
25.8946508265
 20
3.7572127227
 10
25.8261307453
 20
3.7687639453
 10
25.76068104
 20
3.7835141894
 10
25.6985999213
 20
3.8013097011
 10
25.6401702514
 20
3.8219828509
 10
25.5856582554
 20
3.8453528983
 10
25.535312308
 20
3.8712268143
 10
25.489361802
 20
3.899400162
 10
25.448016103
 20
3.9296580272
 10
25.4114635959
 20
3.9617759979
 10
25.3798708257
 20
3.9955211872
 10
25.3533817395
 20
4.0306532937
 10
25.3321170302
 20
4.066925697
 10
25.3161735867
 20
4.104086581
  0
LINE
  5
2FF
100
AcDbEntity
  8
0
100
AcDbLine
 62
7
  6
CONTINUOUS
 10
26.2494162328
 20
9.0675871736
 11
26.2328257059
 21
9.0274741145
  0
LWPOLYLINE
  5
300
100
AcDbEntity
  8
0
100
AcDbPolyline
 62
7
  6
CONTINUOUS
 90
3
 70
0
 10
26.2720154992
 20
9.1208580959
 10
26.2647939479
 20
9.104048412
 10
26.2494162328
 20
9.0675871736
  0
LWPOLYLINE
  5
301
100
AcDbEntity
  8
TRASH
100
AcDbPolyline
 62
7
  6
CONTINUOUS
 90
3
 70
0
 10
26.1710055643
 20
7.3922551649
 10
26.1922060646
 20
7.4381217701
 10
26.261175259
 20
7.5899349533
  0
LWPOLYLINE
  5
302
100
AcDbEntity
  8
TRASH
100
AcDbPolyline
 62
7
  6
CONTINUOUS
 90
3
 70
0
 10
26.1122453972
 20
7.2677934288
 10
26.1310150129
 20
7.3071948858
 10
26.1710055643
 20
7.3922551649
  0
LWPOLYLINE
  5
303
100
AcDbEntity
  8
TRASH
100
AcDbPolyline
 62
7
  6
CONTINUOUS
 90
3
 70
0
 10
26.0600666521
 20
7.1614493238
 10
26.0765607481
 20
7.1946590913
 10
26.1122453972
 20
7.2677934288
  0
LWPOLYLINE
  5
304
100
AcDbEntity
  8
0
100
AcDbPolyline
 62
7
  6
CONTINUOUS
 90
34
 70
0
 10
26.9582575695
 20
4.5185073435
 10
26.9429096478
 20
4.4941058295
 10
26.9255389989
 20
4.4705434689
 10
26.9061401868
 20
4.4478475866
 10
26.8845767936
 20
4.4259331698
 10
26.8609737896
 20
4.4049511146
 10
26.8357192582
 20
4.3852802399
 10
26.8087833742
 20
4.366979237
 10
26.7801892807
 20
4.3500560773
 10
26.7504083018
 20
4.3347990052
 10
26.7194373913
 20
4.3212667044
 10
26.6872800689
 20
4.3094554298
 10
26.6544214328
 20
4.299538923
 10
26.6208739528
 20
4.2915595933
 10
26.5866321414
 20
4.2855099169
 10
26.552156905
 20
4.281465216
 10
26.5174590137
 20
4.2794485268
 10
26.4825383328
 20
4.2794485996
 10
26.4478403644
 20
4.2814654551
 10
26.4133649299
 20
4.2855103619
 10
26.3791228436
 20
4.2915602697
 10
26.3455751439
 20
4.2995398452
 10
26.3127163999
 20
4.3094566034
 10
26.2805590244
 20
4.3212681399
 10
26.2495880777
 20
4.3348007206
 10
26.2198069857
 20
4.350058174
 10
26.1912127959
 20
4.3669817334
 10
26.1642770744
 20
4.3852829085
 10
26.1390231622
 20
4.4049535756
 10
26.1154210339
 20
4.4259351835
 10
26.0938584182
 20
4.4478491076
 10
26.0744601681
 20
4.4705445212
 10
26.057089984
 20
4.4941063741
 10
26.0417424305
 20
4.5185073435
  0
LWPOLYLINE
  5
305
100
AcDbEntity
  8
0
100
AcDbPolyline
 62
7
  6
CONTINUOUS
 90
39
 70
0
 10
27.3145131132
 20
4.5787406779
 10
27.3007010977
 20
4.557896745
 10
27.2575104823
 20
4.5004778457
 10
27.2107170037
 20
4.445253515
 10
27.1605427342
 20
4.3923938331
 10
27.1072264694
 20
4.3420583467
 10
27.0510210632
 20
4.294393752
 10
26.9921930173
 20
4.2495341682
 10
26.9310225525
 20
4.2076013605
 10
26.8678018362
 20
4.1687034537
 10
26.8028316628
 20
4.1329332069
 10
26.7364209824
 20
4.1003684056
 10
26.6688868452
 20
4.0710721151
 10
26.6005519307
 20
4.0450917107
 10
26.5317398985
 20
4.0224576588
 10
26.4627749591
 20
4.0031843632
 10
26.3939839509
 20
3.9872712293
 10
26.3256952961
 20
3.9747022769
 10
26.2582343498
 20
3.9654453055
 10
26.1919219659
 20
3.9594522246
 10
26.1270738319
 20
3.9566594383
 10
26.0639993578
 20
3.956988071
 10
26.0029984584
 20
3.9603443128
 10
25.9443616544
 20
3.9666199302
 10
25.8883692913
 20
3.9756925417
 10
25.8352879783
 20
3.9874264278
 10
25.785369735
 20
4.0016733589
 10
25.7388520707
 20
4.0182730411
 10
25.6959564543
 20
4.0370538655
 10
25.6568862826
 20
4.0578341928
 10
25.6218264034
 20
4.0804233014
 10
25.5909435553
 20
4.1046215215
 10
25.5643848171
 20
4.1302213775
 10
25.5422763048
 20
4.1570091758
 10
25.5247232618
 20
4.1847655539
 10
25.5118097441
 20
4.2132658629
 10
25.503597578
 20
4.2422815733
 10
25.5001257958
 20
4.2715822294
 10
25.5
 20
4.2783350477
  0
LINE
  5
306
100
AcDbEntity
  8
0
100
AcDbLine
 62
7
  6
CONTINUOUS
 10
26.9391180576
 20
7.1602914008
 11
26.8962546773
 21
7.0955578861
  0
LINE
  5
307
100
AcDbEntity
  8
0
100
AcDbLine
 62
7
  6
CONTINUOUS
 10
26.8962546773
 20
7.0955578861
 11
26.8805790454
 21
7.0720867824
  0
LINE
  5
308
100
AcDbEntity
  8
0
100
AcDbLine
 62
7
  6
CONTINUOUS
 10
27.1564962216
 20
7.4835548264
 11
26.9391180576
 21
7.1602914008
  0
LINE
  5
309
100
AcDbEntity
  8
0
100
AcDbLine
 62
7
  6
CONTINUOUS
 10
25.9413851937
 20
7.5672331423
 11
25.9277463982
 21
7.5476134731
  0
LWPOLYLINE
  5
30A
100
AcDbEntity
  8
0
100
AcDbPolyline
 62
7
  6
CONTINUOUS
 90
39
 70
0
 10
27.4806446195
 20
4.3479902794
 10
27.4317524325
 20
4.2833299078
 10
27.3786148658
 20
4.2211058743
 10
27.3214740325
 20
4.1615151457
 10
27.2605902859
 20
4.1047426904
 10
27.1962410332
 20
4.050960636
 10
27.1287194715
 20
4.0003274847
 10
27.0583332522
 20
3.9529873912
 10
26.9854030789
 20
3.9090695059
 10
26.9102612462
 20
3.8686873866
 10
26.833250126
 20
3.8319384806
 10
26.7547206069
 20
3.7989036815
 10
26.6750304961
 20
3.7696469598
 10
26.5945428887
 20
3.744215072
 10
26.5136245135
 20
3.7226373472
 10
26.4326440618
 20
3.7049255539
 10
26.351970508
 20
3.6910738458
 10
26.2719714279
 20
3.6810587889
 10
26.1930113242
 20
3.6748394682
 10
26.1154499658
 20
3.672357674
 10
26.039640748
 20
3.6735381672
 10
25.9659290833
 20
3.6782890218
 10
25.8946508265
 20
3.6865020446
 10
25.8261307453
 20
3.6980532672
 10
25.76068104
 20
3.7128035113
 10
25.6985999213
 20
3.730599023
 10
25.6401702514
 20
3.7512721728
 10
25.5856582554
 20
3.7746422201
 10
25.535312308
 20
3.8005161362
 10
25.489361802
 20
3.8286894839
 10
25.448016103
 20
3.8589473491
 10
25.4114635959
 20
3.8910653198
 10
25.3798708257
 20
3.9248105091
 10
25.3533817395
 20
3.9599426156
 10
25.3321170302
 20
3.9962150189
 10
25.3161735867
 20
4.0333759029
 10
25.3056240524
 20
4.0711694034
 10
25.3005164943
 20
4.1093367738
 10
25.3000000009
 20
4.1259747116
  0
LINE
  5
30B
100
AcDbEntity
  8
ASSI
100
AcDbLine
 62
7
  6
CONTINUOUS
 10
47.3947611904
 20
19.8185518187
 11
-47.3947611904
 21
19.8185518187
  0
LINE
  5
30C
100
AcDbEntity
  8
0
100
AcDbLine
 62
7
  6
CONTINUOUS
 10
27.1564958781
 20
8.4119805894
 11
27.1939799261
 21
8.3973795482
  0
LINE
  5
30D
100
AcDbEntity
  8
0
100
AcDbLine
 62
7
  6
CONTINUOUS
 10
27.1939799261
 20
8.3973795482
 11
27.2313254496
 21
8.3825537132
  0
LINE
  5
30E
100
AcDbEntity
  8
0
100
AcDbLine
 62
7
  6
CONTINUOUS
 10
27.2313254496
 20
8.3825537132
 11
27.2686244995
 21
8.3675042163
  0
LWPOLYLINE
  5
30F
100
AcDbEntity
  8
ASSI
100
AcDbPolyline
 62
7
  6
CONTINUOUS
 90
15
 70
0
 10
25.4968090837
 20
3.4636349208
 10
25.4508240194
 20
3.501706676
 10
25.4078270576
 20
3.5413135485
 10
25.367842724
 20
3.582468138
 10
25.3308464928
 20
3.6251578447
 10
25.2971411923
 20
3.6690332372
 10
25.2667538337
 20
3.7141040473
 10
25.2396574058
 20
3.7603605432
 10
25.216073703
 20
3.807424098
 10
25.196031557
 20
3.8553013358
 10
25.1795021363
 20
3.9039856324
 10
25.1666207402
 20
3.9530784886
 10
25.1574324687
 20
4.0024470711
 10
25.151892222
 20
4.052224213
 10
25.15
 20
4.1024099145
  0
LWPOLYLINE
  5
310
100
AcDbEntity
  8
0
100
AcDbPolyline
 62
7
  6
CONTINUOUS
 90
4
 70
0
 10
29.2394551669
 20
6.6059878173
 10
29.2457185515
 20
6.5443280376
 10
29.2495241636
 20
6.4720346161
 10
29.25
 20
6.4358622924
  0
LWPOLYLINE
  5
311
100
AcDbEntity
  8
0
100
AcDbPolyline
 62
7
  6
CONTINUOUS
 90
9
 70
0
 10
23.752678287
 20
6.148738109
 10
23.7543437314
 20
6.1317822729
 10
23.7563907552
 20
6.1169782025
 10
23.7587979228
 20
6.1044159606
 10
23.761433466
 20
6.0941697428
 10
23.7643133861
 20
6.086298662
 10
23.767421682
 20
6.0808569146
 10
23.7705785818
 20
6.0778848496
 10
23.7727943949
 20
6.0772836486
  0
LINE
  5
312
100
AcDbEntity
  8
0
100
AcDbLine
 62
7
  6
CONTINUOUS
 10
25.9277463982
 20
7.5476134731
 11
25.9492950471
 21
7.3266288072
  0
LINE
  5
313
100
AcDbEntity
  8
0
100
AcDbLine
 62
7
  6
CONTINUOUS
 10
25.8435037784
 20
8.411980679
 11
25.8999999936
 21
7.8322267992
  0
LWPOLYLINE
  5
314
100
AcDbEntity
  8
0
100
AcDbPolyline
 62
7
  6
CONTINUOUS
 90
5
 70
0
 10
23.7500142348
 20
6.223730258
 10
23.7500676855
 20
6.2116291515
 10
23.7504952904
 20
6.188757308
 10
23.7513729864
 20
6.1677570554
 10
23.752678287
 20
6.148738109
  0
LINE
  5
315
100
AcDbEntity
  8
0
100
AcDbLine
 62
7
  6
CONTINUOUS
 10
25.3000000009
 20
4.1966853897
 11
25.3000000009
 21
4.1259747116
  0
LINE
  5
316
100
AcDbEntity
  8
0
100
AcDbLine
 62
7
  6
CONTINUOUS
 10
25.5
 20
4.6247020499
 11
25.5
 21
4.2783350477
  0
LINE
  5
317
100
AcDbEntity
  8
0
100
AcDbLine
 62
7
  6
CONTINUOUS
 10
25.5
 20
3.8221669518
 11
25.5
 21
3.4612563475
  0
LINE
  5
318
100
AcDbEntity
  8
ASSI
100
AcDbLine
 62
7
  6
CONTINUOUS
 10
26.0
 20
-4.7364248504
 11
26.0
 21
-5.1814481813
  0
LINE
  5
319
100
AcDbEntity
  8
0
100
AcDbLine
 62
7
  6
CONTINUOUS
 10
27.5
 20
4.3771334007
 11
27.5
 21
4.3249245417
  0
LINE
  5
31A
100
AcDbEntity
  8
0
100
AcDbLine
 62
7
  6
CONTINUOUS
 10
29.25
 20
6.223730258
 11
29.25
 21
6.4358622924
  0
LINE
  5
31B
100
AcDbEntity
  8
0
100
AcDbLine
 62
7
  6
CONTINUOUS
 10
26.7281735291
 20
9.1208416157
 11
26.72819274
 21
7.6348692845
  0
LINE
  5
31C
100
AcDbEntity
  8
0
100
AcDbLine
 62
7
  6
CONTINUOUS
 10
26.2716467289
 20
7.6348804214
 11
26.2720154992
 21
9.1208580959
  0
LWPOLYLINE
  5
31D
100
AcDbEntity
  8
0
100
AcDbPolyline
 62
7
  6
CONTINUOUS
 90
24
 70
0
 10
27.5
 20
4.3249245417
 10
27.499933571
 20
4.3135313182
 10
27.496606996
 20
4.24354118
 10
27.4882761305
 20
4.1738413686
 10
27.4749825794
 20
4.1046825643
 10
27.4567932194
 20
4.0363131193
 10
27.4337994091
 20
3.9689762087
 10
27.4061166321
 20
3.902909823
 10
27.3738845146
 20
3.8383466769
 10
27.3372656914
 20
3.7755115966
 10
27.2964438496
 20
3.7146189439
 10
27.2516230432
 20
3.6558728201
 10
27.2030282022
 20
3.5994680523
 10
27.1509032903
 20
3.5455878134
 10
27.0955087302
 20
3.4944014745
 10
27.0371214798
 20
3.446065419
 10
26.9760353444
 20
3.4007232901
 10
26.9125585048
 20
3.3585039119
 10
26.8470096387
 20
3.3195191309
 10
26.7797179918
 20
3.2838646509
 10
26.7110234845
 20
3.2516202768
 10
26.6412718499
 20
3.2228477716
 10
26.5708127486
 20
3.1975908739
 10
26.5
 20
3.1758759944
  0
LWPOLYLINE
  5
31E
100
AcDbEntity
  8
0
100
AcDbPolyline
 62
7
  6
CONTINUOUS
 90
4
 70
0
 10
29.25
 20
6.4358622924
 10
29.2495241636
 20
6.3996899687
 10
29.2457185515
 20
6.3273965472
 10
29.2381128794
 20
6.2552551775
  0
LWPOLYLINE
  5
31F
100
AcDbEntity
  8
ASSI
100
AcDbPolyline
 62
7
  6
CONTINUOUS
 90
13
 70
0
 10
25.15
 20
4.1024099145
 10
25.151892222
 20
4.1525956159
 10
25.1574324687
 20
4.2023727579
 10
25.1666207402
 20
4.2517413404
 10
25.1795021363
 20
4.3008341965
 10
25.196031557
 20
4.3495184932
 10
25.216073703
 20
4.397395731
 10
25.2396574058
 20
4.4444592858
 10
25.2667538337
 20
4.4907157817
 10
25.2971411923
 20
4.5357865918
 10
25.3308464928
 20
4.5796619843
 10
25.367842724
 20
4.622351691
 10
25.3988250637
 20
4.6542408175
  0
LWPOLYLINE
  5
320
100
AcDbEntity
  8
ASSI
100
AcDbPolyline
 62
7
  6
CONTINUOUS
 90
47
 70
0
 10
27.85
 20
4.1024099145
 10
27.848107778
 20
4.052224213
 10
27.8425675313
 20
4.0024470711
 10
27.8333792598
 20
3.9530784886
 10
27.8204978637
 20
3.9039856324
 10
27.803968443
 20
3.8553013358
 10
27.783926297
 20
3.807424098
 10
27.7603425942
 20
3.7603605432
 10
27.7332461663
 20
3.7141040473
 10
27.7028588077
 20
3.6690332372
 10
27.6691535072
 20
3.6251578447
 10
27.632157276
 20
3.582468138
 10
27.5921729424
 20
3.5413135485
 10
27.5491759806
 20
3.501706676
 10
27.5031909163
 20
3.4636349208
 10
27.4545941546
 20
3.4274099145
 10
27.4033642594
 20
3.3930468148
 10
27.3495226667
 20
3.3605304639
 10
27.2935100906
 20
3.3301270207
 10
27.235308712
 20
3.3018538272
 10
27.1749363498
 20
3.2756935413
 10
27.1128871746
 20
3.2518602948
 10
27.0491474237
 20
3.2303731874
 10
26.9837308599
 20
3.2112131195
 10
26.9171729424
 20
3.1945369233
 10
26.8494643034
 20
3.180364986
 10
26.7806143108
 20
3.1686769205
 10
26.7111865278
 20
3.159568398
 10
26.6411762121
 20
3.1530605908
 10
26.5705881061
 20
3.1491323267
 10
26.5
 20
3.1478157599
 10
26.4294118939
 20
3.1491323267
 10
26.3588237879
 20
3.1530605908
 10
26.2888134722
 20
3.159568398
 10
26.2193856892
 20
3.1686769205
 10
26.1505356966
 20
3.180364986
 10
26.0828270576
 20
3.1945369233
 10
26.0162691401
 20
3.2112131195
 10
25.9508525763
 20
3.2303731874
 10
25.8871128254
 20
3.2518602948
 10
25.8250636502
 20
3.2756935413
 10
25.764691288
 20
3.3018538272
 10
25.7064899094
 20
3.3301270207
 10
25.6504773333
 20
3.3605304639
 10
25.5966357406
 20
3.3930468148
 10
25.5454058454
 20
3.4274099145
 10
25.4968090837
 20
3.4636349208
  0
LWPOLYLINE
  5
321
100
AcDbEntity
  8
0
100
AcDbPolyline
 62
7
  6
CONTINUOUS
 90
11
 70
0
 10
25.3000000009
 20
4.1966853897
 10
25.3008741839
 20
4.218328242
 10
25.3066954912
 20
4.2564614851
 10
25.3179538923
 20
4.2941868866
 10
25.3345980897
 20
4.3312460102
 10
25.3565522469
 20
4.3673834554
 10
25.3837163331
 20
4.4023480212
 10
25.4159665795
 20
4.4358938508
 10
25.453156043
 20
4.4677815513
 10
25.495115276
 20
4.4977792852
 10
25.5
 20
4.5007061151
  0
LWPOLYLINE
  5
322
100
AcDbEntity
  8
0
100
AcDbPolyline
 62
7
  6
CONTINUOUS
 90
5
 70
0
 10
29.2473217075
 20
6.1487380541
 10
29.2486270113
 20
6.1677570296
 10
29.2495047096
 20
6.1887573079
 10
29.2499323148
 20
6.211629163
 10
29.2499857652
 20
6.223730258
  0
LINE
  5
323
100
AcDbEntity
  8
0
100
AcDbLine
 62
7
  6
CONTINUOUS
 10
27.050706979
 20
7.3266501025
 11
27.0722534963
 21
7.547613461
  0
LINE
  5
324
100
AcDbEntity
  8
0
100
AcDbLine
 62
7
  6
CONTINUOUS
 10
27.0999998582
 20
7.8322272907
 11
27.1564958781
 21
8.4119805894
  0
LINE
  5
325
100
AcDbEntity
  8
0
100
AcDbLine
 62
7
  6
CONTINUOUS
 10
26.7388223726
 20
7.5899360584
 11
26.8805790946
 21
8.7524013955
  0
LINE
  5
326
100
AcDbEntity
  8
0
100
AcDbLine
 62
7
  6
CONTINUOUS
 10
26.7281482181
 20
7.6348649261
 11
26.8684269724
 21
8.7631252995
  0
LINE
  5
327
100
AcDbEntity
  8
0
100
AcDbLine
 62
7
  6
CONTINUOUS
 10
27.0586144364
 20
7.5672331423
 11
27.0999998582
 21
7.8322272907
  0
LWPOLYLINE
  5
328
100
AcDbEntity
  8
0
100
AcDbPolyline
 62
7
  6
CONTINUOUS
 90
3
 70
0
 10
29.2381128794
 20
6.2552551775
 10
29.2267178356
 20
6.1833649211
 10
29.2115493726
 20
6.1118252575
  0
LINE
  5
329
100
AcDbEntity
  8
TRASH
100
AcDbLine
 62
7
  6
CONTINUOUS
 10
26.2611776175
 20
7.5899360623
 11
26.2718517719
 21
7.63486493
  0
LINE
  5
32A
100
AcDbEntity
  8
0
100
AcDbLine
 62
7
  6
CONTINUOUS
 10
26.7966938864
 20
6.7778504868
 11
26.7279845008
 21
6.5047635598
  0
LINE
  5
32B
100
AcDbEntity
  8
0
100
AcDbLine
 62
7
  6
CONTINUOUS
 10
26.8685691724
 20
7.0581474687
 11
26.7966938864
 21
6.7778504868
  0
LINE
  5
32C
100
AcDbEntity
  8
0
100
AcDbLine
 62
7
  6
CONTINUOUS
 10
29.1956323111
 20
6.0511362881
 11
29.2115493726
 21
6.1118252575
  0
LWPOLYLINE
  5
32D
100
AcDbEntity
  8
0
100
AcDbPolyline
 62
7
  6
CONTINUOUS
 90
6
 70
0
 10
27.6433692998
 20
4.667561713
 10
27.6296149896
 20
4.6266875104
 10
27.5997239199
 20
4.554458977
 10
27.5648221342
 20
4.4837776136
 10
27.5250686571
 20
4.4148789214
 10
27.4806446195
 20
4.3479902794
  0
LINE
  5
32E
100
AcDbEntity
  8
0
100
AcDbLine
 62
7
  6
CONTINUOUS
 10
26.8684269724
 20
8.7631252995
 11
26.8805790946
 21
8.7524013955
  0
LWPOLYLINE
  5
32F
100
AcDbEntity
  8
0
100
AcDbPolyline
 62
7
  6
CONTINUOUS
 90
3
 70
0
 10
26.8805790946
 20
8.7524013955
 10
26.8944469054
 20
8.7366979244
 10
26.9078159668
 20
8.7213459414
  0
LINE
  5
330
100
AcDbEntity
  8
0
100
AcDbLine
 62
7
  6
CONTINUOUS
 10
26.1194209054
 20
7.0720868568
 11
26.1315730292
 21
7.0579822172
  0
LINE
  5
331
100
AcDbEntity
  8
0
100
AcDbLine
 62
7
  6
CONTINUOUS
 10
26.9078159668
 20
8.7213459414
 11
26.9454491611
 21
8.6774919026
  0
LWPOLYLINE
  5
332
100
AcDbEntity
  8
0
100
AcDbPolyline
 62
7
  6
CONTINUOUS
 90
3
 70
0
 10
26.9454491611
 20
8.6774919026
 10
26.9685150084
 20
8.6501249324
 10
26.9794964061
 20
8.6370135906
  0
LINE
  5
333
100
AcDbEntity
  8
0
100
AcDbLine
 62
7
  6
CONTINUOUS
 10
26.9794964061
 20
8.6370135906
 11
27.0003763285
 21
8.6117520474
  0
LINE
  5
334
100
AcDbEntity
  8
0
100
AcDbLine
 62
7
  6
CONTINUOUS
 10
27.0003763285
 20
8.6117520474
 11
27.0200892484
 21
8.5876604595
  0
LINE
  5
335
100
AcDbEntity
  8
0
100
AcDbLine
 62
7
  6
CONTINUOUS
 10
27.0200892484
 20
8.5876604595
 11
27.0389036461
 21
8.5643583617
  0
LINE
  5
336
100
AcDbEntity
  8
0
100
AcDbLine
 62
7
  6
CONTINUOUS
 10
27.0389036461
 20
8.5643583617
 11
27.0572126484
 21
8.5414188765
  0
LINE
  5
337
100
AcDbEntity
  8
0
100
AcDbLine
 62
7
  6
CONTINUOUS
 10
27.0572126484
 20
8.5414188765
 11
27.0752437558
 21
8.5185728909
  0
LINE
  5
338
100
AcDbEntity
  8
0
100
AcDbLine
 62
7
  6
CONTINUOUS
 10
27.0752437558
 20
8.5185728909
 11
27.0933332144
 21
8.4953618725
  0
LINE
  5
339
100
AcDbEntity
  8
0
100
AcDbLine
 62
7
  6
CONTINUOUS
 10
27.0933332144
 20
8.4953618725
 11
27.1114349281
 21
8.4718578157
  0
LINE
  5
33A
100
AcDbEntity
  8
0
100
AcDbLine
 62
7
  6
CONTINUOUS
 10
27.1114349281
 20
8.4718578157
 11
27.1295155985
 21
8.4480639763
  0
LWPOLYLINE
  5
33B
100
AcDbEntity
  8
0
100
AcDbPolyline
 62
7
  6
CONTINUOUS
 90
3
 70
0
 10
27.1295155985
 20
8.4480639763
 10
27.1475221453
 20
8.4240745853
 10
27.1564958781
 20
8.4119805894
  0
LINE
  5
33C
100
AcDbEntity
  8
0
100
AcDbLine
 62
7
  6
CONTINUOUS
 10
27.0722534963
 20
7.547613461
 11
27.0586144364
 21
7.5672331423
  0
LWPOLYLINE
  5
33D
100
AcDbEntity
  8
0
100
AcDbPolyline
 62
7
  6
CONTINUOUS
 90
3
 70
0
 10
26.1194209054
 20
7.0720868568
 10
26.0792694513
 20
7.1326223383
 10
25.8435041219
 20
7.4835549855
  0
LINE
  5
33E
100
AcDbEntity
  8
TRASH
100
AcDbLine
 62
7
  6
CONTINUOUS
 10
26.9234301978
 20
7.1947130979
 11
26.9399200371
 21
7.1614891404
  0
LWPOLYLINE
  5
33F
100
AcDbEntity
  8
0
100
AcDbPolyline
 62
7
  6
CONTINUOUS
 90
9
 70
0
 10
27.9611245702
 20
4.7887749931
 10
27.9840886827
 20
4.7417711005
 10
28.0182330734
 20
4.6586275736
 10
28.0465618522
 20
4.5741163659
 10
28.0689665056
 20
4.4884944873
 10
28.0853612125
 20
4.4020232021
 10
28.0956831731
 20
4.3149670284
 10
28.0998928491
 20
4.2275927246
 10
28.0999999991
 20
4.2112433276
  0
LWPOLYLINE
  5
340
100
AcDbEntity
  8
TRASH
100
AcDbPolyline
 62
7
  6
CONTINUOUS
 90
3
 70
0
 10
26.8689122393
 20
7.3073423271
 10
26.8877041792
 20
7.2679138357
 10
26.9234301978
 20
7.1947130979
  0
LWPOLYLINE
  5
341
100
AcDbEntity
  8
TRASH
100
AcDbPolyline
 62
7
  6
CONTINUOUS
 90
3
 70
0
 10
26.8077151967
 20
7.4382902871
 10
26.8289112103
 20
7.3924336927
 10
26.8689122393
 20
7.3073423271
  0
LINE
  5
342
100
AcDbEntity
  8
TRASH
100
AcDbLine
 62
7
  6
CONTINUOUS
 10
26.7388260178
 20
7.589930926
 11
26.8077151967
 21
7.4382902871
  0
LWPOLYLINE
  5
343
100
AcDbEntity
  8
0
100
AcDbPolyline
 62
7
  6
CONTINUOUS
 90
6
 70
0
 10
26.7281735291
 20
9.1208416157
 10
26.7375810241
 20
9.0988785047
 10
26.746991693
 20
9.0766199597
 10
26.7564054965
 20
9.0540659784
 10
26.7658205835
 20
9.0312231166
 10
26.7752387278
 20
9.0080848136
  0
LINE
  5
344
100
AcDbEntity
  8
0
100
AcDbLine
 62
7
  6
CONTINUOUS
 10
26.7752387278
 20
9.0080848136
 11
26.7941124765
 21
8.9608309808
  0
LWPOLYLINE
  5
345
100
AcDbEntity
  8
0
100
AcDbPolyline
 62
253
  6
CONTINUOUS
 90
49
 70
0
 10
24.0896104563
 20
7.2451212607
 10
24.1264469772
 20
7.1515900993
 10
24.1705361663
 20
7.0596411208
 10
24.2217433039
 20
6.9695552861
 10
24.2799119213
 20
6.8816078624
 10
24.3448642773
 20
6.7960675839
 10
24.4164019012
 20
6.7131958306
 10
24.4943061995
 20
6.6332458284
 10
24.5783391278
 20
6.5564618718
 10
24.668243918
 20
6.4830785798
 10
24.7637458631
 20
6.4133201789
 10
24.8645531401
 20
6.3473998301
 10
24.9703577034
 20
6.2855189709
 10
25.080836227
 20
6.2278666965
 10
25.1956511531
 20
6.174619154
 10
25.3144517127
 20
6.1259390215
 10
25.4368749607
 20
6.0819750322
 10
25.562546766
 20
6.0428615536
 10
25.6910830075
 20
6.0087181365
 10
25.8220908511
 20
5.9796491165
 10
25.9551700531
 20
5.9557432896
 10
26.0899140688
 20
5.9370736829
 10
26.2259112075
 20
5.9236973438
 10
26.3627458816
 20
5.9156551536
 10
26.499999973
 20
5.912971689
 10
26.63725411
 20
5.9156551532
 10
26.7740888721
 20
5.9236973501
 10
26.9100860683
 20
5.9370736991
 10
27.0448300737
 20
5.9557433097
 10
27.1779092369
 20
5.9796491342
 10
27.3089170557
 20
6.0087181518
 10
27.4374533083
 20
6.042861575
 10
27.5631251364
 20
6.0819750647
 10
27.6855483919
 20
6.1259390617
 10
27.8043489235
 20
6.1746191875
 10
27.9191638104
 20
6.227866715
 10
28.0296423216
 20
6.2855189847
 10
28.1354469216
 20
6.3473998683
 10
28.2362542535
 20
6.4133202595
 10
28.3317562305
 20
6.4830786944
 10
28.4216610181
 20
6.5564619978
 10
28.5056939282
 20
6.633245952
 10
28.5835982029
 20
6.7131959441
 10
28.6551357984
 20
6.7960676773
 10
28.7200881243
 20
6.8816079265
 10
28.7782567196
 20
6.9695553244
 10
28.8294638446
 20
7.0596411415
 10
28.8735530262
 20
7.1515901071
 10
28.9103895437
 20
7.2451212607
  0
LWPOLYLINE
  5
346
100
AcDbEntity
  8
0
100
AcDbPolyline
 62
253
  6
CONTINUOUS
 90
49
 70
0
 10
28.9103895437
 20
8.0936493982
 10
28.8735530228
 20
8.1871805595
 10
28.8294638337
 20
8.279129538
 10
28.7782566961
 20
8.3692153728
 10
28.7200880787
 20
8.4571627965
 10
28.6551357227
 20
8.542703075
 10
28.5835980988
 20
8.6255748283
 10
28.5056938005
 20
8.7055248305
 10
28.4216608722
 20
8.7823087871
 10
28.331756082
 20
8.8556920791
 10
28.2362541369
 20
8.92545048
 10
28.1354468599
 20
8.9913708288
 10
28.0296422966
 20
9.053251688
 10
27.919163773
 20
9.1109039623
 10
27.8043488469
 20
9.1641515048
 10
27.6855482873
 20
9.2128316374
 10
27.5631250393
 20
9.2567956266
 10
27.437453234
 20
9.2959091053
 10
27.3089169925
 20
9.3300525224
 10
27.1779091489
 20
9.3591215424
 10
27.0448299469
 20
9.3830273693
 10
26.9100859312
 20
9.401696976
 10
26.7740887925
 20
9.4150733151
 10
26.6372541184
 20
9.4231155053
 10
26.500000027
 20
9.4257989699
 10
26.36274589
 20
9.4231155056
 10
26.2259111279
 20
9.4150733088
 10
26.0899139317
 20
9.4016969598
 10
25.9551699263
 20
9.3830273491
 10
25.8220907631
 20
9.3591215247
 10
25.6910829443
 20
9.330052507
 10
25.5625466917
 20
9.2959090839
 10
25.4368748636
 20
9.2567955942
 10
25.3144516081
 20
9.2128315972
 10
25.1956510765
 20
9.1641514714
 10
25.0808361896
 20
9.1109039439
 10
24.9703576784
 20
9.0532516742
 10
24.8645530784
 20
8.9913707906
 10
24.7637457465
 20
8.9254503994
 10
24.6682437695
 20
8.8556919645
 10
24.5783389819
 20
8.7823086611
 10
24.4943060718
 20
8.7055247069
 10
24.4164017971
 20
8.6255747148
 10
24.3448642016
 20
8.5427029816
 10
24.2799118757
 20
8.4571627324
 10
24.2217432804
 20
8.3692153345
 10
24.1705361554
 20
8.2791295174
 10
24.1264469738
 20
8.1871805518
 10
24.0896104563
 20
8.0936493982
  0
LINE
  5
347
100
AcDbEntity
  8
0
100
AcDbLine
 62
7
  6
CONTINUOUS
 10
26.7941124765
 20
8.9608309808
 11
26.8130007514
 21
8.9123606984
  0
LINE
  5
348
100
AcDbEntity
  8
0
100
AcDbLine
 62
7
  6
CONTINUOUS
 10
26.8130007514
 20
8.9123606984
 11
26.8318241724
 21
8.8628534797
  0
LWPOLYLINE
  5
349
100
AcDbEntity
  8
0
100
AcDbPolyline
 62
7
  6
CONTINUOUS
 90
50
 70
0
 10
29.0379220223
 20
7.9931405443
 10
29.0005892492
 20
8.0930017009
 10
28.9554534862
 20
8.1921561102
 10
28.9028424793
 20
8.2895386041
 10
28.8428566195
 20
8.3848392861
 10
28.7756140923
 20
8.4777607898
 10
28.7012446774
 20
8.5680216
 10
28.619792257
 20
8.6554489589
 10
28.5315207952
 20
8.7396460375
 10
28.4369844274
 20
8.8200483144
 10
28.3365661824
 20
8.8963572409
 10
28.2304557089
 20
8.9684494865
 10
28.1190203184
 20
9.0360848669
 10
28.0025418877
 20
9.0990996477
 10
27.8813909546
 20
9.1572959544
 10
27.7561250905
 20
9.2104251907
 10
27.6271872716
 20
9.2583359012
 10
27.4949002439
 20
9.300939455
 10
27.3596850118
 20
9.3381240945
 10
27.2219443653
 20
9.3698007901
 10
27.0820830625
 20
9.3958943053
 10
26.9405431096
 20
9.4163381936
 10
26.7977397447
 20
9.4310868908
 10
26.654092747
 20
9.4401081691
 10
26.5100599478
 20
9.4433835559
 10
26.3660867188
 20
9.4409138322
 10
26.2225680614
 20
9.4327136501
 10
26.0798858683
 20
9.4188060618
 10
25.9384263225
 20
9.3992228966
 10
25.7986317319
 20
9.3740163893
 10
25.6609586905
 20
9.3432615525
 10
25.5258024448
 20
9.3070388095
 10
25.3935613979
 20
9.2654434719
 10
25.2646750585
 20
9.218602798
 10
25.139488751
 20
9.1666291865
 10
25.0183949915
 20
9.1096681526
 10
24.9018653108
 20
9.047932336
 10
24.7902068774
 20
8.9815797381
 10
24.6837578655
 20
8.9108018847
 10
24.5829733919
 20
8.8359073599
 10
24.488170592
 20
8.7571599098
 10
24.399538737
 20
8.6747418103
 10
24.3172953524
 20
8.5888661269
 10
24.2415958633
 20
8.4996840985
 10
24.172735588
 20
8.4075272786
 10
24.1110710843
 20
8.3129179629
 10
24.0567812503
 20
8.2162542671
 10
24.009902422
 20
8.1177393656
 10
23.9705059419
 20
8.0176456981
 10
23.9620828831
 20
7.9931552121
  0
LWPOLYLINE
  5
34A
100
AcDbEntity
  8
0
100
AcDbPolyline
 62
253
  6
CONTINUOUS
 90
28
 70
0
 10
23.9576276248
 20
7.1252287845
 10
23.9905327356
 20
7.036544833
 10
24.0296200224
 20
6.9491262734
 10
24.0747928512
 20
6.8631884093
 10
24.125939158
 20
6.7789435645
 10
24.1829329693
 20
6.6965984666
 10
24.2456351917
 20
6.6163539018
 10
24.3138931137
 20
6.5384058204
 10
24.3875372979
 20
6.4629481863
 10
24.466382783
 20
6.3901701395
 10
24.5502317418
 20
6.3202530407
 10
24.6388797484
 20
6.2533661805
 10
24.7321136708
 20
6.1896702138
 10
24.8297087265
 20
6.1293195617
 10
24.9314206222
 20
6.072466105
 10
25.0369907722
 20
6.0192540984
 10
25.1461544705
 20
5.969815738
 10
25.2586460869
 20
5.9242701367
 10
25.3741918768
 20
5.8827275182
 10
25.4925552352
 20
5.845275681
 10
25.6133984281
 20
5.8120241561
 10
25.7362779443
 20
5.7830860603
 10
25.8607836941
 20
5.7585350356
 10
25.9867023789
 20
5.7383905857
 10
26.1138790601
 20
5.7226693924
 10
26.2420560811
 20
5.711406589
 10
26.3708680291
 20
5.7046375434
 10
26.5
 20
5.7023792543
  0
LINE
  5
34B
100
AcDbEntity
  8
0
100
AcDbLine
 62
7
  6
CONTINUOUS
 10
26.8318241724
 20
8.8628534797
 11
26.8503227834
 21
8.8130429782
  0
LINE
  5
34C
100
AcDbEntity
  8
0
100
AcDbLine
 62
7
  6
CONTINUOUS
 10
26.8503227834
 20
8.8130429782
 11
26.8684269724
 21
8.7631252995
  0
LINE
  5
34D
100
AcDbEntity
  8
0
100
AcDbLine
 62
7
  6
CONTINUOUS
 10
25.7313773528
 20
8.3675043615
 11
25.8999999936
 21
7.8322267992
  0
LWPOLYLINE
  5
34E
100
AcDbEntity
  8
0
100
AcDbPolyline
 62
7
  6
CONTINUOUS
 90
4
 70
0
 10
29.0379210547
 20
7.9931403827
 10
29.0392676354
 20
7.9887947964
 10
29.0411042156
 20
7.9813280479
 10
29.0423723752
 20
7.9737569219
  0
LWPOLYLINE
  5
34F
100
AcDbEntity
  8
0
100
AcDbPolyline
 62
7
  6
CONTINUOUS
 90
8
 70
0
 10
23.9059748234
 20
6.7187050049
 10
23.8789380298
 20
6.8121694164
 10
23.8586604345
 20
6.9060420742
 10
23.8451420377
 20
7.0003229784
 10
23.8383828393
 20
7.0952842931
 10
23.8383828393
 20
7.1906538541
 10
23.8451420377
 20
7.2856151688
 10
23.8476957047
 20
7.3076823589
  0
LWPOLYLINE
  5
350
100
AcDbEntity
  8
0
100
AcDbPolyline
 62
7
  6
CONTINUOUS
 90
4
 70
0
 10
29.0940251766
 20
7.5672331423
 10
29.1210619702
 20
7.4737687308
 10
29.1413395655
 20
7.379896073
 10
29.1523042953
 20
7.3076823589
  0
LINE
  5
351
100
AcDbEntity
  8
0
100
AcDbLine
 62
7
  6
CONTINUOUS
 10
25.3161735867
 20
4.104086581
 11
25.3056240524
 21
4.1418800815
  0
LINE
  5
352
100
AcDbEntity
  8
0
100
AcDbLine
 62
7
  6
CONTINUOUS
 10
23.8043676889
 20
6.0511362881
 11
23.7884506274
 21
6.1118252575
  0
LINE
  5
353
100
AcDbEntity
  8
0
100
AcDbLine
 62
7
  6
CONTINUOUS
 10
26.2153346803
 20
6.7297198292
 11
26.1315730292
 21
7.0579822172
  0
LINE
  5
354
100
AcDbEntity
  8
0
100
AcDbLine
 62
7
  6
CONTINUOUS
 10
26.2718264718
 20
6.5047800399
 11
26.2153346803
 21
6.7297198292
  0
LINE
  5
355
100
AcDbEntity
  8
TRASH
100
AcDbLine
 62
7
  6
CONTINUOUS
 10
26.7281482181
 20
7.6348649261
 11
26.7388223726
 21
7.5899360584
  0
LWPOLYLINE
  5
356
100
AcDbEntity
  8
0
100
AcDbPolyline
 62
7
  6
CONTINUOUS
 90
7
 70
0
 10
29.2115493726
 20
6.1118252575
 10
29.2141688617
 20
6.1001484302
 10
29.2169320242
 20
6.0908194135
 10
29.2198388601
 20
6.0838922196
 10
29.2229534617
 20
6.0794076238
 10
29.2262117366
 20
6.0773999474
 10
29.2272056052
 20
6.0772836486
  0
LINE
  5
357
100
AcDbEntity
  8
0
100
AcDbLine
 62
7
  6
CONTINUOUS
 10
23.7884506274
 20
6.1118252575
 11
23.7732821644
 21
6.1833649211
  0
LWPOLYLINE
  5
358
100
AcDbEntity
  8
0
100
AcDbPolyline
 62
7
  6
CONTINUOUS
 90
22
 70
0
 10
29.0423723752
 20
7.1252287845
 10
29.0410988563
 20
7.1328300837
 10
29.039250736
 20
7.1403281366
 10
29.0368280144
 20
7.1477229432
 10
29.0338181037
 20
7.1550370246
 10
29.0302335916
 20
7.1622478597
 10
29.0261122416
 20
7.169287885
 10
29.0214492191
 20
7.1761535782
 10
29.0162493586
 20
7.1828484616
 10
29.0105649276
 20
7.1893155385
 10
29.0043931694
 20
7.1955512865
 10
28.9977368407
 20
7.201559228
 10
28.9906564784
 20
7.2072929343
 10
28.9831508273
 20
7.2127494113
 10
28.9752211426
 20
7.217931653
 10
28.9669317275
 20
7.2228022125
 10
28.9582810521
 20
7.2273591297
 10
28.9492706463
 20
7.2316043648
 10
28.9399694032
 20
7.235506352
 10
28.9304002873
 20
7.2390545694
 10
28.9205403342
 20
7.242259539
 10
28.9103895437
 20
7.2451212607
  0
LWPOLYLINE
  5
359
100
AcDbEntity
  8
0
100
AcDbPolyline
 62
7
  6
CONTINUOUS
 90
5
 70
0
 10
23.7732821644
 20
6.1833649211
 10
23.7618871206
 20
6.2552551775
 10
23.7542814485
 20
6.3273965472
 10
23.7504758364
 20
6.3996899687
 10
23.75
 20
6.4358622924
  0
LINE
  5
35A
100
AcDbEntity
  8
0
100
AcDbLine
 62
7
  6
CONTINUOUS
 10
25.8999999936
 20
7.8322267992
 11
25.9413851937
 21
7.5672331423
  0
LWPOLYLINE
  5
35B
100
AcDbEntity
  8
0
100
AcDbPolyline
 62
7
  6
CONTINUOUS
 90
3
 70
0
 10
25.3056240524
 20
4.1418800815
 10
25.3005164943
 20
4.1800474519
 10
25.3000000009
 20
4.1966853897
  0
LINE
  5
35C
100
AcDbEntity
  8
0
100
AcDbLine
 62
7
  6
CONTINUOUS
 10
29.0940251766
 20
6.7187050049
 11
29.0423723752
 21
7.1252287845
  0
LINE
  5
35D
100
AcDbEntity
  8
0
100
AcDbLine
 62
7
  6
CONTINUOUS
 10
29.0423723752
 20
7.9737569219
 11
29.0940251766
 21
7.5672331423
  0
LINE
  5
35E
100
AcDbEntity
  8
0
100
AcDbLine
 62
7
  6
CONTINUOUS
 10
29.1523019773
 20
7.307682215
 11
29.2394551669
 21
6.6059878173
  0
LINE
  5
35F
100
AcDbEntity
  8
0
100
AcDbLine
 62
7
  6
CONTINUOUS
 10
26.1314308276
 20
8.7630001368
 11
26.2718517719
 21
7.63486493
  0
LINE
  5
360
100
AcDbEntity
  8
0
100
AcDbLine
 62
7
  6
CONTINUOUS
 10
26.1194209546
 20
8.7524014513
 11
26.2611776175
 21
7.5899360623
  0
LWPOLYLINE
  5
361
100
AcDbEntity
  8
0
100
AcDbPolyline
 62
7
  6
CONTINUOUS
 90
8
 70
0
 10
29.1523042953
 20
7.3076823589
 10
29.1548579623
 20
7.2856151688
 10
29.1616171607
 20
7.1906538541
 10
29.1616171607
 20
7.0952842931
 10
29.1548579623
 20
7.0003229784
 10
29.1413395655
 20
6.9060420742
 10
29.1210619702
 20
6.8121694164
 10
29.0940251766
 20
6.7187050049
  0
LINE
  5
362
100
AcDbEntity
  8
ASSI
100
AcDbLine
 62
7
  6
CONTINUOUS
 10
47.6517305404
 20
-3.3462411414
 11
49.3879604479
 21
17.6537588586
  0
LINE
  5
363
100
AcDbEntity
  8
ASSI
100
AcDbLine
 62
7
  6
CONTINUOUS
 10
57.5
 20
-69.825630579
 11
57.5
 21
-49.0818632577
  0
LINE
  5
364
100
AcDbEntity
  8
ASSI
100
AcDbLine
 62
253
  6
CONTINUOUS
 10
59.5
 20
-49.2755732166
 11
59.5
 21
-56.3466410285
  0
LWPOLYLINE
  5
365
100
AcDbEntity
  8
ASSI
100
AcDbPolyline
 62
7
  6
CONTINUOUS
 90
34
 70
0
 10
57.5
 20
-50.689786779
 10
57.5023079476
 20
-50.6222436824
 10
57.509093653
 20
-50.5551558243
 10
57.5203571162
 20
-50.4885232046
 10
57.5361440706
 20
-50.4221971663
 10
57.5564087828
 20
-50.3563263664
 10
57.5810140528
 20
-50.2913567761
 10
57.6099893343
 20
-50.2272945107
 10
57.6433051735
 20
-50.1641334548
 10
57.6807360093
 20
-50.1023012336
 10
57.7223097647
 20
-50.041806864
 10
57.7679985166
 20
-49.9826413291
 10
57.8174929343
 20
-49.9252052026
 10
57.8708188419
 20
-49.8695102198
 10
57.9279504153
 20
-49.8155446454
 10
57.9885008513
 20
-49.7636738476
 10
58.0524933493
 20
-49.7139120408
 10
58.1199047101
 20
-49.6662450105
 10
58.1902785321
 20
-49.6209954812
 10
58.2636349179
 20
-49.5781798573
 10
58.3399537651
 20
-49.5377817343
 10
58.4187183651
 20
-49.5000746235
 10
58.4999453142
 20
-49.4650767851
 10
58.5836180161
 20
-49.4327699588
 10
58.669169974
 20
-49.4033728744
 10
58.7566139399
 20
-49.3769052766
 10
58.8459371617
 20
-49.3533474207
 10
58.9365348863
 20
-49.3328588027
 10
59.0284157621
 20
-49.3154602495
 10
59.1215711406
 20
-49.301130934
 10
59.2153703235
 20
-49.2899678715
 10
59.3096030779
 20
-49.2820034003
 10
59.4044796368
 20
-49.277205182
 10
59.5
 20
-49.2755732166
  0
LWPOLYLINE
  5
366
100
AcDbEntity
  8
ASSI
100
AcDbPolyline
 62
7
  6
CONTINUOUS
 90
4
 70
0
 10
57.5203571162
 20
-57.5595910164
 10
57.509093653
 20
-57.6262236361
 10
57.5023079476
 20
-57.6933114943
 10
57.5
 20
-57.7608545909
  0
LINE
  5
367
100
AcDbEntity
  8
ASSI
100
AcDbLine
 62
7
  6
CONTINUOUS
 10
79.7886953819
 20
-39.5690265017
 11
58.8159597133
 21
-47.2024780161
  0
LINE
  5
368
100
AcDbEntity
  8
ASSI
100
AcDbLine
 62
253
  6
CONTINUOUS
 10
74.1
 20
-56.3466410285
 11
74.1
 21
-49.2755732166
  0
LINE
  5
369
100
AcDbEntity
  8
ASSI
100
AcDbLine
 62
7
  6
CONTINUOUS
 10
74.9
 20
-55.7809556035
 11
74.9
 21
-41.3483661051
  0
LINE
  5
36A
100
AcDbEntity
  8
ASSI
100
AcDbLine
 62
7
  6
CONTINUOUS
 10
57.5361440706
 20
-57.4932649782
 11
57.5203571162
 21
-57.5595910164
  0
LINE
  5
36B
100
AcDbEntity
  8
ASSI
100
AcDbLine
 62
7
  6
CONTINUOUS
 10
-87.8278208243
 20
69.8185518187
 11
87.8278208243
 21
69.8185518187
  0
LWPOLYLINE
  5
36C
100
AcDbEntity
  8
ASSI
100
AcDbPolyline
 62
7
  6
CONTINUOUS
 90
28
 70
0
 10
74.9
 20
-55.7809556035
 10
74.8986085462
 20
-55.8140306486
 10
74.8945572803
 20
-55.846774063
 10
74.8878462024
 20
-55.8791858467
 10
74.8784346962
 20
-55.9113731845
 10
74.866363378
 20
-55.9432288915
 10
74.8517540966
 20
-55.9744314136
 10
74.8345811473
 20
-56.0049741352
 10
74.8148702349
 20
-56.0348636719
 10
74.792820323
 20
-56.063798316
 10
74.768407722
 20
-56.0917683963
 10
74.7416561215
 20
-56.1187835841
 10
74.7128355545
 20
-56.1445711857
 10
74.6819250662
 20
-56.1691187679
 10
74.6489456115
 20
-56.192438764
 10
74.6142300877
 20
-56.2142957799
 10
74.5777609118
 20
-56.2346749982
 10
74.5395556669
 20
-56.2535912363
 10
74.5
 20
-56.2708535521
 10
74.4590802339
 20
-56.2864451943
 10
74.4168100458
 20
-56.3003829141
 10
74.3736161147
 20
-56.312526023
 10
74.3294890847
 20
-56.3228563449
 10
74.2844383117
 20
-56.3313920559
 10
74.2389185421
 20
-56.3380469958
 10
74.193081358
 20
-56.3427924445
 10
74.1467751773
 20
-56.345657122
 10
74.1
 20
-56.3466410285
  0
LINE
  5
36D
100
AcDbEntity
  8
ASSI
100
AcDbLine
 62
7
  6
CONTINUOUS
 10
89.8210200819
 20
67.6537588586
 11
81.0978543528
 21
-37.8544342202
  0
CIRCLE
  5
36E
100
AcDbEntity
  8
DRAFT
100
AcDbCircle
 62
7
  6
CONTINUOUS
 10
70.0
 20
-30.2814481813
 40
6.5
  0
CIRCLE
  5
36F
100
AcDbEntity
  8
DRAFT
100
AcDbCircle
 62
7
  6
CONTINUOUS
 10
-70.0
 20
-30.2814481813
 40
6.5
  0
CIRCLE
  5
370
100
AcDbEntity
  8
DRAFT
100
AcDbCircle
 62
7
  6
CONTINUOUS
 10
80.0
 20
59.7185518187
 40
6.5
  0
CIRCLE
  5
371
100
AcDbEntity
  8
DRAFT
100
AcDbCircle
 62
7
  6
CONTINUOUS
 10
-80.0
 20
59.7185518187
 40
6.5
  0
CIRCLE
  5
372
100
AcDbEntity
  8
RACCORDO
100
AcDbCircle
 62
253
  6
CONTINUOUS
 10
70.0
 20
-30.2814481813
 40
6.2177487349
  0
CIRCLE
  5
373
100
AcDbEntity
  8
RACCORDO
100
AcDbCircle
 62
253
  6
CONTINUOUS
 10
-70.0
 20
-30.2814481813
 40
6.2177487349
  0
CIRCLE
  5
374
100
AcDbEntity
  8
RACCORDO
100
AcDbCircle
 62
253
  6
CONTINUOUS
 10
80.0
 20
59.7185518187
 40
6.2177487349
  0
CIRCLE
  5
375
100
AcDbEntity
  8
RACCORDO
100
AcDbCircle
 62
253
  6
CONTINUOUS
 10
-80.0
 20
59.7185518187
 40
6.2177487349
  0
CIRCLE
  5
376
100
AcDbEntity
  8
RACCORDO
100
AcDbCircle
 62
253
  6
CONTINUOUS
 10
70.0
 20
-30.2814481813
 40
5.9188903255
  0
CIRCLE
  5
377
100
AcDbEntity
  8
RACCORDO
100
AcDbCircle
 62
253
  6
CONTINUOUS
 10
-70.0
 20
-30.2814481813
 40
5.9188903255
  0
CIRCLE
  5
378
100
AcDbEntity
  8
RACCORDO
100
AcDbCircle
 62
253
  6
CONTINUOUS
 10
80.0
 20
59.7185518187
 40
5.9188903255
  0
CIRCLE
  5
379
100
AcDbEntity
  8
RACCORDO
100
AcDbCircle
 62
253
  6
CONTINUOUS
 10
-80.0
 20
59.7185518187
 40
5.9188903255
  0
ARC
  5
37A
100
AcDbEntity
  8
ASSI
100
AcDbCircle
 62
7
  6
CONTINUOUS
 10
-79.1046550952
 20
-37.6896412601
 40
2.0
100
AcDbArc
 50
184.7263288605
 51
250.0
  0
ARC
  5
37B
100
AcDbEntity
  8
ASSI
100
AcDbCircle
 62
7
  6
CONTINUOUS
 10
-87.8278208243
 20
67.8185518187
 40
2.0
100
AcDbArc
 50
90.0
 51
184.7263288605
  0
ARC
  5
37C
100
AcDbEntity
  8
ASSI
100
AcDbCircle
 62
7
  6
CONTINUOUS
 10
87.8278208243
 20
67.8185518187
 40
2.0
100
AcDbArc
 50
355.2736711395
 51
90.0
  0
ARC
  5
37D
100
AcDbEntity
  8
ASSI
100
AcDbCircle
 62
7
  6
CONTINUOUS
 10
79.1046550952
 20
-37.6896412601
 40
2.0
100
AcDbArc
 50
290.0
 51
355.2736711395
  0
ARC
  5
37E
100
AcDbEntity
  8
ASSI
100
AcDbCircle
 62
7
  6
CONTINUOUS
 10
47.3947611904
 20
17.8185518187
 40
2.0
100
AcDbArc
 50
355.2736711395
 51
90.0
  0
ARC
  5
37F
100
AcDbEntity
  8
ASSI
100
AcDbCircle
 62
7
  6
CONTINUOUS
 10
45.6585312829
 20
-3.1814481813
 40
2.0
100
AcDbArc
 50
270.0
 51
355.2736711395
  0
ARC
  5
380
100
AcDbEntity
  8
ASSI
100
AcDbCircle
 62
7
  6
CONTINUOUS
 10
-45.6585312829
 20
-3.1814481813
 40
2.0
100
AcDbArc
 50
184.7263288605
 51
270.0
  0
ARC
  5
381
100
AcDbEntity
  8
ASSI
100
AcDbCircle
 62
7
  6
CONTINUOUS
 10
-47.3947611904
 20
17.8185518187
 40
2.0
100
AcDbArc
 50
90.0
 51
184.7263288605
  0
ARC
  5
382
100
AcDbEntity
  8
ASSI
100
AcDbCircle
 62
7
  6
CONTINUOUS
 10
59.5
 20
-49.0818632577
 40
2.0
100
AcDbArc
 50
110.0
 51
180.0
  0
ENDSEC
  0
SECTION
  2
OBJECTS
  0
DICTIONARY
  5
C
100
AcDbDictionary
280
0
281
1
  3
ACAD_GROUP
350
D
  3
ACAD_MLINESTYLE
350
17
  3
ACAD_LAYOUT
350
1A
  3
ACAD_PLOTSETTINGS
350
19
  3
ACAD_PLOTSTYLENAME
350
E
  0
DICTIONARY
  5
D
102
{ACAD_REACTORS
330
C
102
}
100
AcDbDictionary
280
0
281
1
  0
ACDBDICTIONARYWDFLT
  5
E
102
{ACAD_REACTORS
330
C
102
}
100
AcDbDictionary
281
1
  3
Normal
350
F
100
AcDbDictionaryWithDefault
340
F
  0
DICTIONARY
  5
17
102
{ACAD_REACTORS
330
C
102
}
100
AcDbDictionary
280
0
281
1
  3
Standard
350
18
  0
DICTIONARY
  5
19
102
{ACAD_REACTORS
330
C
102
}
100
AcDbDictionary
281
1
  0
DICTIONARY
  5
1A
102
{ACAD_REACTORS
330
C
102
}
100
AcDbDictionary
281
1
  3
Model
350
383
  3
Layout1
350
384
  0
ACDBPLACEHOLDER
  5
F
102
{ACAD_REACTORS
330
E
102
}
  0
MLINESTYLE
  5
18
102
{ACAD_REACTORS
330
17
102
}
100
AcDbMlineStyle
  2
STANDARD
 70
0
  3

 62
256
 51
90.0
 52
90.0
 71
2
 49
0.5
 62
256
  6
BYLAYER
 49
-0.5
 62
256
  6
BYLAYER
  0
LAYOUT
  5
383
102
{ACAD_REACTORS
330
1A
102
}
100
AcDbPlotSettings
  1

  2
none_device
  4
ISO_A3_(420.00_x_297.00_MM)
  6

 40
0.0
 41
0.0
 42
0.0
 43
0.0
 44
420.0
 45
297.0
 46
0.0
 47
0.0
 48
0.0
 49
0.0
140
0.0
141
0.0
142
1.0
143
1.0
 70
1024
 72
1
 73
0
 74
0
  7

 75
0
147
1.0
148
0.0
149
0.0
100
AcDbLayout
  1
Model
 70
0
 71
0
 10
0.0
 20
0.0
 11
420.0
 21
297.0
 12
0.0
 22
0.0
 32
0.0
 14
0.0
 24
0.0
 34
0.0
 15
0.0
 25
0.0
 35
0.0
146
0.0
 13
0.0
 23
0.0
 33
0.0
 16
1.0
 26
0.0
 36
0.0
 17
0.0
 27
1.0
 37
0.0
 76
0
330
212
345
0
346
0
  0
LAYOUT
  5
384
102
{ACAD_REACTORS
330
1A
102
}
100
AcDbPlotSettings
  1

  2
none_device
  4
ISO_A3_(420.00_x_297.00_MM)
  6

 40
0.0
 41
0.0
 42
0.0
 43
0.0
 44
420.0
 45
297.0
 46
0.0
 47
0.0
 48
0.0
 49
0.0
140
0.0
141
0.0
142
1.0
143
1.0
 70
0
 72
1
 73
0
 74
0
  7

 75
0
147
1.0
148
0.0
149
0.0
100
AcDbLayout
  1
Layout1
 70
0
 71
1
 10
0.0
 20
0.0
 11
420.0
 21
297.0
 12
0.0
 22
0.0
 32
0.0
 14
0.0
 24
0.0
 34
0.0
 15
0.0
 25
0.0
 35
0.0
146
0.0
 13
0.0
 23
0.0
 33
0.0
 16
1.0
 26
0.0
 36
0.0
 17
0.0
 27
1.0
 37
0.0
 76
0
330
213
345
0
346
0
  0
ENDSEC
  0
EOF
