  0
SECTION
  2
HEADER
  9
$ACADVER
  1
AC1024
  9
$DWGCODEPAGE
  3
ANSI_1252
  9
$EXTMAX
 10
210.0
 20
297.0
 30
0.0
  9
$EXTMIN
 10
0.0
 20
0.0
 30
0.0
  9
$LIMMIN
 10
0.0
 20
0.0
  9
$LIMMAX
 10
210.0
 20
297.0
  9
$VIEWCTR
 10
105.0
 20
148.5
  9
$VIEWSIZE
 40
297.0
  9
$CLAYER
  8
0
  9
$LTSCALE
 40
19.36
  9
$CELTYPE
  6
BYLAYER
  9
$DIMSCALE
 40
1.0
  9
$DIMASZ
 40
3.0
  9
$DIMEXO
 40
0.5
  9
$DIMDLI
 40
13.376
  9
$DIMEXE
 40
1.5
  9
$DIMCEN
 40
3.168
  9
$DIMLFAC
 40
1.0
  9
$DIMBLK
  1
_FILLED
  9
$DIMALT
 70
0
  9
$DIMALTF
 40
0.0393700787
  9
$DIMTXT
 40
3.0
  9
$DIMTOL
 70
1
  9
$DIMLIM
 70
0
  9
$DIMTFAC
 40
1.0
  9
$DIMTP
 40
0.01
  9
$DIMTM
 40
0.01
  9
$DIMGAP
 40
0.625
  9
$DIMDSEP
 70
44
  9
$AUNITS
 70
0
  9
$PDMODE
 70
3
  9
$PDSIZE
 40
3.0
  9
$HANDSEED
  5
280
  9
$TILEMODE
 70
1
  9
$MEASUREMENT
 70
1
  9
$INSUNITS
 70
4
  0
ENDSEC
  0
SECTION
  2
CLASSES
  0
CLASS
  1
ACDBDICTIONARYWDFLT
  2
AcDbDictionaryWithDefault
  3
AutoCAD 2000
 90
0
 91
1
280
0
281
0
  0
CLASS
  1
ACDBPLACEHOLDER
  2
AcDbPlaceHolder
  3
AutoCAD 2000
 90
0
 91
1
280
0
281
0
  0
CLASS
  1
LAYOUT
  2
AcDbLayout
  3
AutoCAD 2000
 90
0
 91
0
280
0
281
0
  0
ENDSEC
  0
SECTION
  2
TABLES
  0
TABLE
  2
VPORT
  5
8
100
AcDbSymbolTable
 70
2
  0
VPORT
  5
1F4
100
AcDbSymbolTableRecord
100
AcDbViewportTableRecord
  2
*ACTIVE
 70
0
 10
0.0
 20
0.0
 11
1.0
 21
1.0
 12
105.0
 22
148.5
 13
0.0
 23
0.0
 14
1.0
 24
1.0
 15
0.0
 25
0.0
 16
0.0
 26
0.0
 36
1.0
 17
0.0
 27
0.0
 37
0.0
 40
297.0
 41
0.7070707071
 42
50.0
 43
0.0
 44
0.0
 50
0.0
 51
0.0
 71
0
 72
100
 73
1
 74
1
 75
0
 76
0
 77
0
 78
0
  0
ENDTAB
  0
TABLE
  2
LTYPE
  5
5
100
AcDbSymbolTable
 70
6
  0
LTYPE
  5
14
100
AcDbSymbolTableRecord
100
AcDbLinetypeTableRecord
  2
BYBLOCK
 70
0
  3

 72
65
 73
0
 40
0.0
  0
LTYPE
  5
15
100
AcDbSymbolTableRecord
100
AcDbLinetypeTableRecord
  2
BYLAYER
 70
0
  3

 72
65
 73
0
 40
0.0
  0
LTYPE
  5
16
100
AcDbSymbolTableRecord
100
AcDbLinetypeTableRecord
  2
CONTINUOUS
 70
64
  3
Solid line
 72
65
 73
0
 40
0.0
  0
LTYPE
  5
1F5
100
AcDbSymbolTableRecord
100
AcDbLinetypeTableRecord
  2
CENTER
 70
64
  3
____ _ ____ _ ____ _ ____ _ ____ _ ____ _ ____
 72
65
 73
4
 40
0.6
 49
0.375
 74
0
 49
-0.075
 74
0
 49
0.075
 74
0
 49
-0.075
 74
0
  0
LTYPE
  5
1F6
100
AcDbSymbolTableRecord
100
AcDbLinetypeTableRecord
  2
HIDDEN
 70
64
  3
- - - - - - - - - - - - - - - - - - - -
 72
65
 73
2
 40
0.2
 49
0.1
 74
0
 49
-0.1
 74
0
  0
LTYPE
  5
1F7
100
AcDbSymbolTableRecord
100
AcDbLinetypeTableRecord
  2
PHANTOM
 70
64
  3
_____ _ _ _____ _ _ _____ _ _ _____
 72
65
 73
6
 40
0.8
 49
0.45
 74
0
 49
-0.05
 74
0
 49
0.1
 74
0
 49
-0.05
 74
0
 49
0.1
 74
0
 49
-0.05
 74
0
  0
LTYPE
  5
1F8
100
AcDbSymbolTableRecord
100
AcDbLinetypeTableRecord
  2
DOT
 70
64
  3
. . . . . . . . . . . . . . . . . . . .
 72
65
 73
2
 40
0.2
 49
0.1
 74
0
 49
-0.1
 74
0
  0
LTYPE
  5
1F9
100
AcDbSymbolTableRecord
100
AcDbLinetypeTableRecord
  2
DASHED
 70
64
  3
- - - - - - - - - - - - - - - - - - - -
 72
65
 73
2
 40
0.2
 49
0.1
 74
0
 49
-0.1
 74
0
  0
ENDTAB
  0
TABLE
  2
LAYER
  5
2
100
AcDbSymbolTable
 70
36
  0
LAYER
  5
10
100
AcDbSymbolTableRecord
100
AcDbLayerTableRecord
  2
0
 70
0
 62
7
  6
CONTINUOUS
370
-3
390
F
  0
LAYER
  5
1FA
100
AcDbSymbolTableRecord
100
AcDbLayerTableRecord
  2
DEFAULT_1
 70
0
 62
7
  6
CENTER
370
-3
390
F
  0
LAYER
  5
1FB
100
AcDbSymbolTableRecord
100
AcDbLayerTableRecord
  2
DEFAULT_2
 70
0
 62
7
  6
HIDDEN
370
-3
390
F
  0
LAYER
  5
1FC
100
AcDbSymbolTableRecord
100
AcDbLayerTableRecord
  2
DEFAULT_3
 70
0
 62
7
  6
PHANTOM
370
-3
390
F
  0
LAYER
  5
1FD
100
AcDbSymbolTableRecord
100
AcDbLayerTableRecord
  2
ASSI
 70
0
 62
7
  6
CONTINUOUS
370
-3
390
F
  0
LAYER
  5
1FE
100
AcDbSymbolTableRecord
100
AcDbLayerTableRecord
  2
COORDINATE
 70
0
 62
7
  6
CONTINUOUS
370
-3
390
F
  0
LAYER
  5
1FF
100
AcDbSymbolTableRecord
100
AcDbLayerTableRecord
  2
COPY_PUBLISH
 70
0
 62
7
  6
CONTINUOUS
370
-3
390
F
  0
LAYER
  5
200
100
AcDbSymbolTableRecord
100
AcDbLayerTableRecord
  2
COSMETICI
 70
0
 62
7
  6
CONTINUOUS
370
-3
390
F
  0
LAYER
  5
201
100
AcDbSymbolTableRecord
100
AcDbLayerTableRecord
  2
CURVE
 70
0
 62
7
  6
CONTINUOUS
370
-3
390
F
  0
LAYER
  5
202
100
AcDbSymbolTableRecord
100
AcDbLayerTableRecord
  2
DRAFT
 70
0
 62
7
  6
CONTINUOUS
370
-3
390
F
  0
LAYER
  5
203
100
AcDbSymbolTableRecord
100
AcDbLayerTableRecord
  2
IMPORT_IGES
 70
0
 62
7
  6
CONTINUOUS
370
-3
390
F
  0
LAYER
  5
204
100
AcDbSymbolTableRecord
100
AcDbLayerTableRecord
  2
NOTE
 70
0
 62
7
  6
CONTINUOUS
370
-3
390
F
  0
LAYER
  5
205
100
AcDbSymbolTableRecord
100
AcDbLayerTableRecord
  2
PIANI
 70
0
 62
7
  6
CONTINUOUS
370
-3
390
F
  0
LAYER
  5
206
100
AcDbSymbolTableRecord
100
AcDbLayerTableRecord
  2
PUNTI
 70
0
 62
7
  6
CONTINUOUS
370
-3
390
F
  0
LAYER
  5
207
100
AcDbSymbolTableRecord
100
AcDbLayerTableRecord
  2
RACCORDO
 70
0
 62
7
  6
CONTINUOUS
370
-3
390
F
  0
LAYER
  5
208
100
AcDbSymbolTableRecord
100
AcDbLayerTableRecord
  2
SIMBOLI
 70
0
 62
7
  6
CONTINUOUS
370
-3
390
F
  0
LAYER
  5
209
100
AcDbSymbolTableRecord
100
AcDbLayerTableRecord
  2
SMUSSO
 70
0
 62
7
  6
CONTINUOUS
370
-3
390
F
  0
LAYER
  5
20A
100
AcDbSymbolTableRecord
100
AcDbLayerTableRecord
  2
SNAPLINE
 70
0
 62
7
  6
CONTINUOUS
370
-3
390
F
  0
LAYER
  5
20B
100
AcDbSymbolTableRecord
100
AcDbLayerTableRecord
  2
SUPERFICI
 70
0
 62
7
  6
CONTINUOUS
370
-3
390
F
  0
LAYER
  5
20C
100
AcDbSymbolTableRecord
100
AcDbLayerTableRecord
  2
TRASH
 70
0
 62
7
  6
CONTINUOUS
370
-3
390
F
  0
ENDTAB
  0
TABLE
  2
STYLE
  5
3
100
AcDbSymbolTable
 70
1
  0
STYLE
  5
11
100
AcDbSymbolTableRecord
100
AcDbTextStyleTableRecord
  2
STANDARD
 70
0
 40
0.0
 41
0.8
 50
0.0
 71
0
 42
0.2
  3
txt
  4

  0
STYLE
  5
20D
100
AcDbSymbolTableRecord
100
AcDbTextStyleTableRecord
  2
TEXTSTYLE_1
 70
0
 40
0.0
 41
0.8
 50
0.0
 71
0
 42
0.2
  3
gdt
  4

  0
ENDTAB
  0
TABLE
  2
VIEW
  5
6
100
AcDbSymbolTable
 70
0
  0
ENDTAB
  0
TABLE
  2
UCS
  5
7
100
AcDbSymbolTable
 70
0
  0
ENDTAB
  0
TABLE
  2
APPID
  5
9
100
AcDbSymbolTable
 70
1
  0
APPID
  5
20E
100
AcDbSymbolTableRecord
100
AcDbRegAppTableRecord
  2
ACAD
 70
0
  0
ENDTAB
  0
TABLE
  2
BLOCK_RECORD
  5
1
100
AcDbSymbolTable
 70
0
  0
BLOCK_RECORD
  5
20F
100
AcDbSymbolTableRecord
100
AcDbBlockTableRecord
  2
*Model_Space
  0
BLOCK_RECORD
  5
210
100
AcDbSymbolTableRecord
100
AcDbBlockTableRecord
  2
*Paper_Space
  0
BLOCK_RECORD
  5
211
100
AcDbSymbolTableRecord
100
AcDbBlockTableRecord
  2
_FILLED
  0
ENDTAB
  0
TABLE
  2
DIMSTYLE
  5
A
100
AcDbSymbolTable
 70
1
100
AcDbDimStyleTable
 71
0
  0
DIMSTYLE
105
212
100
AcDbSymbolTableRecord
100
AcDbDimStyleTableRecord
  2
STANDARD
 70
0
  3

  4

 40
1.0
 41
3.0
 42
0.5
 43
0.38
 44
1.5
 45
0.0
 46
0.0
 47
0.01
 48
0.01
140
3.0
141
0.09
142
0.0
143
25.4
144
1.0
145
0.0
146
1.0
147
0.625
 71
1
 72
0
 73
0
 74
0
 75
0
 76
0
 77
1
 78
8
 79
2
170
0
171
1
172
0
173
0
174
0
175
0
176
0
177
0
178
0
270
2
179
2
271
2
272
2
273
2
274
2
275
0
280
0
281
0
282
0
283
1
284
8
285
0
286
0
287
3
288
0
340
11
278
44
341
211
342
211
343
211
344
211
  0
ENDTAB
  0
ENDSEC
  0
SECTION
  2
BLOCKS
  0
BLOCK
  5
20
100
AcDbEntity
  8
0
100
AcDbBlockBegin
  2
*Model_Space
 70
0
 10
0.0
 20
0.0
 30
0.0
  3
*Model_Space
  1

  0
ENDBLK
  5
21
100
AcDbEntity
  8
0
100
AcDbBlockEnd
  0
BLOCK
  5
1C
100
AcDbEntity
  8
0
100
AcDbBlockBegin
  2
*Paper_Space
 70
0
 10
0.0
 20
0.0
 30
0.0
  3
*Paper_Space
  1

  0
ENDBLK
  5
1D
100
AcDbEntity
  8
0
100
AcDbBlockEnd
  0
BLOCK
  5
213
100
AcDbEntity
  8
0
100
AcDbBlockBegin
  2
_FILLED
 70
64
 10
0.0
 20
0.0
  3
_FILLED
  1

  0
SOLID
  5
214
100
AcDbEntity
  8
0
  6
BYBLOCK
 62
0
100
AcDbTrace
 10
0.0
 20
0.0
 11
-1.0
 21
0.3166666667
 12
-1.0
 22
-0.3166666667
 13
-1.0
 23
-0.3166666667
  0
ENDBLK
  5
215
100
AcDbEntity
  8
0
  6
BYBLOCK
 62
0
100
AcDbBlockEnd
  0
ENDSEC
  0
SECTION
  2
ENTITIES
  0
LWPOLYLINE
  5
216
100
AcDbEntity
  8
RACCORDO
100
AcDbPolyline
 62
250
  6
CONTINUOUS
 90
28
 70
0
 10
2.0722148424
 20
-17.2157458292
 10
2.2021379127
 20
-17.2103764957
 10
2.329163343
 20
-17.1959862382
 10
2.4532911333
 20
-17.1725750565
 10
2.5757743213
 20
-17.1392442926
 10
2.6953598694
 20
-17.0968926045
 10
2.8082886639
 20
-17.0482159669
 10
2.9136980025
 20
-16.9929520664
 10
3.0124505876
 20
-16.9313632164
 10
3.103375413
 20
-16.8669323308
 10
3.1857160126
 20
-16.800103284
 10
3.2602288525
 20
-16.7304322017
 10
3.3280123244
 20
-16.6600703744
 10
3.3889325719
 20
-16.5894559767
 10
3.4431234513
 20
-16.5181508341
 10
3.4920849242
 20
-16.4469917135
 10
3.5358843952
 20
-16.3763575339
 10
3.5744544596
 20
-16.3058693765
 10
3.6090928647
 20
-16.2352272513
 10
3.6399435707
 20
-16.1650202983
 10
3.6668626175
 20
-16.0946593776
 10
3.690715872
 20
-16.0220770795
 10
3.7119934257
 20
-15.9470874045
 10
3.7302051872
 20
-15.8698763521
 10
3.744746749
 20
-15.7889345109
 10
3.755416642
 20
-15.7037587436
 10
3.7624163354
 20
-15.6148521874
 10
3.7657458292
 20
-15.5222148424
  0
LWPOLYLINE
  5
217
100
AcDbEntity
  8
RACCORDO
100
AcDbPolyline
 62
7
  6
CONTINUOUS
 90
22
 70
0
 10
1.9307079529
 20
-16.875
 10
2.0425666676
 20
-16.8708435291
 10
2.1537746807
 20
-16.8583709587
 10
2.2637198086
 20
-16.8376468082
 10
2.3718266132
 20
-16.8087751111
 10
2.4774646286
 20
-16.771912491
 10
2.5799589371
 20
-16.7272881462
 10
2.6786835892
 20
-16.6751970996
 10
2.7731690354
 20
-16.6159137581
 10
2.862997944
 20
-16.5496911033
 10
2.9477332456
 20
-16.476815047
 10
3.026815047
 20
-16.3977332456
 10
3.0996911033
 20
-16.312997944
 10
3.1659137581
 20
-16.2231690354
 10
3.2251970996
 20
-16.1286835892
 10
3.2772881462
 20
-16.0299589371
 10
3.321912491
 20
-15.9274646286
 10
3.3587751111
 20
-15.8218266132
 10
3.3876468082
 20
-15.7137198086
 10
3.4083709587
 20
-15.6037746807
 10
3.4208435291
 20
-15.4925666676
 10
3.425
 20
-15.3807079529
  0
LWPOLYLINE
  5
218
100
AcDbEntity
  8
RACCORDO
100
AcDbPolyline
 62
250
  6
CONTINUOUS
 90
28
 70
0
 10
2.0722148262
 20
-17.0165068734
 10
2.1859925171
 20
-17.0123225
 10
2.2983778581
 20
-16.9996501372
 10
2.4087583286
 20
-16.9787147501
 10
2.5172617892
 20
-16.9495614928
 10
2.6225887193
 20
-16.9126145656
 10
2.7221959949
 20
-16.8691906687
 10
2.8154836346
 20
-16.8202694685
 10
2.9026287156
 20
-16.7665004177
 10
2.9826676011
 20
-16.7093354718
 10
3.055320893
 20
-16.6499963274
 10
3.1212080528
 20
-16.5890098893
 10
3.1808924002
 20
-16.5268259736
 10
3.2345171909
 20
-16.4642052708
 10
3.2824805493
 20
-16.401601049
 10
3.3256188766
 20
-16.3387719257
 10
3.3640915949
 20
-16.2762199333
 10
3.3982071942
 20
-16.2141927567
 10
3.4287771346
 20
-16.1518368873
 10
3.455765755
 20
-16.0897189515
 10
3.4794536982
 20
-16.0277007569
 10
3.5006807763
 20
-15.9636465506
 10
3.5193344905
 20
-15.8973996786
 10
3.5351466225
 20
-15.8292920193
 10
3.548196242
 20
-15.7577736636
 10
3.55812131
 20
-15.6823815542
 10
3.5643733672
 20
-15.6038020832
 10
3.5665068895
 20
-15.5222148424
  0
LINE
  5
219
100
AcDbEntity
  8
RACCORDO
100
AcDbLine
 62
250
  6
CONTINUOUS
 10
-2.0722148424
 20
-17.2157458292
 11
2.0722148424
 21
-17.2157458292
  0
LINE
  5
21A
100
AcDbEntity
  8
RACCORDO
100
AcDbLine
 62
250
  6
CONTINUOUS
 10
-2.0722148424
 20
-17.0165068895
 11
2.0722148424
 21
-17.0165068895
  0
LINE
  5
21B
100
AcDbEntity
  8
RACCORDO
100
AcDbLine
 62
7
  6
CONTINUOUS
 10
1.9307079529
 20
-16.875
 11
-1.9307079529
 21
-16.875
  0
LINE
  5
21C
100
AcDbEntity
  8
RACCORDO
100
AcDbLine
 62
250
  6
CONTINUOUS
 10
-3.5665068895
 20
-15.5222148424
 11
-3.7657458292
 21
-15.5222148424
  0
LINE
  5
21D
100
AcDbEntity
  8
RACCORDO
100
AcDbLine
 62
250
  6
CONTINUOUS
 10
3.5665068895
 20
-15.5222148424
 11
3.7657458292
 21
-15.5222148424
  0
LWPOLYLINE
  5
21E
100
AcDbEntity
  8
RACCORDO
100
AcDbPolyline
 62
7
  6
CONTINUOUS
 90
22
 70
0
 10
-1.9307079529
 20
-13.825
 10
-2.0425666676
 20
-13.8291564709
 10
-2.1537746807
 20
-13.8416290413
 10
-2.2637198086
 20
-13.8623531918
 10
-2.3718266132
 20
-13.8912248889
 10
-2.4774646286
 20
-13.928087509
 10
-2.5799589371
 20
-13.9727118538
 10
-2.6786835892
 20
-14.0248029004
 10
-2.7731690354
 20
-14.0840862419
 10
-2.862997944
 20
-14.1503088967
 10
-2.9477332456
 20
-14.223184953
 10
-3.026815047
 20
-14.3022667544
 10
-3.0996911033
 20
-14.387002056
 10
-3.1659137581
 20
-14.4768309646
 10
-3.2251970996
 20
-14.5713164108
 10
-3.2772881462
 20
-14.6700410629
 10
-3.321912491
 20
-14.7725353714
 10
-3.3587751111
 20
-14.8781733868
 10
-3.3876468082
 20
-14.9862801914
 10
-3.4083709587
 20
-15.0962253193
 10
-3.4208435291
 20
-15.2074333324
 10
-3.425
 20
-15.3192920471
  0
LWPOLYLINE
  5
21F
100
AcDbEntity
  8
RACCORDO
100
AcDbPolyline
 62
250
  6
CONTINUOUS
 90
28
 70
0
 10
-2.0722148262
 20
-13.6834931266
 10
-2.1859925171
 20
-13.6876775
 10
-2.2983778581
 20
-13.7003498628
 10
-2.4087583286
 20
-13.7212852499
 10
-2.5172617892
 20
-13.7504385072
 10
-2.6225887193
 20
-13.7873854344
 10
-2.7221959949
 20
-13.8308093313
 10
-2.8154836346
 20
-13.8797305315
 10
-2.9026287156
 20
-13.9334995823
 10
-2.9826676011
 20
-13.9906645282
 10
-3.055320893
 20
-14.0500036726
 10
-3.1212080528
 20
-14.1109901107
 10
-3.1808924002
 20
-14.1731740264
 10
-3.2345171909
 20
-14.2357947292
 10
-3.2824805493
 20
-14.298398951
 10
-3.3256188766
 20
-14.3612280743
 10
-3.3640915949
 20
-14.4237800667
 10
-3.3982071942
 20
-14.4858072433
 10
-3.4287771346
 20
-14.5481631127
 10
-3.455765755
 20
-14.6102810485
 10
-3.4794536982
 20
-14.6722992431
 10
-3.5006807763
 20
-14.7363534494
 10
-3.5193344905
 20
-14.8026003214
 10
-3.5351466225
 20
-14.8707079807
 10
-3.548196242
 20
-14.9422263364
 10
-3.55812131
 20
-15.0176184458
 10
-3.5643733672
 20
-15.0961979168
 10
-3.5665068895
 20
-15.1777851576
  0
LINE
  5
220
100
AcDbEntity
  8
RACCORDO
100
AcDbLine
 62
250
  6
CONTINUOUS
 10
-3.5665068895
 20
-15.1777851576
 11
-3.7657458292
 21
-15.1777851576
  0
LINE
  5
221
100
AcDbEntity
  8
RACCORDO
100
AcDbLine
 62
250
  6
CONTINUOUS
 10
3.5665068895
 20
-15.1777851576
 11
3.7657458292
 21
-15.1777851576
  0
LINE
  5
222
100
AcDbEntity
  8
RACCORDO
100
AcDbLine
 62
7
  6
CONTINUOUS
 10
-1.9307079529
 20
-13.825
 11
1.9307079529
 21
-13.825
  0
LINE
  5
223
100
AcDbEntity
  8
RACCORDO
100
AcDbLine
 62
250
  6
CONTINUOUS
 10
2.0722148424
 20
-13.6834931105
 11
-2.0722148424
 21
-13.6834931105
  0
LINE
  5
224
100
AcDbEntity
  8
RACCORDO
100
AcDbLine
 62
250
  6
CONTINUOUS
 10
2.0722148424
 20
-13.4842541708
 11
-2.0722148424
 21
-13.4842541708
  0
LWPOLYLINE
  5
225
100
AcDbEntity
  8
RACCORDO
100
AcDbPolyline
 62
7
  6
CONTINUOUS
 90
22
 70
0
 10
1.9307079529
 20
-13.825
 10
2.0425666676
 20
-13.8291564709
 10
2.1537746807
 20
-13.8416290413
 10
2.2637198086
 20
-13.8623531918
 10
2.3718266132
 20
-13.8912248889
 10
2.4774646286
 20
-13.928087509
 10
2.5799589371
 20
-13.9727118538
 10
2.6786835892
 20
-14.0248029004
 10
2.7731690354
 20
-14.0840862419
 10
2.862997944
 20
-14.1503088967
 10
2.9477332456
 20
-14.223184953
 10
3.026815047
 20
-14.3022667544
 10
3.0996911033
 20
-14.387002056
 10
3.1659137581
 20
-14.4768309646
 10
3.2251970996
 20
-14.5713164108
 10
3.2772881462
 20
-14.6700410629
 10
3.321912491
 20
-14.7725353714
 10
3.3587751111
 20
-14.8781733868
 10
3.3876468082
 20
-14.9862801914
 10
3.4083709587
 20
-15.0962253193
 10
3.4208435291
 20
-15.2074333324
 10
3.425
 20
-15.3192920471
  0
LINE
  5
226
100
AcDbEntity
  8
DRAFT
100
AcDbLine
 62
7
  6
CONTINUOUS
 10
-8.0028109249
 20
-15.2676470588
 11
-14.227219422
 21
-3.1702614379
  0
LINE
  5
227
100
AcDbEntity
  8
RACCORDO
100
AcDbLine
 62
250
  6
CONTINUOUS
 10
-7.9932976271
 20
-15.2627522284
 11
-14.2177061242
 21
-3.1653666075
  0
LINE
  5
228
100
AcDbEntity
  8
RACCORDO
100
AcDbLine
 62
250
  6
CONTINUOUS
 10
-7.8603894193
 20
-15.19436762
 11
-14.0847979164
 21
-3.0969819991
  0
LWPOLYLINE
  5
229
100
AcDbEntity
  8
RACCORDO
100
AcDbPolyline
 62
250
  6
CONTINUOUS
 90
28
 70
0
 10
-2.0722148424
 20
-13.4842541708
 10
-2.2021379127
 20
-13.4896235043
 10
-2.329163343
 20
-13.5040137618
 10
-2.4532911333
 20
-13.5274249435
 10
-2.5757743213
 20
-13.5607557074
 10
-2.6953598694
 20
-13.6031073955
 10
-2.8082886639
 20
-13.6517840331
 10
-2.9136980025
 20
-13.7070479336
 10
-3.0124505876
 20
-13.7686367836
 10
-3.103375413
 20
-13.8330676692
 10
-3.1857160126
 20
-13.899896716
 10
-3.2602288525
 20
-13.9695677983
 10
-3.3280123244
 20
-14.0399296256
 10
-3.3889325719
 20
-14.1105440233
 10
-3.4431234513
 20
-14.1818491659
 10
-3.4920849242
 20
-14.2530082865
 10
-3.5358843952
 20
-14.3236424661
 10
-3.5744544596
 20
-14.3941306235
 10
-3.6090928647
 20
-14.4647727487
 10
-3.6399435707
 20
-14.5349797017
 10
-3.6668626175
 20
-14.6053406224
 10
-3.690715872
 20
-14.6779229205
 10
-3.7119934257
 20
-14.7529125955
 10
-3.7302051872
 20
-14.8301236479
 10
-3.744746749
 20
-14.9110654891
 10
-3.755416642
 20
-14.9962412564
 10
-3.7624163354
 20
-15.0851478126
 10
-3.7657458292
 20
-15.1777851576
  0
LINE
  5
22A
100
AcDbEntity
  8
RACCORDO
100
AcDbLine
 62
250
  6
CONTINUOUS
 10
-3.425
 20
-15.3192920471
 11
-3.5665068895
 21
-15.1777851576
  0
LINE
  5
22B
100
AcDbEntity
  8
RACCORDO
100
AcDbLine
 62
250
  6
CONTINUOUS
 10
-13.4551996796
 20
-2.7730379059
 11
-7.2307911825
 21
-14.8704235268
  0
LINE
  5
22C
100
AcDbEntity
  8
RACCORDO
100
AcDbLine
 62
250
  6
CONTINUOUS
 10
-13.1435749953
 20
-2.6126991853
 11
-6.9191664981
 21
-14.7100848062
  0
LINE
  5
22D
100
AcDbEntity
  8
RACCORDO
100
AcDbLine
 62
250
  6
CONTINUOUS
 10
-1.9307079529
 20
-13.825
 11
-2.0722148424
 21
-13.6834931105
  0
LINE
  5
22E
100
AcDbEntity
  8
RACCORDO
100
AcDbLine
 62
250
  6
CONTINUOUS
 10
1.9307079529
 20
-16.875
 11
2.0722148424
 21
-17.0165068895
  0
LWPOLYLINE
  5
22F
100
AcDbEntity
  8
RACCORDO
100
AcDbPolyline
 62
250
  6
CONTINUOUS
 90
40
 70
0
 10
-5.8665301236
 20
-13.1509586018
 10
-5.8186080819
 20
-13.2344078612
 10
-5.7652134695
 20
-13.3123364906
 10
-5.7063462864
 20
-13.3847444899
 10
-5.6416279223
 20
-13.4518896193
 10
-5.5714369874
 20
-13.5135141186
 10
-5.4969093126
 20
-13.5688447077
 10
-5.4178487331
 20
-13.6179226057
 10
-5.3344514136
 20
-13.6607065934
 10
-5.2484416784
 20
-13.6962997333
 10
-5.1597878712
 20
-13.7245418985
 10
-5.0685216483
 20
-13.7455932159
 10
-4.9764623035
 20
-13.7590371294
 10
-4.8835847529
 20
-13.7647222426
 10
-4.7899140803
 20
-13.7627999519
 10
-4.697344831
 20
-13.7533078894
 10
-4.6059032211
 20
-13.7360922662
 10
-4.5155630344
 20
-13.7113068713
 10
-4.4281401672
 20
-13.679450703
 10
-4.3436928681
 20
-13.6403808002
 10
-4.2621628884
 20
-13.594240124
 10
-4.1851913788
 20
-13.5419565571
 10
-4.1128693605
 20
-13.4834034946
 10
-4.0451058122
 20
-13.4187075414
 10
-3.9832688203
 20
-13.3491763939
 10
-3.9274315018
 20
-13.274461872
 10
-3.8775207398
 20
-13.1949121557
 10
-3.8346852688
 20
-13.112879482
 10
-3.7993194607
 20
-13.0278678658
 10
-3.7710289436
 20
-12.9403732922
 10
-3.7497793376
 20
-12.8542359529
 10
-3.7359624716
 20
-12.7709054248
 10
-3.7291865167
 20
-12.6889321312
 10
-3.7282416055
 20
-12.6078075334
 10
-3.7323252025
 20
-12.5282036408
 10
-3.7422398433
 20
-12.4494484442
 10
-3.7591832671
 20
-12.3690173771
 10
-3.7835547206
 20
-12.2860689176
 10
-3.8149549571
 20
-12.2014445877
 10
-3.8533839767
 20
-12.1151443875
  0
LINE
  5
230
100
AcDbEntity
  8
RACCORDO
100
AcDbLine
 62
250
  6
CONTINUOUS
 10
-7.4220856791
 20
-10.1276744746
 11
-5.8665301236
 21
-13.1509586018
  0
LINE
  5
231
100
AcDbEntity
  8
RACCORDO
100
AcDbLine
 62
250
  6
CONTINUOUS
 10
-7.2449221721
 20
-10.0365194042
 11
-5.6893666166
 21
-13.0598035314
  0
LINE
  5
232
100
AcDbEntity
  8
RACCORDO
100
AcDbLine
 62
250
  6
CONTINUOUS
 10
-5.5855209697
 20
-13.00637234
 11
-7.1410765253
 21
-9.9830882128
  0
LINE
  5
233
100
AcDbEntity
  8
RACCORDO
100
AcDbLine
 62
250
  6
CONTINUOUS
 10
-5.4083574628
 20
-12.9152172695
 11
-6.9639130183
 21
-9.8919331424
  0
LWPOLYLINE
  5
234
100
AcDbEntity
  8
RACCORDO
100
AcDbPolyline
 62
250
  6
CONTINUOUS
 90
37
 70
0
 10
-6.9639130183
 20
-9.8919331424
 10
-6.9878344367
 20
-9.8387620188
 10
-7.0066283651
 20
-9.7849822425
 10
-7.0202948038
 20
-9.7305938134
 10
-7.0288036159
 20
-9.6752860153
 10
-7.0321849382
 20
-9.6193695645
 10
-7.0305291805
 20
-9.5637766091
 10
-7.0237708846
 20
-9.5083469988
 10
-7.0119755087
 20
-9.453240884
 10
-6.9954298367
 20
-9.3998708636
 10
-6.9740188206
 20
-9.3483095373
 10
-6.9478575085
 20
-9.2984843055
 10
-6.9175778286
 20
-9.2515899686
 10
-6.8830736757
 20
-9.2076888802
 10
-6.844451155
 20
-9.1667186866
 10
-6.8026605099
 20
-9.1296871269
 10
-6.7576337599
 20
-9.0966965456
 10
-6.7094388854
 20
-9.0676445982
 10
-6.6592300714
 20
-9.0432319899
 10
-6.6069274649
 20
-9.0235688832
 10
-6.5526109188
 20
-9.0085451157
 10
-6.4976741768
 20
-8.9985309047
 10
-6.4418372161
 20
-8.9937885878
 10
-6.3853800595
 20
-8.9940558275
 10
-6.3305365182
 20
-8.9989158293
 10
-6.2774846144
 20
-9.0087631822
 10
-6.2260463259
 20
-9.0232032972
 10
-6.1779213977
 20
-9.040635612
 10
-6.1339884754
 20
-9.0606707827
 10
-6.0933689134
 20
-9.0836981533
 10
-6.0551265198
 20
-9.1092851937
 10
-6.0191939753
 20
-9.1368467589
 10
-5.9856385992
 20
-9.166967994
 10
-5.9537261564
 20
-9.2009718043
 10
-5.923211902
 20
-9.2392991585
 10
-5.8943405808
 20
-9.2815090878
 10
-5.867112193
 20
-9.3276015925
  0
LINE
  5
235
100
AcDbEntity
  8
RACCORDO
100
AcDbLine
 62
250
  6
CONTINUOUS
 10
6.9191664981
 20
-14.7100848062
 11
8.0028109249
 21
-15.2676470588
  0
LINE
  5
236
100
AcDbEntity
  8
RACCORDO
100
AcDbLine
 62
250
  6
CONTINUOUS
 10
4.3115566375
 20
-12.3508857197
 11
3.8533839767
 21
-12.1151443875
  0
LINE
  5
237
100
AcDbEntity
  8
RACCORDO
100
AcDbLine
 62
250
  6
CONTINUOUS
 10
5.4083574628
 20
-12.9152172695
 11
5.8665301236
 21
-13.1509586018
  0
LINE
  5
238
100
AcDbEntity
  8
RACCORDO
100
AcDbLine
 62
250
  6
CONTINUOUS
 10
3.425
 20
-15.3807079529
 11
3.5665068895
 21
-15.5222148424
  0
LWPOLYLINE
  5
239
100
AcDbEntity
  8
RACCORDO
100
AcDbPolyline
 62
250
  6
CONTINUOUS
 90
40
 70
0
 10
-5.4089395323
 20
-9.0918602603
 10
-5.4568615739
 20
-9.0084110009
 10
-5.5102561863
 20
-8.9304823715
 10
-5.5691233695
 20
-8.8580743721
 10
-5.6338417336
 20
-8.7909292428
 10
-5.7040326684
 20
-8.7293047434
 10
-5.7785603433
 20
-8.6739741544
 10
-5.8576209227
 20
-8.6248962564
 10
-5.9410182422
 20
-8.5821122687
 10
-6.0270279774
 20
-8.5465191287
 10
-6.1156817846
 20
-8.5182769636
 10
-6.2069480075
 20
-8.4972256461
 10
-6.2990073523
 20
-8.4837817327
 10
-6.3918849029
 20
-8.4780966194
 10
-6.4855555755
 20
-8.4800189102
 10
-6.5781248248
 20
-8.4895109727
 10
-6.6695664347
 20
-8.5067265958
 10
-6.7599066214
 20
-8.5315119908
 10
-6.8473294886
 20
-8.563368159
 10
-6.9317767877
 20
-8.6024380619
 10
-7.0133067674
 20
-8.648578738
 10
-7.0902782771
 20
-8.700862305
 10
-7.1626002953
 20
-8.7594153674
 10
-7.2303638436
 20
-8.8241113206
 10
-7.2922008356
 20
-8.8936424682
 10
-7.348038154
 20
-8.9683569901
 10
-7.397948916
 20
-9.0479067063
 10
-7.440784387
 20
-9.1299393801
 10
-7.4761501952
 20
-9.2149509962
 10
-7.5044407122
 20
-9.3024455699
 10
-7.5256903182
 20
-9.3885829092
 10
-7.5395071842
 20
-9.4719134372
 10
-7.5462831391
 20
-9.5538867309
 10
-7.5472280503
 20
-9.6350113287
 10
-7.5431444533
 20
-9.7146152212
 10
-7.5332298125
 20
-9.7933704179
 10
-7.5162863887
 20
-9.8738014849
 10
-7.4919149353
 20
-9.9567499444
 10
-7.4605146987
 20
-10.0413742743
 10
-7.4220856791
 20
-10.1276744746
  0
LINE
  5
23A
100
AcDbEntity
  8
RACCORDO
100
AcDbLine
 62
250
  6
CONTINUOUS
 10
-5.867112193
 20
-9.3276015925
 11
-4.3115566375
 21
-12.3508857197
  0
LINE
  5
23B
100
AcDbEntity
  8
RACCORDO
100
AcDbLine
 62
250
  6
CONTINUOUS
 10
-5.6899486861
 20
-9.2364465221
 11
-4.1343931305
 21
-12.2597306493
  0
LINE
  5
23C
100
AcDbEntity
  8
RACCORDO
100
AcDbLine
 62
250
  6
CONTINUOUS
 10
-4.0305474837
 20
-12.2062994579
 11
-5.5861030392
 21
-9.1830153307
  0
LINE
  5
23D
100
AcDbEntity
  8
RACCORDO
100
AcDbLine
 62
250
  6
CONTINUOUS
 10
-3.8533839767
 20
-12.1151443875
 11
-5.4089395323
 21
-9.0918602603
  0
LWPOLYLINE
  5
23E
100
AcDbEntity
  8
RACCORDO
100
AcDbPolyline
 62
250
  6
CONTINUOUS
 90
37
 70
0
 10
-4.3115566375
 20
-12.3508857197
 10
-4.2876352192
 20
-12.4040568432
 10
-4.2688412907
 20
-12.4578366195
 10
-4.2551748521
 20
-12.5122250487
 10
-4.2466660399
 20
-12.5675328467
 10
-4.2432847176
 20
-12.6234492976
 10
-4.2449404753
 20
-12.679042253
 10
-4.2516987712
 20
-12.7344718632
 10
-4.2634941472
 20
-12.7895779781
 10
-4.2800398191
 20
-12.8429479984
 10
-4.3014508352
 20
-12.8945093247
 10
-4.3276121473
 20
-12.9443345565
 10
-4.3578918272
 20
-12.9912288935
 10
-4.3923959801
 20
-13.0351299819
 10
-4.4310185008
 20
-13.0761001755
 10
-4.4728091459
 20
-13.1131317352
 10
-4.5178358959
 20
-13.1461223165
 10
-4.5660307704
 20
-13.1751742639
 10
-4.6162395844
 20
-13.1995868722
 10
-4.6685421909
 20
-13.2192499788
 10
-4.722858737
 20
-13.2342737464
 10
-4.777795479
 20
-13.2442879573
 10
-4.8336324397
 20
-13.2490302743
 10
-4.8900895963
 20
-13.2487630345
 10
-4.9449331376
 20
-13.2439030328
 10
-4.9979850415
 20
-13.2340556798
 10
-5.0494233299
 20
-13.2196155649
 10
-5.0975482582
 20
-13.20218325
 10
-5.1414811804
 20
-13.1821480793
 10
-5.1821007424
 20
-13.1591207088
 10
-5.2203431361
 20
-13.1335336683
 10
-5.2562756805
 20
-13.1059721031
 10
-5.2898310566
 20
-13.0758508681
 10
-5.3217434994
 20
-13.0418470577
 10
-5.3522577539
 20
-13.0035197036
 10
-5.381129075
 20
-12.9613097742
 10
-5.4083574628
 20
-12.9152172695
  0
LINE
  5
23F
100
AcDbEntity
  8
RACCORDO
100
AcDbLine
 62
250
  6
CONTINUOUS
 10
5.4089395323
 20
-9.0918602603
 11
5.867112193
 21
-9.3276015925
  0
LINE
  5
240
100
AcDbEntity
  8
RACCORDO
100
AcDbLine
 62
250
  6
CONTINUOUS
 10
6.9639130183
 20
-9.8919331424
 11
7.4220856791
 21
-10.1276744746
  0
LWPOLYLINE
  5
241
100
AcDbEntity
  8
RACCORDO
100
AcDbPolyline
 62
250
  6
CONTINUOUS
 90
28
 70
0
 10
-3.7657458292
 20
-15.5222148424
 10
-3.7603764957
 20
-15.6521379127
 10
-3.7459862382
 20
-15.779163343
 10
-3.7225750565
 20
-15.9032911333
 10
-3.6892442926
 20
-16.0257743213
 10
-3.6468926045
 20
-16.1453598694
 10
-3.5982159669
 20
-16.2582886639
 10
-3.5429520664
 20
-16.3636980025
 10
-3.4813632164
 20
-16.4624505876
 10
-3.4169323308
 20
-16.553375413
 10
-3.350103284
 20
-16.6357160126
 10
-3.2804322017
 20
-16.7102288525
 10
-3.2100703744
 20
-16.7780123244
 10
-3.1394559767
 20
-16.8389325719
 10
-3.0681508341
 20
-16.8931234513
 10
-2.9969917135
 20
-16.9420849242
 10
-2.9263575339
 20
-16.9858843952
 10
-2.8558693765
 20
-17.0244544596
 10
-2.7852272513
 20
-17.0590928647
 10
-2.7150202983
 20
-17.0899435707
 10
-2.6446593776
 20
-17.1168626175
 10
-2.5720770795
 20
-17.140715872
 10
-2.4970874045
 20
-17.1619934257
 10
-2.4198763521
 20
-17.1802051872
 10
-2.3389345109
 20
-17.194746749
 10
-2.2537587436
 20
-17.205416642
 10
-2.1648521874
 20
-17.2124163354
 10
-2.0722148424
 20
-17.2157458292
  0
LWPOLYLINE
  5
242
100
AcDbEntity
  8
RACCORDO
100
AcDbPolyline
 62
7
  6
CONTINUOUS
 90
22
 70
0
 10
-3.425
 20
-15.3807079529
 10
-3.4208435291
 20
-15.4925666676
 10
-3.4083709587
 20
-15.6037746807
 10
-3.3876468082
 20
-15.7137198086
 10
-3.3587751111
 20
-15.8218266132
 10
-3.321912491
 20
-15.9274646286
 10
-3.2772881462
 20
-16.0299589371
 10
-3.2251970996
 20
-16.1286835892
 10
-3.1659137581
 20
-16.2231690354
 10
-3.0996911033
 20
-16.312997944
 10
-3.026815047
 20
-16.3977332456
 10
-2.9477332456
 20
-16.476815047
 10
-2.862997944
 20
-16.5496911033
 10
-2.7731690354
 20
-16.6159137581
 10
-2.6786835892
 20
-16.6751970996
 10
-2.5799589371
 20
-16.7272881462
 10
-2.4774646286
 20
-16.771912491
 10
-2.3718266132
 20
-16.8087751111
 10
-2.2637198086
 20
-16.8376468082
 10
-2.1537746807
 20
-16.8583709587
 10
-2.0425666676
 20
-16.8708435291
 10
-1.9307079529
 20
-16.875
  0
LWPOLYLINE
  5
243
100
AcDbEntity
  8
RACCORDO
100
AcDbPolyline
 62
250
  6
CONTINUOUS
 90
28
 70
0
 10
-3.5665068734
 20
-15.5222148262
 10
-3.5623225
 20
-15.6359925171
 10
-3.5496501372
 20
-15.7483778581
 10
-3.5287147501
 20
-15.8587583286
 10
-3.4995614928
 20
-15.9672617892
 10
-3.4626145656
 20
-16.0725887193
 10
-3.4191906687
 20
-16.1721959949
 10
-3.3702694685
 20
-16.2654836346
 10
-3.3165004177
 20
-16.3526287156
 10
-3.2593354718
 20
-16.4326676011
 10
-3.1999963274
 20
-16.505320893
 10
-3.1390098893
 20
-16.5712080528
 10
-3.0768259736
 20
-16.6308924002
 10
-3.0142052708
 20
-16.6845171909
 10
-2.951601049
 20
-16.7324805493
 10
-2.8887719257
 20
-16.7756188766
 10
-2.8262199333
 20
-16.8140915949
 10
-2.7641927567
 20
-16.8482071942
 10
-2.7018368873
 20
-16.8787771346
 10
-2.6397189515
 20
-16.905765755
 10
-2.5777007569
 20
-16.9294536982
 10
-2.5136465506
 20
-16.9506807763
 10
-2.4473996786
 20
-16.9693344905
 10
-2.3792920193
 20
-16.9851466225
 10
-2.3077736636
 20
-16.998196242
 10
-2.2323815542
 20
-17.00812131
 10
-2.1538020832
 20
-17.0143733672
 10
-2.0722148424
 20
-17.0165068895
  0
LINE
  5
244
100
AcDbEntity
  8
RACCORDO
100
AcDbLine
 62
250
  6
CONTINUOUS
 10
-3.7657458292
 20
-15.1777851576
 11
-3.7657458292
 21
-15.5222148424
  0
LINE
  5
245
100
AcDbEntity
  8
RACCORDO
100
AcDbLine
 62
250
  6
CONTINUOUS
 10
-3.5665068895
 20
-15.1777851576
 11
-3.5665068895
 21
-15.5222148424
  0
LINE
  5
246
100
AcDbEntity
  8
RACCORDO
100
AcDbLine
 62
7
  6
CONTINUOUS
 10
-3.425
 20
-15.3807079529
 11
-3.425
 21
-15.3192920471
  0
LINE
  5
247
100
AcDbEntity
  8
RACCORDO
100
AcDbLine
 62
250
  6
CONTINUOUS
 10
-14.227219422
 20
-3.1702614379
 11
-13.1435749953
 21
-2.6126991853
  0
LINE
  5
248
100
AcDbEntity
  8
RACCORDO
100
AcDbLine
 62
250
  6
CONTINUOUS
 10
-2.0722148424
 20
-13.6834931105
 11
-2.0722148424
 21
-13.4842541708
  0
LINE
  5
249
100
AcDbEntity
  8
RACCORDO
100
AcDbLine
 62
250
  6
CONTINUOUS
 10
-2.0722148424
 20
-17.0165068895
 11
-2.0722148424
 21
-17.2157458292
  0
LWPOLYLINE
  5
24A
100
AcDbEntity
  8
RACCORDO
100
AcDbPolyline
 62
250
  6
CONTINUOUS
 90
28
 70
0
 10
3.7657458292
 20
-15.1777851576
 10
3.7603764957
 20
-15.0478620873
 10
3.7459862382
 20
-14.920836657
 10
3.7225750565
 20
-14.7967088667
 10
3.6892442926
 20
-14.6742256787
 10
3.6468926045
 20
-14.5546401306
 10
3.5982159669
 20
-14.4417113361
 10
3.5429520664
 20
-14.3363019975
 10
3.4813632164
 20
-14.2375494124
 10
3.4169323308
 20
-14.146624587
 10
3.350103284
 20
-14.0642839874
 10
3.2804322017
 20
-13.9897711475
 10
3.2100703744
 20
-13.9219876756
 10
3.1394559767
 20
-13.8610674281
 10
3.0681508341
 20
-13.8068765487
 10
2.9969917135
 20
-13.7579150758
 10
2.9263575339
 20
-13.7141156048
 10
2.8558693765
 20
-13.6755455404
 10
2.7852272513
 20
-13.6409071353
 10
2.7150202983
 20
-13.6100564293
 10
2.6446593776
 20
-13.5831373825
 10
2.5720770795
 20
-13.559284128
 10
2.4970874045
 20
-13.5380065743
 10
2.4198763521
 20
-13.5197948128
 10
2.3389345109
 20
-13.505253251
 10
2.2537587436
 20
-13.494583358
 10
2.1648521874
 20
-13.4875836646
 10
2.0722148424
 20
-13.4842541708
  0
LWPOLYLINE
  5
24B
100
AcDbEntity
  8
RACCORDO
100
AcDbPolyline
 62
250
  6
CONTINUOUS
 90
28
 70
0
 10
3.5665068734
 20
-15.1777851738
 10
3.5623225
 20
-15.0640074829
 10
3.5496501372
 20
-14.9516221419
 10
3.5287147501
 20
-14.8412416714
 10
3.4995614928
 20
-14.7327382108
 10
3.4626145656
 20
-14.6274112807
 10
3.4191906687
 20
-14.5278040051
 10
3.3702694685
 20
-14.4345163654
 10
3.3165004177
 20
-14.3473712844
 10
3.2593354718
 20
-14.2673323989
 10
3.1999963274
 20
-14.194679107
 10
3.1390098893
 20
-14.1287919472
 10
3.0768259736
 20
-14.0691075998
 10
3.0142052708
 20
-14.0154828091
 10
2.951601049
 20
-13.9675194507
 10
2.8887719257
 20
-13.9243811234
 10
2.8262199333
 20
-13.8859084051
 10
2.7641927567
 20
-13.8517928058
 10
2.7018368873
 20
-13.8212228654
 10
2.6397189515
 20
-13.794234245
 10
2.5777007569
 20
-13.7705463018
 10
2.5136465506
 20
-13.7493192237
 10
2.4473996786
 20
-13.7306655095
 10
2.3792920193
 20
-13.7148533775
 10
2.3077736636
 20
-13.701803758
 10
2.2323815542
 20
-13.69187869
 10
2.1538020832
 20
-13.6856266328
 10
2.0722148424
 20
-13.6834931105
  0
LINE
  5
24C
100
AcDbEntity
  8
RACCORDO
100
AcDbLine
 62
250
  6
CONTINUOUS
 10
2.0722148424
 20
-13.6834931105
 11
2.0722148424
 21
-13.4842541708
  0
LINE
  5
24D
100
AcDbEntity
  8
RACCORDO
100
AcDbLine
 62
250
  6
CONTINUOUS
 10
2.0722148424
 20
-17.0165068895
 11
2.0722148424
 21
-17.2157458292
  0
LINE
  5
24E
100
AcDbEntity
  8
RACCORDO
100
AcDbLine
 62
7
  6
CONTINUOUS
 10
3.425
 20
-15.3192920471
 11
3.425
 21
-15.3807079529
  0
LINE
  5
24F
100
AcDbEntity
  8
RACCORDO
100
AcDbLine
 62
250
  6
CONTINUOUS
 10
3.5665068895
 20
-15.5222148424
 11
3.5665068895
 21
-15.1777851576
  0
LINE
  5
250
100
AcDbEntity
  8
RACCORDO
100
AcDbLine
 62
250
  6
CONTINUOUS
 10
3.7657458292
 20
-15.5222148424
 11
3.7657458292
 21
-15.1777851576
  0
LINE
  5
251
100
AcDbEntity
  8
RACCORDO
100
AcDbLine
 62
250
  6
CONTINUOUS
 10
13.1435749953
 20
-2.6126991853
 11
14.227219422
 21
-3.1702614379
  0
LINE
  5
252
100
AcDbEntity
  8
RACCORDO
100
AcDbLine
 62
250
  6
CONTINUOUS
 10
-7.4220856791
 20
-10.1276744746
 11
-6.9639130183
 21
-9.8919331424
  0
LINE
  5
253
100
AcDbEntity
  8
RACCORDO
100
AcDbLine
 62
250
  6
CONTINUOUS
 10
-5.867112193
 20
-9.3276015925
 11
-5.4089395323
 21
-9.0918602603
  0
LWPOLYLINE
  5
254
100
AcDbEntity
  8
RACCORDO
100
AcDbPolyline
 62
250
  6
CONTINUOUS
 90
40
 70
0
 10
3.8533839767
 20
-12.1151443875
 10
3.8135544776
 20
-12.2021057668
 10
3.7813104087
 20
-12.2903254631
 10
3.7566517699
 20
-12.3798034765
 10
3.7395821168
 20
-12.470984659
 10
3.7300978938
 20
-12.5634241585
 10
3.7281884345
 20
-12.6557874187
 10
3.7339361394
 20
-12.7482759514
 10
3.747258608
 20
-12.8406882448
 10
3.7678979721
 20
-12.931085207
 10
3.7960013086
 20
-13.0193859533
 10
3.8314215407
 20
-13.1056713684
 10
3.8734595697
 20
-13.1882450148
 10
3.9222533991
 20
-13.2670458083
 10
3.9776650254
 20
-13.3421348332
 10
4.0385813402
 20
-13.4119989042
 10
4.1051099891
 20
-13.4765273993
 10
4.1771433263
 20
-13.5358309405
 10
4.2532453066
 20
-13.5887282099
 10
4.3335002086
 20
-13.63509196
 10
4.4178237537
 20
-13.6750494382
 10
4.5045270605
 20
-13.7078010684
 10
4.5936535608
 20
-13.7332012505
 10
4.6851598228
 20
-13.7513955846
 10
4.777226671
 20
-13.7620212941
 10
4.8700241702
 20
-13.764858872
 10
4.9633822555
 20
-13.7601278253
 10
5.0549715563
 20
-13.7481238987
 10
5.1450990754
 20
-13.728244261
 10
5.2334578099
 20
-13.7010917434
 10
5.3167973804
 20
-13.6687705835
 10
5.3937279024
 20
-13.6317437039
 10
5.4656392604
 20
-13.589548182
 10
5.5334507289
 20
-13.5428994883
 10
5.5970809656
 20
-13.4927754853
 10
5.6566113129
 20
-13.4381983104
 10
5.7132050721
 20
-13.3769498464
 10
5.7672500106
 20
-13.3082907207
 10
5.8183583611
 20
-13.2329603058
 10
5.8665301236
 20
-13.1509586018
  0
LINE
  5
255
100
AcDbEntity
  8
RACCORDO
100
AcDbLine
 62
250
  6
CONTINUOUS
 10
-3.425
 20
-15.3807079529
 11
-3.5665068895
 21
-15.5222148424
  0
LINE
  5
256
100
AcDbEntity
  8
RACCORDO
100
AcDbLine
 62
250
  6
CONTINUOUS
 10
5.4089395323
 20
-9.0918602603
 11
3.8533839767
 21
-12.1151443875
  0
LINE
  5
257
100
AcDbEntity
  8
RACCORDO
100
AcDbLine
 62
250
  6
CONTINUOUS
 10
5.5861030392
 20
-9.1830153307
 11
4.0305474837
 21
-12.2062994579
  0
LINE
  5
258
100
AcDbEntity
  8
RACCORDO
100
AcDbLine
 62
250
  6
CONTINUOUS
 10
4.1343931305
 20
-12.2597306493
 11
5.6899486861
 21
-9.2364465221
  0
LINE
  5
259
100
AcDbEntity
  8
RACCORDO
100
AcDbLine
 62
250
  6
CONTINUOUS
 10
4.3115566375
 20
-12.3508857197
 11
5.867112193
 21
-9.3276015925
  0
LWPOLYLINE
  5
25A
100
AcDbEntity
  8
RACCORDO
100
AcDbPolyline
 62
250
  6
CONTINUOUS
 90
37
 70
0
 10
5.867112193
 20
-9.3276015925
 10
5.8964678821
 20
-9.2772265377
 10
5.9292997055
 20
-9.2306696106
 10
5.9656076634
 20
-9.1879308113
 10
6.0056620895
 20
-9.1488540233
 10
6.0491926499
 20
-9.1135953631
 10
6.0953883437
 20
-9.0826231803
 10
6.1444175313
 20
-9.0558976303
 10
6.1961118522
 20
-9.0334585579
 10
6.2491552236
 20
-9.0158938468
 10
6.3035554593
 20
-9.003339312
 10
6.3593047455
 20
-8.9956591387
 10
6.4150635589
 20
-8.9930337657
 10
6.4708428505
 20
-8.9955857753
 10
6.5266316694
 20
-9.0031925852
 10
6.5810576392
 20
-9.0156668886
 10
6.6340770085
 20
-9.0331234962
 10
6.6857335287
 20
-9.0554475973
 10
6.7347860783
 20
-9.0821074516
 10
6.7811914467
 20
-9.1132320752
 10
6.8249928444
 20
-9.148692452
 10
6.8650787812
 20
-9.187569794
 10
6.9013985999
 20
-9.2302444529
 10
6.9340029578
 20
-9.2763360769
 10
6.9619323357
 20
-9.3237848228
 10
6.9847621823
 20
-9.3726752407
 10
7.002917049
 20
-9.4229227805
 10
7.0167110706
 20
-9.472213949
 10
7.0259502288
 20
-9.5196074894
 10
7.0308285418
 20
-9.5660446585
 10
7.0322421993
 20
-9.6120357325
 10
7.0307064399
 20
-9.6572953068
 10
7.025706025
 20
-9.702108786
 10
7.016591428
 20
-9.7478426602
 10
7.0031461402
 20
-9.794952426
 10
6.9855866703
 20
-9.8429825867
 10
6.9639130183
 20
-9.8919331424
  0
LINE
  5
25B
100
AcDbEntity
  8
RACCORDO
100
AcDbLine
 62
250
  6
CONTINUOUS
 10
-5.8665301236
 20
-13.1509586018
 11
-5.4083574628
 21
-12.9152172695
  0
LINE
  5
25C
100
AcDbEntity
  8
RACCORDO
100
AcDbLine
 62
250
  6
CONTINUOUS
 10
-4.3115566375
 20
-12.3508857197
 11
-3.8533839767
 21
-12.1151443875
  0
LINE
  5
25D
100
AcDbEntity
  8
RACCORDO
100
AcDbLine
 62
250
  6
CONTINUOUS
 10
-8.0028109249
 20
-15.2676470588
 11
-6.9191664981
 21
-14.7100848062
  0
LWPOLYLINE
  5
25E
100
AcDbEntity
  8
RACCORDO
100
AcDbPolyline
 62
250
  6
CONTINUOUS
 90
40
 70
0
 10
7.4220856791
 20
-10.1276744746
 10
7.4621241733
 20
-10.0401689322
 10
7.4944892964
 20
-9.9514201028
 10
7.5191810483
 20
-9.8614279864
 10
7.5361890473
 20
-9.7697346768
 10
7.5455236751
 20
-9.6767980803
 10
7.5472160776
 20
-9.5839919157
 10
7.5411857509
 20
-9.4911326111
 10
7.5275131989
 20
-9.3984037385
 10
7.5064710791
 20
-9.3077297326
 10
7.4779107007
 20
-9.2191779273
 10
7.4419807545
 20
-9.1326809888
 10
7.3993999705
 20
-9.0499613501
 10
7.3500305829
 20
-8.9710866173
 10
7.2940103574
 20
-8.8959891844
 10
7.2324713217
 20
-8.8261886668
 10
7.1653035868
 20
-8.7617958016
 10
7.0926170417
 20
-8.7026998517
 10
7.0158733806
 20
-8.6500882212
 10
6.9349901467
 20
-8.6040914157
 10
6.8500497969
 20
-8.5645789297
 10
6.7627613965
 20
-8.5323466506
 10
6.6730748496
 20
-8.5075422405
 10
6.5810402521
 20
-8.4900180374
 10
6.4885169561
 20
-8.480126943
 10
6.3952641728
 20
-8.478130866
 10
6.3015226911
 20
-8.4837678978
 10
6.2098742298
 20
-8.4966052133
 10
6.1201445026
 20
-8.5172520372
 10
6.0325077959
 20
-8.5450991449
 10
5.9500686875
 20
-8.5778860385
 10
5.8742344159
 20
-8.6150888064
 10
5.8035977427
 20
-8.6572313601
 10
5.7370415309
 20
-8.7036249361
 10
5.6746459996
 20
-8.7532258751
 10
5.6163309297
 20
-8.8070778363
 10
5.5607385274
 20
-8.867623034
 10
5.5074161948
 20
-8.9356755396
 10
5.4568165297
 20
-9.0104212817
 10
5.4089395323
 20
-9.0918602603
  0
LINE
  5
25F
100
AcDbEntity
  8
RACCORDO
100
AcDbLine
 62
250
  6
CONTINUOUS
 10
6.9639130183
 20
-9.8919331424
 11
5.4083574628
 21
-12.9152172695
  0
LINE
  5
260
100
AcDbEntity
  8
RACCORDO
100
AcDbLine
 62
250
  6
CONTINUOUS
 10
7.1410765253
 20
-9.9830882128
 11
5.5855209697
 21
-13.00637234
  0
LINE
  5
261
100
AcDbEntity
  8
RACCORDO
100
AcDbLine
 62
250
  6
CONTINUOUS
 10
5.6893666166
 20
-13.0598035314
 11
7.2449221721
 21
-10.0365194042
  0
LINE
  5
262
100
AcDbEntity
  8
RACCORDO
100
AcDbLine
 62
250
  6
CONTINUOUS
 10
5.8665301236
 20
-13.1509586018
 11
7.4220856791
 21
-10.1276744746
  0
LWPOLYLINE
  5
263
100
AcDbEntity
  8
RACCORDO
100
AcDbPolyline
 62
250
  6
CONTINUOUS
 90
37
 70
0
 10
5.4083574628
 20
-12.9152172695
 10
5.3798505237
 20
-12.9643370037
 10
5.3479786536
 20
-13.0098630478
 10
5.3127418524
 20
-13.051795402
 10
5.2738888336
 20
-13.0902906294
 10
5.2316708838
 20
-13.1251921669
 10
5.1868418625
 20
-13.1560303246
 10
5.1392405442
 20
-13.1828412846
 10
5.0890281546
 20
-13.2055888647
 10
5.0374422299
 20
-13.2236948287
 10
4.9844803571
 20
-13.2370308115
 10
4.9301449493
 20
-13.2457251782
 10
4.8756807818
 20
-13.2495847876
 10
4.821075135
 20
-13.2484998152
 10
4.7663407285
 20
-13.2425800855
 10
4.7127604962
 20
-13.2319619317
 10
4.6603615629
 20
-13.2165327202
 10
4.609116804
 20
-13.1964050846
 10
4.5602277792
 20
-13.1720532583
 10
4.5137564214
 20
-13.1433843982
 10
4.4696407979
 20
-13.1104913475
 10
4.4288966708
 20
-13.0741268697
 10
4.3915711526
 20
-13.0341182526
 10
4.3576171308
 20
-12.9906382084
 10
4.3279090308
 20
-12.944957638
 10
4.3026325712
 20
-12.8966936116
 10
4.2816020334
 20
-12.8462290589
 10
4.2651346874
 20
-12.7959836703
 10
4.2535562124
 20
-12.7467584396
 10
4.2465409291
 20
-12.697752373
 10
4.2434290699
 20
-12.64898218
 10
4.2437730694
 20
-12.6008409142
 10
4.2480204929
 20
-12.5529355219
 10
4.2568542686
 20
-12.5041035514
 10
4.2705020393
 20
-12.453957519
 10
4.2887361623
 20
-12.4028849084
 10
4.3115566375
 20
-12.3508857197
  0
LINE
  5
264
100
AcDbEntity
  8
RACCORDO
100
AcDbLine
 62
250
  6
CONTINUOUS
 10
-1.9307079529
 20
-16.875
 11
-2.0722148424
 21
-17.0165068895
  0
LINE
  5
265
100
AcDbEntity
  8
RACCORDO
100
AcDbLine
 62
250
  6
CONTINUOUS
 10
1.9307079529
 20
-13.825
 11
2.0722148424
 21
-13.6834931105
  0
LINE
  5
266
100
AcDbEntity
  8
RACCORDO
100
AcDbLine
 62
250
  6
CONTINUOUS
 10
6.9191664981
 20
-14.7100848062
 11
13.1435749953
 21
-2.6126991853
  0
LINE
  5
267
100
AcDbEntity
  8
RACCORDO
100
AcDbLine
 62
250
  6
CONTINUOUS
 10
7.2307911825
 20
-14.8704235268
 11
13.4551996796
 21
-2.7730379059
  0
LINE
  5
268
100
AcDbEntity
  8
RACCORDO
100
AcDbLine
 62
250
  6
CONTINUOUS
 10
3.425
 20
-15.3192920471
 11
3.5665068895
 21
-15.1777851576
  0
LINE
  5
269
100
AcDbEntity
  8
RACCORDO
100
AcDbLine
 62
250
  6
CONTINUOUS
 10
14.0847979164
 20
-3.0969819991
 11
7.8603894193
 21
-15.19436762
  0
LINE
  5
26A
100
AcDbEntity
  8
RACCORDO
100
AcDbLine
 62
250
  6
CONTINUOUS
 10
14.2177061242
 20
-3.1653666075
 11
7.9932976271
 21
-15.2627522284
  0
LINE
  5
26B
100
AcDbEntity
  8
DRAFT
100
AcDbLine
 62
7
  6
CONTINUOUS
 10
14.227219422
 20
-3.1702614379
 11
8.0028109249
 21
-15.2676470588
  0
ARC
  5
26C
100
AcDbEntity
  8
DRAFT
100
AcDbCircle
 62
7
  6
CONTINUOUS
 10
0.0
 20
4.15
 40
16.0
100
AcDbArc
 50
332.7730427857
 51
207.2269572143
  0
ARC
  5
26D
100
AcDbEntity
  8
RACCORDO
100
AcDbCircle
 62
250
  6
CONTINUOUS
 10
0.0
 20
4.15
 40
15.9893012992
100
AcDbArc
 50
332.7730427857
 51
207.2269572143
  0
ARC
  5
26E
100
AcDbEntity
  8
RACCORDO
100
AcDbCircle
 62
250
  6
CONTINUOUS
 10
-0.0
 20
4.15
 40
15.8398320837
100
AcDbArc
 50
332.7730427857
 51
207.2269572143
  0
ARC
  5
26F
100
AcDbEntity
  8
RACCORDO
100
AcDbCircle
 62
250
  6
CONTINUOUS
 10
-0.0
 20
4.15
 40
15.1317828514
100
AcDbArc
 50
332.7730427857
 51
207.2269572143
  0
ARC
  5
270
100
AcDbEntity
  8
RACCORDO
100
AcDbCircle
 62
250
  6
CONTINUOUS
 10
-0.0
 20
4.15
 40
14.7813282193
100
AcDbArc
 50
332.7730427857
 51
207.2269572143
  0
ARC
  5
271
100
AcDbEntity
  8
DRAFT
100
AcDbCircle
 62
7
  6
CONTINUOUS
 10
0.0
 20
-11.15
 40
9.0
100
AcDbArc
 50
207.2269572143
 51
332.7730427857
  0
ARC
  5
272
100
AcDbEntity
  8
RACCORDO
100
AcDbCircle
 62
250
  6
CONTINUOUS
 10
0.0
 20
-11.15
 40
8.9893012992
100
AcDbArc
 50
207.2269572143
 51
332.7730427857
  0
ARC
  5
273
100
AcDbEntity
  8
RACCORDO
100
AcDbCircle
 62
250
  6
CONTINUOUS
 10
0.0
 20
-11.15
 40
8.8398320837
100
AcDbArc
 50
207.2269572143
 51
332.7730427857
  0
ARC
  5
274
100
AcDbEntity
  8
RACCORDO
100
AcDbCircle
 62
250
  6
CONTINUOUS
 10
0.0
 20
-11.15
 40
8.1317828514
100
AcDbArc
 50
207.2269572143
 51
332.7730427857
  0
ARC
  5
275
100
AcDbEntity
  8
RACCORDO
100
AcDbCircle
 62
250
  6
CONTINUOUS
 10
0.0
 20
-11.15
 40
7.7813282193
100
AcDbArc
 50
207.2269572143
 51
332.7730427857
  0
ARC
  5
276
100
AcDbEntity
  8
RACCORDO
100
AcDbCircle
 62
250
  6
CONTINUOUS
 10
4.8599570501
 20
-12.6330514946
 40
0.9327580232
100
AcDbArc
 50
152.7730427857
 51
332.7730427857
  0
ARC
  5
277
100
AcDbEntity
  8
RACCORDO
100
AcDbCircle
 62
250
  6
CONTINUOUS
 10
6.4155126057
 20
-9.6097673674
 40
0.9327580232
100
AcDbArc
 50
332.7730427857
 51
152.7730427857
  0
ARC
  5
278
100
AcDbEntity
  8
RACCORDO
100
AcDbCircle
 62
250
  6
CONTINUOUS
 10
-4.8599570501
 20
-12.6330514946
 40
0.9327580232
100
AcDbArc
 50
207.2269572143
 51
27.2269572143
  0
ARC
  5
279
100
AcDbEntity
  8
RACCORDO
100
AcDbCircle
 62
250
  6
CONTINUOUS
 10
-6.4155126057
 20
-9.6097673674
 40
0.9327580232
100
AcDbArc
 50
27.2269572143
 51
207.2269572143
  0
ARC
  5
27A
100
AcDbEntity
  8
RACCORDO
100
AcDbCircle
 62
250
  6
CONTINUOUS
 10
4.8599570501
 20
-12.6330514946
 40
0.8159727048
100
AcDbArc
 50
152.7730427857
 51
332.7730427857
  0
ARC
  5
27B
100
AcDbEntity
  8
RACCORDO
100
AcDbCircle
 62
250
  6
CONTINUOUS
 10
6.4155126057
 20
-9.6097673674
 40
0.8159727048
100
AcDbArc
 50
332.7730427857
 51
152.7730427857
  0
ARC
  5
27C
100
AcDbEntity
  8
RACCORDO
100
AcDbCircle
 62
250
  6
CONTINUOUS
 10
-4.8599570501
 20
-12.6330514946
 40
0.8159727048
100
AcDbArc
 50
207.2269572143
 51
27.2269572143
  0
ARC
  5
27D
100
AcDbEntity
  8
RACCORDO
100
AcDbCircle
 62
250
  6
CONTINUOUS
 10
-6.4155126057
 20
-9.6097673674
 40
0.8159727048
100
AcDbArc
 50
27.2269572143
 51
207.2269572143
  0
ENDSEC
  0
SECTION
  2
OBJECTS
  0
DICTIONARY
  5
C
100
AcDbDictionary
280
0
281
1
  3
ACAD_GROUP
350
D
  3
ACAD_MLINESTYLE
350
17
  3
ACAD_LAYOUT
350
1A
  3
ACAD_PLOTSETTINGS
350
19
  3
ACAD_PLOTSTYLENAME
350
E
  0
DICTIONARY
  5
D
102
{ACAD_REACTORS
330
C
102
}
100
AcDbDictionary
280
0
281
1
  0
ACDBDICTIONARYWDFLT
  5
E
102
{ACAD_REACTORS
330
C
102
}
100
AcDbDictionary
281
1
  3
Normal
350
F
100
AcDbDictionaryWithDefault
340
F
  0
DICTIONARY
  5
17
102
{ACAD_REACTORS
330
C
102
}
100
AcDbDictionary
280
0
281
1
  3
Standard
350
18
  0
DICTIONARY
  5
19
102
{ACAD_REACTORS
330
C
102
}
100
AcDbDictionary
281
1
  0
DICTIONARY
  5
1A
102
{ACAD_REACTORS
330
C
102
}
100
AcDbDictionary
281
1
  3
Model
350
27E
  3
Layout1
350
27F
  0
ACDBPLACEHOLDER
  5
F
102
{ACAD_REACTORS
330
E
102
}
  0
MLINESTYLE
  5
18
102
{ACAD_REACTORS
330
17
102
}
100
AcDbMlineStyle
  2
STANDARD
 70
0
  3

 62
256
 51
90.0
 52
90.0
 71
2
 49
0.5
 62
256
  6
BYLAYER
 49
-0.5
 62
256
  6
BYLAYER
  0
LAYOUT
  5
27E
102
{ACAD_REACTORS
330
1A
102
}
100
AcDbPlotSettings
  1

  2
none_device
  4

  6

 40
0.0
 41
0.0
 42
0.0
 43
0.0
 44
210.0
 45
297.0
 46
0.0
 47
0.0
 48
0.0
 49
0.0
140
0.0
141
0.0
142
1.0
143
1.0
 70
1024
 72
1
 73
0
 74
0
  7

 75
0
147
1.0
148
0.0
149
0.0
100
AcDbLayout
  1
Model
 70
0
 71
0
 10
0.0
 20
0.0
 11
210.0
 21
297.0
 12
0.0
 22
0.0
 32
0.0
 14
0.0
 24
0.0
 34
0.0
 15
0.0
 25
0.0
 35
0.0
146
0.0
 13
0.0
 23
0.0
 33
0.0
 16
1.0
 26
0.0
 36
0.0
 17
0.0
 27
1.0
 37
0.0
 76
0
330
20F
345
0
346
0
  0
LAYOUT
  5
27F
102
{ACAD_REACTORS
330
1A
102
}
100
AcDbPlotSettings
  1

  2
none_device
  4

  6

 40
0.0
 41
0.0
 42
0.0
 43
0.0
 44
210.0
 45
297.0
 46
0.0
 47
0.0
 48
0.0
 49
0.0
140
0.0
141
0.0
142
1.0
143
1.0
 70
0
 72
1
 73
0
 74
0
  7

 75
0
147
1.0
148
0.0
149
0.0
100
AcDbLayout
  1
Layout1
 70
0
 71
1
 10
0.0
 20
0.0
 11
210.0
 21
297.0
 12
0.0
 22
0.0
 32
0.0
 14
0.0
 24
0.0
 34
0.0
 15
0.0
 25
0.0
 35
0.0
146
0.0
 13
0.0
 23
0.0
 33
0.0
 16
1.0
 26
0.0
 36
0.0
 17
0.0
 27
1.0
 37
0.0
 76
0
330
210
345
0
346
0
  0
ENDSEC
  0
EOF
