  0
SECTION
  2
HEADER
  9
$ACADVER
  1
AC1024
  9
$DWGCODEPAGE
  3
ANSI_1252
  9
$EXTMAX
 10
297.0
 20
210.0
 30
0.0
  9
$EXTMIN
 10
0.0
 20
0.0
 30
0.0
  9
$LIMMIN
 10
0.0
 20
0.0
  9
$LIMMAX
 10
297.0
 20
210.0
  9
$VIEWCTR
 10
148.5
 20
105.0
  9
$VIEWSIZE
 40
210.0
  9
$CLAYER
  8
0
  9
$LTSCALE
 40
16.335
  9
$CELTYPE
  6
BYLAYER
  9
$DIMSCALE
 40
1.0
  9
$DIMASZ
 40
3.0
  9
$DIMEXO
 40
0.5
  9
$DIMDLI
 40
11.286
  9
$DIMEXE
 40
1.5
  9
$DIMCEN
 40
2.673
  9
$DIMLFAC
 40
1.0
  9
$DIMBLK
  1
_FILLED
  9
$DIMALT
 70
0
  9
$DIMALTF
 40
0.0393700787
  9
$DIMTXT
 40
3.0
  9
$DIMTOL
 70
1
  9
$DIMLIM
 70
0
  9
$DIMTFAC
 40
1.0
  9
$DIMTP
 40
0.01
  9
$DIMTM
 40
0.01
  9
$DIMGAP
 40
0.625
  9
$DIMDSEP
 70
44
  9
$AUNITS
 70
0
  9
$PDMODE
 70
3
  9
$PDSIZE
 40
3.0
  9
$HANDSEED
  5
650
  9
$TILEMODE
 70
1
  9
$MEASUREMENT
 70
1
  9
$INSUNITS
 70
4
  0
ENDSEC
  0
SECTION
  2
CLASSES
  0
CLASS
  1
ACDBDICTIONARYWDFLT
  2
AcDbDictionaryWithDefault
  3
AutoCAD 2000
 90
0
 91
1
280
0
281
0
  0
CLASS
  1
ACDBPLACEHOLDER
  2
AcDbPlaceHolder
  3
AutoCAD 2000
 90
0
 91
1
280
0
281
0
  0
CLASS
  1
LAYOUT
  2
AcDbLayout
  3
AutoCAD 2000
 90
0
 91
0
280
0
281
0
  0
ENDSEC
  0
SECTION
  2
TABLES
  0
TABLE
  2
VPORT
  5
8
100
AcDbSymbolTable
 70
2
  0
VPORT
  5
1F4
100
AcDbSymbolTableRecord
100
AcDbViewportTableRecord
  2
*ACTIVE
 70
0
 10
0.0
 20
0.0
 11
1.0
 21
1.0
 12
148.5
 22
105.0
 13
0.0
 23
0.0
 14
1.0
 24
1.0
 15
0.0
 25
0.0
 16
0.0
 26
0.0
 36
1.0
 17
0.0
 27
0.0
 37
0.0
 40
210.0
 41
1.4142857143
 42
50.0
 43
0.0
 44
0.0
 50
0.0
 51
0.0
 71
0
 72
100
 73
1
 74
1
 75
0
 76
0
 77
0
 78
0
  0
ENDTAB
  0
TABLE
  2
LTYPE
  5
5
100
AcDbSymbolTable
 70
6
  0
LTYPE
  5
14
100
AcDbSymbolTableRecord
100
AcDbLinetypeTableRecord
  2
BYBLOCK
 70
0
  3

 72
65
 73
0
 40
0.0
  0
LTYPE
  5
15
100
AcDbSymbolTableRecord
100
AcDbLinetypeTableRecord
  2
BYLAYER
 70
0
  3

 72
65
 73
0
 40
0.0
  0
LTYPE
  5
16
100
AcDbSymbolTableRecord
100
AcDbLinetypeTableRecord
  2
CONTINUOUS
 70
64
  3
Solid line
 72
65
 73
0
 40
0.0
  0
LTYPE
  5
1F5
100
AcDbSymbolTableRecord
100
AcDbLinetypeTableRecord
  2
CENTER
 70
64
  3
____ _ ____ _ ____ _ ____ _ ____ _ ____ _ ____
 72
65
 73
4
 40
0.6
 49
0.375
 74
0
 49
-0.075
 74
0
 49
0.075
 74
0
 49
-0.075
 74
0
  0
LTYPE
  5
1F6
100
AcDbSymbolTableRecord
100
AcDbLinetypeTableRecord
  2
HIDDEN
 70
64
  3
- - - - - - - - - - - - - - - - - - - -
 72
65
 73
2
 40
0.2
 49
0.1
 74
0
 49
-0.1
 74
0
  0
LTYPE
  5
1F7
100
AcDbSymbolTableRecord
100
AcDbLinetypeTableRecord
  2
PHANTOM
 70
64
  3
_____ _ _ _____ _ _ _____ _ _ _____
 72
65
 73
6
 40
0.8
 49
0.45
 74
0
 49
-0.05
 74
0
 49
0.1
 74
0
 49
-0.05
 74
0
 49
0.1
 74
0
 49
-0.05
 74
0
  0
LTYPE
  5
1F8
100
AcDbSymbolTableRecord
100
AcDbLinetypeTableRecord
  2
DOT
 70
64
  3
. . . . . . . . . . . . . . . . . . . .
 72
65
 73
2
 40
0.2
 49
0.1
 74
0
 49
-0.1
 74
0
  0
LTYPE
  5
1F9
100
AcDbSymbolTableRecord
100
AcDbLinetypeTableRecord
  2
DASHED
 70
64
  3
- - - - - - - - - - - - - - - - - - - -
 72
65
 73
2
 40
0.2
 49
0.1
 74
0
 49
-0.1
 74
0
  0
ENDTAB
  0
TABLE
  2
LAYER
  5
2
100
AcDbSymbolTable
 70
36
  0
LAYER
  5
10
100
AcDbSymbolTableRecord
100
AcDbLayerTableRecord
  2
0
 70
0
 62
7
  6
CONTINUOUS
370
-3
390
F
  0
LAYER
  5
1FA
100
AcDbSymbolTableRecord
100
AcDbLayerTableRecord
  2
DEFAULT_1
 70
0
 62
7
  6
CENTER
370
-3
390
F
  0
LAYER
  5
1FB
100
AcDbSymbolTableRecord
100
AcDbLayerTableRecord
  2
DEFAULT_2
 70
0
 62
7
  6
HIDDEN
370
-3
390
F
  0
LAYER
  5
1FC
100
AcDbSymbolTableRecord
100
AcDbLayerTableRecord
  2
DEFAULT_3
 70
0
 62
7
  6
PHANTOM
370
-3
390
F
  0
LAYER
  5
1FD
100
AcDbSymbolTableRecord
100
AcDbLayerTableRecord
  2
ASSI
 70
0
 62
7
  6
CONTINUOUS
370
-3
390
F
  0
LAYER
  5
1FE
100
AcDbSymbolTableRecord
100
AcDbLayerTableRecord
  2
COORDINATE
 70
0
 62
7
  6
CONTINUOUS
370
-3
390
F
  0
LAYER
  5
1FF
100
AcDbSymbolTableRecord
100
AcDbLayerTableRecord
  2
COPY_PUBLISH
 70
0
 62
7
  6
CONTINUOUS
370
-3
390
F
  0
LAYER
  5
200
100
AcDbSymbolTableRecord
100
AcDbLayerTableRecord
  2
COSMETICI
 70
0
 62
7
  6
CONTINUOUS
370
-3
390
F
  0
LAYER
  5
201
100
AcDbSymbolTableRecord
100
AcDbLayerTableRecord
  2
CURVE
 70
0
 62
7
  6
CONTINUOUS
370
-3
390
F
  0
LAYER
  5
202
100
AcDbSymbolTableRecord
100
AcDbLayerTableRecord
  2
DRAFT
 70
0
 62
7
  6
CONTINUOUS
370
-3
390
F
  0
LAYER
  5
203
100
AcDbSymbolTableRecord
100
AcDbLayerTableRecord
  2
IMPORT_IGES
 70
0
 62
7
  6
CONTINUOUS
370
-3
390
F
  0
LAYER
  5
204
100
AcDbSymbolTableRecord
100
AcDbLayerTableRecord
  2
INTF_2
 70
0
 62
7
  6
CONTINUOUS
370
-3
390
F
  0
LAYER
  5
205
100
AcDbSymbolTableRecord
100
AcDbLayerTableRecord
  2
INTF_3
 70
0
 62
7
  6
CONTINUOUS
370
-3
390
F
  0
LAYER
  5
206
100
AcDbSymbolTableRecord
100
AcDbLayerTableRecord
  2
INTF_4
 70
0
 62
7
  6
CONTINUOUS
370
-3
390
F
  0
LAYER
  5
207
100
AcDbSymbolTableRecord
100
AcDbLayerTableRecord
  2
INTF_5
 70
0
 62
7
  6
CONTINUOUS
370
-3
390
F
  0
LAYER
  5
208
100
AcDbSymbolTableRecord
100
AcDbLayerTableRecord
  2
INTF_6
 70
0
 62
7
  6
CONTINUOUS
370
-3
390
F
  0
LAYER
  5
209
100
AcDbSymbolTableRecord
100
AcDbLayerTableRecord
  2
INTF_7
 70
0
 62
7
  6
CONTINUOUS
370
-3
390
F
  0
LAYER
  5
20A
100
AcDbSymbolTableRecord
100
AcDbLayerTableRecord
  2
INTF_9
 70
0
 62
7
  6
CONTINUOUS
370
-3
390
F
  0
LAYER
  5
20B
100
AcDbSymbolTableRecord
100
AcDbLayerTableRecord
  2
INTF_BLANK
 70
0
 62
7
  6
CONTINUOUS
370
-3
390
F
  0
LAYER
  5
20C
100
AcDbSymbolTableRecord
100
AcDbLayerTableRecord
  2
INTF_RED
 70
0
 62
7
  6
CONTINUOUS
370
-3
390
F
  0
LAYER
  5
20D
100
AcDbSymbolTableRecord
100
AcDbLayerTableRecord
  2
NOTE
 70
0
 62
7
  6
CONTINUOUS
370
-3
390
F
  0
LAYER
  5
20E
100
AcDbSymbolTableRecord
100
AcDbLayerTableRecord
  2
PIANI
 70
0
 62
7
  6
CONTINUOUS
370
-3
390
F
  0
LAYER
  5
20F
100
AcDbSymbolTableRecord
100
AcDbLayerTableRecord
  2
PUNTI
 70
0
 62
7
  6
CONTINUOUS
370
-3
390
F
  0
LAYER
  5
210
100
AcDbSymbolTableRecord
100
AcDbLayerTableRecord
  2
RACCORDO
 70
0
 62
7
  6
CONTINUOUS
370
-3
390
F
  0
LAYER
  5
211
100
AcDbSymbolTableRecord
100
AcDbLayerTableRecord
  2
RGB____0____0____0__
 70
0
 62
7
  6
CONTINUOUS
370
-3
390
F
  0
LAYER
  5
212
100
AcDbSymbolTableRecord
100
AcDbLayerTableRecord
  2
SIMBOLI
 70
0
 62
7
  6
CONTINUOUS
370
-3
390
F
  0
LAYER
  5
213
100
AcDbSymbolTableRecord
100
AcDbLayerTableRecord
  2
SMUSSO
 70
0
 62
7
  6
CONTINUOUS
370
-3
390
F
  0
LAYER
  5
214
100
AcDbSymbolTableRecord
100
AcDbLayerTableRecord
  2
SNAPLINE
 70
0
 62
7
  6
CONTINUOUS
370
-3
390
F
  0
LAYER
  5
215
100
AcDbSymbolTableRecord
100
AcDbLayerTableRecord
  2
SUPERFICI
 70
0
 62
7
  6
CONTINUOUS
370
-3
390
F
  0
LAYER
  5
216
100
AcDbSymbolTableRecord
100
AcDbLayerTableRecord
  2
TRASH
 70
0
 62
7
  6
CONTINUOUS
370
-3
390
F
  0
ENDTAB
  0
TABLE
  2
STYLE
  5
3
100
AcDbSymbolTable
 70
1
  0
STYLE
  5
11
100
AcDbSymbolTableRecord
100
AcDbTextStyleTableRecord
  2
STANDARD
 70
0
 40
0.0
 41
0.8
 50
0.0
 71
0
 42
0.2
  3
txt
  4

  0
STYLE
  5
217
100
AcDbSymbolTableRecord
100
AcDbTextStyleTableRecord
  2
TEXTSTYLE_1
 70
0
 40
0.0
 41
0.8
 50
0.0
 71
0
 42
0.2
  3
gdt
  4

  0
ENDTAB
  0
TABLE
  2
VIEW
  5
6
100
AcDbSymbolTable
 70
0
  0
ENDTAB
  0
TABLE
  2
UCS
  5
7
100
AcDbSymbolTable
 70
0
  0
ENDTAB
  0
TABLE
  2
APPID
  5
9
100
AcDbSymbolTable
 70
1
  0
APPID
  5
218
100
AcDbSymbolTableRecord
100
AcDbRegAppTableRecord
  2
ACAD
 70
0
  0
ENDTAB
  0
TABLE
  2
BLOCK_RECORD
  5
1
100
AcDbSymbolTable
 70
0
  0
BLOCK_RECORD
  5
219
100
AcDbSymbolTableRecord
100
AcDbBlockTableRecord
  2
*Model_Space
  0
BLOCK_RECORD
  5
21A
100
AcDbSymbolTableRecord
100
AcDbBlockTableRecord
  2
*Paper_Space
  0
BLOCK_RECORD
  5
21B
100
AcDbSymbolTableRecord
100
AcDbBlockTableRecord
  2
_FILLED
  0
ENDTAB
  0
TABLE
  2
DIMSTYLE
  5
A
100
AcDbSymbolTable
 70
1
100
AcDbDimStyleTable
 71
0
  0
DIMSTYLE
105
21C
100
AcDbSymbolTableRecord
100
AcDbDimStyleTableRecord
  2
STANDARD
 70
0
  3

  4

 40
1.0
 41
3.0
 42
0.5
 43
0.38
 44
1.5
 45
0.0
 46
0.0
 47
0.01
 48
0.01
140
3.0
141
0.09
142
0.0
143
25.4
144
1.0
145
0.0
146
1.0
147
0.625
 71
1
 72
0
 73
0
 74
0
 75
0
 76
0
 77
1
 78
8
 79
2
170
0
171
1
172
0
173
0
174
0
175
0
176
0
177
0
178
0
270
2
179
2
271
2
272
2
273
2
274
2
275
0
280
0
281
0
282
0
283
1
284
8
285
0
286
0
287
3
288
0
340
11
278
44
341
21B
342
21B
343
21B
344
21B
  0
ENDTAB
  0
ENDSEC
  0
SECTION
  2
BLOCKS
  0
BLOCK
  5
20
100
AcDbEntity
  8
0
100
AcDbBlockBegin
  2
*Model_Space
 70
0
 10
0.0
 20
0.0
 30
0.0
  3
*Model_Space
  1

  0
ENDBLK
  5
21
100
AcDbEntity
  8
0
100
AcDbBlockEnd
  0
BLOCK
  5
1C
100
AcDbEntity
  8
0
100
AcDbBlockBegin
  2
*Paper_Space
 70
0
 10
0.0
 20
0.0
 30
0.0
  3
*Paper_Space
  1

  0
ENDBLK
  5
1D
100
AcDbEntity
  8
0
100
AcDbBlockEnd
  0
BLOCK
  5
21D
100
AcDbEntity
  8
0
100
AcDbBlockBegin
  2
_FILLED
 70
64
 10
0.0
 20
0.0
  3
_FILLED
  1

  0
SOLID
  5
21E
100
AcDbEntity
  8
0
  6
BYBLOCK
 62
0
100
AcDbTrace
 10
0.0
 20
0.0
 11
-1.0
 21
0.3166666667
 12
-1.0
 22
-0.3166666667
 13
-1.0
 23
-0.3166666667
  0
ENDBLK
  5
21F
100
AcDbEntity
  8
0
  6
BYBLOCK
 62
0
100
AcDbBlockEnd
  0
ENDSEC
  0
SECTION
  2
ENTITIES
  0
LINE
  5
220
100
AcDbEntity
  8
RACCORDO
100
AcDbLine
 62
250
  6
CONTINUOUS
 10
-21.8171488744
 20
26.2387579355
 11
-21.7988187293
 21
26.3
  0
LINE
  5
221
100
AcDbEntity
  8
RACCORDO
100
AcDbLine
 62
250
  6
CONTINUOUS
 10
-21.8171488744
 20
-26.2387579355
 11
-21.7988187293
 21
-26.3
  0
LINE
  5
222
100
AcDbEntity
  8
0
100
AcDbLine
 62
7
  6
CONTINUOUS
 10
21.7847065336
 20
-26.3345351961
 11
-21.7847065336
 21
-26.3345351961
  0
LINE
  5
223
100
AcDbEntity
  8
RACCORDO
100
AcDbLine
 62
7
  6
CONTINUOUS
 10
21.7988187293
 20
-26.3
 11
-21.7988187293
 21
-26.3
  0
LINE
  5
224
100
AcDbEntity
  8
RACCORDO
100
AcDbLine
 62
7
  6
CONTINUOUS
 10
21.8171488744
 20
-26.2387579355
 11
-21.8171488744
 21
-26.2387579355
  0
LINE
  5
225
100
AcDbEntity
  8
RACCORDO
100
AcDbLine
 62
7
  6
CONTINUOUS
 10
-21.0
 20
-25.5
 11
21.0
 21
-25.5
  0
LWPOLYLINE
  5
226
100
AcDbEntity
  8
RACCORDO
100
AcDbPolyline
 62
7
  6
CONTINUOUS
 90
3
 70
0
 10
-20.0896039654
 20
13.6849547379
 10
-20.0475496474
 20
13.7272433852
 10
-20.032256019
 20
13.742344685
  0
LINE
  5
227
100
AcDbEntity
  8
RACCORDO
100
AcDbLine
 62
7
  6
CONTINUOUS
 10
-20.1770052681
 20
13.5975450575
 11
-20.1023627837
 21
13.6722595498
  0
LINE
  5
228
100
AcDbEntity
  8
RACCORDO
100
AcDbLine
 62
7
  6
CONTINUOUS
 10
-20.1023627837
 20
13.6722595498
 11
-20.0896039654
 21
13.6849547379
  0
LINE
  5
229
100
AcDbEntity
  8
RACCORDO
100
AcDbLine
 62
7
  6
CONTINUOUS
 10
-20.1799771819
 20
13.5946235221
 11
-20.1770052681
 21
13.5975450575
  0
LWPOLYLINE
  5
22A
100
AcDbEntity
  8
RACCORDO
100
AcDbPolyline
 62
7
  6
CONTINUOUS
 90
16
 70
0
 10
-20.4239476231
 20
14.8425502548
 10
-20.4217964331
 20
14.8442325315
 10
-20.4202579142
 20
14.8476106222
 10
-20.4193320663
 20
14.8526681677
 10
-20.418885397
 20
14.8594212676
 10
-20.4190513987
 20
14.8677814605
 10
-20.4202305485
 20
14.8774494251
 10
-20.4224181647
 20
14.888144246
 10
-20.4256189289
 20
14.8997649994
 10
-20.4302473631
 20
14.9121995033
 10
-20.4363870598
 20
14.9254046252
 10
-20.4439544264
 20
14.939112501
 10
-20.4531132071
 20
14.9528538152
 10
-20.4639179832
 20
14.9663495723
 10
-20.4763141735
 20
14.9795538533
 10
-20.4903017779
 20
14.992344685
  0
LINE
  5
22B
100
AcDbEntity
  8
DRAFT
100
AcDbLine
 62
7
  6
CONTINUOUS
 10
-21.35
 20
14.7373232745
 11
-21.1996573543
 21
14.85
  0
LINE
  5
22C
100
AcDbEntity
  8
RACCORDO
100
AcDbLine
 62
7
  6
CONTINUOUS
 10
-20.7448015567
 20
-24.9947634805
 11
20.7448015567
 21
-24.9947634805
  0
LINE
  5
22D
100
AcDbEntity
  8
0
100
AcDbLine
 62
7
  6
CONTINUOUS
 10
-20.7448015567
 20
-24.9947634805
 11
20.7448015567
 21
-24.9947634805
  0
LWPOLYLINE
  5
22E
100
AcDbEntity
  8
RACCORDO
100
AcDbPolyline
 62
250
  6
CONTINUOUS
 90
19
 70
0
 10
-20.6763690968
 20
-14.5471258854
 10
-20.680874987
 20
-14.5441572779
 10
-20.6851581531
 20
-14.5391908563
 10
-20.6892185951
 20
-14.5322266205
 10
-20.693086546
 20
-14.5229710847
 10
-20.6967317728
 20
-14.5117177348
 10
-20.7000635772
 20
-14.4993470281
 10
-20.7030463214
 20
-14.485913547
 10
-20.7057156432
 20
-14.4713627091
 10
-20.7080877581
 20
-14.4564112244
 10
-20.7101421547
 20
-14.4413443078
 10
-20.7118993444
 20
-14.4258767443
 10
-20.7134370766
 20
-14.4098695991
 10
-20.7147837337
 20
-14.3934524544
 10
-20.7159109333
 20
-14.3764957279
 10
-20.7168112776
 20
-14.3584717376
 10
-20.7174823009
 20
-14.3392045894
 10
-20.7179264689
 20
-14.3188701775
 10
-20.7181437817
 20
-14.2974685017
  0
LINE
  5
22F
100
AcDbEntity
  8
DRAFT
100
AcDbLine
 62
7
  6
CONTINUOUS
 10
-21.35
 20
-14.7373232745
 11
-21.1996573543
 21
-14.85
  0
LWPOLYLINE
  5
230
100
AcDbEntity
  8
RACCORDO
100
AcDbPolyline
 62
250
  6
CONTINUOUS
 90
19
 70
0
 10
-20.8240893778
 20
-14.6969203156
 10
-20.8285969242
 20
-14.6927354862
 10
-20.8328811003
 20
-14.684681706
 10
-20.8369419061
 20
-14.6730815681
 10
-20.8408092262
 20
-14.6582116787
 10
-20.8444531759
 20
-14.6404661292
 10
-20.8477841023
 20
-14.6204741104
 10
-20.8507668739
 20
-14.5987962137
 10
-20.8534366221
 20
-14.5757738793
 10
-20.8558090876
 20
-14.551776867
 10
-20.8578636093
 20
-14.5274610068
 10
-20.8596208483
 20
-14.502880198
 10
-20.8611585291
 20
-14.4773102703
 10
-20.8625049449
 20
-14.4509578295
 10
-20.8636318026
 20
-14.4239197743
 10
-20.8645319469
 20
-14.3950736664
 10
-20.8652029928
 20
-14.3640763797
 10
-20.8656473254
 20
-14.3314800999
 10
-20.8658649447
 20
-14.2974685017
  0
LWPOLYLINE
  5
231
100
AcDbEntity
  8
RACCORDO
100
AcDbPolyline
 62
7
  6
CONTINUOUS
 90
3
 70
0
 10
-20.0896459661
 20
-13.6849967386
 10
-20.0473573188
 20
-13.7270510566
 10
-20.032256019
 20
-13.742344685
  0
LINE
  5
232
100
AcDbEntity
  8
RACCORDO
100
AcDbLine
 62
7
  6
CONTINUOUS
 10
-20.1770556465
 20
-13.5975954359
 11
-20.1023411542
 21
-13.6722379203
  0
LINE
  5
233
100
AcDbEntity
  8
RACCORDO
100
AcDbLine
 62
7
  6
CONTINUOUS
 10
-20.1023411542
 20
-13.6722379203
 11
-20.0896459661
 21
-13.6849967386
  0
LINE
  5
234
100
AcDbEntity
  8
RACCORDO
100
AcDbLine
 62
7
  6
CONTINUOUS
 10
-20.1799771819
 20
-13.5946235221
 11
-20.1770556465
 21
-13.5975954359
  0
LWPOLYLINE
  5
235
100
AcDbEntity
  8
RACCORDO
100
AcDbPolyline
 62
250
  6
CONTINUOUS
 90
6
 70
0
 10
-21.7308434758
 20
-1.7202000995
 10
-21.7317997432
 20
-1.7100591377
 10
-21.7327052393
 20
-1.6960736958
 10
-21.733559964
 20
-1.6785730792
 10
-21.7343692104
 20
-1.6578037346
 10
-21.7351276856
 20
-1.6341841236
  0
LWPOLYLINE
  5
236
100
AcDbEntity
  8
RACCORDO
100
AcDbPolyline
 62
250
  6
CONTINUOUS
 90
16
 70
0
 10
-20.032256019
 20
-11.8053374127
 10
-20.0344457859
 20
-11.7710540039
 10
-20.0401051147
 20
-11.7381425785
 10
-20.0492340054
 20
-11.7066031363
 10
-20.0623600215
 20
-11.6759196603
 10
-20.0789555995
 20
-11.6466081676
 10
-20.0974380488
 20
-11.6202167099
 10
-20.1174772163
 20
-11.5973988423
 10
-20.139403255
 20
-11.5775010096
 10
-20.1626239332
 20
-11.5601105985
 10
-20.1867135232
 20
-11.5450879764
 10
-20.2120977527
 20
-11.5325727758
 10
-20.239461573
 20
-11.5225712809
 10
-20.2690333013
 20
-11.5150855865
 10
-20.3005846203
 20
-11.5101135979
 10
-20.3341155302
 20
-11.507655315
  0
LWPOLYLINE
  5
237
100
AcDbEntity
  8
RACCORDO
100
AcDbPolyline
 62
7
  6
CONTINUOUS
 90
10
 70
0
 10
-20.75
 20
2.2500380762
 10
-20.7514928615
 20
2.2766302445
 10
-20.7555710128
 20
2.3023809738
 10
-20.7622344538
 20
2.3272902641
 10
-20.7716119163
 20
2.3516104249
 10
-20.7835746687
 20
2.3750891468
 10
-20.7977365155
 20
2.3969695013
 10
-20.8141689654
 20
2.4171994208
 10
-20.8328005098
 20
2.435830973
 10
-20.8530304277
 20
2.4522634329
  0
LWPOLYLINE
  5
238
100
AcDbEntity
  8
RACCORDO
100
AcDbPolyline
 62
250
  6
CONTINUOUS
 90
16
 70
0
 10
-20.1799775233
 20
-11.8053369656
 10
-20.1808178748
 20
-11.7884774503
 10
-20.1836055449
 20
-11.7719360426
 10
-20.1882802562
 20
-11.7559147487
 10
-20.1948472815
 20
-11.7404522639
 10
-20.2031528602
 20
-11.7258988679
 10
-20.2127209383
 20
-11.7128221217
 10
-20.2230765856
 20
-11.7014829817
 10
-20.2341503257
 20
-11.6916240579
 10
-20.2460254126
 20
-11.6829812573
 10
-20.2584479729
 20
-11.6756442225
 10
-20.2713870837
 20
-11.6695611397
 10
-20.2854326491
 20
-11.6645032317
 10
-20.3007627735
 20
-11.6606136909
 10
-20.3170384802
 20
-11.658195867
 10
-20.3341160784
 20
-11.6574499081
  0
LINE
  5
239
100
AcDbEntity
  8
RACCORDO
100
AcDbLine
 62
250
  6
CONTINUOUS
 10
-21.7351276856
 20
-1.6341841236
 11
-21.7364384784
 21
-1.5811058936
  0
LWPOLYLINE
  5
23A
100
AcDbEntity
  8
RACCORDO
100
AcDbPolyline
 62
250
  6
CONTINUOUS
 90
3
 70
0
 10
-21.4386646493
 20
-1.322674332
 10
-21.4392454454
 20
-1.2983800477
 10
-21.4394709186
 20
-1.2858116009
  0
LINE
  5
23B
100
AcDbEntity
  8
RACCORDO
100
AcDbLine
 62
250
  6
CONTINUOUS
 10
-21.7364384784
 20
-1.5811058936
 11
-21.7374791994
 21
-1.5232659226
  0
LINE
  5
23C
100
AcDbEntity
  8
RACCORDO
100
AcDbLine
 62
250
  6
CONTINUOUS
 10
-21.7374791994
 20
-1.5232659226
 11
-21.7385636585
 21
-1.4349038064
  0
LINE
  5
23D
100
AcDbEntity
  8
RACCORDO
100
AcDbLine
 62
250
  6
CONTINUOUS
 10
-21.4394709186
 20
-1.2858116009
 11
-21.4397848327
 21
-1.2583381416
  0
LWPOLYLINE
  5
23E
100
AcDbEntity
  8
RACCORDO
100
AcDbPolyline
 62
250
  6
CONTINUOUS
 90
19
 70
0
 10
-21.63468937
 20
-2.1258649447
 10
-21.6348076895
 20
-2.1121726956
 10
-21.6350921789
 20
-2.0988020752
 10
-21.6355428382
 20
-2.0858536443
 10
-21.6361816812
 20
-2.0733425601
 10
-21.6369866941
 20
-2.0614256426
 10
-21.6378918359
 20
-2.0503749749
 10
-21.6388928357
 20
-2.0402887662
 10
-21.6399939643
 20
-2.0310930681
 10
-21.641141993
 20
-2.0227573257
 10
-21.6423152293
 20
-2.0153483713
 10
-21.6435353657
 20
-2.0087465556
 10
-21.6448142513
 20
-2.0026920997
 10
-21.6461398121
 20
-1.9972141981
 10
-21.6475241222
 20
-1.9923281243
 10
-21.6490152527
 20
-1.9878852874
 10
-21.6506292276
 20
-1.9839380323
 10
-21.6523500229
 20
-1.9806551146
 10
-21.6541776388
 20
-1.9781437817
  0
LINE
  5
23F
100
AcDbEntity
  8
RACCORDO
100
AcDbLine
 62
7
  6
CONTINUOUS
 10
-20.9994736654
 20
-16.4586033555
 11
-20.9952898151
 21
-17.1171534187
  0
LINE
  5
240
100
AcDbEntity
  8
0
100
AcDbLine
 62
7
  6
CONTINUOUS
 10
-20.9994736654
 20
-16.4586033555
 11
-20.9952898151
 21
-17.1171534187
  0
LINE
  5
241
100
AcDbEntity
  8
RACCORDO
100
AcDbLine
 62
250
  6
CONTINUOUS
 10
-21.7385636585
 20
-1.4349038064
 11
-21.7392393183
 21
-1.3395838153
  0
LINE
  5
242
100
AcDbEntity
  8
RACCORDO
100
AcDbLine
 62
250
  6
CONTINUOUS
 10
-21.4397848327
 20
-1.2583381416
 11
-21.4399160682
 21
-1.227796223
  0
LINE
  5
243
100
AcDbEntity
  8
RACCORDO
100
AcDbLine
 62
7
  6
CONTINUOUS
 10
-22.3207019882
 20
1.227796223
 11
-22.3207019882
 21
-1.227796223
  0
LINE
  5
244
100
AcDbEntity
  8
0
100
AcDbLine
 62
7
  6
CONTINUOUS
 10
-22.2845351961
 20
-25.8347065336
 11
-22.2845351961
 21
-1.8908807657
  0
LINE
  5
245
100
AcDbEntity
  8
0
100
AcDbLine
 62
7
  6
CONTINUOUS
 10
-22.2845351961
 20
1.8908807657
 11
-22.2845351961
 21
25.8347065336
  0
LINE
  5
246
100
AcDbEntity
  8
RACCORDO
100
AcDbLine
 62
7
  6
CONTINUOUS
 10
-22.2683301451
 20
-25.7860084248
 11
-22.2683301451
 21
-15.75
  0
LINE
  5
247
100
AcDbEntity
  8
RACCORDO
100
AcDbLine
 62
7
  6
CONTINUOUS
 10
-22.2683301451
 20
-10.75
 11
-22.2683301451
 21
-2.1258649447
  0
LINE
  5
248
100
AcDbEntity
  8
RACCORDO
100
AcDbLine
 62
7
  6
CONTINUOUS
 10
-22.2683301451
 20
2.1258649447
 11
-22.2683301451
 21
10.75
  0
LINE
  5
249
100
AcDbEntity
  8
RACCORDO
100
AcDbLine
 62
7
  6
CONTINUOUS
 10
-22.2683301451
 20
15.75
 11
-22.2683301451
 21
25.7860084248
  0
LINE
  5
24A
100
AcDbEntity
  8
RACCORDO
100
AcDbLine
 62
7
  6
CONTINUOUS
 10
-21.9
 20
-15.55
 11
-21.9
 21
-10.95
  0
LINE
  5
24B
100
AcDbEntity
  8
RACCORDO
100
AcDbLine
 62
7
  6
CONTINUOUS
 10
-21.9
 20
10.95
 11
-21.9
 21
15.55
  0
LINE
  5
24C
100
AcDbEntity
  8
DRAFT
100
AcDbLine
 62
7
  6
CONTINUOUS
 10
-21.85
 20
-14.7221944518
 11
-21.85
 21
-11.7778055482
  0
LINE
  5
24D
100
AcDbEntity
  8
DRAFT
100
AcDbLine
 62
7
  6
CONTINUOUS
 10
-21.85
 20
11.7778055482
 11
-21.85
 21
14.7221944518
  0
LINE
  5
24E
100
AcDbEntity
  8
RACCORDO
100
AcDbLine
 62
250
  6
CONTINUOUS
 10
-21.7392393183
 20
-1.3395838153
 11
-21.7395049286
 21
1.227796223
  0
LINE
  5
24F
100
AcDbEntity
  8
RACCORDO
100
AcDbLine
 62
7
  6
CONTINUOUS
 10
-21.5
 20
-25.0
 11
-21.5
 21
-16.2875932838
  0
LINE
  5
250
100
AcDbEntity
  8
RACCORDO
100
AcDbLine
 62
7
  6
CONTINUOUS
 10
-21.5
 20
16.2875932838
 11
-21.5
 21
25.0
  0
LINE
  5
251
100
AcDbEntity
  8
RACCORDO
100
AcDbLine
 62
7
  6
CONTINUOUS
 10
-21.4386751346
 20
14.2974685017
 11
-21.4386751346
 21
12.2025314983
  0
LINE
  5
252
100
AcDbEntity
  8
RACCORDO
100
AcDbLine
 62
7
  6
CONTINUOUS
 10
-21.4386751346
 20
-14.2974685017
 11
-21.4386751346
 21
-12.2025314983
  0
LINE
  5
253
100
AcDbEntity
  8
RACCORDO
100
AcDbLine
 62
7
  6
CONTINUOUS
 10
-21.3500000267
 20
1.7074830691
 11
-21.3500000083
 21
-1.707483188
  0
LINE
  5
254
100
AcDbEntity
  8
DRAFT
100
AcDbLine
 62
7
  6
CONTINUOUS
 10
-21.1996573543
 20
14.8669049234
 11
-21.1996573543
 21
14.85
  0
LINE
  5
255
100
AcDbEntity
  8
DRAFT
100
AcDbLine
 62
7
  6
CONTINUOUS
 10
-21.1996573543
 20
11.65
 11
-21.1996573543
 21
11.6330950766
  0
LINE
  5
256
100
AcDbEntity
  8
DRAFT
100
AcDbLine
 62
7
  6
CONTINUOUS
 10
-21.1996573543
 20
-11.6330950766
 11
-21.1996573543
 21
-11.65
  0
LINE
  5
257
100
AcDbEntity
  8
DRAFT
100
AcDbLine
 62
7
  6
CONTINUOUS
 10
-21.1996573543
 20
-14.85
 11
-21.1996573543
 21
-14.8669049234
  0
LINE
  5
258
100
AcDbEntity
  8
RACCORDO
100
AcDbLine
 62
7
  6
CONTINUOUS
 10
-21.0
 20
16.2875932838
 11
-21.0
 21
14.8669049234
  0
LINE
  5
259
100
AcDbEntity
  8
0
100
AcDbLine
 62
7
  6
CONTINUOUS
 10
-21.0
 20
16.2875932838
 11
-21.0
 21
14.8669049234
  0
LINE
  5
25A
100
AcDbEntity
  8
RACCORDO
100
AcDbLine
 62
7
  6
CONTINUOUS
 10
-21.0
 20
11.6330950766
 11
-21.0
 21
2.5000060301
  0
LINE
  5
25B
100
AcDbEntity
  8
0
100
AcDbLine
 62
7
  6
CONTINUOUS
 10
-21.0
 20
11.6330950766
 11
-21.0
 21
2.4999999971
  0
LINE
  5
25C
100
AcDbEntity
  8
RACCORDO
100
AcDbLine
 62
7
  6
CONTINUOUS
 10
-21.0
 20
-2.5000060301
 11
-21.0
 21
-11.6330950766
  0
LINE
  5
25D
100
AcDbEntity
  8
0
100
AcDbLine
 62
7
  6
CONTINUOUS
 10
-21.0
 20
-2.4999999971
 11
-21.0
 21
-11.6330950766
  0
LINE
  5
25E
100
AcDbEntity
  8
RACCORDO
100
AcDbLine
 62
7
  6
CONTINUOUS
 10
-21.0
 20
-14.8669049234
 11
-21.0
 21
-16.2875932838
  0
LINE
  5
25F
100
AcDbEntity
  8
0
100
AcDbLine
 62
7
  6
CONTINUOUS
 10
-21.0
 20
-14.8669049234
 11
-21.0
 21
-16.2875932838
  0
LINE
  5
260
100
AcDbEntity
  8
RACCORDO
100
AcDbLine
 62
7
  6
CONTINUOUS
 10
-20.9947634805
 20
24.7448015567
 11
-20.9947634805
 21
17.2881634904
  0
LINE
  5
261
100
AcDbEntity
  8
0
100
AcDbLine
 62
7
  6
CONTINUOUS
 10
-20.9947634805
 20
24.7448015567
 11
-20.9947634805
 21
17.2881634904
  0
LINE
  5
262
100
AcDbEntity
  8
RACCORDO
100
AcDbLine
 62
7
  6
CONTINUOUS
 10
-20.9947634805
 20
-17.2881634904
 11
-20.9947634805
 21
-24.7448015567
  0
LINE
  5
263
100
AcDbEntity
  8
0
100
AcDbLine
 62
7
  6
CONTINUOUS
 10
-20.9947634805
 20
-17.2881634904
 11
-20.9947634805
 21
-24.7448015567
  0
LINE
  5
264
100
AcDbEntity
  8
RACCORDO
100
AcDbLine
 62
250
  6
CONTINUOUS
 10
-20.8658649447
 20
-14.2974685017
 11
-20.8658649447
 21
-12.2025314983
  0
LINE
  5
265
100
AcDbEntity
  8
RACCORDO
100
AcDbLine
 62
250
  6
CONTINUOUS
 10
-20.8658649447
 20
12.2025314983
 11
-20.8658649447
 21
14.2974685017
  0
LINE
  5
266
100
AcDbEntity
  8
0
100
AcDbLine
 62
7
  6
CONTINUOUS
 10
-20.75
 20
2.2500380762
 11
-20.75
 21
-2.2500380762
  0
LINE
  5
267
100
AcDbEntity
  8
RACCORDO
100
AcDbLine
 62
7
  6
CONTINUOUS
 10
-20.75
 20
-2.2500380762
 11
-20.75
 21
2.2500380762
  0
LINE
  5
268
100
AcDbEntity
  8
RACCORDO
100
AcDbLine
 62
250
  6
CONTINUOUS
 10
-20.7181437817
 20
-14.2974685017
 11
-20.7181437817
 21
-12.2025314983
  0
LINE
  5
269
100
AcDbEntity
  8
RACCORDO
100
AcDbLine
 62
250
  6
CONTINUOUS
 10
-20.7181437817
 20
12.2025314983
 11
-20.7181437817
 21
14.2974685017
  0
LWPOLYLINE
  5
26A
100
AcDbEntity
  8
RACCORDO
100
AcDbPolyline
 62
250
  6
CONTINUOUS
 90
19
 70
0
 10
-21.4399160682
 20
-1.227796223
 10
-21.4398655425
 20
1.2460077121
 10
-21.4397417479
 20
1.2635966997
 10
-21.4395446844
 20
1.2805631859
 10
-21.439265773
 20
1.2970619734
 10
-21.4389135927
 20
1.3129382595
 10
-21.4385138803
 20
1.3277276356
 10
-21.4380660452
 20
1.3413006316
 10
-21.4375706779
 20
1.3537867176
 10
-21.4370552873
 20
1.3651098965
 10
-21.4365309078
 20
1.3751232749
 10
-21.4359865049
 20
1.3839737462
 10
-21.4354164839
 20
1.3920259923
 10
-21.4348261124
 20
1.3993848455
 10
-21.4342101228
 20
1.4059454736
 10
-21.433547118
 20
1.4117580619
 10
-21.4328299657
 20
1.4168393389
 10
-21.4320657981
 20
1.4211725761
 10
-21.4312546154
 20
1.4247577736
  0
LINE
  5
26B
100
AcDbEntity
  8
RACCORDO
100
AcDbLine
 62
250
  6
CONTINUOUS
 10
-21.7395049286
 20
1.227796223
 11
-21.7391331283
 21
1.359713628
  0
LINE
  5
26C
100
AcDbEntity
  8
RACCORDO
100
AcDbLine
 62
7
  6
CONTINUOUS
 10
-20.9952898151
 20
17.1171534187
 11
-20.9994736654
 21
16.4586033555
  0
LINE
  5
26D
100
AcDbEntity
  8
0
100
AcDbLine
 62
7
  6
CONTINUOUS
 10
-20.9952898151
 20
17.1171534187
 11
-20.9994736654
 21
16.4586033555
  0
LWPOLYLINE
  5
26E
100
AcDbEntity
  8
RACCORDO
100
AcDbPolyline
 62
250
  6
CONTINUOUS
 90
19
 70
0
 10
-20.865864938
 20
14.2974685017
 10
-20.8655687722
 20
14.3385579315
 10
-20.8649025665
 20
14.3783632858
 10
-20.8638663207
 20
14.4165205604
 10
-20.8624069897
 20
14.4528767702
 10
-20.8605776187
 20
14.4870139782
 10
-20.8585373435
 20
14.5183151821
 10
-20.8562948508
 20
14.5465718158
 10
-20.8538414539
 20
14.571934929
 10
-20.8513102282
 20
14.5944732357
 10
-20.8487514265
 20
14.614047618
 10
-20.846114796
 20
14.6310425228
 10
-20.8433826536
 20
14.6461575962
 10
-20.8405808986
 20
14.6593227417
 10
-20.8376836318
 20
14.6705475142
 10
-20.8345954725
 20
14.6802047237
 10
-20.8312846274
 20
14.6881012459
 10
-20.8277828898
 20
14.6937747015
 10
-20.8240902598
 20
14.6969203156
  0
LWPOLYLINE
  5
26F
100
AcDbEntity
  8
RACCORDO
100
AcDbPolyline
 62
250
  6
CONTINUOUS
 90
19
 70
0
 10
-20.865864938
 20
-12.2025314983
 10
-20.8655687722
 20
-12.1614420685
 10
-20.8649025665
 20
-12.1216367142
 10
-20.8638663207
 20
-12.0834794396
 10
-20.8624069897
 20
-12.0471232298
 10
-20.8605776187
 20
-12.0129860218
 10
-20.8585373435
 20
-11.9816848179
 10
-20.8562948508
 20
-11.9534281842
 10
-20.8538414539
 20
-11.928065071
 10
-20.8513102282
 20
-11.9055267643
 10
-20.8487514265
 20
-11.885952382
 10
-20.846114796
 20
-11.8689574772
 10
-20.8433826536
 20
-11.8538424038
 10
-20.8405808986
 20
-11.8406772583
 10
-20.8376836318
 20
-11.8294524858
 10
-20.8345954725
 20
-11.8197952763
 10
-20.8312846274
 20
-11.8118987541
 10
-20.8277828898
 20
-11.8062252985
 10
-20.8240902598
 20
-11.8030796844
  0
LINE
  5
270
100
AcDbEntity
  8
RACCORDO
100
AcDbLine
 62
250
  6
CONTINUOUS
 10
-21.7391331283
 20
1.359713628
 11
-21.7381029537
 21
1.4776247565
  0
LWPOLYLINE
  5
271
100
AcDbEntity
  8
RACCORDO
100
AcDbPolyline
 62
250
  6
CONTINUOUS
 90
19
 70
0
 10
-20.7181437817
 20
14.2974685017
 10
-20.7178481367
 20
14.3234694575
 10
-20.7171822266
 20
14.3482719755
 10
-20.7161460513
 20
14.3718760557
 10
-20.7146864256
 20
14.3944756561
 10
-20.7128565347
 20
14.4158768188
 10
-20.710815935
 20
14.4354976692
 10
-20.7085735342
 20
14.4531173333
 10
-20.7061204245
 20
14.4689566852
 10
-20.7035894393
 20
14.4830964732
 10
-20.7010308192
 20
14.4954053633
 10
-20.6983943235
 20
14.5060146896
 10
-20.6956620626
 20
14.5153992025
 10
-20.6928596494
 20
14.5237100713
 10
-20.6899614711
 20
14.5307961267
 10
-20.6868727995
 20
14.5366786116
 10
-20.6835620585
 20
14.5413646068
 10
-20.6800608243
 20
14.5448470314
 10
-20.6763690968
 20
14.5471258854
  0
LWPOLYLINE
  5
272
100
AcDbEntity
  8
RACCORDO
100
AcDbPolyline
 62
250
  6
CONTINUOUS
 90
19
 70
0
 10
-20.7181437817
 20
-12.2025314983
 10
-20.7178481367
 20
-12.1765305425
 10
-20.7171822266
 20
-12.1517280245
 10
-20.7161460513
 20
-12.1281239443
 10
-20.7146864256
 20
-12.1055243439
 10
-20.7128565347
 20
-12.0841231812
 10
-20.710815935
 20
-12.0645023308
 10
-20.7085735342
 20
-12.0468826667
 10
-20.7061204245
 20
-12.0310433148
 10
-20.7035894393
 20
-12.0169035268
 10
-20.7010308192
 20
-12.0045946367
 10
-20.6983943235
 20
-11.9939853104
 10
-20.6956620626
 20
-11.9846007975
 10
-20.6928596494
 20
-11.9762899287
 10
-20.6899614711
 20
-11.9692038733
 10
-20.6868727995
 20
-11.9633213884
 10
-20.6835620585
 20
-11.9586353932
 10
-20.6800608243
 20
-11.9551529686
 10
-20.6763690968
 20
-11.9528741146
  0
LINE
  5
273
100
AcDbEntity
  8
RACCORDO
100
AcDbLine
 62
250
  6
CONTINUOUS
 10
-21.7381029537
 20
1.4776247565
 11
-21.7371594874
 21
1.542867865
  0
LINE
  5
274
100
AcDbEntity
  8
RACCORDO
100
AcDbLine
 62
250
  6
CONTINUOUS
 10
-21.7371594874
 20
1.542867865
 11
-21.736119407
 21
1.5959951164
  0
LWPOLYLINE
  5
275
100
AcDbEntity
  8
RACCORDO
100
AcDbPolyline
 62
250
  6
CONTINUOUS
 90
8
 70
0
 10
-21.736119407
 20
1.5959951164
 10
-21.7350049448
 20
1.6383706424
 10
-21.7344150858
 20
1.6566401591
 10
-21.7337998097
 20
1.6729030551
 10
-21.7331372021
 20
1.6877008296
 10
-21.7324199582
 20
1.7008658081
 10
-21.7316553827
 20
1.7118192799
 10
-21.7308434758
 20
1.7202000995
  0
LWPOLYLINE
  5
276
100
AcDbEntity
  8
RACCORDO
100
AcDbPolyline
 62
7
  6
CONTINUOUS
 90
25
 70
0
 10
-21.3500000083
 20
-1.7074833227
 10
-21.3510750578
 20
-1.7321229841
 10
-21.3535365595
 20
-1.756088464
 10
-21.3573845133
 20
-1.7793797625
 10
-21.3627215857
 20
-1.8020039141
 10
-21.3694451103
 20
-1.8239538843
 10
-21.3772470872
 20
-1.8452085693
 10
-21.3861110022
 20
-1.8657613949
 10
-21.3960533694
 20
-1.8856189352
 10
-21.4068157321
 20
-1.9047798084
 10
-21.418378358
 20
-1.9232203545
 10
-21.4307609794
 20
-1.9409642334
 10
-21.4437643362
 20
-1.9580810435
 10
-21.4573708725
 20
-1.9745558615
 10
-21.4715981443
 20
-1.9904036105
 10
-21.4862995598
 20
-2.005738659
 10
-21.5014756295
 20
-2.0205593998
 10
-21.5171258429
 20
-2.0348674401
 10
-21.5331020771
 20
-2.0487819688
 10
-21.5493853394
 20
-2.0622826727
 10
-21.5659946223
 20
-2.0753898651
 10
-21.5828387813
 20
-2.0882836756
 10
-21.5998874348
 20
-2.1010241472
 10
-21.6171709644
 20
-2.1135512369
 10
-21.63468937
 20
-2.1258649447
  0
LWPOLYLINE
  5
277
100
AcDbEntity
  8
RACCORDO
100
AcDbPolyline
 62
250
  6
CONTINUOUS
 90
13
 70
0
 10
-19.61067643
 20
13.0891664262
 10
-19.6120998746
 20
13.069726008
 10
-19.6159976728
 20
13.0506143884
 10
-19.6223039005
 20
13.0321548047
 10
-19.6309118996
 20
13.0146594666
 10
-19.6416760818
 20
12.9984242751
 10
-19.6544143911
 20
12.9837238181
 10
-19.6689113826
 20
12.9708067267
 10
-19.6849218668
 20
12.9598914693
 10
-19.7021750561
 20
12.9511626571
 10
-19.720379145
 20
12.9447679218
 10
-19.7392262452
 20
12.9408154184
 10
-19.758397593
 20
12.939371996
  0
LINE
  5
278
100
AcDbEntity
  8
RACCORDO
100
AcDbLine
 62
7
  6
CONTINUOUS
 10
-22.2715759627
 20
1.9781437817
 11
-22.3098825962
 21
1.7202000995
  0
LWPOLYLINE
  5
279
100
AcDbEntity
  8
RACCORDO
100
AcDbPolyline
 62
250
  6
CONTINUOUS
 90
7
 70
0
 10
-21.3545887783
 20
1.6827014558
 10
-21.3537922214
 20
1.6856818531
 10
-21.3530083704
 20
1.6891221991
 10
-21.3522372255
 20
1.6930224937
 10
-21.3514787865
 20
1.6973827368
 10
-21.3507330536
 20
1.7022029286
 10
-21.3500000267
 20
1.7074830691
  0
LINE
  5
27A
100
AcDbEntity
  8
RACCORDO
100
AcDbLine
 62
250
  6
CONTINUOUS
 10
-21.7308434758
 20
1.7202000995
 11
-21.6541776388
 21
1.9781437817
  0
LINE
  5
27B
100
AcDbEntity
  8
RACCORDO
100
AcDbLine
 62
250
  6
CONTINUOUS
 10
-21.4312546154
 20
1.4247577736
 11
-21.3545887783
 21
1.6827014558
  0
LWPOLYLINE
  5
27C
100
AcDbEntity
  8
RACCORDO
100
AcDbPolyline
 62
7
  6
CONTINUOUS
 90
16
 70
0
 10
-20.4903017779
 20
11.507655315
 10
-20.4763164383
 20
11.5204437772
 10
-20.4639219562
 20
11.5336456895
 10
-20.4531183318
 20
11.5471391437
 10
-20.4439601074
 20
11.5608779583
 10
-20.4363927407
 20
11.5745835925
 10
-20.4302526038
 20
11.5877877418
 10
-20.4256231053
 20
11.6002228663
 10
-20.4224208368
 20
11.6118451675
 10
-20.4202319446
 20
11.6225418711
 10
-20.419051965
 20
11.6322118605
 10
-20.4188853618
 20
11.6405741152
 10
-20.4193316723
 20
11.6473290153
 10
-20.4202574089
 20
11.6523879689
 10
-20.4217960592
 20
11.6557670275
 10
-20.4239476231
 20
11.6574497452
  0
LINE
  5
27D
100
AcDbEntity
  8
RACCORDO
100
AcDbLine
 62
7
  6
CONTINUOUS
 10
-20.4239476231
 20
14.8425502548
 11
-20.4684808743
 21
14.8251078967
  0
LWPOLYLINE
  5
27E
100
AcDbEntity
  8
RACCORDO
100
AcDbPolyline
 62
7
  6
CONTINUOUS
 90
3
 70
0
 10
-20.4684808743
 20
14.8251078967
 10
-20.4975068639
 20
14.813864513
 10
-20.5119099564
 20
14.8083630439
  0
LWPOLYLINE
  5
27F
100
AcDbEntity
  8
RACCORDO
100
AcDbPolyline
 62
7
  6
CONTINUOUS
 90
3
 70
0
 10
-20.5119099564
 20
14.8083630439
 10
-20.5406198798
 20
14.7976071707
 10
-20.5549020021
 20
14.7923514428
  0
LWPOLYLINE
  5
280
100
AcDbEntity
  8
RACCORDO
100
AcDbPolyline
 62
7
  6
CONTINUOUS
 90
3
 70
0
 10
-20.5119099564
 20
-14.8083630439
 10
-20.5262891979
 20
-14.8029443711
 10
-20.5549020021
 20
-14.7923514428
  0
LINE
  5
281
100
AcDbEntity
  8
RACCORDO
100
AcDbLine
 62
7
  6
CONTINUOUS
 10
-20.4830552119
 20
-14.8194474545
 11
-20.5119099564
 21
-14.8083630439
  0
LWPOLYLINE
  5
282
100
AcDbEntity
  8
RACCORDO
100
AcDbPolyline
 62
7
  6
CONTINUOUS
 90
3
 70
0
 10
-20.4239476231
 20
-14.8425502548
 10
-20.4389147256
 20
-14.8366586348
 10
-20.4830552119
 20
-14.8194474545
  0
LINE
  5
283
100
AcDbEntity
  8
RACCORDO
100
AcDbLine
 62
250
  6
CONTINUOUS
 10
-21.6541776388
 20
-1.9781437817
 11
-21.7308434758
 21
-1.7202000995
  0
LINE
  5
284
100
AcDbEntity
  8
RACCORDO
100
AcDbLine
 62
250
  6
CONTINUOUS
 10
-21.3545887783
 20
-1.6827014558
 11
-21.4312546154
 21
-1.4247577736
  0
LWPOLYLINE
  5
285
100
AcDbEntity
  8
RACCORDO
100
AcDbPolyline
 62
250
  6
CONTINUOUS
 90
12
 70
0
 10
-21.4312546154
 20
-1.4247577736
 10
-21.4322099717
 20
-1.4204746517
 10
-21.433114946
 20
-1.4149243806
 10
-21.4339695383
 20
-1.4081069603
 10
-21.434779264
 20
-1.3998226948
 10
-21.4355386078
 20
-1.39027128
 10
-21.436231023
 20
-1.3800518046
 10
-21.4368499688
 20
-1.3691885792
 10
-21.437401986
 20
-1.3576572931
 10
-21.4378901506
 20
-1.3459841021
 10
-21.4383093263
 20
-1.3344001695
 10
-21.4386646493
 20
-1.322674332
  0
LINE
  5
286
100
AcDbEntity
  8
RACCORDO
100
AcDbLine
 62
7
  6
CONTINUOUS
 10
-22.2715759627
 20
-1.9781437817
 11
-22.3098825962
 21
-1.7202000995
  0
LWPOLYLINE
  5
287
100
AcDbEntity
  8
RACCORDO
100
AcDbPolyline
 62
250
  6
CONTINUOUS
 90
7
 70
0
 10
-21.3500000083
 20
-1.707483188
 10
-21.350712203
 20
-1.7023122772
 10
-21.3514454379
 20
-1.6975576152
 10
-21.3521997128
 20
-1.693219202
 10
-21.3529750279
 20
-1.6892970378
 10
-21.3537713831
 20
-1.6857911224
 10
-21.3545887783
 20
-1.6827014558
  0
LWPOLYLINE
  5
288
100
AcDbEntity
  8
RACCORDO
100
AcDbPolyline
 62
250
  6
CONTINUOUS
 90
16
 70
0
 10
-19.3491350553
 20
-13.0553374127
 10
-19.3513248222
 20
-13.0210540039
 10
-19.356984151
 20
-12.9881425785
 10
-19.3661130417
 20
-12.9566031363
 10
-19.3792390579
 20
-12.9259196603
 10
-19.3958346359
 20
-12.8966081676
 10
-19.4143170851
 20
-12.8702167099
 10
-19.4343562526
 20
-12.8473988423
 10
-19.4562822914
 20
-12.8275010096
 10
-19.4795029696
 20
-12.8101105985
 10
-19.5035925596
 20
-12.7950879764
 10
-19.5289767891
 20
-12.7825727758
 10
-19.5563406094
 20
-12.7725712809
 10
-19.5859123376
 20
-12.7650855865
 10
-19.6174636567
 20
-12.7601135979
 10
-19.6509945665
 20
-12.757655315
  0
LWPOLYLINE
  5
289
100
AcDbEntity
  8
RACCORDO
100
AcDbPolyline
 62
250
  6
CONTINUOUS
 90
16
 70
0
 10
-20.032256019
 20
14.6946625873
 10
-20.0344457859
 20
14.7289459961
 10
-20.0401051147
 20
14.7618574215
 10
-20.0492340054
 20
14.7933968637
 10
-20.0623600215
 20
14.8240803397
 10
-20.0789555995
 20
14.8533918324
 10
-20.0974380488
 20
14.8797832901
 10
-20.1174772163
 20
14.9026011577
 10
-20.139403255
 20
14.9224989904
 10
-20.1626239332
 20
14.9398894015
 10
-20.1867135232
 20
14.9549120236
 10
-20.2120977527
 20
14.9674272242
 10
-20.239461573
 20
14.9774287191
 10
-20.2690333013
 20
14.9849144135
 10
-20.3005846203
 20
14.9898864021
 10
-20.3341155302
 20
14.992344685
  0
LWPOLYLINE
  5
28A
100
AcDbEntity
  8
RACCORDO
100
AcDbPolyline
 62
250
  6
CONTINUOUS
 90
16
 70
0
 10
-19.3491350553
 20
13.4446625873
 10
-19.3513248222
 20
13.4789459961
 10
-19.356984151
 20
13.5118574215
 10
-19.3661130417
 20
13.5433968637
 10
-19.3792390579
 20
13.5740803397
 10
-19.3958346359
 20
13.6033918324
 10
-19.4143170851
 20
13.6297832901
 10
-19.4343562526
 20
13.6526011577
 10
-19.4562822914
 20
13.6724989904
 10
-19.4795029696
 20
13.6898894015
 10
-19.5035925596
 20
13.7049120236
 10
-19.5289767891
 20
13.7174272242
 10
-19.5563406094
 20
13.7274287191
 10
-19.5859123376
 20
13.7349144135
 10
-19.6174636567
 20
13.7398864021
 10
-19.6509945665
 20
13.742344685
  0
LWPOLYLINE
  5
28B
100
AcDbEntity
  8
RACCORDO
100
AcDbPolyline
 62
250
  6
CONTINUOUS
 90
16
 70
0
 10
-19.4968565596
 20
-13.0553369656
 10
-19.4976969111
 20
-13.0384774503
 10
-19.5004845812
 20
-13.0219360426
 10
-19.5051592926
 20
-13.0059147487
 10
-19.5117263179
 20
-12.9904522639
 10
-19.5200318966
 20
-12.9758988679
 10
-19.5295999747
 20
-12.9628221217
 10
-19.539955622
 20
-12.9514829817
 10
-19.5510293621
 20
-12.9416240579
 10
-19.562904449
 20
-12.9329812573
 10
-19.5753270092
 20
-12.9256442225
 10
-19.58826612
 20
-12.9195611397
 10
-19.6023116854
 20
-12.9145032317
 10
-19.6176418098
 20
-12.9106136909
 10
-19.6339175166
 20
-12.908195867
 10
-19.6509951147
 20
-12.9074499081
  0
LWPOLYLINE
  5
28C
100
AcDbEntity
  8
RACCORDO
100
AcDbPolyline
 62
250
  6
CONTINUOUS
 90
16
 70
0
 10
-20.1799775233
 20
14.6946630344
 10
-20.1808178748
 20
14.7115225497
 10
-20.1836055449
 20
14.7280639574
 10
-20.1882802562
 20
14.7440852513
 10
-20.1948472815
 20
14.7595477361
 10
-20.2031528602
 20
14.7741011321
 10
-20.2127209383
 20
14.7871778783
 10
-20.2230765856
 20
14.7985170183
 10
-20.2341503257
 20
14.8083759421
 10
-20.2460254126
 20
14.8170187427
 10
-20.2584479729
 20
14.8243557775
 10
-20.2713870837
 20
14.8304388603
 10
-20.2854326491
 20
14.8354967683
 10
-20.3007627735
 20
14.8393863091
 10
-20.3170384802
 20
14.841804133
 10
-20.3341160784
 20
14.8425500919
  0
LWPOLYLINE
  5
28D
100
AcDbEntity
  8
RACCORDO
100
AcDbPolyline
 62
250
  6
CONTINUOUS
 90
16
 70
0
 10
-19.4968565596
 20
13.4446630344
 10
-19.4976969111
 20
13.4615225497
 10
-19.5004845812
 20
13.4780639574
 10
-19.5051592926
 20
13.4940852513
 10
-19.5117263179
 20
13.5095477361
 10
-19.5200318966
 20
13.5241011321
 10
-19.5295999747
 20
13.5371778783
 10
-19.539955622
 20
13.5485170183
 10
-19.5510293621
 20
13.5583759421
 10
-19.562904449
 20
13.5670187427
 10
-19.5753270092
 20
13.5743557775
 10
-19.58826612
 20
13.5804388603
 10
-19.6023116854
 20
13.5854967683
 10
-19.6176418098
 20
13.5893863091
 10
-19.6339175166
 20
13.591804133
 10
-19.6509951147
 20
13.5925500919
  0
LINE
  5
28E
100
AcDbEntity
  8
RACCORDO
100
AcDbLine
 62
7
  6
CONTINUOUS
 10
-20.3520806424
 20
-13.0999932422
 11
-20.3520806424
 21
-13.4000067578
  0
LINE
  5
28F
100
AcDbEntity
  8
RACCORDO
100
AcDbLine
 62
7
  6
CONTINUOUS
 10
-20.3520806424
 20
13.0999932422
 11
-20.3520806424
 21
13.4000067578
  0
LINE
  5
290
100
AcDbEntity
  8
RACCORDO
100
AcDbLine
 62
250
  6
CONTINUOUS
 10
-20.3341155302
 20
14.992344685
 11
-20.3341155303
 21
14.8425502548
  0
LINE
  5
291
100
AcDbEntity
  8
RACCORDO
100
AcDbLine
 62
250
  6
CONTINUOUS
 10
-20.3341155302
 20
-11.507655315
 11
-20.3341155303
 21
-11.6574497452
  0
LINE
  5
292
100
AcDbEntity
  8
RACCORDO
100
AcDbLine
 62
250
  6
CONTINUOUS
 10
-20.3341155302
 20
-14.992344685
 11
-20.3341155302
 21
-14.8425502548
  0
LINE
  5
293
100
AcDbEntity
  8
RACCORDO
100
AcDbLine
 62
250
  6
CONTINUOUS
 10
-20.3341155302
 20
11.507655315
 11
-20.3341155302
 21
11.6574497452
  0
LINE
  5
294
100
AcDbEntity
  8
RACCORDO
100
AcDbLine
 62
250
  6
CONTINUOUS
 10
-20.1799771819
 20
-14.6946631358
 11
-20.1799771819
 21
-13.5946235221
  0
LINE
  5
295
100
AcDbEntity
  8
RACCORDO
100
AcDbLine
 62
250
  6
CONTINUOUS
 10
-20.1799771819
 20
-12.9053764779
 11
-20.1799771819
 21
-11.8053368642
  0
LINE
  5
296
100
AcDbEntity
  8
RACCORDO
100
AcDbLine
 62
250
  6
CONTINUOUS
 10
-20.1799771819
 20
11.8053368642
 11
-20.1799771819
 21
12.9053764779
  0
LINE
  5
297
100
AcDbEntity
  8
RACCORDO
100
AcDbLine
 62
250
  6
CONTINUOUS
 10
-20.1799771819
 20
13.5946235221
 11
-20.1799771819
 21
14.6946631358
  0
LINE
  5
298
100
AcDbEntity
  8
RACCORDO
100
AcDbLine
 62
250
  6
CONTINUOUS
 10
-20.032256019
 20
-14.6946628604
 11
-20.032256019
 21
-13.742344685
  0
LINE
  5
299
100
AcDbEntity
  8
RACCORDO
100
AcDbLine
 62
250
  6
CONTINUOUS
 10
-20.032256019
 20
-12.757655315
 11
-20.032256019
 21
-11.8053374127
  0
LINE
  5
29A
100
AcDbEntity
  8
RACCORDO
100
AcDbLine
 62
250
  6
CONTINUOUS
 10
-20.032256019
 20
11.8053371396
 11
-20.032256019
 21
12.757655315
  0
LINE
  5
29B
100
AcDbEntity
  8
RACCORDO
100
AcDbLine
 62
250
  6
CONTINUOUS
 10
-20.032256019
 20
13.742344685
 11
-20.032256019
 21
14.6946625873
  0
LINE
  5
29C
100
AcDbEntity
  8
RACCORDO
100
AcDbLine
 62
250
  6
CONTINUOUS
 10
-20.0045995313
 20
-13.549801188
 11
-20.0045995313
 21
-12.950198812
  0
LINE
  5
29D
100
AcDbEntity
  8
RACCORDO
100
AcDbLine
 62
250
  6
CONTINUOUS
 10
-20.0045995313
 20
12.950198812
 11
-20.0045995313
 21
13.549801188
  0
LINE
  5
29E
100
AcDbEntity
  8
RACCORDO
100
AcDbLine
 62
250
  6
CONTINUOUS
 10
-19.6509945665
 20
13.742344685
 11
-19.6509945666
 21
13.5925502548
  0
LINE
  5
29F
100
AcDbEntity
  8
RACCORDO
100
AcDbLine
 62
250
  6
CONTINUOUS
 10
-19.6509945665
 20
-12.757655315
 11
-19.6509945666
 21
-12.9074497452
  0
LINE
  5
2A0
100
AcDbEntity
  8
RACCORDO
100
AcDbLine
 62
250
  6
CONTINUOUS
 10
-19.6509945665
 20
-13.742344685
 11
-19.6509945665
 21
-13.5925502548
  0
LINE
  5
2A1
100
AcDbEntity
  8
RACCORDO
100
AcDbLine
 62
250
  6
CONTINUOUS
 10
-19.6509945665
 20
12.757655315
 11
-19.6509945665
 21
12.9074497452
  0
LINE
  5
2A2
100
AcDbEntity
  8
RACCORDO
100
AcDbLine
 62
250
  6
CONTINUOUS
 10
-19.61067643
 20
-13.4108335738
 11
-19.61067643
 21
-13.0891664262
  0
LINE
  5
2A3
100
AcDbEntity
  8
RACCORDO
100
AcDbLine
 62
250
  6
CONTINUOUS
 10
-19.61067643
 20
13.0891664262
 11
-19.61067643
 21
13.4108335738
  0
LINE
  5
2A4
100
AcDbEntity
  8
RACCORDO
100
AcDbLine
 62
250
  6
CONTINUOUS
 10
-19.4968562183
 20
-13.4446631358
 11
-19.4968562183
 21
-13.0553368642
  0
LINE
  5
2A5
100
AcDbEntity
  8
RACCORDO
100
AcDbLine
 62
250
  6
CONTINUOUS
 10
-19.4968562183
 20
13.0553368642
 11
-19.4968562183
 21
13.4446631358
  0
LINE
  5
2A6
100
AcDbEntity
  8
RACCORDO
100
AcDbLine
 62
250
  6
CONTINUOUS
 10
-19.3491350553
 20
-13.4446631358
 11
-19.3491350553
 21
-13.0553374127
  0
LINE
  5
2A7
100
AcDbEntity
  8
RACCORDO
100
AcDbLine
 62
250
  6
CONTINUOUS
 10
-19.3491350553
 20
13.0553368642
 11
-19.3491350553
 21
13.4446625873
  0
LWPOLYLINE
  5
2A8
100
AcDbEntity
  8
RACCORDO
100
AcDbPolyline
 62
250
  6
CONTINUOUS
 90
13
 70
0
 10
-19.61067643
 20
-13.4108335738
 10
-19.6120998746
 20
-13.430273992
 10
-19.6159976728
 20
-13.4493856116
 10
-19.6223039005
 20
-13.4678451953
 10
-19.6309118996
 20
-13.4853405334
 10
-19.6416760818
 20
-13.5015757249
 10
-19.6544143911
 20
-13.5162761819
 10
-19.6689113826
 20
-13.5291932733
 10
-19.6849218668
 20
-13.5401085307
 10
-19.7021750561
 20
-13.5488373429
 10
-19.720379145
 20
-13.5552320782
 10
-19.7392262452
 20
-13.5591845816
 10
-19.758397593
 20
-13.560628004
  0
LWPOLYLINE
  5
2A9
100
AcDbEntity
  8
RACCORDO
100
AcDbPolyline
 62
250
  6
CONTINUOUS
 90
16
 70
0
 10
-21.6541776388
 20
1.9781437817
 10
-21.6519843485
 20
1.9812373254
 10
-21.649888108
 20
1.9855916746
 10
-21.6478889175
 20
1.9911582704
 10
-21.6459747435
 20
1.9978701676
 10
-21.6441576194
 20
2.0056655264
 10
-21.6424736451
 20
2.0145007964
 10
-21.6409216907
 20
2.0243149104
 10
-21.639502886
 20
2.0350143315
 10
-21.6382567203
 20
2.0465042983
 10
-21.6371887546
 20
2.0586933518
 10
-21.6362934279
 20
2.0714698915
 10
-21.6355935456
 20
2.0846956482
 10
-21.6350967094
 20
2.0982445289
 10
-21.6347953175
 20
2.1120073104
 10
-21.63468937
 20
2.1258649447
  0
LINE
  5
2AA
100
AcDbEntity
  8
DRAFT
100
AcDbLine
 62
7
  6
CONTINUOUS
 10
-20.8949489743
 20
11.65
 11
-20.8270299161
 21
11.6766416235
  0
LINE
  5
2AB
100
AcDbEntity
  8
DRAFT
100
AcDbLine
 62
7
  6
CONTINUOUS
 10
-20.8270299161
 20
11.6766416235
 11
-20.7940522821
 21
11.6893616969
  0
LWPOLYLINE
  5
2AC
100
AcDbEntity
  8
DRAFT
100
AcDbPolyline
 62
7
  6
CONTINUOUS
 90
3
 70
0
 10
-20.7940522821
 20
11.6893616969
 10
-20.7613356945
 20
11.7016579871
 10
-20.7450979979
 20
11.7076485572
  0
LINE
  5
2AD
100
AcDbEntity
  8
RACCORDO
100
AcDbLine
 62
250
  6
CONTINUOUS
 10
-20.8240902598
 20
14.6969203156
 11
-20.3341155302
 21
14.8425502548
  0
LINE
  5
2AE
100
AcDbEntity
  8
RACCORDO
100
AcDbLine
 62
250
  6
CONTINUOUS
 10
-20.6763690968
 20
14.5471258854
 11
-20.1799771819
 21
14.6946631358
  0
LINE
  5
2AF
100
AcDbEntity
  8
RACCORDO
100
AcDbLine
 62
7
  6
CONTINUOUS
 10
-20.1831857746
 20
13.5925502548
 11
-20.3270158315
 21
13.549801188
  0
LINE
  5
2B0
100
AcDbEntity
  8
RACCORDO
100
AcDbLine
 62
250
  6
CONTINUOUS
 10
-19.758397593
 20
13.560628004
 11
-19.6509945665
 21
13.5925502548
  0
LINE
  5
2B1
100
AcDbEntity
  8
RACCORDO
100
AcDbLine
 62
250
  6
CONTINUOUS
 10
-19.61067643
 20
13.4108335738
 11
-19.4968562183
 21
13.4446631358
  0
LINE
  5
2B2
100
AcDbEntity
  8
RACCORDO
100
AcDbLine
 62
250
  6
CONTINUOUS
 10
-20.3341155302
 20
-14.8425502548
 11
-20.8240902598
 21
-14.6969203156
  0
LINE
  5
2B3
100
AcDbEntity
  8
RACCORDO
100
AcDbLine
 62
250
  6
CONTINUOUS
 10
-20.1799771819
 20
-14.6946631358
 11
-20.6763690968
 21
-14.5471258854
  0
LINE
  5
2B4
100
AcDbEntity
  8
RACCORDO
100
AcDbLine
 62
7
  6
CONTINUOUS
 10
-20.1831857746
 20
-13.5925502548
 11
-20.3270158315
 21
-13.549801188
  0
LINE
  5
2B5
100
AcDbEntity
  8
RACCORDO
100
AcDbLine
 62
250
  6
CONTINUOUS
 10
-19.758397593
 20
-13.560628004
 11
-19.6509945665
 21
-13.5925502548
  0
LINE
  5
2B6
100
AcDbEntity
  8
RACCORDO
100
AcDbLine
 62
250
  6
CONTINUOUS
 10
-19.61067643
 20
-13.4108335738
 11
-19.4968562183
 21
-13.4446631358
  0
LWPOLYLINE
  5
2B7
100
AcDbEntity
  8
DRAFT
100
AcDbPolyline
 62
7
  6
CONTINUOUS
 90
3
 70
0
 10
-20.7940522821
 20
-11.6893616969
 10
-20.7776537892
 20
-11.695562367
 10
-20.7450979979
 20
-11.7076485572
  0
LINE
  5
2B8
100
AcDbEntity
  8
DRAFT
100
AcDbLine
 62
7
  6
CONTINUOUS
 10
-20.8270299161
 20
-11.6766416235
 11
-20.7940522821
 21
-11.6893616969
  0
LINE
  5
2B9
100
AcDbEntity
  8
DRAFT
100
AcDbLine
 62
7
  6
CONTINUOUS
 10
-20.8949489743
 20
-11.65
 11
-20.8270299161
 21
-11.6766416235
  0
LINE
  5
2BA
100
AcDbEntity
  8
RACCORDO
100
AcDbLine
 62
250
  6
CONTINUOUS
 10
-21.5
 20
-17.2881634904
 11
-20.9947634805
 21
-17.2881634904
  0
LINE
  5
2BB
100
AcDbEntity
  8
RACCORDO
100
AcDbLine
 62
250
  6
CONTINUOUS
 10
20.9947634805
 20
-17.2881634904
 11
21.5
 21
-17.2881634904
  0
LINE
  5
2BC
100
AcDbEntity
  8
0
100
AcDbLine
 62
250
  6
CONTINUOUS
 10
20.9947634805
 20
-17.2881634904
 11
-20.9947634805
 21
-17.2881634904
  0
LINE
  5
2BD
100
AcDbEntity
  8
RACCORDO
100
AcDbLine
 62
250
  6
CONTINUOUS
 10
-21.5
 20
-17.1171534187
 11
-20.9952898151
 21
-17.1171534187
  0
LINE
  5
2BE
100
AcDbEntity
  8
RACCORDO
100
AcDbLine
 62
250
  6
CONTINUOUS
 10
20.9952898151
 20
-17.1171534187
 11
21.5
 21
-17.1171534187
  0
LINE
  5
2BF
100
AcDbEntity
  8
0
100
AcDbLine
 62
250
  6
CONTINUOUS
 10
20.9952898151
 20
-17.1171534187
 11
-20.9952898151
 21
-17.1171534187
  0
LINE
  5
2C0
100
AcDbEntity
  8
RACCORDO
100
AcDbLine
 62
250
  6
CONTINUOUS
 10
-21.5
 20
-16.4586033555
 11
-20.9994736654
 21
-16.4586033555
  0
LINE
  5
2C1
100
AcDbEntity
  8
RACCORDO
100
AcDbLine
 62
250
  6
CONTINUOUS
 10
20.9994736654
 20
-16.4586033555
 11
21.5
 21
-16.4586033555
  0
LINE
  5
2C2
100
AcDbEntity
  8
0
100
AcDbLine
 62
250
  6
CONTINUOUS
 10
20.9994736654
 20
-16.4586033555
 11
-20.9994736654
 21
-16.4586033555
  0
LINE
  5
2C3
100
AcDbEntity
  8
RACCORDO
100
AcDbLine
 62
250
  6
CONTINUOUS
 10
-21.5
 20
-16.2875932838
 11
-21.0
 21
-16.2875932838
  0
LINE
  5
2C4
100
AcDbEntity
  8
RACCORDO
100
AcDbLine
 62
250
  6
CONTINUOUS
 10
21.0
 20
-16.2875932838
 11
21.5
 21
-16.2875932838
  0
LINE
  5
2C5
100
AcDbEntity
  8
0
100
AcDbLine
 62
250
  6
CONTINUOUS
 10
21.0
 20
-16.2875932838
 11
-21.0
 21
-16.2875932838
  0
LWPOLYLINE
  5
2C6
100
AcDbEntity
  8
RACCORDO
100
AcDbPolyline
 62
250
  6
CONTINUOUS
 90
16
 70
0
 10
-20.3341159992
 20
-14.992344685
 10
-20.3012881612
 20
-14.9904597982
 10
-20.2696123161
 20
-14.9854475723
 10
-20.2390884638
 20
-14.9773080073
 10
-20.2093744591
 20
-14.9658011872
 10
-20.1808124472
 20
-14.9511670279
 10
-20.1544288638
 20
-14.9341252774
 10
-20.1304534266
 20
-14.9147681804
 10
-20.1086564179
 20
-14.8930034923
 10
-20.0893751198
 20
-14.8692742271
 10
-20.0725343966
 20
-14.8434267856
 10
-20.058209384
 20
-14.8156147671
 10
-20.046962771
 20
-14.7867419841
 10
-20.0389821207
 20
-14.7571097074
 10
-20.03407987
 20
-14.7264166662
 10
-20.032256019
 20
-14.6946628604
  0
LWPOLYLINE
  5
2C7
100
AcDbEntity
  8
RACCORDO
100
AcDbPolyline
 62
250
  6
CONTINUOUS
 90
19
 70
0
 10
19.6509951504
 20
-12.757655315
 10
19.6208321847
 20
-12.759328609
 10
19.5917462363
 20
-12.7635363195
 10
19.563737305
 20
-12.7702784464
 10
19.5364678157
 20
-12.7798868607
 10
19.5102753437
 20
-12.7920296914
 10
19.4861726146
 20
-12.8057113263
 10
19.4645324043
 20
-12.8208455482
 10
19.444981937
 20
-12.8375185741
 10
19.4274156115
 20
-12.8549934428
 10
19.4119353989
 20
-12.8729672831
 10
19.398439328
 20
-12.891742966
 10
19.3865158848
 20
-12.9114921434
 10
19.3759553915
 20
-12.9321030337
 10
19.3669675259
 20
-12.9536874184
 10
19.3597698075
 20
-12.9767522941
 10
19.3544347429
 20
-13.0014666598
 10
19.3508898255
 20
-13.0276615165
 10
19.3491350553
 20
-13.0553368642
  0
LINE
  5
2C8
100
AcDbEntity
  8
RACCORDO
100
AcDbLine
 62
7
  6
CONTINUOUS
 10
-21.8177407521
 20
-14.6969203156
 11
-21.85
 21
-14.6986109511
  0
LWPOLYLINE
  5
2C9
100
AcDbEntity
  8
RACCORDO
100
AcDbPolyline
 62
250
  6
CONTINUOUS
 90
16
 70
0
 10
-20.3341163694
 20
-14.8425500054
 10
-20.3174906161
 20
-14.841851
 10
-20.3011417282
 20
-14.8394661418
 10
-20.2852408008
 20
-14.8354373645
 10
-20.2699106714
 20
-14.829810836
 10
-20.2553533512
 20
-14.8226692525
 10
-20.2418305
 20
-14.814165788
 10
-20.2295438701
 20
-14.8045083039
 10
-20.2184872062
 20
-14.7937805932
 10
-20.2086151369
 20
-14.7819455041
 10
-20.199998256
 20
-14.7690382538
 10
-20.1928013782
 20
-14.7552507569
 10
-20.1871402062
 20
-14.7407591343
 10
-20.1830883048
 20
-14.7257293252
 10
-20.1806889024
 20
-14.710308992
 10
-20.1799774393
 20
-14.6946630593
  0
LWPOLYLINE
  5
2CA
100
AcDbEntity
  8
RACCORDO
100
AcDbPolyline
 62
250
  6
CONTINUOUS
 90
19
 70
0
 10
19.6509952869
 20
-12.9074499593
 10
19.6356630089
 20
-12.9080349341
 10
19.6206590402
 20
-12.9100344724
 10
19.6061106973
 20
-12.9133875555
 10
19.5920313557
 20
-12.9180611945
 10
19.5786401662
 20
-12.9239536313
 10
19.5663199673
 20
-12.9308051536
 10
19.555221978
 20
-12.938367985
 10
19.54523176
 20
-12.9465452339
 10
19.5362781947
 20
-12.9552488589
 10
19.5284242219
 20
-12.9642650786
 10
19.5215683253
 20
-12.9735577698
 10
19.515465784
 20
-12.9833904363
 10
19.5101562059
 20
-12.9937034249
 10
19.5056849539
 20
-13.0044468507
 10
19.5019821289
 20
-13.0159876778
 10
19.4991593983
 20
-13.0284311952
 10
19.497403825
 20
-13.0415759066
 10
19.4968563362
 20
-13.0553368992
  0
LINE
  5
2CB
100
AcDbEntity
  8
DRAFT
100
AcDbLine
 62
7
  6
CONTINUOUS
 10
21.35
 20
-14.7373232745
 11
21.85
 21
-14.7221944518
  0
LWPOLYLINE
  5
2CC
100
AcDbEntity
  8
RACCORDO
100
AcDbPolyline
 62
250
  6
CONTINUOUS
 90
9
 70
0
 10
19.7664763493
 20
-13.4025802972
 10
19.7381444854
 20
-13.4033391714
 10
19.7117699183
 20
-13.4041836102
 10
19.6876014373
 20
-13.4051177436
 10
19.6659962452
 20
-13.4061374418
 10
19.6472518922
 20
-13.4072210576
 10
19.631631562
 20
-13.4083613753
 10
19.6193683193
 20
-13.4095656106
 10
19.61067643
 20
-13.4108337635
  0
LWPOLYLINE
  5
2CD
100
AcDbEntity
  8
0
100
AcDbPolyline
 62
7
  6
CONTINUOUS
 90
10
 70
0
 10
0.944813101
 20
-14.4381742759
 10
0.9846937884
 20
-14.4373820152
 10
1.0231859473
 20
-14.4347558881
 10
1.0602895777
 20
-14.4302958943
 10
1.0961359755
 20
-14.4240026941
 10
1.1305938449
 20
-14.4158756274
 10
1.163269298
 20
-14.405912714
 10
1.1940310392
 20
-14.3941132941
 10
1.2230103641
 20
-14.3804780276
 10
1.2502072729
 20
-14.3650069144
  0
LWPOLYLINE
  5
2CE
100
AcDbEntity
  8
0
100
AcDbPolyline
 62
7
  6
CONTINUOUS
 90
10
 70
0
 10
-0.493084462
 20
-14.4381742759
 10
-0.4532037746
 20
-14.4373820152
 10
-0.4147116157
 20
-14.4347558881
 10
-0.3776079853
 20
-14.4302958943
 10
-0.3417615875
 20
-14.4240026941
 10
-0.3073037181
 20
-14.4158756274
 10
-0.2746282649
 20
-14.405912714
 10
-0.2438665238
 20
-14.3941132941
 10
-0.2148871988
 20
-14.3804780276
 10
-0.18769029
 20
-14.3650069144
  0
LWPOLYLINE
  5
2CF
100
AcDbEntity
  8
0
100
AcDbPolyline
 62
7
  6
CONTINUOUS
 90
10
 70
0
 10
-1.930982025
 20
-14.4381742759
 10
-1.8911013376
 20
-14.4373820152
 10
-1.8526091787
 20
-14.4347558881
 10
-1.8155055483
 20
-14.4302958943
 10
-1.7796591505
 20
-14.4240026941
 10
-1.7452012811
 20
-14.4158756274
 10
-1.7125258279
 20
-14.405912714
 10
-1.6817640868
 20
-14.3941132941
 10
-1.6527847618
 20
-14.3804780276
 10
-1.625587853
 20
-14.3650069144
  0
LINE
  5
2D0
100
AcDbEntity
  8
RACCORDO
100
AcDbLine
 62
250
  6
CONTINUOUS
 10
19.8283392102
 20
-13.4013476917
 11
19.7664763493
 21
-13.4025802972
  0
LWPOLYLINE
  5
2D1
100
AcDbEntity
  8
0
100
AcDbPolyline
 62
7
  6
CONTINUOUS
 90
10
 70
0
 10
-4.8290456817
 20
-14.4349930844
 10
-4.7952990808
 20
-14.4345352695
 10
-4.7624255716
 20
-14.4328871976
 10
-4.7304251541
 20
-14.4300488689
 10
-4.6992279388
 20
-14.4260479966
 10
-4.6689038152
 20
-14.4208568674
 10
-4.6396624518
 20
-14.4143923413
 10
-4.6115737381
 20
-14.406626705
 10
-4.5845677846
 20
-14.3975876718
 10
-4.5586445913
 20
-14.3872752417
  0
LWPOLYLINE
  5
2D2
100
AcDbEntity
  8
RACCORDO
100
AcDbPolyline
 62
250
  6
CONTINUOUS
 90
3
 70
0
 10
19.9312333829
 20
-13.4002350555
 10
19.8956516554
 20
-13.4005022785
 10
19.8283392102
 20
-13.4013476917
  0
LWPOLYLINE
  5
2D3
100
AcDbEntity
  8
RACCORDO
100
AcDbPolyline
 62
250
  6
CONTINUOUS
 90
15
 70
0
 10
19.9812113415
 20
-13.5498641935
 10
19.9585138671
 20
-13.55002931
 10
19.9365071079
 20
-13.5502965374
 10
19.915094418
 20
-13.5506683379
 10
19.8943724433
 20
-13.5511422494
 10
19.8746311224
 20
-13.5517108859
 10
19.8558226398
 20
-13.5523747868
 10
19.8379948109
 20
-13.5531334128
 10
19.8215810203
 20
-13.5539777596
 10
19.8065502573
 20
-13.5549121575
 10
19.7929335325
 20
-13.5559322763
 10
19.781257262
 20
-13.5570161199
 10
19.771696918
 20
-13.5581563564
 10
19.7640770283
 20
-13.5593603177
 10
19.758397593
 20
-13.560628004
  0
LINE
  5
2D4
100
AcDbEntity
  8
RACCORDO
100
AcDbLine
 62
7
  6
CONTINUOUS
 10
22.2683301451
 20
-15.75
 11
22.1
 21
-15.75
  0
LINE
  5
2D5
100
AcDbEntity
  8
RACCORDO
100
AcDbLine
 62
7
  6
CONTINUOUS
 10
-22.2683301451
 20
-15.75
 11
-22.1
 21
-15.75
  0
LINE
  5
2D6
100
AcDbEntity
  8
RACCORDO
100
AcDbLine
 62
7
  6
CONTINUOUS
 10
-5.75
 20
-15.3
 11
5.75
 21
-15.3
  0
LINE
  5
2D7
100
AcDbEntity
  8
RACCORDO
100
AcDbLine
 62
250
  6
CONTINUOUS
 10
-20.4903017779
 20
-14.992344685
 11
-20.3341159992
 21
-14.992344685
  0
LINE
  5
2D8
100
AcDbEntity
  8
RACCORDO
100
AcDbLine
 62
250
  6
CONTINUOUS
 10
20.3341155302
 20
-14.992344685
 11
20.4903017779
 21
-14.992344685
  0
LINE
  5
2D9
100
AcDbEntity
  8
DRAFT
100
AcDbLine
 62
7
  6
CONTINUOUS
 10
21.1996573543
 20
-14.8669049234
 11
21.0
 21
-14.8669049234
  0
LINE
  5
2DA
100
AcDbEntity
  8
0
100
AcDbLine
 62
7
  6
CONTINUOUS
 10
21.1996573543
 20
-14.8669049234
 11
21.0
 21
-14.8669049234
  0
LINE
  5
2DB
100
AcDbEntity
  8
DRAFT
100
AcDbLine
 62
7
  6
CONTINUOUS
 10
-21.0
 20
-14.8669049234
 11
-21.1996573543
 21
-14.8669049234
  0
LINE
  5
2DC
100
AcDbEntity
  8
0
100
AcDbLine
 62
7
  6
CONTINUOUS
 10
-21.0
 20
-14.8669049234
 11
-21.1996573543
 21
-14.8669049234
  0
LINE
  5
2DD
100
AcDbEntity
  8
DRAFT
100
AcDbLine
 62
7
  6
CONTINUOUS
 10
21.1996573543
 20
-14.85
 11
20.8949489743
 21
-14.85
  0
LINE
  5
2DE
100
AcDbEntity
  8
DRAFT
100
AcDbLine
 62
7
  6
CONTINUOUS
 10
-20.8949489743
 20
-14.85
 11
-21.1996573543
 21
-14.85
  0
LINE
  5
2DF
100
AcDbEntity
  8
RACCORDO
100
AcDbLine
 62
250
  6
CONTINUOUS
 10
-20.4239476231
 20
-14.8425502548
 11
-20.3341155302
 21
-14.8425502548
  0
LINE
  5
2E0
100
AcDbEntity
  8
RACCORDO
100
AcDbLine
 62
250
  6
CONTINUOUS
 10
20.3341155302
 20
-14.8425502548
 11
20.4239476231
 21
-14.8425502548
  0
LINE
  5
2E1
100
AcDbEntity
  8
DRAFT
100
AcDbLine
 62
7
  6
CONTINUOUS
 10
-20.7450979979
 20
-14.7923514428
 11
-20.5549020021
 21
-14.7923514428
  0
LINE
  5
2E2
100
AcDbEntity
  8
DRAFT
100
AcDbLine
 62
7
  6
CONTINUOUS
 10
20.5549020021
 20
-14.7923514428
 11
20.7450979979
 21
-14.7923514428
  0
LINE
  5
2E3
100
AcDbEntity
  8
RACCORDO
100
AcDbLine
 62
250
  6
CONTINUOUS
 10
21.8177407521
 20
-14.6969203156
 11
20.8240902598
 21
-14.6969203156
  0
LINE
  5
2E4
100
AcDbEntity
  8
RACCORDO
100
AcDbLine
 62
250
  6
CONTINUOUS
 10
-20.8240902598
 20
-14.6969203156
 11
-21.8177407521
 21
-14.6969203156
  0
LINE
  5
2E5
100
AcDbEntity
  8
RACCORDO
100
AcDbLine
 62
250
  6
CONTINUOUS
 10
-20.032256019
 20
-14.6946631358
 11
-20.1799771819
 21
-14.6946631352
  0
LINE
  5
2E6
100
AcDbEntity
  8
RACCORDO
100
AcDbLine
 62
250
  6
CONTINUOUS
 10
20.032256019
 20
-14.6946631358
 11
20.1799771819
 21
-14.6946631358
  0
LINE
  5
2E7
100
AcDbEntity
  8
0
100
AcDbLine
 62
7
  6
CONTINUOUS
 10
-3.3879668608
 20
-14.4
 11
-3.123928149
 21
-14.4
  0
LINE
  5
2E8
100
AcDbEntity
  8
0
100
AcDbLine
 62
7
  6
CONTINUOUS
 10
1.698755376
 20
-14.4
 11
1.9691563293
 21
-14.4
  0
LINE
  5
2E9
100
AcDbEntity
  8
0
100
AcDbLine
 62
7
  6
CONTINUOUS
 10
3.0921160147
 20
-14.4
 11
3.3720606729
 21
-14.4
  0
LINE
  5
2EA
100
AcDbEntity
  8
0
100
AcDbLine
 62
7
  6
CONTINUOUS
 10
3.6329184696
 20
-14.4
 11
3.9033194229
 21
-14.4
  0
LINE
  5
2EB
100
AcDbEntity
  8
0
100
AcDbLine
 62
7
  6
CONTINUOUS
 10
4.2596126243
 20
-14.4
 11
5.3952970669
 21
-14.4
  0
LINE
  5
2EC
100
AcDbEntity
  8
RACCORDO
100
AcDbLine
 62
250
  6
CONTINUOUS
 10
21.4386751346
 20
-14.2974685017
 11
20.7181437817
 21
-14.2974685017
  0
LINE
  5
2ED
100
AcDbEntity
  8
RACCORDO
100
AcDbLine
 62
250
  6
CONTINUOUS
 10
-20.7181437817
 20
-14.2974685017
 11
-21.4386751346
 21
-14.2974685017
  0
LINE
  5
2EE
100
AcDbEntity
  8
0
100
AcDbLine
 62
7
  6
CONTINUOUS
 10
5.3952970669
 20
-14.199585057
 11
4.5363756821
 21
-14.199585057
  0
LINE
  5
2EF
100
AcDbEntity
  8
0
100
AcDbLine
 62
7
  6
CONTINUOUS
 10
3.9033194229
 20
-14.1009681717
 11
3.6329184696
 21
-14.1009681717
  0
LINE
  5
2F0
100
AcDbEntity
  8
0
100
AcDbLine
 62
7
  6
CONTINUOUS
 10
-5.1376210779
 20
-13.8305670813
 11
-5.3984786261
 21
-13.8305670813
  0
LINE
  5
2F1
100
AcDbEntity
  8
0
100
AcDbLine
 62
7
  6
CONTINUOUS
 10
2.1313971207
 20
-13.8178422898
 11
2.9298752233
 21
-13.8178422898
  0
LINE
  5
2F2
100
AcDbEntity
  8
RACCORDO
100
AcDbLine
 62
250
  6
CONTINUOUS
 10
-20.032256019
 20
-13.742344685
 11
-19.6509951504
 21
-13.742344685
  0
LINE
  5
2F3
100
AcDbEntity
  8
RACCORDO
100
AcDbLine
 62
250
  6
CONTINUOUS
 10
19.6509945665
 20
-13.742344685
 11
20.032256019
 21
-13.742344685
  0
LINE
  5
2F4
100
AcDbEntity
  8
0
100
AcDbLine
 62
7
  6
CONTINUOUS
 10
2.8662514374
 20
-13.6015214175
 11
2.1982019588
 21
-13.6015214175
  0
LINE
  5
2F5
100
AcDbEntity
  8
RACCORDO
100
AcDbLine
 62
250
  6
CONTINUOUS
 10
-20.1831857746
 20
-13.5925502548
 11
-19.6509945665
 21
-13.5925502548
  0
LINE
  5
2F6
100
AcDbEntity
  8
RACCORDO
100
AcDbLine
 62
250
  6
CONTINUOUS
 10
19.6509945665
 20
-13.5925502548
 11
20.1831857746
 21
-13.5925502548
  0
LINE
  5
2F7
100
AcDbEntity
  8
RACCORDO
100
AcDbLine
 62
250
  6
CONTINUOUS
 10
20.3270158315
 20
-13.549801188
 11
19.9812113415
 21
-13.5498641935
  0
LWPOLYLINE
  5
2F8
100
AcDbEntity
  8
RACCORDO
100
AcDbPolyline
 62
250
  6
CONTINUOUS
 90
19
 70
0
 10
-20.3270158315
 20
-13.549801188
 10
-19.9807094202
 20
-13.5498758185
 10
-19.9578605961
 20
-13.5500431883
 10
-19.9360530589
 20
-13.5503032976
 10
-19.9151345223
 20
-13.5506689543
 10
-19.8952572727
 20
-13.5511273503
 10
-19.8768781694
 20
-13.5516400617
 10
-19.8601761493
 20
-13.5522044419
 10
-19.8449722757
 20
-13.5528231376
 10
-19.8311865978
 20
-13.5534656639
 10
-19.81893593
 20
-13.554119832
 10
-19.8081034581
 20
-13.5547978307
 10
-19.7982587886
 20
-13.5555057422
 10
-19.7892835031
 20
-13.55623691
 10
-19.7812960201
 20
-13.5569979905
 10
-19.7742212015
 20
-13.5578150351
 10
-19.768034001
 20
-13.5586967274
 10
-19.7627594649
 20
-13.5596343837
 10
-19.758397593
 20
-13.560628004
  0
LINE
  5
2F9
100
AcDbEntity
  8
RACCORDO
100
AcDbLine
 62
250
  6
CONTINUOUS
 10
-19.9301155083
 20
-13.400248925
 11
-19.8613080771
 21
-13.4008746341
  0
LWPOLYLINE
  5
2FA
100
AcDbEntity
  8
0
100
AcDbPolyline
 62
7
  6
CONTINUOUS
 90
10
 70
0
 10
-4.8385892496
 20
-14.2345781393
 10
-4.8568727965
 20
-14.2343456562
 10
-4.8746904524
 20
-14.2333978167
 10
-4.8920422173
 20
-14.2317346207
 10
-4.9089816135
 20
-14.2293851621
 10
-4.9254551187
 20
-14.2263203471
 10
-4.9413021655
 20
-14.2224528944
 10
-4.9564692314
 20
-14.2177537102
 10
-4.971009839
 20
-14.2122518884
 10
-4.9849239881
 20
-14.2059474288
  0
LINE
  5
2FB
100
AcDbEntity
  8
RACCORDO
100
AcDbLine
 62
250
  6
CONTINUOUS
 10
-19.8613080771
 20
-13.4008746341
 11
-19.8002453512
 21
-13.4018455543
  0
LWPOLYLINE
  5
2FC
100
AcDbEntity
  8
0
100
AcDbPolyline
 62
7
  6
CONTINUOUS
 90
10
 70
0
 10
-1.930982025
 20
-14.2377593286
 10
-1.9528523571
 20
-14.2373275249
 10
-1.9738926744
 20
-14.2356382663
 10
-1.9941029769
 20
-14.2326915526
 10
-2.0136057526
 20
-14.2284872933
 10
-2.0322785134
 20
-14.223025579
 10
-2.0497537956
 20
-14.2163066818
 10
-2.0659091112
 20
-14.2083306924
 10
-2.0808669482
 20
-14.1990975201
 10
-2.0946273065
 20
-14.1886071649
  0
LWPOLYLINE
  5
2FD
100
AcDbEntity
  8
0
100
AcDbPolyline
 62
7
  6
CONTINUOUS
 90
10
 70
0
 10
-0.493084462
 20
-14.2377593286
 10
-0.5149548148
 20
-14.2373275159
 10
-0.5359951524
 20
-14.2356382466
 10
-0.5562054746
 20
-14.2326915207
 10
-0.5757082756
 20
-14.2284872424
 10
-0.5943810612
 20
-14.2230255075
 10
-0.6118563491
 20
-14.2163066035
 10
-0.628011645
 20
-14.2083306263
 10
-0.6429694432
 20
-14.1990974801
 10
-0.6567297436
 20
-14.1886071649
  0
LWPOLYLINE
  5
2FE
100
AcDbEntity
  8
0
100
AcDbPolyline
 62
7
  6
CONTINUOUS
 90
10
 70
0
 10
0.944813101
 20
-14.2377593286
 10
0.9229427481
 20
-14.2373275159
 10
0.9019024106
 20
-14.2356382466
 10
0.8816920884
 20
-14.2326915207
 10
0.8621892874
 20
-14.2284872424
 10
0.8435165017
 20
-14.2230255075
 10
0.8260412139
 20
-14.2163066035
 10
0.8098859179
 20
-14.2083306263
 10
0.7949281198
 20
-14.1990974801
 10
0.7811678194
 20
-14.1886071649
  0
LINE
  5
2FF
100
AcDbEntity
  8
RACCORDO
100
AcDbLine
 62
250
  6
CONTINUOUS
 10
-19.8002453512
 20
-13.4018455543
 11
-19.7491404131
 21
-13.4030287151
  0
LINE
  5
300
100
AcDbEntity
  8
DRAFT
100
AcDbLine
 62
7
  6
CONTINUOUS
 10
-21.85
 20
-14.7221944518
 11
-21.35
 21
-14.7373232745
  0
LWPOLYLINE
  5
301
100
AcDbEntity
  8
RACCORDO
100
AcDbPolyline
 62
250
  6
CONTINUOUS
 90
10
 70
0
 10
-19.7491404131
 20
-13.4030287151
 10
-19.7076270457
 20
-13.4043255124
 10
-19.6902902211
 20
-13.4050035496
 10
-19.6744543449
 20
-13.4057114372
 10
-19.6601939569
 20
-13.4064424476
 10
-19.6475159163
 20
-13.4072033084
 10
-19.6359941992
 20
-13.4080202303
 10
-19.6257499148
 20
-13.4089019503
 10
-19.6172210428
 20
-13.4098397315
 10
-19.61067643
 20
-13.4108335738
  0
LINE
  5
302
100
AcDbEntity
  8
RACCORDO
100
AcDbLine
 62
7
  6
CONTINUOUS
 10
21.85
 20
-14.6986109511
 11
21.8177407521
 21
-14.6969203156
  0
LWPOLYLINE
  5
303
100
AcDbEntity
  8
RACCORDO
100
AcDbPolyline
 62
250
  6
CONTINUOUS
 90
13
 70
0
 10
-19.758397593
 20
-12.939371996
 10
-19.739226245
 20
-12.9408154184
 10
-19.7203791447
 20
-12.9447679219
 10
-19.7021750557
 20
-12.9511626573
 10
-19.6849218663
 20
-12.9598914696
 10
-19.6689113821
 20
-12.9708067271
 10
-19.6544143905
 20
-12.9837238187
 10
-19.6416760813
 20
-12.9984242756
 10
-19.6309118991
 20
-13.0146594672
 10
-19.6223039001
 20
-13.0321548053
 10
-19.6159976726
 20
-13.0506143888
 10
-19.6120998745
 20
-13.0697260083
 10
-19.61067643
 20
-13.0891664262
  0
LWPOLYLINE
  5
304
100
AcDbEntity
  8
0
100
AcDbPolyline
 62
7
  6
CONTINUOUS
 90
10
 70
0
 10
-4.7622407064
 20
-13.3311203271
 10
-4.7430173093
 20
-13.3360229523
 10
-4.724665645
 20
-13.3418021242
 10
-4.7071857134
 20
-13.3484578427
 10
-4.6905738171
 20
-13.3560255122
 10
-4.6748336536
 20
-13.3644697283
 10
-4.6599763154
 20
-13.3736842778
 10
-4.6460054998
 20
-13.3836337564
 10
-4.6329175095
 20
-13.3943535684
 10
-4.6207123444
 20
-13.4058437138
  0
LWPOLYLINE
  5
305
100
AcDbEntity
  8
0
100
AcDbPolyline
 62
7
  6
CONTINUOUS
 90
10
 70
0
 10
-4.9849239881
 20
-14.2059474288
 10
-4.9975298643
 20
-14.1991423471
 10
-5.0095695364
 20
-14.1917131227
 10
-5.0210430043
 20
-14.1836597555
 10
-5.0319804551
 20
-14.1749450619
 10
-5.0423517018
 20
-14.1656062255
 10
-5.0520661835
 20
-14.1557547972
 10
-5.0610937132
 20
-14.1454279605
 10
-5.0694644778
 20
-14.1345885319
 10
-5.0771784773
 20
-14.1232365114
  0
LWPOLYLINE
  5
306
100
AcDbEntity
  8
0
100
AcDbPolyline
 62
7
  6
CONTINUOUS
 90
10
 70
0
 10
-2.238862489
 20
-14.3670174257
 10
-2.2112508981
 20
-14.3821593048
 10
-2.1818936186
 20
-14.3954827614
 10
-2.1507906504
 20
-14.4069877956
 10
-2.1178135252
 20
-14.416661698
 10
-2.0830907114
 20
-14.424517178
 10
-2.047007614
 20
-14.430592363
 10
-2.0096927012
 20
-14.4348999622
 10
-1.9710175049
 20
-14.4374272665
 10
-1.930982025
 20
-14.4381742759
  0
LWPOLYLINE
  5
307
100
AcDbEntity
  8
0
100
AcDbPolyline
 62
7
  6
CONTINUOUS
 90
10
 70
0
 10
-4.4319038329
 20
-13.2714251322
 10
-4.4482643167
 20
-13.2609142336
 10
-4.4655066011
 20
-13.2511579918
 10
-4.4836306862
 20
-13.2421564067
 10
-4.5026865493
 20
-13.2339139969
 10
-4.522624213
 20
-13.2264262438
 10
-4.5432937451
 20
-13.2196795918
 10
-4.5646451683
 20
-13.2136695223
 10
-4.58672846
 20
-13.2084005539
 10
-4.60954362
 20
-13.2038726866
  0
LWPOLYLINE
  5
308
100
AcDbEntity
  8
0
100
AcDbPolyline
 62
7
  6
CONTINUOUS
 90
13
 70
0
 10
-5.2712310404
 20
-14.2886583615
 10
-5.2482721531
 20
-14.3126099853
 10
-5.2224213129
 20
-14.334465466
 10
-5.1936785197
 20
-14.3542248037
 10
-5.161803293
 20
-14.371953482
 10
-5.1270361134
 20
-14.3875860174
 10
-5.0900984224
 20
-14.4009259585
 10
-5.0510562096
 20
-14.4118128266
 10
-5.0098434855
 20
-14.4204071005
 10
-4.9669837233
 20
-14.4269937648
 10
-4.9226514142
 20
-14.4316678143
 10
-4.8766720669
 20
-14.4343342542
 10
-4.8290456817
 20
-14.4349930844
  0
LWPOLYLINE
  5
309
100
AcDbEntity
  8
RACCORDO
100
AcDbPolyline
 62
7
  6
CONTINUOUS
 90
10
 70
0
 10
-20.8530304987
 20
-2.4522634845
 10
-20.8328005792
 20
-2.4358310346
 10
-20.814169027
 20
-2.4171994902
 10
-20.7977365671
 20
-2.3969695723
 10
-20.7835747073
 20
-2.3750892098
 10
-20.7716119398
 20
-2.3516104739
 10
-20.7622344652
 20
-2.3272902992
 10
-20.7555710171
 20
-2.3023809971
 10
-20.7514928621
 20
-2.2766302561
 10
-20.75
 20
-2.2500380762
  0
LWPOLYLINE
  5
30A
100
AcDbEntity
  8
0
100
AcDbPolyline
 62
7
  6
CONTINUOUS
 90
10
 70
0
 10
-4.60954362
 20
-13.2038726866
 10
-4.5897967115
 20
-13.1994062491
 10
-4.5706275049
 20
-13.19405027
 10
-4.5520360001
 20
-13.1878047493
 10
-4.5341012547
 20
-13.1807047209
 10
-4.5167442113
 20
-13.1727151508
 10
-4.4997276968
 20
-13.1637309372
 10
-4.4829726539
 20
-13.153717046
 10
-4.46655814
 20
-13.1427085112
 10
-4.4504841551
 20
-13.1307053328
  0
LWPOLYLINE
  5
30B
100
AcDbEntity
  8
0
100
AcDbPolyline
 62
7
  6
CONTINUOUS
 90
10
 70
0
 10
-4.7749654636
 20
-13.0893498719
 10
-4.7956820013
 20
-13.0935482711
 10
-4.8167995717
 20
-13.0972104975
 10
-4.8383181748
 20
-13.1003365512
 10
-4.8602552571
 20
-13.1029040706
 10
-4.8825933722
 20
-13.1049354172
 10
-4.9052801803
 20
-13.1064976758
 10
-4.928298235
 20
-13.1076132078
 10
-4.9516649828
 20
-13.1082596518
 10
-4.9753804237
 20
-13.1084370077
  0
LWPOLYLINE
  5
30C
100
AcDbEntity
  8
RACCORDO
100
AcDbPolyline
 62
250
  6
CONTINUOUS
 90
13
 70
0
 10
20.8240902598
 20
-11.8030796844
 10
20.8049179287
 20
-11.8045232434
 10
20.7860700339
 20
-11.8084760998
 10
20.7678653697
 20
-11.8148713375
 10
20.7506118168
 20
-11.8236007448
 10
20.7346012045
 20
-11.8345166141
 10
20.7201043575
 20
-11.8474342152
 10
20.70736642
 20
-11.8621349928
 10
20.6966027585
 20
-11.8783702616
 10
20.6879953623
 20
-11.8958653517
 10
20.6816897159
 20
-11.9143243224
 10
20.6777923571
 20
-11.933434979
 10
20.6763690968
 20
-11.9528741146
  0
LWPOLYLINE
  5
30D
100
AcDbEntity
  8
RACCORDO
100
AcDbPolyline
 62
250
  6
CONTINUOUS
 90
13
 70
0
 10
-20.8240902598
 20
-14.6969203156
 10
-20.8049179287
 20
-14.6954767566
 10
-20.7860700339
 20
-14.6915239002
 10
-20.7678653697
 20
-14.6851286625
 10
-20.7506118168
 20
-14.6763992552
 10
-20.7346012045
 20
-14.6654833859
 10
-20.7201043575
 20
-14.6525657848
 10
-20.70736642
 20
-14.6378650072
 10
-20.6966027585
 20
-14.6216297384
 10
-20.6879953623
 20
-14.6041346483
 10
-20.6816897159
 20
-14.5856756776
 10
-20.6777923571
 20
-14.566565021
 10
-20.6763690968
 20
-14.5471258854
  0
LWPOLYLINE
  5
30E
100
AcDbEntity
  8
RACCORDO
100
AcDbPolyline
 62
250
  6
CONTINUOUS
 90
16
 70
0
 10
20.3341159992
 20
-11.507655315
 10
20.3012881612
 20
-11.5095402018
 10
20.2696123161
 20
-11.5145524277
 10
20.2390884638
 20
-11.5226919927
 10
20.2093744591
 20
-11.5341988128
 10
20.1808124472
 20
-11.5488329721
 10
20.1544288638
 20
-11.5658747226
 10
20.1304534266
 20
-11.5852318196
 10
20.1086564179
 20
-11.6069965077
 10
20.0893751198
 20
-11.6307257729
 10
20.0725343966
 20
-11.6565732144
 10
20.058209384
 20
-11.6843852329
 10
20.046962771
 20
-11.7132580159
 10
20.0389821207
 20
-11.7428902926
 10
20.03407987
 20
-11.7735833338
 10
20.032256019
 20
-11.8053371396
  0
LWPOLYLINE
  5
30F
100
AcDbEntity
  8
RACCORDO
100
AcDbPolyline
 62
250
  6
CONTINUOUS
 90
19
 70
0
 10
-19.6509951504
 20
-13.742344685
 10
-19.6208321847
 20
-13.740671391
 10
-19.5917462363
 20
-13.7364636805
 10
-19.563737305
 20
-13.7297215536
 10
-19.5364678157
 20
-13.7201131393
 10
-19.5102753437
 20
-13.7079703086
 10
-19.4861726146
 20
-13.6942886737
 10
-19.4645324043
 20
-13.6791544518
 10
-19.444981937
 20
-13.6624814259
 10
-19.4274156115
 20
-13.6450065572
 10
-19.4119353989
 20
-13.6270327169
 10
-19.398439328
 20
-13.608257034
 10
-19.3865158848
 20
-13.5885078566
 10
-19.3759553915
 20
-13.5678969663
 10
-19.3669675259
 20
-13.5463125816
 10
-19.3597698075
 20
-13.5232477059
 10
-19.3544347429
 20
-13.4985333402
 10
-19.3508898255
 20
-13.4723384835
 10
-19.3491350553
 20
-13.4446631358
  0
LINE
  5
310
100
AcDbEntity
  8
RACCORDO
100
AcDbLine
 62
7
  6
CONTINUOUS
 10
21.85
 20
-11.8013890489
 11
21.8177407521
 21
-11.8030796844
  0
LWPOLYLINE
  5
311
100
AcDbEntity
  8
RACCORDO
100
AcDbPolyline
 62
250
  6
CONTINUOUS
 90
16
 70
0
 10
20.3341163694
 20
-11.6574499946
 10
20.3174906161
 20
-11.658149
 10
20.3011417282
 20
-11.6605338582
 10
20.2852408008
 20
-11.6645626355
 10
20.2699106714
 20
-11.670189164
 10
20.2553533512
 20
-11.6773307475
 10
20.2418305
 20
-11.685834212
 10
20.2295438701
 20
-11.6954916961
 10
20.2184872062
 20
-11.7062194068
 10
20.2086151369
 20
-11.7180544959
 10
20.199998256
 20
-11.7309617462
 10
20.1928013782
 20
-11.7447492431
 10
20.1871402062
 20
-11.7592408657
 10
20.1830883048
 20
-11.7742706748
 10
20.1806889024
 20
-11.789691008
 10
20.1799774393
 20
-11.8053369407
  0
LWPOLYLINE
  5
312
100
AcDbEntity
  8
RACCORDO
100
AcDbPolyline
 62
250
  6
CONTINUOUS
 90
19
 70
0
 10
-19.6509952869
 20
-13.5925500407
 10
-19.6356630089
 20
-13.5919650659
 10
-19.6206590402
 20
-13.5899655276
 10
-19.6061106973
 20
-13.5866124445
 10
-19.5920313557
 20
-13.5819388055
 10
-19.5786401662
 20
-13.5760463687
 10
-19.5663199673
 20
-13.5691948464
 10
-19.555221978
 20
-13.561632015
 10
-19.54523176
 20
-13.5534547661
 10
-19.5362781947
 20
-13.5447511411
 10
-19.5284242219
 20
-13.5357349214
 10
-19.5215683253
 20
-13.5264422302
 10
-19.515465784
 20
-13.5166095637
 10
-19.5101562059
 20
-13.5062965751
 10
-19.5056849539
 20
-13.4955531493
 10
-19.5019821289
 20
-13.4840123222
 10
-19.4991593983
 20
-13.4715688048
 10
-19.497403825
 20
-13.4584240934
 10
-19.4968563362
 20
-13.4446631008
  0
LWPOLYLINE
  5
313
100
AcDbEntity
  8
0
100
AcDbPolyline
 62
7
  6
CONTINUOUS
 90
10
 70
0
 10
4.8576767609
 20
-12.058644402
 10
4.8033334383
 20
-12.0602174024
 10
4.7513802167
 20
-12.0648530844
 10
4.7018170961
 20
-12.072551448
 10
4.6545331139
 20
-12.0834072729
 10
4.6096392327
 20
-12.0973257794
 10
4.5674683396
 20
-12.1140226284
 10
4.528131397
 20
-12.1334030402
 10
4.4915174425
 20
-12.1555617945
 10
4.4576264761
 20
-12.1804988913
  0
LWPOLYLINE
  5
314
100
AcDbEntity
  8
RACCORDO
100
AcDbPolyline
 62
250
  6
CONTINUOUS
 90
9
 70
0
 10
-19.7664763493
 20
-13.0974197028
 10
-19.7381444854
 20
-13.0966608286
 10
-19.7117699183
 20
-13.0958163898
 10
-19.6876014373
 20
-13.0948822564
 10
-19.6659962452
 20
-13.0938625582
 10
-19.6472518922
 20
-13.0927789424
 10
-19.631631562
 20
-13.0916386247
 10
-19.6193683193
 20
-13.0904343894
 10
-19.61067643
 20
-13.0891662365
  0
LWPOLYLINE
  5
315
100
AcDbEntity
  8
0
100
AcDbPolyline
 62
7
  6
CONTINUOUS
 90
10
 70
0
 10
0.9479941532
 20
-12.0618257284
 10
0.9089199313
 20
-12.0625902378
 10
0.8711335615
 20
-12.0651167207
 10
0.8346350436
 20
-12.0694051771
 10
0.7993098315
 20
-12.0754676611
 10
0.7652724713
 20
-12.0832921187
 10
0.7328666023
 20
-12.0928423869
 10
0.7022067708
 20
-12.1041064116
 10
0.6731784304
 20
-12.1170962469
 10
0.6457815811
 20
-12.131811893
  0
LWPOLYLINE
  5
316
100
AcDbEntity
  8
0
100
AcDbPolyline
 62
7
  6
CONTINUOUS
 90
10
 70
0
 10
-0.4899034098
 20
-12.0618257284
 10
-0.5289776317
 20
-12.0625902378
 10
-0.5667640015
 20
-12.0651167207
 10
-0.6032625194
 20
-12.0694051771
 10
-0.6385877315
 20
-12.0754676611
 10
-0.6726250917
 20
-12.0832921187
 10
-0.7050309607
 20
-12.0928423869
 10
-0.7356907922
 20
-12.1041064116
 10
-0.7647191326
 20
-12.1170962469
 10
-0.7921159819
 20
-12.131811893
  0
LWPOLYLINE
  5
317
100
AcDbEntity
  8
0
100
AcDbPolyline
 62
7
  6
CONTINUOUS
 90
10
 70
0
 10
-1.9278009728
 20
-12.0618257284
 10
-1.9668752362
 20
-12.0625902415
 10
-2.0046616447
 20
-12.0651167268
 10
-2.0411601983
 20
-12.0694051842
 10
-2.0764854431
 20
-12.0754676674
 10
-2.1105228329
 20
-12.0832921228
 10
-2.1429287293
 20
-12.0928423891
 10
-2.173588586
 20
-12.1041064127
 10
-2.2026169493
 20
-12.1170962474
 10
-2.230013819
 20
-12.131811893
  0
LINE
  5
318
100
AcDbEntity
  8
RACCORDO
100
AcDbLine
 62
250
  6
CONTINUOUS
 10
-19.8283392102
 20
-13.0986523083
 11
-19.7664763493
 21
-13.0974197028
  0
LWPOLYLINE
  5
319
100
AcDbEntity
  8
0
100
AcDbPolyline
 62
7
  6
CONTINUOUS
 90
13
 70
0
 10
-4.8131397352
 20
-12.0618257284
 10
-4.8580446711
 20
-12.0626242499
 10
-4.9013682156
 20
-12.0654345945
 10
-4.9431103684
 20
-12.0702567622
 10
-4.9833990519
 20
-12.0770525466
 10
-5.0221063438
 20
-12.0858601541
 10
-5.0588484779
 20
-12.0967942038
 10
-5.0936534089
 20
-12.1099782274
 10
-5.1264931822
 20
-12.1252886933
 10
-5.1569001672
 20
-12.1424696253
 10
-5.1847184869
 20
-12.1614356982
 10
-5.2101040183
 20
-12.1822722373
 10
-5.2330567614
 20
-12.2049792426
  0
LINE
  5
31A
100
AcDbEntity
  8
RACCORDO
100
AcDbLine
 62
250
  6
CONTINUOUS
 10
-19.8956516554
 20
-13.0994977215
 11
-19.8283392102
 21
-13.0986523083
  0
LWPOLYLINE
  5
31B
100
AcDbEntity
  8
RACCORDO
100
AcDbPolyline
 62
250
  6
CONTINUOUS
 90
15
 70
0
 10
-19.9812113415
 20
-12.9501358065
 10
-19.9585138671
 20
-12.94997069
 10
-19.9365071079
 20
-12.9497034626
 10
-19.915094418
 20
-12.9493316621
 10
-19.8943724433
 20
-12.9488577506
 10
-19.8746311224
 20
-12.9482891141
 10
-19.8558226398
 20
-12.9476252132
 10
-19.8379948109
 20
-12.9468665872
 10
-19.8215810203
 20
-12.9460222404
 10
-19.8065502573
 20
-12.9450878425
 10
-19.7929335325
 20
-12.9440677237
 10
-19.781257262
 20
-12.9429838801
 10
-19.771696918
 20
-12.9418436436
 10
-19.7640770283
 20
-12.9406396823
 10
-19.758397593
 20
-12.939371996
  0
LINE
  5
31C
100
AcDbEntity
  8
RACCORDO
100
AcDbLine
 62
250
  6
CONTINUOUS
 10
-19.9676490921
 20
-13.0999301179
 11
-19.8956516554
 21
-13.0994977215
  0
LINE
  5
31D
100
AcDbEntity
  8
RACCORDO
100
AcDbLine
 62
250
  6
CONTINUOUS
 10
20.0045995313
 20
-13.4000067583
 11
19.9312333829
 21
-13.4002350555
  0
LINE
  5
31E
100
AcDbEntity
  8
RACCORDO
100
AcDbLine
 62
250
  6
CONTINUOUS
 10
-19.3491350553
 20
-13.4446631358
 11
-19.4968562183
 21
-13.4446631358
  0
LINE
  5
31F
100
AcDbEntity
  8
RACCORDO
100
AcDbLine
 62
250
  6
CONTINUOUS
 10
19.3491350553
 20
-13.4446631358
 11
19.4968562183
 21
-13.4446631358
  0
LINE
  5
320
100
AcDbEntity
  8
RACCORDO
100
AcDbLine
 62
250
  6
CONTINUOUS
 10
20.3520806424
 20
-13.4000067578
 11
20.0045995313
 21
-13.4000067578
  0
LINE
  5
321
100
AcDbEntity
  8
RACCORDO
100
AcDbLine
 62
250
  6
CONTINUOUS
 10
-20.3520806424
 20
-13.0999932422
 11
-19.9676490921
 21
-13.0999301179
  0
LINE
  5
322
100
AcDbEntity
  8
RACCORDO
100
AcDbLine
 62
250
  6
CONTINUOUS
 10
-19.3491350553
 20
-13.0553368642
 11
-19.4968562183
 21
-13.0553368642
  0
LINE
  5
323
100
AcDbEntity
  8
RACCORDO
100
AcDbLine
 62
250
  6
CONTINUOUS
 10
19.3491350553
 20
-13.0553368642
 11
19.4968562183
 21
-13.0553368642
  0
LINE
  5
324
100
AcDbEntity
  8
RACCORDO
100
AcDbLine
 62
250
  6
CONTINUOUS
 10
-20.3270158315
 20
-12.950198812
 11
-19.9812113415
 21
-12.9501358065
  0
LINE
  5
325
100
AcDbEntity
  8
RACCORDO
100
AcDbLine
 62
250
  6
CONTINUOUS
 10
20.1831857746
 20
-12.9074497452
 11
19.6509945665
 21
-12.9074497452
  0
LINE
  5
326
100
AcDbEntity
  8
RACCORDO
100
AcDbLine
 62
250
  6
CONTINUOUS
 10
-19.6509945665
 20
-12.9074497452
 11
-20.1831857746
 21
-12.9074497452
  0
LINE
  5
327
100
AcDbEntity
  8
RACCORDO
100
AcDbLine
 62
250
  6
CONTINUOUS
 10
20.032256019
 20
-12.757655315
 11
19.6509951504
 21
-12.757655315
  0
LINE
  5
328
100
AcDbEntity
  8
RACCORDO
100
AcDbLine
 62
250
  6
CONTINUOUS
 10
-19.6509945665
 20
-12.757655315
 11
-20.032256019
 21
-12.757655315
  0
LINE
  5
329
100
AcDbEntity
  8
0
100
AcDbLine
 62
7
  6
CONTINUOUS
 10
4.2787000343
 20
-12.6598893166
 11
4.5395572826
 21
-12.6598893166
  0
LINE
  5
32A
100
AcDbEntity
  8
0
100
AcDbLine
 62
7
  6
CONTINUOUS
 10
-5.3666667245
 20
-12.6439833701
 11
-5.1121715635
 21
-12.6439833701
  0
LINE
  5
32B
100
AcDbEntity
  8
RACCORDO
100
AcDbLine
 62
250
  6
CONTINUOUS
 10
-21.4386751346
 20
-12.2025314983
 11
-20.7181437817
 21
-12.2025314983
  0
LINE
  5
32C
100
AcDbEntity
  8
RACCORDO
100
AcDbLine
 62
250
  6
CONTINUOUS
 10
20.7181437817
 20
-12.2025314983
 11
21.4386751346
 21
-12.2025314983
  0
LINE
  5
32D
100
AcDbEntity
  8
0
100
AcDbLine
 62
7
  6
CONTINUOUS
 10
2.7071922466
 20
-12.1
 11
2.3731675074
 21
-12.1
  0
LINE
  5
32E
100
AcDbEntity
  8
0
100
AcDbLine
 62
7
  6
CONTINUOUS
 10
-3.123928149
 20
-12.1
 11
-3.3593361571
 21
-12.1
  0
LINE
  5
32F
100
AcDbEntity
  8
RACCORDO
100
AcDbLine
 62
250
  6
CONTINUOUS
 10
-20.032256019
 20
-11.8053368642
 11
-20.1799771819
 21
-11.8053368642
  0
LINE
  5
330
100
AcDbEntity
  8
RACCORDO
100
AcDbLine
 62
250
  6
CONTINUOUS
 10
20.032256019
 20
-11.8053368642
 11
20.1799771819
 21
-11.8053368648
  0
LINE
  5
331
100
AcDbEntity
  8
RACCORDO
100
AcDbLine
 62
250
  6
CONTINUOUS
 10
-21.8177407521
 20
-11.8030796844
 11
-20.8240902598
 21
-11.8030796844
  0
LINE
  5
332
100
AcDbEntity
  8
RACCORDO
100
AcDbLine
 62
250
  6
CONTINUOUS
 10
20.8240902598
 20
-11.8030796844
 11
21.8177407521
 21
-11.8030796844
  0
LINE
  5
333
100
AcDbEntity
  8
DRAFT
100
AcDbLine
 62
7
  6
CONTINUOUS
 10
-20.7450979979
 20
-11.7076485572
 11
-20.5549020021
 21
-11.7076485572
  0
LINE
  5
334
100
AcDbEntity
  8
DRAFT
100
AcDbLine
 62
7
  6
CONTINUOUS
 10
20.5549020021
 20
-11.7076485572
 11
20.7450979979
 21
-11.7076485572
  0
LINE
  5
335
100
AcDbEntity
  8
RACCORDO
100
AcDbLine
 62
250
  6
CONTINUOUS
 10
20.4239476231
 20
-11.6574497452
 11
20.3341155302
 21
-11.6574497452
  0
LINE
  5
336
100
AcDbEntity
  8
RACCORDO
100
AcDbLine
 62
250
  6
CONTINUOUS
 10
-20.3341155302
 20
-11.6574497452
 11
-20.4239476231
 21
-11.6574497452
  0
LINE
  5
337
100
AcDbEntity
  8
DRAFT
100
AcDbLine
 62
7
  6
CONTINUOUS
 10
21.1996573543
 20
-11.65
 11
20.8949489743
 21
-11.65
  0
LINE
  5
338
100
AcDbEntity
  8
DRAFT
100
AcDbLine
 62
7
  6
CONTINUOUS
 10
-20.8949489743
 20
-11.65
 11
-21.1996573543
 21
-11.65
  0
LINE
  5
339
100
AcDbEntity
  8
DRAFT
100
AcDbLine
 62
7
  6
CONTINUOUS
 10
-21.1996573543
 20
-11.6330950766
 11
-21.0
 21
-11.6330950766
  0
LINE
  5
33A
100
AcDbEntity
  8
0
100
AcDbLine
 62
7
  6
CONTINUOUS
 10
-21.1996573543
 20
-11.6330950766
 11
-21.0
 21
-11.6330950766
  0
LINE
  5
33B
100
AcDbEntity
  8
DRAFT
100
AcDbLine
 62
7
  6
CONTINUOUS
 10
21.0
 20
-11.6330950766
 11
21.1996573543
 21
-11.6330950766
  0
LINE
  5
33C
100
AcDbEntity
  8
0
100
AcDbLine
 62
7
  6
CONTINUOUS
 10
21.0
 20
-11.6330950766
 11
21.1996573543
 21
-11.6330950766
  0
LINE
  5
33D
100
AcDbEntity
  8
RACCORDO
100
AcDbLine
 62
250
  6
CONTINUOUS
 10
20.4903017779
 20
-11.507655315
 11
20.3341159992
 21
-11.507655315
  0
LINE
  5
33E
100
AcDbEntity
  8
RACCORDO
100
AcDbLine
 62
250
  6
CONTINUOUS
 10
-20.3341155302
 20
-11.507655315
 11
-20.4903017779
 21
-11.507655315
  0
LINE
  5
33F
100
AcDbEntity
  8
RACCORDO
100
AcDbLine
 62
7
  6
CONTINUOUS
 10
5.75
 20
-11.3
 11
-5.75
 21
-11.3
  0
LWPOLYLINE
  5
340
100
AcDbEntity
  8
RACCORDO
100
AcDbPolyline
 62
250
  6
CONTINUOUS
 90
3
 70
0
 10
-20.3520806424
 20
-13.4000067578
 10
-19.9667672433
 20
-13.4000814964
 10
-19.9301155083
 20
-13.400248925
  0
LINE
  5
341
100
AcDbEntity
  8
RACCORDO
100
AcDbLine
 62
250
  6
CONTINUOUS
 10
20.3520806424
 20
-13.0999932422
 11
19.9667672433
 21
-13.0999185036
  0
LWPOLYLINE
  5
342
100
AcDbEntity
  8
RACCORDO
100
AcDbPolyline
 62
250
  6
CONTINUOUS
 90
19
 70
0
 10
20.3270158315
 20
-12.950198812
 10
19.9807094202
 20
-12.9501241815
 10
19.9578605961
 20
-12.9499568117
 10
19.9360530589
 20
-12.9496967024
 10
19.9151345223
 20
-12.9493310457
 10
19.8952572727
 20
-12.9488726497
 10
19.8768781694
 20
-12.9483599383
 10
19.8601761493
 20
-12.9477955581
 10
19.8449722757
 20
-12.9471768624
 10
19.8311865978
 20
-12.9465343361
 10
19.81893593
 20
-12.945880168
 10
19.8081034581
 20
-12.9452021693
 10
19.7982587886
 20
-12.9444942578
 10
19.7892835031
 20
-12.94376309
 10
19.7812960201
 20
-12.9430020095
 10
19.7742212015
 20
-12.9421849649
 10
19.768034001
 20
-12.9413032726
 10
19.7627594649
 20
-12.9403656163
 10
19.758397593
 20
-12.939371996
  0
LINE
  5
343
100
AcDbEntity
  8
RACCORDO
100
AcDbLine
 62
250
  6
CONTINUOUS
 10
19.9667672433
 20
-13.0999185036
 11
19.8949251771
 21
-13.0994909549
  0
LWPOLYLINE
  5
344
100
AcDbEntity
  8
0
100
AcDbPolyline
 62
7
  6
CONTINUOUS
 90
10
 70
0
 10
-4.9753804237
 20
-13.308852002
 10
-4.950144525
 20
-13.3091758507
 10
-4.925290907
 20
-13.3100433399
 10
-4.9008195697
 20
-13.3114544698
 10
-4.8767223181
 20
-13.3134172912
 10
-4.8530073472
 20
-13.3159237533
 10
-4.829699242
 20
-13.3189497032
 10
-4.8068061977
 20
-13.32248709
 10
-4.7843200192
 20
-13.3265439646
 10
-4.7622407064
 20
-13.3311203271
  0
LINE
  5
345
100
AcDbEntity
  8
RACCORDO
100
AcDbLine
 62
250
  6
CONTINUOUS
 10
19.8949251771
 20
-13.0994909549
 11
19.8295855335
 21
-13.0986670854
  0
LINE
  5
346
100
AcDbEntity
  8
RACCORDO
100
AcDbLine
 62
250
  6
CONTINUOUS
 10
19.8295855335
 20
-13.0986670854
 11
19.7734763339
 21
-13.0975900449
  0
LWPOLYLINE
  5
347
100
AcDbEntity
  8
0
100
AcDbPolyline
 62
7
  6
CONTINUOUS
 90
10
 70
0
 10
-4.8195021138
 20
-12.2622406542
 10
-4.8021397986
 20
-12.2626417451
 10
-4.7852730125
 20
-12.2638557403
 10
-4.7689017553
 20
-12.2658826396
 10
-4.7530580621
 20
-12.2687166375
 10
-4.7377098979
 20
-12.2723635397
 10
-4.7227611577
 20
-12.2768407632
 10
-4.7081798067
 20
-12.2821541139
 10
-4.6939978797
 20
-12.288297786
 10
-4.6802153767
 20
-12.2952717795
  0
LWPOLYLINE
  5
348
100
AcDbEntity
  8
RACCORDO
100
AcDbPolyline
 62
250
  6
CONTINUOUS
 90
11
 70
0
 10
19.7734763339
 20
-13.0975900449
 10
19.7271388388
 20
-13.0963287029
 10
19.7076270457
 20
-13.0956744876
 10
19.6902902211
 20
-13.0949964504
 10
19.6744543449
 20
-13.0942885628
 10
19.6601939569
 20
-13.0935575524
 10
19.6475159163
 20
-13.0927966916
 10
19.6359941992
 20
-13.0919797697
 10
19.6257499148
 20
-13.0910980497
 10
19.6172210428
 20
-13.0901602685
 10
19.61067643
 20
-13.0891664262
  0
LWPOLYLINE
  5
349
100
AcDbEntity
  8
0
100
AcDbPolyline
 62
7
  6
CONTINUOUS
 90
10
 70
0
 10
-1.9278009728
 20
-12.2622406542
 10
-1.9063018267
 20
-12.2629608987
 10
-1.8856559027
 20
-12.264971161
 10
-1.8658632008
 20
-12.2682714411
 10
-1.8468806087
 20
-12.2729081868
 10
-1.8287512388
 20
-12.2788349502
 10
-1.8116044278
 20
-12.2859123885
 10
-1.7954832881
 20
-12.2940940538
 10
-1.7803447074
 20
-12.303426394
 10
-1.7661886856
 20
-12.3139094089
  0
LWPOLYLINE
  5
34A
100
AcDbEntity
  8
0
100
AcDbPolyline
 62
7
  6
CONTINUOUS
 90
10
 70
0
 10
-0.4899034098
 20
-12.2622406542
 10
-0.4684042369
 20
-12.26296089
 10
-0.447758287
 20
-12.2649711443
 10
-0.42796556
 20
-12.2682714171
 10
-0.4089829377
 20
-12.2729081563
 10
-0.3908535384
 20
-12.278834914
 10
-0.3737067165
 20
-12.2859123461
 10
-0.3575855904
 20
-12.2940940043
 10
-0.3424470417
 20
-12.3034263368
 10
-0.3282910704
 20
-12.3139093436
  0
LWPOLYLINE
  5
34B
100
AcDbEntity
  8
0
100
AcDbPolyline
 62
7
  6
CONTINUOUS
 90
10
 70
0
 10
0.9479941532
 20
-12.2622406542
 10
0.9694933261
 20
-12.26296089
 10
0.990139276
 20
-12.2649711443
 10
1.009932003
 20
-12.2682714171
 10
1.0289146253
 20
-12.2729081563
 10
1.0470440246
 20
-12.278834914
 10
1.0641908464
 20
-12.2859123461
 10
1.0803119726
 20
-12.2940940043
 10
1.0954505213
 20
-12.3034263368
 10
1.1096064925
 20
-12.3139093436
  0
LWPOLYLINE
  5
34C
100
AcDbEntity
  8
0
100
AcDbPolyline
 62
7
  6
CONTINUOUS
 90
10
 70
0
 10
4.8449514553
 20
-12.2590594649
 10
4.8744668454
 20
-12.2600856958
 10
4.902488557
 20
-12.2631551909
 10
4.9290165901
 20
-12.2682679502
 10
4.9540924776
 20
-12.2754539273
 10
4.9776746866
 20
-12.2846831686
 10
4.9996386183
 20
-12.2958658136
 10
5.0199427397
 20
-12.3089719087
 10
5.0386285839
 20
-12.3240314074
 10
5.0556961507
 20
-12.3410443099
  0
LINE
  5
34D
100
AcDbEntity
  8
RACCORDO
100
AcDbLine
 62
7
  6
CONTINUOUS
 10
-21.8177407521
 20
-11.8030796844
 11
-21.85
 21
-11.8013890489
  0
LWPOLYLINE
  5
34E
100
AcDbEntity
  8
RACCORDO
100
AcDbPolyline
 62
250
  6
CONTINUOUS
 90
13
 70
0
 10
-20.8240902598
 20
-11.8030796844
 10
-20.8049189117
 20
-11.8045231069
 10
-20.7860718113
 20
-11.8084756106
 10
-20.7678677222
 20
-11.8148703463
 10
-20.7506145326
 20
-11.8235991587
 10
-20.7346040482
 20
-11.8345144164
 10
-20.7201070565
 20
-11.847431508
 10
-20.7073687473
 20
-11.862131965
 10
-20.6966045652
 20
-11.8783671564
 10
-20.6879965664
 20
-11.8958624943
 10
-20.681690339
 20
-11.9143220776
 10
-20.6777925411
 20
-11.9334336969
 10
-20.6763690968
 20
-11.9528741146
  0
LWPOLYLINE
  5
34F
100
AcDbEntity
  8
RACCORDO
100
AcDbPolyline
 62
250
  6
CONTINUOUS
 90
13
 70
0
 10
20.8240902598
 20
-14.6969203156
 10
20.8049189117
 20
-14.6954768931
 10
20.7860718113
 20
-14.6915243894
 10
20.7678677222
 20
-14.6851296537
 10
20.7506145326
 20
-14.6764008413
 10
20.7346040482
 20
-14.6654855836
 10
20.7201070565
 20
-14.652568492
 10
20.7073687473
 20
-14.637868035
 10
20.6966045652
 20
-14.6216328436
 10
20.6879965664
 20
-14.6041375057
 10
20.681690339
 20
-14.5856779224
 10
20.6777925411
 20
-14.5665663031
 10
20.6763690968
 20
-14.5471258854
  0
LWPOLYLINE
  5
350
100
AcDbEntity
  8
RACCORDO
100
AcDbPolyline
 62
250
  6
CONTINUOUS
 90
13
 70
0
 10
19.758397593
 20
-13.560628004
 10
19.739226245
 20
-13.5591845816
 10
19.7203791447
 20
-13.5552320781
 10
19.7021750557
 20
-13.5488373427
 10
19.6849218663
 20
-13.5401085304
 10
19.6689113821
 20
-13.5291932729
 10
19.6544143905
 20
-13.5162761813
 10
19.6416760813
 20
-13.5015757244
 10
19.6309118991
 20
-13.4853405328
 10
19.6223039001
 20
-13.4678451947
 10
19.6159976726
 20
-13.4493856112
 10
19.6120998745
 20
-13.4302739917
 10
19.61067643
 20
-13.4108335738
  0
LWPOLYLINE
  5
351
100
AcDbEntity
  8
0
100
AcDbPolyline
 62
7
  6
CONTINUOUS
 90
10
 70
0
 10
-1.6291825586
 20
-12.1293319142
 10
-1.656077398
 20
-12.1147856211
 10
-1.6846412521
 20
-12.1020224556
 10
-1.7148741208
 20
-12.0910424174
 10
-1.7469063623
 20
-12.0818744747
 10
-1.7806076184
 20
-12.0744896594
 10
-1.8155868149
 20
-12.0688010676
 10
-1.8517135937
 20
-12.0647797311
 10
-1.889118313
 20
-12.0624546181
 10
-1.9278009728
 20
-12.0618257284
  0
LWPOLYLINE
  5
352
100
AcDbEntity
  8
0
100
AcDbPolyline
 62
7
  6
CONTINUOUS
 90
10
 70
0
 10
-0.8009646518
 20
-14.3670174257
 10
-0.7733530841
 20
-14.3821592942
 10
-0.74399583
 20
-14.3954827437
 10
-0.7128928896
 20
-14.4069877741
 10
-0.679915795
 20
-14.4166616773
 10
-0.645193014
 20
-14.4245171615
 10
-0.6091099499
 20
-14.430592351
 10
-0.5717950704
 20
-14.4348999539
 10
-0.5331199078
 20
-14.4374272622
 10
-0.493084462
 20
-14.4381742759
  0
LWPOLYLINE
  5
353
100
AcDbEntity
  8
0
100
AcDbPolyline
 62
7
  6
CONTINUOUS
 90
10
 70
0
 10
0.6369329112
 20
-14.3670174257
 10
0.6645444789
 20
-14.3821592942
 10
0.693901733
 20
-14.3954827437
 10
0.7250046734
 20
-14.4069877741
 10
0.757981768
 20
-14.4166616773
 10
0.792704549
 20
-14.4245171615
 10
0.8287876131
 20
-14.430592351
 10
0.8661024926
 20
-14.4348999539
 10
0.9047776552
 20
-14.4374272622
 10
0.944813101
 20
-14.4381742759
  0
LWPOLYLINE
  5
354
100
AcDbEntity
  8
0
100
AcDbPolyline
 62
7
  6
CONTINUOUS
 90
10
 70
0
 10
-4.6802153767
 20
-12.2952717795
 10
-4.6675862761
 20
-12.3026365262
 10
-4.6557254453
 20
-12.310509085
 10
-4.6446328842
 20
-12.3188894558
 10
-4.6343298341
 20
-12.3277736045
 10
-4.6247950538
 20
-12.3371655653
 10
-4.6159648199
 20
-12.3470774408
 10
-4.6078178914
 20
-12.3575132652
 10
-4.6003755092
 20
-12.3684690044
 10
-4.5936376736
 20
-12.3799446583
  0
LWPOLYLINE
  5
355
100
AcDbEntity
  8
0
100
AcDbPolyline
 62
7
  6
CONTINUOUS
 90
10
 70
0
 10
-2.0946273065
 20
-14.1886071649
 10
-2.1076850242
 20
-14.1767184036
 10
-2.1200670259
 20
-14.1636575816
 10
-2.1317733115
 20
-14.1494246989
 10
-2.1428375985
 20
-14.1339606751
 10
-2.1532261695
 20
-14.1173245905
 10
-2.1628378724
 20
-14.0996936865
 10
-2.17163899
 20
-14.0811270436
 10
-2.1796632395
 20
-14.0615655813
 10
-2.186910621
 20
-14.0410092996
  0
LWPOLYLINE
  5
356
100
AcDbEntity
  8
0
100
AcDbPolyline
 62
7
  6
CONTINUOUS
 90
13
 70
0
 10
-4.4004482188
 20
-12.2025941542
 10
-4.4226543683
 20
-12.1802123134
 10
-4.4473453659
 20
-12.1596776357
 10
-4.4745212118
 20
-12.1409901213
 10
-4.5043544093
 20
-12.1240618969
 10
-4.536672455
 20
-12.1089808357
 10
-4.5709578386
 20
-12.0960105573
 10
-4.6071791483
 20
-12.0852840032
 10
-4.6453677959
 20
-12.076668232
 10
-4.6851005059
 20
-12.0700280393
 10
-4.7262361866
 20
-12.0653183571
 10
-4.7689159296
 20
-12.0625842535
 10
-4.8131397352
 20
-12.0618257284
  0
LWPOLYLINE
  5
357
100
AcDbEntity
  8
0
100
AcDbPolyline
 62
7
  6
CONTINUOUS
 90
10
 70
0
 10
-4.6207123444
 20
-13.4058437138
 10
-4.6089450592
 20
-13.4183847335
 10
-4.5979941372
 20
-13.4318320847
 10
-4.5878595785
 20
-13.4461857675
 10
-4.5785262806
 20
-13.4614575167
 10
-4.5700093459
 20
-13.4776355974
 10
-4.5623540822
 20
-13.4946848051
 10
-4.5555755918
 20
-13.512593405
 10
-4.5496587722
 20
-13.5313731318
 10
-4.5446036235
 20
-13.5510239856
  0
LWPOLYLINE
  5
358
100
AcDbEntity
  8
0
100
AcDbPolyline
 62
7
  6
CONTINUOUS
 90
10
 70
0
 10
-5.0771784773
 20
-14.1232365114
 10
-5.084488971
 20
-14.1111448406
 10
-5.0913016569
 20
-14.0985209813
 10
-5.0976165351
 20
-14.0853649334
 10
-5.1034393656
 20
-14.0716494288
 10
-5.1087643884
 20
-14.0574017357
 10
-5.1135743233
 20
-14.0427036583
 10
-5.1178634103
 20
-14.0275824648
 10
-5.1216374095
 20
-14.0120108869
 10
-5.1248963207
 20
-13.9959889248
  0
LINE
  5
359
100
AcDbEntity
  8
DRAFT
100
AcDbLine
 62
7
  6
CONTINUOUS
 10
-21.85
 20
-11.7778055482
 11
-21.35
 21
-11.7626767255
  0
LINE
  5
35A
100
AcDbEntity
  8
RACCORDO
100
AcDbLine
 62
7
  6
CONTINUOUS
 10
22.2683301451
 20
-10.75
 11
22.1
 21
-10.75
  0
LINE
  5
35B
100
AcDbEntity
  8
RACCORDO
100
AcDbLine
 62
7
  6
CONTINUOUS
 10
-22.2683301451
 20
-10.75
 11
-22.1
 21
-10.75
  0
LINE
  5
35C
100
AcDbEntity
  8
DRAFT
100
AcDbLine
 62
7
  6
CONTINUOUS
 10
21.35
 20
-11.7626767255
 11
21.85
 21
-11.7778055482
  0
LWPOLYLINE
  5
35D
100
AcDbEntity
  8
0
100
AcDbPolyline
 62
7
  6
CONTINUOUS
 90
10
 70
0
 10
-0.1912847214
 20
-12.1293319142
 10
-0.2181795814
 20
-12.1147856214
 10
-0.2467434584
 20
-12.1020224563
 10
-0.2769763524
 20
-12.0910424191
 10
-0.3090086211
 20
-12.0818744782
 10
-0.3427099068
 20
-12.0744896651
 10
-0.3776891359
 20
-12.0688010741
 10
-0.4138159504
 20
-12.0647797367
 10
-0.4512207084
 20
-12.0624546215
 10
-0.4899034098
 20
-12.0618257284
  0
LWPOLYLINE
  5
35E
100
AcDbEntity
  8
0
100
AcDbPolyline
 62
7
  6
CONTINUOUS
 90
10
 70
0
 10
1.2466128416
 20
-12.1293319142
 10
1.2197179815
 20
-12.1147856214
 10
1.1911541045
 20
-12.1020224563
 10
1.1609212106
 20
-12.0910424191
 10
1.1288889419
 20
-12.0818744782
 10
1.0951876562
 20
-12.0744896651
 10
1.0602084271
 20
-12.0688010741
 10
1.0240816125
 20
-12.0647797367
 10
0.9866768546
 20
-12.0624546215
 10
0.9479941532
 20
-12.0618257284
  0
LWPOLYLINE
  5
35F
100
AcDbEntity
  8
RACCORDO
100
AcDbPolyline
 62
7
  6
CONTINUOUS
 90
4
 70
0
 10
-20.8530304277
 20
2.4522634329
 10
-20.8749093799
 20
2.4664250694
 10
-20.8983867056
 20
2.4783876136
 10
-20.9227097008
 20
2.4877655348
  0
LWPOLYLINE
  5
360
100
AcDbEntity
  8
RACCORDO
100
AcDbPolyline
 62
7
  6
CONTINUOUS
 90
16
 70
0
 10
-21.63468937
 20
2.1258649447
 10
-21.5993793024
 20
2.101181764
 10
-21.5661521211
 20
2.0760245159
 10
-21.5350078262
 20
2.0503932003
 10
-21.5058005704
 20
2.0243405642
 10
-21.478676201
 20
1.9978138606
 10
-21.4540722594
 20
1.970654849
 10
-21.4320975982
 20
1.9427326744
 10
-21.4126433647
 20
1.9141781917
 10
-21.3958205426
 20
1.8852257258
 10
-21.381679652
 20
1.8558103657
 10
-21.3701701729
 20
1.8259970224
 10
-21.3612515284
 20
1.7962147536
 10
-21.3549101932
 20
1.7666065787
 10
-21.3511596926
 20
1.7370294784
 10
-21.3500000267
 20
1.7074834527
  0
LWPOLYLINE
  5
361
100
AcDbEntity
  8
0
100
AcDbPolyline
 62
7
  6
CONTINUOUS
 90
10
 70
0
 10
-1.7661886856
 20
-12.3139094089
 10
-1.7532454894
 20
-12.3253120328
 10
-1.7410199624
 20
-12.3379583711
 10
-1.7295121046
 20
-12.3518484237
 10
-1.7186866985
 20
-12.3670500554
 10
-1.7085789615
 20
-12.3834954014
 10
-1.6992945461
 20
-12.4009808674
 10
-1.6908686696
 20
-12.4194385885
 10
-1.6832661146
 20
-12.4389364297
 10
-1.6764868811
 20
-12.4594743907
  0
LWPOLYLINE
  5
362
100
AcDbEntity
  8
0
100
AcDbPolyline
 62
7
  6
CONTINUOUS
 90
10
 70
0
 10
-0.3282910704
 20
-12.3139093436
 10
-0.3153478718
 20
-12.3253119881
 10
-0.3031223347
 20
-12.3379583389
 10
-0.2916144592
 20
-12.3518483958
 10
-0.2807890244
 20
-12.3670500203
 10
-0.2706812511
 20
-12.3834953509
 10
-0.2613968024
 20
-12.4009808041
 10
-0.2529708992
 20
-12.4194385186
 10
-0.2453683206
 20
-12.4389363557
 10
-0.2385890666
 20
-12.4594743153
  0
LWPOLYLINE
  5
363
100
AcDbEntity
  8
0
100
AcDbPolyline
 62
7
  6
CONTINUOUS
 90
10
 70
0
 10
-0.6567297436
 20
-14.1886071649
 10
-0.6697874481
 20
-14.1767183987
 10
-0.682169433
 20
-14.1636575695
 10
-0.6938756984
 20
-14.1494246772
 10
-0.704939957
 20
-14.1339606381
 10
-0.7153284961
 20
-14.117324536
 10
-0.724940177
 20
-14.0996936219
 10
-0.7337412871
 20
-14.0811269795
 10
-0.7417655392
 20
-14.0615655252
 10
-0.7490129331
 20
-14.0410092589
  0
LWPOLYLINE
  5
364
100
AcDbEntity
  8
0
100
AcDbPolyline
 62
7
  6
CONTINUOUS
 90
10
 70
0
 10
0.7811678194
 20
-14.1886071649
 10
0.7681101149
 20
-14.1767183987
 10
0.7557281299
 20
-14.1636575695
 10
0.7440218646
 20
-14.1494246772
 10
0.7329576059
 20
-14.1339606381
 10
0.7225690669
 20
-14.117324536
 10
0.7129573859
 20
-14.0996936219
 10
0.7041562758
 20
-14.0811269795
 10
0.6961320238
 20
-14.0615655252
 10
0.6888846299
 20
-14.0410092589
  0
LWPOLYLINE
  5
365
100
AcDbEntity
  8
0
100
AcDbPolyline
 62
7
  6
CONTINUOUS
 90
10
 70
0
 10
-4.3232365146
 20
-13.3915629238
 10
-4.3316661442
 20
-13.3766751783
 10
-4.3410421523
 20
-13.3621089308
 10
-4.351364539
 20
-13.3478641813
 10
-4.3626803034
 20
-13.3338565599
 10
-4.3749424463
 20
-13.3201704366
 10
-4.3880099705
 20
-13.3070589211
 10
-4.4018358767
 20
-13.2946063836
 10
-4.4164671642
 20
-13.2827284539
 10
-4.4319038329
 20
-13.2714251322
  0
LWPOLYLINE
  5
366
100
AcDbEntity
  8
0
100
AcDbPolyline
 62
7
  6
CONTINUOUS
 90
10
 70
0
 10
-4.5936376736
 20
-12.3799446583
 10
-4.5867387101
 20
-12.393183069
 10
-4.5803745844
 20
-12.4065565373
 10
-4.5745452964
 20
-12.4200650632
 10
-4.5692563397
 20
-12.4336978569
 10
-4.5645022208
 20
-12.4474657083
 10
-4.5602664587
 20
-12.4614009863
 10
-4.55654356
 20
-12.4755144806
 10
-4.5533390182
 20
-12.4897954016
 10
-4.5506528333
 20
-12.5042437492
  0
LINE
  5
367
100
AcDbEntity
  8
0
100
AcDbLine
 62
7
  6
CONTINUOUS
 10
-3.02989
 20
14.411797
 11
-3.481663
 21
12.82878
  0
LINE
  5
368
100
AcDbEntity
  8
0
100
AcDbLine
 62
7
  6
CONTINUOUS
 10
-3.289406
 20
12.112007
 11
-2.550162
 21
14.411797
  0
LINE
  5
369
100
AcDbEntity
  8
RACCORDO
100
AcDbLine
 62
250
  6
CONTINUOUS
 10
19.61067643
 20
13.0891664262
 11
19.4968562183
 21
13.0553368642
  0
LINE
  5
36A
100
AcDbEntity
  8
RACCORDO
100
AcDbLine
 62
250
  6
CONTINUOUS
 10
19.758397593
 20
12.939371996
 11
19.6509945665
 21
12.9074497452
  0
LINE
  5
36B
100
AcDbEntity
  8
RACCORDO
100
AcDbLine
 62
7
  6
CONTINUOUS
 10
20.1831857746
 20
12.9074497452
 11
20.3270158315
 21
12.950198812
  0
LINE
  5
36C
100
AcDbEntity
  8
RACCORDO
100
AcDbLine
 62
250
  6
CONTINUOUS
 10
19.61067643
 20
-13.0891664262
 11
19.4968562183
 21
-13.0553368642
  0
LINE
  5
36D
100
AcDbEntity
  8
RACCORDO
100
AcDbLine
 62
250
  6
CONTINUOUS
 10
19.758397593
 20
-12.939371996
 11
19.6509945665
 21
-12.9074497452
  0
LINE
  5
36E
100
AcDbEntity
  8
RACCORDO
100
AcDbLine
 62
7
  6
CONTINUOUS
 10
20.1831857746
 20
-12.9074497452
 11
20.3270158315
 21
-12.950198812
  0
LINE
  5
36F
100
AcDbEntity
  8
DRAFT
100
AcDbLine
 62
7
  6
CONTINUOUS
 10
20.7613356945
 20
-14.7983420129
 11
20.7450979979
 21
-14.7923514428
  0
LWPOLYLINE
  5
370
100
AcDbEntity
  8
0
100
AcDbPolyline
 62
7
  6
CONTINUOUS
 90
10
 70
0
 10
1.1096064925
 20
-12.3139093436
 10
1.1225496912
 20
-12.3253119881
 10
1.1347752283
 20
-12.3379583389
 10
1.1462831037
 20
-12.3518483958
 10
1.1571085386
 20
-12.3670500203
 10
1.1672163119
 20
-12.3834953509
 10
1.1765007606
 20
-12.4009808041
 10
1.1849266637
 20
-12.4194385186
 10
1.1925292424
 20
-12.4389363557
 10
1.1993084964
 20
-12.4594743153
  0
LWPOLYLINE
  5
371
100
AcDbEntity
  8
0
100
AcDbPolyline
 62
7
  6
CONTINUOUS
 90
10
 70
0
 10
-1.4601660088
 20
-12.3163208723
 10
-1.4733266924
 20
-12.290161677
 10
-1.4878234629
 20
-12.2654234274
 10
-1.5036563202
 20
-12.2421061235
 10
-1.5207337359
 20
-12.2203101448
 10
-1.5391472385
 20
-12.1999351117
 10
-1.5591714134
 20
-12.180679886
 10
-1.5808977894
 20
-12.1624440881
 10
-1.6042348378
 20
-12.1453280975
 10
-1.6291825586
 20
-12.1293319142
  0
LWPOLYLINE
  5
372
100
AcDbEntity
  8
0
100
AcDbPolyline
 62
7
  6
CONTINUOUS
 90
10
 70
0
 10
-2.4087443077
 20
-14.1648444841
 10
-2.3947053331
 20
-14.1946691177
 10
-2.3794911885
 20
-14.2225898136
 10
-2.3631018739
 20
-14.2486065717
 10
-2.3455827571
 20
-14.2726344663
 10
-2.3268884704
 20
-14.2947584232
 10
-2.3068829106
 20
-14.3152332199
 10
-2.2855207098
 20
-14.3341437821
 10
-2.262847236
 20
-14.351405184
 10
-2.238862489
 20
-14.3670174257
  0
LWPOLYLINE
  5
373
100
AcDbEntity
  8
0
100
AcDbPolyline
 62
7
  6
CONTINUOUS
 90
10
 70
0
 10
-0.9708467448
 20
-14.1648444841
 10
-0.9568077451
 20
-14.1946691261
 10
-0.9415935729
 20
-14.222589826
 10
-0.9252042279
 20
-14.2486065839
 10
-0.9076850762
 20
-14.2726344708
 10
-0.8889907518
 20
-14.2947584157
 10
-0.868985157
 20
-14.315233205
 10
-0.8476229257
 20
-14.3341437675
 10
-0.824949424
 20
-14.3514051744
 10
-0.8009646518
 20
-14.3670174257
  0
LWPOLYLINE
  5
374
100
AcDbEntity
  8
0
100
AcDbPolyline
 62
7
  6
CONTINUOUS
 90
10
 70
0
 10
-4.5446036235
 20
-13.5510239856
 10
-4.5394170174
 20
-13.5752531772
 10
-4.5348660271
 20
-13.5999674364
 10
-4.5309506526
 20
-13.6251667633
 10
-4.5276833393
 20
-13.6508703709
 10
-4.5250516418
 20
-13.6770590461
 10
-4.5230182247
 20
-13.7036751502
 10
-4.5215706427
 20
-13.7306994702
 10
-4.520721341
 20
-13.7581512191
 10
-4.5204703197
 20
-13.7860303968
  0
LWPOLYLINE
  5
375
100
AcDbEntity
  8
0
100
AcDbPolyline
 62
7
  6
CONTINUOUS
 90
10
 70
0
 10
-5.1248963207
 20
-13.9959889248
 10
-5.1278382178
 20
-13.9786764667
 10
-5.1303762103
 20
-13.9610855179
 10
-5.1325102983
 20
-13.9432160783
 10
-5.1342112874
 20
-13.9250527425
 10
-5.1355083721
 20
-13.9066109159
 10
-5.1364891351
 20
-13.8879368149
 10
-5.1371827709
 20
-13.8690458448
 10
-5.1375600852
 20
-13.8499226003
 10
-5.1376210779
 20
-13.8305670813
  0
LWPOLYLINE
  5
376
100
AcDbEntity
  8
0
100
AcDbPolyline
 62
7
  6
CONTINUOUS
 90
13
 70
0
 10
-4.2723374858
 20
-12.6344398022
 10
-4.2730360238
 20
-12.5893434302
 10
-4.2755053211
 20
-12.5456911965
 10
-4.2797453778
 20
-12.5034831012
 10
-4.2857089008
 20
-12.4626009374
 10
-4.2934431833
 20
-12.423162912
 10
-4.3030901044
 20
-12.3855236457
 10
-4.3147329788
 20
-12.3496375338
 10
-4.3282884919
 20
-12.3155501811
 10
-4.3436485789
 20
-12.2837530232
 10
-4.3607772183
 20
-12.254409872
 10
-4.3797104316
 20
-12.2273569157
 10
-4.4004482188
 20
-12.2025941542
  0
LWPOLYLINE
  5
377
100
AcDbEntity
  8
0
100
AcDbPolyline
 62
7
  6
CONTINUOUS
 90
13
 70
0
 10
-5.3984786261
 20
-13.8305670813
 10
-5.3978604442
 20
-13.8780745964
 10
-5.3955168665
 20
-13.9241032689
 10
-5.3914478928
 20
-13.9686530989
 10
-5.3857282089
 20
-14.0118422312
 10
-5.3782831291
 20
-14.0535525209
 10
-5.3688885967
 20
-14.0934295332
 10
-5.3574663608
 20
-14.1315338474
 10
-5.3440946723
 20
-14.1678048841
 10
-5.3287842265
 20
-14.2017064711
 10
-5.3115385885
 20
-14.2330598843
 10
-5.2923541931
 20
-14.2620438478
 10
-5.2712310404
 20
-14.2886583615
  0
LWPOLYLINE
  5
378
100
AcDbEntity
  8
0
100
AcDbPolyline
 62
7
  6
CONTINUOUS
 90
10
 70
0
 10
-4.2532503501
 20
-13.7573996931
 10
-4.2534491324
 20
-13.7359451173
 10
-4.2540436526
 20
-13.7142823017
 10
-4.2550339104
 20
-13.6924112465
 10
-4.2564247079
 20
-13.6703255484
 10
-4.2582112432
 20
-13.6480316106
 10
-4.2603791103
 20
-13.6255486427
 10
-4.2629235072
 20
-13.6028830478
 10
-4.265849236
 20
-13.5800284226
 10
-4.2691562966
 20
-13.5569847673
  0
LINE
  5
379
100
AcDbEntity
  8
RACCORDO
100
AcDbLine
 62
7
  6
CONTINUOUS
 10
-6.25
 20
14.7
 11
-6.25
 21
8.7
  0
LINE
  5
37A
100
AcDbEntity
  8
RACCORDO
100
AcDbLine
 62
7
  6
CONTINUOUS
 10
-6.25
 20
-11.8
 11
-6.25
 21
-14.8
  0
LINE
  5
37B
100
AcDbEntity
  8
RACCORDO
100
AcDbLine
 62
7
  6
CONTINUOUS
 10
-5.75
 20
5.65
 11
-5.75
 21
-5.65
  0
LINE
  5
37C
100
AcDbEntity
  8
0
100
AcDbLine
 62
7
  6
CONTINUOUS
 10
-5.3666667245
 20
-12.6153526664
 11
-5.3666667245
 21
-12.6439833701
  0
LINE
  5
37D
100
AcDbEntity
  8
0
100
AcDbLine
 62
7
  6
CONTINUOUS
 10
-4.9753804237
 20
-13.1084370077
 11
-4.9753804237
 21
-13.308852002
  0
LWPOLYLINE
  5
37E
100
AcDbEntity
  8
0
100
AcDbPolyline
 62
7
  6
CONTINUOUS
 90
10
 70
0
 10
-5.1121715635
 20
-12.6439833701
 10
-5.1120720838
 20
-12.6269426385
 10
-5.1116854848
 20
-12.610085329
 10
-5.1110117665
 20
-12.5934114416
 10
-5.1100587666
 20
-12.5769125796
 10
-5.1088186473
 20
-12.5605971398
 10
-5.1072678961
 20
-12.5444903119
 10
-5.1053986753
 20
-12.5286004928
 10
-5.1032188225
 20
-12.5129192857
 10
-5.1007283378
 20
-12.4974466906
  0
LWPOLYLINE
  5
37F
100
AcDbEntity
  8
0
100
AcDbPolyline
 62
7
  6
CONTINUOUS
 90
10
 70
0
 10
-4.5204703197
 20
-13.7860303968
 10
-4.5206550064
 20
-13.8059410661
 10
-4.5212236983
 20
-13.8258910206
 10
-4.5221763955
 20
-13.8458802606
 10
-4.5235073726
 20
-13.8658805516
 10
-4.525222355
 20
-13.885920128
 10
-4.5273385185
 20
-13.9060836925
 10
-4.5298615885
 20
-13.9263994794
 10
-4.5327858398
 20
-13.9468392544
 10
-4.5361112722
 20
-13.9674030175
  0
LWPOLYLINE
  5
380
100
AcDbEntity
  8
0
100
AcDbPolyline
 62
7
  6
CONTINUOUS
 90
10
 70
0
 10
-4.5363762662
 20
-12.653526938
 10
-4.5366499195
 20
-12.6803180439
 10
-4.5375295359
 20
-12.7066176094
 10
-4.5390151152
 20
-12.7324256343
 10
-4.5410781026
 20
-12.7577656112
 10
-4.5437470531
 20
-12.7826140476
 10
-4.5471076311
 20
-12.8069004661
 10
-4.5511883914
 20
-12.830601374
 10
-4.5559607793
 20
-12.8537402641
 10
-4.5614247948
 20
-12.8763171362
  0
LINE
  5
381
100
AcDbEntity
  8
0
100
AcDbLine
 62
7
  6
CONTINUOUS
 10
0.008833
 20
14.411797
 11
-0.471223
 21
13.134946
  0
LINE
  5
382
100
AcDbEntity
  8
0
100
AcDbLine
 62
7
  6
CONTINUOUS
 10
-0.44018
 20
12.112007
 11
0.130606
 21
13.607466
  0
LWPOLYLINE
  5
383
100
AcDbEntity
  8
RACCORDO
100
AcDbPolyline
 62
7
  6
CONTINUOUS
 90
3
 70
0
 10
-20.0896039654
 20
-12.8150452621
 10
-20.0475496474
 20
-12.7727566148
 10
-20.032256019
 20
-12.757655315
  0
LINE
  5
384
100
AcDbEntity
  8
RACCORDO
100
AcDbLine
 62
7
  6
CONTINUOUS
 10
-20.1770052681
 20
-12.9024549425
 11
-20.1023627837
 21
-12.8277404502
  0
LINE
  5
385
100
AcDbEntity
  8
RACCORDO
100
AcDbLine
 62
7
  6
CONTINUOUS
 10
-20.1023627837
 20
-12.8277404502
 11
-20.0896039654
 21
-12.8150452621
  0
LINE
  5
386
100
AcDbEntity
  8
RACCORDO
100
AcDbLine
 62
7
  6
CONTINUOUS
 10
-20.1799771819
 20
-12.9053764779
 11
-20.1770052681
 21
-12.9024549425
  0
LINE
  5
387
100
AcDbEntity
  8
DRAFT
100
AcDbLine
 62
7
  6
CONTINUOUS
 10
20.8949489743
 20
14.85
 11
20.8270299161
 21
14.8233583765
  0
LWPOLYLINE
  5
388
100
AcDbEntity
  8
RACCORDO
100
AcDbPolyline
 62
7
  6
CONTINUOUS
 90
4
 70
0
 10
-20.9227097359
 20
-2.4877655462
 10
-20.8983867546
 20
-2.478387637
 10
-20.874909443
 20
-2.466425108
 10
-20.8530304987
 20
-2.4522634845
  0
LINE
  5
389
100
AcDbEntity
  8
DRAFT
100
AcDbLine
 62
7
  6
CONTINUOUS
 10
20.8270299161
 20
14.8233583765
 11
20.7940522821
 21
14.8106383031
  0
LWPOLYLINE
  5
38A
100
AcDbEntity
  8
DRAFT
100
AcDbPolyline
 62
7
  6
CONTINUOUS
 90
3
 70
0
 10
20.7940522821
 20
14.8106383031
 10
20.7613356945
 20
14.7983420129
 10
20.7450979979
 20
14.7923514428
  0
LINE
  5
38B
100
AcDbEntity
  8
RACCORDO
100
AcDbLine
 62
250
  6
CONTINUOUS
 10
20.6763690968
 20
11.9528741146
 11
20.1799771819
 21
11.8053368642
  0
LINE
  5
38C
100
AcDbEntity
  8
RACCORDO
100
AcDbLine
 62
250
  6
CONTINUOUS
 10
20.8240902598
 20
11.8030796844
 11
20.3341155302
 21
11.6574497452
  0
LINE
  5
38D
100
AcDbEntity
  8
RACCORDO
100
AcDbLine
 62
7
  6
CONTINUOUS
 10
-5.65
 20
-5.75
 11
5.65
 21
-5.75
  0
LINE
  5
38E
100
AcDbEntity
  8
RACCORDO
100
AcDbLine
 62
250
  6
CONTINUOUS
 10
20.1799771819
 20
-11.8053368642
 11
20.6763690968
 21
-11.9528741146
  0
LINE
  5
38F
100
AcDbEntity
  8
RACCORDO
100
AcDbLine
 62
250
  6
CONTINUOUS
 10
20.3341155302
 20
-11.6574497452
 11
20.8240902598
 21
-11.8030796844
  0
LINE
  5
390
100
AcDbEntity
  8
DRAFT
100
AcDbLine
 62
7
  6
CONTINUOUS
 10
20.7940522821
 20
-14.8106383031
 11
20.7613356945
 21
-14.7983420129
  0
LINE
  5
391
100
AcDbEntity
  8
DRAFT
100
AcDbLine
 62
7
  6
CONTINUOUS
 10
20.8270299161
 20
-14.8233583765
 11
20.7940522821
 21
-14.8106383031
  0
LINE
  5
392
100
AcDbEntity
  8
DRAFT
100
AcDbLine
 62
7
  6
CONTINUOUS
 10
20.8949489743
 20
-14.85
 11
20.8270299161
 21
-14.8233583765
  0
LWPOLYLINE
  5
393
100
AcDbEntity
  8
RACCORDO
100
AcDbPolyline
 62
250
  6
CONTINUOUS
 90
19
 70
0
 10
-20.8240893778
 20
11.8030796844
 10
-20.8285969242
 20
11.8072645138
 10
-20.8328811003
 20
11.815318294
 10
-20.8369419061
 20
11.8269184319
 10
-20.8408092262
 20
11.8417883213
 10
-20.8444531759
 20
11.8595338708
 10
-20.8477841023
 20
11.8795258896
 10
-20.8507668739
 20
11.9012037863
 10
-20.8534366221
 20
11.9242261207
 10
-20.8558090876
 20
11.948223133
 10
-20.8578636093
 20
11.9725389932
 10
-20.8596208483
 20
11.997119802
 10
-20.8611585291
 20
12.0226897297
 10
-20.8625049449
 20
12.0490421705
 10
-20.8636318026
 20
12.0760802257
 10
-20.8645319469
 20
12.1049263336
 10
-20.8652029928
 20
12.1359236203
 10
-20.8656473254
 20
12.1685199001
 10
-20.8658649447
 20
12.2025314983
  0
LWPOLYLINE
  5
394
100
AcDbEntity
  8
RACCORDO
100
AcDbPolyline
 62
7
  6
CONTINUOUS
 90
3
 70
0
 10
-20.0896459661
 20
12.8150032614
 10
-20.0473573188
 20
12.7729489434
 10
-20.032256019
 20
12.757655315
  0
LINE
  5
395
100
AcDbEntity
  8
RACCORDO
100
AcDbLine
 62
7
  6
CONTINUOUS
 10
-20.1770556465
 20
12.9024045641
 11
-20.1023411542
 21
12.8277620797
  0
LINE
  5
396
100
AcDbEntity
  8
RACCORDO
100
AcDbLine
 62
7
  6
CONTINUOUS
 10
-20.1023411542
 20
12.8277620797
 11
-20.0896459661
 21
12.8150032614
  0
LINE
  5
397
100
AcDbEntity
  8
RACCORDO
100
AcDbLine
 62
7
  6
CONTINUOUS
 10
-20.1799771819
 20
12.9053764779
 11
-20.1770556465
 21
12.9024045641
  0
LWPOLYLINE
  5
398
100
AcDbEntity
  8
0
100
AcDbPolyline
 62
7
  6
CONTINUOUS
 90
10
 70
0
 10
-0.0222684458
 20
-12.3163208723
 10
-0.0354291483
 20
-12.2901616224
 10
-0.0499259257
 20
-12.265423332
 10
-0.0657587781
 20
-12.2421060012
 10
-0.0828361774
 20
-12.2203100095
 10
-0.1012496517
 20
-12.1999349773
 10
-0.1212737848
 20
-12.1806797656
 10
-0.1430001048
 20
-12.1624439946
 10
-0.1663370837
 20
-12.1453280442
 10
-0.1912847214
 20
-12.1293319142
  0
LWPOLYLINE
  5
399
100
AcDbEntity
  8
0
100
AcDbPolyline
 62
7
  6
CONTINUOUS
 90
10
 70
0
 10
0.4670510924
 20
-14.1648444841
 10
0.4810900671
 20
-14.1946691177
 10
0.4963042117
 20
-14.2225898136
 10
0.5126935262
 20
-14.2486065717
 10
0.530212643
 20
-14.2726344663
 10
0.5489069297
 20
-14.2947584232
 10
0.5689124896
 20
-14.3152332199
 10
0.5902746903
 20
-14.3341437821
 10
0.6129481642
 20
-14.351405184
 10
0.6369329112
 20
-14.3670174257
  0
LWPOLYLINE
  5
39A
100
AcDbEntity
  8
0
100
AcDbPolyline
 62
7
  6
CONTINUOUS
 90
10
 70
0
 10
-2.186910621
 20
-14.0410092996
 10
-2.1940281109
 20
-14.0171720741
 10
-2.2004411163
 20
-13.9927162742
 10
-2.2061496371
 20
-13.9676419
 10
-2.2111042839
 20
-13.9419149041
 10
-2.2153544462
 20
-13.9155693338
 10
-2.2190482928
 20
-13.8887073313
 10
-2.2222352133
 20
-13.861362944
 10
-2.2248658181
 20
-13.8335021244
 10
-2.2269401073
 20
-13.8051248727
  0
LWPOLYLINE
  5
39B
100
AcDbEntity
  8
0
100
AcDbPolyline
 62
7
  6
CONTINUOUS
 90
10
 70
0
 10
-0.7490129331
 20
-14.0410092589
 10
-0.7561304572
 20
-14.0171720593
 10
-0.7625434909
 20
-13.9927162801
 10
-0.7682520342
 20
-13.9676419212
 10
-0.7732066965
 20
-13.9419149345
 10
-0.7774568685
 20
-13.9155693683
 10
-0.7811507219
 20
-13.8887073664
 10
-0.7843376474
 20
-13.861362977
 10
-0.7869682545
 20
-13.833502152
 10
-0.789042543
 20
-13.8051248915
  0
LWPOLYLINE
  5
39C
100
AcDbEntity
  8
0
100
AcDbPolyline
 62
7
  6
CONTINUOUS
 90
10
 70
0
 10
-1.6764868811
 20
-12.4594743907
 10
-1.6695395599
 20
-12.4839209162
 10
-1.6631780513
 20
-12.5088933913
 10
-1.6574023552
 20
-12.5343918161
 10
-1.6522094599
 20
-12.5604296617
 10
-1.6476023772
 20
-12.5869934569
 10
-1.6435901421
 20
-12.6140427885
 10
-1.6401757663
 20
-12.6415641853
 10
-1.637356238
 20
-12.6695711186
 10
-1.6351315573
 20
-12.6980635881
  0
LWPOLYLINE
  5
39D
100
AcDbEntity
  8
0
100
AcDbPolyline
 62
7
  6
CONTINUOUS
 90
10
 70
0
 10
-4.2691562966
 20
-13.5569847673
 10
-4.2725518746
 20
-13.5369446484
 10
-4.2765926994
 20
-13.517360436
 10
-4.281278771
 20
-13.4982321302
 10
-4.2865993068
 20
-13.4796143018
 10
-4.2925650894
 20
-13.46145238
 10
-4.2992084667
 20
-13.4435826525
 10
-4.3065402213
 20
-13.4259505486
 10
-4.3145495706
 20
-13.408610639
 10
-4.3232365146
 20
-13.3915629238
  0
LWPOLYLINE
  5
39E
100
AcDbEntity
  8
0
100
AcDbPolyline
 62
7
  6
CONTINUOUS
 90
10
 70
0
 10
-4.5506528333
 20
-12.5042437492
 10
-4.5478475491
 20
-12.521422426
 10
-4.5453305033
 20
-12.5384586499
 10
-4.543101696
 20
-12.5553524209
 10
-4.541139112
 20
-12.5721110203
 10
-4.5394647666
 20
-12.5887271667
 10
-4.5381447047
 20
-12.6051790161
 10
-4.5372009416
 20
-12.6214592871
 10
-4.536611462
 20
-12.637575261
 10
-4.5363762662
 20
-12.653526938
  0
LWPOLYLINE
  5
39F
100
AcDbEntity
  8
0
100
AcDbPolyline
 62
7
  6
CONTINUOUS
 90
10
 70
0
 10
-2.4829060043
 20
-13.8529703704
 10
-2.478815821
 20
-13.8915767544
 10
-2.4736932276
 20
-13.9292268767
 10
-2.467538224
 20
-13.9659207372
 10
-2.4603575984
 20
-14.0017012221
 10
-2.4521445626
 20
-14.0365254453
 10
-2.4428787521
 20
-14.0702647489
 10
-2.4325533787
 20
-14.1028762469
 10
-2.4211752306
 20
-14.1344028253
 10
-2.4087443077
 20
-14.1648444841
  0
LWPOLYLINE
  5
3A0
100
AcDbEntity
  8
0
100
AcDbPolyline
 62
7
  6
CONTINUOUS
 90
10
 70
0
 10
-1.0450084413
 20
-13.8529703704
 10
-1.040918258
 20
-13.8915767544
 10
-1.0357956646
 20
-13.9292268767
 10
-1.029640661
 20
-13.9659207372
 10
-1.0224600354
 20
-14.0017012221
 10
-1.0142469996
 20
-14.0365254453
 10
-1.0049811891
 20
-14.0702647489
 10
-0.9946558157
 20
-14.1028762469
 10
-0.9832776676
 20
-14.1344028253
 10
-0.9708467448
 20
-14.1648444841
  0
LWPOLYLINE
  5
3A1
100
AcDbEntity
  8
0
100
AcDbPolyline
 62
7
  6
CONTINUOUS
 90
9
 70
0
 10
-2.2269401073
 20
-13.8051248727
 10
-2.2290341067
 20
-13.7713328469
 10
-2.2308567365
 20
-13.7371524968
 10
-2.2324079966
 20
-13.7025838222
 10
-2.2336745757
 20
-13.6676275032
 10
-2.234669785
 20
-13.6322828598
 10
-2.2354335585
 20
-13.596547852
 10
-2.2359792075
 20
-13.5604217999
 10
-2.2362934205
 20
-13.5239053835
  0
LWPOLYLINE
  5
3A2
100
AcDbEntity
  8
0
100
AcDbPolyline
 62
7
  6
CONTINUOUS
 90
9
 70
0
 10
-1.6351315573
 20
-12.6980635881
 10
-1.6330115282
 20
-12.7331266071
 10
-1.631167222
 20
-12.768616139
 10
-1.6295986387
 20
-12.8045321838
 10
-1.6283202028
 20
-12.8408776285
 10
-1.6273174897
 20
-12.8776495861
 10
-1.6265472255
 20
-12.9148393956
 10
-1.6259949856
 20
-12.9524441702
 10
-1.6256751945
 20
-12.9904667967
  0
LWPOLYLINE
  5
3A3
100
AcDbEntity
  8
0
100
AcDbPolyline
 62
7
  6
CONTINUOUS
 90
9
 70
0
 10
-2.4971966746
 20
-13.493029251
 10
-2.4968123873
 20
-13.5398874847
 10
-2.4960808582
 20
-13.5862178428
 10
-2.495057406
 20
-13.6320256674
 10
-2.4936867119
 20
-13.6773056165
 10
-2.4918028203
 20
-13.722041664
 10
-2.4893504125
 20
-13.7662284678
 10
-2.4863848072
 20
-13.8098713699
 10
-2.4829060043
 20
-13.8529703704
  0
LINE
  5
3A4
100
AcDbEntity
  8
0
100
AcDbLine
 62
7
  6
CONTINUOUS
 10
-3.7569848195
 20
-12.4467496336
 11
-3.7569848195
 21
-12.7171507239
  0
LINE
  5
3A5
100
AcDbEntity
  8
0
100
AcDbLine
 62
7
  6
CONTINUOUS
 10
-3.39
 20
11.110007
 11
-3.39
 21
8.810006
  0
LINE
  5
3A6
100
AcDbEntity
  8
0
100
AcDbLine
 62
7
  6
CONTINUOUS
 10
-3.3879668608
 20
-12.4213001192
 11
-3.3879668608
 21
-14.4
  0
LINE
  5
3A7
100
AcDbEntity
  8
0
100
AcDbLine
 62
7
  6
CONTINUOUS
 10
-3.123928149
 20
-14.4
 11
-3.123928149
 21
-12.1
  0
LINE
  5
3A8
100
AcDbEntity
  8
0
100
AcDbLine
 62
7
  6
CONTINUOUS
 10
-3.119599
 20
9.026327
 11
-3.119599
 21
11.110007
  0
LINE
  5
3A9
100
AcDbEntity
  8
0
100
AcDbLine
 62
7
  6
CONTINUOUS
 10
-2.4972337201
 20
-13.016182518
 11
-2.4971966746
 21
-13.493029251
  0
LINE
  5
3AA
100
AcDbEntity
  8
0
100
AcDbLine
 62
7
  6
CONTINUOUS
 10
-2.397469
 20
8.810006
 11
-2.397469
 21
9.026327
  0
LINE
  5
3AB
100
AcDbEntity
  8
0
100
AcDbLine
 62
7
  6
CONTINUOUS
 10
-2.372012
 20
14.411935
 11
-2.372012
 21
12.112007
  0
LINE
  5
3AC
100
AcDbEntity
  8
0
100
AcDbLine
 62
7
  6
CONTINUOUS
 10
-2.2362934205
 20
-13.5239053835
 11
-2.2363761976
 21
-13.0289072752
  0
LINE
  5
3AD
100
AcDbEntity
  8
0
100
AcDbLine
 62
7
  6
CONTINUOUS
 10
-2.080077
 20
11.110011
 11
-2.080077
 21
8.810011
  0
LWPOLYLINE
  5
3AE
100
AcDbEntity
  8
0
100
AcDbPolyline
 62
7
  6
CONTINUOUS
 90
10
 70
0
 10
-2.2363761976
 20
-13.0289072752
 10
-2.2362888699
 20
-12.9904667983
 10
-2.2359691006
 20
-12.9524441729
 10
-2.2354168897
 20
-12.914839399
 10
-2.2346466663
 20
-12.8776495895
 10
-2.2336440014
 20
-12.8408776315
 10
-2.2323656076
 20
-12.8045321862
 10
-2.2307970561
 20
-12.7686161408
 10
-2.2289527759
 20
-12.7331266081
 10
-2.2268327668
 20
-12.6980635881
  0
LINE
  5
3AF
100
AcDbEntity
  8
0
100
AcDbLine
 62
7
  6
CONTINUOUS
 10
-1.174268
 20
12.112007
 11
-1.070672
 21
13.613726
  0
LINE
  5
3B0
100
AcDbEntity
  8
0
100
AcDbLine
 62
7
  6
CONTINUOUS
 10
-1.425869
 20
14.411797
 11
-1.633526
 21
12.112007
  0
LWPOLYLINE
  5
3B1
100
AcDbEntity
  8
0
100
AcDbPolyline
 62
7
  6
CONTINUOUS
 90
10
 70
0
 10
-4.2895101854
 20
-12.8314598731
 10
-4.2859983208
 20
-12.8107170662
 10
-4.2828803581
 20
-12.7896786601
 10
-4.2801562973
 20
-12.7683446549
 10
-4.2778167452
 20
-12.7467036889
 10
-4.2758710951
 20
-12.7247671238
 10
-4.2743475261
 20
-12.7025690441
 10
-4.2732554315
 20
-12.6801208114
 10
-4.2725854181
 20
-12.6574110641
 10
-4.2723374858
 20
-12.6344398022
  0
LWPOLYLINE
  5
3B2
100
AcDbEntity
  8
0
100
AcDbPolyline
 62
7
  6
CONTINUOUS
 90
10
 70
0
 10
-5.1007283378
 20
-12.4974466906
 10
-5.097765578
 20
-12.4824150867
 10
-5.0942455826
 20
-12.4677593984
 10
-5.0901683514
 20
-12.4534796255
 10
-5.0855002868
 20
-12.4395362031
 10
-5.0802749864
 20
-12.4259686961
 10
-5.0745932439
 20
-12.4128957997
 10
-5.0684886568
 20
-12.4003570789
 10
-5.0619276276
 20
-12.3883129687
 10
-5.0549101561
 20
-12.376763469
  0
LINE
  5
3B3
100
AcDbEntity
  8
0
100
AcDbLine
 62
7
  6
CONTINUOUS
 10
1.479751
 20
12.926392
 11
1.718779
 21
13.779873
  0
LINE
  5
3B4
100
AcDbEntity
  8
0
100
AcDbLine
 62
7
  6
CONTINUOUS
 10
1.249088
 20
12.112007
 11
1.381553
 21
12.571127
  0
LINE
  5
3B5
100
AcDbEntity
  8
0
100
AcDbLine
 62
7
  6
CONTINUOUS
 10
1.4956
 20
14.411797
 11
0.77424
 21
12.112007
  0
LWPOLYLINE
  5
3B6
100
AcDbEntity
  8
RACCORDO
100
AcDbPolyline
 62
7
  6
CONTINUOUS
 90
16
 70
0
 10
-20.4903017779
 20
-14.992344685
 10
-20.4760132401
 20
-14.9792533503
 10
-20.4633847724
 20
-14.9657246631
 10
-20.4524163749
 20
-14.951890593
 10
-20.4431574984
 20
-14.9377109545
 10
-20.4355586921
 20
-14.9235887116
 10
-20.4294716036
 20
-14.9102797567
 10
-20.4250348659
 20
-14.8981734586
 10
-20.4221098461
 20
-14.8870725833
 10
-20.4201322933
 20
-14.8768269692
 10
-20.4190284816
 20
-14.8674986624
 10
-20.418872137
 20
-14.8593947147
 10
-20.4193201862
 20
-14.8527537171
 10
-20.4202582714
 20
-14.8476939829
 10
-20.4218007504
 20
-14.8442703757
 10
-20.4239476231
 20
-14.8425502548
  0
LWPOLYLINE
  5
3B7
100
AcDbEntity
  8
RACCORDO
100
AcDbPolyline
 62
7
  6
CONTINUOUS
 90
16
 70
0
 10
-20.4239476231
 20
-11.6574497452
 10
-20.4218010329
 20
-11.655729956
 10
-20.4202586528
 20
-11.6523070852
 10
-20.4193204828
 20
-11.647248434
 10
-20.4188720439
 20
-11.6406090119
 10
-20.4190278151
 20
-11.6325069368
 10
-20.4201312338
 20
-11.6231798531
 10
-20.4221089022
 20
-11.6129334263
 10
-20.4250342181
 20
-11.6018302138
 10
-20.4294708127
 20
-11.5897222339
 10
-20.4355566632
 20
-11.5764141433
 10
-20.4431537924
 20
-11.5622940976
 10
-20.4524118986
 20
-11.5481156322
 10
-20.4633808813
 20
-11.5342807321
 10
-20.4760108411
 20
-11.5207499643
 10
-20.4903017779
 20
-11.507655315
  0
LINE
  5
3B8
100
AcDbEntity
  8
DRAFT
100
AcDbLine
 62
7
  6
CONTINUOUS
 10
-21.35
 20
-11.7626767255
 11
-21.1996573543
 21
-11.65
  0
LINE
  5
3B9
100
AcDbEntity
  8
RACCORDO
100
AcDbLine
 62
7
  6
CONTINUOUS
 10
20.4239476231
 20
11.6574497452
 11
20.4684808743
 21
11.6748921033
  0
LWPOLYLINE
  5
3BA
100
AcDbEntity
  8
RACCORDO
100
AcDbPolyline
 62
7
  6
CONTINUOUS
 90
3
 70
0
 10
20.4684808743
 20
11.6748921033
 10
20.4975068639
 20
11.686135487
 10
20.5119099564
 20
11.6916369561
  0
LWPOLYLINE
  5
3BB
100
AcDbEntity
  8
RACCORDO
100
AcDbPolyline
 62
7
  6
CONTINUOUS
 90
3
 70
0
 10
20.5119099564
 20
11.6916369561
 10
20.5406198798
 20
11.7023928293
 10
20.5549020021
 20
11.7076485572
  0
LINE
  5
3BC
100
AcDbEntity
  8
RACCORDO
100
AcDbLine
 62
250
  6
CONTINUOUS
 10
-22.2683301451
 20
-2.1258649447
 11
-21.63468937
 21
-2.1258649447
  0
LINE
  5
3BD
100
AcDbEntity
  8
RACCORDO
100
AcDbLine
 62
250
  6
CONTINUOUS
 10
21.63468937
 20
-2.1258649447
 11
22.2683301451
 21
-2.1258649447
  0
LWPOLYLINE
  5
3BE
100
AcDbEntity
  8
RACCORDO
100
AcDbPolyline
 62
7
  6
CONTINUOUS
 90
4
 70
0
 10
-20.9227097008
 20
2.4877655348
 10
-20.9476274643
 20
2.4944303229
 10
-20.9733908974
 20
2.498510488
 10
-21.0
 20
2.5000060301
  0
LWPOLYLINE
  5
3BF
100
AcDbEntity
  8
RACCORDO
100
AcDbPolyline
 62
7
  6
CONTINUOUS
 90
3
 70
0
 10
20.5119099564
 20
-11.6916369561
 10
20.5262891979
 20
-11.6970556289
 10
20.5549020021
 20
-11.7076485572
  0
LINE
  5
3C0
100
AcDbEntity
  8
RACCORDO
100
AcDbLine
 62
7
  6
CONTINUOUS
 10
20.4830552119
 20
-11.6805525455
 11
20.5119099564
 21
-11.6916369561
  0
LWPOLYLINE
  5
3C1
100
AcDbEntity
  8
RACCORDO
100
AcDbPolyline
 62
7
  6
CONTINUOUS
 90
3
 70
0
 10
20.4239476231
 20
-11.6574497452
 10
20.4389147256
 20
-11.6633413652
 10
20.4830552119
 20
-11.6805525455
  0
LINE
  5
3C2
100
AcDbEntity
  8
DRAFT
100
AcDbLine
 62
7
  6
CONTINUOUS
 10
-21.35
 20
11.7626767255
 11
-21.1996573543
 21
11.65
  0
LWPOLYLINE
  5
3C3
100
AcDbEntity
  8
0
100
AcDbPolyline
 62
7
  6
CONTINUOUS
 90
10
 70
0
 10
5.0556961507
 20
-12.3410443099
 10
5.0702963063
 20
-12.358549418
 10
5.0833194415
 20
-12.3777081629
 10
5.0947655565
 20
-12.3985205444
 10
5.1047178772
 20
-12.4211054935
 10
5.1130931776
 20
-12.4453440793
 10
5.1196417793
 20
-12.4708795091
 10
5.1242804563
 20
-12.497592852
 10
5.1270924345
 20
-12.5256030389
 10
5.1280777141
 20
-12.5549100697
  0
LWPOLYLINE
  5
3C4
100
AcDbEntity
  8
0
100
AcDbPolyline
 62
7
  6
CONTINUOUS
 90
10
 70
0
 10
1.4156291172
 20
-12.3163208723
 10
1.4024684147
 20
-12.2901616224
 10
1.3879716373
 20
-12.265423332
 10
1.3721387849
 20
-12.2421060012
 10
1.3550613856
 20
-12.2203100095
 10
1.3366479113
 20
-12.1999349773
 10
1.3166237781
 20
-12.1806797656
 10
1.2948974581
 20
-12.1624439946
 10
1.2715604793
 20
-12.1453280442
 10
1.2466128416
 20
-12.1293319142
  0
LWPOLYLINE
  5
3C5
100
AcDbEntity
  8
0
100
AcDbPolyline
 62
7
  6
CONTINUOUS
 90
10
 70
0
 10
0.6888846299
 20
-14.0410092589
 10
0.6817671058
 20
-14.0171720593
 10
0.6753540721
 20
-13.9927162801
 10
0.6696455288
 20
-13.9676419212
 10
0.6646908664
 20
-13.9419149345
 10
0.6604406945
 20
-13.9155693683
 10
0.6567468411
 20
-13.8887073664
 10
0.6535599155
 20
-13.861362977
 10
0.6509293085
 20
-13.833502152
 10
0.64885502
 20
-13.8051248915
  0
LWPOLYLINE
  5
3C6
100
AcDbEntity
  8
0
100
AcDbPolyline
 62
7
  6
CONTINUOUS
 90
10
 70
0
 10
-0.2385890666
 20
-12.4594743153
 10
-0.2316417422
 20
-12.4839208474
 10
-0.2252802305
 20
-12.5088933291
 10
-0.2195045315
 20
-12.5343917604
 10
-0.2143116332
 20
-12.5604296123
 10
-0.2097045475
 20
-12.5869934138
 10
-0.2056923099
 20
-12.6140427517
 10
-0.2022779323
 20
-12.6415641547
 10
-0.1994584028
 20
-12.6695710942
 10
-0.1972337213
 20
-12.6980635699
  0
LWPOLYLINE
  5
3C7
100
AcDbEntity
  8
0
100
AcDbPolyline
 62
7
  6
CONTINUOUS
 90
10
 70
0
 10
1.1993084964
 20
-12.4594743153
 10
1.2062558207
 20
-12.4839208474
 10
1.2126173324
 20
-12.5088933291
 10
1.2183930315
 20
-12.5343917604
 10
1.2235859298
 20
-12.5604296123
 10
1.2281930155
 20
-12.5869934138
 10
1.2322052531
 20
-12.6140427517
 10
1.2356196307
 20
-12.6415641547
 10
1.2384391602
 20
-12.6695710942
 10
1.2406638416
 20
-12.6980635699
  0
LWPOLYLINE
  5
3C8
100
AcDbEntity
  8
0
100
AcDbPolyline
 62
7
  6
CONTINUOUS
 90
10
 70
0
 10
-1.3839896946
 20
-12.6121904825
 10
-1.3884907606
 20
-12.5755001238
 10
-1.3939760698
 20
-12.5397298002
 10
-1.4004456223
 20
-12.5048795118
 10
-1.4078907528
 20
-12.4709039862
 10
-1.4163201265
 20
-12.4378484958
 10
-1.4257597393
 20
-12.4058488575
 10
-1.4362182566
 20
-12.3749503436
 10
-1.4476870131
 20
-12.3451076819
 10
-1.4601660088
 20
-12.3163208723
  0
LWPOLYLINE
  5
3C9
100
AcDbEntity
  8
0
100
AcDbPolyline
 62
7
  6
CONTINUOUS
 90
10
 70
0
 10
0.3928893959
 20
-13.8529703704
 10
0.3969795791
 20
-13.8915767544
 10
0.4021021726
 20
-13.9292268767
 10
0.4082571762
 20
-13.9659207372
 10
0.4154378018
 20
-14.0017012221
 10
0.4236508376
 20
-14.0365254453
 10
0.432916648
 20
-14.0702647489
 10
0.4432420214
 20
-14.1028762469
 10
0.4546201696
 20
-14.1344028253
 10
0.4670510924
 20
-14.1648444841
  0
LWPOLYLINE
  5
3CA
100
AcDbEntity
  8
0
100
AcDbPolyline
 62
7
  6
CONTINUOUS
 90
9
 70
0
 10
-0.789042543
 20
-13.8051248915
 10
-0.7911365427
 20
-13.7713328629
 10
-0.7929591727
 20
-13.7371525101
 10
-0.794510433
 20
-13.7025838331
 10
-0.7957770123
 20
-13.6676275118
 10
-0.7967722218
 20
-13.6322828664
 10
-0.7975359955
 20
-13.5965478567
 10
-0.7980816444
 20
-13.5604218029
 10
-0.7983958575
 20
-13.5239053849
  0
LWPOLYLINE
  5
3CB
100
AcDbEntity
  8
0
100
AcDbPolyline
 62
7
  6
CONTINUOUS
 90
9
 70
0
 10
0.64885502
 20
-13.8051248915
 10
0.6467610202
 20
-13.7713328629
 10
0.6449383902
 20
-13.7371525101
 10
0.64338713
 20
-13.7025838331
 10
0.6421205507
 20
-13.6676275118
 10
0.6411253412
 20
-13.6322828664
 10
0.6403615675
 20
-13.5965478567
 10
0.6398159185
 20
-13.5604218029
 10
0.6395017055
 20
-13.5239053849
  0
LWPOLYLINE
  5
3CC
100
AcDbEntity
  8
0
100
AcDbPolyline
 62
7
  6
CONTINUOUS
 90
9
 70
0
 10
-0.1972337213
 20
-12.6980635699
 10
-0.1951137121
 20
-12.7331265926
 10
-0.1932694316
 20
-12.7686161278
 10
-0.1917008799
 20
-12.8045321756
 10
-0.190422486
 20
-12.840877623
 10
-0.1894198209
 20
-12.877649583
 10
-0.1886495974
 20
-12.9148393943
 10
-0.1880973864
 20
-12.95244417
 10
-0.1877776171
 20
-12.9904667969
  0
LWPOLYLINE
  5
3CD
100
AcDbEntity
  8
0
100
AcDbPolyline
 62
7
  6
CONTINUOUS
 90
9
 70
0
 10
-1.3649228502
 20
-12.9580585377
 10
-1.3655888741
 20
-12.9131376368
 10
-1.3667284015
 20
-12.8686950579
 10
-1.3683236341
 20
-12.8247268704
 10
-1.3703923702
 20
-12.7812370049
 10
-1.3729880048
 20
-12.7382372542
 10
-1.3761283363
 20
-12.6957315489
 10
-1.3797955662
 20
-12.6537159584
 10
-1.3839896946
 20
-12.6121904825
  0
LWPOLYLINE
  5
3CE
100
AcDbEntity
  8
0
100
AcDbPolyline
 62
7
  6
CONTINUOUS
 90
9
 70
0
 10
0.0729749721
 20
-12.9580585609
 10
0.0723089263
 20
-12.9131376773
 10
0.0711693699
 20
-12.8686951101
 10
0.0695740968
 20
-12.8247269286
 10
0.0675053132
 20
-12.7812370634
 10
0.0649096367
 20
-12.738237307
 10
0.0617692734
 20
-12.6957315901
 10
0.0581020173
 20
-12.6537159819
 10
0.0539078684
 20
-12.6121904825
  0
LWPOLYLINE
  5
3CF
100
AcDbEntity
  8
0
100
AcDbPolyline
 62
7
  6
CONTINUOUS
 90
9
 70
0
 10
-1.0592991116
 20
-13.493029251
 10
-1.0589148243
 20
-13.5398874847
 10
-1.0581832953
 20
-13.5862178428
 10
-1.057159843
 20
-13.6320256674
 10
-1.0557891489
 20
-13.6773056165
 10
-1.0539052573
 20
-13.722041664
 10
-1.0514528495
 20
-13.7662284678
 10
-1.0484872442
 20
-13.8098713699
 10
-1.0450084413
 20
-13.8529703704
  0
LWPOLYLINE
  5
3D0
100
AcDbEntity
  8
0
100
AcDbPolyline
 62
7
  6
CONTINUOUS
 90
9
 70
0
 10
0.3785987255
 20
-13.493029251
 10
0.3789830128
 20
-13.5398874847
 10
0.3797145419
 20
-13.5862178428
 10
0.3807379942
 20
-13.6320256674
 10
0.3821086882
 20
-13.6773056165
 10
0.3839925799
 20
-13.722041664
 10
0.3864449876
 20
-13.7662284678
 10
0.389410593
 20
-13.8098713699
 10
0.3928893959
 20
-13.8529703704
  0
LINE
  5
3D1
100
AcDbEntity
  8
0
100
AcDbLine
 62
7
  6
CONTINUOUS
 10
-1.891956
 20
12.112007
 11
-1.891956
 21
14.411935
  0
LINE
  5
3D2
100
AcDbEntity
  8
0
100
AcDbLine
 62
7
  6
CONTINUOUS
 10
-1.809675
 20
8.810011
 11
-1.809675
 21
11.110011
  0
LINE
  5
3D3
100
AcDbEntity
  8
0
100
AcDbLine
 62
7
  6
CONTINUOUS
 10
-1.6256751945
 20
-12.9904667967
 11
-1.6255878523
 21
-13.490179792
  0
LINE
  5
3D4
100
AcDbEntity
  8
0
100
AcDbLine
 62
7
  6
CONTINUOUS
 10
-1.385532
 20
11.110007
 11
-1.385532
 21
8.810006
  0
LINE
  5
3D5
100
AcDbEntity
  8
0
100
AcDbLine
 62
7
  6
CONTINUOUS
 10
-1.3647303298
 20
-13.4392807633
 11
-1.3649228502
 21
-12.9580585377
  0
LINE
  5
3D6
100
AcDbEntity
  8
0
100
AcDbLine
 62
7
  6
CONTINUOUS
 10
-1.134218
 20
8.810006
 11
-1.134218
 21
10.87778
  0
LINE
  5
3D7
100
AcDbEntity
  8
0
100
AcDbLine
 62
7
  6
CONTINUOUS
 10
-1.0593361571
 20
-13.016182518
 11
-1.0592991116
 21
-13.493029251
  0
LINE
  5
3D8
100
AcDbEntity
  8
0
100
AcDbLine
 62
7
  6
CONTINUOUS
 10
-0.7983958575
 20
-13.5239053849
 11
-0.7984786347
 21
-13.0289072752
  0
LINE
  5
3D9
100
AcDbEntity
  8
0
100
AcDbLine
 62
7
  6
CONTINUOUS
 10
-0.192586
 20
11.110007
 11
-0.192586
 21
9.042233
  0
LINE
  5
3DA
100
AcDbEntity
  8
0
100
AcDbLine
 62
7
  6
CONTINUOUS
 10
-0.1877776171
 20
-12.9904667969
 11
-0.1876902893
 21
-13.490179792
  0
LINE
  5
3DB
100
AcDbEntity
  8
0
100
AcDbLine
 62
7
  6
CONTINUOUS
 10
0.05875
 20
8.810006
 11
0.05875
 21
11.110007
  0
LINE
  5
3DC
100
AcDbEntity
  8
0
100
AcDbLine
 62
7
  6
CONTINUOUS
 10
0.0731675074
 20
-13.4392807633
 11
0.0729749721
 21
-12.9580585609
  0
LWPOLYLINE
  5
3DD
100
AcDbEntity
  8
0
100
AcDbPolyline
 62
7
  6
CONTINUOUS
 90
10
 70
0
 10
-0.7984786347
 20
-13.0289072752
 10
-0.7983913069
 20
-12.9904667969
 10
-0.7980715376
 20
-12.95244417
 10
-0.7975193266
 20
-12.9148393943
 10
-0.7967491031
 20
-12.877649583
 10
-0.795746438
 20
-12.840877623
 10
-0.7944680441
 20
-12.8045321756
 10
-0.7928994924
 20
-12.7686161278
 10
-0.7910552119
 20
-12.7331265926
 10
-0.7889352026
 20
-12.6980635699
  0
LWPOLYLINE
  5
3DE
100
AcDbEntity
  8
0
100
AcDbPolyline
 62
7
  6
CONTINUOUS
 90
10
 70
0
 10
-1.6255878523
 20
-13.490179792
 10
-1.6256752242
 20
-13.5275154646
 10
-1.6259923624
 20
-13.5644446583
 10
-1.6265392669
 20
-13.6009673731
 10
-1.627301922
 20
-13.6370865898
 10
-1.6282943434
 20
-13.6727993275
 10
-1.6295585781
 20
-13.7080966445
 10
-1.6311086417
 20
-13.7429755599
 10
-1.6329305185
 20
-13.7774390546
 10
-1.6350242085
 20
-13.8114871284
  0
LWPOLYLINE
  5
3DF
100
AcDbEntity
  8
0
100
AcDbPolyline
 62
7
  6
CONTINUOUS
 90
10
 70
0
 10
-0.1876902893
 20
-13.490179792
 10
-0.1877776469
 20
-13.5275154644
 10
-0.1880947635
 20
-13.5644446585
 10
-0.1886416391
 20
-13.6009673744
 10
-0.1894042535
 20
-13.6370865928
 10
-0.190396627
 20
-13.672799333
 10
-0.1916608196
 20
-13.7080966527
 10
-0.1932108515
 20
-13.7429755712
 10
-0.1950327024
 20
-13.7774390691
 10
-0.1971263726
 20
-13.8114871466
  0
LWPOLYLINE
  5
3E0
100
AcDbEntity
  8
0
100
AcDbPolyline
 62
7
  6
CONTINUOUS
 90
10
 70
0
 10
-2.2268327668
 20
-12.6980635881
 10
-2.2247542203
 20
-12.6692594497
 10
-2.2221275955
 20
-12.6409895499
 10
-2.2189528923
 20
-12.6132538887
 10
-2.2152846973
 20
-12.5860167529
 10
-2.2110684239
 20
-12.5593138557
 10
-2.2061403128
 20
-12.5332523374
 10
-2.2004457774
 20
-12.5078679115
 10
-2.1940394043
 20
-12.4831248645
 10
-2.1869211934
 20
-12.4590231965
  0
LWPOLYLINE
  5
3E1
100
AcDbEntity
  8
0
100
AcDbPolyline
 62
7
  6
CONTINUOUS
 90
10
 70
0
 10
-0.7889352026
 20
-12.6980635699
 10
-0.7868566566
 20
-12.6692594215
 10
-0.7842300294
 20
-12.6409895153
 10
-0.781055321
 20
-12.6132538512
 10
-0.777387119
 20
-12.5860167152
 10
-0.7731708358
 20
-12.5593138214
 10
-0.7682427089
 20
-12.5332523119
 10
-0.7625481509
 20
-12.5078679008
 10
-0.7561417491
 20
-12.483124874
 10
-0.7490235037
 20
-12.4590232314
  0
LWPOLYLINE
  5
3E2
100
AcDbEntity
  8
0
100
AcDbPolyline
 62
7
  6
CONTINUOUS
 90
10
 70
0
 10
-1.6350242085
 20
-13.8114871284
 10
-1.6372365079
 20
-13.8396850139
 10
-1.6400844316
 20
-13.8673744356
 10
-1.6435679796
 20
-13.8945553934
 10
-1.6476833387
 20
-13.9212485976
 10
-1.6524343222
 20
-13.9474333379
 10
-1.6578323694
 20
-13.9730474842
 10
-1.6638812936
 20
-13.9980703265
 10
-1.6705772816
 20
-14.0225225748
 10
-1.6779203333
 20
-14.046404229
  0
LWPOLYLINE
  5
3E3
100
AcDbEntity
  8
0
100
AcDbPolyline
 62
7
  6
CONTINUOUS
 90
10
 70
0
 10
-1.3822145101
 20
-13.8463380635
 10
-1.3785161494
 20
-13.8032126793
 10
-1.375259897
 20
-13.7595581729
 10
-1.3724457531
 20
-13.7153745444
 10
-1.3700779706
 20
-13.6706573657
 10
-1.3681522966
 20
-13.6254110649
 10
-1.3666559714
 20
-13.5796489258
 10
-1.365584742
 20
-13.5333753765
 10
-1.3649428615
 20
-13.486585989
 10
-1.3647303298
 20
-13.4392807633
  0
LWPOLYLINE
  5
3E4
100
AcDbEntity
  8
0
100
AcDbPolyline
 62
7
  6
CONTINUOUS
 90
10
 70
0
 10
-2.4781465843
 20
-12.6248962343
 10
-2.4822917589
 20
-12.6664439394
 10
-2.4859185984
 20
-12.7084766057
 10
-2.4890271027
 20
-12.7509942332
 10
-2.4916009523
 20
-12.7940005871
 10
-2.4936564668
 20
-12.8374919023
 10
-2.495242605
 20
-12.8814568825
 10
-2.4963756864
 20
-12.9258917625
 10
-2.4970393914
 20
-12.9708003077
 10
-2.4972337201
 20
-13.016182518
  0
LWPOLYLINE
  5
3E5
100
AcDbEntity
  8
0
100
AcDbPolyline
 62
7
  6
CONTINUOUS
 90
10
 70
0
 10
-1.0402490214
 20
-12.6248962343
 10
-1.0443941959
 20
-12.6664439394
 10
-1.0480210354
 20
-12.7084766057
 10
-1.0511295397
 20
-12.7509942332
 10
-1.0537033893
 20
-12.7940005871
 10
-1.0557589038
 20
-12.8374919023
 10
-1.057345042
 20
-12.8814568825
 10
-1.0584781234
 20
-12.9258917625
 10
-1.0591418284
 20
-12.9708003077
 10
-1.0593361571
 20
-13.016182518
  0
LWPOLYLINE
  5
3E6
100
AcDbEntity
  8
0
100
AcDbPolyline
 62
7
  6
CONTINUOUS
 90
10
 70
0
 10
-4.5361112722
 20
-13.9674030175
 10
-4.5394284875
 20
-13.9855997381
 10
-4.5433190535
 20
-14.0032609818
 10
-4.5477829703
 20
-14.0203867486
 10
-4.5527954802
 20
-14.0370283195
 10
-4.558381341
 20
-14.0531344134
 10
-4.5646148251
 20
-14.068551187
 10
-4.5715206903
 20
-14.0832273591
 10
-4.5790741789
 20
-14.0972142108
 10
-4.587275291
 20
-14.1105117422
  0
LWPOLYLINE
  5
3E7
100
AcDbEntity
  8
0
100
AcDbPolyline
 62
7
  6
CONTINUOUS
 90
10
 70
0
 10
-4.2818810519
 20
-14.0405255754
 10
-4.2757179767
 20
-14.0114655497
 10
-4.2703143098
 20
-13.9817895777
 10
-4.2656700512
 20
-13.9514976596
 10
-4.2618037832
 20
-13.9205680022
 10
-4.2586969235
 20
-13.8890223987
 10
-4.256293725
 20
-13.8569262281
 10
-4.2545756054
 20
-13.8243012835
 10
-4.2535611471
 20
-13.7911257718
 10
-4.2532503501
 20
-13.7573996931
  0
LINE
  5
3E8
100
AcDbEntity
  8
0
100
AcDbLine
 62
7
  6
CONTINUOUS
 10
2.210253
 20
9.6085
 11
2.544278
 21
10.858687
  0
LINE
  5
3E9
100
AcDbEntity
  8
0
100
AcDbLine
 62
7
  6
CONTINUOUS
 10
1.981206
 20
8.81
 11
2.143447
 21
9.392179
  0
LWPOLYLINE
  5
3EA
100
AcDbEntity
  8
0
100
AcDbPolyline
 62
7
  6
CONTINUOUS
 90
10
 70
0
 10
-4.5614247948
 20
-12.8763171362
 10
-4.5669906678
 20
-12.8954570741
 10
-4.5732799512
 20
-12.9137716155
 10
-4.580292645
 20
-12.9312607602
 10
-4.5880357941
 20
-12.947993277
 10
-4.5965023536
 20
-12.9639003972
 10
-4.6056711885
 20
-12.9787758151
 10
-4.6155352536
 20
-12.9925507622
 10
-4.6261015941
 20
-13.005294007
 10
-4.63737021
 20
-13.0170055495
  0
LINE
  5
3EB
100
AcDbEntity
  8
0
100
AcDbLine
 62
7
  6
CONTINUOUS
 10
2.385218
 20
11.110022
 11
1.710806
 21
8.81
  0
LWPOLYLINE
  5
3EC
100
AcDbEntity
  8
RACCORDO
100
AcDbPolyline
 62
250
  6
CONTINUOUS
 90
13
 70
0
 10
-21.6541776388
 20
-1.9781437817
 10
-21.6152968029
 20
-1.9752968931
 10
-21.5770735639
 20
-1.9675012974
 10
-21.5401543969
 20
-1.9548888424
 10
-21.5051637207
 20
-1.9376728444
 10
-21.4726933376
 20
-1.91614448
 10
-21.4432924236
 20
-1.8906678614
 10
-21.4174582406
 20
-1.8616738781
 10
-21.3956277255
 20
-1.8296529095
 10
-21.3781701009
 20
-1.7951465306
 10
-21.36538063
 20
-1.7587383525
 10
-21.357475623
 20
-1.7210441518
 10
-21.3545887783
 20
-1.6827014558
  0
LWPOLYLINE
  5
3ED
100
AcDbEntity
  8
RACCORDO
100
AcDbPolyline
 62
250
  6
CONTINUOUS
 90
13
 70
0
 10
-21.7308434758
 20
-1.7202000995
 10
-21.6919616868
 20
-1.7173530813
 10
-21.6537376899
 20
-1.7095571541
 10
-21.6168179883
 20
-1.6969442338
 10
-21.581826998
 20
-1.6797276984
 10
-21.5493565322
 20
-1.6581987976
 10
-21.5199557815
 20
-1.6327217422
 10
-21.4941219641
 20
-1.6037274987
 10
-21.4722919435
 20
-1.571706494
 10
-21.4548348721
 20
-1.5372003572
 10
-21.4420459218
 20
-1.5007927248
 10
-21.4341413023
 20
-1.4630993637
 10
-21.4312546154
 20
-1.4247577736
  0
LWPOLYLINE
  5
3EE
100
AcDbEntity
  8
RACCORDO
100
AcDbPolyline
 62
250
  6
CONTINUOUS
 90
13
 70
0
 10
21.7308434758
 20
1.7202000995
 10
21.6919616868
 20
1.7173530813
 10
21.6537376899
 20
1.7095571541
 10
21.6168179883
 20
1.6969442338
 10
21.581826998
 20
1.6797276984
 10
21.5493565322
 20
1.6581987976
 10
21.5199557815
 20
1.6327217422
 10
21.4941219641
 20
1.6037274987
 10
21.4722919435
 20
1.571706494
 10
21.4548348721
 20
1.5372003572
 10
21.4420459218
 20
1.5007927248
 10
21.4341413023
 20
1.4630993637
 10
21.4312546154
 20
1.4247577736
  0
LWPOLYLINE
  5
3EF
100
AcDbEntity
  8
RACCORDO
100
AcDbPolyline
 62
7
  6
CONTINUOUS
 90
4
 70
0
 10
-21.0
 20
-2.5000060301
 10
-20.973390909
 20
-2.4985104886
 10
-20.9476274876
 20
-2.4944303273
 10
-20.9227097359
 20
-2.4877655462
  0
LINE
  5
3F0
100
AcDbEntity
  8
RACCORDO
100
AcDbLine
 62
250
  6
CONTINUOUS
 10
-22.2715759627
 20
-1.9781437817
 11
-21.6541776388
 21
-1.9781437817
  0
LINE
  5
3F1
100
AcDbEntity
  8
RACCORDO
100
AcDbLine
 62
250
  6
CONTINUOUS
 10
21.6541776388
 20
-1.9781437817
 11
22.2715759627
 21
-1.9781437817
  0
LINE
  5
3F2
100
AcDbEntity
  8
RACCORDO
100
AcDbLine
 62
250
  6
CONTINUOUS
 10
-22.3098825962
 20
-1.7202000995
 11
-21.7308434758
 21
-1.7202000995
  0
LINE
  5
3F3
100
AcDbEntity
  8
RACCORDO
100
AcDbLine
 62
250
  6
CONTINUOUS
 10
21.7308434758
 20
-1.7202000995
 11
22.3098825962
 21
-1.7202000995
  0
LINE
  5
3F4
100
AcDbEntity
  8
RACCORDO
100
AcDbLine
 62
250
  6
CONTINUOUS
 10
-22.3207019882
 20
-1.227796223
 11
-21.4399160682
 21
-1.227796223
  0
LINE
  5
3F5
100
AcDbEntity
  8
RACCORDO
100
AcDbLine
 62
250
  6
CONTINUOUS
 10
21.4399160682
 20
-1.227796223
 11
22.3207019882
 21
-1.227796223
  0
LWPOLYLINE
  5
3F6
100
AcDbEntity
  8
RACCORDO
100
AcDbPolyline
 62
250
  6
CONTINUOUS
 90
13
 70
0
 10
21.6541776388
 20
-1.9781437817
 10
21.6152970448
 20
-1.9752969266
 10
21.5770739992
 20
-1.9675014157
 10
21.5401549697
 20
-1.9548890802
 10
21.5051643765
 20
-1.9376732213
 10
21.4726940177
 20
-1.916144997
 10
21.4432930641
 20
-1.8906684934
 10
21.4174587885
 20
-1.8616745799
 10
21.3956281468
 20
-1.8296536234
 10
21.3781703791
 20
-1.7951471833
 10
21.3653807726
 20
-1.7587388632
 10
21.3574756643
 20
-1.7210444426
 10
21.3545887783
 20
-1.6827014558
  0
LWPOLYLINE
  5
3F7
100
AcDbEntity
  8
RACCORDO
100
AcDbPolyline
 62
250
  6
CONTINUOUS
 90
13
 70
0
 10
21.7308434758
 20
-1.7202000995
 10
21.6919626399
 20
-1.7173532109
 10
21.6537394009
 20
-1.7095576151
 10
21.6168202339
 20
-1.6969451602
 10
21.5818295577
 20
-1.6797291622
 10
21.5493591746
 20
-1.6582007978
 10
21.5199582607
 20
-1.6327241792
 10
21.4941240776
 20
-1.6037301959
 10
21.4722935625
 20
-1.5717092273
 10
21.4548359379
 20
-1.5372028483
 10
21.4420464671
 20
-1.5007946702
 10
21.4341414601
 20
-1.4631004696
 10
21.4312546154
 20
-1.4247577736
  0
LWPOLYLINE
  5
3F8
100
AcDbEntity
  8
RACCORDO
100
AcDbPolyline
 62
250
  6
CONTINUOUS
 90
13
 70
0
 10
-21.7308434758
 20
1.7202000995
 10
-21.6919626399
 20
1.7173532109
 10
-21.6537394009
 20
1.7095576151
 10
-21.6168202339
 20
1.6969451602
 10
-21.5818295577
 20
1.6797291622
 10
-21.5493591746
 20
1.6582007978
 10
-21.5199582607
 20
1.6327241792
 10
-21.4941240776
 20
1.6037301959
 10
-21.4722935625
 20
1.5717092273
 10
-21.4548359379
 20
1.5372028483
 10
-21.4420464671
 20
1.5007946702
 10
-21.4341414601
 20
1.4631004696
 10
-21.4312546154
 20
1.4247577736
  0
LWPOLYLINE
  5
3F9
100
AcDbEntity
  8
RACCORDO
100
AcDbPolyline
 62
250
  6
CONTINUOUS
 90
19
 70
0
 10
-20.6763690968
 20
11.9528741146
 10
-20.680874987
 20
11.9558427221
 10
-20.6851581531
 20
11.9608091437
 10
-20.6892185951
 20
11.9677733795
 10
-20.693086546
 20
11.9770289153
 10
-20.6967317728
 20
11.9882822652
 10
-20.7000635772
 20
12.0006529719
 10
-20.7030463214
 20
12.014086453
 10
-20.7057156432
 20
12.0286372909
 10
-20.7080877581
 20
12.0435887756
 10
-20.7101421547
 20
12.0586556922
 10
-20.7118993444
 20
12.0741232557
 10
-20.7134370766
 20
12.0901304009
 10
-20.7147837337
 20
12.1065475456
 10
-20.7159109333
 20
12.1235042721
 10
-20.7168112776
 20
12.1415282624
 10
-20.7174823009
 20
12.1607954106
 10
-20.7179264689
 20
12.1811298225
 10
-20.7181437817
 20
12.2025314983
  0
LINE
  5
3FA
100
AcDbEntity
  8
0
100
AcDbLine
 62
7
  6
CONTINUOUS
 10
-4.441534
 20
14.411797
 11
-3.712456
 21
12.112007
  0
LINE
  5
3FB
100
AcDbEntity
  8
0
100
AcDbLine
 62
7
  6
CONTINUOUS
 10
3.3720606729
 20
-14.4
 11
2.7071922466
 21
-12.1
  0
LINE
  5
3FC
100
AcDbEntity
  8
0
100
AcDbLine
 62
7
  6
CONTINUOUS
 10
2.9298752233
 20
-13.8178422898
 11
3.0921160147
 21
-14.4
  0
LINE
  5
3FD
100
AcDbEntity
  8
0
100
AcDbLine
 62
7
  6
CONTINUOUS
 10
-3.481663
 20
12.82878
 11
-3.920045
 21
14.411797
  0
LINE
  5
3FE
100
AcDbEntity
  8
0
100
AcDbLine
 62
7
  6
CONTINUOUS
 10
2.5322266981
 20
-12.3513139546
 11
2.8662514374
 21
-13.6015214175
  0
LWPOLYLINE
  5
3FF
100
AcDbEntity
  8
0
100
AcDbPolyline
 62
7
  6
CONTINUOUS
 90
10
 70
0
 10
0.0539078684
 20
-12.6121904825
 10
0.0494068024
 20
-12.5755001238
 10
0.0439214932
 20
-12.5397298002
 10
0.0374519406
 20
-12.5048795118
 10
0.0300068102
 20
-12.4709039862
 10
0.0215774365
 20
-12.4378484958
 10
0.0121378237
 20
-12.4058488575
 10
0.0016793064
 20
-12.3749503436
 10
-0.0097894501
 20
-12.3451076819
 10
-0.0222684458
 20
-12.3163208723
  0
LWPOLYLINE
  5
400
100
AcDbEntity
  8
0
100
AcDbPolyline
 62
7
  6
CONTINUOUS
 90
10
 70
0
 10
1.4918054314
 20
-12.6121904825
 10
1.4873043654
 20
-12.5755001238
 10
1.4818190561
 20
-12.5397298002
 10
1.4753495036
 20
-12.5048795118
 10
1.4679043732
 20
-12.4709039862
 10
1.4594749995
 20
-12.4378484958
 10
1.4500353867
 20
-12.4058488575
 10
1.4395768693
 20
-12.3749503436
 10
1.4281081128
 20
-12.3451076819
 10
1.4156291172
 20
-12.3163208723
  0
LINE
  5
401
100
AcDbEntity
  8
0
100
AcDbLine
 62
7
  6
CONTINUOUS
 10
0.698858
 20
12.112007
 11
0.483802
 21
14.411797
  0
LINE
  5
402
100
AcDbEntity
  8
0
100
AcDbLine
 62
7
  6
CONTINUOUS
 10
0.130606
 20
13.607466
 11
0.229236
 21
12.112007
  0
LWPOLYLINE
  5
403
100
AcDbEntity
  8
0
100
AcDbPolyline
 62
7
  6
CONTINUOUS
 90
9
 70
0
 10
1.2406638416
 20
-12.6980635699
 10
1.2427838509
 20
-12.7331265926
 10
1.2446281314
 20
-12.7686161278
 10
1.2461966831
 20
-12.8045321756
 10
1.247475077
 20
-12.840877623
 10
1.2484777421
 20
-12.877649583
 10
1.2492479656
 20
-12.9148393943
 10
1.2498001766
 20
-12.95244417
 10
1.2501199459
 20
-12.9904667969
  0
LWPOLYLINE
  5
404
100
AcDbEntity
  8
0
100
AcDbPolyline
 62
7
  6
CONTINUOUS
 90
9
 70
0
 10
1.5108725351
 20
-12.9580585609
 10
1.5102064893
 20
-12.9131376773
 10
1.5090669328
 20
-12.8686951101
 10
1.5074716598
 20
-12.8247269286
 10
1.5054028762
 20
-12.7812370634
 10
1.5028071997
 20
-12.738237307
 10
1.4996668364
 20
-12.6957315901
 10
1.4959995803
 20
-12.6537159819
 10
1.4918054314
 20
-12.6121904825
  0
LINE
  5
405
100
AcDbEntity
  8
0
100
AcDbLine
 62
7
  6
CONTINUOUS
 10
0.37856168
 20
-13.016182518
 11
0.3785987255
 21
-13.493029251
  0
LINE
  5
406
100
AcDbEntity
  8
0
100
AcDbLine
 62
7
  6
CONTINUOUS
 10
0.479694
 20
11.110007
 11
0.479694
 21
8.810006
  0
LINE
  5
407
100
AcDbEntity
  8
0
100
AcDbLine
 62
7
  6
CONTINUOUS
 10
0.6395017055
 20
-13.5239053849
 11
0.6394189283
 21
-13.0289072752
  0
LINE
  5
408
100
AcDbEntity
  8
0
100
AcDbLine
 62
7
  6
CONTINUOUS
 10
0.750095
 20
9.026327
 11
0.750095
 21
9.888429
  0
LINE
  5
409
100
AcDbEntity
  8
0
100
AcDbLine
 62
7
  6
CONTINUOUS
 10
0.750095
 20
10.104751
 11
0.750095
 21
10.893686
  0
LINE
  5
40A
100
AcDbEntity
  8
0
100
AcDbLine
 62
7
  6
CONTINUOUS
 10
1.2501199459
 20
-12.9904667969
 11
1.2502072737
 21
-13.490179792
  0
LINE
  5
40B
100
AcDbEntity
  8
0
100
AcDbLine
 62
7
  6
CONTINUOUS
 10
1.497674
 20
9.888429
 11
1.497674
 21
10.104751
  0
LINE
  5
40C
100
AcDbEntity
  8
0
100
AcDbLine
 62
7
  6
CONTINUOUS
 10
1.5110650703
 20
-13.4392807633
 11
1.5108725351
 21
-12.9580585609
  0
LINE
  5
40D
100
AcDbEntity
  8
0
100
AcDbLine
 62
7
  6
CONTINUOUS
 10
1.53903
 20
10.893686
 11
1.53903
 21
11.110007
  0
LINE
  5
40E
100
AcDbEntity
  8
0
100
AcDbLine
 62
7
  6
CONTINUOUS
 10
1.561298
 20
8.810006
 11
1.561298
 21
9.026327
  0
LWPOLYLINE
  5
40F
100
AcDbEntity
  8
0
100
AcDbPolyline
 62
7
  6
CONTINUOUS
 90
10
 70
0
 10
0.6394189283
 20
-13.0289072752
 10
0.6395062561
 20
-12.9904667969
 10
0.6398260254
 20
-12.95244417
 10
0.6403782364
 20
-12.9148393943
 10
0.6411484599
 20
-12.877649583
 10
0.642151125
 20
-12.840877623
 10
0.6434295189
 20
-12.8045321756
 10
0.6449980706
 20
-12.7686161278
 10
0.6468423511
 20
-12.7331265926
 10
0.6489623603
 20
-12.6980635699
  0
LWPOLYLINE
  5
410
100
AcDbEntity
  8
0
100
AcDbPolyline
 62
7
  6
CONTINUOUS
 90
10
 70
0
 10
1.2502072737
 20
-13.490179792
 10
1.2501199161
 20
-13.5275154644
 10
1.2498027995
 20
-13.5644446585
 10
1.2492559239
 20
-13.6009673744
 10
1.2484933094
 20
-13.6370865928
 10
1.247500936
 20
-13.672799333
 10
1.2462367434
 20
-13.7080966527
 10
1.2446867115
 20
-13.7429755712
 10
1.2428648605
 20
-13.7774390691
 10
1.2407711904
 20
-13.8114871466
  0
LWPOLYLINE
  5
411
100
AcDbEntity
  8
0
100
AcDbPolyline
 62
7
  6
CONTINUOUS
 90
10
 70
0
 10
0.6489623603
 20
-12.6980635699
 10
0.6510409064
 20
-12.6692594215
 10
0.6536675336
 20
-12.6409895153
 10
0.656842242
 20
-12.6132538512
 10
0.660510444
 20
-12.5860167152
 10
0.6647267272
 20
-12.5593138214
 10
0.6696548541
 20
-12.5332523119
 10
0.6753494121
 20
-12.5078679008
 10
0.6817558138
 20
-12.483124874
 10
0.6888740592
 20
-12.4590232314
  0
LWPOLYLINE
  5
412
100
AcDbEntity
  8
0
100
AcDbPolyline
 62
7
  6
CONTINUOUS
 90
10
 70
0
 10
-0.1971263726
 20
-13.8114871466
 10
-0.1993386725
 20
-13.8396850515
 10
-0.2021866001
 20
-13.8673744889
 10
-0.2056701553
 20
-13.8945554586
 10
-0.2097855242
 20
-13.9212486715
 10
-0.2145365206
 20
-13.9474334169
 10
-0.2199345868
 20
-13.9730475625
 10
-0.2259835366
 20
-13.9980703979
 10
-0.2326795561
 20
-14.0225226336
 10
-0.2400226453
 20
-14.0464042696
  0
LWPOLYLINE
  5
413
100
AcDbEntity
  8
0
100
AcDbPolyline
 62
7
  6
CONTINUOUS
 90
10
 70
0
 10
1.2407711904
 20
-13.8114871466
 10
1.2385588904
 20
-13.8396850515
 10
1.2357109629
 20
-13.8673744889
 10
1.2322274076
 20
-13.8945554586
 10
1.2281120388
 20
-13.9212486715
 10
1.2233610424
 20
-13.9474334169
 10
1.2179629762
 20
-13.9730475625
 10
1.2119140264
 20
-13.9980703979
 10
1.2052180068
 20
-14.0225226336
 10
1.1978749176
 20
-14.0464042696
  0
LWPOLYLINE
  5
414
100
AcDbEntity
  8
0
100
AcDbPolyline
 62
7
  6
CONTINUOUS
 90
10
 70
0
 10
0.0556830529
 20
-13.8463380635
 10
0.0593814326
 20
-13.8032126806
 10
0.0626377101
 20
-13.7595581754
 10
0.0654518855
 20
-13.7153745478
 10
0.06781971
 20
-13.67065737
 10
0.0697454323
 20
-13.6254110699
 10
0.0712417986
 20
-13.5796489308
 10
0.0723130576
 20
-13.5333753806
 10
0.0729549605
 20
-13.4865859914
 10
0.0731675074
 20
-13.4392807633
  0
LWPOLYLINE
  5
415
100
AcDbEntity
  8
0
100
AcDbPolyline
 62
7
  6
CONTINUOUS
 90
10
 70
0
 10
0.3976485416
 20
-12.6248962343
 10
0.3935033876
 20
-12.6664439157
 10
0.3898765743
 20
-12.7084765642
 10
0.3867681019
 20
-12.7509941799
 10
0.3841942942
 20
-12.7940005281
 10
0.3821388272
 20
-12.8374918435
 10
0.3805527295
 20
-12.8814568298
 10
0.3794196771
 20
-12.9258917216
 10
0.3787559939
 20
-12.9708002844
 10
0.37856168
 20
-13.016182518
  0
LWPOLYLINE
  5
416
100
AcDbEntity
  8
0
100
AcDbPolyline
 62
7
  6
CONTINUOUS
 90
10
 70
0
 10
-2.1869211934
 20
-12.4590231965
 10
-2.1796612626
 20
-12.4383717313
 10
-2.1715913526
 20
-12.4187732972
 10
-2.1627114632
 20
-12.4002278942
 10
-2.1529919575
 20
-12.3826588328
 10
-2.1424624726
 20
-12.3661428025
 10
-2.1312119197
 20
-12.3509098721
 10
-2.1192699362
 20
-12.3370367312
 10
-2.1066068847
 20
-12.3244466903
 10
-2.0932227653
 20
-12.3131397493
  0
LWPOLYLINE
  5
417
100
AcDbEntity
  8
0
100
AcDbPolyline
 62
7
  6
CONTINUOUS
 90
10
 70
0
 10
-4.3455048397
 20
-13.0002765715
 10
-4.3367967543
 20
-12.9821987456
 10
-4.3287286752
 20
-12.9640083697
 10
-4.3213006026
 20
-12.9457054436
 10
-4.3145370591
 20
-12.9273664291
 10
-4.308413522
 20
-12.9089148645
 10
-4.3028564229
 20
-12.890121365
 10
-4.2978412391
 20
-12.8709094692
 10
-4.2933924932
 20
-12.8513556386
 10
-4.2895101854
 20
-12.8314598731
  0
LWPOLYLINE
  5
418
100
AcDbEntity
  8
RACCORDO
100
AcDbPolyline
 62
250
  6
CONTINUOUS
 90
13
 70
0
 10
21.6541776388
 20
1.9781437817
 10
21.6152968029
 20
1.9752968931
 10
21.5770735639
 20
1.9675012974
 10
21.5401543969
 20
1.9548888424
 10
21.5051637207
 20
1.9376728444
 10
21.4726933376
 20
1.91614448
 10
21.4432924236
 20
1.8906678614
 10
21.4174582406
 20
1.8616738781
 10
21.3956277255
 20
1.8296529095
 10
21.3781701009
 20
1.7951465306
 10
21.36538063
 20
1.7587383525
 10
21.357475623
 20
1.7210441518
 10
21.3545887783
 20
1.6827014558
  0
LWPOLYLINE
  5
419
100
AcDbEntity
  8
RACCORDO
100
AcDbPolyline
 62
7
  6
CONTINUOUS
 90
4
 70
0
 10
21.0
 20
2.5000060301
 10
20.973390909
 20
2.4985104886
 10
20.9476274876
 20
2.4944303273
 10
20.9227097359
 20
2.4877655462
  0
LINE
  5
41A
100
AcDbEntity
  8
RACCORDO
100
AcDbLine
 62
250
  6
CONTINUOUS
 10
22.3207019882
 20
1.227796223
 11
21.4399160682
 21
1.227796223
  0
LINE
  5
41B
100
AcDbEntity
  8
RACCORDO
100
AcDbLine
 62
250
  6
CONTINUOUS
 10
-21.4399160682
 20
1.227796223
 11
-22.3207019882
 21
1.227796223
  0
LINE
  5
41C
100
AcDbEntity
  8
RACCORDO
100
AcDbLine
 62
250
  6
CONTINUOUS
 10
22.3098825962
 20
1.7202000995
 11
21.7308434758
 21
1.7202000995
  0
LINE
  5
41D
100
AcDbEntity
  8
RACCORDO
100
AcDbLine
 62
250
  6
CONTINUOUS
 10
-21.7308434758
 20
1.7202000995
 11
-22.3098825962
 21
1.7202000995
  0
LINE
  5
41E
100
AcDbEntity
  8
RACCORDO
100
AcDbLine
 62
250
  6
CONTINUOUS
 10
22.2715759627
 20
1.9781437817
 11
21.6541776388
 21
1.9781437817
  0
LINE
  5
41F
100
AcDbEntity
  8
RACCORDO
100
AcDbLine
 62
250
  6
CONTINUOUS
 10
-21.6541776388
 20
1.9781437817
 11
-22.2715759627
 21
1.9781437817
  0
LINE
  5
420
100
AcDbEntity
  8
RACCORDO
100
AcDbLine
 62
250
  6
CONTINUOUS
 10
22.2683301451
 20
2.1258649447
 11
21.63468937
 21
2.1258649447
  0
LINE
  5
421
100
AcDbEntity
  8
RACCORDO
100
AcDbLine
 62
250
  6
CONTINUOUS
 10
-21.63468937
 20
2.1258649447
 11
-22.2683301451
 21
2.1258649447
  0
LWPOLYLINE
  5
422
100
AcDbEntity
  8
RACCORDO
100
AcDbPolyline
 62
250
  6
CONTINUOUS
 90
13
 70
0
 10
-21.6541776388
 20
1.9781437817
 10
-21.6152970448
 20
1.9752969266
 10
-21.5770739992
 20
1.9675014157
 10
-21.5401549697
 20
1.9548890802
 10
-21.5051643765
 20
1.9376732213
 10
-21.4726940177
 20
1.916144997
 10
-21.4432930641
 20
1.8906684934
 10
-21.4174587885
 20
1.8616745799
 10
-21.3956281468
 20
1.8296536234
 10
-21.3781703791
 20
1.7951471833
 10
-21.3653807726
 20
1.7587388632
 10
-21.3574756643
 20
1.7210444426
 10
-21.3545887783
 20
1.6827014558
  0
LWPOLYLINE
  5
423
100
AcDbEntity
  8
RACCORDO
100
AcDbPolyline
 62
250
  6
CONTINUOUS
 90
19
 70
0
 10
20.6763690968
 20
-11.9528741146
 10
20.680874987
 20
-11.9558427221
 10
20.6851581531
 20
-11.9608091437
 10
20.6892185951
 20
-11.9677733795
 10
20.693086546
 20
-11.9770289153
 10
20.6967317728
 20
-11.9882822652
 10
20.7000635772
 20
-12.0006529719
 10
20.7030463214
 20
-12.014086453
 10
20.7057156432
 20
-12.0286372909
 10
20.7080877581
 20
-12.0435887756
 10
20.7101421547
 20
-12.0586556922
 10
20.7118993444
 20
-12.0741232557
 10
20.7134370766
 20
-12.0901304009
 10
20.7147837337
 20
-12.1065475456
 10
20.7159109333
 20
-12.1235042721
 10
20.7168112776
 20
-12.1415282624
 10
20.7174823009
 20
-12.1607954106
 10
20.7179264689
 20
-12.1811298225
 10
20.7181437817
 20
-12.2025314983
  0
LWPOLYLINE
  5
424
100
AcDbEntity
  8
0
100
AcDbPolyline
 62
7
  6
CONTINUOUS
 90
10
 70
0
 10
4.5395572826
 20
-12.6598893166
 10
4.5395252754
 20
-12.6511415934
 10
4.5395791495
 20
-12.6424580606
 10
4.5397189049
 20
-12.633838718
 10
4.5399305438
 20
-12.625280969
 10
4.540228064
 20
-12.6167874102
 10
4.5406534587
 20
-12.6083658322
 10
4.5412207257
 20
-12.6000188319
 10
4.5419158672
 20
-12.5917438122
 10
4.5427388832
 20
-12.5835407734
  0
LINE
  5
425
100
AcDbEntity
  8
0
100
AcDbLine
 62
7
  6
CONTINUOUS
 10
2.8065975821
 20
14.3849276465
 11
2.8065975821
 21
12.1120071664
  0
LINE
  5
426
100
AcDbEntity
  8
0
100
AcDbLine
 62
7
  6
CONTINUOUS
 10
3.2688043561
 20
13.388667771
 11
3.2688043561
 21
14.0200048698
  0
LINE
  5
427
100
AcDbEntity
  8
0
100
AcDbLine
 62
7
  6
CONTINUOUS
 10
3.2847223015
 20
12.1120071664
 11
3.2847223015
 21
13.0120177973
  0
LINE
  5
428
100
AcDbEntity
  8
0
100
AcDbLine
 62
7
  6
CONTINUOUS
 10
3.6329184696
 20
-14.1009681717
 11
3.6329184696
 21
-14.4
  0
LINE
  5
429
100
AcDbEntity
  8
0
100
AcDbLine
 62
7
  6
CONTINUOUS
 10
3.9033194229
 20
-14.4
 11
3.9033194229
 21
-14.1009681717
  0
LINE
  5
42A
100
AcDbEntity
  8
0
100
AcDbLine
 62
7
  6
CONTINUOUS
 10
4.0407988352
 20
13.185528575
 11
4.0407988352
 21
13.1991183268
  0
LINE
  5
42B
100
AcDbEntity
  8
0
100
AcDbLine
 62
7
  6
CONTINUOUS
 10
4.2596126243
 20
-14.1677731641
 11
4.2596126243
 21
-14.4
  0
LINE
  5
42C
100
AcDbEntity
  8
0
100
AcDbLine
 62
7
  6
CONTINUOUS
 10
4.2787000343
 20
-12.5994467199
 11
4.2787000343
 21
-12.6598893166
  0
LWPOLYLINE
  5
42D
100
AcDbEntity
  8
0
100
AcDbPolyline
 62
7
  6
CONTINUOUS
 90
10
 70
0
 10
4.5427388832
 20
-12.5835407734
 10
4.5428584122
 20
-12.5753077243
 10
4.5431808929
 20
-12.5670019657
 10
4.5437063254
 20
-12.5586234976
 10
4.544443094
 20
-12.5501681926
 10
4.5453828143
 20
-12.5416401781
 10
4.546500333
 20
-12.5330518361
 10
4.5477872657
 20
-12.5244072941
 10
4.5492519968
 20
-12.5157024246
 10
4.5508945263
 20
-12.5069372277
  0
LWPOLYLINE
  5
42E
100
AcDbEntity
  8
0
100
AcDbPolyline
 62
7
  6
CONTINUOUS
 90
25
 70
0
 10
3.9160594002
 20
13.7460540991
 10
3.9156174904
 20
13.7212202345
 10
3.9137523587
 20
13.6966377545
 10
3.910464005
 20
13.6723066592
 10
3.9057689
 20
13.6481383562
 10
3.8996505729
 20
13.6242214379
 10
3.8920596124
 20
13.6008216812
 10
3.8830136073
 20
13.5778453386
 10
3.8724949686
 20
13.5553861577
 10
3.8604015187
 20
13.5339911579
 10
3.8466848283
 20
13.5136320569
 10
3.8313933266
 20
13.494337137
 10
3.8145701229
 20
13.4767382642
 10
3.7960342027
 20
13.4610366464
 10
3.7759665804
 20
13.4470310757
 10
3.7549534088
 20
13.4347497943
 10
3.7329832123
 20
13.4243244834
 10
3.7100674666
 20
13.4156234616
 10
3.6868267511
 20
13.4082799271
 10
3.6634178321
 20
13.4022947449
 10
3.6396839433
 20
13.3976670499
 10
3.6157753658
 20
13.3940274447
 10
3.5917421933
 20
13.391252797
 10
3.567534332
 20
13.3894662391
 10
3.543151782
 20
13.388667771
  0
LWPOLYLINE
  5
42F
100
AcDbEntity
  8
0
100
AcDbPolyline
 62
7
  6
CONTINUOUS
 90
10
 70
0
 10
1.4935808914
 20
-13.8463380455
 10
1.4972791908
 20
-13.8032126628
 10
1.5005354023
 20
-13.7595581584
 10
1.5033495261
 20
-13.7153745324
 10
1.5057173161
 20
-13.6706573572
 10
1.5076430183
 20
-13.6254110603
 10
1.5091393709
 20
-13.5796489242
 10
1.5102106202
 20
-13.5333753764
 10
1.51085252
 20
-13.4865859895
 10
1.5110650703
 20
-13.4392807633
  0
LWPOLYLINE
  5
430
100
AcDbEntity
  8
0
100
AcDbPolyline
 62
7
  6
CONTINUOUS
 90
10
 70
0
 10
-0.7490235037
 20
-12.4590232314
 10
-0.7417635609
 20
-12.4383717802
 10
-0.7336936474
 20
-12.4187733545
 10
-0.7248137632
 20
-12.4002279543
 10
-0.7150942761
 20
-12.3826588861
 10
-0.7045648183
 20
-12.3661428433
 10
-0.6933142872
 20
-12.3509099067
 10
-0.6813723152
 20
-12.3370367701
 10
-0.66870927
 20
-12.3244467397
 10
-0.6553251514
 20
-12.3131398155
  0
LWPOLYLINE
  5
431
100
AcDbEntity
  8
0
100
AcDbPolyline
 62
7
  6
CONTINUOUS
 90
10
 70
0
 10
0.6888740592
 20
-12.4590232314
 10
0.6961340021
 20
-12.4383717802
 10
0.7042039156
 20
-12.4187733545
 10
0.7130837997
 20
-12.4002279543
 10
0.7228032869
 20
-12.3826588861
 10
0.7333327447
 20
-12.3661428433
 10
0.7445832758
 20
-12.3509099067
 10
0.7565252478
 20
-12.3370367701
 10
0.769188293
 20
-12.3244467397
 10
0.7825724116
 20
-12.3131398155
  0
LWPOLYLINE
  5
432
100
AcDbEntity
  8
0
100
AcDbPolyline
 62
7
  6
CONTINUOUS
 90
10
 70
0
 10
-1.6779203333
 20
-14.046404229
 10
-1.6849948097
 20
-14.0664902166
 10
-1.692869634
 20
-14.0855707985
 10
-1.7015448062
 20
-14.1036459746
 10
-1.7110591532
 20
-14.1207795894
 10
-1.7213738482
 20
-14.1369077983
 10
-1.7323724098
 20
-14.1518390684
 10
-1.7440160111
 20
-14.1655095551
 10
-1.7563434792
 20
-14.1779831029
 10
-1.769354814
 20
-14.1892597119
  0
LWPOLYLINE
  5
433
100
AcDbEntity
  8
0
100
AcDbPolyline
 62
7
  6
CONTINUOUS
 90
10
 70
0
 10
-0.2400226453
 20
-14.0464042696
 10
-0.2470971335
 20
-14.0664902312
 10
-0.2549719593
 20
-14.0855707945
 10
-0.2636471226
 20
-14.1036459597
 10
-0.2731614464
 20
-14.120779574
 10
-0.2834761077
 20
-14.1369077901
 10
-0.2944746383
 20
-14.1518390662
 10
-0.3061182152
 20
-14.1655095548
 10
-0.3184456614
 20
-14.1779831034
 10
-0.3314569768
 20
-14.1892597119
  0
LWPOLYLINE
  5
434
100
AcDbEntity
  8
0
100
AcDbPolyline
 62
7
  6
CONTINUOUS
 90
10
 70
0
 10
-1.4538036333
 20
-14.1614107841
 10
-1.4415693072
 20
-14.130647049
 10
-1.4304378855
 20
-14.0987780855
 10
-1.4204093684
 20
-14.0658038934
 10
-1.4115276354
 20
-14.0316656165
 10
-1.4037488068
 20
-13.9964221111
 10
-1.3969412439
 20
-13.9602499462
 10
-1.391061067
 20
-13.9232079781
 10
-1.3861521557
 20
-13.8852373505
 10
-1.3822145101
 20
-13.8463380635
  0
LWPOLYLINE
  5
435
100
AcDbEntity
  8
0
100
AcDbPolyline
 62
7
  6
CONTINUOUS
 90
10
 70
0
 10
-2.4017980412
 20
-12.3226832509
 10
-2.4143945536
 20
-12.3520013194
 10
-2.4259446053
 20
-12.3824228551
 10
-2.4364481964
 20
-12.413947858
 10
-2.4458811596
 20
-12.4466272339
 10
-2.4542676621
 20
-12.4804100771
 10
-2.4616802056
 20
-12.5151436704
 10
-2.4681429575
 20
-12.5507771082
 10
-2.4736317504
 20
-12.5873612962
 10
-2.4781465843
 20
-12.6248962343
  0
LWPOLYLINE
  5
436
100
AcDbEntity
  8
0
100
AcDbPolyline
 62
7
  6
CONTINUOUS
 90
10
 70
0
 10
-0.9639004782
 20
-12.3226832509
 10
-0.9764969906
 20
-12.3520013194
 10
-0.9880470424
 20
-12.3824228551
 10
-0.9985506334
 20
-12.413947858
 10
-1.0079835966
 20
-12.4466272339
 10
-1.0163700991
 20
-12.4804100771
 10
-1.0237826427
 20
-12.5151436704
 10
-1.0302453945
 20
-12.5507771082
 10
-1.0357341874
 20
-12.5873612962
 10
-1.0402490214
 20
-12.6248962343
  0
LWPOLYLINE
  5
437
100
AcDbEntity
  8
0
100
AcDbPolyline
 62
7
  6
CONTINUOUS
 90
10
 70
0
 10
-5.0549101561
 20
-12.376763469
 10
-5.0466296066
 20
-12.3644873303
 10
-5.0379483082
 20
-12.352995156
 10
-5.028866261
 20
-12.342286946
 10
-5.019387961
 20
-12.332379307
 10
-5.0095089122
 20
-12.3232556324
 10
-4.9992156258
 20
-12.3148661018
 10
-4.9885036056
 20
-12.3071941085
 10
-4.9773773478
 20
-12.3002562592
 10
-4.9658368523
 20
-12.2940525541
  0
LWPOLYLINE
  5
438
100
AcDbEntity
  8
0
100
AcDbPolyline
 62
7
  6
CONTINUOUS
 90
10
 70
0
 10
-4.587275291
 20
-14.1105117422
 10
-4.5965778442
 20
-14.1237665722
 10
-4.6062427653
 20
-14.1362628288
 10
-4.6162700544
 20
-14.1480005119
 10
-4.6266952087
 20
-14.1589948641
 10
-4.637482731
 20
-14.1692306429
 10
-4.6485261296
 20
-14.1786621205
 10
-4.6597899073
 20
-14.1872740545
 10
-4.6713095612
 20
-14.1950816874
 10
-4.6830850915
 20
-14.2020850192
  0
LWPOLYLINE
  5
439
100
AcDbEntity
  8
0
100
AcDbPolyline
 62
7
  6
CONTINUOUS
 90
10
 70
0
 10
-5.2330567614
 20
-12.2049792426
 10
-5.2608308143
 20
-12.2376978565
 10
-5.2854271909
 20
-12.2738027456
 10
-5.3068458912
 20
-12.3132939098
 10
-5.3251595139
 20
-12.3563935718
 10
-5.3402954602
 20
-12.4028795089
 10
-5.3520359341
 20
-12.4520850537
 10
-5.3603083367
 20
-12.5037879836
 10
-5.3651852669
 20
-12.5582105212
 10
-5.3666667245
 20
-12.6153526664
  0
LWPOLYLINE
  5
43A
100
AcDbEntity
  8
RACCORDO
100
AcDbPolyline
 62
7
  6
CONTINUOUS
 90
16
 70
0
 10
20.4903017779
 20
14.992344685
 10
20.4760132401
 20
14.9792533503
 10
20.4633847724
 20
14.9657246631
 10
20.4524163749
 20
14.951890593
 10
20.4431574984
 20
14.9377109545
 10
20.4355586921
 20
14.9235887116
 10
20.4294716036
 20
14.9102797567
 10
20.4250348659
 20
14.8981734586
 10
20.4221098461
 20
14.8870725833
 10
20.4201322933
 20
14.8768269692
 10
20.4190284816
 20
14.8674986624
 10
20.418872137
 20
14.8593947147
 10
20.4193201862
 20
14.8527537171
 10
20.4202582714
 20
14.8476939829
 10
20.4218007504
 20
14.8442703757
 10
20.4239476231
 20
14.8425502548
  0
LWPOLYLINE
  5
43B
100
AcDbEntity
  8
RACCORDO
100
AcDbPolyline
 62
7
  6
CONTINUOUS
 90
16
 70
0
 10
20.4239476231
 20
11.6574497452
 10
20.4218010329
 20
11.655729956
 10
20.4202586528
 20
11.6523070852
 10
20.4193204828
 20
11.647248434
 10
20.4188720439
 20
11.6406090119
 10
20.4190278151
 20
11.6325069368
 10
20.4201312338
 20
11.6231798531
 10
20.4221089022
 20
11.6129334263
 10
20.4250342181
 20
11.6018302138
 10
20.4294708127
 20
11.5897222339
 10
20.4355566632
 20
11.5764141433
 10
20.4431537924
 20
11.5622940976
 10
20.4524118986
 20
11.5481156322
 10
20.4633808813
 20
11.5342807321
 10
20.4760108411
 20
11.5207499643
 10
20.4903017779
 20
11.507655315
  0
LINE
  5
43C
100
AcDbEntity
  8
DRAFT
100
AcDbLine
 62
7
  6
CONTINUOUS
 10
21.1996573543
 20
11.65
 11
21.35
 21
11.7626767255
  0
LINE
  5
43D
100
AcDbEntity
  8
RACCORDO
100
AcDbLine
 62
7
  6
CONTINUOUS
 10
-20.4239476231
 20
-11.6574497452
 11
-20.4684808743
 21
-11.6748921033
  0
LWPOLYLINE
  5
43E
100
AcDbEntity
  8
RACCORDO
100
AcDbPolyline
 62
7
  6
CONTINUOUS
 90
3
 70
0
 10
-20.4684808743
 20
-11.6748921033
 10
-20.4975068639
 20
-11.686135487
 10
-20.5119099564
 20
-11.6916369561
  0
LWPOLYLINE
  5
43F
100
AcDbEntity
  8
RACCORDO
100
AcDbPolyline
 62
7
  6
CONTINUOUS
 90
3
 70
0
 10
-20.5119099564
 20
-11.6916369561
 10
-20.5406198798
 20
-11.7023928293
 10
-20.5549020021
 20
-11.7076485572
  0
LWPOLYLINE
  5
440
100
AcDbEntity
  8
RACCORDO
100
AcDbPolyline
 62
7
  6
CONTINUOUS
 90
4
 70
0
 10
20.9227097008
 20
-2.4877655348
 10
20.9476274643
 20
-2.4944303229
 10
20.9733908974
 20
-2.498510488
 10
21.0
 20
-2.5000060301
  0
LWPOLYLINE
  5
441
100
AcDbEntity
  8
RACCORDO
100
AcDbPolyline
 62
7
  6
CONTINUOUS
 90
3
 70
0
 10
-20.5119099564
 20
11.6916369561
 10
-20.5262891979
 20
11.6970556289
 10
-20.5549020021
 20
11.7076485572
  0
LINE
  5
442
100
AcDbEntity
  8
RACCORDO
100
AcDbLine
 62
7
  6
CONTINUOUS
 10
-20.4830552119
 20
11.6805525455
 11
-20.5119099564
 21
11.6916369561
  0
LWPOLYLINE
  5
443
100
AcDbEntity
  8
RACCORDO
100
AcDbPolyline
 62
7
  6
CONTINUOUS
 90
3
 70
0
 10
-20.4239476231
 20
11.6574497452
 10
-20.4389147256
 20
11.6633413652
 10
-20.4830552119
 20
11.6805525455
  0
LINE
  5
444
100
AcDbEntity
  8
DRAFT
100
AcDbLine
 62
7
  6
CONTINUOUS
 10
21.1996573543
 20
-11.65
 11
21.35
 21
-11.7626767255
  0
LINE
  5
445
100
AcDbEntity
  8
0
100
AcDbLine
 62
7
  6
CONTINUOUS
 10
-1.070672
 20
13.613726
 11
-0.507508
 21
12.112007
  0
LINE
  5
446
100
AcDbEntity
  8
0
100
AcDbLine
 62
7
  6
CONTINUOUS
 10
-1.134218
 20
10.87778
 11
-0.361189
 21
8.810006
  0
LINE
  5
447
100
AcDbEntity
  8
0
100
AcDbLine
 62
7
  6
CONTINUOUS
 10
-0.192586
 20
9.042233
 11
-0.965615
 21
11.110007
  0
LINE
  5
448
100
AcDbEntity
  8
0
100
AcDbLine
 62
7
  6
CONTINUOUS
 10
-0.471223
 20
13.134946
 11
-0.946209
 21
14.411797
  0
LWPOLYLINE
  5
449
100
AcDbEntity
  8
0
100
AcDbPolyline
 62
7
  6
CONTINUOUS
 90
19
 70
0
 10
5.3984786674
 20
-12.5835407734
 10
5.3980348971
 20
-12.5347837129
 10
5.3940379749
 20
-12.4866679384
 10
5.3864879008
 20
-12.43919345
 10
5.3756319637
 20
-12.3916494076
 10
5.3612228746
 20
-12.3447466512
 10
5.342518767
 20
-12.3006177012
 10
5.3191366474
 20
-12.2595477078
 10
5.2914595092
 20
-12.2212515207
 10
5.2598944668
 20
-12.1870062098
 10
5.2241093569
 20
-12.1572211037
 10
5.1844363426
 20
-12.1314868739
 10
5.1422790284
 20
-12.1098526037
 10
5.0974495522
 20
-12.0926161326
 10
5.050135776
 20
-12.0794796211
 10
5.0023048898
 20
-12.0695986358
 10
4.9546126235
 20
-12.0626916985
 10
4.9064032472
 20
-12.0590402872
 10
4.8576767609
 20
-12.058644402
  0
LINE
  5
44A
100
AcDbEntity
  8
0
100
AcDbLine
 62
7
  6
CONTINUOUS
 10
5.3952970669
 20
-14.4
 11
5.3952970669
 21
-14.199585057
  0
LINE
  5
44B
100
AcDbEntity
  8
RACCORDO
100
AcDbLine
 62
7
  6
CONTINUOUS
 10
5.75
 20
-5.65
 11
5.75
 21
5.65
  0
LINE
  5
44C
100
AcDbEntity
  8
RACCORDO
100
AcDbLine
 62
7
  6
CONTINUOUS
 10
6.25
 20
-14.8
 11
6.25
 21
-11.8
  0
LINE
  5
44D
100
AcDbEntity
  8
RACCORDO
100
AcDbLine
 62
7
  6
CONTINUOUS
 10
6.25
 20
8.7
 11
6.25
 21
14.7
  0
LWPOLYLINE
  5
44E
100
AcDbEntity
  8
0
100
AcDbPolyline
 62
7
  6
CONTINUOUS
 90
10
 70
0
 10
5.1280777141
 20
-12.5549100697
 10
5.1276647396
 20
-12.5786966548
 10
5.1263196735
 20
-12.6028351325
 10
5.1240425158
 20
-12.6273255027
 10
5.1208493023
 20
-12.6521948431
 10
5.1167239972
 20
-12.677416076
 10
5.1116184935
 20
-12.7029079689
 10
5.1055167555
 20
-12.7286434443
 10
5.0984348188
 20
-12.7546495796
 10
5.0903726834
 20
-12.780926375
  0
LINE
  5
44F
100
AcDbEntity
  8
0
100
AcDbLine
 62
7
  6
CONTINUOUS
 10
4.2850621387
 20
-12.5421853125
 11
4.2787000343
 21
-12.5994467199
  0
LINE
  5
450
100
AcDbEntity
  8
0
100
AcDbLine
 62
7
  6
CONTINUOUS
 10
2.1982019588
 20
-13.6015214175
 11
2.5322266981
 21
-12.3513139546
  0
LINE
  5
451
100
AcDbEntity
  8
0
100
AcDbLine
 62
7
  6
CONTINUOUS
 10
1.9691563293
 20
-14.4
 11
2.1313971207
 21
-13.8178422898
  0
LINE
  5
452
100
AcDbEntity
  8
0
100
AcDbLine
 62
7
  6
CONTINUOUS
 10
2.3731675074
 20
-12.1
 11
1.698755376
 21
-14.4
  0
LWPOLYLINE
  5
453
100
AcDbEntity
  8
0
100
AcDbPolyline
 62
7
  6
CONTINUOUS
 90
10
 70
0
 10
1.1978749176
 20
-14.0464042696
 10
1.1908004295
 20
-14.0664902312
 10
1.1829256037
 20
-14.0855707945
 10
1.1742504403
 20
-14.1036459597
 10
1.1647361166
 20
-14.120779574
 10
1.1544214553
 20
-14.1369077901
 10
1.1434229247
 20
-14.1518390662
 10
1.1317793477
 20
-14.1655095548
 10
1.1194519016
 20
-14.1779831034
 10
1.1064405861
 20
-14.1892597119
  0
LWPOLYLINE
  5
454
100
AcDbEntity
  8
0
100
AcDbPolyline
 62
7
  6
CONTINUOUS
 90
10
 70
0
 10
-0.0159057961
 20
-14.1614107841
 10
-0.0036714903
 20
-14.1306470588
 10
0.0074599054
 20
-14.0987781013
 10
0.0174883911
 20
-14.0658039116
 10
0.026370083
 20
-14.0316656318
 10
0.0341488648
 20
-13.9964221198
 10
0.0409563876
 20
-13.9602499495
 10
0.0468365351
 20
-13.9232079791
 10
0.0517454235
 20
-13.8852373504
 10
0.0556830529
 20
-13.8463380635
  0
LWPOLYLINE
  5
455
100
AcDbEntity
  8
0
100
AcDbPolyline
 62
7
  6
CONTINUOUS
 90
10
 70
0
 10
1.4219917669
 20
-14.1614107841
 10
1.4342261136
 20
-14.1306470495
 10
1.4453575554
 20
-14.0987780874
 10
1.4553860925
 20
-14.0658038977
 10
1.4642678514
 20
-14.0316656261
 10
1.4720467055
 20
-13.996422127
 10
1.4788542746
 20
-13.9602499631
 10
1.4847344319
 20
-13.9232079887
 10
1.4896433042
 20
-13.8852373495
 10
1.4935808914
 20
-13.8463380455
  0
LWPOLYLINE
  5
456
100
AcDbEntity
  8
0
100
AcDbPolyline
 62
7
  6
CONTINUOUS
 90
10
 70
0
 10
0.4739970848
 20
-12.3226832509
 10
0.4614005724
 20
-12.3520013194
 10
0.4498505206
 20
-12.3824228551
 10
0.4393469295
 20
-12.413947858
 10
0.4299139664
 20
-12.4466272339
 10
0.4215274639
 20
-12.4804100771
 10
0.4141149203
 20
-12.5151436704
 10
0.4076521685
 20
-12.5507771082
 10
0.4021633756
 20
-12.5873612962
 10
0.3976485416
 20
-12.6248962343
  0
LWPOLYLINE
  5
457
100
AcDbEntity
  8
0
100
AcDbPolyline
 62
7
  6
CONTINUOUS
 90
10
 70
0
 10
-4.3804979671
 20
-14.2536652934
 10
-4.3662059509
 20
-14.2343611743
 10
-4.3527014912
 20
-14.2139466044
 10
-4.3399845882
 20
-14.1924215836
 10
-4.3279937901
 20
-14.169764868
 10
-4.3167905487
 20
-14.1459977016
 10
-4.3065592186
 20
-14.1211838159
 10
-4.2973612516
 20
-14.0953444549
 10
-4.289135196
 20
-14.0684583748
 10
-4.2818810519
 20
-14.0405255754
  0
LWPOLYLINE
  5
458
100
AcDbEntity
  8
0
100
AcDbPolyline
 62
7
  6
CONTINUOUS
 90
10
 70
0
 10
-3.3593361571
 20
-12.1
 10
-3.377080126
 20
-12.121580712
 10
-3.3956207715
 20
-12.1429801733
 10
-3.4149580938
 20
-12.1641983837
 10
-3.4351174971
 20
-12.1852357586
 10
-3.456073577
 20
-12.2060918827
 10
-3.4777501211
 20
-12.2267655103
 10
-3.5001217252
 20
-12.2472562262
 10
-3.5232137934
 20
-12.2675644456
 10
-3.5470263258
 20
-12.2876901686
  0
LWPOLYLINE
  5
459
100
AcDbEntity
  8
RACCORDO
100
AcDbPolyline
 62
7
  6
CONTINUOUS
 90
3
 70
0
 10
20.0896039654
 20
12.8150452621
 10
20.0475496474
 20
12.7727566148
 10
20.032256019
 20
12.757655315
  0
LINE
  5
45A
100
AcDbEntity
  8
RACCORDO
100
AcDbLine
 62
7
  6
CONTINUOUS
 10
20.1770052681
 20
12.9024549425
 11
20.1023627837
 21
12.8277404502
  0
LINE
  5
45B
100
AcDbEntity
  8
RACCORDO
100
AcDbLine
 62
7
  6
CONTINUOUS
 10
20.1023627837
 20
12.8277404502
 11
20.0896039654
 21
12.8150452621
  0
LINE
  5
45C
100
AcDbEntity
  8
RACCORDO
100
AcDbLine
 62
7
  6
CONTINUOUS
 10
20.1799771819
 20
12.9053764779
 11
20.1770052681
 21
12.9024549425
  0
LWPOLYLINE
  5
45D
100
AcDbEntity
  8
0
100
AcDbPolyline
 62
7
  6
CONTINUOUS
 90
10
 70
0
 10
-4.63737021
 20
-13.0170055495
 10
-4.6503901408
 20
-13.0286981496
 10
-4.663933779
 20
-13.0394586228
 10
-4.6780011243
 20
-13.0492869689
 10
-4.6925343097
 20
-13.058158466
 10
-4.7075912023
 20
-13.0660978362
 10
-4.7233454038
 20
-13.0731792452
 10
-4.7398547815
 20
-13.0794274152
 10
-4.7570614681
 20
-13.0848176241
 10
-4.7749654636
 20
-13.0893498719
  0
LWPOLYLINE
  5
45E
100
AcDbEntity
  8
0
100
AcDbPolyline
 62
7
  6
CONTINUOUS
 90
10
 70
0
 10
-3.5470263258
 20
-12.2876901686
 10
-3.5705971733
 20
-12.3072590429
 10
-3.5940915354
 20
-12.3263805229
 10
-3.617509412
 20
-12.3450546088
 10
-3.6408295311
 20
-12.3633166417
 10
-3.6640731647
 20
-12.3811312804
 10
-3.6873041287
 20
-12.3983925013
 10
-3.7105436952
 20
-12.4150649632
 10
-3.7337705921
 20
-12.4311840072
 10
-3.7569848195
 20
-12.4467496336
  0
LINE
  5
45F
100
AcDbEntity
  8
DRAFT
100
AcDbLine
 62
7
  6
CONTINUOUS
 10
-20.8949489743
 20
-14.85
 11
-20.8270299161
 21
-14.8233583765
  0
LWPOLYLINE
  5
460
100
AcDbEntity
  8
RACCORDO
100
AcDbPolyline
 62
7
  6
CONTINUOUS
 90
4
 70
0
 10
20.9227097359
 20
2.4877655462
 10
20.8983867546
 20
2.478387637
 10
20.874909443
 20
2.466425108
 10
20.8530304987
 20
2.4522634845
  0
LINE
  5
461
100
AcDbEntity
  8
DRAFT
100
AcDbLine
 62
7
  6
CONTINUOUS
 10
-20.8270299161
 20
-14.8233583765
 11
-20.7940522821
 21
-14.8106383031
  0
LWPOLYLINE
  5
462
100
AcDbEntity
  8
DRAFT
100
AcDbPolyline
 62
7
  6
CONTINUOUS
 90
3
 70
0
 10
-20.7940522821
 20
-14.8106383031
 10
-20.7613356945
 20
-14.7983420129
 10
-20.7450979979
 20
-14.7923514428
  0
LINE
  5
463
100
AcDbEntity
  8
RACCORDO
100
AcDbLine
 62
250
  6
CONTINUOUS
 10
-20.8240902598
 20
-11.8030796844
 11
-20.3341155302
 21
-11.6574497452
  0
LINE
  5
464
100
AcDbEntity
  8
RACCORDO
100
AcDbLine
 62
250
  6
CONTINUOUS
 10
-20.6763690968
 20
-11.9528741146
 11
-20.1799771819
 21
-11.8053368642
  0
LINE
  5
465
100
AcDbEntity
  8
RACCORDO
100
AcDbLine
 62
7
  6
CONTINUOUS
 10
-20.1831857746
 20
-12.9074497452
 11
-20.3270158315
 21
-12.950198812
  0
LINE
  5
466
100
AcDbEntity
  8
RACCORDO
100
AcDbLine
 62
250
  6
CONTINUOUS
 10
-19.758397593
 20
-12.939371996
 11
-19.6509945665
 21
-12.9074497452
  0
LINE
  5
467
100
AcDbEntity
  8
RACCORDO
100
AcDbLine
 62
250
  6
CONTINUOUS
 10
-19.61067643
 20
-13.0891664262
 11
-19.4968562183
 21
-13.0553368642
  0
LINE
  5
468
100
AcDbEntity
  8
RACCORDO
100
AcDbLine
 62
7
  6
CONTINUOUS
 10
5.65
 20
5.75
 11
-5.65
 21
5.75
  0
LINE
  5
469
100
AcDbEntity
  8
RACCORDO
100
AcDbLine
 62
250
  6
CONTINUOUS
 10
-20.3341155302
 20
11.6574497452
 11
-20.8240902598
 21
11.8030796844
  0
LINE
  5
46A
100
AcDbEntity
  8
RACCORDO
100
AcDbLine
 62
250
  6
CONTINUOUS
 10
-20.1799771819
 20
11.8053368642
 11
-20.6763690968
 21
11.9528741146
  0
LINE
  5
46B
100
AcDbEntity
  8
RACCORDO
100
AcDbLine
 62
7
  6
CONTINUOUS
 10
-20.1831857746
 20
12.9074497452
 11
-20.3270158315
 21
12.950198812
  0
LINE
  5
46C
100
AcDbEntity
  8
RACCORDO
100
AcDbLine
 62
250
  6
CONTINUOUS
 10
-19.758397593
 20
12.939371996
 11
-19.6509945665
 21
12.9074497452
  0
LINE
  5
46D
100
AcDbEntity
  8
RACCORDO
100
AcDbLine
 62
250
  6
CONTINUOUS
 10
-19.61067643
 20
13.0891664262
 11
-19.4968562183
 21
13.0553368642
  0
LWPOLYLINE
  5
46E
100
AcDbEntity
  8
DRAFT
100
AcDbPolyline
 62
7
  6
CONTINUOUS
 90
3
 70
0
 10
-20.7940522821
 20
14.8106383031
 10
-20.7776537892
 20
14.804437633
 10
-20.7450979979
 20
14.7923514428
  0
LINE
  5
46F
100
AcDbEntity
  8
DRAFT
100
AcDbLine
 62
7
  6
CONTINUOUS
 10
-20.8270299161
 20
14.8233583765
 11
-20.7940522821
 21
14.8106383031
  0
LINE
  5
470
100
AcDbEntity
  8
DRAFT
100
AcDbLine
 62
7
  6
CONTINUOUS
 10
-20.8949489743
 20
14.85
 11
-20.8270299161
 21
14.8233583765
  0
LWPOLYLINE
  5
471
100
AcDbEntity
  8
RACCORDO
100
AcDbPolyline
 62
250
  6
CONTINUOUS
 90
19
 70
0
 10
20.8240893778
 20
-11.8030796844
 10
20.8285969242
 20
-11.8072645138
 10
20.8328811003
 20
-11.815318294
 10
20.8369419061
 20
-11.8269184319
 10
20.8408092262
 20
-11.8417883213
 10
20.8444531759
 20
-11.8595338708
 10
20.8477841023
 20
-11.8795258896
 10
20.8507668739
 20
-11.9012037863
 10
20.8534366221
 20
-11.9242261207
 10
20.8558090876
 20
-11.948223133
 10
20.8578636093
 20
-11.9725389932
 10
20.8596208483
 20
-11.997119802
 10
20.8611585291
 20
-12.0226897297
 10
20.8625049449
 20
-12.0490421705
 10
20.8636318026
 20
-12.0760802257
 10
20.8645319469
 20
-12.1049263336
 10
20.8652029928
 20
-12.1359236203
 10
20.8656473254
 20
-12.1685199001
 10
20.8658649447
 20
-12.2025314983
  0
LWPOLYLINE
  5
472
100
AcDbEntity
  8
RACCORDO
100
AcDbPolyline
 62
7
  6
CONTINUOUS
 90
3
 70
0
 10
20.0896459661
 20
-12.8150032614
 10
20.0473573188
 20
-12.7729489434
 10
20.032256019
 20
-12.757655315
  0
LINE
  5
473
100
AcDbEntity
  8
RACCORDO
100
AcDbLine
 62
7
  6
CONTINUOUS
 10
20.1770556465
 20
-12.9024045641
 11
20.1023411542
 21
-12.8277620797
  0
LINE
  5
474
100
AcDbEntity
  8
RACCORDO
100
AcDbLine
 62
7
  6
CONTINUOUS
 10
20.1023411542
 20
-12.8277620797
 11
20.0896459661
 21
-12.8150032614
  0
LINE
  5
475
100
AcDbEntity
  8
RACCORDO
100
AcDbLine
 62
7
  6
CONTINUOUS
 10
20.1799771819
 20
-12.9053764779
 11
20.1770556465
 21
-12.9024045641
  0
LINE
  5
476
100
AcDbEntity
  8
0
100
AcDbLine
 62
7
  6
CONTINUOUS
 10
2.66563
 20
12.112007
 11
1.959997
 21
14.411797
  0
LINE
  5
477
100
AcDbEntity
  8
0
100
AcDbLine
 62
7
  6
CONTINUOUS
 10
3.384112
 20
8.81
 11
2.719243
 21
11.110022
  0
LINE
  5
478
100
AcDbEntity
  8
0
100
AcDbLine
 62
7
  6
CONTINUOUS
 10
2.941927
 20
9.392179
 11
3.104146
 21
8.81
  0
LINE
  5
479
100
AcDbEntity
  8
0
100
AcDbLine
 62
7
  6
CONTINUOUS
 10
2.03531
 20
12.571127
 11
2.15967
 21
12.112007
  0
LINE
  5
47A
100
AcDbEntity
  8
0
100
AcDbLine
 62
7
  6
CONTINUOUS
 10
2.544278
 20
10.858687
 11
2.878303
 21
9.6085
  0
LINE
  5
47B
100
AcDbEntity
  8
0
100
AcDbLine
 62
7
  6
CONTINUOUS
 10
1.718779
 20
13.779873
 11
1.939371
 21
12.926392
  0
LWPOLYLINE
  5
47C
100
AcDbEntity
  8
0
100
AcDbPolyline
 62
7
  6
CONTINUOUS
 90
10
 70
0
 10
4.5508945263
 20
-12.5069372277
 10
4.5565006736
 20
-12.4825031546
 10
4.5632717098
 20
-12.45921955
 10
4.5712076349
 20
-12.4370864138
 10
4.5803799493
 20
-12.4160815906
 10
4.5907171526
 20
-12.3962272359
 10
4.6020047434
 20
-12.3775898158
 10
4.6141712214
 20
-12.3601914858
 10
4.627288087
 20
-12.3440100903
 10
4.6413553402
 20
-12.3290456295
  0
LWPOLYLINE
  5
47D
100
AcDbEntity
  8
0
100
AcDbPolyline
 62
7
  6
CONTINUOUS
 90
10
 70
0
 10
5.3750707805
 20
-12.7614223406
 10
5.3798739283
 20
-12.7408214949
 10
5.3841362508
 20
-12.7204201775
 10
5.3878577478
 20
-12.7002183883
 10
5.3910514092
 20
-12.6802034229
 10
5.3937042453
 20
-12.6603879858
 10
5.3957772861
 20
-12.6408101909
 10
5.3972575418
 20
-12.6214827428
 10
5.3981580022
 20
-12.602392937
 10
5.3984786674
 20
-12.5835407734
  0
LWPOLYLINE
  5
47E
100
AcDbEntity
  8
0
100
AcDbPolyline
 62
7
  6
CONTINUOUS
 90
10
 70
0
 10
5.0903726834
 20
-12.780926375
 10
5.081576964
 20
-12.8071520631
 10
5.0723250767
 20
-12.8327598643
 10
5.0626170214
 20
-12.8577497787
 10
5.0524647324
 20
-12.8821514156
 10
5.0418562755
 20
-12.9059351657
 10
5.0307558481
 20
-12.9290122012
 10
5.0191515162
 20
-12.951352913
 10
5.0070552138
 20
-12.9729869102
 10
4.9944669411
 20
-12.9939141929
  0
LWPOLYLINE
  5
47F
100
AcDbEntity
  8
0
100
AcDbPolyline
 62
7
  6
CONTINUOUS
 90
10
 70
0
 10
-4.4504841551
 20
-13.1307053328
 10
-4.4366687879
 20
-13.1193130711
 10
-4.4233811915
 20
-13.1071588428
 10
-4.410621366
 20
-13.0942426479
 10
-4.3983760061
 20
-13.0805818052
 10
-4.3866584171
 20
-13.0661589959
 10
-4.3755085144
 20
-13.0509222635
 10
-4.3649396031
 20
-13.0348542892
 10
-4.3549383783
 20
-13.0179723919
 10
-4.3455048397
 20
-13.0002765715
  0
LWPOLYLINE
  5
480
100
AcDbEntity
  8
0
100
AcDbPolyline
 62
7
  6
CONTINUOUS
 90
10
 70
0
 10
-3.5627736725
 20
-12.5805597935
 10
-3.5431557689
 20
-12.5646061805
 10
-3.5235959757
 20
-12.54819398
 10
-3.5040942931
 20
-12.5313231918
 10
-3.4846632268
 20
-12.5139630013
 10
-3.4652902711
 20
-12.4961442231
 10
-3.4459379084
 20
-12.4779593015
 10
-3.4265936328
 20
-12.4594390509
 10
-3.4072699503
 20
-12.4405526568
 10
-3.3879668608
 20
-12.4213001192
  0
LWPOLYLINE
  5
481
100
AcDbEntity
  8
0
100
AcDbPolyline
 62
7
  6
CONTINUOUS
 90
10
 70
0
 10
-2.0932227653
 20
-12.3131397493
 10
-2.0784418357
 20
-12.3026246212
 10
-2.0627401206
 20
-12.2933059748
 10
-2.0461176202
 20
-12.2851838101
 10
-2.0285463769
 20
-12.2782335449
 10
-2.0100543481
 20
-12.2724797614
 10
-1.9907254061
 20
-12.2679962059
 10
-1.9705875082
 20
-12.2648074606
 10
-1.9496126971
 20
-12.2628889434
 10
-1.9278009728
 20
-12.2622406542
  0
LWPOLYLINE
  5
482
100
AcDbEntity
  8
0
100
AcDbPolyline
 62
7
  6
CONTINUOUS
 90
10
 70
0
 10
-2.230013819
 20
-12.131811893
 10
-2.2548433137
 20
-12.1474730823
 10
-2.2781853977
 20
-12.164451453
 10
-2.3000400709
 20
-12.1827470051
 10
-2.3203382388
 20
-12.2022670674
 10
-2.339148996
 20
-12.2231043111
 10
-2.3566796264
 20
-12.2455367499
 10
-2.3729992247
 20
-12.2696570551
 10
-2.3880386963
 20
-12.2953725554
 10
-2.4017980412
 20
-12.3226832509
  0
LWPOLYLINE
  5
483
100
AcDbEntity
  8
0
100
AcDbPolyline
 62
7
  6
CONTINUOUS
 90
10
 70
0
 10
-3.7569848195
 20
-12.7171507239
 10
-3.7344356061
 20
-12.7029923427
 10
-3.7121727069
 20
-12.6886101968
 10
-3.690196122
 20
-12.6740042862
 10
-3.6685642046
 20
-12.6592157209
 10
-3.6472186015
 20
-12.644203391
 10
-3.6259842527
 20
-12.6288439664
 10
-3.604802805
 20
-12.6130963369
 10
-3.5837326116
 20
-12.5970016126
 10
-3.5627736725
 20
-12.5805597935
  0
LWPOLYLINE
  5
484
100
AcDbEntity
  8
0
100
AcDbPolyline
 62
7
  6
CONTINUOUS
 90
10
 70
0
 10
-4.9658368523
 20
-12.2940525541
 10
-4.9517822714
 20
-12.2874783783
 10
-4.9371540653
 20
-12.2816520933
 10
-4.9219522343
 20
-12.2765736989
 10
-4.9061468895
 20
-12.2722272094
 10
-4.8897679197
 20
-12.2686286105
 10
-4.8729049907
 20
-12.2658258598
 10
-4.855587991
 20
-12.2638349431
 10
-4.837787032
 20
-12.2626398746
 10
-4.8195021138
 20
-12.2622406542
  0
LINE
  5
485
100
AcDbEntity
  8
RACCORDO
100
AcDbLine
 62
7
  6
CONTINUOUS
 10
-5.75
 20
8.2
 11
5.75
 21
8.2
  0
LINE
  5
486
100
AcDbEntity
  8
0
100
AcDbLine
 62
7
  6
CONTINUOUS
 10
1.710806
 20
8.81
 11
1.981206
 21
8.81
  0
LINE
  5
487
100
AcDbEntity
  8
0
100
AcDbLine
 62
7
  6
CONTINUOUS
 10
3.104146
 20
8.81
 11
3.384112
 21
8.81
  0
LINE
  5
488
100
AcDbEntity
  8
0
100
AcDbLine
 62
7
  6
CONTINUOUS
 10
-3.39
 20
8.810006
 11
-2.397469
 21
8.810006
  0
LINE
  5
489
100
AcDbEntity
  8
0
100
AcDbLine
 62
7
  6
CONTINUOUS
 10
-1.385532
 20
8.810006
 11
-1.134218
 21
8.810006
  0
LINE
  5
48A
100
AcDbEntity
  8
0
100
AcDbLine
 62
7
  6
CONTINUOUS
 10
-0.361189
 20
8.810006
 11
0.05875
 21
8.810006
  0
LINE
  5
48B
100
AcDbEntity
  8
0
100
AcDbLine
 62
7
  6
CONTINUOUS
 10
0.479694
 20
8.810006
 11
1.561298
 21
8.810006
  0
LINE
  5
48C
100
AcDbEntity
  8
0
100
AcDbLine
 62
7
  6
CONTINUOUS
 10
-2.080077
 20
8.810011
 11
-1.809675
 21
8.810011
  0
LINE
  5
48D
100
AcDbEntity
  8
0
100
AcDbLine
 62
7
  6
CONTINUOUS
 10
1.561298
 20
9.026327
 11
0.750095
 21
9.026327
  0
LINE
  5
48E
100
AcDbEntity
  8
0
100
AcDbLine
 62
7
  6
CONTINUOUS
 10
-2.397469
 20
9.026327
 11
-3.119599
 21
9.026327
  0
LINE
  5
48F
100
AcDbEntity
  8
0
100
AcDbLine
 62
7
  6
CONTINUOUS
 10
2.143447
 20
9.392179
 11
2.941927
 21
9.392179
  0
LWPOLYLINE
  5
490
100
AcDbEntity
  8
RACCORDO
100
AcDbPolyline
 62
7
  6
CONTINUOUS
 90
4
 70
0
 10
20.8530304277
 20
-2.4522634329
 10
20.8749093799
 20
-2.4664250694
 10
20.8983867056
 20
-2.4783876136
 10
20.9227097008
 20
-2.4877655348
  0
LWPOLYLINE
  5
491
100
AcDbEntity
  8
0
100
AcDbPolyline
 62
7
  6
CONTINUOUS
 90
6
 70
0
 10
3.8099455134
 20
12.8093787318
 10
3.8344334717
 20
12.7376450936
 10
3.8583673376
 20
12.6643874837
 10
3.881747111
 20
12.589605902
 10
3.9042219577
 20
12.51318575
 10
3.9485618769
 20
12.3561173264
  0
LINE
  5
492
100
AcDbEntity
  8
0
100
AcDbLine
 62
7
  6
CONTINUOUS
 10
3.9485618769
 20
12.3561173264
 11
4.0198623394
 21
12.1120071664
  0
LINE
  5
493
100
AcDbEntity
  8
0
100
AcDbLine
 62
7
  6
CONTINUOUS
 10
4.37381936
 20
12.5233998131
 11
4.3175223523
 21
12.734413431
  0
LWPOLYLINE
  5
494
100
AcDbEntity
  8
0
100
AcDbPolyline
 62
7
  6
CONTINUOUS
 90
28
 70
0
 10
4.3175223523
 20
12.734413431
 10
4.3111560892
 20
12.7585671417
 10
4.3047624223
 20
12.782002745
 10
4.2983413516
 20
12.8047202408
 10
4.2919556622
 20
12.8266834023
 10
4.2855425691
 20
12.8479284564
 10
4.2789137169
 20
12.8685640838
 10
4.2720309136
 20
12.8885828498
 10
4.2649323511
 20
12.9079921892
 10
4.2575442495
 20
12.9269230859
 10
4.2498735942
 20
12.945388328
 10
4.2419133998
 20
12.9633751275
 10
4.2335689301
 20
12.9809761047
 10
4.2248580667
 20
12.9982068851
 10
4.215762928
 20
13.0150518433
 10
4.2061351334
 20
13.031556722
 10
4.1959558923
 20
13.0477923598
 10
4.1852439952
 20
13.0636879183
 10
4.1739074326
 20
13.0790766252
 10
4.1619539512
 20
13.0939724778
 10
4.1493758042
 20
13.1083614789
 10
4.1360577419
 20
13.122034864
 10
4.121945859
 20
13.135037902
 10
4.1070940607
 20
13.1473253241
 10
4.0915488126
 20
13.1585525595
 10
4.0753256033
 20
13.1686047514
 10
4.0584089442
 20
13.1775967565
 10
4.0407988352
 20
13.185528575
  0
LINE
  5
495
100
AcDbEntity
  8
0
100
AcDbLine
 62
7
  6
CONTINUOUS
 10
4.4816207207
 20
12.1120071664
 11
4.37381936
 21
12.5233998131
  0
LWPOLYLINE
  5
496
100
AcDbEntity
  8
0
100
AcDbPolyline
 62
7
  6
CONTINUOUS
 90
10
 70
0
 10
5.3176100644
 20
-12.9297196851
 10
5.3256874126
 20
-12.9109732865
 10
5.333325656
 20
-12.8922843259
 10
5.3405247946
 20
-12.8736528034
 10
5.3472636301
 20
-12.8551397384
 10
5.3535633609
 20
-12.8366841114
 10
5.3594875818
 20
-12.818102864
 10
5.3650574912
 20
-12.7993349767
 10
5.3702518907
 20
-12.7804414689
 10
5.3750707805
 20
-12.7614223406
  0
LWPOLYLINE
  5
497
100
AcDbEntity
  8
0
100
AcDbPolyline
 62
7
  6
CONTINUOUS
 90
10
 70
0
 10
5.2389700533
 20
-13.0858961403
 10
5.2484437608
 20
-13.0698626518
 10
5.2577125126
 20
-13.0534790621
 10
5.2667763088
 20
-13.0367453713
 10
5.2756071848
 20
-13.0196345948
 10
5.284233105
 20
-13.0021737171
 10
5.2927379637
 20
-12.9844436919
 10
5.3011497255
 20
-12.9664715038
 10
5.3094404258
 20
-12.9482301682
 10
5.3176100644
 20
-12.9297196851
  0
LINE
  5
498
100
AcDbEntity
  8
0
100
AcDbLine
 62
7
  6
CONTINUOUS
 10
5.150345628
 20
-13.2325033903
 11
5.2096567583
 21
-13.1339981343
  0
LINE
  5
499
100
AcDbEntity
  8
0
100
AcDbLine
 62
7
  6
CONTINUOUS
 10
5.2096567583
 20
-13.1339981343
 11
5.2389700533
 21
-13.0858961403
  0
LINE
  5
49A
100
AcDbEntity
  8
0
100
AcDbLine
 62
7
  6
CONTINUOUS
 10
4.9944669411
 20
-12.9939141929
 11
4.2596126243
 21
-14.1677731641
  0
LINE
  5
49B
100
AcDbEntity
  8
0
100
AcDbLine
 62
7
  6
CONTINUOUS
 10
4.5363756821
 20
-14.199585057
 11
5.150345628
 21
-13.2325033903
  0
LWPOLYLINE
  5
49C
100
AcDbEntity
  8
RACCORDO
100
AcDbPolyline
 62
7
  6
CONTINUOUS
 90
10
 70
0
 10
20.8530304987
 20
2.4522634845
 10
20.8328005792
 20
2.4358310346
 10
20.814169027
 20
2.4171994902
 10
20.7977365671
 20
2.3969695723
 10
20.7835747073
 20
2.3750892098
 10
20.7716119398
 20
2.3516104739
 10
20.7622344652
 20
2.3272902992
 10
20.7555710171
 20
2.3023809971
 10
20.7514928621
 20
2.2766302561
 10
20.75
 20
2.2500380762
  0
LWPOLYLINE
  5
49D
100
AcDbEntity
  8
0
100
AcDbPolyline
 62
7
  6
CONTINUOUS
 90
10
 70
0
 10
-1.769354814
 20
-14.1892597119
 10
-1.7832165813
 20
-14.1994152705
 10
-1.7981744884
 20
-14.2083929209
 10
-1.8142285354
 20
-14.2161926629
 10
-1.8314746381
 20
-14.2228328563
 10
-1.8498168806
 20
-14.2282951414
 10
-1.8689675153
 20
-14.2325244392
 10
-1.8888306263
 20
-14.2355023897
 10
-1.9095021295
 20
-14.2372473529
 10
-1.930982025
 20
-14.2377593286
  0
LWPOLYLINE
  5
49E
100
AcDbEntity
  8
0
100
AcDbPolyline
 62
7
  6
CONTINUOUS
 90
10
 70
0
 10
-0.3314569768
 20
-14.1892597119
 10
-0.3453187113
 20
-14.1994152465
 10
-0.3602766063
 20
-14.2083928813
 10
-0.3763306619
 20
-14.2161926163
 10
-0.3935768006
 20
-14.2228328147
 10
-0.4119190999
 20
-14.2282951132
 10
-0.4310697924
 20
-14.2325244228
 10
-0.4509329557
 20
-14.2355023804
 10
-0.4716045122
 20
-14.237247349
 10
-0.493084462
 20
-14.2377593286
  0
LWPOLYLINE
  5
49F
100
AcDbEntity
  8
0
100
AcDbPolyline
 62
7
  6
CONTINUOUS
 90
10
 70
0
 10
-0.6553251514
 20
-12.3131398155
 10
-0.6405441687
 20
-12.3026246777
 10
-0.62484242
 20
-12.2933060225
 10
-0.6082199051
 20
-12.28518385
 10
-0.5906486729
 20
-12.2782335784
 10
-0.5721566746
 20
-12.2724797894
 10
-0.5528277638
 20
-12.267996228
 10
-0.5326898917
 20
-12.2648074758
 10
-0.511715107
 20
-12.2628889512
 10
-0.4899034098
 20
-12.2622406542
  0
LWPOLYLINE
  5
4A0
100
AcDbEntity
  8
0
100
AcDbPolyline
 62
7
  6
CONTINUOUS
 90
10
 70
0
 10
0.7825724116
 20
-12.3131398155
 10
0.7973533942
 20
-12.3026246777
 10
0.813055143
 20
-12.2933060225
 10
0.8296776579
 20
-12.28518385
 10
0.8472488901
 20
-12.2782335784
 10
0.8657408883
 20
-12.2724797894
 10
0.8850697992
 20
-12.267996228
 10
0.9052076713
 20
-12.2648074758
 10
0.926182456
 20
-12.2628889512
 10
0.9479941532
 20
-12.2622406542
  0
LWPOLYLINE
  5
4A1
100
AcDbEntity
  8
0
100
AcDbPolyline
 62
7
  6
CONTINUOUS
 90
10
 70
0
 10
-1.625587853
 20
-14.3650069144
 10
-1.600550795
 20
-14.3481430763
 10
-1.5770553013
 20
-14.3299174369
 10
-1.555101372
 20
-14.3103299962
 10
-1.5347611188
 20
-14.2894843371
 10
-1.5159624301
 20
-14.2672768767
 10
-1.4984889706
 20
-14.243396866
 10
-1.4822686288
 20
-14.2177407223
 10
-1.4673735164
 20
-14.1904120283
 10
-1.4538036333
 20
-14.1614107841
  0
LWPOLYLINE
  5
4A2
100
AcDbEntity
  8
0
100
AcDbPolyline
 62
7
  6
CONTINUOUS
 90
10
 70
0
 10
-0.18769029
 20
-14.3650069144
 10
-0.1626531423
 20
-14.3481430124
 10
-0.139157575
 20
-14.3299173254
 10
-0.1172035881
 20
-14.3103298535
 10
-0.0968632951
 20
-14.2894841799
 10
-0.0780645824
 20
-14.2672767213
 10
-0.0605911102
 20
-14.2433967275
 10
-0.0443707651
 20
-14.217740615
 10
-0.0294756604
 20
-14.1904119672
 10
-0.0159057961
 20
-14.1614107841
  0
LWPOLYLINE
  5
4A3
100
AcDbEntity
  8
0
100
AcDbPolyline
 62
7
  6
CONTINUOUS
 90
10
 70
0
 10
-0.7921159819
 20
-12.131811893
 10
-0.8169455641
 20
-12.1474731408
 10
-0.8402877202
 20
-12.1644515552
 10
-0.8621424505
 20
-12.1827471362
 10
-0.8824406587
 20
-12.2022672123
 10
-0.901251441
 20
-12.2231044551
 10
-0.9187820852
 20
-12.2455368789
 10
-0.9351016875
 20
-12.2696571552
 10
-0.9501411519
 20
-12.2953726125
 10
-0.9639004782
 20
-12.3226832509
  0
LWPOLYLINE
  5
4A4
100
AcDbEntity
  8
0
100
AcDbPolyline
 62
7
  6
CONTINUOUS
 90
10
 70
0
 10
0.6457815811
 20
-12.131811893
 10
0.6209519989
 20
-12.1474731408
 10
0.5976098427
 20
-12.1644515552
 10
0.5757551125
 20
-12.1827471362
 10
0.5554569043
 20
-12.2022672123
 10
0.536646122
 20
-12.2231044551
 10
0.5191154777
 20
-12.2455368789
 10
0.5027958754
 20
-12.2696571552
 10
0.4877564111
 20
-12.2953726125
 10
0.4739970848
 20
-12.3226832509
  0
LWPOLYLINE
  5
4A5
100
AcDbEntity
  8
0
100
AcDbPolyline
 62
7
  6
CONTINUOUS
 90
10
 70
0
 10
-4.6830850915
 20
-14.2020850192
 10
-4.6975373288
 20
-14.209369925
 10
-4.7127510794
 20
-14.2157023595
 10
-4.7287263434
 20
-14.2210823227
 10
-4.7455364711
 20
-14.2254647061
 10
-4.7631081121
 20
-14.2288946181
 10
-4.7812212155
 20
-14.2315073849
 10
-4.7998024311
 20
-14.233348115
 10
-4.8189251091
 20
-14.2343716998
 10
-4.8385892496
 20
-14.2345781393
  0
LWPOLYLINE
  5
4A6
100
AcDbEntity
  8
0
100
AcDbPolyline
 62
7
  6
CONTINUOUS
 90
10
 70
0
 10
-4.5586445913
 20
-14.3872752417
 10
-4.5336857951
 20
-14.3756285584
 10
-4.510013849
 20
-14.3631469326
 10
-4.4876287532
 20
-14.3498303643
 10
-4.466524732
 20
-14.3356318859
 10
-4.446707561
 20
-14.320598465
 10
-4.4281945664
 20
-14.3048710049
 10
-4.4109915236
 20
-14.2884964735
 10
-4.3950926572
 20
-14.271427903
 10
-4.3804979671
 20
-14.2536652934
  0
LWPOLYLINE
  5
4A7
100
AcDbEntity
  8
0
100
AcDbPolyline
 62
7
  6
CONTINUOUS
 90
52
 70
0
 10
4.0407988352
 20
13.1991183268
 10
4.052568401
 20
13.2020439955
 10
4.0642027802
 20
13.2062834847
 10
4.0757019727
 20
13.2118367945
 10
4.0870128097
 20
13.2189894919
 10
4.0981884602
 20
13.2274560098
 10
4.1093884303
 20
13.2363796468
 10
4.1206161827
 20
13.2454801711
 10
4.1318682548
 20
13.2550378145
 10
4.1432937645
 20
13.2650365705
 10
4.1549706469
 20
13.2754119864
 10
4.166820967
 20
13.2862285149
 10
4.1787600381
 20
13.2976635081
 10
4.1908119443
 20
13.3097081064
 10
4.2029526016
 20
13.3223711694
 10
4.2150250712
 20
13.3358566272
 10
4.2270260968
 20
13.3501877171
 10
4.2389589347
 20
13.3653412019
 10
4.2506764155
 20
13.3814512994
 10
4.2621789657
 20
13.3985411341
 10
4.2734661588
 20
13.4165875815
 10
4.2843895461
 20
13.4356554869
 10
4.2949653579
 20
13.4557424372
 10
4.305177364
 20
13.4768508453
 10
4.3148284247
 20
13.4990527954
 10
4.3239465421
 20
13.5223901939
 10
4.3325037141
 20
13.5468211342
 10
4.3402187951
 20
13.5722919809
 10
4.347078877
 20
13.5987422697
 10
4.353096868
 20
13.6262324649
 10
4.3580303467
 20
13.6548903233
 10
4.3619090031
 20
13.6846870027
 10
4.3647031473
 20
13.7156513453
 10
4.366081289
 20
13.7479976346
 10
4.3661615772
 20
13.781784487
 10
4.364825863
 20
13.8169532861
 10
4.3613882087
 20
13.8535424659
 10
4.3559310046
 20
13.8918761736
 10
4.3483718605
 20
13.9316302618
 10
4.3377776683
 20
13.9718707226
 10
4.3238591396
 20
14.0128424366
 10
4.3069055627
 20
14.054300523
 10
4.2868516946
 20
14.0945763314
 10
4.2635199694
 20
14.133458379
 10
4.2370879528
 20
14.1711581486
 10
4.2080230994
 20
14.2066414385
 10
4.1760358995
 20
14.2399417469
 10
4.1414158628
 20
14.2710255756
 10
4.1054989727
 20
14.2987582283
 10
4.068730557
 20
14.3227614728
 10
4.030665288
 20
14.3434135414
 10
3.9913031656
 20
14.3607144339
  0
LINE
  5
4A8
100
AcDbEntity
  8
DRAFT
100
AcDbLine
 62
7
  6
CONTINUOUS
 10
21.35
 20
11.7626767255
 11
21.85
 21
11.7778055482
  0
LINE
  5
4A9
100
AcDbEntity
  8
0
100
AcDbLine
 62
7
  6
CONTINUOUS
 10
2.878303
 20
9.6085
 11
2.210253
 21
9.6085
  0
LINE
  5
4AA
100
AcDbEntity
  8
0
100
AcDbLine
 62
7
  6
CONTINUOUS
 10
0.750095
 20
9.888429
 11
1.497674
 21
9.888429
  0
LINE
  5
4AB
100
AcDbEntity
  8
0
100
AcDbLine
 62
7
  6
CONTINUOUS
 10
1.497674
 20
10.104751
 11
0.750095
 21
10.104751
  0
LINE
  5
4AC
100
AcDbEntity
  8
RACCORDO
100
AcDbLine
 62
7
  6
CONTINUOUS
 10
22.2683301451
 20
10.75
 11
22.1
 21
10.75
  0
LINE
  5
4AD
100
AcDbEntity
  8
RACCORDO
100
AcDbLine
 62
7
  6
CONTINUOUS
 10
-22.2683301451
 20
10.75
 11
-22.1
 21
10.75
  0
LINE
  5
4AE
100
AcDbEntity
  8
0
100
AcDbLine
 62
7
  6
CONTINUOUS
 10
0.750095
 20
10.893686
 11
1.53903
 21
10.893686
  0
LINE
  5
4AF
100
AcDbEntity
  8
0
100
AcDbLine
 62
7
  6
CONTINUOUS
 10
1.53903
 20
11.110007
 11
0.479694
 21
11.110007
  0
LINE
  5
4B0
100
AcDbEntity
  8
0
100
AcDbLine
 62
7
  6
CONTINUOUS
 10
0.05875
 20
11.110007
 11
-0.192586
 21
11.110007
  0
LINE
  5
4B1
100
AcDbEntity
  8
0
100
AcDbLine
 62
7
  6
CONTINUOUS
 10
-0.965615
 20
11.110007
 11
-1.385532
 21
11.110007
  0
LINE
  5
4B2
100
AcDbEntity
  8
0
100
AcDbLine
 62
7
  6
CONTINUOUS
 10
-3.119599
 20
11.110007
 11
-3.39
 21
11.110007
  0
LINE
  5
4B3
100
AcDbEntity
  8
0
100
AcDbLine
 62
7
  6
CONTINUOUS
 10
-1.809675
 20
11.110011
 11
-2.080077
 21
11.110011
  0
LINE
  5
4B4
100
AcDbEntity
  8
0
100
AcDbLine
 62
7
  6
CONTINUOUS
 10
2.719243
 20
11.110022
 11
2.385218
 21
11.110022
  0
LINE
  5
4B5
100
AcDbEntity
  8
RACCORDO
100
AcDbLine
 62
250
  6
CONTINUOUS
 10
-20.4903017779
 20
11.507655315
 11
-20.3341159992
 21
11.507655315
  0
LINE
  5
4B6
100
AcDbEntity
  8
RACCORDO
100
AcDbLine
 62
250
  6
CONTINUOUS
 10
20.3341155302
 20
11.507655315
 11
20.4903017779
 21
11.507655315
  0
LINE
  5
4B7
100
AcDbEntity
  8
DRAFT
100
AcDbLine
 62
7
  6
CONTINUOUS
 10
21.1996573543
 20
11.6330950766
 11
21.0
 21
11.6330950766
  0
LINE
  5
4B8
100
AcDbEntity
  8
0
100
AcDbLine
 62
7
  6
CONTINUOUS
 10
21.1996573543
 20
11.6330950766
 11
21.0
 21
11.6330950766
  0
LINE
  5
4B9
100
AcDbEntity
  8
DRAFT
100
AcDbLine
 62
7
  6
CONTINUOUS
 10
-21.0
 20
11.6330950766
 11
-21.1996573543
 21
11.6330950766
  0
LINE
  5
4BA
100
AcDbEntity
  8
0
100
AcDbLine
 62
7
  6
CONTINUOUS
 10
-21.0
 20
11.6330950766
 11
-21.1996573543
 21
11.6330950766
  0
LINE
  5
4BB
100
AcDbEntity
  8
DRAFT
100
AcDbLine
 62
7
  6
CONTINUOUS
 10
21.1996573543
 20
11.65
 11
20.8949489743
 21
11.65
  0
LINE
  5
4BC
100
AcDbEntity
  8
DRAFT
100
AcDbLine
 62
7
  6
CONTINUOUS
 10
-20.8949489743
 20
11.65
 11
-21.1996573543
 21
11.65
  0
LINE
  5
4BD
100
AcDbEntity
  8
RACCORDO
100
AcDbLine
 62
250
  6
CONTINUOUS
 10
-20.4239476231
 20
11.6574497452
 11
-20.3341155302
 21
11.6574497452
  0
LINE
  5
4BE
100
AcDbEntity
  8
RACCORDO
100
AcDbLine
 62
250
  6
CONTINUOUS
 10
20.3341155302
 20
11.6574497452
 11
20.4239476231
 21
11.6574497452
  0
LINE
  5
4BF
100
AcDbEntity
  8
DRAFT
100
AcDbLine
 62
7
  6
CONTINUOUS
 10
-20.7450979979
 20
11.7076485572
 11
-20.5549020021
 21
11.7076485572
  0
LINE
  5
4C0
100
AcDbEntity
  8
DRAFT
100
AcDbLine
 62
7
  6
CONTINUOUS
 10
20.5549020021
 20
11.7076485572
 11
20.7450979979
 21
11.7076485572
  0
LINE
  5
4C1
100
AcDbEntity
  8
RACCORDO
100
AcDbLine
 62
250
  6
CONTINUOUS
 10
21.8177407521
 20
11.8030796844
 11
20.8240902598
 21
11.8030796844
  0
LINE
  5
4C2
100
AcDbEntity
  8
RACCORDO
100
AcDbLine
 62
250
  6
CONTINUOUS
 10
-20.8240902598
 20
11.8030796844
 11
-21.8177407521
 21
11.8030796844
  0
LINE
  5
4C3
100
AcDbEntity
  8
RACCORDO
100
AcDbLine
 62
250
  6
CONTINUOUS
 10
-20.032256019
 20
11.8053368642
 11
-20.1799771819
 21
11.8053368648
  0
LINE
  5
4C4
100
AcDbEntity
  8
RACCORDO
100
AcDbLine
 62
250
  6
CONTINUOUS
 10
20.032256019
 20
11.8053368642
 11
20.1799771819
 21
11.8053368642
  0
LINE
  5
4C5
100
AcDbEntity
  8
DRAFT
100
AcDbLine
 62
7
  6
CONTINUOUS
 10
-21.85
 20
11.7778055482
 11
-21.35
 21
11.7626767255
  0
LWPOLYLINE
  5
4C6
100
AcDbEntity
  8
RACCORDO
100
AcDbPolyline
 62
7
  6
CONTINUOUS
 90
16
 70
0
 10
21.63468937
 20
-2.1258649447
 10
21.5993812275
 20
-2.1011831418
 10
21.5661556312
 20
-2.0760272288
 10
21.535012581
 20
-2.0503972058
 10
21.5058062226
 20
-2.0243458531
 10
21.4786824104
 20
-1.9978203904
 10
21.4540787071
 20
-1.9706624763
 10
21.4321039524
 20
-1.9427413723
 10
21.4126493067
 20
-1.914187817
 10
21.3958258135
 20
-1.885235685
 10
21.3816838621
 20
-1.8558198636
 10
21.3701730632
 20
-1.8260054655
 10
21.3612532927
 20
-1.7962217041
 10
21.3549111757
 20
-1.7666116503
 10
21.3511600871
 20
-1.7370322332
 10
21.3500000267
 20
-1.7074834527
  0
LWPOLYLINE
  5
4C7
100
AcDbEntity
  8
0
100
AcDbPolyline
 62
7
  6
CONTINUOUS
 90
10
 70
0
 10
4.6413553402
 20
-12.3290456295
 10
4.6573496716
 20
-12.3147127049
 10
4.6751232459
 20
-12.3019753195
 10
4.6946760632
 20
-12.2908334735
 10
4.7161712942
 20
-12.2812289911
 10
4.7394457681
 20
-12.2732200481
 10
4.7640099724
 20
-12.2669811712
 10
4.7897007363
 20
-12.2625705362
 10
4.8166812306
 20
-12.2599299675
 10
4.8449514553
 20
-12.2590594649
  0
LWPOLYLINE
  5
4C8
100
AcDbEntity
  8
0
100
AcDbPolyline
 62
7
  6
CONTINUOUS
 90
10
 70
0
 10
4.4576264761
 20
-12.1804988913
 10
4.4263027458
 20
-12.2081136981
 10
4.398029618
 20
-12.2389294832
 10
4.3728070927
 20
-12.2729462468
 10
4.350652668
 20
-12.3102411022
 10
4.3315488459
 20
-12.3507369359
 10
4.3154431313
 20
-12.3942024078
 10
4.3023180262
 20
-12.4405604045
 10
4.2921910286
 20
-12.4898880394
 10
4.2850621387
 20
-12.5421853125
  0
LWPOLYLINE
  5
4C9
100
AcDbEntity
  8
0
100
AcDbPolyline
 62
7
  6
CONTINUOUS
 90
10
 70
0
 10
1.1064405861
 20
-14.1892597119
 10
1.0925788517
 20
-14.1994152465
 10
1.0776209567
 20
-14.2083928813
 10
1.061566901
 20
-14.2161926163
 10
1.0443207624
 20
-14.2228328147
 10
1.0259784631
 20
-14.2282951132
 10
1.0068277706
 20
-14.2325244228
 10
0.9869646073
 20
-14.2355023804
 10
0.9662930507
 20
-14.237247349
 10
0.944813101
 20
-14.2377593286
  0
LWPOLYLINE
  5
4CA
100
AcDbEntity
  8
0
100
AcDbPolyline
 62
7
  6
CONTINUOUS
 90
10
 70
0
 10
1.2502072729
 20
-14.3650069144
 10
1.2752444207
 20
-14.3481430124
 10
1.298739988
 20
-14.3299173254
 10
1.3206939748
 20
-14.3103298535
 10
1.3410342679
 20
-14.2894841799
 10
1.3598329805
 20
-14.2672767213
 10
1.3773064527
 20
-14.2433967275
 10
1.3935267979
 20
-14.217740615
 10
1.4084219026
 20
-14.1904119672
 10
1.4219917669
 20
-14.1614107841
  0
LWPOLYLINE
  5
4CB
100
AcDbEntity
  8
0
100
AcDbPolyline
 62
7
  6
CONTINUOUS
 90
10
 70
0
 10
3.2688043561
 20
14.0200048698
 10
3.3112064996
 20
14.0270553158
 10
3.3534324253
 20
14.0327244918
 10
3.3954821332
 20
14.0370123978
 10
3.437326245
 20
14.0399260288
 10
3.478994139
 20
14.0414583898
 10
3.5205739506
 20
14.0415884958
 10
3.5620950583
 20
14.0403093518
 10
3.6035280836
 20
14.0376279528
 10
3.6448730265
 20
14.0335442988
  0
LWPOLYLINE
  5
4CC
100
AcDbEntity
  8
RACCORDO
100
AcDbPolyline
 62
250
  6
CONTINUOUS
 90
13
 70
0
 10
20.8240902598
 20
14.6969203156
 10
20.8049179287
 20
14.6954767566
 10
20.7860700339
 20
14.6915239002
 10
20.7678653697
 20
14.6851286625
 10
20.7506118168
 20
14.6763992552
 10
20.7346012045
 20
14.6654833859
 10
20.7201043575
 20
14.6525657848
 10
20.70736642
 20
14.6378650072
 10
20.6966027585
 20
14.6216297384
 10
20.6879953623
 20
14.6041346483
 10
20.6816897159
 20
14.5856756776
 10
20.6777923571
 20
14.566565021
 10
20.6763690968
 20
14.5471258854
  0
LWPOLYLINE
  5
4CD
100
AcDbEntity
  8
RACCORDO
100
AcDbPolyline
 62
250
  6
CONTINUOUS
 90
13
 70
0
 10
-20.8240902598
 20
11.8030796844
 10
-20.8049179287
 20
11.8045232434
 10
-20.7860700339
 20
11.8084760998
 10
-20.7678653697
 20
11.8148713375
 10
-20.7506118168
 20
11.8236007448
 10
-20.7346012045
 20
11.8345166141
 10
-20.7201043575
 20
11.8474342152
 10
-20.70736642
 20
11.8621349928
 10
-20.6966027585
 20
11.8783702616
 10
-20.6879953623
 20
11.8958653517
 10
-20.6816897159
 20
11.9143243224
 10
-20.6777923571
 20
11.933434979
 10
-20.6763690968
 20
11.9528741146
  0
LWPOLYLINE
  5
4CE
100
AcDbEntity
  8
RACCORDO
100
AcDbPolyline
 62
250
  6
CONTINUOUS
 90
16
 70
0
 10
-20.3341159992
 20
11.507655315
 10
-20.3012881612
 20
11.5095402018
 10
-20.2696123161
 20
11.5145524277
 10
-20.2390884638
 20
11.5226919927
 10
-20.2093744591
 20
11.5341988128
 10
-20.1808124472
 20
11.5488329721
 10
-20.1544288638
 20
11.5658747226
 10
-20.1304534266
 20
11.5852318196
 10
-20.1086564179
 20
11.6069965077
 10
-20.0893751198
 20
11.6307257729
 10
-20.0725343966
 20
11.6565732144
 10
-20.058209384
 20
11.6843852329
 10
-20.046962771
 20
11.7132580159
 10
-20.0389821207
 20
11.7428902926
 10
-20.03407987
 20
11.7735833338
 10
-20.032256019
 20
11.8053371396
  0
LWPOLYLINE
  5
4CF
100
AcDbEntity
  8
RACCORDO
100
AcDbPolyline
 62
250
  6
CONTINUOUS
 90
16
 70
0
 10
20.3341159992
 20
14.992344685
 10
20.3012881612
 20
14.9904597982
 10
20.2696123161
 20
14.9854475723
 10
20.2390884638
 20
14.9773080073
 10
20.2093744591
 20
14.9658011872
 10
20.1808124472
 20
14.9511670279
 10
20.1544288638
 20
14.9341252774
 10
20.1304534266
 20
14.9147681804
 10
20.1086564179
 20
14.8930034923
 10
20.0893751198
 20
14.8692742271
 10
20.0725343966
 20
14.8434267856
 10
20.058209384
 20
14.8156147671
 10
20.046962771
 20
14.7867419841
 10
20.0389821207
 20
14.7571097074
 10
20.03407987
 20
14.7264166662
 10
20.032256019
 20
14.6946628604
  0
LWPOLYLINE
  5
4D0
100
AcDbEntity
  8
RACCORDO
100
AcDbPolyline
 62
250
  6
CONTINUOUS
 90
19
 70
0
 10
19.6509951504
 20
13.742344685
 10
19.6208321847
 20
13.740671391
 10
19.5917462363
 20
13.7364636805
 10
19.563737305
 20
13.7297215536
 10
19.5364678157
 20
13.7201131393
 10
19.5102753437
 20
13.7079703086
 10
19.4861726146
 20
13.6942886737
 10
19.4645324043
 20
13.6791544518
 10
19.444981937
 20
13.6624814259
 10
19.4274156115
 20
13.6450065572
 10
19.4119353989
 20
13.6270327169
 10
19.398439328
 20
13.608257034
 10
19.3865158848
 20
13.5885078566
 10
19.3759553915
 20
13.5678969663
 10
19.3669675259
 20
13.5463125816
 10
19.3597698075
 20
13.5232477059
 10
19.3544347429
 20
13.4985333402
 10
19.3508898255
 20
13.4723384835
 10
19.3491350553
 20
13.4446631358
  0
LWPOLYLINE
  5
4D1
100
AcDbEntity
  8
RACCORDO
100
AcDbPolyline
 62
250
  6
CONTINUOUS
 90
19
 70
0
 10
-19.6509951504
 20
12.757655315
 10
-19.6208321847
 20
12.759328609
 10
-19.5917462363
 20
12.7635363195
 10
-19.563737305
 20
12.7702784464
 10
-19.5364678157
 20
12.7798868607
 10
-19.5102753437
 20
12.7920296914
 10
-19.4861726146
 20
12.8057113263
 10
-19.4645324043
 20
12.8208455482
 10
-19.444981937
 20
12.8375185741
 10
-19.4274156115
 20
12.8549934428
 10
-19.4119353989
 20
12.8729672831
 10
-19.398439328
 20
12.891742966
 10
-19.3865158848
 20
12.9114921434
 10
-19.3759553915
 20
12.9321030337
 10
-19.3669675259
 20
12.9536874184
 10
-19.3597698075
 20
12.9767522941
 10
-19.3544347429
 20
13.0014666598
 10
-19.3508898255
 20
13.0276615165
 10
-19.3491350553
 20
13.0553368642
  0
LINE
  5
4D2
100
AcDbEntity
  8
RACCORDO
100
AcDbLine
 62
7
  6
CONTINUOUS
 10
-21.8177407521
 20
11.8030796844
 11
-21.85
 21
11.8013890489
  0
LINE
  5
4D3
100
AcDbEntity
  8
RACCORDO
100
AcDbLine
 62
7
  6
CONTINUOUS
 10
21.85
 20
14.6986109511
 11
21.8177407521
 21
14.6969203156
  0
LWPOLYLINE
  5
4D4
100
AcDbEntity
  8
RACCORDO
100
AcDbPolyline
 62
250
  6
CONTINUOUS
 90
16
 70
0
 10
-20.3341163694
 20
11.6574499946
 10
-20.3174906161
 20
11.658149
 10
-20.3011417282
 20
11.6605338582
 10
-20.2852408008
 20
11.6645626355
 10
-20.2699106714
 20
11.670189164
 10
-20.2553533512
 20
11.6773307475
 10
-20.2418305
 20
11.685834212
 10
-20.2295438701
 20
11.6954916961
 10
-20.2184872062
 20
11.7062194068
 10
-20.2086151369
 20
11.7180544959
 10
-20.199998256
 20
11.7309617462
 10
-20.1928013782
 20
11.7447492431
 10
-20.1871402062
 20
11.7592408657
 10
-20.1830883048
 20
11.7742706748
 10
-20.1806889024
 20
11.789691008
 10
-20.1799774393
 20
11.8053369407
  0
LWPOLYLINE
  5
4D5
100
AcDbEntity
  8
RACCORDO
100
AcDbPolyline
 62
250
  6
CONTINUOUS
 90
16
 70
0
 10
20.3341163694
 20
14.8425500054
 10
20.3174906161
 20
14.841851
 10
20.3011417282
 20
14.8394661418
 10
20.2852408008
 20
14.8354373645
 10
20.2699106714
 20
14.829810836
 10
20.2553533512
 20
14.8226692525
 10
20.2418305
 20
14.814165788
 10
20.2295438701
 20
14.8045083039
 10
20.2184872062
 20
14.7937805932
 10
20.2086151369
 20
14.7819455041
 10
20.199998256
 20
14.7690382538
 10
20.1928013782
 20
14.7552507569
 10
20.1871402062
 20
14.7407591343
 10
20.1830883048
 20
14.7257293252
 10
20.1806889024
 20
14.710308992
 10
20.1799774393
 20
14.6946630593
  0
LWPOLYLINE
  5
4D6
100
AcDbEntity
  8
RACCORDO
100
AcDbPolyline
 62
250
  6
CONTINUOUS
 90
19
 70
0
 10
19.6509952869
 20
13.5925500407
 10
19.6356630089
 20
13.5919650659
 10
19.6206590402
 20
13.5899655276
 10
19.6061106973
 20
13.5866124445
 10
19.5920313557
 20
13.5819388055
 10
19.5786401662
 20
13.5760463687
 10
19.5663199673
 20
13.5691948464
 10
19.555221978
 20
13.561632015
 10
19.54523176
 20
13.5534547661
 10
19.5362781947
 20
13.5447511411
 10
19.5284242219
 20
13.5357349214
 10
19.5215683253
 20
13.5264422302
 10
19.515465784
 20
13.5166095637
 10
19.5101562059
 20
13.5062965751
 10
19.5056849539
 20
13.4955531493
 10
19.5019821289
 20
13.4840123222
 10
19.4991593983
 20
13.4715688048
 10
19.497403825
 20
13.4584240934
 10
19.4968563362
 20
13.4446631008
  0
LWPOLYLINE
  5
4D7
100
AcDbEntity
  8
RACCORDO
100
AcDbPolyline
 62
250
  6
CONTINUOUS
 90
19
 70
0
 10
-19.6509952869
 20
12.9074499593
 10
-19.6356630089
 20
12.9080349341
 10
-19.6206590402
 20
12.9100344724
 10
-19.6061106973
 20
12.9133875555
 10
-19.5920313557
 20
12.9180611945
 10
-19.5786401662
 20
12.9239536313
 10
-19.5663199673
 20
12.9308051536
 10
-19.555221978
 20
12.938367985
 10
-19.54523176
 20
12.9465452339
 10
-19.5362781947
 20
12.9552488589
 10
-19.5284242219
 20
12.9642650786
 10
-19.5215683253
 20
12.9735577698
 10
-19.515465784
 20
12.9833904363
 10
-19.5101562059
 20
12.9937034249
 10
-19.5056849539
 20
13.0044468507
 10
-19.5019821289
 20
13.0159876778
 10
-19.4991593983
 20
13.0284311952
 10
-19.497403825
 20
13.0415759066
 10
-19.4968563362
 20
13.0553368992
  0
LWPOLYLINE
  5
4D8
100
AcDbEntity
  8
RACCORDO
100
AcDbPolyline
 62
250
  6
CONTINUOUS
 90
9
 70
0
 10
19.7664763493
 20
13.0974197028
 10
19.7381444854
 20
13.0966608286
 10
19.7117699183
 20
13.0958163898
 10
19.6876014373
 20
13.0948822564
 10
19.6659962452
 20
13.0938625582
 10
19.6472518922
 20
13.0927789424
 10
19.631631562
 20
13.0916386247
 10
19.6193683193
 20
13.0904343894
 10
19.61067643
 20
13.0891662365
  0
LWPOLYLINE
  5
4D9
100
AcDbEntity
  8
RACCORDO
100
AcDbPolyline
 62
250
  6
CONTINUOUS
 90
9
 70
0
 10
-19.7664763493
 20
13.4025802972
 10
-19.7381444854
 20
13.4033391714
 10
-19.7117699183
 20
13.4041836102
 10
-19.6876014373
 20
13.4051177436
 10
-19.6659962452
 20
13.4061374418
 10
-19.6472518922
 20
13.4072210576
 10
-19.631631562
 20
13.4083613753
 10
-19.6193683193
 20
13.4095656106
 10
-19.61067643
 20
13.4108337635
  0
LINE
  5
4DA
100
AcDbEntity
  8
RACCORDO
100
AcDbLine
 62
250
  6
CONTINUOUS
 10
19.8283392102
 20
13.0986523083
 11
19.7664763493
 21
13.0974197028
  0
LINE
  5
4DB
100
AcDbEntity
  8
RACCORDO
100
AcDbLine
 62
250
  6
CONTINUOUS
 10
-19.8283392102
 20
13.4013476917
 11
-19.7664763493
 21
13.4025802972
  0
LINE
  5
4DC
100
AcDbEntity
  8
RACCORDO
100
AcDbLine
 62
250
  6
CONTINUOUS
 10
19.8956516554
 20
13.0994977215
 11
19.8283392102
 21
13.0986523083
  0
LINE
  5
4DD
100
AcDbEntity
  8
RACCORDO
100
AcDbLine
 62
250
  6
CONTINUOUS
 10
-19.8956516554
 20
13.4005022785
 11
-19.8283392102
 21
13.4013476917
  0
LWPOLYLINE
  5
4DE
100
AcDbEntity
  8
RACCORDO
100
AcDbPolyline
 62
250
  6
CONTINUOUS
 90
15
 70
0
 10
19.9812113415
 20
12.9501358065
 10
19.9585138671
 20
12.94997069
 10
19.9365071079
 20
12.9497034626
 10
19.915094418
 20
12.9493316621
 10
19.8943724433
 20
12.9488577506
 10
19.8746311224
 20
12.9482891141
 10
19.8558226398
 20
12.9476252132
 10
19.8379948109
 20
12.9468665872
 10
19.8215810203
 20
12.9460222404
 10
19.8065502573
 20
12.9450878425
 10
19.7929335325
 20
12.9440677237
 10
19.781257262
 20
12.9429838801
 10
19.771696918
 20
12.9418436436
 10
19.7640770283
 20
12.9406396823
 10
19.758397593
 20
12.939371996
  0
LWPOLYLINE
  5
4DF
100
AcDbEntity
  8
RACCORDO
100
AcDbPolyline
 62
250
  6
CONTINUOUS
 90
15
 70
0
 10
-19.9812113415
 20
13.5498641935
 10
-19.9585138671
 20
13.55002931
 10
-19.9365071079
 20
13.5502965374
 10
-19.915094418
 20
13.5506683379
 10
-19.8943724433
 20
13.5511422494
 10
-19.8746311224
 20
13.5517108859
 10
-19.8558226398
 20
13.5523747868
 10
-19.8379948109
 20
13.5531334128
 10
-19.8215810203
 20
13.5539777596
 10
-19.8065502573
 20
13.5549121575
 10
-19.7929335325
 20
13.5559322763
 10
-19.781257262
 20
13.5570161199
 10
-19.771696918
 20
13.5581563564
 10
-19.7640770283
 20
13.5593603177
 10
-19.758397593
 20
13.560628004
  0
LINE
  5
4E0
100
AcDbEntity
  8
RACCORDO
100
AcDbLine
 62
250
  6
CONTINUOUS
 10
19.9676490921
 20
13.0999301179
 11
19.8956516554
 21
13.0994977215
  0
LINE
  5
4E1
100
AcDbEntity
  8
RACCORDO
100
AcDbLine
 62
250
  6
CONTINUOUS
 10
-19.9676490921
 20
13.4000698821
 11
-19.8956516554
 21
13.4005022785
  0
LINE
  5
4E2
100
AcDbEntity
  8
0
100
AcDbLine
 62
7
  6
CONTINUOUS
 10
-3.712456
 20
12.112007
 11
-3.289406
 21
12.112007
  0
LINE
  5
4E3
100
AcDbEntity
  8
0
100
AcDbLine
 62
7
  6
CONTINUOUS
 10
-2.372012
 20
12.112007
 11
-1.891956
 21
12.112007
  0
LINE
  5
4E4
100
AcDbEntity
  8
0
100
AcDbLine
 62
7
  6
CONTINUOUS
 10
-1.633526
 20
12.112007
 11
-1.174268
 21
12.112007
  0
LINE
  5
4E5
100
AcDbEntity
  8
0
100
AcDbLine
 62
7
  6
CONTINUOUS
 10
-0.507508
 20
12.112007
 11
-0.44018
 21
12.112007
  0
LINE
  5
4E6
100
AcDbEntity
  8
0
100
AcDbLine
 62
7
  6
CONTINUOUS
 10
0.229236
 20
12.112007
 11
0.698858
 21
12.112007
  0
LINE
  5
4E7
100
AcDbEntity
  8
0
100
AcDbLine
 62
7
  6
CONTINUOUS
 10
0.77424
 20
12.112007
 11
1.249088
 21
12.112007
  0
LINE
  5
4E8
100
AcDbEntity
  8
0
100
AcDbLine
 62
7
  6
CONTINUOUS
 10
2.15967
 20
12.112007
 11
2.66563
 21
12.112007
  0
LINE
  5
4E9
100
AcDbEntity
  8
0
100
AcDbLine
 62
7
  6
CONTINUOUS
 10
2.8065975821
 20
12.1120071664
 11
3.2847223015
 21
12.1120071664
  0
LINE
  5
4EA
100
AcDbEntity
  8
0
100
AcDbLine
 62
7
  6
CONTINUOUS
 10
4.0198623394
 20
12.1120071664
 11
4.4816207207
 21
12.1120071664
  0
LINE
  5
4EB
100
AcDbEntity
  8
RACCORDO
100
AcDbLine
 62
250
  6
CONTINUOUS
 10
21.4386751346
 20
12.2025314983
 11
20.7181437817
 21
12.2025314983
  0
LINE
  5
4EC
100
AcDbEntity
  8
RACCORDO
100
AcDbLine
 62
250
  6
CONTINUOUS
 10
-20.7181437817
 20
12.2025314983
 11
-21.4386751346
 21
12.2025314983
  0
LINE
  5
4ED
100
AcDbEntity
  8
0
100
AcDbLine
 62
7
  6
CONTINUOUS
 10
1.381553
 20
12.571127
 11
2.03531
 21
12.571127
  0
LINE
  5
4EE
100
AcDbEntity
  8
RACCORDO
100
AcDbLine
 62
250
  6
CONTINUOUS
 10
-20.032256019
 20
12.757655315
 11
-19.6509951504
 21
12.757655315
  0
LINE
  5
4EF
100
AcDbEntity
  8
RACCORDO
100
AcDbLine
 62
250
  6
CONTINUOUS
 10
19.6509945665
 20
12.757655315
 11
20.032256019
 21
12.757655315
  0
LINE
  5
4F0
100
AcDbEntity
  8
RACCORDO
100
AcDbLine
 62
250
  6
CONTINUOUS
 10
-20.1831857746
 20
12.9074497452
 11
-19.6509945665
 21
12.9074497452
  0
LINE
  5
4F1
100
AcDbEntity
  8
RACCORDO
100
AcDbLine
 62
250
  6
CONTINUOUS
 10
19.6509945665
 20
12.9074497452
 11
20.1831857746
 21
12.9074497452
  0
LINE
  5
4F2
100
AcDbEntity
  8
0
100
AcDbLine
 62
7
  6
CONTINUOUS
 10
1.939371
 20
12.926392
 11
1.479751
 21
12.926392
  0
LINE
  5
4F3
100
AcDbEntity
  8
RACCORDO
100
AcDbLine
 62
250
  6
CONTINUOUS
 10
20.3270158315
 20
12.950198812
 11
19.9812113415
 21
12.9501358065
  0
LINE
  5
4F4
100
AcDbEntity
  8
0
100
AcDbLine
 62
7
  6
CONTINUOUS
 10
3.2847223015
 20
13.0120177973
 11
3.5421170294
 21
13.0120177973
  0
LINE
  5
4F5
100
AcDbEntity
  8
RACCORDO
100
AcDbLine
 62
250
  6
CONTINUOUS
 10
-19.3491350553
 20
13.0553368642
 11
-19.4968562183
 21
13.0553368642
  0
LINE
  5
4F6
100
AcDbEntity
  8
RACCORDO
100
AcDbLine
 62
250
  6
CONTINUOUS
 10
19.3491350553
 20
13.0553368642
 11
19.4968562183
 21
13.0553368642
  0
LINE
  5
4F7
100
AcDbEntity
  8
RACCORDO
100
AcDbLine
 62
250
  6
CONTINUOUS
 10
20.3520806424
 20
13.0999932422
 11
19.9676490921
 21
13.0999301179
  0
LINE
  5
4F8
100
AcDbEntity
  8
CURVE
100
AcDbLine
 62
7
  6
CONTINUOUS
 10
20.1581209637
 20
13.25
 11
21.85
 21
13.25
  0
LINE
  5
4F9
100
AcDbEntity
  8
0
100
AcDbLine
 62
7
  6
CONTINUOUS
 10
3.543151782
 20
13.388667771
 11
3.2688043561
 21
13.388667771
  0
LINE
  5
4FA
100
AcDbEntity
  8
RACCORDO
100
AcDbLine
 62
250
  6
CONTINUOUS
 10
-20.3520806424
 20
13.4000067578
 11
-19.9676490921
 21
13.4000698821
  0
LINE
  5
4FB
100
AcDbEntity
  8
RACCORDO
100
AcDbLine
 62
250
  6
CONTINUOUS
 10
-19.3491350553
 20
13.4446631358
 11
-19.4968562183
 21
13.4446631358
  0
LINE
  5
4FC
100
AcDbEntity
  8
RACCORDO
100
AcDbLine
 62
250
  6
CONTINUOUS
 10
19.3491350553
 20
13.4446631358
 11
19.4968562183
 21
13.4446631358
  0
LINE
  5
4FD
100
AcDbEntity
  8
RACCORDO
100
AcDbLine
 62
250
  6
CONTINUOUS
 10
-20.3270158315
 20
13.549801188
 11
-19.9812113415
 21
13.5498641935
  0
LINE
  5
4FE
100
AcDbEntity
  8
RACCORDO
100
AcDbLine
 62
250
  6
CONTINUOUS
 10
20.1831857746
 20
13.5925502548
 11
19.6509945665
 21
13.5925502548
  0
LINE
  5
4FF
100
AcDbEntity
  8
RACCORDO
100
AcDbLine
 62
250
  6
CONTINUOUS
 10
-19.6509945665
 20
13.5925502548
 11
-20.1831857746
 21
13.5925502548
  0
LINE
  5
500
100
AcDbEntity
  8
RACCORDO
100
AcDbLine
 62
250
  6
CONTINUOUS
 10
20.032256019
 20
13.742344685
 11
19.6509951504
 21
13.742344685
  0
LINE
  5
501
100
AcDbEntity
  8
RACCORDO
100
AcDbLine
 62
250
  6
CONTINUOUS
 10
-19.6509945665
 20
13.742344685
 11
-20.032256019
 21
13.742344685
  0
LINE
  5
502
100
AcDbEntity
  8
RACCORDO
100
AcDbLine
 62
250
  6
CONTINUOUS
 10
-20.3520806424
 20
13.0999932422
 11
-19.9667672433
 21
13.0999185036
  0
LINE
  5
503
100
AcDbEntity
  8
RACCORDO
100
AcDbLine
 62
250
  6
CONTINUOUS
 10
20.3520806424
 20
13.4000067578
 11
19.9667672433
 21
13.4000814964
  0
LWPOLYLINE
  5
504
100
AcDbEntity
  8
RACCORDO
100
AcDbPolyline
 62
250
  6
CONTINUOUS
 90
19
 70
0
 10
-20.3270158315
 20
12.950198812
 10
-19.9807094202
 20
12.9501241815
 10
-19.9578605961
 20
12.9499568117
 10
-19.9360530589
 20
12.9496967024
 10
-19.9151345223
 20
12.9493310457
 10
-19.8952572727
 20
12.9488726497
 10
-19.8768781694
 20
12.9483599383
 10
-19.8601761493
 20
12.9477955581
 10
-19.8449722757
 20
12.9471768624
 10
-19.8311865978
 20
12.9465343361
 10
-19.81893593
 20
12.945880168
 10
-19.8081034581
 20
12.9452021693
 10
-19.7982587886
 20
12.9444942578
 10
-19.7892835031
 20
12.94376309
 10
-19.7812960201
 20
12.9430020095
 10
-19.7742212015
 20
12.9421849649
 10
-19.768034001
 20
12.9413032726
 10
-19.7627594649
 20
12.9403656163
 10
-19.758397593
 20
12.939371996
  0
LWPOLYLINE
  5
505
100
AcDbEntity
  8
RACCORDO
100
AcDbPolyline
 62
250
  6
CONTINUOUS
 90
19
 70
0
 10
20.3270158315
 20
13.549801188
 10
19.9807094202
 20
13.5498758185
 10
19.9578605961
 20
13.5500431883
 10
19.9360530589
 20
13.5503032976
 10
19.9151345223
 20
13.5506689543
 10
19.8952572727
 20
13.5511273503
 10
19.8768781694
 20
13.5516400617
 10
19.8601761493
 20
13.5522044419
 10
19.8449722757
 20
13.5528231376
 10
19.8311865978
 20
13.5534656639
 10
19.81893593
 20
13.554119832
 10
19.8081034581
 20
13.5547978307
 10
19.7982587886
 20
13.5555057422
 10
19.7892835031
 20
13.55623691
 10
19.7812960201
 20
13.5569979905
 10
19.7742212015
 20
13.5578150351
 10
19.768034001
 20
13.5586967274
 10
19.7627594649
 20
13.5596343837
 10
19.758397593
 20
13.560628004
  0
LINE
  5
506
100
AcDbEntity
  8
RACCORDO
100
AcDbLine
 62
250
  6
CONTINUOUS
 10
-19.9667672433
 20
13.0999185036
 11
-19.8949251771
 21
13.0994909549
  0
LINE
  5
507
100
AcDbEntity
  8
RACCORDO
100
AcDbLine
 62
250
  6
CONTINUOUS
 10
19.9667672433
 20
13.4000814964
 11
19.8949251771
 21
13.4005090451
  0
LINE
  5
508
100
AcDbEntity
  8
RACCORDO
100
AcDbLine
 62
250
  6
CONTINUOUS
 10
-19.8949251771
 20
13.0994909549
 11
-19.8295855335
 21
13.0986670854
  0
LINE
  5
509
100
AcDbEntity
  8
RACCORDO
100
AcDbLine
 62
250
  6
CONTINUOUS
 10
19.8949251771
 20
13.4005090451
 11
19.8295855335
 21
13.4013329146
  0
LINE
  5
50A
100
AcDbEntity
  8
RACCORDO
100
AcDbLine
 62
250
  6
CONTINUOUS
 10
-19.8295855335
 20
13.0986670854
 11
-19.7734763339
 21
13.0975900449
  0
LINE
  5
50B
100
AcDbEntity
  8
RACCORDO
100
AcDbLine
 62
250
  6
CONTINUOUS
 10
19.8295855335
 20
13.4013329146
 11
19.7734763339
 21
13.4024099551
  0
LWPOLYLINE
  5
50C
100
AcDbEntity
  8
RACCORDO
100
AcDbPolyline
 62
250
  6
CONTINUOUS
 90
11
 70
0
 10
-19.7734763339
 20
13.0975900449
 10
-19.7271388388
 20
13.0963287029
 10
-19.7076270457
 20
13.0956744876
 10
-19.6902902211
 20
13.0949964504
 10
-19.6744543449
 20
13.0942885628
 10
-19.6601939569
 20
13.0935575524
 10
-19.6475159163
 20
13.0927966916
 10
-19.6359941992
 20
13.0919797697
 10
-19.6257499148
 20
13.0910980497
 10
-19.6172210428
 20
13.0901602685
 10
-19.61067643
 20
13.0891664262
  0
LWPOLYLINE
  5
50D
100
AcDbEntity
  8
RACCORDO
100
AcDbPolyline
 62
250
  6
CONTINUOUS
 90
11
 70
0
 10
19.7734763339
 20
13.4024099551
 10
19.7271388388
 20
13.4036712971
 10
19.7076270457
 20
13.4043255124
 10
19.6902902211
 20
13.4050035496
 10
19.6744543449
 20
13.4057114372
 10
19.6601939569
 20
13.4064424476
 10
19.6475159163
 20
13.4072033084
 10
19.6359941992
 20
13.4080202303
 10
19.6257499148
 20
13.4089019503
 10
19.6172210428
 20
13.4098397315
 10
19.61067643
 20
13.4108335738
  0
LWPOLYLINE
  5
50E
100
AcDbEntity
  8
0
100
AcDbPolyline
 62
7
  6
CONTINUOUS
 90
22
 70
0
 10
3.5421170294
 20
13.0120177973
 10
3.560794499
 20
13.0114047642
 10
3.5790771532
 20
13.0096511666
 10
3.596964992
 20
13.0067570044
 10
3.6145625452
 20
13.0026906567
 10
3.631765283
 20
12.9974837445
 10
3.6482596154
 20
12.991231131
 10
3.66396033
 20
12.9838857518
 10
3.6789526392
 20
12.9754946713
 10
3.6931785899
 20
12.9662939455
 10
3.7065873792
 20
12.9562940712
 10
3.7192298101
 20
12.9454845516
 10
3.7312003388
 20
12.9340699532
 10
3.7425204847
 20
12.9220668718
 10
3.7531687284
 20
12.9094587116
 10
3.7631749679
 20
12.8964002515
 10
3.7725434137
 20
12.8829254553
 10
3.7812698553
 20
12.8690003592
 10
3.7893715595
 20
12.8546778501
 10
3.7968542816
 20
12.839975557
 10
3.8037122663
 20
12.8248758509
 10
3.8099455134
 20
12.8093787318
  0
LINE
  5
50F
100
AcDbEntity
  8
RACCORDO
100
AcDbLine
 62
7
  6
CONTINUOUS
 10
21.85
 20
11.8013890489
 11
21.8177407521
 21
11.8030796844
  0
LINE
  5
510
100
AcDbEntity
  8
RACCORDO
100
AcDbLine
 62
7
  6
CONTINUOUS
 10
-21.8177407521
 20
14.6969203156
 11
-21.85
 21
14.6986109511
  0
LWPOLYLINE
  5
511
100
AcDbEntity
  8
RACCORDO
100
AcDbPolyline
 62
250
  6
CONTINUOUS
 90
13
 70
0
 10
-19.758397593
 20
13.560628004
 10
-19.739226245
 20
13.5591845816
 10
-19.7203791447
 20
13.5552320781
 10
-19.7021750557
 20
13.5488373427
 10
-19.6849218663
 20
13.5401085304
 10
-19.6689113821
 20
13.5291932729
 10
-19.6544143905
 20
13.5162761813
 10
-19.6416760813
 20
13.5015757244
 10
-19.6309118991
 20
13.4853405328
 10
-19.6223039001
 20
13.4678451947
 10
-19.6159976726
 20
13.4493856112
 10
-19.6120998745
 20
13.4302739917
 10
-19.61067643
 20
13.4108335738
  0
LWPOLYLINE
  5
512
100
AcDbEntity
  8
RACCORDO
100
AcDbPolyline
 62
250
  6
CONTINUOUS
 90
13
 70
0
 10
-20.8240902598
 20
14.6969203156
 10
-20.8049189117
 20
14.6954768931
 10
-20.7860718113
 20
14.6915243894
 10
-20.7678677222
 20
14.6851296537
 10
-20.7506145326
 20
14.6764008413
 10
-20.7346040482
 20
14.6654855836
 10
-20.7201070565
 20
14.652568492
 10
-20.7073687473
 20
14.637868035
 10
-20.6966045652
 20
14.6216328436
 10
-20.6879965664
 20
14.6041375057
 10
-20.681690339
 20
14.5856779224
 10
-20.6777925411
 20
14.5665663031
 10
-20.6763690968
 20
14.5471258854
  0
LWPOLYLINE
  5
513
100
AcDbEntity
  8
RACCORDO
100
AcDbPolyline
 62
250
  6
CONTINUOUS
 90
13
 70
0
 10
20.8240902598
 20
11.8030796844
 10
20.8049189117
 20
11.8045231069
 10
20.7860718113
 20
11.8084756106
 10
20.7678677222
 20
11.8148703463
 10
20.7506145326
 20
11.8235991587
 10
20.7346040482
 20
11.8345144164
 10
20.7201070565
 20
11.847431508
 10
20.7073687473
 20
11.862131965
 10
20.6966045652
 20
11.8783671564
 10
20.6879965664
 20
11.8958624943
 10
20.681690339
 20
11.9143220776
 10
20.6777925411
 20
11.9334336969
 10
20.6763690968
 20
11.9528741146
  0
LINE
  5
514
100
AcDbEntity
  8
DRAFT
100
AcDbLine
 62
7
  6
CONTINUOUS
 10
-21.85
 20
14.7221944518
 11
-21.35
 21
14.7373232745
  0
LINE
  5
515
100
AcDbEntity
  8
RACCORDO
100
AcDbLine
 62
250
  6
CONTINUOUS
 10
-21.4386751346
 20
14.2974685017
 11
-20.7181437817
 21
14.2974685017
  0
LINE
  5
516
100
AcDbEntity
  8
RACCORDO
100
AcDbLine
 62
250
  6
CONTINUOUS
 10
20.7181437817
 20
14.2974685017
 11
21.4386751346
 21
14.2974685017
  0
LINE
  5
517
100
AcDbEntity
  8
0
100
AcDbLine
 62
7
  6
CONTINUOUS
 10
1.959997
 20
14.411797
 11
1.4956
 21
14.411797
  0
LINE
  5
518
100
AcDbEntity
  8
0
100
AcDbLine
 62
7
  6
CONTINUOUS
 10
0.483802
 20
14.411797
 11
0.008833
 21
14.411797
  0
LINE
  5
519
100
AcDbEntity
  8
0
100
AcDbLine
 62
7
  6
CONTINUOUS
 10
-0.946209
 20
14.411797
 11
-1.425869
 21
14.411797
  0
LINE
  5
51A
100
AcDbEntity
  8
0
100
AcDbLine
 62
7
  6
CONTINUOUS
 10
-2.550162
 20
14.411797
 11
-3.02989
 21
14.411797
  0
LINE
  5
51B
100
AcDbEntity
  8
0
100
AcDbLine
 62
7
  6
CONTINUOUS
 10
-3.920045
 20
14.411797
 11
-4.441534
 21
14.411797
  0
LINE
  5
51C
100
AcDbEntity
  8
0
100
AcDbLine
 62
7
  6
CONTINUOUS
 10
-1.891956
 20
14.411935
 11
-2.372012
 21
14.411935
  0
LINE
  5
51D
100
AcDbEntity
  8
RACCORDO
100
AcDbLine
 62
250
  6
CONTINUOUS
 10
-20.032256019
 20
14.6946631358
 11
-20.1799771819
 21
14.6946631358
  0
LINE
  5
51E
100
AcDbEntity
  8
RACCORDO
100
AcDbLine
 62
250
  6
CONTINUOUS
 10
20.032256019
 20
14.6946631358
 11
20.1799771819
 21
14.6946631352
  0
LINE
  5
51F
100
AcDbEntity
  8
RACCORDO
100
AcDbLine
 62
250
  6
CONTINUOUS
 10
-21.8177407521
 20
14.6969203156
 11
-20.8240902598
 21
14.6969203156
  0
LINE
  5
520
100
AcDbEntity
  8
RACCORDO
100
AcDbLine
 62
250
  6
CONTINUOUS
 10
20.8240902598
 20
14.6969203156
 11
21.8177407521
 21
14.6969203156
  0
LINE
  5
521
100
AcDbEntity
  8
DRAFT
100
AcDbLine
 62
7
  6
CONTINUOUS
 10
-20.7450979979
 20
14.7923514428
 11
-20.5549020021
 21
14.7923514428
  0
LINE
  5
522
100
AcDbEntity
  8
DRAFT
100
AcDbLine
 62
7
  6
CONTINUOUS
 10
20.5549020021
 20
14.7923514428
 11
20.7450979979
 21
14.7923514428
  0
LINE
  5
523
100
AcDbEntity
  8
RACCORDO
100
AcDbLine
 62
250
  6
CONTINUOUS
 10
20.4239476231
 20
14.8425502548
 11
20.3341155302
 21
14.8425502548
  0
LINE
  5
524
100
AcDbEntity
  8
RACCORDO
100
AcDbLine
 62
250
  6
CONTINUOUS
 10
-20.3341155302
 20
14.8425502548
 11
-20.4239476231
 21
14.8425502548
  0
LINE
  5
525
100
AcDbEntity
  8
DRAFT
100
AcDbLine
 62
7
  6
CONTINUOUS
 10
21.1996573543
 20
14.85
 11
20.8949489743
 21
14.85
  0
LINE
  5
526
100
AcDbEntity
  8
DRAFT
100
AcDbLine
 62
7
  6
CONTINUOUS
 10
-20.8949489743
 20
14.85
 11
-21.1996573543
 21
14.85
  0
LINE
  5
527
100
AcDbEntity
  8
DRAFT
100
AcDbLine
 62
7
  6
CONTINUOUS
 10
-21.1996573543
 20
14.8669049234
 11
-21.0
 21
14.8669049234
  0
LINE
  5
528
100
AcDbEntity
  8
0
100
AcDbLine
 62
7
  6
CONTINUOUS
 10
-21.1996573543
 20
14.8669049234
 11
-21.0
 21
14.8669049234
  0
LINE
  5
529
100
AcDbEntity
  8
DRAFT
100
AcDbLine
 62
7
  6
CONTINUOUS
 10
21.0
 20
14.8669049234
 11
21.1996573543
 21
14.8669049234
  0
LINE
  5
52A
100
AcDbEntity
  8
0
100
AcDbLine
 62
7
  6
CONTINUOUS
 10
21.0
 20
14.8669049234
 11
21.1996573543
 21
14.8669049234
  0
LINE
  5
52B
100
AcDbEntity
  8
RACCORDO
100
AcDbLine
 62
250
  6
CONTINUOUS
 10
20.4903017779
 20
14.992344685
 11
20.3341159992
 21
14.992344685
  0
LINE
  5
52C
100
AcDbEntity
  8
RACCORDO
100
AcDbLine
 62
250
  6
CONTINUOUS
 10
-20.3341155302
 20
14.992344685
 11
-20.4903017779
 21
14.992344685
  0
LINE
  5
52D
100
AcDbEntity
  8
RACCORDO
100
AcDbLine
 62
7
  6
CONTINUOUS
 10
5.75
 20
15.2
 11
-5.75
 21
15.2
  0
LINE
  5
52E
100
AcDbEntity
  8
RACCORDO
100
AcDbLine
 62
7
  6
CONTINUOUS
 10
-22.2683301451
 20
15.75
 11
-22.1
 21
15.75
  0
LINE
  5
52F
100
AcDbEntity
  8
RACCORDO
100
AcDbLine
 62
7
  6
CONTINUOUS
 10
22.2683301451
 20
15.75
 11
22.1
 21
15.75
  0
LINE
  5
530
100
AcDbEntity
  8
RACCORDO
100
AcDbLine
 62
250
  6
CONTINUOUS
 10
21.5
 20
16.2875932838
 11
21.0
 21
16.2875932838
  0
LINE
  5
531
100
AcDbEntity
  8
0
100
AcDbLine
 62
250
  6
CONTINUOUS
 10
21.0
 20
16.2875932838
 11
-21.0
 21
16.2875932838
  0
LINE
  5
532
100
AcDbEntity
  8
RACCORDO
100
AcDbLine
 62
250
  6
CONTINUOUS
 10
-21.0
 20
16.2875932838
 11
-21.5
 21
16.2875932838
  0
LINE
  5
533
100
AcDbEntity
  8
DRAFT
100
AcDbLine
 62
7
  6
CONTINUOUS
 10
21.35
 20
14.7373232745
 11
21.85
 21
14.7221944518
  0
LWPOLYLINE
  5
534
100
AcDbEntity
  8
RACCORDO
100
AcDbPolyline
 62
250
  6
CONTINUOUS
 90
13
 70
0
 10
19.758397593
 20
12.939371996
 10
19.739226245
 20
12.9408154184
 10
19.7203791447
 20
12.9447679219
 10
19.7021750557
 20
12.9511626573
 10
19.6849218663
 20
12.9598914696
 10
19.6689113821
 20
12.9708067271
 10
19.6544143905
 20
12.9837238187
 10
19.6416760813
 20
12.9984242756
 10
19.6309118991
 20
13.0146594672
 10
19.6223039001
 20
13.0321548053
 10
19.6159976726
 20
13.0506143888
 10
19.6120998745
 20
13.0697260083
 10
19.61067643
 20
13.0891664262
  0
LWPOLYLINE
  5
535
100
AcDbEntity
  8
0
100
AcDbPolyline
 62
7
  6
CONTINUOUS
 90
25
 70
0
 10
3.6448730265
 20
14.0335442988
 10
3.6637031733
 20
14.030777249
 10
3.6821377064
 20
14.0270560548
 10
3.7001766259
 20
14.0223807161
 10
3.7178656209
 20
14.0167349807
 10
3.7351590023
 20
14.0101351009
 10
3.7519197022
 20
14.0026298334
 10
3.7681696713
 20
13.994219089
 10
3.7838869588
 20
13.9849029569
 10
3.7988686448
 20
13.9747304612
 10
3.8131048528
 20
13.9636813224
 10
3.8266054592
 20
13.9517758201
 10
3.8391971723
 20
13.9391238164
 10
3.8508306379
 20
13.9256962382
 10
3.8615552103
 20
13.9115221586
 10
3.8713456612
 20
13.89679866
 10
3.880201583
 20
13.8815334759
 10
3.8881233833
 20
13.8657188726
 10
3.8950870563
 20
13.8495287319
 10
3.9011083412
 20
13.8329763943
 10
3.9061714988
 20
13.8160485192
 10
3.9102053058
 20
13.7988789662
 10
3.9131860212
 20
13.7815123551
 10
3.915137386
 20
13.763904066
 10
3.9160594002
 20
13.7460540991
  0
LWPOLYLINE
  5
536
100
AcDbEntity
  8
0
100
AcDbPolyline
 62
7
  6
CONTINUOUS
 90
13
 70
0
 10
3.9913031656
 20
14.3607144339
 10
3.912730863
 20
14.3845277391
 10
3.8302411913
 20
14.4040097431
 10
3.7438341506
 20
14.4191604461
 10
3.653324667
 20
14.4297273697
 10
3.5588978143
 20
14.4359629922
 10
3.4611088138
 20
14.4386247485
 10
3.3600791308
 20
14.4378218326
 10
3.2556873
 20
14.4334450504
 10
3.1481241472
 20
14.4259242554
 10
3.0374532809
 20
14.415402732
 10
2.9236110925
 20
14.4017371957
 10
2.8065975821
 20
14.3849276465
  0
LWPOLYLINE
  5
537
100
AcDbEntity
  8
RACCORDO
100
AcDbPolyline
 62
250
  6
CONTINUOUS
 90
16
 70
0
 10
19.3491350553
 20
-13.4446625873
 10
19.3513248222
 20
-13.4789459961
 10
19.356984151
 20
-13.5118574215
 10
19.3661130417
 20
-13.5433968637
 10
19.3792390579
 20
-13.5740803397
 10
19.3958346359
 20
-13.6033918324
 10
19.4143170851
 20
-13.6297832901
 10
19.4343562526
 20
-13.6526011577
 10
19.4562822914
 20
-13.6724989904
 10
19.4795029696
 20
-13.6898894015
 10
19.5035925596
 20
-13.7049120236
 10
19.5289767891
 20
-13.7174272242
 10
19.5563406094
 20
-13.7274287191
 10
19.5859123376
 20
-13.7349144135
 10
19.6174636567
 20
-13.7398864021
 10
19.6509945665
 20
-13.742344685
  0
LWPOLYLINE
  5
538
100
AcDbEntity
  8
RACCORDO
100
AcDbPolyline
 62
250
  6
CONTINUOUS
 90
13
 70
0
 10
19.61067643
 20
13.4108335738
 10
19.6120998746
 20
13.430273992
 10
19.6159976728
 20
13.4493856116
 10
19.6223039005
 20
13.4678451953
 10
19.6309118996
 20
13.4853405334
 10
19.6416760818
 20
13.5015757249
 10
19.6544143911
 20
13.5162761819
 10
19.6689113826
 20
13.5291932733
 10
19.6849218668
 20
13.5401085307
 10
19.7021750561
 20
13.5488373429
 10
19.720379145
 20
13.5552320782
 10
19.7392262452
 20
13.5591845816
 10
19.758397593
 20
13.560628004
  0
LINE
  5
539
100
AcDbEntity
  8
DRAFT
100
AcDbLine
 62
7
  6
CONTINUOUS
 10
20.8949489743
 20
-11.65
 11
20.8270299161
 21
-11.6766416235
  0
LINE
  5
53A
100
AcDbEntity
  8
DRAFT
100
AcDbLine
 62
7
  6
CONTINUOUS
 10
20.8270299161
 20
-11.6766416235
 11
20.7940522821
 21
-11.6893616969
  0
LWPOLYLINE
  5
53B
100
AcDbEntity
  8
DRAFT
100
AcDbPolyline
 62
7
  6
CONTINUOUS
 90
3
 70
0
 10
20.7940522821
 20
-11.6893616969
 10
20.7613356945
 20
-11.7016579871
 10
20.7450979979
 20
-11.7076485572
  0
LINE
  5
53C
100
AcDbEntity
  8
RACCORDO
100
AcDbLine
 62
250
  6
CONTINUOUS
 10
19.61067643
 20
-13.4108335738
 11
19.4968562183
 21
-13.4446631358
  0
LINE
  5
53D
100
AcDbEntity
  8
RACCORDO
100
AcDbLine
 62
250
  6
CONTINUOUS
 10
19.758397593
 20
-13.560628004
 11
19.6509945665
 21
-13.5925502548
  0
LINE
  5
53E
100
AcDbEntity
  8
RACCORDO
100
AcDbLine
 62
250
  6
CONTINUOUS
 10
21.5
 20
16.4586033555
 11
20.9994736654
 21
16.4586033555
  0
LINE
  5
53F
100
AcDbEntity
  8
0
100
AcDbLine
 62
250
  6
CONTINUOUS
 10
20.9994736654
 20
16.4586033555
 11
-20.9994736654
 21
16.4586033555
  0
LINE
  5
540
100
AcDbEntity
  8
RACCORDO
100
AcDbLine
 62
250
  6
CONTINUOUS
 10
-20.9994736654
 20
16.4586033555
 11
-21.5
 21
16.4586033555
  0
LINE
  5
541
100
AcDbEntity
  8
RACCORDO
100
AcDbLine
 62
250
  6
CONTINUOUS
 10
21.5
 20
17.1171534187
 11
20.9952898151
 21
17.1171534187
  0
LINE
  5
542
100
AcDbEntity
  8
0
100
AcDbLine
 62
250
  6
CONTINUOUS
 10
20.9952898151
 20
17.1171534187
 11
-20.9952898151
 21
17.1171534187
  0
LINE
  5
543
100
AcDbEntity
  8
RACCORDO
100
AcDbLine
 62
250
  6
CONTINUOUS
 10
-20.9952898151
 20
17.1171534187
 11
-21.5
 21
17.1171534187
  0
LINE
  5
544
100
AcDbEntity
  8
RACCORDO
100
AcDbLine
 62
250
  6
CONTINUOUS
 10
21.5
 20
17.2881634904
 11
20.9947634805
 21
17.2881634904
  0
LINE
  5
545
100
AcDbEntity
  8
0
100
AcDbLine
 62
250
  6
CONTINUOUS
 10
20.9947634805
 20
17.2881634904
 11
-20.9947634805
 21
17.2881634904
  0
LINE
  5
546
100
AcDbEntity
  8
RACCORDO
100
AcDbLine
 62
250
  6
CONTINUOUS
 10
-20.9947634805
 20
17.2881634904
 11
-21.5
 21
17.2881634904
  0
LINE
  5
547
100
AcDbEntity
  8
RACCORDO
100
AcDbLine
 62
250
  6
CONTINUOUS
 10
19.61067643
 20
13.4108335738
 11
19.4968562183
 21
13.4446631358
  0
LINE
  5
548
100
AcDbEntity
  8
RACCORDO
100
AcDbLine
 62
250
  6
CONTINUOUS
 10
19.758397593
 20
13.560628004
 11
19.6509945665
 21
13.5925502548
  0
LWPOLYLINE
  5
549
100
AcDbEntity
  8
DRAFT
100
AcDbPolyline
 62
7
  6
CONTINUOUS
 90
3
 70
0
 10
20.7940522821
 20
11.6893616969
 10
20.7776537892
 20
11.695562367
 10
20.7450979979
 20
11.7076485572
  0
LINE
  5
54A
100
AcDbEntity
  8
DRAFT
100
AcDbLine
 62
7
  6
CONTINUOUS
 10
20.8270299161
 20
11.6766416235
 11
20.7940522821
 21
11.6893616969
  0
LINE
  5
54B
100
AcDbEntity
  8
DRAFT
100
AcDbLine
 62
7
  6
CONTINUOUS
 10
20.8949489743
 20
11.65
 11
20.8270299161
 21
11.6766416235
  0
LWPOLYLINE
  5
54C
100
AcDbEntity
  8
RACCORDO
100
AcDbPolyline
 62
250
  6
CONTINUOUS
 90
16
 70
0
 10
20.032256019
 20
-14.6946625873
 10
20.0344457859
 20
-14.7289459961
 10
20.0401051147
 20
-14.7618574215
 10
20.0492340054
 20
-14.7933968637
 10
20.0623600215
 20
-14.8240803397
 10
20.0789555995
 20
-14.8533918324
 10
20.0974380488
 20
-14.8797832901
 10
20.1174772163
 20
-14.9026011577
 10
20.139403255
 20
-14.9224989904
 10
20.1626239332
 20
-14.9398894015
 10
20.1867135232
 20
-14.9549120236
 10
20.2120977527
 20
-14.9674272242
 10
20.239461573
 20
-14.9774287191
 10
20.2690333013
 20
-14.9849144135
 10
20.3005846203
 20
-14.9898864021
 10
20.3341155302
 20
-14.992344685
  0
LWPOLYLINE
  5
54D
100
AcDbEntity
  8
RACCORDO
100
AcDbPolyline
 62
250
  6
CONTINUOUS
 90
16
 70
0
 10
19.3491350553
 20
13.0553374127
 10
19.3513248222
 20
13.0210540039
 10
19.356984151
 20
12.9881425785
 10
19.3661130417
 20
12.9566031363
 10
19.3792390579
 20
12.9259196603
 10
19.3958346359
 20
12.8966081676
 10
19.4143170851
 20
12.8702167099
 10
19.4343562526
 20
12.8473988423
 10
19.4562822914
 20
12.8275010096
 10
19.4795029696
 20
12.8101105985
 10
19.5035925596
 20
12.7950879764
 10
19.5289767891
 20
12.7825727758
 10
19.5563406094
 20
12.7725712809
 10
19.5859123376
 20
12.7650855865
 10
19.6174636567
 20
12.7601135979
 10
19.6509945665
 20
12.757655315
  0
LWPOLYLINE
  5
54E
100
AcDbEntity
  8
RACCORDO
100
AcDbPolyline
 62
250
  6
CONTINUOUS
 90
16
 70
0
 10
20.032256019
 20
11.8053374127
 10
20.0344457859
 20
11.7710540039
 10
20.0401051147
 20
11.7381425785
 10
20.0492340054
 20
11.7066031363
 10
20.0623600215
 20
11.6759196603
 10
20.0789555995
 20
11.6466081676
 10
20.0974380488
 20
11.6202167099
 10
20.1174772163
 20
11.5973988423
 10
20.139403255
 20
11.5775010096
 10
20.1626239332
 20
11.5601105985
 10
20.1867135232
 20
11.5450879764
 10
20.2120977527
 20
11.5325727758
 10
20.239461573
 20
11.5225712809
 10
20.2690333013
 20
11.5150855865
 10
20.3005846203
 20
11.5101135979
 10
20.3341155302
 20
11.507655315
  0
LWPOLYLINE
  5
54F
100
AcDbEntity
  8
RACCORDO
100
AcDbPolyline
 62
7
  6
CONTINUOUS
 90
10
 70
0
 10
20.75
 20
-2.2500380762
 10
20.7514928615
 20
-2.2766302445
 10
20.7555710128
 20
-2.3023809738
 10
20.7622344538
 20
-2.3272902641
 10
20.7716119163
 20
-2.3516104249
 10
20.7835746687
 20
-2.3750891468
 10
20.7977365155
 20
-2.3969695013
 10
20.8141689654
 20
-2.4171994208
 10
20.8328005098
 20
-2.435830973
 10
20.8530304277
 20
-2.4522634329
  0
LWPOLYLINE
  5
550
100
AcDbEntity
  8
RACCORDO
100
AcDbPolyline
 62
250
  6
CONTINUOUS
 90
16
 70
0
 10
19.4968565596
 20
-13.4446630344
 10
19.4976969111
 20
-13.4615225497
 10
19.5004845812
 20
-13.4780639574
 10
19.5051592926
 20
-13.4940852513
 10
19.5117263179
 20
-13.5095477361
 10
19.5200318966
 20
-13.5241011321
 10
19.5295999747
 20
-13.5371778783
 10
19.539955622
 20
-13.5485170183
 10
19.5510293621
 20
-13.5583759421
 10
19.562904449
 20
-13.5670187427
 10
19.5753270092
 20
-13.5743557775
 10
19.58826612
 20
-13.5804388603
 10
19.6023116854
 20
-13.5854967683
 10
19.6176418098
 20
-13.5893863091
 10
19.6339175166
 20
-13.591804133
 10
19.6509951147
 20
-13.5925500919
  0
LWPOLYLINE
  5
551
100
AcDbEntity
  8
RACCORDO
100
AcDbPolyline
 62
250
  6
CONTINUOUS
 90
16
 70
0
 10
20.1799775233
 20
-14.6946630344
 10
20.1808178748
 20
-14.7115225497
 10
20.1836055449
 20
-14.7280639574
 10
20.1882802562
 20
-14.7440852513
 10
20.1948472815
 20
-14.7595477361
 10
20.2031528602
 20
-14.7741011321
 10
20.2127209383
 20
-14.7871778783
 10
20.2230765856
 20
-14.7985170183
 10
20.2341503257
 20
-14.8083759421
 10
20.2460254126
 20
-14.8170187427
 10
20.2584479729
 20
-14.8243557775
 10
20.2713870837
 20
-14.8304388603
 10
20.2854326491
 20
-14.8354967683
 10
20.3007627735
 20
-14.8393863091
 10
20.3170384802
 20
-14.841804133
 10
20.3341160784
 20
-14.8425500919
  0
LWPOLYLINE
  5
552
100
AcDbEntity
  8
RACCORDO
100
AcDbPolyline
 62
250
  6
CONTINUOUS
 90
16
 70
0
 10
19.4968565596
 20
13.0553369656
 10
19.4976969111
 20
13.0384774503
 10
19.5004845812
 20
13.0219360426
 10
19.5051592926
 20
13.0059147487
 10
19.5117263179
 20
12.9904522639
 10
19.5200318966
 20
12.9758988679
 10
19.5295999747
 20
12.9628221217
 10
19.539955622
 20
12.9514829817
 10
19.5510293621
 20
12.9416240579
 10
19.562904449
 20
12.9329812573
 10
19.5753270092
 20
12.9256442225
 10
19.58826612
 20
12.9195611397
 10
19.6023116854
 20
12.9145032317
 10
19.6176418098
 20
12.9106136909
 10
19.6339175166
 20
12.908195867
 10
19.6509951147
 20
12.9074499081
  0
LWPOLYLINE
  5
553
100
AcDbEntity
  8
RACCORDO
100
AcDbPolyline
 62
250
  6
CONTINUOUS
 90
16
 70
0
 10
20.1799775233
 20
11.8053369656
 10
20.1808178748
 20
11.7884774503
 10
20.1836055449
 20
11.7719360426
 10
20.1882802562
 20
11.7559147487
 10
20.1948472815
 20
11.7404522639
 10
20.2031528602
 20
11.7258988679
 10
20.2127209383
 20
11.7128221217
 10
20.2230765856
 20
11.7014829817
 10
20.2341503257
 20
11.6916240579
 10
20.2460254126
 20
11.6829812573
 10
20.2584479729
 20
11.6756442225
 10
20.2713870837
 20
11.6695611397
 10
20.2854326491
 20
11.6645032317
 10
20.3007627735
 20
11.6606136909
 10
20.3170384802
 20
11.658195867
 10
20.3341160784
 20
11.6574499081
  0
LINE
  5
554
100
AcDbEntity
  8
RACCORDO
100
AcDbLine
 62
250
  6
CONTINUOUS
 10
19.3491350553
 20
13.4446631358
 11
19.3491350553
 21
13.0553374127
  0
LINE
  5
555
100
AcDbEntity
  8
RACCORDO
100
AcDbLine
 62
250
  6
CONTINUOUS
 10
19.3491350553
 20
-13.0553368642
 11
19.3491350553
 21
-13.4446625873
  0
LINE
  5
556
100
AcDbEntity
  8
RACCORDO
100
AcDbLine
 62
250
  6
CONTINUOUS
 10
19.4968562183
 20
13.4446631358
 11
19.4968562183
 21
13.0553368642
  0
LINE
  5
557
100
AcDbEntity
  8
RACCORDO
100
AcDbLine
 62
250
  6
CONTINUOUS
 10
19.4968562183
 20
-13.0553368642
 11
19.4968562183
 21
-13.4446631358
  0
LINE
  5
558
100
AcDbEntity
  8
RACCORDO
100
AcDbLine
 62
250
  6
CONTINUOUS
 10
19.61067643
 20
13.4108335738
 11
19.61067643
 21
13.0891664262
  0
LINE
  5
559
100
AcDbEntity
  8
RACCORDO
100
AcDbLine
 62
250
  6
CONTINUOUS
 10
19.61067643
 20
-13.0891664262
 11
19.61067643
 21
-13.4108335738
  0
LINE
  5
55A
100
AcDbEntity
  8
RACCORDO
100
AcDbLine
 62
250
  6
CONTINUOUS
 10
19.6509945665
 20
13.742344685
 11
19.6509945665
 21
13.5925502548
  0
LINE
  5
55B
100
AcDbEntity
  8
RACCORDO
100
AcDbLine
 62
250
  6
CONTINUOUS
 10
19.6509945665
 20
-12.757655315
 11
19.6509945665
 21
-12.9074497452
  0
LINE
  5
55C
100
AcDbEntity
  8
RACCORDO
100
AcDbLine
 62
250
  6
CONTINUOUS
 10
19.6509945665
 20
-13.742344685
 11
19.6509945666
 21
-13.5925502548
  0
LINE
  5
55D
100
AcDbEntity
  8
RACCORDO
100
AcDbLine
 62
250
  6
CONTINUOUS
 10
19.6509945665
 20
12.757655315
 11
19.6509945666
 21
12.9074497452
  0
LINE
  5
55E
100
AcDbEntity
  8
RACCORDO
100
AcDbLine
 62
250
  6
CONTINUOUS
 10
20.0045995313
 20
-13.549801188
 11
20.0045995313
 21
-12.950198812
  0
LINE
  5
55F
100
AcDbEntity
  8
RACCORDO
100
AcDbLine
 62
250
  6
CONTINUOUS
 10
20.0045995313
 20
12.950198812
 11
20.0045995313
 21
13.549801188
  0
LINE
  5
560
100
AcDbEntity
  8
RACCORDO
100
AcDbLine
 62
250
  6
CONTINUOUS
 10
20.032256019
 20
14.6946628604
 11
20.032256019
 21
13.742344685
  0
LINE
  5
561
100
AcDbEntity
  8
RACCORDO
100
AcDbLine
 62
250
  6
CONTINUOUS
 10
20.032256019
 20
12.757655315
 11
20.032256019
 21
11.8053374127
  0
LINE
  5
562
100
AcDbEntity
  8
RACCORDO
100
AcDbLine
 62
250
  6
CONTINUOUS
 10
20.032256019
 20
-11.8053371396
 11
20.032256019
 21
-12.757655315
  0
LINE
  5
563
100
AcDbEntity
  8
RACCORDO
100
AcDbLine
 62
250
  6
CONTINUOUS
 10
20.032256019
 20
-13.742344685
 11
20.032256019
 21
-14.6946625873
  0
LINE
  5
564
100
AcDbEntity
  8
RACCORDO
100
AcDbLine
 62
250
  6
CONTINUOUS
 10
20.1799771819
 20
14.6946631358
 11
20.1799771819
 21
13.5946235221
  0
LINE
  5
565
100
AcDbEntity
  8
RACCORDO
100
AcDbLine
 62
250
  6
CONTINUOUS
 10
20.1799771819
 20
12.9053764779
 11
20.1799771819
 21
11.8053368642
  0
LINE
  5
566
100
AcDbEntity
  8
RACCORDO
100
AcDbLine
 62
250
  6
CONTINUOUS
 10
20.1799771819
 20
-11.8053368642
 11
20.1799771819
 21
-12.9053764779
  0
LINE
  5
567
100
AcDbEntity
  8
RACCORDO
100
AcDbLine
 62
250
  6
CONTINUOUS
 10
20.1799771819
 20
-13.5946235221
 11
20.1799771819
 21
-14.6946631358
  0
LINE
  5
568
100
AcDbEntity
  8
RACCORDO
100
AcDbLine
 62
250
  6
CONTINUOUS
 10
20.3341155302
 20
14.992344685
 11
20.3341155302
 21
14.8425502548
  0
LINE
  5
569
100
AcDbEntity
  8
RACCORDO
100
AcDbLine
 62
250
  6
CONTINUOUS
 10
20.3341155302
 20
-11.507655315
 11
20.3341155302
 21
-11.6574497452
  0
LINE
  5
56A
100
AcDbEntity
  8
RACCORDO
100
AcDbLine
 62
250
  6
CONTINUOUS
 10
20.3341155302
 20
-14.992344685
 11
20.3341155303
 21
-14.8425502548
  0
LINE
  5
56B
100
AcDbEntity
  8
RACCORDO
100
AcDbLine
 62
250
  6
CONTINUOUS
 10
20.3341155302
 20
11.507655315
 11
20.3341155303
 21
11.6574497452
  0
LINE
  5
56C
100
AcDbEntity
  8
RACCORDO
100
AcDbLine
 62
7
  6
CONTINUOUS
 10
20.3520806424
 20
-13.0999932422
 11
20.3520806424
 21
-13.4000067578
  0
LINE
  5
56D
100
AcDbEntity
  8
RACCORDO
100
AcDbLine
 62
7
  6
CONTINUOUS
 10
20.3520806424
 20
13.0999932422
 11
20.3520806424
 21
13.4000067578
  0
LINE
  5
56E
100
AcDbEntity
  8
RACCORDO
100
AcDbLine
 62
250
  6
CONTINUOUS
 10
20.7181437817
 20
14.2974685017
 11
20.7181437817
 21
12.2025314983
  0
LINE
  5
56F
100
AcDbEntity
  8
RACCORDO
100
AcDbLine
 62
250
  6
CONTINUOUS
 10
20.7181437817
 20
-12.2025314983
 11
20.7181437817
 21
-14.2974685017
  0
LINE
  5
570
100
AcDbEntity
  8
RACCORDO
100
AcDbLine
 62
7
  6
CONTINUOUS
 10
20.75
 20
2.2500380762
 11
20.75
 21
-2.2500380762
  0
LINE
  5
571
100
AcDbEntity
  8
0
100
AcDbLine
 62
7
  6
CONTINUOUS
 10
20.75
 20
-2.2500380762
 11
20.75
 21
2.2500380762
  0
LINE
  5
572
100
AcDbEntity
  8
RACCORDO
100
AcDbLine
 62
250
  6
CONTINUOUS
 10
20.8658649447
 20
14.2974685017
 11
20.8658649447
 21
12.2025314983
  0
LINE
  5
573
100
AcDbEntity
  8
RACCORDO
100
AcDbLine
 62
250
  6
CONTINUOUS
 10
20.8658649447
 20
-12.2025314983
 11
20.8658649447
 21
-14.2974685017
  0
LINE
  5
574
100
AcDbEntity
  8
0
100
AcDbLine
 62
7
  6
CONTINUOUS
 10
20.9947634805
 20
24.7448015567
 11
20.9947634805
 21
17.2881634904
  0
LINE
  5
575
100
AcDbEntity
  8
RACCORDO
100
AcDbLine
 62
7
  6
CONTINUOUS
 10
20.9947634805
 20
-17.2881634904
 11
20.9947634805
 21
-24.7448015567
  0
LINE
  5
576
100
AcDbEntity
  8
0
100
AcDbLine
 62
7
  6
CONTINUOUS
 10
20.9947634805
 20
-24.7448015567
 11
20.9947634805
 21
-17.2881634904
  0
LINE
  5
577
100
AcDbEntity
  8
RACCORDO
100
AcDbLine
 62
7
  6
CONTINUOUS
 10
20.9947634805
 20
17.2881634904
 11
20.9947634805
 21
24.7448015567
  0
LINE
  5
578
100
AcDbEntity
  8
0
100
AcDbLine
 62
7
  6
CONTINUOUS
 10
21.0
 20
16.2875932838
 11
21.0
 21
14.8669049234
  0
LINE
  5
579
100
AcDbEntity
  8
0
100
AcDbLine
 62
7
  6
CONTINUOUS
 10
21.0
 20
11.6330950766
 11
21.0
 21
2.4999999971
  0
LINE
  5
57A
100
AcDbEntity
  8
0
100
AcDbLine
 62
7
  6
CONTINUOUS
 10
21.0
 20
-2.4999999971
 11
21.0
 21
-11.6330950766
  0
LINE
  5
57B
100
AcDbEntity
  8
0
100
AcDbLine
 62
7
  6
CONTINUOUS
 10
21.0
 20
-14.8669049234
 11
21.0
 21
-16.2875932838
  0
LINE
  5
57C
100
AcDbEntity
  8
RACCORDO
100
AcDbLine
 62
7
  6
CONTINUOUS
 10
21.0
 20
-16.2875932838
 11
21.0
 21
-14.8669049234
  0
LINE
  5
57D
100
AcDbEntity
  8
RACCORDO
100
AcDbLine
 62
7
  6
CONTINUOUS
 10
21.0
 20
-11.6330950766
 11
21.0
 21
-2.5000060301
  0
LINE
  5
57E
100
AcDbEntity
  8
RACCORDO
100
AcDbLine
 62
7
  6
CONTINUOUS
 10
21.0
 20
2.5000060301
 11
21.0
 21
11.6330950766
  0
LINE
  5
57F
100
AcDbEntity
  8
RACCORDO
100
AcDbLine
 62
7
  6
CONTINUOUS
 10
21.0
 20
14.8669049234
 11
21.0
 21
16.2875932838
  0
LWPOLYLINE
  5
580
100
AcDbEntity
  8
RACCORDO
100
AcDbPolyline
 62
250
  6
CONTINUOUS
 90
19
 70
0
 10
20.865864938
 20
12.2025314983
 10
20.8655687722
 20
12.1614420685
 10
20.8649025665
 20
12.1216367142
 10
20.8638663207
 20
12.0834794396
 10
20.8624069897
 20
12.0471232298
 10
20.8605776187
 20
12.0129860218
 10
20.8585373435
 20
11.9816848179
 10
20.8562948508
 20
11.9534281842
 10
20.8538414539
 20
11.928065071
 10
20.8513102282
 20
11.9055267643
 10
20.8487514265
 20
11.885952382
 10
20.846114796
 20
11.8689574772
 10
20.8433826536
 20
11.8538424038
 10
20.8405808986
 20
11.8406772583
 10
20.8376836318
 20
11.8294524858
 10
20.8345954725
 20
11.8197952763
 10
20.8312846274
 20
11.8118987541
 10
20.8277828898
 20
11.8062252985
 10
20.8240902598
 20
11.8030796844
  0
LWPOLYLINE
  5
581
100
AcDbEntity
  8
RACCORDO
100
AcDbPolyline
 62
250
  6
CONTINUOUS
 90
19
 70
0
 10
20.865864938
 20
-14.2974685017
 10
20.8655687722
 20
-14.3385579315
 10
20.8649025665
 20
-14.3783632858
 10
20.8638663207
 20
-14.4165205604
 10
20.8624069897
 20
-14.4528767702
 10
20.8605776187
 20
-14.4870139782
 10
20.8585373435
 20
-14.5183151821
 10
20.8562948508
 20
-14.5465718158
 10
20.8538414539
 20
-14.571934929
 10
20.8513102282
 20
-14.5944732357
 10
20.8487514265
 20
-14.614047618
 10
20.846114796
 20
-14.6310425228
 10
20.8433826536
 20
-14.6461575962
 10
20.8405808986
 20
-14.6593227417
 10
20.8376836318
 20
-14.6705475142
 10
20.8345954725
 20
-14.6802047237
 10
20.8312846274
 20
-14.6881012459
 10
20.8277828898
 20
-14.6937747015
 10
20.8240902598
 20
-14.6969203156
  0
LWPOLYLINE
  5
582
100
AcDbEntity
  8
RACCORDO
100
AcDbPolyline
 62
250
  6
CONTINUOUS
 90
19
 70
0
 10
20.7181437817
 20
12.2025314983
 10
20.7178481367
 20
12.1765305425
 10
20.7171822266
 20
12.1517280245
 10
20.7161460513
 20
12.1281239443
 10
20.7146864256
 20
12.1055243439
 10
20.7128565347
 20
12.0841231812
 10
20.710815935
 20
12.0645023308
 10
20.7085735342
 20
12.0468826667
 10
20.7061204245
 20
12.0310433148
 10
20.7035894393
 20
12.0169035268
 10
20.7010308192
 20
12.0045946367
 10
20.6983943235
 20
11.9939853104
 10
20.6956620626
 20
11.9846007975
 10
20.6928596494
 20
11.9762899287
 10
20.6899614711
 20
11.9692038733
 10
20.6868727995
 20
11.9633213884
 10
20.6835620585
 20
11.9586353932
 10
20.6800608243
 20
11.9551529686
 10
20.6763690968
 20
11.9528741146
  0
LWPOLYLINE
  5
583
100
AcDbEntity
  8
RACCORDO
100
AcDbPolyline
 62
250
  6
CONTINUOUS
 90
19
 70
0
 10
20.7181437817
 20
-14.2974685017
 10
20.7178481367
 20
-14.3234694575
 10
20.7171822266
 20
-14.3482719755
 10
20.7161460513
 20
-14.3718760557
 10
20.7146864256
 20
-14.3944756561
 10
20.7128565347
 20
-14.4158768188
 10
20.710815935
 20
-14.4354976692
 10
20.7085735342
 20
-14.4531173333
 10
20.7061204245
 20
-14.4689566852
 10
20.7035894393
 20
-14.4830964732
 10
20.7010308192
 20
-14.4954053633
 10
20.6983943235
 20
-14.5060146896
 10
20.6956620626
 20
-14.5153992025
 10
20.6928596494
 20
-14.5237100713
 10
20.6899614711
 20
-14.5307961267
 10
20.6868727995
 20
-14.5366786116
 10
20.6835620585
 20
-14.5413646068
 10
20.6800608243
 20
-14.5448470314
 10
20.6763690968
 20
-14.5471258854
  0
LWPOLYLINE
  5
584
100
AcDbEntity
  8
RACCORDO
100
AcDbPolyline
 62
250
  6
CONTINUOUS
 90
13
 70
0
 10
19.61067643
 20
-13.0891664262
 10
19.6120998746
 20
-13.069726008
 10
19.6159976728
 20
-13.0506143884
 10
19.6223039005
 20
-13.0321548047
 10
19.6309118996
 20
-13.0146594666
 10
19.6416760818
 20
-12.9984242751
 10
19.6544143911
 20
-12.9837238181
 10
19.6689113826
 20
-12.9708067267
 10
19.6849218668
 20
-12.9598914693
 10
19.7021750561
 20
-12.9511626571
 10
19.720379145
 20
-12.9447679218
 10
19.7392262452
 20
-12.9408154184
 10
19.758397593
 20
-12.939371996
  0
LINE
  5
585
100
AcDbEntity
  8
RACCORDO
100
AcDbLine
 62
250
  6
CONTINUOUS
 10
21.4312546154
 20
-1.4247577736
 11
21.3545887783
 21
-1.6827014558
  0
LWPOLYLINE
  5
586
100
AcDbEntity
  8
RACCORDO
100
AcDbPolyline
 62
250
  6
CONTINUOUS
 90
16
 70
0
 10
21.6541776388
 20
-1.9781437817
 10
21.6519843485
 20
-1.9812373254
 10
21.649888108
 20
-1.9855916746
 10
21.6478889175
 20
-1.9911582704
 10
21.6459747435
 20
-1.9978701676
 10
21.6441576194
 20
-2.0056655264
 10
21.6424736451
 20
-2.0145007964
 10
21.6409216907
 20
-2.0243149104
 10
21.639502886
 20
-2.0350143315
 10
21.6382567203
 20
-2.0465042983
 10
21.6371887546
 20
-2.0586933518
 10
21.6362934279
 20
-2.0714698915
 10
21.6355935456
 20
-2.0846956482
 10
21.6350967094
 20
-2.0982445289
 10
21.6347953175
 20
-2.1120073104
 10
21.63468937
 20
-2.1258649447
  0
LINE
  5
587
100
AcDbEntity
  8
RACCORDO
100
AcDbLine
 62
7
  6
CONTINUOUS
 10
20.5262891979
 20
-14.8029443711
 11
20.5549020021
 21
-14.7923514428
  0
LINE
  5
588
100
AcDbEntity
  8
RACCORDO
100
AcDbLine
 62
7
  6
CONTINUOUS
 10
20.1831857746
 20
-13.5925502548
 11
20.3270158315
 21
-13.549801188
  0
LINE
  5
589
100
AcDbEntity
  8
RACCORDO
100
AcDbLine
 62
250
  6
CONTINUOUS
 10
20.6763690968
 20
-14.5471258854
 11
20.1799771819
 21
-14.6946631358
  0
LINE
  5
58A
100
AcDbEntity
  8
RACCORDO
100
AcDbLine
 62
250
  6
CONTINUOUS
 10
20.8240902598
 20
-14.6969203156
 11
20.3341155302
 21
-14.8425502548
  0
LINE
  5
58B
100
AcDbEntity
  8
RACCORDO
100
AcDbLine
 62
7
  6
CONTINUOUS
 10
20.1831857746
 20
13.5925502548
 11
20.3270158315
 21
13.549801188
  0
LINE
  5
58C
100
AcDbEntity
  8
RACCORDO
100
AcDbLine
 62
250
  6
CONTINUOUS
 10
20.1799771819
 20
14.6946631358
 11
20.6763690968
 21
14.5471258854
  0
LINE
  5
58D
100
AcDbEntity
  8
RACCORDO
100
AcDbLine
 62
250
  6
CONTINUOUS
 10
20.3341155302
 20
14.8425502548
 11
20.8240902598
 21
14.6969203156
  0
LINE
  5
58E
100
AcDbEntity
  8
RACCORDO
100
AcDbLine
 62
250
  6
CONTINUOUS
 10
21.3545887783
 20
1.6827014558
 11
21.4312546154
 21
1.4247577736
  0
LWPOLYLINE
  5
58F
100
AcDbEntity
  8
RACCORDO
100
AcDbPolyline
 62
250
  6
CONTINUOUS
 90
6
 70
0
 10
21.7308434758
 20
1.7202000995
 10
21.7317997432
 20
1.7100591377
 10
21.7327052393
 20
1.6960736958
 10
21.733559964
 20
1.6785730792
 10
21.7343692104
 20
1.6578037346
 10
21.7351276856
 20
1.6341841236
  0
LINE
  5
590
100
AcDbEntity
  8
RACCORDO
100
AcDbLine
 62
250
  6
CONTINUOUS
 10
21.7351276856
 20
1.6341841236
 11
21.7364384784
 21
1.5811058936
  0
LWPOLYLINE
  5
591
100
AcDbEntity
  8
RACCORDO
100
AcDbPolyline
 62
250
  6
CONTINUOUS
 90
3
 70
0
 10
21.4386646493
 20
1.322674332
 10
21.4392454454
 20
1.2983800477
 10
21.4394709186
 20
1.2858116009
  0
LINE
  5
592
100
AcDbEntity
  8
RACCORDO
100
AcDbLine
 62
250
  6
CONTINUOUS
 10
21.7364384784
 20
1.5811058936
 11
21.7374791994
 21
1.5232659226
  0
LINE
  5
593
100
AcDbEntity
  8
RACCORDO
100
AcDbLine
 62
250
  6
CONTINUOUS
 10
21.7374791994
 20
1.5232659226
 11
21.7385636585
 21
1.4349038064
  0
LINE
  5
594
100
AcDbEntity
  8
RACCORDO
100
AcDbLine
 62
250
  6
CONTINUOUS
 10
21.4394709186
 20
1.2858116009
 11
21.4397848327
 21
1.2583381416
  0
LWPOLYLINE
  5
595
100
AcDbEntity
  8
RACCORDO
100
AcDbPolyline
 62
250
  6
CONTINUOUS
 90
19
 70
0
 10
21.63468937
 20
2.1258649447
 10
21.6348076895
 20
2.1121726956
 10
21.6350921789
 20
2.0988020752
 10
21.6355428382
 20
2.0858536443
 10
21.6361816812
 20
2.0733425601
 10
21.6369866941
 20
2.0614256426
 10
21.6378918359
 20
2.0503749749
 10
21.6388928357
 20
2.0402887662
 10
21.6399939643
 20
2.0310930681
 10
21.641141993
 20
2.0227573257
 10
21.6423152293
 20
2.0153483713
 10
21.6435353657
 20
2.0087465556
 10
21.6448142513
 20
2.0026920997
 10
21.6461398121
 20
1.9972141981
 10
21.6475241222
 20
1.9923281243
 10
21.6490152527
 20
1.9878852874
 10
21.6506292276
 20
1.9839380323
 10
21.6523500229
 20
1.9806551146
 10
21.6541776388
 20
1.9781437817
  0
LINE
  5
596
100
AcDbEntity
  8
RACCORDO
100
AcDbLine
 62
7
  6
CONTINUOUS
 10
20.9952898151
 20
17.1171534187
 11
20.9994736654
 21
16.4586033555
  0
LINE
  5
597
100
AcDbEntity
  8
0
100
AcDbLine
 62
7
  6
CONTINUOUS
 10
20.9952898151
 20
17.1171534187
 11
20.9994736654
 21
16.4586033555
  0
LINE
  5
598
100
AcDbEntity
  8
RACCORDO
100
AcDbLine
 62
250
  6
CONTINUOUS
 10
21.7385636585
 20
1.4349038064
 11
21.7392393183
 21
1.3395838153
  0
LINE
  5
599
100
AcDbEntity
  8
RACCORDO
100
AcDbLine
 62
250
  6
CONTINUOUS
 10
21.4397848327
 20
1.2583381416
 11
21.4399160682
 21
1.227796223
  0
LINE
  5
59A
100
AcDbEntity
  8
DRAFT
100
AcDbLine
 62
7
  6
CONTINUOUS
 10
21.1996573543
 20
14.8669049234
 11
21.1996573543
 21
14.85
  0
LINE
  5
59B
100
AcDbEntity
  8
DRAFT
100
AcDbLine
 62
7
  6
CONTINUOUS
 10
21.1996573543
 20
11.65
 11
21.1996573543
 21
11.6330950766
  0
LINE
  5
59C
100
AcDbEntity
  8
DRAFT
100
AcDbLine
 62
7
  6
CONTINUOUS
 10
21.1996573543
 20
-11.6330950766
 11
21.1996573543
 21
-11.65
  0
LINE
  5
59D
100
AcDbEntity
  8
DRAFT
100
AcDbLine
 62
7
  6
CONTINUOUS
 10
21.1996573543
 20
-14.85
 11
21.1996573543
 21
-14.8669049234
  0
LINE
  5
59E
100
AcDbEntity
  8
RACCORDO
100
AcDbLine
 62
7
  6
CONTINUOUS
 10
21.3500000267
 20
-1.7074830691
 11
21.3500000083
 21
1.707483188
  0
LINE
  5
59F
100
AcDbEntity
  8
RACCORDO
100
AcDbLine
 62
7
  6
CONTINUOUS
 10
21.4386751346
 20
14.2974685017
 11
21.4386751346
 21
12.2025314983
  0
LINE
  5
5A0
100
AcDbEntity
  8
RACCORDO
100
AcDbLine
 62
7
  6
CONTINUOUS
 10
21.4386751346
 20
-14.2974685017
 11
21.4386751346
 21
-12.2025314983
  0
LINE
  5
5A1
100
AcDbEntity
  8
RACCORDO
100
AcDbLine
 62
7
  6
CONTINUOUS
 10
21.5
 20
25.0
 11
21.5
 21
16.2875932838
  0
LINE
  5
5A2
100
AcDbEntity
  8
RACCORDO
100
AcDbLine
 62
7
  6
CONTINUOUS
 10
21.5
 20
-16.2875932838
 11
21.5
 21
-25.0
  0
LINE
  5
5A3
100
AcDbEntity
  8
RACCORDO
100
AcDbLine
 62
250
  6
CONTINUOUS
 10
21.7392393183
 20
1.3395838153
 11
21.7395049286
 21
-1.227796223
  0
LINE
  5
5A4
100
AcDbEntity
  8
DRAFT
100
AcDbLine
 62
7
  6
CONTINUOUS
 10
21.85
 20
-14.7221944518
 11
21.85
 21
-11.7778055482
  0
LINE
  5
5A5
100
AcDbEntity
  8
DRAFT
100
AcDbLine
 62
7
  6
CONTINUOUS
 10
21.85
 20
11.7778055482
 11
21.85
 21
14.7221944518
  0
LINE
  5
5A6
100
AcDbEntity
  8
RACCORDO
100
AcDbLine
 62
7
  6
CONTINUOUS
 10
21.9
 20
15.55
 11
21.9
 21
10.95
  0
LINE
  5
5A7
100
AcDbEntity
  8
RACCORDO
100
AcDbLine
 62
7
  6
CONTINUOUS
 10
21.9
 20
-10.95
 11
21.9
 21
-15.55
  0
LINE
  5
5A8
100
AcDbEntity
  8
RACCORDO
100
AcDbLine
 62
7
  6
CONTINUOUS
 10
22.2683301451
 20
25.7860084248
 11
22.2683301451
 21
15.75
  0
LINE
  5
5A9
100
AcDbEntity
  8
RACCORDO
100
AcDbLine
 62
7
  6
CONTINUOUS
 10
22.2683301451
 20
10.75
 11
22.2683301451
 21
2.1258649447
  0
LINE
  5
5AA
100
AcDbEntity
  8
RACCORDO
100
AcDbLine
 62
7
  6
CONTINUOUS
 10
22.2683301451
 20
-2.1258649447
 11
22.2683301451
 21
-10.75
  0
LINE
  5
5AB
100
AcDbEntity
  8
RACCORDO
100
AcDbLine
 62
7
  6
CONTINUOUS
 10
22.2683301451
 20
-15.75
 11
22.2683301451
 21
-25.7860084248
  0
LINE
  5
5AC
100
AcDbEntity
  8
0
100
AcDbLine
 62
7
  6
CONTINUOUS
 10
22.2845351961
 20
25.8347065336
 11
22.2845351961
 21
1.8908807657
  0
LINE
  5
5AD
100
AcDbEntity
  8
0
100
AcDbLine
 62
7
  6
CONTINUOUS
 10
22.2845351961
 20
-1.8908807657
 11
22.2845351961
 21
-25.8347065336
  0
LINE
  5
5AE
100
AcDbEntity
  8
RACCORDO
100
AcDbLine
 62
7
  6
CONTINUOUS
 10
22.3207019882
 20
-1.227796223
 11
22.3207019882
 21
1.227796223
  0
LWPOLYLINE
  5
5AF
100
AcDbEntity
  8
RACCORDO
100
AcDbPolyline
 62
250
  6
CONTINUOUS
 90
19
 70
0
 10
21.4399160682
 20
1.227796223
 10
21.4398655425
 20
-1.2460077121
 10
21.4397417479
 20
-1.2635966997
 10
21.4395446844
 20
-1.2805631859
 10
21.439265773
 20
-1.2970619734
 10
21.4389135927
 20
-1.3129382595
 10
21.4385138803
 20
-1.3277276356
 10
21.4380660452
 20
-1.3413006316
 10
21.4375706779
 20
-1.3537867176
 10
21.4370552873
 20
-1.3651098965
 10
21.4365309078
 20
-1.3751232749
 10
21.4359865049
 20
-1.3839737462
 10
21.4354164839
 20
-1.3920259923
 10
21.4348261124
 20
-1.3993848455
 10
21.4342101228
 20
-1.4059454736
 10
21.433547118
 20
-1.4117580619
 10
21.4328299657
 20
-1.4168393389
 10
21.4320657981
 20
-1.4211725761
 10
21.4312546154
 20
-1.4247577736
  0
LINE
  5
5B0
100
AcDbEntity
  8
RACCORDO
100
AcDbLine
 62
250
  6
CONTINUOUS
 10
21.7395049286
 20
-1.227796223
 11
21.7391331283
 21
-1.359713628
  0
LINE
  5
5B1
100
AcDbEntity
  8
RACCORDO
100
AcDbLine
 62
7
  6
CONTINUOUS
 10
20.9994736654
 20
-16.4586033555
 11
20.9952898151
 21
-17.1171534187
  0
LINE
  5
5B2
100
AcDbEntity
  8
0
100
AcDbLine
 62
7
  6
CONTINUOUS
 10
20.9994736654
 20
-16.4586033555
 11
20.9952898151
 21
-17.1171534187
  0
LINE
  5
5B3
100
AcDbEntity
  8
RACCORDO
100
AcDbLine
 62
250
  6
CONTINUOUS
 10
21.7391331283
 20
-1.359713628
 11
21.7381029537
 21
-1.4776247565
  0
LINE
  5
5B4
100
AcDbEntity
  8
RACCORDO
100
AcDbLine
 62
250
  6
CONTINUOUS
 10
21.7381029537
 20
-1.4776247565
 11
21.7371594874
 21
-1.542867865
  0
LINE
  5
5B5
100
AcDbEntity
  8
RACCORDO
100
AcDbLine
 62
250
  6
CONTINUOUS
 10
21.7371594874
 20
-1.542867865
 11
21.736119407
 21
-1.5959951164
  0
LWPOLYLINE
  5
5B6
100
AcDbEntity
  8
RACCORDO
100
AcDbPolyline
 62
250
  6
CONTINUOUS
 90
8
 70
0
 10
21.736119407
 20
-1.5959951164
 10
21.7350049448
 20
-1.6383706424
 10
21.7344150858
 20
-1.6566401591
 10
21.7337998097
 20
-1.6729030551
 10
21.7331372021
 20
-1.6877008296
 10
21.7324199582
 20
-1.7008658081
 10
21.7316553827
 20
-1.7118192799
 10
21.7308434758
 20
-1.7202000995
  0
LWPOLYLINE
  5
5B7
100
AcDbEntity
  8
RACCORDO
100
AcDbPolyline
 62
7
  6
CONTINUOUS
 90
25
 70
0
 10
21.3500000083
 20
1.7074833227
 10
21.3510750578
 20
1.7321229838
 10
21.3535365594
 20
1.7560884635
 10
21.3573845131
 20
1.7793797618
 10
21.3627215855
 20
1.8020039134
 10
21.3694451101
 20
1.8239538836
 10
21.3772470869
 20
1.8452085685
 10
21.3861110018
 20
1.8657613941
 10
21.396053369
 20
1.8856189345
 10
21.4068157318
 20
1.9047798078
 10
21.4183783577
 20
1.9232203539
 10
21.430760979
 20
1.9409642329
 10
21.4437643359
 20
1.9580810431
 10
21.4573708722
 20
1.9745558611
 10
21.471598144
 20
1.9904036102
 10
21.4862995595
 20
2.0057386587
 10
21.5014756293
 20
2.0205593996
 10
21.5171258427
 20
2.0348674399
 10
21.5331020769
 20
2.0487819687
 10
21.5493853392
 20
2.0622826726
 10
21.5659946222
 20
2.075389865
 10
21.5828387812
 20
2.0882836755
 10
21.5998874348
 20
2.1010241472
 10
21.6171709644
 20
2.1135512369
 10
21.63468937
 20
2.1258649447
  0
LINE
  5
5B8
100
AcDbEntity
  8
RACCORDO
100
AcDbLine
 62
7
  6
CONTINUOUS
 10
22.2715759627
 20
-1.9781437817
 11
22.3098825962
 21
-1.7202000995
  0
LWPOLYLINE
  5
5B9
100
AcDbEntity
  8
RACCORDO
100
AcDbPolyline
 62
250
  6
CONTINUOUS
 90
7
 70
0
 10
21.3545887783
 20
-1.6827014558
 10
21.3537922214
 20
-1.6856818531
 10
21.3530083704
 20
-1.6891221991
 10
21.3522372255
 20
-1.6930224937
 10
21.3514787865
 20
-1.6973827368
 10
21.3507330536
 20
-1.7022029286
 10
21.3500000267
 20
-1.7074830691
  0
LINE
  5
5BA
100
AcDbEntity
  8
RACCORDO
100
AcDbLine
 62
250
  6
CONTINUOUS
 10
21.7308434758
 20
-1.7202000995
 11
21.6541776388
 21
-1.9781437817
  0
LWPOLYLINE
  5
5BB
100
AcDbEntity
  8
RACCORDO
100
AcDbPolyline
 62
7
  6
CONTINUOUS
 90
16
 70
0
 10
20.4903017779
 20
-11.507655315
 10
20.4763164383
 20
-11.5204437772
 10
20.4639219562
 20
-11.5336456895
 10
20.4531183318
 20
-11.5471391437
 10
20.4439601074
 20
-11.5608779583
 10
20.4363927407
 20
-11.5745835925
 10
20.4302526038
 20
-11.5877877418
 10
20.4256231053
 20
-11.6002228663
 10
20.4224208368
 20
-11.6118451675
 10
20.4202319446
 20
-11.6225418711
 10
20.419051965
 20
-11.6322118605
 10
20.4188853618
 20
-11.6405741152
 10
20.4193316723
 20
-11.6473290153
 10
20.4202574089
 20
-11.6523879689
 10
20.4217960592
 20
-11.6557670275
 10
20.4239476231
 20
-11.6574497452
  0
LINE
  5
5BC
100
AcDbEntity
  8
RACCORDO
100
AcDbLine
 62
7
  6
CONTINUOUS
 10
20.4239476231
 20
-14.8425502548
 11
20.4684808743
 21
-14.8251078967
  0
LWPOLYLINE
  5
5BD
100
AcDbEntity
  8
RACCORDO
100
AcDbPolyline
 62
7
  6
CONTINUOUS
 90
4
 70
0
 10
20.4684808743
 20
-14.8251078967
 10
20.4975068639
 20
-14.813864513
 10
20.5119099564
 20
-14.8083630439
 10
20.5262891979
 20
-14.8029443711
  0
LWPOLYLINE
  5
5BE
100
AcDbEntity
  8
RACCORDO
100
AcDbPolyline
 62
7
  6
CONTINUOUS
 90
3
 70
0
 10
20.5119099564
 20
14.8083630439
 10
20.5262891979
 20
14.8029443711
 10
20.5549020021
 20
14.7923514428
  0
LINE
  5
5BF
100
AcDbEntity
  8
RACCORDO
100
AcDbLine
 62
7
  6
CONTINUOUS
 10
20.4830552119
 20
14.8194474545
 11
20.5119099564
 21
14.8083630439
  0
LWPOLYLINE
  5
5C0
100
AcDbEntity
  8
RACCORDO
100
AcDbPolyline
 62
7
  6
CONTINUOUS
 90
3
 70
0
 10
20.4239476231
 20
14.8425502548
 10
20.4389147256
 20
14.8366586348
 10
20.4830552119
 20
14.8194474545
  0
LINE
  5
5C1
100
AcDbEntity
  8
RACCORDO
100
AcDbLine
 62
250
  6
CONTINUOUS
 10
21.6541776388
 20
1.9781437817
 11
21.7308434758
 21
1.7202000995
  0
LWPOLYLINE
  5
5C2
100
AcDbEntity
  8
RACCORDO
100
AcDbPolyline
 62
250
  6
CONTINUOUS
 90
12
 70
0
 10
21.4312546154
 20
1.4247577736
 10
21.4322099717
 20
1.4204746517
 10
21.433114946
 20
1.4149243806
 10
21.4339695383
 20
1.4081069603
 10
21.434779264
 20
1.3998226948
 10
21.4355386078
 20
1.39027128
 10
21.436231023
 20
1.3800518046
 10
21.4368499688
 20
1.3691885792
 10
21.437401986
 20
1.3576572931
 10
21.4378901506
 20
1.3459841021
 10
21.4383093263
 20
1.3344001695
 10
21.4386646493
 20
1.322674332
  0
LINE
  5
5C3
100
AcDbEntity
  8
RACCORDO
100
AcDbLine
 62
7
  6
CONTINUOUS
 10
22.2715759627
 20
1.9781437817
 11
22.3098825962
 21
1.7202000995
  0
LWPOLYLINE
  5
5C4
100
AcDbEntity
  8
RACCORDO
100
AcDbPolyline
 62
250
  6
CONTINUOUS
 90
7
 70
0
 10
21.3500000083
 20
1.707483188
 10
21.350712203
 20
1.7023122772
 10
21.3514454379
 20
1.6975576152
 10
21.3521997128
 20
1.693219202
 10
21.3529750279
 20
1.6892970378
 10
21.3537713831
 20
1.6857911224
 10
21.3545887783
 20
1.6827014558
  0
LWPOLYLINE
  5
5C5
100
AcDbEntity
  8
RACCORDO
100
AcDbPolyline
 62
7
  6
CONTINUOUS
 90
3
 70
0
 10
20.0896039654
 20
-13.6849547379
 10
20.0475496474
 20
-13.7272433852
 10
20.032256019
 20
-13.742344685
  0
LINE
  5
5C6
100
AcDbEntity
  8
RACCORDO
100
AcDbLine
 62
7
  6
CONTINUOUS
 10
20.1770052681
 20
-13.5975450575
 11
20.1023627837
 21
-13.6722595498
  0
LINE
  5
5C7
100
AcDbEntity
  8
RACCORDO
100
AcDbLine
 62
7
  6
CONTINUOUS
 10
20.1023627837
 20
-13.6722595498
 11
20.0896039654
 21
-13.6849547379
  0
LINE
  5
5C8
100
AcDbEntity
  8
RACCORDO
100
AcDbLine
 62
7
  6
CONTINUOUS
 10
20.1799771819
 20
-13.5946235221
 11
20.1770052681
 21
-13.5975450575
  0
LWPOLYLINE
  5
5C9
100
AcDbEntity
  8
RACCORDO
100
AcDbPolyline
 62
7
  6
CONTINUOUS
 90
16
 70
0
 10
20.4239476231
 20
-14.8425502548
 10
20.4217964331
 20
-14.8442325315
 10
20.4202579142
 20
-14.8476106222
 10
20.4193320663
 20
-14.8526681677
 10
20.418885397
 20
-14.8594212676
 10
20.4190513987
 20
-14.8677814605
 10
20.4202305485
 20
-14.8774494251
 10
20.4224181647
 20
-14.888144246
 10
20.4256189289
 20
-14.8997649994
 10
20.4302473631
 20
-14.9121995033
 10
20.4363870598
 20
-14.9254046252
 10
20.4439544264
 20
-14.939112501
 10
20.4531132071
 20
-14.9528538152
 10
20.4639179832
 20
-14.9663495723
 10
20.4763141735
 20
-14.9795538533
 10
20.4903017779
 20
-14.992344685
  0
LINE
  5
5CA
100
AcDbEntity
  8
DRAFT
100
AcDbLine
 62
7
  6
CONTINUOUS
 10
21.1996573543
 20
-14.85
 11
21.35
 21
-14.7373232745
  0
LINE
  5
5CB
100
AcDbEntity
  8
0
100
AcDbLine
 62
7
  6
CONTINUOUS
 10
-20.7448015567
 20
24.9947634805
 11
20.7448015567
 21
24.9947634805
  0
LINE
  5
5CC
100
AcDbEntity
  8
RACCORDO
100
AcDbLine
 62
7
  6
CONTINUOUS
 10
20.7448015567
 20
24.9947634805
 11
-20.7448015567
 21
24.9947634805
  0
LINE
  5
5CD
100
AcDbEntity
  8
RACCORDO
100
AcDbLine
 62
7
  6
CONTINUOUS
 10
21.0
 20
25.5
 11
-21.0
 21
25.5
  0
LWPOLYLINE
  5
5CE
100
AcDbEntity
  8
RACCORDO
100
AcDbPolyline
 62
250
  6
CONTINUOUS
 90
19
 70
0
 10
20.6763690968
 20
14.5471258854
 10
20.680874987
 20
14.5441572779
 10
20.6851581531
 20
14.5391908563
 10
20.6892185951
 20
14.5322266205
 10
20.693086546
 20
14.5229710847
 10
20.6967317728
 20
14.5117177348
 10
20.7000635772
 20
14.4993470281
 10
20.7030463214
 20
14.485913547
 10
20.7057156432
 20
14.4713627091
 10
20.7080877581
 20
14.4564112244
 10
20.7101421547
 20
14.4413443078
 10
20.7118993444
 20
14.4258767443
 10
20.7134370766
 20
14.4098695991
 10
20.7147837337
 20
14.3934524544
 10
20.7159109333
 20
14.3764957279
 10
20.7168112776
 20
14.3584717376
 10
20.7174823009
 20
14.3392045894
 10
20.7179264689
 20
14.3188701775
 10
20.7181437817
 20
14.2974685017
  0
LINE
  5
5CF
100
AcDbEntity
  8
DRAFT
100
AcDbLine
 62
7
  6
CONTINUOUS
 10
21.1996573543
 20
14.85
 11
21.35
 21
14.7373232745
  0
LWPOLYLINE
  5
5D0
100
AcDbEntity
  8
RACCORDO
100
AcDbPolyline
 62
250
  6
CONTINUOUS
 90
19
 70
0
 10
20.8240893778
 20
14.6969203156
 10
20.8285969242
 20
14.6927354862
 10
20.8328811003
 20
14.684681706
 10
20.8369419061
 20
14.6730815681
 10
20.8408092262
 20
14.6582116787
 10
20.8444531759
 20
14.6404661292
 10
20.8477841023
 20
14.6204741104
 10
20.8507668739
 20
14.5987962137
 10
20.8534366221
 20
14.5757738793
 10
20.8558090876
 20
14.551776867
 10
20.8578636093
 20
14.5274610068
 10
20.8596208483
 20
14.502880198
 10
20.8611585291
 20
14.4773102703
 10
20.8625049449
 20
14.4509578295
 10
20.8636318026
 20
14.4239197743
 10
20.8645319469
 20
14.3950736664
 10
20.8652029928
 20
14.3640763797
 10
20.8656473254
 20
14.3314800999
 10
20.8658649447
 20
14.2974685017
  0
LWPOLYLINE
  5
5D1
100
AcDbEntity
  8
RACCORDO
100
AcDbPolyline
 62
7
  6
CONTINUOUS
 90
3
 70
0
 10
20.0896459661
 20
13.6849967386
 10
20.0473573188
 20
13.7270510566
 10
20.032256019
 20
13.742344685
  0
LINE
  5
5D2
100
AcDbEntity
  8
RACCORDO
100
AcDbLine
 62
7
  6
CONTINUOUS
 10
20.1770556465
 20
13.5975954359
 11
20.1023411542
 21
13.6722379203
  0
LINE
  5
5D3
100
AcDbEntity
  8
RACCORDO
100
AcDbLine
 62
7
  6
CONTINUOUS
 10
20.1023411542
 20
13.6722379203
 11
20.0896459661
 21
13.6849967386
  0
LINE
  5
5D4
100
AcDbEntity
  8
RACCORDO
100
AcDbLine
 62
7
  6
CONTINUOUS
 10
20.1799771819
 20
13.5946235221
 11
20.1770556465
 21
13.5975954359
  0
LINE
  5
5D5
100
AcDbEntity
  8
RACCORDO
100
AcDbLine
 62
7
  6
CONTINUOUS
 10
-21.8171488744
 20
26.2387579355
 11
21.8171488744
 21
26.2387579355
  0
LINE
  5
5D6
100
AcDbEntity
  8
RACCORDO
100
AcDbLine
 62
7
  6
CONTINUOUS
 10
-21.7988187293
 20
26.3
 11
21.7988187293
 21
26.3
  0
LINE
  5
5D7
100
AcDbEntity
  8
0
100
AcDbLine
 62
7
  6
CONTINUOUS
 10
-21.7847065336
 20
26.3345351961
 11
21.7847065336
 21
26.3345351961
  0
LINE
  5
5D8
100
AcDbEntity
  8
RACCORDO
100
AcDbLine
 62
250
  6
CONTINUOUS
 10
21.8171488744
 20
-26.2387579355
 11
21.7988187293
 21
-26.3
  0
LINE
  5
5D9
100
AcDbEntity
  8
RACCORDO
100
AcDbLine
 62
250
  6
CONTINUOUS
 10
21.8171488744
 20
26.2387579355
 11
21.7988187293
 21
26.3
  0
ARC
  5
5DA
100
AcDbEntity
  8
RACCORDO
100
AcDbCircle
 62
7
  6
CONTINUOUS
 10
-21.0
 20
-25.0
 40
0.5
100
AcDbArc
 50
180.0
 51
270.0
  0
ARC
  5
5DB
100
AcDbEntity
  8
RACCORDO
100
AcDbCircle
 62
7
  6
CONTINUOUS
 10
-5.75
 20
-11.8
 40
0.5
100
AcDbArc
 50
90.0
 51
180.0
  0
ARC
  5
5DC
100
AcDbEntity
  8
RACCORDO
100
AcDbCircle
 62
7
  6
CONTINUOUS
 10
-5.75
 20
-14.8
 40
0.5
100
AcDbArc
 50
180.0
 51
270.0
  0
ARC
  5
5DD
100
AcDbEntity
  8
RACCORDO
100
AcDbCircle
 62
7
  6
CONTINUOUS
 10
-20.65
 20
-11.7
 40
0.25
100
AcDbArc
 50
50.2981329847
 51
168.4630409672
  0
ARC
  5
5DE
100
AcDbEntity
  8
RACCORDO
100
AcDbCircle
 62
7
  6
CONTINUOUS
 10
-20.65
 20
-14.8
 40
0.25
100
AcDbArc
 50
191.5369590328
 51
309.7018670153
  0
ARC
  5
5DF
100
AcDbEntity
  8
RACCORDO
100
AcDbCircle
 62
7
  6
CONTINUOUS
 10
-22.1
 20
-10.95
 40
0.2
100
AcDbArc
 50
0.0
 51
90.0
  0
ARC
  5
5E0
100
AcDbEntity
  8
RACCORDO
100
AcDbCircle
 62
7
  6
CONTINUOUS
 10
-22.1
 20
-15.55
 40
0.2
100
AcDbArc
 50
270.0
 51
360.0
  0
ARC
  5
5E1
100
AcDbEntity
  8
RACCORDO
100
AcDbCircle
 62
7
  6
CONTINUOUS
 10
-5.65
 20
-5.65
 40
0.1
100
AcDbArc
 50
180.0
 51
270.0
  0
ARC
  5
5E2
100
AcDbEntity
  8
DRAFT
100
AcDbCircle
 62
7
  6
CONTINUOUS
 10
-20.65
 20
-14.8
 40
0.0954050818
100
AcDbArc
 50
175.4017036847
 51
4.5982963153
  0
ARC
  5
5E3
100
AcDbEntity
  8
DRAFT
100
AcDbCircle
 62
7
  6
CONTINUOUS
 10
-20.65
 20
-11.7
 40
0.0954050818
100
AcDbArc
 50
355.4017036847
 51
184.5982963153
  0
ARC
  5
5E4
100
AcDbEntity
  8
RACCORDO
100
AcDbCircle
 62
7
  6
CONTINUOUS
 10
-21.0
 20
25.0
 40
0.5
100
AcDbArc
 50
90.0
 51
180.0
  0
ARC
  5
5E5
100
AcDbEntity
  8
RACCORDO
100
AcDbCircle
 62
7
  6
CONTINUOUS
 10
-5.75
 20
8.7
 40
0.5
100
AcDbArc
 50
180.0
 51
270.0
  0
ARC
  5
5E6
100
AcDbEntity
  8
RACCORDO
100
AcDbCircle
 62
7
  6
CONTINUOUS
 10
-5.75
 20
14.7
 40
0.5
100
AcDbArc
 50
90.0
 51
180.0
  0
ARC
  5
5E7
100
AcDbEntity
  8
RACCORDO
100
AcDbCircle
 62
7
  6
CONTINUOUS
 10
-20.65
 20
11.7
 40
0.25
100
AcDbArc
 50
191.5369590328
 51
309.7018670153
  0
ARC
  5
5E8
100
AcDbEntity
  8
RACCORDO
100
AcDbCircle
 62
7
  6
CONTINUOUS
 10
-20.65
 20
14.8
 40
0.25
100
AcDbArc
 50
50.2981329847
 51
168.4630409672
  0
ARC
  5
5E9
100
AcDbEntity
  8
RACCORDO
100
AcDbCircle
 62
7
  6
CONTINUOUS
 10
-22.1
 20
15.55
 40
0.2
100
AcDbArc
 50
0.0
 51
90.0
  0
ARC
  5
5EA
100
AcDbEntity
  8
RACCORDO
100
AcDbCircle
 62
7
  6
CONTINUOUS
 10
-22.1
 20
10.95
 40
0.2
100
AcDbArc
 50
270.0
 51
360.0
  0
ARC
  5
5EB
100
AcDbEntity
  8
RACCORDO
100
AcDbCircle
 62
7
  6
CONTINUOUS
 10
-5.65
 20
5.65
 40
0.1
100
AcDbArc
 50
90.0
 51
180.0
  0
ARC
  5
5EC
100
AcDbEntity
  8
DRAFT
100
AcDbCircle
 62
7
  6
CONTINUOUS
 10
-20.65
 20
14.8
 40
0.0954050818
100
AcDbArc
 50
355.4017036847
 51
184.5982963153
  0
ARC
  5
5ED
100
AcDbEntity
  8
DRAFT
100
AcDbCircle
 62
7
  6
CONTINUOUS
 10
-20.65
 20
11.7
 40
0.0954050818
100
AcDbArc
 50
175.4017036847
 51
4.5982963153
  0
ARC
  5
5EE
100
AcDbEntity
  8
RACCORDO
100
AcDbCircle
 62
7
  6
CONTINUOUS
 10
21.0
 20
-25.0
 40
0.5
100
AcDbArc
 50
270.0
 51
360.0
  0
ARC
  5
5EF
100
AcDbEntity
  8
RACCORDO
100
AcDbCircle
 62
7
  6
CONTINUOUS
 10
5.75
 20
-11.8
 40
0.5
100
AcDbArc
 50
0.0
 51
90.0
  0
ARC
  5
5F0
100
AcDbEntity
  8
RACCORDO
100
AcDbCircle
 62
7
  6
CONTINUOUS
 10
5.75
 20
-14.8
 40
0.5
100
AcDbArc
 50
270.0
 51
360.0
  0
ARC
  5
5F1
100
AcDbEntity
  8
RACCORDO
100
AcDbCircle
 62
7
  6
CONTINUOUS
 10
20.65
 20
-11.7
 40
0.25
100
AcDbArc
 50
11.5369590328
 51
129.7018670153
  0
ARC
  5
5F2
100
AcDbEntity
  8
RACCORDO
100
AcDbCircle
 62
7
  6
CONTINUOUS
 10
20.65
 20
-14.8
 40
0.25
100
AcDbArc
 50
230.2981329847
 51
348.4630409672
  0
ARC
  5
5F3
100
AcDbEntity
  8
RACCORDO
100
AcDbCircle
 62
7
  6
CONTINUOUS
 10
22.1
 20
-15.55
 40
0.2
100
AcDbArc
 50
180.0
 51
270.0
  0
ARC
  5
5F4
100
AcDbEntity
  8
RACCORDO
100
AcDbCircle
 62
7
  6
CONTINUOUS
 10
22.1
 20
-10.95
 40
0.2
100
AcDbArc
 50
90.0
 51
180.0
  0
ARC
  5
5F5
100
AcDbEntity
  8
RACCORDO
100
AcDbCircle
 62
7
  6
CONTINUOUS
 10
5.65
 20
-5.65
 40
0.1
100
AcDbArc
 50
270.0
 51
360.0
  0
ARC
  5
5F6
100
AcDbEntity
  8
DRAFT
100
AcDbCircle
 62
7
  6
CONTINUOUS
 10
20.65
 20
-14.8
 40
0.0954050818
100
AcDbArc
 50
175.4017036847
 51
4.5982963153
  0
ARC
  5
5F7
100
AcDbEntity
  8
DRAFT
100
AcDbCircle
 62
7
  6
CONTINUOUS
 10
20.65
 20
-11.7
 40
0.0954050818
100
AcDbArc
 50
355.4017036846
 51
184.5982963154
  0
ARC
  5
5F8
100
AcDbEntity
  8
RACCORDO
100
AcDbCircle
 62
7
  6
CONTINUOUS
 10
21.0
 20
25.0
 40
0.5
100
AcDbArc
 50
0.0
 51
90.0
  0
ARC
  5
5F9
100
AcDbEntity
  8
RACCORDO
100
AcDbCircle
 62
7
  6
CONTINUOUS
 10
5.75
 20
8.7
 40
0.5
100
AcDbArc
 50
270.0
 51
360.0
  0
ARC
  5
5FA
100
AcDbEntity
  8
RACCORDO
100
AcDbCircle
 62
7
  6
CONTINUOUS
 10
5.75
 20
14.7
 40
0.5
100
AcDbArc
 50
0.0
 51
90.0
  0
ARC
  5
5FB
100
AcDbEntity
  8
RACCORDO
100
AcDbCircle
 62
7
  6
CONTINUOUS
 10
20.65
 20
14.8
 40
0.25
100
AcDbArc
 50
11.5369590328
 51
129.7018670153
  0
ARC
  5
5FC
100
AcDbEntity
  8
RACCORDO
100
AcDbCircle
 62
7
  6
CONTINUOUS
 10
20.65
 20
11.7
 40
0.25
100
AcDbArc
 50
230.2981329847
 51
348.4630409672
  0
ARC
  5
5FD
100
AcDbEntity
  8
RACCORDO
100
AcDbCircle
 62
7
  6
CONTINUOUS
 10
22.1
 20
10.95
 40
0.2
100
AcDbArc
 50
180.0
 51
270.0
  0
ARC
  5
5FE
100
AcDbEntity
  8
RACCORDO
100
AcDbCircle
 62
7
  6
CONTINUOUS
 10
22.1
 20
15.55
 40
0.2
100
AcDbArc
 50
90.0
 51
180.0
  0
ARC
  5
5FF
100
AcDbEntity
  8
RACCORDO
100
AcDbCircle
 62
7
  6
CONTINUOUS
 10
5.65
 20
5.65
 40
0.1
100
AcDbArc
 50
0.0
 51
90.0
  0
ARC
  5
600
100
AcDbEntity
  8
DRAFT
100
AcDbCircle
 62
7
  6
CONTINUOUS
 10
20.65
 20
14.8
 40
0.0954050818
100
AcDbArc
 50
355.4017036847
 51
184.5982963153
  0
ARC
  5
601
100
AcDbEntity
  8
DRAFT
100
AcDbCircle
 62
7
  6
CONTINUOUS
 10
20.65
 20
11.7
 40
0.0954050818
100
AcDbArc
 50
175.4017036846
 51
4.5982963154
  0
ELLIPSE
  5
602
100
AcDbEntity
  8
RACCORDO
100
AcDbEllipse
 62
7
  6
CONTINUOUS
 10
-21.7843637998
 20
-25.8343637998
 30
0.0
 11
0.35379574
 21
0.35379574
 31
0.0
 40
0.999315002
 41
-3.9266482006
 42
-2.3565371065
  0
ELLIPSE
  5
603
100
AcDbEntity
  8
RACCORDO
100
AcDbEllipse
 62
7
  6
CONTINUOUS
 10
-21.7843637998
 20
25.8343637998
 30
0.0
 11
-0.35379574
 21
0.35379574
 31
0.0
 40
0.999315002
 41
0.5230474318
 42
0.7850555471
  0
ELLIPSE
  5
604
100
AcDbEntity
  8
RACCORDO
100
AcDbEllipse
 62
7
  6
CONTINUOUS
 10
-21.7843637998
 20
25.8343637998
 30
0.0
 11
0.35379574
 21
-0.35379574
 31
0.0
 40
0.999315002
 41
2.3565371065
 42
3.6646400854
  0
ELLIPSE
  5
605
100
AcDbEntity
  8
RACCORDO
100
AcDbEllipse
 62
7
  6
CONTINUOUS
 10
21.7843637998
 20
25.8343637998
 30
0.0
 11
0.35379574
 21
0.35379574
 31
0.0
 40
0.999315002
 41
-0.7850555471
 42
0.7850555471
  0
ELLIPSE
  5
606
100
AcDbEntity
  8
RACCORDO
100
AcDbEllipse
 62
7
  6
CONTINUOUS
 10
21.7843637998
 20
-25.8343637998
 30
0.0
 11
0.35379574
 21
-0.35379574
 31
0.0
 40
0.999315002
 41
-0.7850555471
 42
0.7850555471
  0
ELLIPSE
  5
607
100
AcDbEntity
  8
RACCORDO
100
AcDbEllipse
 62
7
  6
CONTINUOUS
 10
22.2722580333
 20
-2.1258649447
 30
0.0
 11
0.0
 21
0.15
 31
0.0
 40
0.0261859216
 41
0.1745329252
 42
1.5707963268
  0
ELLIPSE
  5
608
100
AcDbEntity
  8
RACCORDO
100
AcDbEllipse
 62
7
  6
CONTINUOUS
 10
22.2722580333
 20
2.1258649447
 30
0.0
 11
-0.0
 21
0.15
 31
0.0
 40
0.0261859216
 41
-4.7123889804
 42
-3.3161255788
  0
ELLIPSE
  5
609
100
AcDbEntity
  8
RACCORDO
100
AcDbEllipse
 62
7
  6
CONTINUOUS
 10
-22.2722580333
 20
2.1258649447
 30
0.0
 11
0.0
 21
0.15
 31
0.0
 40
0.0261859216
 41
-2.9670597284
 42
-1.5707963268
  0
ELLIPSE
  5
60A
100
AcDbEntity
  8
RACCORDO
100
AcDbEllipse
 62
7
  6
CONTINUOUS
 10
-22.2722580333
 20
-2.1258649447
 30
0.0
 11
0.0
 21
0.15
 31
0.0
 40
0.0261859216
 41
-1.5707963268
 42
-0.1745329252
  0
ELLIPSE
  5
60B
100
AcDbEntity
  8
RACCORDO
100
AcDbEllipse
 62
7
  6
CONTINUOUS
 10
-22.3076090275
 20
1.227796223
 30
0.0
 11
0.0
 21
0.5
 31
0.0
 40
0.0261859216
 41
0.1745329252
 42
1.5707963268
  0
ELLIPSE
  5
60C
100
AcDbEntity
  8
RACCORDO
100
AcDbEllipse
 62
7
  6
CONTINUOUS
 10
-22.3076090275
 20
-1.227796223
 30
0.0
 11
0.0
 21
0.5
 31
0.0
 40
0.0261859216
 41
-4.7123889804
 42
-3.3161255788
  0
ELLIPSE
  5
60D
100
AcDbEntity
  8
RACCORDO
100
AcDbEllipse
 62
7
  6
CONTINUOUS
 10
22.3076090275
 20
-1.227796223
 30
0.0
 11
0.0
 21
0.5
 31
0.0
 40
0.0261859216
 41
-2.9670597284
 42
-1.5707963268
  0
ELLIPSE
  5
60E
100
AcDbEntity
  8
RACCORDO
100
AcDbEllipse
 62
7
  6
CONTINUOUS
 10
22.3076090275
 20
1.227796223
 30
0.0
 11
0.0
 21
0.5
 31
0.0
 40
0.0261859216
 41
-1.5707963268
 42
-0.1745329252
  0
ELLIPSE
  5
60F
100
AcDbEntity
  8
RACCORDO
100
AcDbEllipse
 62
7
  6
CONTINUOUS
 10
-21.7998457434
 20
25.8482810731
 30
0.0
 11
0.1295691639
 21
0.4328979966
 31
0.0
 40
0.9958559188
 41
0.289681634
 42
1.5707963497
  0
ELLIPSE
  5
610
100
AcDbEntity
  8
RACCORDO
100
AcDbEllipse
 62
7
  6
CONTINUOUS
 10
-21.003491013
 20
17.2881634904
 30
0.0
 11
-0.0
 21
0.5
 31
0.0
 40
0.0174550649
 41
-1.9198621772
 42
-1.6096780974
  0
ELLIPSE
  5
611
100
AcDbEntity
  8
RACCORDO
100
AcDbEllipse
 62
7
  6
CONTINUOUS
 10
21.003491013
 20
17.2881634904
 30
0.0
 11
-0.0
 21
0.5
 31
0.0
 40
0.0174550649
 41
1.5707963268
 42
1.9198621772
  0
ELLIPSE
  5
612
100
AcDbEntity
  8
RACCORDO
100
AcDbEllipse
 62
7
  6
CONTINUOUS
 10
-21.8181758885
 20
25.7870390086
 30
0.0
 11
-0.1295691639
 21
-0.4328979966
 31
0.0
 40
0.9958559188
 41
-2.8519110196
 42
-1.2788332195
  0
ELLIPSE
  5
613
100
AcDbEntity
  8
RACCORDO
100
AcDbEllipse
 62
7
  6
CONTINUOUS
 10
-21.003491013
 20
-17.2881634904
 30
0.0
 11
-0.0
 21
0.5
 31
0.0
 40
0.0174550649
 41
-1.5707963268
 42
-1.2606130151
  0
ELLIPSE
  5
614
100
AcDbEntity
  8
RACCORDO
100
AcDbEllipse
 62
7
  6
CONTINUOUS
 10
21.003491013
 20
-17.2881634904
 30
0.0
 11
0.0
 21
0.5
 31
0.0
 40
0.0174550649
 41
1.2217304764
 42
1.5707963268
  0
ELLIPSE
  5
615
100
AcDbEntity
  8
RACCORDO
100
AcDbEllipse
 62
7
  6
CONTINUOUS
 10
-21.7998457434
 20
-25.8482810731
 30
0.0
 11
-0.1295691639
 21
0.4328979966
 31
0.0
 40
0.9958559188
 41
1.5707963039
 42
2.8519110196
  0
ELLIPSE
  5
616
100
AcDbEntity
  8
RACCORDO
100
AcDbEllipse
 62
7
  6
CONTINUOUS
 10
21.7998457434
 20
25.8482810731
 30
0.0
 11
-0.1295691639
 21
0.4328979966
 31
0.0
 40
0.9958559188
 41
-1.5707963497
 42
-0.289681634
  0
ELLIPSE
  5
617
100
AcDbEntity
  8
RACCORDO
100
AcDbEllipse
 62
7
  6
CONTINUOUS
 10
20.9912724675
 20
16.2875932838
 30
0.0
 11
0.0
 21
0.5
 31
0.0
 40
0.0174550649
 41
-1.5707963268
 42
-1.2217304764
  0
ELLIPSE
  5
618
100
AcDbEntity
  8
RACCORDO
100
AcDbEllipse
 62
7
  6
CONTINUOUS
 10
20.9912724675
 20
-16.2875932838
 30
0.0
 11
0.0
 21
0.5
 31
0.0
 40
0.0174550649
 41
-1.9198621772
 42
-1.5707963268
  0
ELLIPSE
  5
619
100
AcDbEntity
  8
RACCORDO
100
AcDbEllipse
 62
7
  6
CONTINUOUS
 10
-20.9912724675
 20
-16.2875932838
 30
0.0
 11
-0.0
 21
0.5
 31
0.0
 40
0.0174550649
 41
-4.7123889804
 42
-4.36332313
  0
ELLIPSE
  5
61A
100
AcDbEntity
  8
RACCORDO
100
AcDbEllipse
 62
7
  6
CONTINUOUS
 10
-20.9912724675
 20
16.2875932838
 30
0.0
 11
0.0
 21
0.5
 31
0.0
 40
0.0174550649
 41
1.2217304764
 42
1.5707963268
  0
ELLIPSE
  5
61B
100
AcDbEntity
  8
RACCORDO
100
AcDbEllipse
 62
7
  6
CONTINUOUS
 10
21.8181758885
 20
25.7870390086
 30
0.0
 11
0.1295691639
 21
-0.4328979966
 31
0.0
 40
0.9958559188
 41
7.5620185267
 42
9.1350963268
  0
ELLIPSE
  5
61C
100
AcDbEntity
  8
RACCORDO
100
AcDbEllipse
 62
7
  6
CONTINUOUS
 10
21.7998457434
 20
-25.8482810731
 30
0.0
 11
0.1295691639
 21
0.4328979966
 31
0.0
 40
0.9958559188
 41
-2.8519110196
 42
-1.5707963038
  0
ELLIPSE
  5
61D
100
AcDbEntity
  8
RACCORDO
100
AcDbEllipse
 62
7
  6
CONTINUOUS
 10
-21.8181758885
 20
-25.7870390086
 30
0.0
 11
-0.1295691639
 21
0.4328979966
 31
0.0
 40
0.9958559188
 41
7.5620185267
 42
9.1350963268
  0
ELLIPSE
  5
61E
100
AcDbEntity
  8
RACCORDO
100
AcDbEllipse
 62
7
  6
CONTINUOUS
 10
21.8181758885
 20
-25.7870390086
 30
0.0
 11
0.1295691639
 21
0.4328979966
 31
0.0
 40
0.9958559188
 41
-2.8519110196
 42
-1.2788332195
  0
ELLIPSE
  5
61F
100
AcDbEntity
  8
RACCORDO
100
AcDbEllipse
 62
7
  6
CONTINUOUS
 10
20.7447253985
 20
-24.7447253985
 30
0.0
 11
0.1768305473
 21
-0.1768305473
 31
0.0
 40
0.9996954599
 41
0.6786582972
 42
0.7852458701
  0
ELLIPSE
  5
620
100
AcDbEntity
  8
RACCORDO
100
AcDbEllipse
 62
7
  6
CONTINUOUS
 10
20.7447253985
 20
-24.7447253985
 30
0.0
 11
-0.1768305473
 21
0.1768305473
 31
0.0
 40
0.9996954599
 41
-3.9268385237
 42
-2.4629343564
  0
ELLIPSE
  5
621
100
AcDbEntity
  8
RACCORDO
100
AcDbEllipse
 62
7
  6
CONTINUOUS
 10
20.7447253985
 20
24.7447253985
 30
0.0
 11
0.1768305473
 21
0.1768305473
 31
0.0
 40
0.9996954599
 41
-0.7852458701
 42
0.7852458701
  0
ELLIPSE
  5
622
100
AcDbEntity
  8
RACCORDO
100
AcDbEllipse
 62
7
  6
CONTINUOUS
 10
-20.7447253985
 20
24.7447253985
 30
0.0
 11
0.1768305473
 21
-0.1768305473
 31
0.0
 40
0.9996954599
 41
-2.4629343564
 42
-2.3563467834
  0
ELLIPSE
  5
623
100
AcDbEntity
  8
RACCORDO
100
AcDbEllipse
 62
7
  6
CONTINUOUS
 10
-20.7447253985
 20
24.7447253985
 30
0.0
 11
-0.1768305473
 21
0.1768305473
 31
0.0
 40
0.9996954599
 41
-0.6786583435
 42
0.6786582972
  0
ELLIPSE
  5
624
100
AcDbEntity
  8
RACCORDO
100
AcDbEllipse
 62
7
  6
CONTINUOUS
 10
-20.7447253985
 20
24.7447253985
 30
0.0
 11
0.1768305473
 21
-0.1768305473
 31
0.0
 40
0.9996954599
 41
2.3563467834
 42
2.4629343101
  0
ELLIPSE
  5
625
100
AcDbEntity
  8
RACCORDO
100
AcDbEllipse
 62
7
  6
CONTINUOUS
 10
-20.7447253985
 20
-24.7447253985
 30
0.0
 11
0.1768305473
 21
0.1768305473
 31
0.0
 40
0.9996954599
 41
-3.9268385237
 42
-2.3563467834
  0
ELLIPSE
  5
626
100
AcDbEntity
  8
0
100
AcDbEllipse
 62
7
  6
CONTINUOUS
 10
-20.7447253985
 20
24.7447253985
 30
0.0
 11
0.1768305473
 21
-0.1768305473
 31
0.0
 40
0.9996954599
 41
2.3563467834
 42
3.9268385237
  0
ELLIPSE
  5
627
100
AcDbEntity
  8
0
100
AcDbEllipse
 62
7
  6
CONTINUOUS
 10
20.7447253985
 20
24.7447253985
 30
0.0
 11
-0.1768305473
 21
-0.1768305473
 31
0.0
 40
0.9996954599
 41
2.3563467834
 42
3.9268385237
  0
ELLIPSE
  5
628
100
AcDbEntity
  8
0
100
AcDbEllipse
 62
7
  6
CONTINUOUS
 10
21.003491013
 20
17.2881634904
 30
0.0
 11
-0.0
 21
0.5
 31
0.0
 40
0.0174550649
 41
1.5707963268
 42
1.9198621772
  0
ELLIPSE
  5
629
100
AcDbEntity
  8
0
100
AcDbEllipse
 62
7
  6
CONTINUOUS
 10
-21.003491013
 20
17.2881634904
 30
0.0
 11
0.0
 21
0.5
 31
0.0
 40
0.0174550649
 41
-1.9198621772
 42
-1.5707963268
  0
ELLIPSE
  5
62A
100
AcDbEntity
  8
0
100
AcDbEllipse
 62
7
  6
CONTINUOUS
 10
20.9912724675
 20
16.2875932838
 30
0.0
 11
-0.0
 21
0.5
 31
0.0
 40
0.0174550649
 41
-1.5707963268
 42
-1.2217304764
  0
ELLIPSE
  5
62B
100
AcDbEntity
  8
0
100
AcDbEllipse
 62
7
  6
CONTINUOUS
 10
-20.9912724675
 20
16.2875932838
 30
0.0
 11
0.0
 21
0.5
 31
0.0
 40
0.0174550649
 41
1.2217304764
 42
1.5707963268
  0
ELLIPSE
  5
62C
100
AcDbEntity
  8
0
100
AcDbEllipse
 62
7
  6
CONTINUOUS
 10
21.000038082
 20
2.249961918
 30
0.0
 11
-0.1768305473
 21
0.1768305473
 31
0.0
 40
0.9996954599
 41
-0.7853981518
 42
0.7852458701
  0
ELLIPSE
  5
62D
100
AcDbEntity
  8
0
100
AcDbEllipse
 62
7
  6
CONTINUOUS
 10
21.000038082
 20
-2.249961918
 30
0.0
 11
-0.1768305473
 21
-0.1768305473
 31
0.0
 40
0.9996954599
 41
-0.7852458701
 42
0.7853981518
  0
ELLIPSE
  5
62E
100
AcDbEntity
  8
0
100
AcDbEllipse
 62
7
  6
CONTINUOUS
 10
-21.000038082
 20
-2.249961918
 30
0.0
 11
0.1768305473
 21
-0.1768305473
 31
0.0
 40
0.9996954599
 41
-0.7853981518
 42
0.7852458701
  0
ELLIPSE
  5
62F
100
AcDbEntity
  8
0
100
AcDbEllipse
 62
7
  6
CONTINUOUS
 10
-21.000038082
 20
2.249961918
 30
0.0
 11
0.1768305473
 21
0.1768305473
 31
0.0
 40
0.9996954599
 41
-0.7852458701
 42
0.7853981518
  0
ELLIPSE
  5
630
100
AcDbEntity
  8
0
100
AcDbEllipse
 62
7
  6
CONTINUOUS
 10
20.9912724675
 20
-16.2875932838
 30
0.0
 11
-0.0
 21
0.5
 31
0.0
 40
0.0174550649
 41
-1.9198621772
 42
-1.5707963268
  0
ELLIPSE
  5
631
100
AcDbEntity
  8
0
100
AcDbEllipse
 62
7
  6
CONTINUOUS
 10
-20.9912724675
 20
-16.2875932838
 30
0.0
 11
0.0
 21
0.5
 31
0.0
 40
0.0174550649
 41
-4.7123889804
 42
-4.36332313
  0
ELLIPSE
  5
632
100
AcDbEntity
  8
0
100
AcDbEllipse
 62
7
  6
CONTINUOUS
 10
21.003491013
 20
-17.2881634904
 30
0.0
 11
-0.0
 21
0.5
 31
0.0
 40
0.0174550649
 41
1.2217304764
 42
1.5707963268
  0
ELLIPSE
  5
633
100
AcDbEntity
  8
0
100
AcDbEllipse
 62
7
  6
CONTINUOUS
 10
-21.003491013
 20
-17.2881634904
 30
0.0
 11
0.0
 21
0.5
 31
0.0
 40
0.0174550649
 41
-1.5707963268
 42
-1.2217304764
  0
ELLIPSE
  5
634
100
AcDbEntity
  8
0
100
AcDbEllipse
 62
7
  6
CONTINUOUS
 10
-20.7447253985
 20
-24.7447253985
 30
0.0
 11
0.1768305473
 21
0.1768305473
 31
0.0
 40
0.9996954599
 41
2.3563467834
 42
3.9268385237
  0
ELLIPSE
  5
635
100
AcDbEntity
  8
0
100
AcDbEllipse
 62
7
  6
CONTINUOUS
 10
20.7447253985
 20
-24.7447253985
 30
0.0
 11
-0.1768305473
 21
0.1768305473
 31
0.0
 40
0.9996954599
 41
2.3563467834
 42
3.9268385237
  0
ELLIPSE
  5
636
100
AcDbEntity
  8
RACCORDO
100
AcDbEllipse
 62
7
  6
CONTINUOUS
 10
20.1845700108
 20
-13.742344685
 30
0.0
 11
0.0
 21
0.15
 31
0.0
 40
0.1763269807
 41
0.0523598776
 42
0.1745329252
  0
ELLIPSE
  5
637
100
AcDbEntity
  8
RACCORDO
100
AcDbEllipse
 62
7
  6
CONTINUOUS
 10
20.1845700108
 20
-12.757655315
 30
0.0
 11
0.0
 21
0.15
 31
0.0
 40
0.1763269807
 41
-3.3161255788
 42
-3.1939525311
  0
ELLIPSE
  5
638
100
AcDbEntity
  8
RACCORDO
100
AcDbEllipse
 62
7
  6
CONTINUOUS
 10
-20.1845700108
 20
-12.757655315
 30
0.0
 11
-0.0
 21
0.15
 31
0.0
 40
0.1763269807
 41
-3.089232776
 42
-2.9670597284
  0
ELLIPSE
  5
639
100
AcDbEntity
  8
RACCORDO
100
AcDbEllipse
 62
7
  6
CONTINUOUS
 10
-20.1845700108
 20
-13.742344685
 30
0.0
 11
0.0
 21
0.15
 31
0.0
 40
0.1763269807
 41
-0.1745329252
 42
-0.0523598776
  0
ELLIPSE
  5
63A
100
AcDbEntity
  8
RACCORDO
100
AcDbEllipse
 62
7
  6
CONTINUOUS
 10
-21.8386751346
 20
-12.2025314983
 30
0.0
 11
-0.0
 21
0.4
 31
0.0
 40
1.0
 41
-1.5707963268
 42
-0.0523598776
  0
ELLIPSE
  5
63B
100
AcDbEntity
  8
RACCORDO
100
AcDbEllipse
 62
7
  6
CONTINUOUS
 10
-21.8386751346
 20
-14.2974685017
 30
0.0
 11
-0.0
 21
0.4
 31
0.0
 40
1.0
 41
-3.089232776
 42
-1.5707963268
  0
ELLIPSE
  5
63C
100
AcDbEntity
  8
RACCORDO
100
AcDbEllipse
 62
7
  6
CONTINUOUS
 10
20.3256315953
 20
13.4000067578
 30
0.0
 11
0.0
 21
0.15
 31
0.0
 40
0.1763269807
 41
-1.5707963268
 42
-0.0523598776
  0
ELLIPSE
  5
63D
100
AcDbEntity
  8
RACCORDO
100
AcDbEllipse
 62
7
  6
CONTINUOUS
 10
20.3256315953
 20
13.0999932422
 30
0.0
 11
-0.0
 21
0.15
 31
0.0
 40
0.1763269807
 41
-3.089232776
 42
-1.5707963268
  0
ELLIPSE
  5
63E
100
AcDbEntity
  8
RACCORDO
100
AcDbEllipse
 62
7
  6
CONTINUOUS
 10
-20.3256315953
 20
13.0999932422
 30
0.0
 11
-0.0
 21
0.15
 31
0.0
 40
0.1763269807
 41
-4.7123889804
 42
-3.1939525311
  0
ELLIPSE
  5
63F
100
AcDbEntity
  8
RACCORDO
100
AcDbEllipse
 62
7
  6
CONTINUOUS
 10
-20.3256315953
 20
13.4000067578
 30
0.0
 11
0.0
 21
0.15
 31
0.0
 40
0.1763269807
 41
0.0523598776
 42
1.5707963268
  0
ELLIPSE
  5
640
100
AcDbEntity
  8
RACCORDO
100
AcDbEllipse
 62
7
  6
CONTINUOUS
 10
-20.3256315953
 20
-13.4000067578
 30
0.0
 11
0.0
 21
0.15
 31
0.0
 40
0.1763269807
 41
1.5707963268
 42
3.089232776
  0
ELLIPSE
  5
641
100
AcDbEntity
  8
RACCORDO
100
AcDbEllipse
 62
7
  6
CONTINUOUS
 10
-20.3256315953
 20
-13.0999932422
 30
0.0
 11
0.0
 21
0.15
 31
0.0
 40
0.1763269807
 41
0.0523598776
 42
1.5707963268
  0
ELLIPSE
  5
642
100
AcDbEntity
  8
RACCORDO
100
AcDbEllipse
 62
7
  6
CONTINUOUS
 10
20.3256315953
 20
-13.0999932422
 30
0.0
 11
0.0
 21
0.15
 31
0.0
 40
0.1763269807
 41
-1.5707963268
 42
-0.0523598776
  0
ELLIPSE
  5
643
100
AcDbEntity
  8
RACCORDO
100
AcDbEllipse
 62
7
  6
CONTINUOUS
 10
20.3256315953
 20
-13.4000067578
 30
0.0
 11
-0.0
 21
0.15
 31
0.0
 40
0.1763269807
 41
-3.089232776
 42
-1.5707963268
  0
ELLIPSE
  5
644
100
AcDbEntity
  8
RACCORDO
100
AcDbEllipse
 62
7
  6
CONTINUOUS
 10
21.8386751346
 20
14.2974685017
 30
0.0
 11
0.0
 21
0.4
 31
0.0
 40
1.0
 41
0.0523598776
 42
1.5707963268
  0
ELLIPSE
  5
645
100
AcDbEntity
  8
RACCORDO
100
AcDbEllipse
 62
7
  6
CONTINUOUS
 10
21.8386751346
 20
12.2025314983
 30
0.0
 11
0.0
 21
0.4
 31
0.0
 40
1.0
 41
-4.7123889804
 42
-3.1939525311
  0
ELLIPSE
  5
646
100
AcDbEntity
  8
RACCORDO
100
AcDbEllipse
 62
7
  6
CONTINUOUS
 10
20.1845700108
 20
12.757655315
 30
0.0
 11
-0.0
 21
0.15
 31
0.0
 40
0.1763269807
 41
0.0523598776
 42
0.1745329252
  0
ELLIPSE
  5
647
100
AcDbEntity
  8
RACCORDO
100
AcDbEllipse
 62
7
  6
CONTINUOUS
 10
20.1845700108
 20
13.742344685
 30
0.0
 11
0.0
 21
0.15
 31
0.0
 40
0.1763269807
 41
-3.3161255788
 42
-3.1939525311
  0
ELLIPSE
  5
648
100
AcDbEntity
  8
RACCORDO
100
AcDbEllipse
 62
7
  6
CONTINUOUS
 10
-20.1845700108
 20
13.742344685
 30
0.0
 11
-0.0
 21
0.15
 31
0.0
 40
0.1763269807
 41
-3.089232776
 42
-2.9670597284
  0
ELLIPSE
  5
649
100
AcDbEntity
  8
RACCORDO
100
AcDbEllipse
 62
7
  6
CONTINUOUS
 10
-20.1845700108
 20
12.757655315
 30
0.0
 11
-0.0
 21
0.15
 31
0.0
 40
0.1763269807
 41
-0.1745329252
 42
-0.0523598776
  0
ELLIPSE
  5
64A
100
AcDbEntity
  8
RACCORDO
100
AcDbEllipse
 62
7
  6
CONTINUOUS
 10
-21.8386751346
 20
14.2974685017
 30
0.0
 11
0.0
 21
0.4
 31
0.0
 40
1.0
 41
-1.5707963268
 42
-0.0523598776
  0
ELLIPSE
  5
64B
100
AcDbEntity
  8
RACCORDO
100
AcDbEllipse
 62
7
  6
CONTINUOUS
 10
-21.8386751346
 20
12.2025314983
 30
0.0
 11
0.0
 21
0.4
 31
0.0
 40
1.0
 41
-3.089232776
 42
-1.5707963268
  0
ELLIPSE
  5
64C
100
AcDbEntity
  8
RACCORDO
100
AcDbEllipse
 62
7
  6
CONTINUOUS
 10
21.8386751346
 20
-12.2025314983
 30
0.0
 11
0.4
 21
0.0
 31
0.0
 40
1.0
 41
1.6231562044
 42
3.1415926536
  0
ELLIPSE
  5
64D
100
AcDbEntity
  8
RACCORDO
100
AcDbEllipse
 62
7
  6
CONTINUOUS
 10
21.8386751346
 20
-14.2974685017
 30
0.0
 11
0.0
 21
0.4
 31
0.0
 40
1.0
 41
-4.7123889804
 42
-3.1939525311
  0
ENDSEC
  0
SECTION
  2
OBJECTS
  0
DICTIONARY
  5
C
100
AcDbDictionary
280
0
281
1
  3
ACAD_GROUP
350
D
  3
ACAD_MLINESTYLE
350
17
  3
ACAD_LAYOUT
350
1A
  3
ACAD_PLOTSETTINGS
350
19
  3
ACAD_PLOTSTYLENAME
350
E
  0
DICTIONARY
  5
D
102
{ACAD_REACTORS
330
C
102
}
100
AcDbDictionary
280
0
281
1
  0
ACDBDICTIONARYWDFLT
  5
E
102
{ACAD_REACTORS
330
C
102
}
100
AcDbDictionary
281
1
  3
Normal
350
F
100
AcDbDictionaryWithDefault
340
F
  0
DICTIONARY
  5
17
102
{ACAD_REACTORS
330
C
102
}
100
AcDbDictionary
280
0
281
1
  3
Standard
350
18
  0
DICTIONARY
  5
19
102
{ACAD_REACTORS
330
C
102
}
100
AcDbDictionary
281
1
  0
DICTIONARY
  5
1A
102
{ACAD_REACTORS
330
C
102
}
100
AcDbDictionary
281
1
  3
Model
350
64E
  3
Layout1
350
64F
  0
ACDBPLACEHOLDER
  5
F
102
{ACAD_REACTORS
330
E
102
}
  0
MLINESTYLE
  5
18
102
{ACAD_REACTORS
330
17
102
}
100
AcDbMlineStyle
  2
STANDARD
 70
0
  3

 62
256
 51
90.0
 52
90.0
 71
2
 49
0.5
 62
256
  6
BYLAYER
 49
-0.5
 62
256
  6
BYLAYER
  0
LAYOUT
  5
64E
102
{ACAD_REACTORS
330
1A
102
}
100
AcDbPlotSettings
  1

  2
none_device
  4
ISO_A4_(297.00_x_210.00_MM)
  6

 40
0.0
 41
0.0
 42
0.0
 43
0.0
 44
297.0
 45
210.0
 46
0.0
 47
0.0
 48
0.0
 49
0.0
140
0.0
141
0.0
142
1.0
143
1.0
 70
1024
 72
1
 73
0
 74
0
  7

 75
0
147
1.0
148
0.0
149
0.0
100
AcDbLayout
  1
Model
 70
0
 71
0
 10
0.0
 20
0.0
 11
297.0
 21
210.0
 12
0.0
 22
0.0
 32
0.0
 14
0.0
 24
0.0
 34
0.0
 15
0.0
 25
0.0
 35
0.0
146
0.0
 13
0.0
 23
0.0
 33
0.0
 16
1.0
 26
0.0
 36
0.0
 17
0.0
 27
1.0
 37
0.0
 76
0
330
219
345
0
346
0
  0
LAYOUT
  5
64F
102
{ACAD_REACTORS
330
1A
102
}
100
AcDbPlotSettings
  1

  2
none_device
  4
ISO_A4_(297.00_x_210.00_MM)
  6

 40
0.0
 41
0.0
 42
0.0
 43
0.0
 44
297.0
 45
210.0
 46
0.0
 47
0.0
 48
0.0
 49
0.0
140
0.0
141
0.0
142
1.0
143
1.0
 70
0
 72
1
 73
0
 74
0
  7

 75
0
147
1.0
148
0.0
149
0.0
100
AcDbLayout
  1
Layout1
 70
0
 71
1
 10
0.0
 20
0.0
 11
297.0
 21
210.0
 12
0.0
 22
0.0
 32
0.0
 14
0.0
 24
0.0
 34
0.0
 15
0.0
 25
0.0
 35
0.0
146
0.0
 13
0.0
 23
0.0
 33
0.0
 16
1.0
 26
0.0
 36
0.0
 17
0.0
 27
1.0
 37
0.0
 76
0
330
21A
345
0
346
0
  0
ENDSEC
  0
EOF
