  0
SECTION
  2
HEADER
  9
$ACADVER
  1
AC1024
  9
$DWGCODEPAGE
  3
ANSI_1252
  9
$EXTMAX
 10
297.0
 20
210.0
 30
0.0
  9
$EXTMIN
 10
0.0
 20
0.0
 30
0.0
  9
$LIMMIN
 10
0.0
 20
0.0
  9
$LIMMAX
 10
297.0
 20
210.0
  9
$VIEWCTR
 10
148.5
 20
105.0
  9
$VIEWSIZE
 40
210.0
  9
$CLAYER
  8
0
  9
$LTSCALE
 40
16.335
  9
$CELTYPE
  6
BYLAYER
  9
$DIMSCALE
 40
1.0
  9
$DIMASZ
 40
3.0
  9
$DIMEXO
 40
0.5
  9
$DIMDLI
 40
11.286
  9
$DIMEXE
 40
1.5
  9
$DIMCEN
 40
2.673
  9
$DIMLFAC
 40
1.0
  9
$DIMBLK
  1
_FILLED
  9
$DIMALT
 70
0
  9
$DIMALTF
 40
0.0393700787
  9
$DIMTXT
 40
3.0
  9
$DIMTOL
 70
1
  9
$DIMLIM
 70
0
  9
$DIMTFAC
 40
1.0
  9
$DIMTP
 40
0.01
  9
$DIMTM
 40
0.01
  9
$DIMGAP
 40
0.625
  9
$DIMDSEP
 70
44
  9
$AUNITS
 70
0
  9
$PDMODE
 70
3
  9
$PDSIZE
 40
3.0
  9
$HANDSEED
  5
40E
  9
$TILEMODE
 70
1
  9
$MEASUREMENT
 70
1
  9
$INSUNITS
 70
4
  0
ENDSEC
  0
SECTION
  2
CLASSES
  0
CLASS
  1
ACDBDICTIONARYWDFLT
  2
AcDbDictionaryWithDefault
  3
AutoCAD 2000
 90
0
 91
1
280
0
281
0
  0
CLASS
  1
ACDBPLACEHOLDER
  2
AcDbPlaceHolder
  3
AutoCAD 2000
 90
0
 91
1
280
0
281
0
  0
CLASS
  1
LAYOUT
  2
AcDbLayout
  3
AutoCAD 2000
 90
0
 91
0
280
0
281
0
  0
ENDSEC
  0
SECTION
  2
TABLES
  0
TABLE
  2
VPORT
  5
8
100
AcDbSymbolTable
 70
2
  0
VPORT
  5
1F4
100
AcDbSymbolTableRecord
100
AcDbViewportTableRecord
  2
*ACTIVE
 70
0
 10
0.0
 20
0.0
 11
1.0
 21
1.0
 12
148.5
 22
105.0
 13
0.0
 23
0.0
 14
1.0
 24
1.0
 15
0.0
 25
0.0
 16
0.0
 26
0.0
 36
1.0
 17
0.0
 27
0.0
 37
0.0
 40
210.0
 41
1.4142857143
 42
50.0
 43
0.0
 44
0.0
 50
0.0
 51
0.0
 71
0
 72
100
 73
1
 74
1
 75
0
 76
0
 77
0
 78
0
  0
ENDTAB
  0
TABLE
  2
LTYPE
  5
5
100
AcDbSymbolTable
 70
6
  0
LTYPE
  5
14
100
AcDbSymbolTableRecord
100
AcDbLinetypeTableRecord
  2
BYBLOCK
 70
0
  3

 72
65
 73
0
 40
0.0
  0
LTYPE
  5
15
100
AcDbSymbolTableRecord
100
AcDbLinetypeTableRecord
  2
BYLAYER
 70
0
  3

 72
65
 73
0
 40
0.0
  0
LTYPE
  5
16
100
AcDbSymbolTableRecord
100
AcDbLinetypeTableRecord
  2
CONTINUOUS
 70
64
  3
Solid line
 72
65
 73
0
 40
0.0
  0
LTYPE
  5
1F5
100
AcDbSymbolTableRecord
100
AcDbLinetypeTableRecord
  2
CENTER
 70
64
  3
____ _ ____ _ ____ _ ____ _ ____ _ ____ _ ____
 72
65
 73
4
 40
0.6
 49
0.375
 74
0
 49
-0.075
 74
0
 49
0.075
 74
0
 49
-0.075
 74
0
  0
LTYPE
  5
1F6
100
AcDbSymbolTableRecord
100
AcDbLinetypeTableRecord
  2
HIDDEN
 70
64
  3
- - - - - - - - - - - - - - - - - - - -
 72
65
 73
2
 40
0.2
 49
0.1
 74
0
 49
-0.1
 74
0
  0
LTYPE
  5
1F7
100
AcDbSymbolTableRecord
100
AcDbLinetypeTableRecord
  2
PHANTOM
 70
64
  3
_____ _ _ _____ _ _ _____ _ _ _____
 72
65
 73
6
 40
0.8
 49
0.45
 74
0
 49
-0.05
 74
0
 49
0.1
 74
0
 49
-0.05
 74
0
 49
0.1
 74
0
 49
-0.05
 74
0
  0
LTYPE
  5
1F8
100
AcDbSymbolTableRecord
100
AcDbLinetypeTableRecord
  2
DOT
 70
64
  3
. . . . . . . . . . . . . . . . . . . .
 72
65
 73
2
 40
0.2
 49
0.1
 74
0
 49
-0.1
 74
0
  0
LTYPE
  5
1F9
100
AcDbSymbolTableRecord
100
AcDbLinetypeTableRecord
  2
DASHED
 70
64
  3
- - - - - - - - - - - - - - - - - - - -
 72
65
 73
2
 40
0.2
 49
0.1
 74
0
 49
-0.1
 74
0
  0
ENDTAB
  0
TABLE
  2
LAYER
  5
2
100
AcDbSymbolTable
 70
36
  0
LAYER
  5
10
100
AcDbSymbolTableRecord
100
AcDbLayerTableRecord
  2
0
 70
0
 62
7
  6
CONTINUOUS
370
-3
390
F
  0
LAYER
  5
1FA
100
AcDbSymbolTableRecord
100
AcDbLayerTableRecord
  2
DEFAULT_1
 70
0
 62
7
  6
CENTER
370
-3
390
F
  0
LAYER
  5
1FB
100
AcDbSymbolTableRecord
100
AcDbLayerTableRecord
  2
DEFAULT_2
 70
0
 62
7
  6
HIDDEN
370
-3
390
F
  0
LAYER
  5
1FC
100
AcDbSymbolTableRecord
100
AcDbLayerTableRecord
  2
DEFAULT_3
 70
0
 62
7
  6
PHANTOM
370
-3
390
F
  0
LAYER
  5
1FD
100
AcDbSymbolTableRecord
100
AcDbLayerTableRecord
  2
ASSI
 70
0
 62
7
  6
CONTINUOUS
370
-3
390
F
  0
LAYER
  5
1FE
100
AcDbSymbolTableRecord
100
AcDbLayerTableRecord
  2
COLOR5
 70
0
 62
7
  6
CONTINUOUS
370
-3
390
F
  0
LAYER
  5
1FF
100
AcDbSymbolTableRecord
100
AcDbLayerTableRecord
  2
COORDINATE
 70
0
 62
7
  6
CONTINUOUS
370
-3
390
F
  0
LAYER
  5
200
100
AcDbSymbolTableRecord
100
AcDbLayerTableRecord
  2
COORD_ORIGINE
 70
0
 62
7
  6
CONTINUOUS
370
-3
390
F
  0
LAYER
  5
201
100
AcDbSymbolTableRecord
100
AcDbLayerTableRecord
  2
COPY_PUBLISH
 70
0
 62
7
  6
CONTINUOUS
370
-3
390
F
  0
LAYER
  5
202
100
AcDbSymbolTableRecord
100
AcDbLayerTableRecord
  2
COSMETICI
 70
0
 62
7
  6
CONTINUOUS
370
-3
390
F
  0
LAYER
  5
203
100
AcDbSymbolTableRecord
100
AcDbLayerTableRecord
  2
CURVE
 70
0
 62
7
  6
CONTINUOUS
370
-3
390
F
  0
LAYER
  5
204
100
AcDbSymbolTableRecord
100
AcDbLayerTableRecord
  2
DRAFT
 70
0
 62
7
  6
CONTINUOUS
370
-3
390
F
  0
LAYER
  5
205
100
AcDbSymbolTableRecord
100
AcDbLayerTableRecord
  2
IGES_SCRITTE
 70
0
 62
7
  6
CONTINUOUS
370
-3
390
F
  0
LAYER
  5
206
100
AcDbSymbolTableRecord
100
AcDbLayerTableRecord
  2
IMPORT_IGES
 70
0
 62
7
  6
CONTINUOUS
370
-3
390
F
  0
LAYER
  5
207
100
AcDbSymbolTableRecord
100
AcDbLayerTableRecord
  2
INTF_1
 70
0
 62
7
  6
CONTINUOUS
370
-3
390
F
  0
LAYER
  5
208
100
AcDbSymbolTableRecord
100
AcDbLayerTableRecord
  2
INTF_11
 70
0
 62
7
  6
CONTINUOUS
370
-3
390
F
  0
LAYER
  5
209
100
AcDbSymbolTableRecord
100
AcDbLayerTableRecord
  2
INTF_2
 70
0
 62
7
  6
CONTINUOUS
370
-3
390
F
  0
LAYER
  5
20A
100
AcDbSymbolTableRecord
100
AcDbLayerTableRecord
  2
INTF_7
 70
0
 62
7
  6
CONTINUOUS
370
-3
390
F
  0
LAYER
  5
20B
100
AcDbSymbolTableRecord
100
AcDbLayerTableRecord
  2
INTF_8
 70
0
 62
7
  6
CONTINUOUS
370
-3
390
F
  0
LAYER
  5
20C
100
AcDbSymbolTableRecord
100
AcDbLayerTableRecord
  2
NOTE
 70
0
 62
7
  6
CONTINUOUS
370
-3
390
F
  0
LAYER
  5
20D
100
AcDbSymbolTableRecord
100
AcDbLayerTableRecord
  2
PIANI
 70
0
 62
7
  6
CONTINUOUS
370
-3
390
F
  0
LAYER
  5
20E
100
AcDbSymbolTableRecord
100
AcDbLayerTableRecord
  2
PIANI_ORIGINE
 70
0
 62
7
  6
CONTINUOUS
370
-3
390
F
  0
LAYER
  5
20F
100
AcDbSymbolTableRecord
100
AcDbLayerTableRecord
  2
PUNTI
 70
0
 62
7
  6
CONTINUOUS
370
-3
390
F
  0
LAYER
  5
210
100
AcDbSymbolTableRecord
100
AcDbLayerTableRecord
  2
RACCORDO
 70
0
 62
7
  6
CONTINUOUS
370
-3
390
F
  0
LAYER
  5
211
100
AcDbSymbolTableRecord
100
AcDbLayerTableRecord
  2
RGB__255__255__255__
 70
0
 62
7
  6
CONTINUOUS
370
-3
390
F
  0
LAYER
  5
212
100
AcDbSymbolTableRecord
100
AcDbLayerTableRecord
  2
RGB____0____0____0__
 70
0
 62
7
  6
CONTINUOUS
370
-3
390
F
  0
LAYER
  5
213
100
AcDbSymbolTableRecord
100
AcDbLayerTableRecord
  2
SIMBOLI
 70
0
 62
7
  6
CONTINUOUS
370
-3
390
F
  0
LAYER
  5
214
100
AcDbSymbolTableRecord
100
AcDbLayerTableRecord
  2
SMUSSO
 70
0
 62
7
  6
CONTINUOUS
370
-3
390
F
  0
LAYER
  5
215
100
AcDbSymbolTableRecord
100
AcDbLayerTableRecord
  2
SNAPLINE
 70
0
 62
7
  6
CONTINUOUS
370
-3
390
F
  0
LAYER
  5
216
100
AcDbSymbolTableRecord
100
AcDbLayerTableRecord
  2
SUPERFICI
 70
0
 62
7
  6
CONTINUOUS
370
-3
390
F
  0
LAYER
  5
217
100
AcDbSymbolTableRecord
100
AcDbLayerTableRecord
  2
TRASH
 70
0
 62
7
  6
CONTINUOUS
370
-3
390
F
  0
LAYER
  5
218
100
AcDbSymbolTableRecord
100
AcDbLayerTableRecord
  2
XSEC_DATUMS
 70
0
 62
7
  6
CONTINUOUS
370
-3
390
F
  0
ENDTAB
  0
TABLE
  2
STYLE
  5
3
100
AcDbSymbolTable
 70
1
  0
STYLE
  5
11
100
AcDbSymbolTableRecord
100
AcDbTextStyleTableRecord
  2
STANDARD
 70
0
 40
0.0
 41
0.8
 50
0.0
 71
0
 42
0.2
  3
txt
  4

  0
STYLE
  5
219
100
AcDbSymbolTableRecord
100
AcDbTextStyleTableRecord
  2
TEXTSTYLE_1
 70
0
 40
0.0
 41
0.8
 50
0.0
 71
0
 42
0.2
  3
gdt
  4

  0
ENDTAB
  0
TABLE
  2
VIEW
  5
6
100
AcDbSymbolTable
 70
0
  0
ENDTAB
  0
TABLE
  2
UCS
  5
7
100
AcDbSymbolTable
 70
0
  0
ENDTAB
  0
TABLE
  2
APPID
  5
9
100
AcDbSymbolTable
 70
1
  0
APPID
  5
21A
100
AcDbSymbolTableRecord
100
AcDbRegAppTableRecord
  2
ACAD
 70
0
  0
ENDTAB
  0
TABLE
  2
BLOCK_RECORD
  5
1
100
AcDbSymbolTable
 70
0
  0
BLOCK_RECORD
  5
21B
100
AcDbSymbolTableRecord
100
AcDbBlockTableRecord
  2
*Model_Space
  0
BLOCK_RECORD
  5
21C
100
AcDbSymbolTableRecord
100
AcDbBlockTableRecord
  2
*Paper_Space
  0
BLOCK_RECORD
  5
21D
100
AcDbSymbolTableRecord
100
AcDbBlockTableRecord
  2
_FILLED
  0
ENDTAB
  0
TABLE
  2
DIMSTYLE
  5
A
100
AcDbSymbolTable
 70
1
100
AcDbDimStyleTable
 71
0
  0
DIMSTYLE
105
21E
100
AcDbSymbolTableRecord
100
AcDbDimStyleTableRecord
  2
STANDARD
 70
0
  3

  4

 40
1.0
 41
3.0
 42
0.5
 43
0.38
 44
1.5
 45
0.0
 46
0.0
 47
0.01
 48
0.01
140
3.0
141
0.09
142
0.0
143
25.4
144
1.0
145
0.0
146
1.0
147
0.625
 71
1
 72
0
 73
0
 74
0
 75
0
 76
0
 77
1
 78
8
 79
2
170
0
171
1
172
0
173
0
174
0
175
0
176
0
177
0
178
0
270
2
179
2
271
2
272
2
273
2
274
2
275
0
280
0
281
0
282
0
283
1
284
8
285
0
286
0
287
3
288
0
340
11
278
44
341
21D
342
21D
343
21D
344
21D
  0
ENDTAB
  0
ENDSEC
  0
SECTION
  2
BLOCKS
  0
BLOCK
  5
20
100
AcDbEntity
  8
0
100
AcDbBlockBegin
  2
*Model_Space
 70
0
 10
0.0
 20
0.0
 30
0.0
  3
*Model_Space
  1

  0
ENDBLK
  5
21
100
AcDbEntity
  8
0
100
AcDbBlockEnd
  0
BLOCK
  5
1C
100
AcDbEntity
  8
0
100
AcDbBlockBegin
  2
*Paper_Space
 70
0
 10
0.0
 20
0.0
 30
0.0
  3
*Paper_Space
  1

  0
ENDBLK
  5
1D
100
AcDbEntity
  8
0
100
AcDbBlockEnd
  0
BLOCK
  5
21F
100
AcDbEntity
  8
0
100
AcDbBlockBegin
  2
_FILLED
 70
64
 10
0.0
 20
0.0
  3
_FILLED
  1

  0
SOLID
  5
220
100
AcDbEntity
  8
0
  6
BYBLOCK
 62
0
100
AcDbTrace
 10
0.0
 20
0.0
 11
-1.0
 21
0.3166666667
 12
-1.0
 22
-0.3166666667
 13
-1.0
 23
-0.3166666667
  0
ENDBLK
  5
221
100
AcDbEntity
  8
0
  6
BYBLOCK
 62
0
100
AcDbBlockEnd
  0
ENDSEC
  0
SECTION
  2
ENTITIES
  0
LWPOLYLINE
  5
222
100
AcDbEntity
  8
RACCORDO
100
AcDbPolyline
 62
250
  6
CONTINUOUS
 90
28
 70
0
 10
-73.3017608133
 20
52.9504674771
 10
-73.2915584218
 20
53.0139272759
 10
-73.2775955121
 20
53.0759718793
 10
-73.259994325
 20
53.1367083978
 10
-73.2386369393
 20
53.1967222102
 10
-73.2134324741
 20
53.256127075
 10
-73.1845198343
 20
53.3144753649
 10
-73.1520293611
 20
53.3714908865
 10
-73.1160842551
 20
53.4269772769
 10
-73.0767553675
 20
53.4808416429
 10
-73.0341258299
 20
53.532975225
 10
-72.9882993614
 20
53.5832481615
 10
-72.9393999754
 20
53.6315207776
 10
-72.8875472591
 20
53.6776734941
 10
-72.8328412418
 20
53.7216105369
 10
-72.7754527004
 20
53.7631868734
 10
-72.7156301612
 20
53.8022294508
 10
-72.6538743662
 20
53.8384614387
 10
-72.5900436142
 20
53.872016774
 10
-72.5233531782
 20
53.903243943
 10
-72.4536521624
 20
53.9320461511
 10
-72.3812983643
 20
53.9581145565
 10
-72.3061915063
 20
53.9813311425
 10
-72.2282542032
 20
54.0015284407
 10
-72.1478714013
 20
54.0184133023
 10
-72.0656738142
 20
54.0317115366
 10
-71.9820383889
 20
54.0412629699
 10
-71.8970676421
 20
54.0469560706
  0
LINE
  5
223
100
AcDbEntity
  8
RACCORDO
100
AcDbLine
 62
7
  6
CONTINUOUS
 10
-73.9460342356
 20
-27.7913154514
 11
-73.9460342356
 21
42.8965058586
  0
LINE
  5
224
100
AcDbEntity
  8
RACCORDO
100
AcDbLine
 62
7
  6
CONTINUOUS
 10
-73.9439008917
 20
42.9613349581
 11
-73.9460342356
 21
42.8965058586
  0
LINE
  5
225
100
AcDbEntity
  8
RACCORDO
100
AcDbLine
 62
7
  6
CONTINUOUS
 10
-71.8761926966
 20
42.2652398812
 11
-71.8758812873
 21
42.2739702962
  0
LINE
  5
226
100
AcDbEntity
  8
RACCORDO
100
AcDbLine
 62
7
  6
CONTINUOUS
 10
-71.848256081
 20
37.0770566617
 11
-71.5264291798
 21
42.428970489
  0
LINE
  5
227
100
AcDbEntity
  8
SMUSSO
100
AcDbLine
 62
7
  6
CONTINUOUS
 10
-71.45
 20
38.2385067976
 11
-71.5023917906
 21
37.3672423147
  0
LINE
  5
228
100
AcDbEntity
  8
SMUSSO
100
AcDbLine
 62
7
  6
CONTINUOUS
 10
-71.45
 20
37.4193547533
 11
-71.5023917906
 21
36.5695405199
  0
LINE
  5
229
100
AcDbEntity
  8
RACCORDO
100
AcDbLine
 62
7
  6
CONTINUOUS
 10
-73.3079875062
 20
52.886057227
 11
-73.9439648519
 21
42.9610437126
  0
LINE
  5
22A
100
AcDbEntity
  8
RACCORDO
100
AcDbLine
 62
250
  6
CONTINUOUS
 10
-71.8110243751
 20
54.0486636841
 11
-72.4469479951
 21
44.1244854171
  0
LINE
  5
22B
100
AcDbEntity
  8
RACCORDO
100
AcDbLine
 62
250
  6
CONTINUOUS
 10
-71.8761926966
 20
42.2652398812
 11
-71.8756342814
 21
42.2739544685
  0
LINE
  5
22C
100
AcDbEntity
  8
RACCORDO
100
AcDbLine
 62
250
  6
CONTINUOUS
 10
-73.3079875062
 20
52.886057227
 11
-73.3017608133
 21
52.9504674771
  0
LINE
  5
22D
100
AcDbEntity
  8
SMUSSO
100
AcDbLine
 62
7
  6
CONTINUOUS
 10
-71.769841539
 20
37.0770566617
 11
-71.5023917906
 21
37.3672423147
  0
LINE
  5
22E
100
AcDbEntity
  8
SMUSSO
100
AcDbLine
 62
7
  6
CONTINUOUS
 10
-71.5023917906
 20
36.5695405199
 11
-71.769841539
 21
36.2864991438
  0
LWPOLYLINE
  5
22F
100
AcDbEntity
  8
RACCORDO
100
AcDbPolyline
 62
250
  6
CONTINUOUS
 90
4
 70
0
 10
-71.3
 20
-17.3812858057
 10
-71.303666241
 20
-17.3680587903
 10
-71.3059597842
 20
-17.3542081229
 10
-71.3067404104
 20
-17.3402820514
  0
LWPOLYLINE
  5
230
100
AcDbEntity
  8
0
100
AcDbPolyline
 62
250
  6
CONTINUOUS
 90
31
 70
0
 10
-68.2070731083
 20
-18.8755520757
 10
-68.2060369542
 20
-18.9019330409
 10
-68.2037471834
 20
-18.927845127
 10
-68.200203796
 20
-18.953288334
 10
-68.1953990412
 20
-18.978226095
 10
-68.1893406697
 20
-19.0026949769
 10
-68.1820519334
 20
-19.0268046807
 10
-68.1735110061
 20
-19.050669396
 10
-68.163739714
 20
-19.0741749331
 10
-68.152826788
 20
-19.097088424
 10
-68.140769614
 20
-19.1193839447
 10
-68.127570806
 20
-19.1410874191
 10
-68.1133269373
 20
-19.1620437515
 10
-68.0980294079
 20
-19.1822507004
 10
-68.0816868177
 20
-19.2017105073
 10
-68.0644215395
 20
-19.2202748012
 10
-68.0462131933
 20
-19.2379445364
 10
-68.027082159
 20
-19.2547187586
 10
-68.0072119494
 20
-19.270446234
 10
-67.986720941
 20
-19.285066177
 10
-67.9654907572
 20
-19.2986393732
 10
-67.9433497814
 20
-19.3111969453
 10
-67.9202233699
 20
-19.3228201138
 10
-67.8961861663
 20
-19.3334276581
 10
-67.8712904843
 20
-19.3428070393
 10
-67.8454406475
 20
-19.3509733331
 10
-67.8187323322
 20
-19.3579114637
 10
-67.7915048811
 20
-19.3633636654
 10
-67.7638714082
 20
-19.3672440163
 10
-67.7357187995
 20
-19.3696384382
 10
-67.7070470548
 20
-19.3705469311
  0
LWPOLYLINE
  5
231
100
AcDbEntity
  8
0
100
AcDbPolyline
 62
7
  6
CONTINUOUS
 90
31
 70
0
 10
-69.2069208034
 20
-18.8855623648
 10
-69.2040574084
 20
-18.9643939306
 10
-69.1971426701
 20
-19.0421969578
 10
-69.1863156739
 20
-19.1187711397
 10
-69.1717886686
 20
-19.1936349195
 10
-69.1536804351
 20
-19.2669170706
 10
-69.1318675083
 20
-19.3393201799
 10
-69.1062579844
 20
-19.410986921
 10
-69.0769930846
 20
-19.4813824205
 10
-69.0442040181
 20
-19.5501714098
 10
-69.0080133676
 20
-19.6171199947
 10
-68.9684911419
 20
-19.6821197192
 10
-68.9257206141
 20
-19.7450373922
 10
-68.8798049149
 20
-19.8057181981
 10
-68.8308666676
 20
-19.8639971913
 10
-68.7790244136
 20
-19.9197305412
 10
-68.7243759067
 20
-19.9728043855
 10
-68.6670909755
 20
-20.0230454616
 10
-68.60741903
 20
-20.0702448395
 10
-68.545861818
 20
-20.1140668804
 10
-68.4822725451
 20
-20.1546748431
 10
-68.4158586344
 20
-20.1924969738
 10
-68.3464670485
 20
-20.2274235714
 10
-68.2744535695
 20
-20.2590813759
 10
-68.1997101986
 20
-20.2873272555
 10
-68.1221538372
 20
-20.3119610354
 10
-68.0421689922
 20
-20.3326295665
 10
-67.9603860109
 20
-20.3489971344
 10
-67.877179277
 20
-20.360866717
 10
-67.7926466228
 20
-20.3681023458
 10
-67.7070470548
 20
-20.3705469311
  0
LINE
  5
232
100
AcDbEntity
  8
0
100
AcDbLine
 62
7
  6
CONTINUOUS
 10
-71.2996726008
 20
-19.4166378698
 11
-71.2654163492
 21
-20.5142431107
  0
LINE
  5
233
100
AcDbEntity
  8
0
100
AcDbLine
 62
250
  6
CONTINUOUS
 10
-71.3
 20
-19.3956767529
 11
-71.2993461217
 21
-19.4166276804
  0
LINE
  5
234
100
AcDbEntity
  8
0
100
AcDbLine
 62
7
  6
CONTINUOUS
 10
-71.2650898701
 20
-11.62630848
 11
-71.3
 21
-10.5077523115
  0
LINE
  5
235
100
AcDbEntity
  8
0
100
AcDbLine
 62
7
  6
CONTINUOUS
 10
-71.2650898701
 20
15.4057089816
 11
-71.3
 21
16.52426515
  0
LINE
  5
236
100
AcDbEntity
  8
0
100
AcDbLine
 62
7
  6
CONTINUOUS
 10
-70.0349101299
 20
-11.9822259912
 11
-70.0
 21
-13.1579755682
  0
LINE
  5
237
100
AcDbEntity
  8
0
100
AcDbLine
 62
7
  6
CONTINUOUS
 10
-70.0349101299
 20
15.0497914703
 11
-70.0
 21
13.8740418934
  0
LINE
  5
238
100
AcDbEntity
  8
0
100
AcDbLine
 62
7
  6
CONTINUOUS
 10
-70.0349101299
 20
42.0818089319
 11
-70.0
 21
40.9060593549
  0
LINE
  5
239
100
AcDbEntity
  8
0
100
AcDbLine
 62
250
  6
CONTINUOUS
 10
-69.9251850268
 20
42.428970489
 11
-69.7676818115
 21
37.1243686589
  0
LINE
  5
23A
100
AcDbEntity
  8
0
100
AcDbLine
 62
250
  6
CONTINUOUS
 10
-68.3889358837
 20
42.428970489
 11
-68.2740960254
 21
38.5612416863
  0
LINE
  5
23B
100
AcDbEntity
  8
0
100
AcDbLine
 62
7
  6
CONTINUOUS
 10
-71.2996322632
 20
-19.4168313003
 11
-71.3
 21
-19.3956767529
  0
LINE
  5
23C
100
AcDbEntity
  8
0
100
AcDbLine
 62
7
  6
CONTINUOUS
 10
-71.2650898701
 20
-20.5142329213
 11
-71.2647221333
 21
-20.5353874687
  0
LINE
  5
23D
100
AcDbEntity
  8
0
100
AcDbLine
 62
250
  6
CONTINUOUS
 10
-69.2069208034
 20
-18.8855623648
 11
-69.7676818115
 21
37.1243686589
  0
LINE
  5
23E
100
AcDbEntity
  8
0
100
AcDbLine
 62
250
  6
CONTINUOUS
 10
-68.7678341164
 20
37.134378948
 11
-68.2808659985
 21
-11.5049706099
  0
LINE
  5
23F
100
AcDbEntity
  8
0
100
AcDbLine
 62
250
  6
CONTINUOUS
 10
-68.2595425854
 20
-13.63479576
 11
-68.2070731083
 21
-18.8755520757
  0
LINE
  5
240
100
AcDbEntity
  8
RACCORDO
100
AcDbLine
 62
7
  6
CONTINUOUS
 10
-71.8761926966
 20
42.2652398812
 11
-71.8761926966
 21
-27.1600494741
  0
LINE
  5
241
100
AcDbEntity
  8
DRAFT
100
AcDbLine
 62
7
  6
CONTINUOUS
 10
-71.848256081
 20
37.0770566617
 11
-71.848256081
 21
36.2864991438
  0
LINE
  5
242
100
AcDbEntity
  8
DRAFT
100
AcDbLine
 62
7
  6
CONTINUOUS
 10
-71.848256081
 20
10.0450392002
 11
-71.848256081
 21
9.2544816823
  0
LINE
  5
243
100
AcDbEntity
  8
DRAFT
100
AcDbLine
 62
7
  6
CONTINUOUS
 10
-71.848256081
 20
-16.9869782613
 11
-71.848256081
 21
-17.7775357793
  0
LINE
  5
244
100
AcDbEntity
  8
RACCORDO
100
AcDbLine
 62
250
  6
CONTINUOUS
 10
-71.8110243751
 20
54.0970625137
 11
-71.8110243751
 21
54.0486636841
  0
LINE
  5
245
100
AcDbEntity
  8
SMUSSO
100
AcDbLine
 62
7
  6
CONTINUOUS
 10
-71.769841539
 20
-17.7775357793
 11
-71.769841539
 21
-16.9869782613
  0
LINE
  5
246
100
AcDbEntity
  8
SMUSSO
100
AcDbLine
 62
7
  6
CONTINUOUS
 10
-71.769841539
 20
9.2544816823
 11
-71.769841539
 21
10.0450392002
  0
LINE
  5
247
100
AcDbEntity
  8
SMUSSO
100
AcDbLine
 62
7
  6
CONTINUOUS
 10
-71.769841539
 20
36.2864991438
 11
-71.769841539
 21
37.0770566617
  0
LINE
  5
248
100
AcDbEntity
  8
SMUSSO
100
AcDbLine
 62
7
  6
CONTINUOUS
 10
-71.5023917906
 20
-17.4944944031
 11
-71.5023917906
 21
-16.6967926084
  0
LINE
  5
249
100
AcDbEntity
  8
SMUSSO
100
AcDbLine
 62
7
  6
CONTINUOUS
 10
-71.5023917906
 20
9.5375230584
 11
-71.5023917906
 21
10.3352248532
  0
LINE
  5
24A
100
AcDbEntity
  8
SMUSSO
100
AcDbLine
 62
7
  6
CONTINUOUS
 10
-71.5023917906
 20
36.5695405199
 11
-71.5023917906
 21
37.3672423147
  0
LINE
  5
24B
100
AcDbEntity
  8
DRAFT
100
AcDbLine
 62
7
  6
CONTINUOUS
 10
-71.45
 20
-16.6446801697
 11
-71.45
 21
-15.8255281255
  0
LINE
  5
24C
100
AcDbEntity
  8
DRAFT
100
AcDbLine
 62
7
  6
CONTINUOUS
 10
-71.45
 20
10.3873372918
 11
-71.45
 21
11.2064893361
  0
LINE
  5
24D
100
AcDbEntity
  8
DRAFT
100
AcDbLine
 62
7
  6
CONTINUOUS
 10
-71.45
 20
37.4193547533
 11
-71.45
 21
38.2385067976
  0
LINE
  5
24E
100
AcDbEntity
  8
RACCORDO
100
AcDbLine
 62
250
  6
CONTINUOUS
 10
-71.3067404104
 20
-17.3402820514
 11
-71.3067404104
 21
-16.6446801697
  0
LINE
  5
24F
100
AcDbEntity
  8
RACCORDO
100
AcDbLine
 62
250
  6
CONTINUOUS
 10
-71.3067404104
 20
-7.9816863057
 11
-71.3067404104
 21
10.3873372918
  0
LINE
  5
250
100
AcDbEntity
  8
RACCORDO
100
AcDbLine
 62
250
  6
CONTINUOUS
 10
-71.3067404104
 20
19.0503311558
 11
-71.3067404104
 21
37.4193547533
  0
LINE
  5
251
100
AcDbEntity
  8
0
100
AcDbLine
 62
7
  6
CONTINUOUS
 10
-71.3
 20
-19.3956767529
 11
-71.3
 21
-16.6446801697
  0
LINE
  5
252
100
AcDbEntity
  8
0
100
AcDbLine
 62
7
  6
CONTINUOUS
 10
-71.3
 20
-10.5077523115
 11
-71.3
 21
10.3873372918
  0
LINE
  5
253
100
AcDbEntity
  8
0
100
AcDbLine
 62
7
  6
CONTINUOUS
 10
-71.3
 20
16.52426515
 11
-71.3
 21
37.4193547533
  0
LINE
  5
254
100
AcDbEntity
  8
0
100
AcDbLine
 62
7
  6
CONTINUOUS
 10
-71.2650898701
 20
-20.5142329213
 11
-71.2650898701
 21
-16.6446801697
  0
LINE
  5
255
100
AcDbEntity
  8
0
100
AcDbLine
 62
7
  6
CONTINUOUS
 10
-71.2650898701
 20
-11.62630848
 11
-71.2650898701
 21
10.3873372918
  0
LINE
  5
256
100
AcDbEntity
  8
0
100
AcDbLine
 62
7
  6
CONTINUOUS
 10
-71.2650898701
 20
15.4057089816
 11
-71.2650898701
 21
37.4193547533
  0
LINE
  5
257
100
AcDbEntity
  8
RACCORDO
100
AcDbLine
 62
7
  6
CONTINUOUS
 10
-70.35
 20
-16.4808684747
 11
-70.35
 21
-15.9893398206
  0
LINE
  5
258
100
AcDbEntity
  8
RACCORDO
100
AcDbLine
 62
7
  6
CONTINUOUS
 10
-70.35
 20
10.5511489869
 11
-70.35
 21
11.042677641
  0
LINE
  5
259
100
AcDbEntity
  8
RACCORDO
100
AcDbLine
 62
7
  6
CONTINUOUS
 10
-70.35
 20
37.5831664484
 11
-70.35
 21
38.0746951025
  0
LINE
  5
25A
100
AcDbEntity
  8
0
100
AcDbLine
 62
7
  6
CONTINUOUS
 10
-70.0349101299
 20
42.428970489
 11
-70.0349101299
 21
42.0818089319
  0
LINE
  5
25B
100
AcDbEntity
  8
0
100
AcDbLine
 62
7
  6
CONTINUOUS
 10
-70.0349101299
 20
15.4057089816
 11
-70.0349101299
 21
15.0497914703
  0
LINE
  5
25C
100
AcDbEntity
  8
0
100
AcDbLine
 62
7
  6
CONTINUOUS
 10
-70.0349101299
 20
-11.62630848
 11
-70.0349101299
 21
-11.9822259912
  0
LINE
  5
25D
100
AcDbEntity
  8
0
100
AcDbLine
 62
7
  6
CONTINUOUS
 10
-70.0
 20
-18.8855623648
 11
-70.0
 21
-13.1579755682
  0
LINE
  5
25E
100
AcDbEntity
  8
0
100
AcDbLine
 62
7
  6
CONTINUOUS
 10
-70.0
 20
-11.62630848
 11
-70.0
 21
13.8740418934
  0
LINE
  5
25F
100
AcDbEntity
  8
0
100
AcDbLine
 62
7
  6
CONTINUOUS
 10
-70.0
 20
15.4057089816
 11
-70.0
 21
40.9060593549
  0
LINE
  5
260
100
AcDbEntity
  8
0
100
AcDbLine
 62
250
  6
CONTINUOUS
 10
-68.2740960254
 20
37.752224692
 11
-68.2740960254
 21
38.5612416863
  0
LINE
  5
261
100
AcDbEntity
  8
0
100
AcDbLine
 62
250
  6
CONTINUOUS
 10
-67.7070470548
 20
-19.3705469311
 11
-67.7070470548
 21
-20.3705469311
  0
LINE
  5
262
100
AcDbEntity
  8
RACCORDO
100
AcDbLine
 62
7
  6
CONTINUOUS
 10
-70.350083572
 20
37.5789532954
 11
-70.35
 21
37.5831664484
  0
LINE
  5
263
100
AcDbEntity
  8
RACCORDO
100
AcDbLine
 62
7
  6
CONTINUOUS
 10
-70.350083572
 20
10.5469358339
 11
-70.35
 21
10.5511489869
  0
LINE
  5
264
100
AcDbEntity
  8
RACCORDO
100
AcDbLine
 62
7
  6
CONTINUOUS
 10
-70.350083572
 20
-16.4850816276
 11
-70.35
 21
-16.4808684747
  0
LINE
  5
265
100
AcDbEntity
  8
RACCORDO
100
AcDbLine
 62
250
  6
CONTINUOUS
 10
-70.5500000012
 20
38.2385067976
 11
-70.4240457074
 21
42.428970489
  0
LINE
  5
266
100
AcDbEntity
  8
RACCORDO
100
AcDbLine
 62
250
  6
CONTINUOUS
 10
-70.35
 20
38.0746951025
 11
-70.2191219584
 21
42.428970489
  0
LINE
  5
267
100
AcDbEntity
  8
RACCORDO
100
AcDbLine
 62
250
  6
CONTINUOUS
 10
-70.5500000012
 20
11.2064893361
 11
-70.4237825265
 21
15.4057089816
  0
LINE
  5
268
100
AcDbEntity
  8
RACCORDO
100
AcDbLine
 62
250
  6
CONTINUOUS
 10
-70.35
 20
11.042677641
 11
-70.2188587775
 21
15.4057089816
  0
LINE
  5
269
100
AcDbEntity
  8
RACCORDO
100
AcDbLine
 62
250
  6
CONTINUOUS
 10
-70.5500000012
 20
-15.8255281255
 11
-70.4237825265
 21
-11.62630848
  0
LINE
  5
26A
100
AcDbEntity
  8
RACCORDO
100
AcDbLine
 62
250
  6
CONTINUOUS
 10
-70.35
 20
-15.9893398206
 11
-70.2188587775
 21
-11.62630848
  0
LINE
  5
26B
100
AcDbEntity
  8
RACCORDO
100
AcDbLine
 62
7
  6
CONTINUOUS
 10
-70.3500638746
 20
37.579026384
 11
-70.2006077771
 21
42.428970489
  0
LINE
  5
26C
100
AcDbEntity
  8
RACCORDO
100
AcDbLine
 62
7
  6
CONTINUOUS
 10
-70.3500638746
 20
10.5470089225
 11
-70.2003379532
 21
15.4057089816
  0
LINE
  5
26D
100
AcDbEntity
  8
RACCORDO
100
AcDbLine
 62
7
  6
CONTINUOUS
 10
-70.3500638746
 20
-16.485008539
 11
-70.2003379532
 21
-11.62630848
  0
LINE
  5
26E
100
AcDbEntity
  8
RACCORDO
100
AcDbLine
 62
250
  6
CONTINUOUS
 10
-71.8761926966
 20
-27.1600494741
 11
-71.3067404104
 21
-17.3402820514
  0
LINE
  5
26F
100
AcDbEntity
  8
RACCORDO
100
AcDbLine
 62
250
  6
CONTINUOUS
 10
-71.6763145312
 20
-27.3237800819
 11
-71.2710181603
 21
-20.3347553706
  0
LINE
  5
270
100
AcDbEntity
  8
RACCORDO
100
AcDbLine
 62
7
  6
CONTINUOUS
 10
-71.848256081
 20
10.0450392002
 11
-71.3067404104
 21
19.0503311558
  0
LINE
  5
271
100
AcDbEntity
  8
SMUSSO
100
AcDbLine
 62
7
  6
CONTINUOUS
 10
-71.45
 20
11.2064893361
 11
-71.5023917906
 21
10.3352248532
  0
LINE
  5
272
100
AcDbEntity
  8
RACCORDO
100
AcDbLine
 62
7
  6
CONTINUOUS
 10
-71.848256081
 20
-16.9869782613
 11
-71.3067404104
 21
-7.9816863057
  0
LINE
  5
273
100
AcDbEntity
  8
SMUSSO
100
AcDbLine
 62
7
  6
CONTINUOUS
 10
-71.45
 20
-15.8255281255
 11
-71.5023917906
 21
-16.6967926084
  0
LINE
  5
274
100
AcDbEntity
  8
SMUSSO
100
AcDbLine
 62
7
  6
CONTINUOUS
 10
-71.45
 20
10.3873372918
 11
-71.5023917906
 21
9.5375230584
  0
LINE
  5
275
100
AcDbEntity
  8
SMUSSO
100
AcDbLine
 62
7
  6
CONTINUOUS
 10
-71.45
 20
-16.6446801697
 11
-71.5023917906
 21
-17.4944944031
  0
LWPOLYLINE
  5
276
100
AcDbEntity
  8
0
100
AcDbPolyline
 62
7
  6
CONTINUOUS
 90
10
 70
0
 10
-68.2808659422
 20
-11.5049762369
 10
-68.3090812539
 20
-11.732401437
 10
-68.3296095089
 20
-11.964513357
 10
-68.3424586856
 20
-12.2013120769
 10
-68.3476133621
 20
-12.4459732599
 10
-68.3451168613
 20
-12.6953215222
 10
-68.3350646147
 20
-12.9398303661
 10
-68.3174769211
 20
-13.1763241774
 10
-68.2923055812
 20
-13.407978291
 10
-68.2595426168
 20
-13.6347926272
  0
LWPOLYLINE
  5
277
100
AcDbEntity
  8
RACCORDO
100
AcDbPolyline
 62
250
  6
CONTINUOUS
 90
4
 70
0
 10
-71.3
 20
-17.3148853177
 10
-71.3012572721
 20
-17.3173178655
 10
-71.305018006
 20
-17.328742859
 10
-71.3067404104
 20
-17.3402820513
  0
LINE
  5
278
100
AcDbEntity
  8
SMUSSO
100
AcDbLine
 62
7
  6
CONTINUOUS
 10
-71.769841539
 20
10.0450392002
 11
-71.5023917906
 21
10.3352248532
  0
LINE
  5
279
100
AcDbEntity
  8
SMUSSO
100
AcDbLine
 62
7
  6
CONTINUOUS
 10
-71.5023917906
 20
9.5375230584
 11
-71.769841539
 21
9.2544816823
  0
LINE
  5
27A
100
AcDbEntity
  8
0
100
AcDbLine
 62
7
  6
CONTINUOUS
 10
-51.5650898701
 20
-21.3332602048
 11
-51.5951361444
 21
-20.3705469311
  0
LINE
  5
27B
100
AcDbEntity
  8
RACCORDO
100
AcDbLine
 62
250
  6
CONTINUOUS
 10
-53.0
 20
-24.5904550003
 11
-53.0626435774
 21
-20.3705469311
  0
LINE
  5
27C
100
AcDbEntity
  8
RACCORDO
100
AcDbLine
 62
250
  6
CONTINUOUS
 10
-52.8000228453
 20
-24.4266245905
 11
-52.8602343974
 21
-20.3705469311
  0
LINE
  5
27D
100
AcDbEntity
  8
RACCORDO
100
AcDbLine
 62
7
  6
CONTINUOUS
 10
-52.9825462644
 20
-26.842034597
 11
-53.0763315831
 21
-20.3705469311
  0
LINE
  5
27E
100
AcDbEntity
  8
SMUSSO
100
AcDbLine
 62
7
  6
CONTINUOUS
 10
-53.0
 20
-25.3686494414
 11
-52.9869070402
 21
-26.272105642
  0
LINE
  5
27F
100
AcDbEntity
  8
SMUSSO
100
AcDbLine
 62
7
  6
CONTINUOUS
 10
-52.9825462644
 20
-26.7778011646
 11
-52.9869070402
 21
-26.272105642
  0
LINE
  5
280
100
AcDbEntity
  8
0
100
AcDbLine
 62
7
  6
CONTINUOUS
 10
-53.4349101299
 20
-21.3332602048
 11
-53.4349101299
 21
-20.3705469311
  0
LINE
  5
281
100
AcDbEntity
  8
RACCORDO
100
AcDbLine
 62
7
  6
CONTINUOUS
 10
-53.0
 20
-24.5904550003
 11
-53.0
 21
-25.3686494414
  0
LINE
  5
282
100
AcDbEntity
  8
SMUSSO
100
AcDbLine
 62
7
  6
CONTINUOUS
 10
-52.9825462644
 20
-26.7778011646
 11
-52.9825462644
 21
-26.842034597
  0
LINE
  5
283
100
AcDbEntity
  8
SMUSSO
100
AcDbLine
 62
7
  6
CONTINUOUS
 10
-52.0174537356
 20
-26.842034597
 11
-52.0174537356
 21
-26.7778011646
  0
LINE
  5
284
100
AcDbEntity
  8
RACCORDO
100
AcDbLine
 62
7
  6
CONTINUOUS
 10
-52.0
 20
-25.3686494414
 11
-52.0
 21
-24.5904550003
  0
LINE
  5
285
100
AcDbEntity
  8
0
100
AcDbLine
 62
7
  6
CONTINUOUS
 10
-51.5650898701
 20
-21.3332602048
 11
-51.5650898701
 21
-20.3705469311
  0
LINE
  5
286
100
AcDbEntity
  8
SMUSSO
100
AcDbLine
 62
7
  6
CONTINUOUS
 10
-52.0130929598
 20
-26.272105642
 11
-52.0174537356
 21
-26.7778011646
  0
LINE
  5
287
100
AcDbEntity
  8
SMUSSO
100
AcDbLine
 62
7
  6
CONTINUOUS
 10
-52.0
 20
-25.3686494414
 11
-52.0130929598
 21
-26.272105642
  0
LINE
  5
288
100
AcDbEntity
  8
RACCORDO
100
AcDbLine
 62
7
  6
CONTINUOUS
 10
-51.9236684169
 20
-20.3705469311
 11
-52.0174537356
 21
-26.842034597
  0
LINE
  5
289
100
AcDbEntity
  8
RACCORDO
100
AcDbLine
 62
250
  6
CONTINUOUS
 10
-52.1999771547
 20
-24.4266245905
 11
-52.1397656026
 21
-20.3705469311
  0
LINE
  5
28A
100
AcDbEntity
  8
RACCORDO
100
AcDbLine
 62
250
  6
CONTINUOUS
 10
-52.0
 20
-24.5904550003
 11
-51.9373564226
 21
-20.3705469311
  0
LINE
  5
28B
100
AcDbEntity
  8
0
100
AcDbLine
 62
7
  6
CONTINUOUS
 10
-53.4349101299
 20
-21.3332602048
 11
-53.4048638556
 21
-20.3705469311
  0
LINE
  5
28C
100
AcDbEntity
  8
0
100
AcDbLine
 62
7
  6
CONTINUOUS
 10
-42.6722210678
 20
20.0878393339
 11
-42.6266222809
 21
29.1975291892
  0
LINE
  5
28D
100
AcDbEntity
  8
0
100
AcDbLine
 62
7
  6
CONTINUOUS
 10
-42.5612763561
 20
27.4705998859
 11
-42.6722210678
 21
20.0878393339
  0
LINE
  5
28E
100
AcDbEntity
  8
0
100
AcDbLine
 62
7
  6
CONTINUOUS
 10
-39.9387236439
 20
27.4705998859
 11
-39.8277789322
 21
20.0878393339
  0
LINE
  5
28F
100
AcDbEntity
  8
0
100
AcDbLine
 62
7
  6
CONTINUOUS
 10
-39.8733777191
 20
29.1975291892
 11
-39.8277789322
 21
20.0878393339
  0
LINE
  5
290
100
AcDbEntity
  8
SMUSSO
100
AcDbLine
 62
7
  6
CONTINUOUS
 10
-71.769841539
 20
-16.9869782613
 11
-71.5023917906
 21
-16.6967926084
  0
LINE
  5
291
100
AcDbEntity
  8
SMUSSO
100
AcDbLine
 62
7
  6
CONTINUOUS
 10
-71.5023917906
 20
-17.4944944031
 11
-71.769841539
 21
-17.7775357793
  0
LWPOLYLINE
  5
292
100
AcDbEntity
  8
0
100
AcDbPolyline
 62
7
  6
CONTINUOUS
 90
13
 70
0
 10
63.1774006112
 20
-19.3705469311
 10
63.041279445
 20
-19.4079036201
 10
62.9001300821
 20
-19.4426017393
 10
62.7539525226
 20
-19.4746139337
 10
62.6028272291
 20
-19.5040634155
 10
62.4466737389
 20
-19.5308163161
 10
62.2852506639
 20
-19.554484
 10
62.1186837693
 20
-19.5751906238
 10
61.94684729
 20
-19.5928623089
 10
61.7691225418
 20
-19.6068328773
 10
61.5853032967
 20
-19.6169049127
 10
61.3955957828
 20
-19.6233377016
 10
61.2
 20
-19.6261494064
  0
LINE
  5
293
100
AcDbEntity
  8
RACCORDO
100
AcDbLine
 62
7
  6
CONTINUOUS
 10
72.4469479951
 20
-29.0192950099
 11
-72.4469479951
 21
-29.0192950099
  0
LINE
  5
294
100
AcDbEntity
  8
RACCORDO
100
AcDbLine
 62
7
  6
CONTINUOUS
 10
-71.6763145312
 20
-27.3237800819
 11
71.6763145312
 21
-27.3237800819
  0
LINE
  5
295
100
AcDbEntity
  8
DRAFT
100
AcDbLine
 62
7
  6
CONTINUOUS
 10
-52.9825462644
 20
-26.842034597
 11
-52.0174537356
 21
-26.842034597
  0
LINE
  5
296
100
AcDbEntity
  8
DRAFT
100
AcDbLine
 62
7
  6
CONTINUOUS
 10
-19.4825462644
 20
-26.842034597
 11
-18.5174537356
 21
-26.842034597
  0
LINE
  5
297
100
AcDbEntity
  8
DRAFT
100
AcDbLine
 62
7
  6
CONTINUOUS
 10
14.5174537356
 20
-26.842034597
 11
15.4825462644
 21
-26.842034597
  0
LINE
  5
298
100
AcDbEntity
  8
DRAFT
100
AcDbLine
 62
7
  6
CONTINUOUS
 10
48.0174537356
 20
-26.842034597
 11
48.9825462644
 21
-26.842034597
  0
LINE
  5
299
100
AcDbEntity
  8
SMUSSO
100
AcDbLine
 62
7
  6
CONTINUOUS
 10
48.9825462644
 20
-26.7778011646
 11
48.0174537356
 21
-26.7778011646
  0
LINE
  5
29A
100
AcDbEntity
  8
SMUSSO
100
AcDbLine
 62
7
  6
CONTINUOUS
 10
15.4825462644
 20
-26.7778011646
 11
14.5174537356
 21
-26.7778011646
  0
LINE
  5
29B
100
AcDbEntity
  8
SMUSSO
100
AcDbLine
 62
7
  6
CONTINUOUS
 10
-18.5174537356
 20
-26.7778011646
 11
-19.4825462644
 21
-26.7778011646
  0
LINE
  5
29C
100
AcDbEntity
  8
SMUSSO
100
AcDbLine
 62
7
  6
CONTINUOUS
 10
-52.0174537356
 20
-26.7778011646
 11
-52.9825462644
 21
-26.7778011646
  0
LINE
  5
29D
100
AcDbEntity
  8
SMUSSO
100
AcDbLine
 62
7
  6
CONTINUOUS
 10
48.9869070402
 20
-26.272105642
 11
48.0130929598
 21
-26.272105642
  0
LINE
  5
29E
100
AcDbEntity
  8
SMUSSO
100
AcDbLine
 62
7
  6
CONTINUOUS
 10
15.4869070402
 20
-26.272105642
 11
14.5130929598
 21
-26.272105642
  0
LINE
  5
29F
100
AcDbEntity
  8
SMUSSO
100
AcDbLine
 62
7
  6
CONTINUOUS
 10
-18.5130929598
 20
-26.272105642
 11
-19.4869070402
 21
-26.272105642
  0
LINE
  5
2A0
100
AcDbEntity
  8
SMUSSO
100
AcDbLine
 62
7
  6
CONTINUOUS
 10
-52.0130929598
 20
-26.272105642
 11
-52.9869070402
 21
-26.272105642
  0
LINE
  5
2A1
100
AcDbEntity
  8
DRAFT
100
AcDbLine
 62
7
  6
CONTINUOUS
 10
49.0
 20
-25.3686494414
 11
48.0
 21
-25.3686494414
  0
LINE
  5
2A2
100
AcDbEntity
  8
DRAFT
100
AcDbLine
 62
7
  6
CONTINUOUS
 10
15.5
 20
-25.3686494414
 11
14.5
 21
-25.3686494414
  0
LINE
  5
2A3
100
AcDbEntity
  8
DRAFT
100
AcDbLine
 62
7
  6
CONTINUOUS
 10
-18.5
 20
-25.3686494414
 11
-19.5
 21
-25.3686494414
  0
LINE
  5
2A4
100
AcDbEntity
  8
DRAFT
100
AcDbLine
 62
7
  6
CONTINUOUS
 10
-52.0
 20
-25.3686494414
 11
-53.0
 21
-25.3686494414
  0
LINE
  5
2A5
100
AcDbEntity
  8
RACCORDO
100
AcDbLine
 62
7
  6
CONTINUOUS
 10
48.8000228453
 20
-24.4266245905
 11
48.1999771547
 21
-24.4266245905
  0
LINE
  5
2A6
100
AcDbEntity
  8
RACCORDO
100
AcDbLine
 62
7
  6
CONTINUOUS
 10
15.3000228453
 20
-24.4266245905
 11
14.6999771547
 21
-24.4266245905
  0
LINE
  5
2A7
100
AcDbEntity
  8
RACCORDO
100
AcDbLine
 62
7
  6
CONTINUOUS
 10
-18.6999771547
 20
-24.4266245905
 11
-19.3000228453
 21
-24.4266245905
  0
LINE
  5
2A8
100
AcDbEntity
  8
RACCORDO
100
AcDbLine
 62
7
  6
CONTINUOUS
 10
-52.1999771547
 20
-24.4266245905
 11
-52.8000228453
 21
-24.4266245905
  0
LINE
  5
2A9
100
AcDbEntity
  8
0
100
AcDbLine
 62
7
  6
CONTINUOUS
 10
-18.0650898701
 20
-21.3332602048
 11
-18.0951361444
 21
-20.3705469311
  0
LINE
  5
2AA
100
AcDbEntity
  8
RACCORDO
100
AcDbLine
 62
250
  6
CONTINUOUS
 10
-19.5
 20
-24.5904550003
 11
-19.5626435774
 21
-20.3705469311
  0
LINE
  5
2AB
100
AcDbEntity
  8
RACCORDO
100
AcDbLine
 62
250
  6
CONTINUOUS
 10
-19.3000228453
 20
-24.4266245905
 11
-19.3602343974
 21
-20.3705469311
  0
LINE
  5
2AC
100
AcDbEntity
  8
RACCORDO
100
AcDbLine
 62
7
  6
CONTINUOUS
 10
-19.4825462644
 20
-26.842034597
 11
-19.5763315831
 21
-20.3705469311
  0
LINE
  5
2AD
100
AcDbEntity
  8
SMUSSO
100
AcDbLine
 62
7
  6
CONTINUOUS
 10
-19.5
 20
-25.3686494414
 11
-19.4869070402
 21
-26.272105642
  0
LINE
  5
2AE
100
AcDbEntity
  8
SMUSSO
100
AcDbLine
 62
7
  6
CONTINUOUS
 10
-19.4825462644
 20
-26.7778011646
 11
-19.4869070402
 21
-26.272105642
  0
LINE
  5
2AF
100
AcDbEntity
  8
0
100
AcDbLine
 62
7
  6
CONTINUOUS
 10
-19.9349101299
 20
-21.3332602048
 11
-19.9349101299
 21
-20.3705469311
  0
LINE
  5
2B0
100
AcDbEntity
  8
RACCORDO
100
AcDbLine
 62
7
  6
CONTINUOUS
 10
-19.5
 20
-24.5904550003
 11
-19.5
 21
-25.3686494414
  0
LINE
  5
2B1
100
AcDbEntity
  8
SMUSSO
100
AcDbLine
 62
7
  6
CONTINUOUS
 10
-19.4825462644
 20
-26.7778011646
 11
-19.4825462644
 21
-26.842034597
  0
LINE
  5
2B2
100
AcDbEntity
  8
SMUSSO
100
AcDbLine
 62
7
  6
CONTINUOUS
 10
-18.5174537356
 20
-26.842034597
 11
-18.5174537356
 21
-26.7778011646
  0
LINE
  5
2B3
100
AcDbEntity
  8
RACCORDO
100
AcDbLine
 62
7
  6
CONTINUOUS
 10
-18.5
 20
-25.3686494414
 11
-18.5
 21
-24.5904550003
  0
LINE
  5
2B4
100
AcDbEntity
  8
0
100
AcDbLine
 62
7
  6
CONTINUOUS
 10
-18.0650898701
 20
-21.3332602048
 11
-18.0650898701
 21
-20.3705469311
  0
LINE
  5
2B5
100
AcDbEntity
  8
SMUSSO
100
AcDbLine
 62
7
  6
CONTINUOUS
 10
-18.5130929598
 20
-26.272105642
 11
-18.5174537356
 21
-26.7778011646
  0
LINE
  5
2B6
100
AcDbEntity
  8
SMUSSO
100
AcDbLine
 62
7
  6
CONTINUOUS
 10
-18.5
 20
-25.3686494414
 11
-18.5130929598
 21
-26.272105642
  0
LINE
  5
2B7
100
AcDbEntity
  8
RACCORDO
100
AcDbLine
 62
7
  6
CONTINUOUS
 10
-18.4236684169
 20
-20.3705469311
 11
-18.5174537356
 21
-26.842034597
  0
LINE
  5
2B8
100
AcDbEntity
  8
RACCORDO
100
AcDbLine
 62
250
  6
CONTINUOUS
 10
-18.6999771547
 20
-24.4266245905
 11
-18.6397656026
 21
-20.3705469311
  0
LINE
  5
2B9
100
AcDbEntity
  8
RACCORDO
100
AcDbLine
 62
250
  6
CONTINUOUS
 10
-18.5
 20
-24.5904550003
 11
-18.4373564226
 21
-20.3705469311
  0
LINE
  5
2BA
100
AcDbEntity
  8
0
100
AcDbLine
 62
7
  6
CONTINUOUS
 10
-19.9349101299
 20
-21.3332602048
 11
-19.9048638556
 21
-20.3705469311
  0
LWPOLYLINE
  5
2BB
100
AcDbEntity
  8
0
100
AcDbPolyline
 62
250
  6
CONTINUOUS
 90
31
 70
0
 10
67.7070470548
 20
-19.3705469311
 10
67.7338161754
 20
-19.3697307698
 10
67.7600358387
 20
-19.3676558635
 10
67.7857060445
 20
-19.364322212
 10
67.8107619464
 20
-19.3597208651
 10
67.8352683909
 20
-19.3538607731
 10
67.8594199177
 20
-19.3467687874
 10
67.8833560073
 20
-19.3384261238
 10
67.9069371791
 20
-19.3288515665
 10
67.9299395318
 20
-19.3181283188
 10
67.9523428613
 20
-19.3062509381
 10
67.9741673717
 20
-19.2932248669
 10
67.9952497735
 20
-19.2791496363
 10
68.0155830638
 20
-19.2640201866
 10
68.0351742456
 20
-19.2478415775
 10
68.0538810379
 20
-19.2307285192
 10
68.0717103283
 20
-19.2126541235
 10
68.0886552292
 20
-19.1936452786
 10
68.1045527967
 20
-19.1738973601
 10
68.1193411913
 20
-19.1535184738
 10
68.1330822524
 20
-19.1324005138
 10
68.1457985549
 20
-19.1104145383
 10
68.1575557518
 20
-19.0875224544
 10
68.1682881901
 20
-19.0637623549
 10
68.1778214853
 20
-19.0391195765
 10
68.1861870416
 20
-19.0134834997
 10
68.1933534548
 20
-18.986964744
 10
68.1990521278
 20
-18.9598805043
 10
68.2031935282
 20
-18.9323365122
 10
68.2058671884
 20
-18.904227036
 10
68.2070731083
 20
-18.8755520757
  0
LWPOLYLINE
  5
2BC
100
AcDbEntity
  8
0
100
AcDbPolyline
 62
7
  6
CONTINUOUS
 90
31
 70
0
 10
67.7070470548
 20
-20.3705469311
 10
67.7870315585
 20
-20.368412762
 10
67.8657481908
 20
-20.3621273816
 10
67.9429918715
 20
-20.3518727741
 10
68.0181974388
 20
-20.3379183368
 10
68.0915827906
 20
-20.3204166483
 10
68.1641033513
 20
-20.2992124995
 10
68.2359731528
 20
-20.2741915137
 10
68.3065854385
 20
-20.2455121089
 10
68.3756333675
 20
-20.2132910943
 10
68.4428978259
 20
-20.1776378786
 10
68.5082511861
 20
-20.1386274525
 10
68.5715373927
 20
-20.0963550467
 10
68.6325872254
 20
-20.0509354349
 10
68.6912513065
 20
-20.0024815574
 10
68.7474072174
 20
-19.9510916953
 10
68.8009565667
 20
-19.8968414495
 10
68.8517026115
 20
-19.8399149666
 10
68.8994017797
 20
-19.7805982181
 10
68.9437327247
 20
-19.7193722111
 10
68.984847015
 20
-19.6561142654
 10
69.0231221919
 20
-19.5901497526
 10
69.05842184
 20
-19.5214399766
 10
69.0904545834
 20
-19.4502479229
 10
69.1191778933
 20
-19.3762648672
 10
69.14440342
 20
-19.2993427926
 10
69.1657451022
 20
-19.2199106881
 10
69.1828611401
 20
-19.1385476506
 10
69.19553693
 20
-19.0556060563
 10
69.2036157313
 20
-18.9711925004
 10
69.2069208034
 20
-18.8855623648
  0
LINE
  5
2BD
100
AcDbEntity
  8
0
100
AcDbLine
 62
250
  6
CONTINUOUS
 10
-68.2070731083
 20
-18.8755520757
 11
-69.2069208034
 21
-18.8855623646
  0
LINE
  5
2BE
100
AcDbEntity
  8
0
100
AcDbLine
 62
7
  6
CONTINUOUS
 10
70.265242175
 20
-21.3332602048
 11
49.4349101299
 21
-21.3332602048
  0
LINE
  5
2BF
100
AcDbEntity
  8
0
100
AcDbLine
 62
7
  6
CONTINUOUS
 10
47.5650898701
 20
-21.3332602048
 11
15.9349101299
 21
-21.3332602048
  0
LINE
  5
2C0
100
AcDbEntity
  8
0
100
AcDbLine
 62
7
  6
CONTINUOUS
 10
14.0650898701
 20
-21.3332602048
 11
-18.0650898701
 21
-21.3332602048
  0
LINE
  5
2C1
100
AcDbEntity
  8
0
100
AcDbLine
 62
7
  6
CONTINUOUS
 10
-19.9349101299
 20
-21.3332602048
 11
-51.5650898701
 21
-21.3332602048
  0
LINE
  5
2C2
100
AcDbEntity
  8
0
100
AcDbLine
 62
7
  6
CONTINUOUS
 10
-53.4349101299
 20
-21.3332602048
 11
-70.265242175
 21
-21.3332602048
  0
LINE
  5
2C3
100
AcDbEntity
  8
0
100
AcDbLine
 62
7
  6
CONTINUOUS
 10
68.5147892288
 20
-20.3705469311
 11
-68.5147892288
 21
-20.3705469311
  0
LINE
  5
2C4
100
AcDbEntity
  8
0
100
AcDbLine
 62
250
  6
CONTINUOUS
 10
-67.7070470548
 20
-19.3705469311
 11
-63.1774064044
 21
-19.3705469311
  0
LINE
  5
2C5
100
AcDbEntity
  8
0
100
AcDbLine
 62
250
  6
CONTINUOUS
 10
-59.2225935956
 20
-19.3705469311
 11
59.2225935956
 21
-19.3705469311
  0
LINE
  5
2C6
100
AcDbEntity
  8
0
100
AcDbLine
 62
250
  6
CONTINUOUS
 10
63.1774064044
 20
-19.3705469311
 11
67.7070470548
 21
-19.3705469311
  0
LINE
  5
2C7
100
AcDbEntity
  8
0
100
AcDbLine
 62
250
  6
CONTINUOUS
 10
70.0
 20
-18.8855623648
 11
69.2069208034
 21
-18.8855623648
  0
LINE
  5
2C8
100
AcDbEntity
  8
0
100
AcDbLine
 62
250
  6
CONTINUOUS
 10
-69.2069208034
 20
-18.8855623648
 11
-70.0
 21
-18.8855623648
  0
LINE
  5
2C9
100
AcDbEntity
  8
SMUSSO
100
AcDbLine
 62
7
  6
CONTINUOUS
 10
-71.848256081
 20
-17.7775357793
 11
-71.769841539
 21
-17.7775357793
  0
LINE
  5
2CA
100
AcDbEntity
  8
SMUSSO
100
AcDbLine
 62
7
  6
CONTINUOUS
 10
71.769841539
 20
-17.7775357793
 11
71.848256081
 21
-17.7775357793
  0
LINE
  5
2CB
100
AcDbEntity
  8
0
100
AcDbLine
 62
250
  6
CONTINUOUS
 10
68.2070731083
 20
-18.8755520757
 11
69.2069208034
 21
-18.8855623648
  0
LWPOLYLINE
  5
2CC
100
AcDbEntity
  8
0
100
AcDbPolyline
 62
7
  6
CONTINUOUS
 90
13
 70
0
 10
61.2
 20
-19.6261494064
 10
61.0072621239
 20
-19.6235492148
 10
60.8191083438
 20
-19.6172223228
 10
60.6355386597
 20
-19.6071503079
 10
60.455962015
 20
-19.5929992219
 10
60.2809694664
 20
-19.5750383566
 10
60.1123341834
 20
-19.5541555818
 10
59.9512017415
 20
-19.5305563209
 10
59.7964265652
 20
-19.5039888431
 10
59.6463450975
 20
-19.4746755985
 10
59.5004028194
 20
-19.442693735
 10
59.3591542498
 20
-19.4079751386
 10
59.2225993888
 20
-19.3705469311
  0
LWPOLYLINE
  5
2CD
100
AcDbEntity
  8
0
100
AcDbPolyline
 62
7
  6
CONTINUOUS
 90
13
 70
0
 10
-61.2
 20
-19.6261494064
 10
-61.3954296888
 20
-19.6233410956
 10
-61.5849651295
 20
-19.6169200446
 10
-61.7686063221
 20
-19.6068681646
 10
-61.9461112008
 20
-19.5929330137
 10
-62.1177218315
 20
-19.5753054615
 10
-62.2841644118
 20
-19.5546314457
 10
-62.4456196233
 20
-19.5309797059
 10
-62.6019067844
 20
-19.5042308407
 10
-62.7532100485
 20
-19.4747677415
 10
-62.8995907998
 20
-19.4427222228
 10
-63.040987654
 20
-19.4079728202
 10
-63.1774006112
 20
-19.3705469311
  0
LINE
  5
2CE
100
AcDbEntity
  8
SMUSSO
100
AcDbLine
 62
7
  6
CONTINUOUS
 10
71.848256081
 20
-16.9869782613
 11
71.769841539
 21
-16.9869782613
  0
LINE
  5
2CF
100
AcDbEntity
  8
SMUSSO
100
AcDbLine
 62
7
  6
CONTINUOUS
 10
-71.769841539
 20
-16.9869782613
 11
-71.848256081
 21
-16.9869782613
  0
LINE
  5
2D0
100
AcDbEntity
  8
RACCORDO
100
AcDbLine
 62
7
  6
CONTINUOUS
 10
-71.45
 20
-16.6446801697
 11
-70.5500000012
 21
-16.6446801697
  0
LINE
  5
2D1
100
AcDbEntity
  8
RACCORDO
100
AcDbLine
 62
7
  6
CONTINUOUS
 10
70.5500000012
 20
-16.6446801697
 11
71.45
 21
-16.6446801697
  0
LINE
  5
2D2
100
AcDbEntity
  8
RACCORDO
100
AcDbLine
 62
7
  6
CONTINUOUS
 10
71.45
 20
-15.8255281255
 11
70.5500000012
 21
-15.8255281255
  0
LINE
  5
2D3
100
AcDbEntity
  8
RACCORDO
100
AcDbLine
 62
7
  6
CONTINUOUS
 10
-70.5500000012
 20
-15.8255281255
 11
-71.45
 21
-15.8255281255
  0
LINE
  5
2D4
100
AcDbEntity
  8
0
100
AcDbLine
 62
7
  6
CONTINUOUS
 10
-70.2475378757
 20
-13.1579755682
 11
-70.0
 21
-13.1579755682
  0
LINE
  5
2D5
100
AcDbEntity
  8
0
100
AcDbLine
 62
7
  6
CONTINUOUS
 10
70.2475378757
 20
-13.1579755682
 11
70.0
 21
-13.1579755682
  0
LINE
  5
2D6
100
AcDbEntity
  8
0
100
AcDbLine
 62
7
  6
CONTINUOUS
 10
-70.2113059233
 20
-11.9822259912
 11
-70.0349101299
 21
-11.9822259912
  0
LINE
  5
2D7
100
AcDbEntity
  8
0
100
AcDbLine
 62
7
  6
CONTINUOUS
 10
70.2113059233
 20
-11.9822259912
 11
70.0349101299
 21
-11.9822259912
  0
LINE
  5
2D8
100
AcDbEntity
  8
0
100
AcDbLine
 62
7
  6
CONTINUOUS
 10
-71.2650898701
 20
-11.62630848
 11
-70.0
 21
-11.62630848
  0
LINE
  5
2D9
100
AcDbEntity
  8
0
100
AcDbLine
 62
7
  6
CONTINUOUS
 10
71.2650898701
 20
-11.62630848
 11
70.0
 21
-11.62630848
  0
LINE
  5
2DA
100
AcDbEntity
  8
0
100
AcDbLine
 62
7
  6
CONTINUOUS
 10
-8.0601660306
 20
12.6009023849
 11
-8.0601660306
 21
9.6009023849
  0
LINE
  5
2DB
100
AcDbEntity
  8
0
100
AcDbLine
 62
7
  6
CONTINUOUS
 10
-7.5
 20
12.6009023849
 11
-7.5
 21
9.6009023849
  0
LINE
  5
2DC
100
AcDbEntity
  8
0
100
AcDbLine
 62
7
  6
CONTINUOUS
 10
-7.0
 20
12.6009023849
 11
-7.0
 21
9.6009023849
  0
LINE
  5
2DD
100
AcDbEntity
  8
0
100
AcDbLine
 62
250
  6
CONTINUOUS
 10
-6.8360101018
 20
-3.8899307798
 11
-6.8360101018
 21
-4.5410670887
  0
LINE
  5
2DE
100
AcDbEntity
  8
0
100
AcDbLine
 62
7
  6
CONTINUOUS
 10
-6.4287407973
 20
12.6009023849
 11
-6.4287407973
 21
9.6009023849
  0
LINE
  5
2DF
100
AcDbEntity
  8
0
100
AcDbLine
 62
250
  6
CONTINUOUS
 10
-7.7852113374
 20
-10.5140513528
 11
-5.9224102894
 21
-10.1298369591
  0
LINE
  5
2E0
100
AcDbEntity
  8
0
100
AcDbLine
 62
250
  6
CONTINUOUS
 10
7.7852114216
 20
-10.5140509445
 11
5.9224102834
 21
-10.1298369437
  0
LWPOLYLINE
  5
2E1
100
AcDbEntity
  8
0
100
AcDbPolyline
 62
250
  6
CONTINUOUS
 90
22
 70
0
 10
5.1772888562
 20
-9.7156998506
 10
5.2260702063
 20
-9.7302084497
 10
5.2746533191
 20
-9.7457165335
 10
5.3228407606
 20
-9.7621610797
 10
5.370436705
 20
-9.7794752605
 10
5.4172477299
 20
-9.797588714
 10
5.4630836027
 20
-9.81642783
 10
5.5077580537
 20
-9.8359160496
 10
5.5510895331
 20
-9.8559741759
 10
5.5929019484
 20
-9.8765206958
 10
5.6330253805
 20
-9.8974721117
 10
5.671296774
 20
-9.9187432804
 10
5.7075605999
 20
-9.9402477593
 10
5.7416694874
 20
-9.9618981575
 10
5.7734848233
 20
-9.9836064914
 10
5.8028773149
 20
-10.0052845415
 10
5.8297275264
 20
-10.0268442211
 10
5.8539263296
 20
-10.0481979055
 10
5.8753753581
 20
-10.0692587899
 10
5.89398745
 20
-10.0899412786
 10
5.9096869897
 20
-10.1101613326
 10
5.9224101885
 20
-10.1298367832
  0
LINE
  5
2E2
100
AcDbEntity
  8
0
100
AcDbLine
 62
250
  6
CONTINUOUS
 10
7.5835457008
 20
-11.2701615082
 11
5.7458007487
 21
-10.666329142
  0
LWPOLYLINE
  5
2E3
100
AcDbEntity
  8
0
100
AcDbPolyline
 62
250
  6
CONTINUOUS
 90
10
 70
0
 10
-5.7457896591
 20
-10.6663369777
 10
-5.768064631
 20
-10.6075753375
 10
-5.7896831675
 20
-10.5485878744
 10
-5.8106418742
 20
-10.4893827135
 10
-5.8309348208
 20
-10.4299755366
 10
-5.8505614177
 20
-10.3703671272
 10
-5.8695255935
 20
-10.3105431456
 10
-5.8878256756
 20
-10.2505041908
 10
-5.905455216
 20
-10.1902660244
 10
-5.9772953562
 20
-9.9360050266
  0
LWPOLYLINE
  5
2E4
100
AcDbEntity
  8
0
100
AcDbPolyline
 62
250
  6
CONTINUOUS
 90
10
 70
0
 10
-7.5835455464
 20
-11.2701614165
 10
-7.6101964381
 20
-11.1873032098
 10
-7.6357892897
 20
-11.1041549144
 10
-7.6603241011
 20
-11.0207165302
 10
-7.6838046795
 20
-10.9369859466
 10
-7.7062272178
 20
-10.8529652742
 10
-7.7275802948
 20
-10.7686608453
 10
-7.7478601036
 20
-10.6840747709
 10
-7.7670704511
 20
-10.5992049401
 10
-7.7852113374
 20
-10.5140513528
  0
LINE
  5
2E5
100
AcDbEntity
  8
0
100
AcDbLine
 62
250
  6
CONTINUOUS
 10
-5.1772888562
 20
-9.7156998506
 11
-6.8360101018
 21
-4.5410670887
  0
LINE
  5
2E6
100
AcDbEntity
  8
0
100
AcDbLine
 62
250
  6
CONTINUOUS
 10
-5.9772953562
 20
-9.9360050266
 11
-6.0815924955
 21
-9.5617570323
  0
LINE
  5
2E7
100
AcDbEntity
  8
0
100
AcDbLine
 62
250
  6
CONTINUOUS
 10
-6.0815924955
 20
-9.5617570323
 11
-6.1786071673
 21
-9.2059884199
  0
LINE
  5
2E8
100
AcDbEntity
  8
0
100
AcDbLine
 62
250
  6
CONTINUOUS
 10
-6.1786071673
 20
-9.2059884199
 11
-6.2694021688
 21
-8.8654111528
  0
LINE
  5
2E9
100
AcDbEntity
  8
0
100
AcDbLine
 62
250
  6
CONTINUOUS
 10
-6.2694021688
 20
-8.8654111528
 11
-6.3542048778
 21
-8.5397011942
  0
LINE
  5
2EA
100
AcDbEntity
  8
0
100
AcDbLine
 62
250
  6
CONTINUOUS
 10
-6.3542048778
 20
-8.5397011942
 11
-6.4326686595
 21
-8.2307208365
  0
LINE
  5
2EB
100
AcDbEntity
  8
0
100
AcDbLine
 62
250
  6
CONTINUOUS
 10
-6.4326686595
 20
-8.2307208365
 11
-6.5047908362
 21
-7.9391742165
  0
LINE
  5
2EC
100
AcDbEntity
  8
0
100
AcDbLine
 62
250
  6
CONTINUOUS
 10
-6.5047908362
 20
-7.9391742165
 11
-6.5706465381
 21
-7.6654780238
  0
LINE
  5
2ED
100
AcDbEntity
  8
0
100
AcDbLine
 62
250
  6
CONTINUOUS
 10
-6.5706465381
 20
-7.6654780238
 11
-6.6302902154
 21
-7.4102290741
  0
LINE
  5
2EE
100
AcDbEntity
  8
0
100
AcDbLine
 62
250
  6
CONTINUOUS
 10
-6.6302902154
 20
-7.4102290741
 11
-6.6840895745
 21
-7.1727922386
  0
LINE
  5
2EF
100
AcDbEntity
  8
0
100
AcDbLine
 62
250
  6
CONTINUOUS
 10
-6.6840895745
 20
-7.1727922386
 11
-6.7323861016
 21
-6.9524843738
  0
LINE
  5
2F0
100
AcDbEntity
  8
0
100
AcDbLine
 62
250
  6
CONTINUOUS
 10
-6.7323861016
 20
-6.9524843738
 11
-6.7757353905
 21
-6.747691626
  0
LINE
  5
2F1
100
AcDbEntity
  8
0
100
AcDbLine
 62
250
  6
CONTINUOUS
 10
-6.7757353905
 20
-6.747691626
 11
-6.8146840513
 21
-6.5566250877
  0
LWPOLYLINE
  5
2F2
100
AcDbEntity
  8
0
100
AcDbPolyline
 62
250
  6
CONTINUOUS
 90
82
 70
0
 10
-7.7852113374
 20
-10.5140513528
 10
-7.8281085947
 20
-10.3006181462
 10
-7.8683231683
 20
-10.0917612848
 10
-7.9058550581
 20
-9.8874807689
 10
-7.9405900677
 20
-9.6880509785
 10
-7.9726423935
 20
-9.4931975334
 10
-8.0023546251
 20
-9.3020972931
 10
-8.0298043932
 20
-9.1142972205
 10
-8.0549140671
 20
-8.9302503528
 10
-8.077793344
 20
-8.7504926606
 10
-8.0984192627
 20
-8.5750891654
 10
-8.1168147844
 20
-8.4039748459
 10
-8.1331584901
 20
-8.2374906088
 10
-8.1474347035
 20
-8.075679034
 10
-8.159659101
 20
-7.9184975417
 10
-8.1700572922
 20
-7.766159299
 10
-8.1786173246
 20
-7.6187844574
 10
-8.1853511507
 20
-7.4762528654
 10
-8.1905202374
 20
-7.3384172358
 10
-8.1941300309
 20
-7.2054068654
 10
-8.1961750852
 20
-7.0770924575
 10
-8.1969005281
 20
-6.9529388341
 10
-8.1963257485
 20
-6.8329717991
 10
-8.1944313576
 20
-6.7171655485
 10
-8.1914043178
 20
-6.6049074923
 10
-8.1872619683
 20
-6.4961485904
 10
-8.18198697
 20
-6.3909378828
 10
-8.1757142671
 20
-6.2888099003
 10
-8.168455066
 20
-6.189721685
 10
-8.1601981604
 20
-6.0937161948
 10
-8.1510448764
 20
-6.0004568333
 10
-8.1410071849
 20
-5.9099396814
 10
-8.130073115
 20
-5.8221686584
 10
-8.1183080806
 20
-5.736818925
 10
-8.1057226239
 20
-5.653874062
 10
-8.0923062027
 20
-5.5733504886
 10
-8.0780926048
 20
-5.4949726242
 10
-8.0630790472
 20
-5.418681316
 10
-8.0472683128
 20
-5.3445357167
 10
-8.0307025375
 20
-5.2724377031
 10
-8.0133723196
 20
-5.2023492927
 10
-7.9952870609
 20
-5.134308468
 10
-7.9765171027
 20
-5.068331054
 10
-7.9570653146
 20
-5.0044370514
 10
-7.936928827
 20
-4.9426064596
 10
-7.9161693722
 20
-4.8827951008
 10
-7.8947981629
 20
-4.825027848
 10
-7.8728039864
 20
-4.7692798283
 10
-7.8502149366
 20
-4.7154322457
 10
-7.8270326375
 20
-4.6634758068
 10
-7.8032554651
 20
-4.6134198049
 10
-7.7789066419
 20
-4.5651733237
 10
-7.7539811159
 20
-4.5187211527
 10
-7.728483939
 20
-4.4740785024
 10
-7.7024534899
 20
-4.4312000873
 10
-7.6758968535
 20
-4.3900932449
 10
-7.6488069449
 20
-4.3507506378
 10
-7.6212008882
 20
-4.3131049681
 10
-7.5930680423
 20
-4.2771411636
 10
-7.5644190482
 20
-4.2428742965
 10
-7.5353029533
 20
-4.2102822849
 10
-7.5056594087
 20
-4.1793276066
 10
-7.4755487633
 20
-4.1500477837
 10
-7.4452011104
 20
-4.122533301
 10
-7.4146369984
 20
-4.0968372513
 10
-7.383835879
 20
-4.0729065418
 10
-7.352966201
 20
-4.0506723781
 10
-7.3220846802
 20
-4.0301758382
 10
-7.2911346009
 20
-4.0113758441
 10
-7.2601142637
 20
-3.9940803675
 10
-7.2291797626
 20
-3.9783162401
 10
-7.1981750038
 20
-3.9640566303
 10
-7.1666300064
 20
-3.9510290146
 10
-7.1345987273
 20
-3.9391545703
 10
-7.1020272096
 20
-3.92851212
 10
-7.0682836019
 20
-3.9190656086
 10
-7.0333030003
 20
-3.9107103646
 10
-6.9971503088
 20
-3.9035510594
 10
-6.9593883872
 20
-3.8978656524
 10
-6.9198715221
 20
-3.8937467967
 10
-6.878745427
 20
-3.8911018391
 10
-6.8360101018
 20
-3.8899307798
  0
LWPOLYLINE
  5
2F3
100
AcDbEntity
  8
0
100
AcDbPolyline
 62
250
  6
CONTINUOUS
 90
56
 70
0
 10
-6.8146840513
 20
-6.5566250877
 10
-6.8495660255
 20
-6.3782888345
 10
-6.8656284409
 20
-6.2933865156
 10
-6.8807767671
 20
-6.2113561883
 10
-6.8950935897
 20
-6.1318835989
 10
-6.908588937
 20
-6.0549639783
 10
-6.9212666998
 20
-5.9806040652
 10
-6.9331979573
 20
-5.9085069381
 10
-6.9443932842
 20
-5.8386572077
 10
-6.9548530317
 20
-5.7710719992
 10
-6.9646308065
 20
-5.7055033409
 10
-6.9737399272
 20
-5.6419011348
 10
-6.982175443
 20
-5.5803172033
 10
-6.9899622584
 20
-5.5206565951
 10
-6.9971078022
 20
-5.462888687
 10
-7.0036121373
 20
-5.4070456811
 10
-7.009488996
 20
-5.3531267995
 10
-7.0147394705
 20
-5.3011493488
 10
-7.019370167
 20
-5.2510971951
 10
-7.0234032452
 20
-5.2029192623
 10
-7.0268412707
 20
-5.1566354996
 10
-7.0296890273
 20
-5.1122268359
 10
-7.0319716707
 20
-5.0695836912
 10
-7.0336942311
 20
-5.0286981526
 10
-7.0348580218
 20
-4.9895790158
 10
-7.0354820902
 20
-4.9521419025
 10
-7.0355700871
 20
-4.9163749581
 10
-7.0351239904
 20
-4.8822909256
 10
-7.034160054
 20
-4.8498423853
 10
-7.0326818326
 20
-4.8190347563
 10
-7.0306911237
 20
-4.7898633445
 10
-7.0282013309
 20
-4.7622656184
 10
-7.0252138323
 20
-4.7362308108
 10
-7.0217320589
 20
-4.7117704763
 10
-7.0177723711
 20
-4.6888555724
 10
-7.0133235003
 20
-4.6674645789
 10
-7.0084013016
 20
-4.6476196903
 10
-7.0030634357
 20
-4.6293567154
 10
-6.9973101622
 20
-4.6127168454
 10
-6.9911467982
 20
-4.5976578995
 10
-6.9846393117
 20
-4.5840895924
 10
-6.9778022431
 20
-4.5720358306
 10
-6.9706263936
 20
-4.5614707709
 10
-6.963142022
 20
-4.5522293581
 10
-6.9553992749
 20
-4.5443060312
 10
-6.9473523363
 20
-4.5377045519
 10
-6.9388864632
 20
-4.5322756772
 10
-6.9300354921
 20
-4.5279439577
 10
-6.9207680394
 20
-4.524786476
 10
-6.9108701964
 20
-4.5228863823
 10
-6.9003398704
 20
-4.5221701359
 10
-6.8891809065
 20
-4.5227174307
 10
-6.8771877066
 20
-4.5248446231
 10
-6.8642925856
 20
-4.5286608477
 10
-6.8505660627
 20
-4.5340666584
 10
-6.8360101018
 20
-4.5410670887
  0
LWPOLYLINE
  5
2F4
100
AcDbEntity
  8
0
100
AcDbPolyline
 62
7
  6
CONTINUOUS
 90
13
 70
0
 10
-59.2225993888
 20
-19.3705469311
 10
-59.3596032693
 20
-19.4081029762
 10
-59.5014167738
 20
-19.4429386179
 10
-59.6480399024
 20
-19.4750264666
 10
-59.7992927342
 20
-19.5044680219
 10
-59.9553551901
 20
-19.5311524257
 10
-60.1167670322
 20
-19.5547577469
 10
-60.283658356
 20
-19.5754358248
 10
-60.455899066
 20
-19.5930848408
 10
-60.6336386379
 20
-19.6070212398
 10
-60.8169268967
 20
-19.6170419245
 10
-61.0057140175
 20
-19.6234119608
 10
-61.2
 20
-19.6261494064
  0
LWPOLYLINE
  5
2F5
100
AcDbEntity
  8
0
100
AcDbPolyline
 62
7
  6
CONTINUOUS
 90
17
 70
0
 10
-60.7804183709
 20
-18.4830399058
 10
-60.8016483336
 20
-18.4886069836
 10
-60.9407119902
 20
-18.51831473
 10
-61.0801055906
 20
-18.5413898981
 10
-61.2198535117
 20
-18.5577994247
 10
-61.3596836454
 20
-18.5676415647
 10
-61.4995896178
 20
-18.5709554352
 10
-61.6395778029
 20
-18.5677019192
 10
-61.7793952142
 20
-18.5578619209
 10
-61.9190543078
 20
-18.5414733414
 10
-62.0585426276
 20
-18.5184982796
 10
-62.1975698194
 20
-18.488803936
 10
-62.3361655183
 20
-18.4524199391
 10
-62.4743000892
 20
-18.4093166603
 10
-62.6115942722
 20
-18.3592724148
 10
-62.7480917668
 20
-18.302302387
 10
-62.7828496036
 20
-18.285927219
  0
LINE
  5
2F6
100
AcDbEntity
  8
0
100
AcDbLine
 62
250
  6
CONTINUOUS
 10
-6.8360101018
 20
-4.5410670887
 11
6.8360101018
 21
-4.5410670887
  0
LINE
  5
2F7
100
AcDbEntity
  8
0
100
AcDbLine
 62
250
  6
CONTINUOUS
 10
-6.8360101018
 20
-3.8899307798
 11
6.8360101018
 21
-3.8899307798
  0
LWPOLYLINE
  5
2F8
100
AcDbEntity
  8
0
100
AcDbPolyline
 62
250
  6
CONTINUOUS
 90
76
 70
0
 10
6.8360101018
 20
-3.8899307798
 10
6.8728253824
 20
-3.8906986128
 10
6.9088352925
 20
-3.8927167868
 10
6.9440398319
 20
-3.8959853017
 10
6.978301728
 20
-3.9005052385
 10
7.0117582536
 20
-3.9062755162
 10
7.0448212262
 20
-3.913292892
 10
7.0774044919
 20
-3.9214445507
 10
7.1095942047
 20
-3.9308433074
 10
7.1420606442
 20
-3.9418243647
 10
7.1749178498
 20
-3.9543160681
 10
7.2080517821
 20
-3.968390072
 10
7.2417906013
 20
-3.9845965424
 10
7.2764273511
 20
-4.0030688716
 10
7.3116689879
 20
-4.0236736672
 10
7.3469645407
 20
-4.0465609183
 10
7.3822914978
 20
-4.0718063665
 10
7.417672371
 20
-4.0993342703
 10
7.4526237237
 20
-4.129067394
 10
7.4870596379
 20
-4.1610078424
 10
7.5210660317
 20
-4.1951535107
 10
7.5544172234
 20
-4.2314208501
 10
7.5870603999
 20
-4.2697827974
 10
7.6190483743
 20
-4.3102664157
 10
7.6503139045
 20
-4.3528693452
 10
7.6808386342
 20
-4.397564711
 10
7.7106409197
 20
-4.4443793879
 10
7.7397085882
 20
-4.4933916407
 10
7.7680348607
 20
-4.5445662328
 10
7.7956265162
 20
-4.5979384008
 10
7.8224917177
 20
-4.6536921196
 10
7.8486578344
 20
-4.7118697135
 10
7.8740974973
 20
-4.7724288582
 10
7.8987367624
 20
-4.8354265554
 10
7.922589495
 20
-4.9009252514
 10
7.94564183
 20
-4.9688624998
 10
7.9677782274
 20
-5.0391079634
 10
7.9889754428
 20
-5.1116118237
 10
8.0092567208
 20
-5.1864238992
 10
8.0285762549
 20
-5.2635633078
 10
8.0469193837
 20
-5.3429221801
 10
8.0643007688
 20
-5.4246083856
 10
8.0807185888
 20
-5.5089646509
 10
8.0961892079
 20
-5.5959627301
 10
8.110696262
 20
-5.6856308691
 10
8.1241888369
 20
-5.7783965321
 10
8.136686555
 20
-5.8742615054
 10
8.148169794
 20
-5.9732240028
 10
8.1585287726
 20
-6.0757061296
 10
8.1677791593
 20
-6.1816794086
 10
8.1759052856
 20
-6.2911723171
 10
8.1827503656
 20
-6.4046923926
 10
8.1883330007
 20
-6.5222336194
 10
8.1926345895
 20
-6.6438020133
 10
8.1954425416
 20
-6.7699231588
 10
8.1967694723
 20
-6.9006998562
 10
8.1966027664
 20
-7.0360293052
 10
8.1946919874
 20
-7.1761286899
 10
8.1910297732
 20
-7.3211341058
 10
8.1856234858
 20
-7.4709094574
 10
8.1782447752
 20
-7.6252636423
 10
8.1688776942
 20
-7.7842381095
 10
8.1575381899
 20
-7.9477914101
 10
8.144045753
 20
-8.1156080949
 10
8.1284252383
 20
-8.287430577
 10
8.110651791
 20
-8.4635164434
 10
8.0904703366
 20
-8.6443230059
 10
8.0679227099
 20
-8.8297285305
 10
8.0429670761
 20
-9.0198547513
 10
8.015222856
 20
-9.2155241825
 10
7.9847196581
 20
-9.4167718203
 10
7.9514278739
 20
-9.6235626685
 10
7.9148780986
 20
-9.8366142525
 10
7.874913864
 20
-10.0561657474
 10
7.8316916383
 20
-10.2819779781
 10
7.7852114216
 20
-10.5140509445
  0
LINE
  5
2F9
100
AcDbEntity
  8
0
100
AcDbLine
 62
7
  6
CONTINUOUS
 10
6.4287407973
 20
9.6009023849
 11
6.4287407973
 21
12.6009023849
  0
LINE
  5
2FA
100
AcDbEntity
  8
0
100
AcDbLine
 62
250
  6
CONTINUOUS
 10
6.8360101018
 20
-3.8899307798
 11
6.8360101018
 21
-4.5410670887
  0
LINE
  5
2FB
100
AcDbEntity
  8
0
100
AcDbLine
 62
7
  6
CONTINUOUS
 10
7.0
 20
9.6009023849
 11
7.0
 21
12.6009023849
  0
LINE
  5
2FC
100
AcDbEntity
  8
0
100
AcDbLine
 62
7
  6
CONTINUOUS
 10
7.5
 20
9.6009023849
 11
7.5
 21
12.6009023849
  0
LINE
  5
2FD
100
AcDbEntity
  8
0
100
AcDbLine
 62
7
  6
CONTINUOUS
 10
8.0601660306
 20
9.6009023849
 11
8.0601660306
 21
12.6009023849
  0
LINE
  5
2FE
100
AcDbEntity
  8
0
100
AcDbLine
 62
250
  6
CONTINUOUS
 10
6.8302743384
 20
-6.477853003
 11
6.788858844
 21
-6.6841593344
  0
LINE
  5
2FF
100
AcDbEntity
  8
0
100
AcDbLine
 62
250
  6
CONTINUOUS
 10
6.788858844
 20
-6.6841593344
 11
6.7421388646
 21
-6.9070320133
  0
LWPOLYLINE
  5
300
100
AcDbEntity
  8
0
100
AcDbPolyline
 62
250
  6
CONTINUOUS
 90
10
 70
0
 10
7.7852114216
 20
-10.5140509445
 10
7.7670706313
 20
-10.5992043109
 10
7.7478603654
 20
-10.6840739952
 10
7.727580624
 20
-10.7686599973
 10
7.7062276103
 20
-10.8529644352
 10
7.683805121
 20
-10.9369851909
 10
7.6603245464
 20
-11.0207159114
 10
7.6357896832
 20
-11.1041544789
 10
7.6101967346
 20
-11.1873030112
 10
7.5835457008
 20
-11.2701615082
  0
LINE
  5
301
100
AcDbEntity
  8
0
100
AcDbLine
 62
250
  6
CONTINUOUS
 10
6.7421388646
 20
-6.9070320133
 11
6.6897802986
 21
-7.1471996992
  0
LINE
  5
302
100
AcDbEntity
  8
0
100
AcDbLine
 62
250
  6
CONTINUOUS
 10
6.6897802986
 20
-7.1471996992
 11
6.6313754002
 21
-7.4055238328
  0
LINE
  5
303
100
AcDbEntity
  8
0
100
AcDbLine
 62
250
  6
CONTINUOUS
 10
6.6313754002
 20
-7.4055238328
 11
6.566855958
 21
-7.6814391355
  0
LINE
  5
304
100
AcDbEntity
  8
0
100
AcDbLine
 62
250
  6
CONTINUOUS
 10
6.566855958
 20
-7.6814391355
 11
6.4961392997
 21
-7.9745723832
  0
LINE
  5
305
100
AcDbEntity
  8
0
100
AcDbLine
 62
250
  6
CONTINUOUS
 10
6.4961392997
 20
-7.9745723832
 11
6.4193588969
 21
-8.2837070005
  0
LINE
  5
306
100
AcDbEntity
  8
0
100
AcDbLine
 62
250
  6
CONTINUOUS
 10
6.4193588969
 20
-8.2837070005
 11
6.3359401704
 21
-8.6105328248
  0
LWPOLYLINE
  5
307
100
AcDbEntity
  8
0
100
AcDbPolyline
 62
250
  6
CONTINUOUS
 90
8
 70
0
 10
6.3359401704
 20
-8.6105328248
 10
6.2453865765
 20
-8.9562716348
 10
6.1971151653
 20
-9.1371911789
 10
6.1468135988
 20
-9.3234510266
 10
6.0942488431
 20
-9.5157828478
 10
6.0393170712
 20
-9.7144225827
 10
5.9820497649
 20
-9.919111399
 10
5.9054551926
 20
-10.1902661371
  0
LWPOLYLINE
  5
308
100
AcDbEntity
  8
0
100
AcDbPolyline
 62
250
  6
CONTINUOUS
 90
9
 70
0
 10
5.9054551926
 20
-10.1902661371
 10
5.8878256429
 20
-10.250504431
 10
5.8695255611
 20
-10.3105435002
 10
5.8505614016
 20
-10.3703675624
 10
5.8309348372
 20
-10.4299760146
 10
5.8106419316
 20
-10.4893832085
 10
5.7896832734
 20
-10.548588356
 10
5.7680647992
 20
-10.6075757542
 10
5.745789906
 20
-10.6663372648
  0
LWPOLYLINE
  5
309
100
AcDbEntity
  8
0
100
AcDbPolyline
 62
250
  6
CONTINUOUS
 90
67
 70
0
 10
5.7458013401
 20
-10.6663271292
 10
5.6485408855
 20
-10.9810582385
 10
5.5432808873
 20
-11.2858750991
 10
5.4305755302
 20
-11.5805810062
 10
5.3112528103
 20
-11.8644506744
 10
5.1856109236
 20
-12.1379377099
 10
5.0532389135
 20
-12.4025670993
 10
4.9141271371
 20
-12.6588413803
 10
4.7689989317
 20
-12.9059085715
 10
4.6184081477
 20
-13.1432139877
 10
4.4628581031
 20
-13.3704920174
 10
4.3026516555
 20
-13.5878490605
 10
4.1380465111
 20
-13.7953219255
 10
3.969423992
 20
-13.9928420094
 10
3.7971408144
 20
-14.1803927026
 10
3.6213810283
 20
-14.3580827622
 10
3.4424948788
 20
-14.5258732286
 10
3.2608131389
 20
-14.6837857863
 10
3.0764546419
 20
-14.832005174
 10
2.8897367648
 20
-14.970529295
 10
2.7009610026
 20
-15.0993817143
 10
2.510186863
 20
-15.2187589904
 10
2.3177320751
 20
-15.3286620478
 10
2.1238387851
 20
-15.4291296792
 10
1.9284187158
 20
-15.5203721978
 10
1.7317354404
 20
-15.602399036
 10
1.534032397
 20
-15.6752344656
 10
1.3351607625
 20
-15.7390517393
 10
1.135361821
 20
-15.7938628108
 10
0.934864544
 20
-15.8396675614
 10
0.7334807409
 20
-15.8765545498
 10
0.5314581602
 20
-15.904520513
 10
0.3289987298
 20
-15.9235421636
 10
0.1258351835
 20
-15.9336015986
 10
-0.0778092119
 20
-15.9346664476
 10
-0.281708094
 20
-15.9266901649
 10
-0.4861220699
 20
-15.9095538065
 10
-0.6908450093
 20
-15.8832057947
 10
-0.8956083363
 20
-15.8475796983
 10
-1.1005643776
 20
-15.8024596296
 10
-1.305472688
 20
-15.7477734388
 10
-1.5100524007
 20
-15.6834415272
 10
-1.7143704886
 20
-15.6091762259
 10
-1.918179105
 20
-15.5248684214
 10
-2.1211403262
 20
-15.4304579002
 10
-2.3231585309
 20
-15.3256961514
 10
-2.5239560978
 20
-15.2104856958
 10
-2.7231616662
 20
-15.084795432
 10
-2.9205137602
 20
-14.9484673424
 10
-3.1156274547
 20
-14.8014786513
 10
-3.3081783499
 20
-14.6437864897
 10
-3.4979666523
 20
-14.4751965994
 10
-3.6845849532
 20
-14.2956940864
 10
-3.8676569652
 20
-14.1052813555
 10
-4.0469908985
 20
-13.9037789128
 10
-4.2222341671
 20
-13.6911060081
 10
-4.3928751397
 20
-13.4674044046
 10
-4.5584566424
 20
-13.2328390212
 10
-4.7185486753
 20
-12.9874403031
 10
-4.8726835538
 20
-12.7313733762
 10
-5.020353211
 20
-12.4650476993
 10
-5.1611027741
 20
-12.1886090873
 10
-5.294502242
 20
-11.9022681837
 10
-5.4200990811
 20
-11.6065781761
 10
-5.5374607037
 20
-11.3018960543
 10
-5.646168043
 20
-10.9883804797
 10
-5.7458013627
 20
-10.6663270413
  0
LINE
  5
30A
100
AcDbEntity
  8
0
100
AcDbLine
 62
250
  6
CONTINUOUS
 10
6.8360101018
 20
-4.5410670887
 11
5.1772888562
 21
-9.7156998506
  0
LWPOLYLINE
  5
30B
100
AcDbEntity
  8
0
100
AcDbPolyline
 62
250
  6
CONTINUOUS
 90
61
 70
0
 10
5.1772888562
 20
-9.7156998506
 10
5.1013132539
 20
-9.9350741338
 10
5.016793704
 20
-10.1493780654
 10
4.9237302064
 20
-10.3586116456
 10
4.8219671757
 20
-10.5628738822
 10
4.7116601973
 20
-10.7620657673
 10
4.593276028
 20
-10.9558902769
 10
4.4666923164
 20
-11.1445576418
 10
4.3320314139
 20
-11.3278576311
 10
4.190127131
 20
-11.5048625284
 10
4.040954248
 20
-11.6755217864
 10
3.8845379848
 20
-11.8398859523
 10
3.721787811
 20
-11.9971789508
 10
3.5526839032
 20
-12.1473579571
 10
3.3772460848
 20
-12.290465796
 10
3.1964432967
 20
-12.4258548669
 10
3.0102612866
 20
-12.5534817314
 10
2.8187143066
 20
-12.6733898278
 10
2.6228140541
 20
-12.785061871
 10
2.4225528359
 20
-12.8884588921
 10
2.2179383452
 20
-12.9836198599
 10
2.0100053581
 20
-13.0701443964
 10
1.798749617
 20
-13.147995143
 10
1.5841753796
 20
-13.2172094583
 10
1.3673301955
 20
-13.2774990391
 10
1.1482088887
 20
-13.3288295605
 10
0.9268166352
 20
-13.3712353475
 10
0.704216512
 20
-13.4045310712
 10
0.4804052317
 20
-13.4286843328
 10
0.2553860816
 20
-13.4437275311
 10
0.030232001
 20
-13.4495725341
 10
-0.1950613695
 20
-13.4461843913
 10
-0.4204896706
 20
-13.4335980532
 10
-0.6449668852
 20
-13.4118302387
 10
-0.8684980167
 20
-13.3808454723
 10
-1.0910780617
 20
-13.3406792294
 10
-1.3116059925
 20
-13.2914546554
 10
-1.5300834428
 20
-13.2331320869
 10
-1.7465087789
 20
-13.1657511872
 10
-1.9597760721
 20
-13.0895540911
 10
-2.1698862499
 20
-13.0044950856
 10
-2.3768383849
 20
-12.9106198837
 10
-2.579523766
 20
-12.8083077585
 10
-2.7779327697
 20
-12.6975135611
 10
-2.9720750195
 20
-12.5782824403
 10
-3.1608706751
 20
-12.4511291159
 10
-3.3443121895
 20
-12.3159937974
 10
-3.5224071097
 20
-12.1729362754
 10
-3.6940982365
 20
-12.0226506405
 10
-3.8592607095
 20
-11.8652330183
 10
-4.0180193892
 20
-11.7005872833
 10
-4.1696916575
 20
-11.5291191501
 10
-4.3143922485
 20
-11.3506673909
 10
-4.4520064282
 20
-11.1653932336
 10
-4.5815073761
 20
-10.9741860765
 10
-4.7028784742
 20
-10.7769138332
 10
-4.8161363405
 20
-10.5737085901
 10
-4.9203040085
 20
-10.3658560045
 10
-5.0150558227
 20
-10.153784629
 10
-5.1007174386
 20
-9.937065911
 10
-5.1772888562
 20
-9.7156998506
  0
LWPOLYLINE
  5
30C
100
AcDbEntity
  8
0
100
AcDbPolyline
 62
250
  6
CONTINUOUS
 90
67
 70
0
 10
7.5835457008
 20
-11.2701615082
 10
7.4518048467
 20
-11.6455413855
 10
7.3111116327
 20
-12.0086066758
 10
7.161466059
 20
-12.3593573792
 10
7.0026417808
 20
-12.6973018772
 10
6.8348651427
 20
-13.0229317884
 10
6.658815179
 20
-13.3377219676
 10
6.4741313129
 20
-13.6424747079
 10
6.2811741211
 20
-13.9363877163
 10
6.0817043679
 20
-14.2185289696
 10
5.8758691937
 20
-14.488609443
 10
5.663521458
 20
-14.7469181614
 10
5.4459805039
 20
-14.9933901756
 10
5.223290574
 20
-15.2279778757
 10
4.9954074257
 20
-15.4507288717
 10
4.7635176731
 20
-15.6617210445
 10
4.527684049
 20
-15.8609023163
 10
4.2878438206
 20
-16.0483247649
 10
4.0449954046
 20
-16.2242225045
 10
3.7992033826
 20
-16.3885759143
 10
3.5504031728
 20
-16.5414046151
 10
3.2993994474
 20
-16.6830015832
 10
3.046263685
 20
-16.8133654596
 10
2.7909244068
 20
-16.9324976034
 10
2.5339718483
 20
-17.0406950685
 10
2.2754545351
 20
-17.1379788933
 10
2.0153239416
 20
-17.2243280394
 10
1.7540247261
 20
-17.2999764458
 10
1.4916029558
 20
-17.36496749
 10
1.2280125637
 20
-17.4192577945
 10
0.9635600069
 20
-17.4629511654
 10
0.6982730409
 20
-17.4961091067
 10
0.4321239103
 20
-17.5186701144
 10
0.1653358064
 20
-17.5305534834
 10
-0.1021125783
 20
-17.5318184532
 10
-0.3701999364
 20
-17.5224057843
 10
-0.6386391539
 20
-17.5020570524
 10
-0.9074684452
 20
-17.470826503
 10
-1.1766495959
 20
-17.4286598906
 10
-1.4457808493
 20
-17.3751360538
 10
-1.7149292974
 20
-17.3102932597
 10
-1.9840278482
 20
-17.2340932412
 10
-2.2524734688
 20
-17.1460000362
 10
-2.520385311
 20
-17.0459911708
 10
-2.787644223
 20
-16.9340891188
 10
-3.0532897167
 20
-16.8098253402
 10
-3.3173974925
 20
-16.6731528881
 10
-3.57989185
 20
-16.5241187092
 10
-3.8395852001
 20
-16.3623951039
 10
-4.0964862061
 20
-16.1879730744
 10
-4.3505862047
 20
-16.0008616184
 10
-4.6006716167
 20
-15.8007600294
 10
-4.8467888396
 20
-15.587630929
 10
-5.088891476
 20
-15.3615116957
 10
-5.325626754
 20
-15.1222137578
 10
-5.5571186309
 20
-14.869571956
 10
-5.7832431495
 20
-14.6037514495
 10
-6.0022756663
 20
-14.3250591452
 10
-6.2142564626
 20
-14.0333343473
 10
-6.4191452572
 20
-13.7287377516
 10
-6.6150965627
 20
-13.4120583518
 10
-6.8020833871
 20
-13.0831761697
 10
-6.9801327225
 20
-12.7422111836
 10
-7.1474800572
 20
-12.3903123223
 10
-7.3035372209
 20
-12.0278625622
 10
-7.4488923839
 20
-11.6544789269
 10
-7.5835455464
 20
-11.2701614165
  0
LWPOLYLINE
  5
30D
100
AcDbEntity
  8
0
100
AcDbPolyline
 62
250
  6
CONTINUOUS
 90
58
 70
0
 10
5.7458013401
 20
-10.6663271292
 10
5.640185765
 20
-10.8958103381
 10
5.5249630062
 20
-11.1203430281
 10
5.4004008327
 20
-11.3395577575
 10
5.2668244313
 20
-11.5530245974
 10
5.1244885432
 20
-11.7604834475
 10
4.9735477845
 20
-11.9618257862
 10
4.8142366137
 20
-12.156794911
 10
4.646914968
 20
-12.3450013692
 10
4.4719210675
 20
-12.5261434253
 10
4.289600404
 20
-12.6999241659
 10
4.1002811523
 20
-12.866088242
 10
3.9042900069
 20
-13.024417447
 10
3.7019870666
 20
-13.1746679208
 10
3.4937333164
 20
-13.3166145011
 10
3.2798644205
 20
-13.4500846715
 10
3.0607649394
 20
-13.5748785726
 10
2.8368128796
 20
-13.6908170445
 10
2.6083368892
 20
-13.7977710675
 10
2.3757321375
 20
-13.8955811688
 10
2.1393915958
 20
-13.9841070448
 10
1.8996404426
 20
-14.0632559728
 10
1.656883987
 20
-14.1329105639
 10
1.4115251763
 20
-14.1929699418
 10
1.16388488
 20
-14.2433706391
 10
0.9143747959
 20
-14.2840338531
 10
0.6634057702
 20
-14.3148975867
 10
0.4112970074
 20
-14.3359256277
 10
0.1584619215
 20
-14.3470771993
 10
-0.0946810655
 20
-14.3483254063
 10
-0.3478044981
 20
-14.3396583287
 10
-0.6004916927
 20
-14.3210766071
 10
-0.8523216341
 20
-14.2925949815
 10
-1.1029585506
 20
-14.2542282513
 10
-1.3519870873
 20
-14.2060138819
 10
-1.5989832586
 20
-14.1480077438
 10
-1.8435961959
 20
-14.0802586096
 10
-2.085414769
 20
-14.0028461677
 10
-2.324015965
 20
-13.9158690648
 10
-2.5590303745
 20
-13.8194165464
 10
-2.7900509035
 20
-13.7136153187
 10
-3.0166660431
 20
-13.5986120264
 10
-3.2385014355
 20
-13.4745419415
 10
-3.4551745921
 20
-13.3415699917
 10
-3.6662731404
 20
-13.1998958509
 10
-3.8713867538
 20
-13.0497313829
 10
-4.0700863887
 20
-12.8913513216
 10
-4.262061185
 20
-12.724960309
 10
-4.4470786123
 20
-12.5506772038
 10
-4.6247263797
 20
-12.368812401
 10
-4.7946992041
 20
-12.179597613
 10
-4.9568861593
 20
-11.9830100548
 10
-5.1110230823
 20
-11.7791770684
 10
-5.2566181006
 20
-11.5685415875
 10
-5.3932168385
 20
-11.3515652324
 10
-5.5204664383
 20
-11.1286468813
 10
-5.6380932224
 20
-10.9001069126
 10
-5.7458013627
 20
-10.6663270413
  0
LWPOLYLINE
  5
30E
100
AcDbEntity
  8
0
100
AcDbPolyline
 62
250
  6
CONTINUOUS
 90
52
 70
0
 10
6.8360101018
 20
-4.5410670887
 10
6.8485950973
 20
-4.5348307872
 10
6.8606698067
 20
-4.5298376634
 10
6.8722328114
 20
-4.5260858614
 10
6.8832338045
 20
-4.5235993252
 10
6.8937206147
 20
-4.5223502326
 10
6.9038389551
 20
-4.5222604442
 10
6.9135783088
 20
-4.5232494766
 10
6.9229466207
 20
-4.5253967192
 10
6.9321163923
 20
-4.5288674683
 10
6.9411368688
 20
-4.5335827382
 10
6.9499541669
 20
-4.5396254359
 10
6.9585844245
 20
-4.5474075878
 10
6.9670984441
 20
-4.5569944299
 10
6.9754171894
 20
-4.5683283168
 10
6.9833315799
 20
-4.5816370562
 10
6.9908166864
 20
-4.5969901404
 10
6.9978889494
 20
-4.6143218539
 10
7.0044029381
 20
-4.6336541023
 10
7.0103256827
 20
-4.6550035471
 10
7.0156828691
 20
-4.6783537477
 10
7.0204187176
 20
-4.7036746859
 10
7.0245170539
 20
-4.7309514751
 10
7.0279875997
 20
-4.7601976837
 10
7.0308141459
 20
-4.791425161
 10
7.0329919473
 20
-4.8246130947
 10
7.0345192484
 20
-4.859780693
 10
7.0353841658
 20
-4.8969998483
 10
7.0355866937
 20
-4.9362406036
 10
7.0351196327
 20
-4.9775314316
 10
7.0339594381
 20
-5.0210322538
 10
7.0321025856
 20
-5.0667743148
 10
7.0295436082
 20
-5.1147253078
 10
7.0262553668
 20
-5.1649500257
 10
7.0222264911
 20
-5.2174992162
 10
7.0174588354
 20
-5.2723206988
 10
7.0119457114
 20
-5.3293245327
 10
7.0056846512
 20
-5.3884702888
 10
6.9986699769
 20
-5.4497960814
 10
6.9908907781
 20
-5.513329501
 10
6.9823568854
 20
-5.5789782188
 10
6.9730500725
 20
-5.6468320422
 10
6.9629158137
 20
-5.7171920211
 10
6.9519568024
 20
-5.7900295726
 10
6.9401583977
 20
-5.865371079
 10
6.9274369245
 20
-5.9436004739
 10
6.9137882487
 20
-6.0247144844
 10
6.8992003348
 20
-6.1087141218
 10
6.8835743934
 20
-6.1959899818
 10
6.8669081632
 20
-6.2865127247
 10
6.8491835134
 20
-6.3803089053
 10
6.8302743384
 20
-6.477853003
  0
LINE
  5
30F
100
AcDbEntity
  8
0
100
AcDbLine
 62
250
  6
CONTINUOUS
 10
-7.5835455464
 20
-11.2701614165
 11
-5.7457887076
 21
-10.6663394484
  0
LWPOLYLINE
  5
310
100
AcDbEntity
  8
0
100
AcDbPolyline
 62
250
  6
CONTINUOUS
 90
22
 70
0
 10
-5.1772888562
 20
-9.7156998506
 10
-5.226070226
 20
-9.730208456
 10
-5.2746533561
 20
-9.7457165462
 10
-5.3228408125
 20
-9.7621610986
 10
-5.3704367692
 20
-9.7794752854
 10
-5.4172478037
 20
-9.7975887444
 10
-5.4630836837
 20
-9.8164278655
 10
-5.5077581393
 20
-9.8359160894
 10
-5.5510896208
 20
-9.8559742191
 10
-5.5929020361
 20
-9.8765207417
 10
-5.6330254661
 20
-9.8974721594
 10
-5.6712968557
 20
-9.918743329
 10
-5.7075606762
 20
-9.9402478078
 10
-5.7416695571
 20
-9.9618982052
 10
-5.7734848856
 20
-9.9836065373
 10
-5.802877369
 20
-10.005284585
 10
-5.8297275645
 20
-10.0268442549
 10
-5.8539263532
 20
-10.0481979293
 10
-5.8753753874
 20
-10.0692588222
 10
-5.8939875029
 20
-10.0899413434
 10
-5.9096870693
 20
-10.1101614459
 10
-5.9224102894
 20
-10.129836959
  0
LINE
  5
311
100
AcDbEntity
  8
SMUSSO
100
AcDbLine
 62
7
  6
CONTINUOUS
 10
-71.848256081
 20
9.2544816823
 11
-71.769841539
 21
9.2544816823
  0
LINE
  5
312
100
AcDbEntity
  8
SMUSSO
100
AcDbLine
 62
7
  6
CONTINUOUS
 10
71.769841539
 20
9.2544816823
 11
71.848256081
 21
9.2544816823
  0
LINE
  5
313
100
AcDbEntity
  8
0
100
AcDbLine
 62
250
  6
CONTINUOUS
 10
-8.0601660306
 20
9.6009023849
 11
-7.5
 21
9.6009023849
  0
LINE
  5
314
100
AcDbEntity
  8
0
100
AcDbLine
 62
250
  6
CONTINUOUS
 10
8.0601660306
 20
9.6009023849
 11
7.5
 21
9.6009023849
  0
LINE
  5
315
100
AcDbEntity
  8
0
100
AcDbLine
 62
250
  6
CONTINUOUS
 10
-7.0
 20
9.6009023849
 11
-6.4287407973
 21
9.6009023849
  0
LINE
  5
316
100
AcDbEntity
  8
0
100
AcDbLine
 62
250
  6
CONTINUOUS
 10
7.0
 20
9.6009023849
 11
6.4287407973
 21
9.6009023849
  0
LINE
  5
317
100
AcDbEntity
  8
SMUSSO
100
AcDbLine
 62
7
  6
CONTINUOUS
 10
71.848256081
 20
10.0450392002
 11
71.769841539
 21
10.0450392002
  0
LINE
  5
318
100
AcDbEntity
  8
SMUSSO
100
AcDbLine
 62
7
  6
CONTINUOUS
 10
-71.769841539
 20
10.0450392002
 11
-71.848256081
 21
10.0450392002
  0
LINE
  5
319
100
AcDbEntity
  8
RACCORDO
100
AcDbLine
 62
7
  6
CONTINUOUS
 10
-71.45
 20
10.3873372918
 11
-70.5500000012
 21
10.3873372918
  0
LINE
  5
31A
100
AcDbEntity
  8
RACCORDO
100
AcDbLine
 62
7
  6
CONTINUOUS
 10
70.5500000012
 20
10.3873372918
 11
71.45
 21
10.3873372918
  0
LINE
  5
31B
100
AcDbEntity
  8
RACCORDO
100
AcDbLine
 62
7
  6
CONTINUOUS
 10
71.45
 20
11.2064893361
 11
70.5500000012
 21
11.2064893361
  0
LINE
  5
31C
100
AcDbEntity
  8
RACCORDO
100
AcDbLine
 62
7
  6
CONTINUOUS
 10
-70.5500000012
 20
11.2064893361
 11
-71.45
 21
11.2064893361
  0
LINE
  5
31D
100
AcDbEntity
  8
0
100
AcDbLine
 62
250
  6
CONTINUOUS
 10
-8.0601660306
 20
12.6009023849
 11
-7.5
 21
12.6009023849
  0
LINE
  5
31E
100
AcDbEntity
  8
0
100
AcDbLine
 62
250
  6
CONTINUOUS
 10
8.0601660306
 20
12.6009023849
 11
7.5
 21
12.6009023849
  0
LINE
  5
31F
100
AcDbEntity
  8
0
100
AcDbLine
 62
250
  6
CONTINUOUS
 10
-7.0
 20
12.6009023849
 11
-6.4287407973
 21
12.6009023849
  0
LINE
  5
320
100
AcDbEntity
  8
0
100
AcDbLine
 62
250
  6
CONTINUOUS
 10
7.0
 20
12.6009023849
 11
6.4287407973
 21
12.6009023849
  0
LINE
  5
321
100
AcDbEntity
  8
0
100
AcDbLine
 62
7
  6
CONTINUOUS
 10
15.9349101299
 20
-21.3332602048
 11
15.9048638556
 21
-20.3705469311
  0
LINE
  5
322
100
AcDbEntity
  8
RACCORDO
100
AcDbLine
 62
250
  6
CONTINUOUS
 10
14.5
 20
-24.5904550003
 11
14.4373564226
 21
-20.3705469311
  0
LINE
  5
323
100
AcDbEntity
  8
RACCORDO
100
AcDbLine
 62
250
  6
CONTINUOUS
 10
14.6999771547
 20
-24.4266245905
 11
14.6397656026
 21
-20.3705469311
  0
LINE
  5
324
100
AcDbEntity
  8
RACCORDO
100
AcDbLine
 62
7
  6
CONTINUOUS
 10
14.5174537356
 20
-26.842034597
 11
14.4236684169
 21
-20.3705469311
  0
LINE
  5
325
100
AcDbEntity
  8
SMUSSO
100
AcDbLine
 62
7
  6
CONTINUOUS
 10
14.5
 20
-25.3686494414
 11
14.5130929598
 21
-26.272105642
  0
LINE
  5
326
100
AcDbEntity
  8
SMUSSO
100
AcDbLine
 62
7
  6
CONTINUOUS
 10
14.5174537356
 20
-26.7778011646
 11
14.5130929598
 21
-26.272105642
  0
LINE
  5
327
100
AcDbEntity
  8
0
100
AcDbLine
 62
7
  6
CONTINUOUS
 10
14.0650898701
 20
-21.3332602048
 11
14.0650898701
 21
-20.3705469311
  0
LINE
  5
328
100
AcDbEntity
  8
RACCORDO
100
AcDbLine
 62
7
  6
CONTINUOUS
 10
14.5
 20
-24.5904550003
 11
14.5
 21
-25.3686494414
  0
LINE
  5
329
100
AcDbEntity
  8
SMUSSO
100
AcDbLine
 62
7
  6
CONTINUOUS
 10
14.5174537356
 20
-26.7778011646
 11
14.5174537356
 21
-26.842034597
  0
LINE
  5
32A
100
AcDbEntity
  8
SMUSSO
100
AcDbLine
 62
7
  6
CONTINUOUS
 10
15.4825462644
 20
-26.842034597
 11
15.4825462644
 21
-26.7778011646
  0
LINE
  5
32B
100
AcDbEntity
  8
RACCORDO
100
AcDbLine
 62
7
  6
CONTINUOUS
 10
15.5
 20
-25.3686494414
 11
15.5
 21
-24.5904550003
  0
LINE
  5
32C
100
AcDbEntity
  8
0
100
AcDbLine
 62
7
  6
CONTINUOUS
 10
15.9349101299
 20
-21.3332602048
 11
15.9349101299
 21
-20.3705469311
  0
LINE
  5
32D
100
AcDbEntity
  8
SMUSSO
100
AcDbLine
 62
7
  6
CONTINUOUS
 10
15.4869070402
 20
-26.272105642
 11
15.4825462644
 21
-26.7778011646
  0
LINE
  5
32E
100
AcDbEntity
  8
SMUSSO
100
AcDbLine
 62
7
  6
CONTINUOUS
 10
15.5
 20
-25.3686494414
 11
15.4869070402
 21
-26.272105642
  0
LINE
  5
32F
100
AcDbEntity
  8
RACCORDO
100
AcDbLine
 62
7
  6
CONTINUOUS
 10
15.5763315831
 20
-20.3705469311
 11
15.4825462644
 21
-26.842034597
  0
LINE
  5
330
100
AcDbEntity
  8
RACCORDO
100
AcDbLine
 62
250
  6
CONTINUOUS
 10
15.3000228453
 20
-24.4266245905
 11
15.3602343974
 21
-20.3705469311
  0
LINE
  5
331
100
AcDbEntity
  8
RACCORDO
100
AcDbLine
 62
250
  6
CONTINUOUS
 10
15.5
 20
-24.5904550003
 11
15.5626435774
 21
-20.3705469311
  0
LINE
  5
332
100
AcDbEntity
  8
0
100
AcDbLine
 62
7
  6
CONTINUOUS
 10
14.0650898701
 20
-21.3332602048
 11
14.0951361444
 21
-20.3705469311
  0
LINE
  5
333
100
AcDbEntity
  8
0
100
AcDbLine
 62
7
  6
CONTINUOUS
 10
-70.2475378757
 20
13.8740418934
 11
-70.0
 21
13.8740418934
  0
LINE
  5
334
100
AcDbEntity
  8
0
100
AcDbLine
 62
7
  6
CONTINUOUS
 10
70.2475378757
 20
13.8740418934
 11
70.0
 21
13.8740418934
  0
LINE
  5
335
100
AcDbEntity
  8
0
100
AcDbLine
 62
7
  6
CONTINUOUS
 10
-70.2113059233
 20
15.0497914703
 11
-70.0349101299
 21
15.0497914703
  0
LINE
  5
336
100
AcDbEntity
  8
0
100
AcDbLine
 62
7
  6
CONTINUOUS
 10
70.2113059233
 20
15.0497914703
 11
70.0349101299
 21
15.0497914703
  0
LINE
  5
337
100
AcDbEntity
  8
0
100
AcDbLine
 62
7
  6
CONTINUOUS
 10
-71.2650898701
 20
15.4057089816
 11
-70.0
 21
15.4057089816
  0
LINE
  5
338
100
AcDbEntity
  8
0
100
AcDbLine
 62
7
  6
CONTINUOUS
 10
71.2650898701
 20
15.4057089816
 11
70.0
 21
15.4057089816
  0
LINE
  5
339
100
AcDbEntity
  8
0
100
AcDbLine
 62
7
  6
CONTINUOUS
 10
42.6722210678
 20
20.0878393339
 11
39.8277789322
 21
20.0878393339
  0
LINE
  5
33A
100
AcDbEntity
  8
0
100
AcDbLine
 62
7
  6
CONTINUOUS
 10
-39.8277789322
 20
20.0878393339
 11
-42.6722210678
 21
20.0878393339
  0
LINE
  5
33B
100
AcDbEntity
  8
0
100
AcDbLine
 62
7
  6
CONTINUOUS
 10
-43.7727598048
 20
27.4705998859
 11
-38.7272650368
 21
27.4705998859
  0
LINE
  5
33C
100
AcDbEntity
  8
RACCORDO
100
AcDbLine
 62
7
  6
CONTINUOUS
 10
43.7727170459
 20
27.4705998859
 11
38.7272819521
 21
27.4705998859
  0
LINE
  5
33D
100
AcDbEntity
  8
0
100
AcDbLine
 62
7
  6
CONTINUOUS
 10
38.7272819521
 20
27.4705998859
 11
43.7727170459
 21
27.4705998859
  0
LINE
  5
33E
100
AcDbEntity
  8
RACCORDO
100
AcDbLine
 62
7
  6
CONTINUOUS
 10
-38.7272650368
 20
27.4705998859
 11
-43.7727598048
 21
27.4705998859
  0
LINE
  5
33F
100
AcDbEntity
  8
0
100
AcDbLine
 62
7
  6
CONTINUOUS
 10
-42.6266222809
 20
29.1975291892
 11
-39.8733777191
 21
29.1975291892
  0
LINE
  5
340
100
AcDbEntity
  8
0
100
AcDbLine
 62
7
  6
CONTINUOUS
 10
39.8733777191
 20
29.1975291892
 11
42.6266222809
 21
29.1975291892
  0
LINE
  5
341
100
AcDbEntity
  8
SMUSSO
100
AcDbLine
 62
7
  6
CONTINUOUS
 10
-71.848256081
 20
36.2864991438
 11
-71.769841539
 21
36.2864991438
  0
LINE
  5
342
100
AcDbEntity
  8
SMUSSO
100
AcDbLine
 62
7
  6
CONTINUOUS
 10
71.769841539
 20
36.2864991438
 11
71.848256081
 21
36.2864991438
  0
LINE
  5
343
100
AcDbEntity
  8
SMUSSO
100
AcDbLine
 62
7
  6
CONTINUOUS
 10
71.848256081
 20
37.0770566617
 11
71.769841539
 21
37.0770566617
  0
LINE
  5
344
100
AcDbEntity
  8
SMUSSO
100
AcDbLine
 62
7
  6
CONTINUOUS
 10
-71.769841539
 20
37.0770566617
 11
-71.848256081
 21
37.0770566617
  0
LINE
  5
345
100
AcDbEntity
  8
RACCORDO
100
AcDbLine
 62
7
  6
CONTINUOUS
 10
-71.45
 20
37.4193547533
 11
-70.5500000012
 21
37.4193547533
  0
LINE
  5
346
100
AcDbEntity
  8
RACCORDO
100
AcDbLine
 62
7
  6
CONTINUOUS
 10
70.5500000012
 20
37.4193547533
 11
71.45
 21
37.4193547533
  0
LINE
  5
347
100
AcDbEntity
  8
0
100
AcDbLine
 62
7
  6
CONTINUOUS
 10
42.5612763561
 20
27.4705998859
 11
42.6722210678
 21
20.0878393339
  0
LINE
  5
348
100
AcDbEntity
  8
0
100
AcDbLine
 62
7
  6
CONTINUOUS
 10
42.6266222809
 20
29.1975291892
 11
42.6722210678
 21
20.0878393339
  0
LINE
  5
349
100
AcDbEntity
  8
0
100
AcDbLine
 62
7
  6
CONTINUOUS
 10
39.8277789322
 20
20.0878393339
 11
39.8733777191
 21
29.1975291892
  0
LINE
  5
34A
100
AcDbEntity
  8
0
100
AcDbLine
 62
7
  6
CONTINUOUS
 10
39.9387236439
 20
27.4705998859
 11
39.8277789322
 21
20.0878393339
  0
LWPOLYLINE
  5
34B
100
AcDbEntity
  8
0
100
AcDbPolyline
 62
7
  6
CONTINUOUS
 90
17
 70
0
 10
62.7828322143
 20
-18.2859322875
 10
62.7478939416
 20
-18.3023898244
 10
62.6113681877
 20
-18.3593606511
 10
62.4740482788
 20
-18.4094018126
 10
62.3358898398
 20
-18.452498864
 10
62.1972737875
 20
-18.4888742842
 10
62.0582301955
 20
-18.5185574862
 10
61.9187289901
 20
-18.5415190571
 10
61.779060868
 20
-18.5578932373
 10
61.6392383045
 20
-18.5677179024
 10
61.4992488243
 20
-18.5709551769
 10
61.3593456971
 20
-18.5676256739
 10
61.2195228742
 20
-18.5577685436
 10
61.0797864043
 20
-18.541344636
 10
60.940407703
 20
-18.5182571142
 10
60.8013623765
 20
-18.488539091
 10
60.7803930389
 20
-18.4830382455
  0
LWPOLYLINE
  5
34C
100
AcDbEntity
  8
0
100
AcDbPolyline
 62
250
  6
CONTINUOUS
 90
28
 70
0
 10
-68.2740960254
 20
37.752224692
 10
-68.3032374415
 20
37.7510650465
 10
-68.3318276754
 20
37.7480055024
 10
-68.359866727
 20
37.7430460597
 10
-68.387319775
 20
37.7361811933
 10
-68.4142216408
 20
37.7274164283
 10
-68.4406767884
 20
37.7167683397
 10
-68.4668291715
 20
37.7041967645
 10
-68.4925348363
 20
37.6897418657
 10
-68.517466386
 20
37.6735407077
 10
-68.5415877686
 20
37.6555877428
 10
-68.564935036
 20
37.6358885185
 10
-68.587288947
 20
37.6145967424
 10
-68.6086565075
 20
37.5916756507
 10
-68.6290307115
 20
37.5671620071
 10
-68.6481713007
 20
37.5413198093
 10
-68.6660316031
 20
37.5142143632
 10
-68.6826582907
 20
37.4857803629
 10
-68.6979511199
 20
37.4560858881
 10
-68.711930445
 20
37.4251822702
 10
-68.7245759119
 20
37.3930181778
 10
-68.7357262144
 20
37.3595076961
 10
-68.7454413932
 20
37.3244599594
 10
-68.7536614077
 20
37.2880658334
 10
-68.76004483
 20
37.250812001
 10
-68.764477851
 20
37.2128606898
 10
-68.7670742797
 20
37.1740496721
 10
-68.7678341164
 20
37.134378948
  0
LWPOLYLINE
  5
34D
100
AcDbEntity
  8
0
100
AcDbPolyline
 62
250
  6
CONTINUOUS
 90
28
 70
0
 10
-68.2740960254
 20
38.5612416863
 10
-68.3611008572
 20
38.5582015257
 10
-68.4470075811
 20
38.5505042886
 10
-68.5315437571
 20
38.5382826331
 10
-68.6140928566
 20
38.5217495748
 10
-68.6947888005
 20
38.5010194387
 10
-68.7744636066
 20
38.4759452173
 10
-68.8532639123
 20
38.4463954949
 10
-68.9304897025
 20
38.4125300838
 10
-69.0056707224
 20
38.3745415738
 10
-69.0784747773
 20
38.3325662825
 10
-69.1487477561
 20
38.2866745491
 10
-69.2163055176
 20
38.2369986594
 10
-69.2809630009
 20
38.1836082149
 10
-69.3424371631
 20
38.1266816551
 10
-69.4004186477
 20
38.0665380214
 10
-69.4545768344
 20
38.0035124965
 10
-69.504891135
 20
37.9376231162
 10
-69.5514770416
 20
37.8686963258
 10
-69.5940456621
 20
37.7969846869
 10
-69.6324372418
 20
37.7225590125
 10
-69.6667592151
 20
37.644896492
 10
-69.6967880198
 20
37.5637497317
 10
-69.721986878
 20
37.4796854509
 10
-69.7419316118
 20
37.3934051827
 10
-69.7563418115
 20
37.3053229477
 10
-69.7650020104
 20
37.2155468541
 10
-69.7676818115
 20
37.1243686589
  0
LINE
  5
34E
100
AcDbEntity
  8
0
100
AcDbLine
 62
250
  6
CONTINUOUS
 10
-68.7678341164
 20
37.134378948
 11
-69.7676818115
 21
37.1243686589
  0
LINE
  5
34F
100
AcDbEntity
  8
0
100
AcDbLine
 62
250
  6
CONTINUOUS
 10
68.2740960254
 20
37.752224692
 11
-68.2740960254
 21
37.752224692
  0
LINE
  5
350
100
AcDbEntity
  8
RACCORDO
100
AcDbLine
 62
7
  6
CONTINUOUS
 10
71.45
 20
38.2385067976
 11
70.5500000012
 21
38.2385067976
  0
LINE
  5
351
100
AcDbEntity
  8
RACCORDO
100
AcDbLine
 62
7
  6
CONTINUOUS
 10
-70.5500000012
 20
38.2385067976
 11
-71.45
 21
38.2385067976
  0
LINE
  5
352
100
AcDbEntity
  8
0
100
AcDbLine
 62
250
  6
CONTINUOUS
 10
68.2740960254
 20
38.5612416863
 11
-68.2740960254
 21
38.5612416863
  0
LINE
  5
353
100
AcDbEntity
  8
0
100
AcDbLine
 62
7
  6
CONTINUOUS
 10
-70.2475378757
 20
40.9060593549
 11
-70.0
 21
40.9060593549
  0
LINE
  5
354
100
AcDbEntity
  8
0
100
AcDbLine
 62
7
  6
CONTINUOUS
 10
70.2475378757
 20
40.9060593549
 11
70.0
 21
40.9060593549
  0
LINE
  5
355
100
AcDbEntity
  8
0
100
AcDbLine
 62
7
  6
CONTINUOUS
 10
-70.2113059233
 20
42.0818089319
 11
-70.0349101299
 21
42.0818089319
  0
LINE
  5
356
100
AcDbEntity
  8
0
100
AcDbLine
 62
7
  6
CONTINUOUS
 10
70.2113059233
 20
42.0818089319
 11
70.0349101299
 21
42.0818089319
  0
LINE
  5
357
100
AcDbEntity
  8
RACCORDO
100
AcDbLine
 62
7
  6
CONTINUOUS
 10
71.6763145312
 20
42.428970489
 11
-71.6763145312
 21
42.428970489
  0
LINE
  5
358
100
AcDbEntity
  8
0
100
AcDbLine
 62
250
  6
CONTINUOUS
 10
68.7678341164
 20
37.134378948
 11
69.7676818115
 21
37.1243686589
  0
LINE
  5
359
100
AcDbEntity
  8
SMUSSO
100
AcDbLine
 62
7
  6
CONTINUOUS
 10
71.769841539
 20
-17.7775357793
 11
71.5023917906
 21
-17.4944944031
  0
LINE
  5
35A
100
AcDbEntity
  8
SMUSSO
100
AcDbLine
 62
7
  6
CONTINUOUS
 10
71.5023917906
 20
-16.6967926084
 11
71.769841539
 21
-16.9869782613
  0
LINE
  5
35B
100
AcDbEntity
  8
0
100
AcDbLine
 62
7
  6
CONTINUOUS
 10
49.4349101299
 20
-21.3332602048
 11
49.4048638556
 21
-20.3705469311
  0
LINE
  5
35C
100
AcDbEntity
  8
RACCORDO
100
AcDbLine
 62
250
  6
CONTINUOUS
 10
48.0
 20
-24.5904550003
 11
47.9373564226
 21
-20.3705469311
  0
LINE
  5
35D
100
AcDbEntity
  8
RACCORDO
100
AcDbLine
 62
250
  6
CONTINUOUS
 10
48.1999771547
 20
-24.4266245905
 11
48.1397656026
 21
-20.3705469311
  0
LINE
  5
35E
100
AcDbEntity
  8
RACCORDO
100
AcDbLine
 62
7
  6
CONTINUOUS
 10
48.0174537356
 20
-26.842034597
 11
47.9236684169
 21
-20.3705469311
  0
LINE
  5
35F
100
AcDbEntity
  8
SMUSSO
100
AcDbLine
 62
7
  6
CONTINUOUS
 10
48.0
 20
-25.3686494414
 11
48.0130929598
 21
-26.272105642
  0
LINE
  5
360
100
AcDbEntity
  8
SMUSSO
100
AcDbLine
 62
7
  6
CONTINUOUS
 10
48.0174537356
 20
-26.7778011646
 11
48.0130929598
 21
-26.272105642
  0
LINE
  5
361
100
AcDbEntity
  8
0
100
AcDbLine
 62
7
  6
CONTINUOUS
 10
47.5650898701
 20
-21.3332602048
 11
47.5650898701
 21
-20.3705469311
  0
LINE
  5
362
100
AcDbEntity
  8
RACCORDO
100
AcDbLine
 62
7
  6
CONTINUOUS
 10
48.0
 20
-24.5904550003
 11
48.0
 21
-25.3686494414
  0
LINE
  5
363
100
AcDbEntity
  8
SMUSSO
100
AcDbLine
 62
7
  6
CONTINUOUS
 10
48.0174537356
 20
-26.7778011646
 11
48.0174537356
 21
-26.842034597
  0
LINE
  5
364
100
AcDbEntity
  8
SMUSSO
100
AcDbLine
 62
7
  6
CONTINUOUS
 10
48.9825462644
 20
-26.842034597
 11
48.9825462644
 21
-26.7778011646
  0
LINE
  5
365
100
AcDbEntity
  8
RACCORDO
100
AcDbLine
 62
7
  6
CONTINUOUS
 10
49.0
 20
-25.3686494414
 11
49.0
 21
-24.5904550003
  0
LINE
  5
366
100
AcDbEntity
  8
0
100
AcDbLine
 62
7
  6
CONTINUOUS
 10
49.4349101299
 20
-21.3332602048
 11
49.4349101299
 21
-20.3705469311
  0
LINE
  5
367
100
AcDbEntity
  8
SMUSSO
100
AcDbLine
 62
7
  6
CONTINUOUS
 10
48.9869070402
 20
-26.272105642
 11
48.9825462644
 21
-26.7778011646
  0
LINE
  5
368
100
AcDbEntity
  8
SMUSSO
100
AcDbLine
 62
7
  6
CONTINUOUS
 10
49.0
 20
-25.3686494414
 11
48.9869070402
 21
-26.272105642
  0
LINE
  5
369
100
AcDbEntity
  8
RACCORDO
100
AcDbLine
 62
7
  6
CONTINUOUS
 10
49.0763315831
 20
-20.3705469311
 11
48.9825462644
 21
-26.842034597
  0
LINE
  5
36A
100
AcDbEntity
  8
RACCORDO
100
AcDbLine
 62
250
  6
CONTINUOUS
 10
48.8000228453
 20
-24.4266245905
 11
48.8602343974
 21
-20.3705469311
  0
LINE
  5
36B
100
AcDbEntity
  8
RACCORDO
100
AcDbLine
 62
250
  6
CONTINUOUS
 10
49.0
 20
-24.5904550003
 11
49.0626435774
 21
-20.3705469311
  0
LINE
  5
36C
100
AcDbEntity
  8
0
100
AcDbLine
 62
7
  6
CONTINUOUS
 10
47.5650898701
 20
-21.3332602048
 11
47.5951361444
 21
-20.3705469311
  0
LINE
  5
36D
100
AcDbEntity
  8
RACCORDO
100
AcDbLine
 62
7
  6
CONTINUOUS
 10
-72.4469479951
 20
44.1244854171
 11
72.4469479951
 21
44.1244854171
  0
LINE
  5
36E
100
AcDbEntity
  8
RACCORDO
100
AcDbLine
 62
250
  6
CONTINUOUS
 10
-71.8970676421
 20
54.0469560706
 11
-71.8110243751
 21
54.0486636841
  0
LINE
  5
36F
100
AcDbEntity
  8
RACCORDO
100
AcDbLine
 62
250
  6
CONTINUOUS
 10
-71.8110243751
 20
54.0486636841
 11
71.8110243751
 21
54.0486636841
  0
LINE
  5
370
100
AcDbEntity
  8
RACCORDO
100
AcDbLine
 62
7
  6
CONTINUOUS
 10
-71.8252591621
 20
54.0970046606
 11
71.8110243779
 21
54.0970625137
  0
LINE
  5
371
100
AcDbEntity
  8
RACCORDO
100
AcDbLine
 62
250
  6
CONTINUOUS
 10
71.8110243751
 20
54.0486636841
 11
71.8903807128
 21
54.047235356
  0
LWPOLYLINE
  5
372
100
AcDbEntity
  8
RACCORDO
100
AcDbPolyline
 62
250
  6
CONTINUOUS
 90
4
 70
0
 10
71.3
 20
-17.3148857145
 10
71.3012591062
 20
-17.3173222153
 10
71.3050185981
 20
-17.3287453428
 10
71.3067404104
 20
-17.3402820514
  0
LWPOLYLINE
  5
373
100
AcDbEntity
  8
RACCORDO
100
AcDbPolyline
 62
7
  6
CONTINUOUS
 90
27
 70
0
 10
-71.8252591621
 20
54.0970046606
 10
-71.915234638
 20
54.0939778803
 10
-72.0048622103
 20
54.0863732434
 10
-72.093835035
 20
54.0742032493
 10
-72.1818110169
 20
54.0574998169
 10
-72.2684241582
 20
54.0363352862
 10
-72.3534108171
 20
54.0107651904
 10
-72.4364889563
 20
53.9808679977
 10
-72.5172759605
 20
53.9467742215
 10
-72.5955063384
 20
53.9085868658
 10
-72.6709288327
 20
53.8664264457
 10
-72.7431982561
 20
53.8204759256
 10
-72.8120785997
 20
53.7708907175
 10
-72.8773473072
 20
53.7178280331
 10
-72.9387142316
 20
53.6615186178
 10
-72.9959867254
 20
53.6021561415
 10
-73.0489686021
 20
53.5399415436
 10
-73.097423728
 20
53.475172068
 10
-73.1411967354
 20
53.4080940504
 10
-73.1801526348
 20
53.3389414801
 10
-73.2141469441
 20
53.2680428219
 10
-73.2430863408
 20
53.1956731341
 10
-73.2668987489
 20
53.1221093357
 10
-73.2855234716
 20
53.0477088335
 10
-73.2989400874
 20
52.9727861072
 10
-73.3071737254
 20
52.8976254709
 10
-73.3081210481
 20
52.8838941114
  0
LINE
  5
374
100
AcDbEntity
  8
RACCORDO
100
AcDbLine
 62
7
  6
CONTINUOUS
 10
71.9090444892
 20
54.0943346877
 11
71.811024378
 21
54.0970625136
  0
LWPOLYLINE
  5
375
100
AcDbEntity
  8
RACCORDO
100
AcDbPolyline
 62
250
  6
CONTINUOUS
 90
27
 70
0
 10
71.8903807128
 20
54.047235356
 10
71.9687326459
 20
54.0424202256
 10
72.0458750356
 20
54.0343313683
 10
72.1213186566
 20
54.0231384293
 10
72.1951907986
 20
54.0089443832
 10
72.268199548
 20
53.9916579831
 10
72.340488045
 20
53.9712012887
 10
72.4115141524
 20
53.9476845495
 10
72.480937113
 20
53.9212174734
 10
72.5485183145
 20
53.8919000773
 10
72.6141470493
 20
53.8597881925
 10
72.6776882417
 20
53.824951804
 10
72.7389840413
 20
53.7874753156
 10
72.7978656735
 20
53.7474588903
 10
72.8541861811
 20
53.7050012894
 10
72.9078279283
 20
53.6601850394
 10
72.9586151332
 20
53.6131489921
 10
73.0063374003
 20
53.5640960216
 10
73.0506561404
 20
53.5134368373
 10
73.0917310956
 20
53.4610584479
 10
73.1299882867
 20
53.4063175538
 10
73.1653163381
 20
53.3490849866
 10
73.1973383157
 20
53.2896537621
 10
73.2259068984
 20
53.2279443989
 10
73.2508197764
 20
53.163891761
 10
73.2717230301
 20
53.097807943
 10
73.2882795752
 20
53.0302115281
  0
LINE
  5
376
100
AcDbEntity
  8
SMUSSO
100
AcDbLine
 62
7
  6
CONTINUOUS
 10
71.769841539
 20
9.2544816823
 11
71.5023917906
 21
9.5375230584
  0
LINE
  5
377
100
AcDbEntity
  8
SMUSSO
100
AcDbLine
 62
7
  6
CONTINUOUS
 10
71.5023917906
 20
10.3352248532
 11
71.769841539
 21
10.0450392002
  0
LINE
  5
378
100
AcDbEntity
  8
0
100
AcDbLine
 62
250
  6
CONTINUOUS
 10
67.7070470548
 20
-19.3705469311
 11
67.7070470546
 21
-20.3705469311
  0
LINE
  5
379
100
AcDbEntity
  8
0
100
AcDbLine
 62
250
  6
CONTINUOUS
 10
68.3889358837
 20
42.428970489
 11
68.2740960254
 21
38.5612416863
  0
LINE
  5
37A
100
AcDbEntity
  8
SMUSSO
100
AcDbLine
 62
7
  6
CONTINUOUS
 10
71.45
 20
-16.6446801697
 11
71.5023917906
 21
-17.4944944031
  0
LINE
  5
37B
100
AcDbEntity
  8
SMUSSO
100
AcDbLine
 62
7
  6
CONTINUOUS
 10
71.45
 20
10.3873372918
 11
71.5023917906
 21
9.5375230584
  0
LINE
  5
37C
100
AcDbEntity
  8
SMUSSO
100
AcDbLine
 62
7
  6
CONTINUOUS
 10
71.45
 20
37.4193547533
 11
71.5023917906
 21
36.5695405199
  0
LINE
  5
37D
100
AcDbEntity
  8
SMUSSO
100
AcDbLine
 62
7
  6
CONTINUOUS
 10
71.45
 20
-15.8255281255
 11
71.5023917906
 21
-16.6967926084
  0
LINE
  5
37E
100
AcDbEntity
  8
RACCORDO
100
AcDbLine
 62
7
  6
CONTINUOUS
 10
71.3067404104
 20
-7.9816863057
 11
71.848256081
 21
-16.9869782613
  0
LINE
  5
37F
100
AcDbEntity
  8
SMUSSO
100
AcDbLine
 62
7
  6
CONTINUOUS
 10
71.45
 20
11.2064893361
 11
71.5023917906
 21
10.3352248532
  0
LINE
  5
380
100
AcDbEntity
  8
RACCORDO
100
AcDbLine
 62
7
  6
CONTINUOUS
 10
71.3067404104
 20
19.0503311558
 11
71.848256081
 21
10.0450392002
  0
LINE
  5
381
100
AcDbEntity
  8
SMUSSO
100
AcDbLine
 62
7
  6
CONTINUOUS
 10
71.45
 20
38.2385067976
 11
71.5023917906
 21
37.3672423147
  0
LINE
  5
382
100
AcDbEntity
  8
RACCORDO
100
AcDbLine
 62
7
  6
CONTINUOUS
 10
71.5264291798
 20
42.428970489
 11
71.848256081
 21
37.0770566617
  0
LINE
  5
383
100
AcDbEntity
  8
RACCORDO
100
AcDbLine
 62
250
  6
CONTINUOUS
 10
71.6763145312
 20
-27.3237800819
 11
71.2710181603
 21
-20.3347553706
  0
LINE
  5
384
100
AcDbEntity
  8
RACCORDO
100
AcDbLine
 62
250
  6
CONTINUOUS
 10
71.8761926966
 20
-27.1600494741
 11
71.3067404104
 21
-17.3402820514
  0
LINE
  5
385
100
AcDbEntity
  8
RACCORDO
100
AcDbLine
 62
7
  6
CONTINUOUS
 10
71.8758812857
 20
42.2739702982
 11
71.8761926966
 21
42.2652398812
  0
LINE
  5
386
100
AcDbEntity
  8
RACCORDO
100
AcDbLine
 62
7
  6
CONTINUOUS
 10
70.3500638746
 20
-16.485008539
 11
70.2003379532
 21
-11.62630848
  0
LINE
  5
387
100
AcDbEntity
  8
RACCORDO
100
AcDbLine
 62
7
  6
CONTINUOUS
 10
70.3500638746
 20
10.5470089225
 11
70.2003379532
 21
15.4057089816
  0
LINE
  5
388
100
AcDbEntity
  8
RACCORDO
100
AcDbLine
 62
7
  6
CONTINUOUS
 10
70.3500638746
 20
37.579026384
 11
70.2006077771
 21
42.428970489
  0
LINE
  5
389
100
AcDbEntity
  8
RACCORDO
100
AcDbLine
 62
250
  6
CONTINUOUS
 10
70.35
 20
-15.9893398206
 11
70.2188587775
 21
-11.62630848
  0
LINE
  5
38A
100
AcDbEntity
  8
RACCORDO
100
AcDbLine
 62
250
  6
CONTINUOUS
 10
70.5500000012
 20
-15.8255281255
 11
70.4237825265
 21
-11.62630848
  0
LINE
  5
38B
100
AcDbEntity
  8
RACCORDO
100
AcDbLine
 62
250
  6
CONTINUOUS
 10
70.35
 20
11.042677641
 11
70.2188587775
 21
15.4057089816
  0
LINE
  5
38C
100
AcDbEntity
  8
RACCORDO
100
AcDbLine
 62
250
  6
CONTINUOUS
 10
70.5500000012
 20
11.2064893361
 11
70.4237825265
 21
15.4057089816
  0
LINE
  5
38D
100
AcDbEntity
  8
RACCORDO
100
AcDbLine
 62
250
  6
CONTINUOUS
 10
70.35
 20
38.0746951025
 11
70.2191219584
 21
42.428970489
  0
LINE
  5
38E
100
AcDbEntity
  8
RACCORDO
100
AcDbLine
 62
250
  6
CONTINUOUS
 10
70.5500000012
 20
38.2385067976
 11
70.4240457074
 21
42.428970489
  0
LWPOLYLINE
  5
38F
100
AcDbEntity
  8
0
100
AcDbPolyline
 62
250
  6
CONTINUOUS
 90
31
 70
0
 10
69.7676818115
 20
37.1243686589
 10
69.7657501218
 20
37.2026679033
 10
69.7594341273
 20
37.2795964081
 10
69.7489421076
 20
37.354973447
 10
69.7345697334
 20
37.4283085795
 10
69.7164965046
 20
37.4997887672
 10
69.6945944463
 20
37.5702423165
 10
69.6687757098
 20
37.6398930004
 10
69.6392250919
 20
37.7081913286
 10
69.606087807
 20
37.7747846659
 10
69.5695055574
 20
37.8394784596
 10
69.5295759546
 20
37.9021916762
 10
69.4864056482
 20
37.9627549339
 10
69.4401370747
 20
38.021027044
 10
69.3908992244
 20
38.0769043445
 10
69.3387744521
 20
38.1302740139
 10
69.2838488206
 20
38.1810671341
 10
69.2263215756
 20
38.2291256944
 10
69.1664586593
 20
38.274218546
 10
69.1047243589
 20
38.316081146
 10
69.041023213
 20
38.3548473212
 10
68.9747272715
 20
38.3908144537
 10
68.9058183736
 20
38.4239048289
 10
68.8345586195
 20
38.4538737086
 10
68.7606599561
 20
38.4806249556
 10
68.6839815211
 20
38.5040321928
 10
68.6049588436
 20
38.523789824
 10
68.5241896542
 20
38.5395361409
 10
68.4420317359
 20
38.5510834089
 10
68.3585839485
 20
38.5583594789
 10
68.2740960254
 20
38.5612416863
  0
LINE
  5
390
100
AcDbEntity
  8
RACCORDO
100
AcDbLine
 62
7
  6
CONTINUOUS
 10
70.35
 20
-16.4808684747
 11
70.350083572
 21
-16.4850816275
  0
LINE
  5
391
100
AcDbEntity
  8
RACCORDO
100
AcDbLine
 62
7
  6
CONTINUOUS
 10
70.35
 20
10.5511489869
 11
70.350083572
 21
10.546935834
  0
LINE
  5
392
100
AcDbEntity
  8
RACCORDO
100
AcDbLine
 62
7
  6
CONTINUOUS
 10
70.35
 20
37.5831664484
 11
70.350083572
 21
37.5789532955
  0
LWPOLYLINE
  5
393
100
AcDbEntity
  8
0
100
AcDbPolyline
 62
250
  6
CONTINUOUS
 90
31
 70
0
 10
68.7678341164
 20
37.134378948
 10
68.7673030929
 20
37.1683984967
 10
68.7654479256
 20
37.2016688754
 10
68.7622686145
 20
37.2341900842
 10
68.7577468027
 20
37.2658883389
 10
68.7519008471
 20
37.2968374237
 10
68.7447858177
 20
37.327258691
 10
68.7363838347
 20
37.3573191451
 10
68.7267127779
 20
37.3868517818
 10
68.7158813565
 20
37.4155769408
 10
68.7038864043
 20
37.4434633449
 10
68.6907310875
 20
37.4705422713
 10
68.6765336144
 20
37.4966278919
 10
68.6612934211
 20
37.5217080136
 10
68.6450110714
 20
37.5457948294
 10
68.6278064654
 20
37.5687390895
 10
68.6096549083
 20
37.5905509534
 10
68.5905810948
 20
37.6112202616
 10
68.5707790093
 20
37.630567286
 10
68.5503493318
 20
37.6485235104
 10
68.5291913824
 20
37.665157451
 10
68.507197105
 20
37.6804949285
 10
68.4843317416
 20
37.6946104346
 10
68.4606300503
 20
37.7074294775
 10
68.4360882484
 20
37.7187544026
 10
68.410597354
 20
37.7286196018
 10
68.384266349
 20
37.7369906833
 10
68.3574183973
 20
37.743566816
 10
68.3301612201
 20
37.7482477233
 10
68.3023870961
 20
37.7511336819
 10
68.2740960254
 20
37.752224692
  0
LINE
  5
394
100
AcDbEntity
  8
0
100
AcDbLine
 62
250
  6
CONTINUOUS
 10
68.2740960254
 20
37.752224692
 11
68.2740960254
 21
38.5612416863
  0
LINE
  5
395
100
AcDbEntity
  8
0
100
AcDbLine
 62
7
  6
CONTINUOUS
 10
70.0
 20
-18.8855623648
 11
70.0
 21
-13.1579755682
  0
LINE
  5
396
100
AcDbEntity
  8
0
100
AcDbLine
 62
7
  6
CONTINUOUS
 10
70.0
 20
-11.62630848
 11
70.0
 21
13.8740418934
  0
LINE
  5
397
100
AcDbEntity
  8
0
100
AcDbLine
 62
7
  6
CONTINUOUS
 10
70.0
 20
15.4057089816
 11
70.0
 21
40.9060593549
  0
LINE
  5
398
100
AcDbEntity
  8
0
100
AcDbLine
 62
7
  6
CONTINUOUS
 10
70.0349101299
 20
-11.9822259912
 11
70.0349101299
 21
-11.62630848
  0
LINE
  5
399
100
AcDbEntity
  8
0
100
AcDbLine
 62
7
  6
CONTINUOUS
 10
70.0349101299
 20
15.0497914703
 11
70.0349101299
 21
15.4057089816
  0
LINE
  5
39A
100
AcDbEntity
  8
0
100
AcDbLine
 62
7
  6
CONTINUOUS
 10
70.0349101299
 20
42.0818089319
 11
70.0349101299
 21
42.428970489
  0
LINE
  5
39B
100
AcDbEntity
  8
RACCORDO
100
AcDbLine
 62
7
  6
CONTINUOUS
 10
70.35
 20
38.0746951025
 11
70.35
 21
37.5831664484
  0
LINE
  5
39C
100
AcDbEntity
  8
RACCORDO
100
AcDbLine
 62
7
  6
CONTINUOUS
 10
70.35
 20
11.042677641
 11
70.35
 21
10.5511489869
  0
LINE
  5
39D
100
AcDbEntity
  8
RACCORDO
100
AcDbLine
 62
7
  6
CONTINUOUS
 10
70.35
 20
-15.9893398206
 11
70.35
 21
-16.4808684747
  0
LINE
  5
39E
100
AcDbEntity
  8
0
100
AcDbLine
 62
7
  6
CONTINUOUS
 10
71.2650898701
 20
37.4193547533
 11
71.2650898701
 21
15.4057089816
  0
LINE
  5
39F
100
AcDbEntity
  8
0
100
AcDbLine
 62
7
  6
CONTINUOUS
 10
71.2650898701
 20
10.3873372918
 11
71.2650898701
 21
-11.62630848
  0
LINE
  5
3A0
100
AcDbEntity
  8
0
100
AcDbLine
 62
7
  6
CONTINUOUS
 10
71.2650898701
 20
-16.6446801697
 11
71.2650898701
 21
-20.5142329213
  0
LINE
  5
3A1
100
AcDbEntity
  8
0
100
AcDbLine
 62
7
  6
CONTINUOUS
 10
71.3
 20
37.4193547533
 11
71.3
 21
16.52426515
  0
LINE
  5
3A2
100
AcDbEntity
  8
0
100
AcDbLine
 62
7
  6
CONTINUOUS
 10
71.3
 20
10.3873372918
 11
71.3
 21
-10.5077523115
  0
LINE
  5
3A3
100
AcDbEntity
  8
0
100
AcDbLine
 62
7
  6
CONTINUOUS
 10
71.3
 20
-16.6446801697
 11
71.3
 21
-19.3956767529
  0
LINE
  5
3A4
100
AcDbEntity
  8
RACCORDO
100
AcDbLine
 62
250
  6
CONTINUOUS
 10
71.3067404104
 20
37.4193547533
 11
71.3067404104
 21
19.0503311558
  0
LINE
  5
3A5
100
AcDbEntity
  8
RACCORDO
100
AcDbLine
 62
250
  6
CONTINUOUS
 10
71.3067404104
 20
10.3873372918
 11
71.3067404104
 21
-7.9816863057
  0
LINE
  5
3A6
100
AcDbEntity
  8
RACCORDO
100
AcDbLine
 62
250
  6
CONTINUOUS
 10
71.3067404104
 20
-16.6446801697
 11
71.3067404104
 21
-17.3402820514
  0
LINE
  5
3A7
100
AcDbEntity
  8
DRAFT
100
AcDbLine
 62
7
  6
CONTINUOUS
 10
71.45
 20
38.2385067976
 11
71.45
 21
37.4193547533
  0
LINE
  5
3A8
100
AcDbEntity
  8
DRAFT
100
AcDbLine
 62
7
  6
CONTINUOUS
 10
71.45
 20
11.2064893361
 11
71.45
 21
10.3873372918
  0
LINE
  5
3A9
100
AcDbEntity
  8
DRAFT
100
AcDbLine
 62
7
  6
CONTINUOUS
 10
71.45
 20
-15.8255281255
 11
71.45
 21
-16.6446801697
  0
LINE
  5
3AA
100
AcDbEntity
  8
SMUSSO
100
AcDbLine
 62
7
  6
CONTINUOUS
 10
71.5023917906
 20
37.3672423147
 11
71.5023917906
 21
36.5695405199
  0
LINE
  5
3AB
100
AcDbEntity
  8
SMUSSO
100
AcDbLine
 62
7
  6
CONTINUOUS
 10
71.5023917906
 20
10.3352248532
 11
71.5023917906
 21
9.5375230584
  0
LINE
  5
3AC
100
AcDbEntity
  8
SMUSSO
100
AcDbLine
 62
7
  6
CONTINUOUS
 10
71.5023917906
 20
-16.6967926084
 11
71.5023917906
 21
-17.4944944031
  0
LINE
  5
3AD
100
AcDbEntity
  8
SMUSSO
100
AcDbLine
 62
7
  6
CONTINUOUS
 10
71.769841539
 20
37.0770566617
 11
71.769841539
 21
36.2864991438
  0
LINE
  5
3AE
100
AcDbEntity
  8
SMUSSO
100
AcDbLine
 62
7
  6
CONTINUOUS
 10
71.769841539
 20
10.0450392002
 11
71.769841539
 21
9.2544816823
  0
LINE
  5
3AF
100
AcDbEntity
  8
SMUSSO
100
AcDbLine
 62
7
  6
CONTINUOUS
 10
71.769841539
 20
-16.9869782613
 11
71.769841539
 21
-17.7775357793
  0
LINE
  5
3B0
100
AcDbEntity
  8
RACCORDO
100
AcDbLine
 62
250
  6
CONTINUOUS
 10
71.811024378
 20
54.0970625137
 11
71.8110243751
 21
54.0486636841
  0
LINE
  5
3B1
100
AcDbEntity
  8
DRAFT
100
AcDbLine
 62
7
  6
CONTINUOUS
 10
71.848256081
 20
10.0450392002
 11
71.848256081
 21
9.2544816823
  0
LINE
  5
3B2
100
AcDbEntity
  8
DRAFT
100
AcDbLine
 62
7
  6
CONTINUOUS
 10
71.848256081
 20
-16.9869782613
 11
71.848256081
 21
-17.7775357793
  0
LINE
  5
3B3
100
AcDbEntity
  8
DRAFT
100
AcDbLine
 62
7
  6
CONTINUOUS
 10
71.848256081
 20
36.2864991438
 11
71.848256081
 21
37.0770566617
  0
LINE
  5
3B4
100
AcDbEntity
  8
RACCORDO
100
AcDbLine
 62
7
  6
CONTINUOUS
 10
71.8761926966
 20
-27.1600494741
 11
71.8761926966
 21
42.2652398812
  0
LINE
  5
3B5
100
AcDbEntity
  8
RACCORDO
100
AcDbLine
 62
7
  6
CONTINUOUS
 10
73.9460342356
 20
42.8965058586
 11
73.9460342356
 21
-27.7913154514
  0
LINE
  5
3B6
100
AcDbEntity
  8
0
100
AcDbLine
 62
250
  6
CONTINUOUS
 10
68.2070731083
 20
-18.8755520757
 11
68.2595425854
 21
-13.63479576
  0
LINE
  5
3B7
100
AcDbEntity
  8
0
100
AcDbLine
 62
250
  6
CONTINUOUS
 10
68.2808659985
 20
-11.5049706099
 11
68.7678341164
 21
37.134378948
  0
LINE
  5
3B8
100
AcDbEntity
  8
0
100
AcDbLine
 62
250
  6
CONTINUOUS
 10
69.7676818115
 20
37.1243686589
 11
69.2069208034
 21
-18.8855623648
  0
LINE
  5
3B9
100
AcDbEntity
  8
0
100
AcDbLine
 62
7
  6
CONTINUOUS
 10
71.2647221327
 20
-20.5353874698
 11
71.2650898701
 21
-20.5142329213
  0
LINE
  5
3BA
100
AcDbEntity
  8
0
100
AcDbLine
 62
7
  6
CONTINUOUS
 10
71.3
 20
-19.3956767529
 11
71.2996322626
 21
-19.4168313014
  0
LINE
  5
3BB
100
AcDbEntity
  8
0
100
AcDbLine
 62
250
  6
CONTINUOUS
 10
69.9251850268
 20
42.428970489
 11
69.7676818115
 21
37.1243686589
  0
LINE
  5
3BC
100
AcDbEntity
  8
0
100
AcDbLine
 62
7
  6
CONTINUOUS
 10
70.0349101299
 20
42.0818089319
 11
70.0
 21
40.9060593549
  0
LINE
  5
3BD
100
AcDbEntity
  8
0
100
AcDbLine
 62
7
  6
CONTINUOUS
 10
70.0349101299
 20
15.0497914703
 11
70.0
 21
13.8740418934
  0
LINE
  5
3BE
100
AcDbEntity
  8
0
100
AcDbLine
 62
7
  6
CONTINUOUS
 10
70.0349101299
 20
-11.9822259912
 11
70.0
 21
-13.1579755682
  0
LINE
  5
3BF
100
AcDbEntity
  8
0
100
AcDbLine
 62
7
  6
CONTINUOUS
 10
71.2650898701
 20
15.4057089816
 11
71.3
 21
16.52426515
  0
LINE
  5
3C0
100
AcDbEntity
  8
0
100
AcDbLine
 62
7
  6
CONTINUOUS
 10
71.2650898701
 20
-11.62630848
 11
71.3
 21
-10.5077523115
  0
LINE
  5
3C1
100
AcDbEntity
  8
0
100
AcDbLine
 62
250
  6
CONTINUOUS
 10
71.3
 20
-19.3956767529
 11
71.2996726008
 21
-19.4166378698
  0
LINE
  5
3C2
100
AcDbEntity
  8
0
100
AcDbLine
 62
7
  6
CONTINUOUS
 10
71.2996726008
 20
-19.4166378698
 11
71.2654163492
 21
-20.5142431107
  0
LWPOLYLINE
  5
3C3
100
AcDbEntity
  8
RACCORDO
100
AcDbPolyline
 62
250
  6
CONTINUOUS
 90
4
 70
0
 10
71.3067404104
 20
-17.3402820514
 10
71.3059597972
 20
-17.3542080055
 10
71.303666292
 20
-17.3680585593
 10
71.3
 20
-17.3812858717
  0
LWPOLYLINE
  5
3C4
100
AcDbEntity
  8
0
100
AcDbPolyline
 62
7
  6
CONTINUOUS
 90
10
 70
0
 10
68.2595426168
 20
-13.6347926272
 10
68.2923056989
 20
-13.407975771
 10
68.3174771169
 20
-13.1763203411
 10
68.3350648492
 20
-12.9398264174
 10
68.345117082
 20
-12.6953194297
 10
68.34761353
 20
-12.4459742276
 10
68.342458801
 20
-12.2013150134
 10
68.3296095856
 20
-11.9645164059
 10
68.3090812921
 20
-11.7324035071
 10
68.2808659422
 20
-11.5049762369
  0
LINE
  5
3C5
100
AcDbEntity
  8
RACCORDO
100
AcDbLine
 62
250
  6
CONTINUOUS
 10
73.3002911137
 20
52.9614135555
 11
73.3079889536
 21
52.88603485
  0
LWPOLYLINE
  5
3C6
100
AcDbEntity
  8
RACCORDO
100
AcDbPolyline
 62
7
  6
CONTINUOUS
 90
26
 70
0
 10
73.3081382587
 20
52.8836012762
 10
73.3071646787
 20
52.8977266809
 10
73.2989047381
 20
52.9730149082
 10
73.2854435657
 20
53.0480794127
 10
73.2667501537
 20
53.1226270577
 10
73.2428455214
 20
53.1963373025
 10
73.2137934586
 20
53.268850594
 10
73.1796576917
 20
53.3398894919
 10
73.1405353093
 20
53.4091791152
 10
73.0965735092
 20
53.4763881503
 10
73.0478992371
 20
53.5412776847
 10
72.9946740966
 20
53.6036022593
 10
72.937133218
 20
53.6630578372
 10
72.8754741277
 20
53.7194414904
 10
72.8098947483
 20
53.772559964
 10
72.7406825622
 20
53.8221742527
 10
72.66806657
 20
53.8681298481
 10
72.5922826921
 20
53.9102677849
 10
72.5136789292
 20
53.9484029244
 10
72.4325120425
 20
53.9824167493
 10
72.349046314
 20
54.0121983474
 10
72.2636733432
 20
54.0376212021
 10
72.1766807398
 20
54.0586047406
 10
72.088335772
 20
54.0750914363
 10
71.9990106994
 20
54.0870126619
 10
71.9090444892
 20
54.0943346877
  0
LINE
  5
3C7
100
AcDbEntity
  8
RACCORDO
100
AcDbLine
 62
250
  6
CONTINUOUS
 10
71.8761926966
 20
42.2652398812
 11
71.8756342813
 21
42.2739544706
  0
LINE
  5
3C8
100
AcDbEntity
  8
RACCORDO
100
AcDbLine
 62
250
  6
CONTINUOUS
 10
71.8110243751
 20
54.0486636841
 11
72.4469479951
 21
44.1244854171
  0
LINE
  5
3C9
100
AcDbEntity
  8
RACCORDO
100
AcDbLine
 62
7
  6
CONTINUOUS
 10
73.3080240152
 20
52.8854906626
 11
73.9439648519
 21
42.9610437126
  0
LINE
  5
3CA
100
AcDbEntity
  8
RACCORDO
100
AcDbLine
 62
7
  6
CONTINUOUS
 10
73.9460342356
 20
42.8965058586
 11
73.9439008956
 21
42.9613349494
  0
LINE
  5
3CB
100
AcDbEntity
  8
SMUSSO
100
AcDbLine
 62
7
  6
CONTINUOUS
 10
71.769841539
 20
36.2864991438
 11
71.5023917906
 21
36.5695405199
  0
LINE
  5
3CC
100
AcDbEntity
  8
SMUSSO
100
AcDbLine
 62
7
  6
CONTINUOUS
 10
71.5023917906
 20
37.3672423147
 11
71.769841539
 21
37.0770566617
  0
LINE
  5
3CD
100
AcDbEntity
  8
RACCORDO
100
AcDbLine
 62
250
  6
CONTINUOUS
 10
73.2882795752
 20
53.0302115281
 11
73.3002911137
 21
52.9614135555
  0
ARC
  5
3CE
100
AcDbEntity
  8
0
100
AcDbCircle
 62
7
  6
CONTINUOUS
 10
-61.2
 20
-12.4990976151
 40
7.1503113073
100
AcDbArc
 50
286.0543037358
 51
172.0081240198
  0
ARC
  5
3CF
100
AcDbEntity
  8
0
100
AcDbCircle
 62
7
  6
CONTINUOUS
 10
-61.2
 20
-12.4990976151
 40
7.1503113073
100
AcDbArc
 50
189.1391070176
 51
253.9456962642
  0
CIRCLE
  5
3D0
100
AcDbEntity
  8
0
100
AcDbCircle
 62
7
  6
CONTINUOUS
 10
-61.2
 20
-12.4990976151
 40
6.1
  0
CIRCLE
  5
3D1
100
AcDbEntity
  8
0
100
AcDbCircle
 62
7
  6
CONTINUOUS
 10
-61.2
 20
-12.4990976151
 40
6.0
  0
CIRCLE
  5
3D2
100
AcDbEntity
  8
0
100
AcDbCircle
 62
7
  6
CONTINUOUS
 10
-61.2
 20
-12.4990976151
 40
4.048134511
  0
CIRCLE
  5
3D3
100
AcDbEntity
  8
0
100
AcDbCircle
 62
7
  6
CONTINUOUS
 10
-61.2
 20
30.1009023849
 40
7.1503113073
  0
CIRCLE
  5
3D4
100
AcDbEntity
  8
0
100
AcDbCircle
 62
7
  6
CONTINUOUS
 10
-61.2
 20
30.1009023849
 40
6.1
  0
CIRCLE
  5
3D5
100
AcDbEntity
  8
0
100
AcDbCircle
 62
7
  6
CONTINUOUS
 10
-61.2
 20
30.1009023849
 40
6.0
  0
CIRCLE
  5
3D6
100
AcDbEntity
  8
0
100
AcDbCircle
 62
7
  6
CONTINUOUS
 10
-61.2
 20
30.1009023849
 40
4.048134511
  0
ARC
  5
3D7
100
AcDbEntity
  8
0
100
AcDbCircle
 62
7
  6
CONTINUOUS
 10
61.2
 20
-12.4990976151
 40
7.1503113073
100
AcDbArc
 50
286.0543037358
 51
350.8608929824
  0
ARC
  5
3D8
100
AcDbEntity
  8
0
100
AcDbCircle
 62
7
  6
CONTINUOUS
 10
61.2
 20
-12.4990976151
 40
7.1503113073
100
AcDbArc
 50
7.9918759802
 51
253.9456962642
  0
CIRCLE
  5
3D9
100
AcDbEntity
  8
0
100
AcDbCircle
 62
7
  6
CONTINUOUS
 10
61.2
 20
-12.4990976151
 40
6.1
  0
CIRCLE
  5
3DA
100
AcDbEntity
  8
0
100
AcDbCircle
 62
7
  6
CONTINUOUS
 10
61.2
 20
-12.4990976151
 40
6.0
  0
CIRCLE
  5
3DB
100
AcDbEntity
  8
0
100
AcDbCircle
 62
7
  6
CONTINUOUS
 10
61.2
 20
-12.4990976151
 40
4.048134511
  0
ARC
  5
3DC
100
AcDbEntity
  8
0
100
AcDbCircle
 62
7
  6
CONTINUOUS
 10
0.0
 20
9.6009023849
 40
8.0601660306
100
AcDbArc
 50
180.0
 51
360.0
  0
ARC
  5
3DD
100
AcDbEntity
  8
0
100
AcDbCircle
 62
7
  6
CONTINUOUS
 10
0.0
 20
12.6009023849
 40
8.0601660306
100
AcDbArc
 50
0.0
 51
180.0
  0
ARC
  5
3DE
100
AcDbEntity
  8
0
100
AcDbCircle
 62
7
  6
CONTINUOUS
 10
0.0
 20
9.6009023849
 40
7.5
100
AcDbArc
 50
180.0
 51
360.0
  0
ARC
  5
3DF
100
AcDbEntity
  8
0
100
AcDbCircle
 62
7
  6
CONTINUOUS
 10
0.0
 20
12.6009023849
 40
7.5
100
AcDbArc
 50
0.0
 51
180.0
  0
CIRCLE
  5
3E0
100
AcDbEntity
  8
0
100
AcDbCircle
 62
7
  6
CONTINUOUS
 10
61.2
 20
30.1009023849
 40
7.1503113073
  0
ARC
  5
3E1
100
AcDbEntity
  8
0
100
AcDbCircle
 62
7
  6
CONTINUOUS
 10
0.0
 20
9.6009023849
 40
7.0
100
AcDbArc
 50
180.0
 51
360.0
  0
ARC
  5
3E2
100
AcDbEntity
  8
0
100
AcDbCircle
 62
7
  6
CONTINUOUS
 10
0.0
 20
12.6009023849
 40
7.0
100
AcDbArc
 50
0.0
 51
180.0
  0
ARC
  5
3E3
100
AcDbEntity
  8
0
100
AcDbCircle
 62
7
  6
CONTINUOUS
 10
0.0
 20
9.6009023849
 40
6.4287407973
100
AcDbArc
 50
180.0
 51
360.0
  0
ARC
  5
3E4
100
AcDbEntity
  8
0
100
AcDbCircle
 62
7
  6
CONTINUOUS
 10
0.0
 20
12.6009023849
 40
6.4287407973
100
AcDbArc
 50
0.0
 51
180.0
  0
CIRCLE
  5
3E5
100
AcDbEntity
  8
0
100
AcDbCircle
 62
7
  6
CONTINUOUS
 10
61.2
 20
30.1009023849
 40
6.1
  0
CIRCLE
  5
3E6
100
AcDbEntity
  8
0
100
AcDbCircle
 62
7
  6
CONTINUOUS
 10
61.2
 20
30.1009023849
 40
6.0
  0
CIRCLE
  5
3E7
100
AcDbEntity
  8
0
100
AcDbCircle
 62
7
  6
CONTINUOUS
 10
61.2
 20
30.1009023849
 40
4.048134511
  0
ELLIPSE
  5
3E8
100
AcDbEntity
  8
0
100
AcDbEllipse
 62
7
  6
CONTINUOUS
 10
-70.2649375421
 20
-20.5139833807
 30
0.0
 11
1.000152135
 21
0.0007585049
 31
0.0
 40
0.8191518513
 41
-3.1163890314
 42
-1.5717221494
  0
ELLIPSE
  5
3E9
100
AcDbEntity
  8
0
100
AcDbEllipse
 62
7
  6
CONTINUOUS
 10
70.2649375421
 20
-20.5139833807
 30
0.0
 11
1.000152135
 21
-0.0007585049
 31
0.0
 40
0.8191518513
 41
-1.5698705042
 42
-0.0252036235
  0
ELLIPSE
  5
3EA
100
AcDbEntity
  8
0
100
AcDbEllipse
 62
7
  6
CONTINUOUS
 10
68.4997715079
 20
-18.8705469311
 30
0.0
 11
-1.074116368
 21
1.0578969615
 31
0.0
 40
0.9900381688
 41
-3.9295926148
 42
-2.3688067443
  0
ELLIPSE
  5
3EB
100
AcDbEntity
  8
0
100
AcDbEllipse
 62
7
  6
CONTINUOUS
 10
-68.4997715079
 20
-18.8705469311
 30
0.0
 11
1.074116368
 21
1.0578969615
 31
0.0
 40
0.9900381688
 41
-3.9143785629
 42
-2.3535926923
  0
ELLIPSE
  5
3EC
100
AcDbEntity
  8
RACCORDO
100
AcDbEllipse
 62
7
  6
CONTINUOUS
 10
72.4451199191
 20
-27.7898179793
 30
0.0
 11
1.5009096854
 21
-0.0045516704
 31
0.0
 40
0.8191489582
 41
-1.5670941992
 42
0.0024841524
  0
ELLIPSE
  5
3ED
100
AcDbEntity
  8
RACCORDO
100
AcDbEllipse
 62
7
  6
CONTINUOUS
 10
-72.4451199191
 20
-27.7898179793
 30
0.0
 11
1.5009096854
 21
0.0045516704
 31
0.0
 40
0.8191489582
 41
3.1391085012
 42
4.7086868528
  0
ELLIPSE
  5
3EE
100
AcDbEntity
  8
RACCORDO
100
AcDbEllipse
 62
7
  6
CONTINUOUS
 10
70.5500304656
 20
-16.4808435225
 30
0.0
 11
0.200030456
 21
0.0000758094
 31
0.0
 40
0.8190584225
 41
-3.1161823712
 42
-1.5712590403
  0
ELLIPSE
  5
3EF
100
AcDbEntity
  8
RACCORDO
100
AcDbEllipse
 62
7
  6
CONTINUOUS
 10
70.5500304656
 20
10.551173939
 30
0.0
 11
0.200030456
 21
0.0000758094
 31
0.0
 40
0.8190584225
 41
-3.1161823712
 42
-1.5712590403
  0
ELLIPSE
  5
3F0
100
AcDbEntity
  8
RACCORDO
100
AcDbEllipse
 62
7
  6
CONTINUOUS
 10
70.5500304656
 20
37.5831914006
 30
0.0
 11
0.200030456
 21
0.0000758094
 31
0.0
 40
0.8190584225
 41
-3.1161823712
 42
-1.5712590403
  0
ELLIPSE
  5
3F1
100
AcDbEntity
  8
RACCORDO
100
AcDbEllipse
 62
7
  6
CONTINUOUS
 10
-71.6760707878
 20
42.2650402183
 30
0.0
 11
0.2001212914
 21
-0.0006068894
 31
0.0
 40
0.8191489582
 41
1.5744984544
 42
3.0907856562
  0
ELLIPSE
  5
3F2
100
AcDbEntity
  8
RACCORDO
100
AcDbEllipse
 62
7
  6
CONTINUOUS
 10
-70.5500304656
 20
-16.4808435225
 30
0.0
 11
0.200030456
 21
-0.0000758094
 31
0.0
 40
0.8190584225
 41
-1.5703336133
 42
-0.0254102829
  0
ELLIPSE
  5
3F3
100
AcDbEntity
  8
RACCORDO
100
AcDbEllipse
 62
7
  6
CONTINUOUS
 10
-70.5500304656
 20
37.5831914006
 30
0.0
 11
0.200030456
 21
-0.0000758094
 31
0.0
 40
0.8190584225
 41
-1.5703336133
 42
-0.0254102829
  0
ELLIPSE
  5
3F4
100
AcDbEntity
  8
RACCORDO
100
AcDbEllipse
 62
7
  6
CONTINUOUS
 10
-70.5500304656
 20
10.551173939
 30
0.0
 11
0.200030456
 21
-0.0000758094
 31
0.0
 40
0.8190584225
 41
-1.5703336133
 42
-0.0254102829
  0
ELLIPSE
  5
3F5
100
AcDbEntity
  8
RACCORDO
100
AcDbEllipse
 62
7
  6
CONTINUOUS
 10
71.6760707878
 20
42.2650402183
 30
0.0
 11
0.2001212914
 21
0.0006068894
 31
0.0
 40
0.8191489582
 41
0.0508070101
 42
1.5670941992
  0
ELLIPSE
  5
3F6
100
AcDbEntity
  8
RACCORDO
100
AcDbEllipse
 62
7
  6
CONTINUOUS
 10
14.7000076157
 20
-24.5904799553
 30
0.0
 11
0.200007606
 21
-0.0000758888
 31
0.0
 40
0.8192455803
 41
1.5712594718
 42
3.1419034995
  0
ELLIPSE
  5
3F7
100
AcDbEntity
  8
RACCORDO
100
AcDbEllipse
 62
7
  6
CONTINUOUS
 10
15.2999923843
 20
-24.5904799553
 30
0.0
 11
0.200007606
 21
0.0000758888
 31
0.0
 40
0.8192455803
 41
-0.0003108459
 42
1.5703331818
  0
ELLIPSE
  5
3F8
100
AcDbEntity
  8
RACCORDO
100
AcDbEllipse
 62
7
  6
CONTINUOUS
 10
48.2000076157
 20
-24.5904799553
 30
0.0
 11
0.200007606
 21
-0.0000758888
 31
0.0
 40
0.8192455803
 41
1.5712594718
 42
3.1419034995
  0
ELLIPSE
  5
3F9
100
AcDbEntity
  8
RACCORDO
100
AcDbEllipse
 62
7
  6
CONTINUOUS
 10
48.7999923843
 20
-24.5904799553
 30
0.0
 11
0.200007606
 21
0.0000758888
 31
0.0
 40
0.8192455803
 41
-0.0003108459
 42
1.5703331818
  0
ELLIPSE
  5
3FA
100
AcDbEntity
  8
RACCORDO
100
AcDbEllipse
 62
7
  6
CONTINUOUS
 10
70.5500304656
 20
-15.9893647727
 30
0.0
 11
0.200030456
 21
-0.0000758094
 31
0.0
 40
0.8190584225
 41
1.5712590403
 42
3.1419030681
  0
ELLIPSE
  5
3FB
100
AcDbEntity
  8
RACCORDO
100
AcDbEllipse
 62
7
  6
CONTINUOUS
 10
70.5500304656
 20
11.0426526888
 30
0.0
 11
0.200030456
 21
-0.0000758094
 31
0.0
 40
0.8190584225
 41
1.5712590403
 42
3.1419030681
  0
ELLIPSE
  5
3FC
100
AcDbEntity
  8
RACCORDO
100
AcDbEllipse
 62
7
  6
CONTINUOUS
 10
-70.5500304656
 20
-15.9893647727
 30
0.0
 11
0.200030456
 21
0.0000758094
 31
0.0
 40
0.8190584225
 41
-0.0003104145
 42
1.5703336133
  0
ELLIPSE
  5
3FD
100
AcDbEntity
  8
RACCORDO
100
AcDbEllipse
 62
7
  6
CONTINUOUS
 10
-52.7999923843
 20
-24.5904799553
 30
0.0
 11
0.200007606
 21
-0.0000758888
 31
0.0
 40
0.8192455803
 41
1.5712594718
 42
3.1419034995
  0
ELLIPSE
  5
3FE
100
AcDbEntity
  8
RACCORDO
100
AcDbEllipse
 62
7
  6
CONTINUOUS
 10
-52.2000076157
 20
-24.5904799553
 30
0.0
 11
0.200007606
 21
0.0000758888
 31
0.0
 40
0.8192455803
 41
-0.0003108459
 42
1.5703331818
  0
ELLIPSE
  5
3FF
100
AcDbEntity
  8
RACCORDO
100
AcDbEllipse
 62
7
  6
CONTINUOUS
 10
-19.2999923843
 20
-24.5904799553
 30
0.0
 11
0.200007606
 21
-0.0000758888
 31
0.0
 40
0.8192455803
 41
1.5712594718
 42
3.1419034995
  0
ELLIPSE
  5
400
100
AcDbEntity
  8
RACCORDO
100
AcDbEllipse
 62
7
  6
CONTINUOUS
 10
-18.7000076157
 20
-24.5904799553
 30
0.0
 11
0.200007606
 21
0.0000758888
 31
0.0
 40
0.8192455803
 41
-0.0003108459
 42
1.5703331818
  0
ELLIPSE
  5
401
100
AcDbEntity
  8
RACCORDO
100
AcDbEllipse
 62
7
  6
CONTINUOUS
 10
-70.5500304656
 20
38.0746701504
 30
0.0
 11
0.200030456
 21
0.0000758094
 31
0.0
 40
0.8190584225
 41
-0.0003104145
 42
1.5703336133
  0
ELLIPSE
  5
402
100
AcDbEntity
  8
RACCORDO
100
AcDbEllipse
 62
7
  6
CONTINUOUS
 10
-70.5500304656
 20
11.0426526888
 30
0.0
 11
0.200030456
 21
0.0000758094
 31
0.0
 40
0.8190584225
 41
-0.0003104145
 42
1.5703336133
  0
ELLIPSE
  5
403
100
AcDbEntity
  8
RACCORDO
100
AcDbEllipse
 62
7
  6
CONTINUOUS
 10
70.5500304656
 20
38.0746701504
 30
0.0
 11
0.200030456
 21
-0.0000758094
 31
0.0
 40
0.8190584225
 41
1.5712590403
 42
3.1419030681
  0
ELLIPSE
  5
404
100
AcDbEntity
  8
RACCORDO
100
AcDbEllipse
 62
7
  6
CONTINUOUS
 10
71.106862245
 20
-7.9857397082
 30
0.0
 11
0.2
 21
-0.0
 31
0.0
 40
0.5807250679
 41
0.034906585
 42
0.2595355198
  0
ELLIPSE
  5
405
100
AcDbEntity
  8
RACCORDO
100
AcDbEllipse
 62
7
  6
CONTINUOUS
 10
71.106862245
 20
19.0462777533
 30
0.0
 11
0.2
 21
0.0
 31
0.0
 40
0.5807250679
 41
0.034906585
 42
0.2595355198
  0
ELLIPSE
  5
406
100
AcDbEntity
  8
RACCORDO
100
AcDbEllipse
 62
7
  6
CONTINUOUS
 10
-71.106862245
 20
-7.9857397082
 30
0.0
 11
0.2
 21
0.0
 31
0.0
 40
0.5807250679
 41
2.8820571338
 42
3.1066860685
  0
ELLIPSE
  5
407
100
AcDbEntity
  8
RACCORDO
100
AcDbEllipse
 62
7
  6
CONTINUOUS
 10
-71.106862245
 20
19.0462777533
 30
0.0
 11
0.2
 21
0.0
 31
0.0
 40
0.5807250679
 41
2.8820571338
 42
3.1066860685
  0
ELLIPSE
  5
408
100
AcDbEntity
  8
RACCORDO
100
AcDbEllipse
 62
7
  6
CONTINUOUS
 10
72.4451199191
 20
42.8950083864
 30
0.0
 11
1.5009096854
 21
0.0045516704
 31
0.0
 40
0.8191489582
 41
0.0502726344
 42
1.5670941992
  0
ELLIPSE
  5
409
100
AcDbEntity
  8
RACCORDO
100
AcDbEllipse
 62
7
  6
CONTINUOUS
 10
-72.4451199191
 20
42.8950083864
 30
0.0
 11
1.5009096854
 21
-0.0045516704
 31
0.0
 40
0.8191489582
 41
1.5744984544
 42
3.091320012
  0
ELLIPSE
  5
40A
100
AcDbEntity
  8
RACCORDO
100
AcDbEllipse
 62
7
  6
CONTINUOUS
 10
71.6760707878
 20
-27.1598498112
 30
0.0
 11
0.2001212914
 21
-0.0006068894
 31
0.0
 40
0.8191489582
 41
-1.5670941992
 42
0.0024841524
  0
ELLIPSE
  5
40B
100
AcDbEntity
  8
RACCORDO
100
AcDbEllipse
 62
7
  6
CONTINUOUS
 10
-71.6760707878
 20
-27.1598498112
 30
0.0
 11
0.2001212914
 21
0.0006068894
 31
0.0
 40
0.8191489582
 41
3.1391085012
 42
4.7086868528
  0
ENDSEC
  0
SECTION
  2
OBJECTS
  0
DICTIONARY
  5
C
100
AcDbDictionary
280
0
281
1
  3
ACAD_GROUP
350
D
  3
ACAD_MLINESTYLE
350
17
  3
ACAD_LAYOUT
350
1A
  3
ACAD_PLOTSETTINGS
350
19
  3
ACAD_PLOTSTYLENAME
350
E
  0
DICTIONARY
  5
D
102
{ACAD_REACTORS
330
C
102
}
100
AcDbDictionary
280
0
281
1
  0
ACDBDICTIONARYWDFLT
  5
E
102
{ACAD_REACTORS
330
C
102
}
100
AcDbDictionary
281
1
  3
Normal
350
F
100
AcDbDictionaryWithDefault
340
F
  0
DICTIONARY
  5
17
102
{ACAD_REACTORS
330
C
102
}
100
AcDbDictionary
280
0
281
1
  3
Standard
350
18
  0
DICTIONARY
  5
19
102
{ACAD_REACTORS
330
C
102
}
100
AcDbDictionary
281
1
  0
DICTIONARY
  5
1A
102
{ACAD_REACTORS
330
C
102
}
100
AcDbDictionary
281
1
  3
Model
350
40C
  3
Layout1
350
40D
  0
ACDBPLACEHOLDER
  5
F
102
{ACAD_REACTORS
330
E
102
}
  0
MLINESTYLE
  5
18
102
{ACAD_REACTORS
330
17
102
}
100
AcDbMlineStyle
  2
STANDARD
 70
0
  3

 62
256
 51
90.0
 52
90.0
 71
2
 49
0.5
 62
256
  6
BYLAYER
 49
-0.5
 62
256
  6
BYLAYER
  0
LAYOUT
  5
40C
102
{ACAD_REACTORS
330
1A
102
}
100
AcDbPlotSettings
  1

  2
none_device
  4
ISO_A4_(297.00_x_210.00_MM)
  6

 40
0.0
 41
0.0
 42
0.0
 43
0.0
 44
297.0
 45
210.0
 46
0.0
 47
0.0
 48
0.0
 49
0.0
140
0.0
141
0.0
142
1.0
143
1.0
 70
1024
 72
1
 73
0
 74
0
  7

 75
0
147
1.0
148
0.0
149
0.0
100
AcDbLayout
  1
Model
 70
0
 71
0
 10
0.0
 20
0.0
 11
297.0
 21
210.0
 12
0.0
 22
0.0
 32
0.0
 14
0.0
 24
0.0
 34
0.0
 15
0.0
 25
0.0
 35
0.0
146
0.0
 13
0.0
 23
0.0
 33
0.0
 16
1.0
 26
0.0
 36
0.0
 17
0.0
 27
1.0
 37
0.0
 76
0
330
21B
345
0
346
0
  0
LAYOUT
  5
40D
102
{ACAD_REACTORS
330
1A
102
}
100
AcDbPlotSettings
  1

  2
none_device
  4
ISO_A4_(297.00_x_210.00_MM)
  6

 40
0.0
 41
0.0
 42
0.0
 43
0.0
 44
297.0
 45
210.0
 46
0.0
 47
0.0
 48
0.0
 49
0.0
140
0.0
141
0.0
142
1.0
143
1.0
 70
0
 72
1
 73
0
 74
0
  7

 75
0
147
1.0
148
0.0
149
0.0
100
AcDbLayout
  1
Layout1
 70
0
 71
1
 10
0.0
 20
0.0
 11
297.0
 21
210.0
 12
0.0
 22
0.0
 32
0.0
 14
0.0
 24
0.0
 34
0.0
 15
0.0
 25
0.0
 35
0.0
146
0.0
 13
0.0
 23
0.0
 33
0.0
 16
1.0
 26
0.0
 36
0.0
 17
0.0
 27
1.0
 37
0.0
 76
0
330
21C
345
0
346
0
  0
ENDSEC
  0
EOF
