  0
SECTION
  2
HEADER
  9
$ACADVER
  1
AC1024
  9
$DWGCODEPAGE
  3
ANSI_1252
  9
$EXTMAX
 10
297.0
 20
210.0
 30
0.0
  9
$EXTMIN
 10
0.0
 20
0.0
 30
0.0
  9
$LIMMIN
 10
0.0
 20
0.0
  9
$LIMMAX
 10
297.0
 20
210.0
  9
$VIEWCTR
 10
148.5
 20
105.0
  9
$VIEWSIZE
 40
210.0
  9
$CLAYER
  8
0
  9
$LTSCALE
 40
16.335
  9
$CELTYPE
  6
BYLAYER
  9
$DIMSCALE
 40
1.0
  9
$DIMASZ
 40
3.0
  9
$DIMEXO
 40
0.5
  9
$DIMDLI
 40
11.286
  9
$DIMEXE
 40
1.5
  9
$DIMCEN
 40
2.673
  9
$DIMLFAC
 40
1.0
  9
$DIMBLK
  1
_FILLED
  9
$DIMALT
 70
0
  9
$DIMALTF
 40
0.0393700787
  9
$DIMTXT
 40
3.0
  9
$DIMTOL
 70
1
  9
$DIMLIM
 70
0
  9
$DIMTFAC
 40
1.0
  9
$DIMTP
 40
0.01
  9
$DIMTM
 40
0.01
  9
$DIMGAP
 40
0.625
  9
$DIMDSEP
 70
44
  9
$AUNITS
 70
0
  9
$PDMODE
 70
3
  9
$PDSIZE
 40
3.0
  9
$HANDSEED
  5
6EE
  9
$TILEMODE
 70
1
  9
$MEASUREMENT
 70
1
  9
$INSUNITS
 70
4
  0
ENDSEC
  0
SECTION
  2
CLASSES
  0
CLASS
  1
ACDBDICTIONARYWDFLT
  2
AcDbDictionaryWithDefault
  3
AutoCAD 2000
 90
0
 91
1
280
0
281
0
  0
CLASS
  1
ACDBPLACEHOLDER
  2
AcDbPlaceHolder
  3
AutoCAD 2000
 90
0
 91
1
280
0
281
0
  0
CLASS
  1
LAYOUT
  2
AcDbLayout
  3
AutoCAD 2000
 90
0
 91
0
280
0
281
0
  0
ENDSEC
  0
SECTION
  2
TABLES
  0
TABLE
  2
VPORT
  5
8
100
AcDbSymbolTable
 70
2
  0
VPORT
  5
1F4
100
AcDbSymbolTableRecord
100
AcDbViewportTableRecord
  2
*ACTIVE
 70
0
 10
0.0
 20
0.0
 11
1.0
 21
1.0
 12
148.5
 22
105.0
 13
0.0
 23
0.0
 14
1.0
 24
1.0
 15
0.0
 25
0.0
 16
0.0
 26
0.0
 36
1.0
 17
0.0
 27
0.0
 37
0.0
 40
210.0
 41
1.4142857143
 42
50.0
 43
0.0
 44
0.0
 50
0.0
 51
0.0
 71
0
 72
100
 73
1
 74
1
 75
0
 76
0
 77
0
 78
0
  0
ENDTAB
  0
TABLE
  2
LTYPE
  5
5
100
AcDbSymbolTable
 70
6
  0
LTYPE
  5
14
100
AcDbSymbolTableRecord
100
AcDbLinetypeTableRecord
  2
BYBLOCK
 70
0
  3

 72
65
 73
0
 40
0.0
  0
LTYPE
  5
15
100
AcDbSymbolTableRecord
100
AcDbLinetypeTableRecord
  2
BYLAYER
 70
0
  3

 72
65
 73
0
 40
0.0
  0
LTYPE
  5
16
100
AcDbSymbolTableRecord
100
AcDbLinetypeTableRecord
  2
CONTINUOUS
 70
64
  3
Solid line
 72
65
 73
0
 40
0.0
  0
LTYPE
  5
1F5
100
AcDbSymbolTableRecord
100
AcDbLinetypeTableRecord
  2
CENTER
 70
64
  3
____ _ ____ _ ____ _ ____ _ ____ _ ____ _ ____
 72
65
 73
4
 40
0.6
 49
0.375
 74
0
 49
-0.075
 74
0
 49
0.075
 74
0
 49
-0.075
 74
0
  0
LTYPE
  5
1F6
100
AcDbSymbolTableRecord
100
AcDbLinetypeTableRecord
  2
HIDDEN
 70
64
  3
- - - - - - - - - - - - - - - - - - - -
 72
65
 73
2
 40
0.2
 49
0.1
 74
0
 49
-0.1
 74
0
  0
LTYPE
  5
1F7
100
AcDbSymbolTableRecord
100
AcDbLinetypeTableRecord
  2
PHANTOM
 70
64
  3
_____ _ _ _____ _ _ _____ _ _ _____
 72
65
 73
6
 40
0.8
 49
0.45
 74
0
 49
-0.05
 74
0
 49
0.1
 74
0
 49
-0.05
 74
0
 49
0.1
 74
0
 49
-0.05
 74
0
  0
LTYPE
  5
1F8
100
AcDbSymbolTableRecord
100
AcDbLinetypeTableRecord
  2
DOT
 70
64
  3
. . . . . . . . . . . . . . . . . . . .
 72
65
 73
2
 40
0.2
 49
0.1
 74
0
 49
-0.1
 74
0
  0
LTYPE
  5
1F9
100
AcDbSymbolTableRecord
100
AcDbLinetypeTableRecord
  2
DASHED
 70
64
  3
- - - - - - - - - - - - - - - - - - - -
 72
65
 73
2
 40
0.2
 49
0.1
 74
0
 49
-0.1
 74
0
  0
ENDTAB
  0
TABLE
  2
LAYER
  5
2
100
AcDbSymbolTable
 70
36
  0
LAYER
  5
10
100
AcDbSymbolTableRecord
100
AcDbLayerTableRecord
  2
0
 70
0
 62
7
  6
CONTINUOUS
370
-3
390
F
  0
LAYER
  5
1FA
100
AcDbSymbolTableRecord
100
AcDbLayerTableRecord
  2
DEFAULT_1
 70
0
 62
7
  6
CENTER
370
-3
390
F
  0
LAYER
  5
1FB
100
AcDbSymbolTableRecord
100
AcDbLayerTableRecord
  2
DEFAULT_2
 70
0
 62
7
  6
HIDDEN
370
-3
390
F
  0
LAYER
  5
1FC
100
AcDbSymbolTableRecord
100
AcDbLayerTableRecord
  2
DEFAULT_3
 70
0
 62
7
  6
PHANTOM
370
-3
390
F
  0
LAYER
  5
1FD
100
AcDbSymbolTableRecord
100
AcDbLayerTableRecord
  2
ASSI
 70
0
 62
7
  6
CONTINUOUS
370
-3
390
F
  0
LAYER
  5
1FE
100
AcDbSymbolTableRecord
100
AcDbLayerTableRecord
  2
COORDINATE
 70
0
 62
7
  6
CONTINUOUS
370
-3
390
F
  0
LAYER
  5
1FF
100
AcDbSymbolTableRecord
100
AcDbLayerTableRecord
  2
COPY_PUBLISH
 70
0
 62
7
  6
CONTINUOUS
370
-3
390
F
  0
LAYER
  5
200
100
AcDbSymbolTableRecord
100
AcDbLayerTableRecord
  2
COSMETICI
 70
0
 62
7
  6
CONTINUOUS
370
-3
390
F
  0
LAYER
  5
201
100
AcDbSymbolTableRecord
100
AcDbLayerTableRecord
  2
CURVE
 70
0
 62
7
  6
CONTINUOUS
370
-3
390
F
  0
LAYER
  5
202
100
AcDbSymbolTableRecord
100
AcDbLayerTableRecord
  2
DRAFT
 70
0
 62
7
  6
CONTINUOUS
370
-3
390
F
  0
LAYER
  5
203
100
AcDbSymbolTableRecord
100
AcDbLayerTableRecord
  2
IMPORT_IGES
 70
0
 62
7
  6
CONTINUOUS
370
-3
390
F
  0
LAYER
  5
204
100
AcDbSymbolTableRecord
100
AcDbLayerTableRecord
  2
INTF_1
 70
0
 62
7
  6
CONTINUOUS
370
-3
390
F
  0
LAYER
  5
205
100
AcDbSymbolTableRecord
100
AcDbLayerTableRecord
  2
INTF_11
 70
0
 62
7
  6
CONTINUOUS
370
-3
390
F
  0
LAYER
  5
206
100
AcDbSymbolTableRecord
100
AcDbLayerTableRecord
  2
INTF_13
 70
0
 62
7
  6
CONTINUOUS
370
-3
390
F
  0
LAYER
  5
207
100
AcDbSymbolTableRecord
100
AcDbLayerTableRecord
  2
INTF_2
 70
0
 62
7
  6
CONTINUOUS
370
-3
390
F
  0
LAYER
  5
208
100
AcDbSymbolTableRecord
100
AcDbLayerTableRecord
  2
NOTE
 70
0
 62
7
  6
CONTINUOUS
370
-3
390
F
  0
LAYER
  5
209
100
AcDbSymbolTableRecord
100
AcDbLayerTableRecord
  2
PIANI
 70
0
 62
7
  6
CONTINUOUS
370
-3
390
F
  0
LAYER
  5
20A
100
AcDbSymbolTableRecord
100
AcDbLayerTableRecord
  2
PUNTI
 70
0
 62
7
  6
CONTINUOUS
370
-3
390
F
  0
LAYER
  5
20B
100
AcDbSymbolTableRecord
100
AcDbLayerTableRecord
  2
RACCORDO
 70
0
 62
7
  6
CONTINUOUS
370
-3
390
F
  0
LAYER
  5
20C
100
AcDbSymbolTableRecord
100
AcDbLayerTableRecord
  2
SIMBOLI
 70
0
 62
7
  6
CONTINUOUS
370
-3
390
F
  0
LAYER
  5
20D
100
AcDbSymbolTableRecord
100
AcDbLayerTableRecord
  2
SMUSSO
 70
0
 62
7
  6
CONTINUOUS
370
-3
390
F
  0
LAYER
  5
20E
100
AcDbSymbolTableRecord
100
AcDbLayerTableRecord
  2
SNAPLINE
 70
0
 62
7
  6
CONTINUOUS
370
-3
390
F
  0
LAYER
  5
20F
100
AcDbSymbolTableRecord
100
AcDbLayerTableRecord
  2
SUPERFICI
 70
0
 62
7
  6
CONTINUOUS
370
-3
390
F
  0
LAYER
  5
210
100
AcDbSymbolTableRecord
100
AcDbLayerTableRecord
  2
TRASH
 70
0
 62
7
  6
CONTINUOUS
370
-3
390
F
  0
ENDTAB
  0
TABLE
  2
STYLE
  5
3
100
AcDbSymbolTable
 70
1
  0
STYLE
  5
11
100
AcDbSymbolTableRecord
100
AcDbTextStyleTableRecord
  2
STANDARD
 70
0
 40
0.0
 41
0.8
 50
0.0
 71
0
 42
0.2
  3
txt
  4

  0
STYLE
  5
211
100
AcDbSymbolTableRecord
100
AcDbTextStyleTableRecord
  2
TEXTSTYLE_1
 70
0
 40
0.0
 41
0.8
 50
0.0
 71
0
 42
0.2
  3
gdt
  4

  0
ENDTAB
  0
TABLE
  2
VIEW
  5
6
100
AcDbSymbolTable
 70
0
  0
ENDTAB
  0
TABLE
  2
UCS
  5
7
100
AcDbSymbolTable
 70
0
  0
ENDTAB
  0
TABLE
  2
APPID
  5
9
100
AcDbSymbolTable
 70
1
  0
APPID
  5
212
100
AcDbSymbolTableRecord
100
AcDbRegAppTableRecord
  2
ACAD
 70
0
  0
ENDTAB
  0
TABLE
  2
BLOCK_RECORD
  5
1
100
AcDbSymbolTable
 70
0
  0
BLOCK_RECORD
  5
213
100
AcDbSymbolTableRecord
100
AcDbBlockTableRecord
  2
*Model_Space
  0
BLOCK_RECORD
  5
214
100
AcDbSymbolTableRecord
100
AcDbBlockTableRecord
  2
*Paper_Space
  0
BLOCK_RECORD
  5
215
100
AcDbSymbolTableRecord
100
AcDbBlockTableRecord
  2
_FILLED
  0
ENDTAB
  0
TABLE
  2
DIMSTYLE
  5
A
100
AcDbSymbolTable
 70
1
100
AcDbDimStyleTable
 71
0
  0
DIMSTYLE
105
216
100
AcDbSymbolTableRecord
100
AcDbDimStyleTableRecord
  2
STANDARD
 70
0
  3

  4

 40
1.0
 41
3.0
 42
0.5
 43
0.38
 44
1.5
 45
0.0
 46
0.0
 47
0.01
 48
0.01
140
3.0
141
0.09
142
0.0
143
25.4
144
1.0
145
0.0
146
1.0
147
0.625
 71
1
 72
0
 73
0
 74
0
 75
0
 76
0
 77
1
 78
8
 79
2
170
0
171
1
172
0
173
0
174
0
175
0
176
0
177
0
178
0
270
2
179
2
271
2
272
2
273
2
274
2
275
0
280
0
281
0
282
0
283
1
284
8
285
0
286
0
287
3
288
0
340
11
278
44
341
215
342
215
343
215
344
215
  0
ENDTAB
  0
ENDSEC
  0
SECTION
  2
BLOCKS
  0
BLOCK
  5
20
100
AcDbEntity
  8
0
100
AcDbBlockBegin
  2
*Model_Space
 70
0
 10
0.0
 20
0.0
 30
0.0
  3
*Model_Space
  1

  0
ENDBLK
  5
21
100
AcDbEntity
  8
0
100
AcDbBlockEnd
  0
BLOCK
  5
1C
100
AcDbEntity
  8
0
100
AcDbBlockBegin
  2
*Paper_Space
 70
0
 10
0.0
 20
0.0
 30
0.0
  3
*Paper_Space
  1

  0
ENDBLK
  5
1D
100
AcDbEntity
  8
0
100
AcDbBlockEnd
  0
BLOCK
  5
217
100
AcDbEntity
  8
0
100
AcDbBlockBegin
  2
_FILLED
 70
64
 10
0.0
 20
0.0
  3
_FILLED
  1

  0
SOLID
  5
218
100
AcDbEntity
  8
0
  6
BYBLOCK
 62
0
100
AcDbTrace
 10
0.0
 20
0.0
 11
-1.0
 21
0.3166666667
 12
-1.0
 22
-0.3166666667
 13
-1.0
 23
-0.3166666667
  0
ENDBLK
  5
219
100
AcDbEntity
  8
0
  6
BYBLOCK
 62
0
100
AcDbBlockEnd
  0
ENDSEC
  0
SECTION
  2
ENTITIES
  0
LINE
  5
21A
100
AcDbEntity
  8
0
100
AcDbLine
 62
7
  6
CONTINUOUS
 10
-44.05
 20
-42.3500001347
 11
-44.05
 21
42.3499999928
  0
LINE
  5
21B
100
AcDbEntity
  8
RACCORDO
100
AcDbLine
 62
250
  6
CONTINUOUS
 10
-44.0001965001
 20
42.2720056104
 11
-44.0001965001
 21
-42.2720056104
  0
LINE
  5
21C
100
AcDbEntity
  8
RACCORDO
100
AcDbLine
 62
250
  6
CONTINUOUS
 10
-43.9720056104
 20
42.2720056104
 11
-43.9720056104
 21
-42.2720056104
  0
LINE
  5
21D
100
AcDbEntity
  8
RACCORDO
100
AcDbLine
 62
250
  6
CONTINUOUS
 10
-43.2720056104
 20
-42.9720056104
 11
-43.2720056104
 21
-43.0001965001
  0
LINE
  5
21E
100
AcDbEntity
  8
RACCORDO
100
AcDbLine
 62
250
  6
CONTINUOUS
 10
-43.2720056104
 20
42.9720056104
 11
-43.2720056104
 21
43.0001965001
  0
LINE
  5
21F
100
AcDbEntity
  8
RACCORDO
100
AcDbLine
 62
250
  6
CONTINUOUS
 10
-41.0582501673
 20
39.3582501673
 11
-41.0582501673
 21
-39.3582501673
  0
LINE
  5
220
100
AcDbEntity
  8
RACCORDO
100
AcDbLine
 62
250
  6
CONTINUOUS
 10
-40.8867151501
 20
39.3582501673
 11
-40.8867151501
 21
-39.3582501673
  0
LINE
  5
221
100
AcDbEntity
  8
DRAFT
100
AcDbLine
 62
7
  6
CONTINUOUS
 10
-30.6207939425
 20
27.7923668178
 11
-27.7923668178
 21
30.6207939425
  0
LINE
  5
222
100
AcDbEntity
  8
0
100
AcDbLine
 62
7
  6
CONTINUOUS
 10
43.3500001347
 20
-43.05
 11
-43.3499999928
 21
-43.05
  0
LINE
  5
223
100
AcDbEntity
  8
RACCORDO
100
AcDbLine
 62
250
  6
CONTINUOUS
 10
-43.2720056104
 20
-43.0001965001
 11
43.2720056104
 21
-43.0001965001
  0
LINE
  5
224
100
AcDbEntity
  8
RACCORDO
100
AcDbLine
 62
250
  6
CONTINUOUS
 10
-43.2720056104
 20
-42.9720056104
 11
43.2720056104
 21
-42.9720056104
  0
LINE
  5
225
100
AcDbEntity
  8
RACCORDO
100
AcDbLine
 62
250
  6
CONTINUOUS
 10
-43.9720056104
 20
-42.2720056104
 11
-44.0001965001
 21
-42.2720056104
  0
LINE
  5
226
100
AcDbEntity
  8
RACCORDO
100
AcDbLine
 62
250
  6
CONTINUOUS
 10
43.9720056104
 20
-42.2720056104
 11
44.0001965001
 21
-42.2720056104
  0
LINE
  5
227
100
AcDbEntity
  8
DRAFT
100
AcDbLine
 62
7
  6
CONTINUOUS
 10
-27.7923668178
 20
-30.6207939425
 11
-30.6207939425
 21
-27.7923668178
  0
LINE
  5
228
100
AcDbEntity
  8
RACCORDO
100
AcDbLine
 62
250
  6
CONTINUOUS
 10
-40.3582501673
 20
-39.8867151501
 11
-40.3582501673
 21
-40.0582501673
  0
LINE
  5
229
100
AcDbEntity
  8
RACCORDO
100
AcDbLine
 62
250
  6
CONTINUOUS
 10
-40.3582501673
 20
39.8867151501
 11
-40.3582501673
 21
40.0582501673
  0
LINE
  5
22A
100
AcDbEntity
  8
RACCORDO
100
AcDbLine
 62
250
  6
CONTINUOUS
 10
-38.1133010389
 20
22.0643974111
 11
-38.1133010389
 21
14.5356025889
  0
LINE
  5
22B
100
AcDbEntity
  8
RACCORDO
100
AcDbLine
 62
250
  6
CONTINUOUS
 10
-38.1133010389
 20
-14.5356025889
 11
-38.1133010389
 21
-22.0643974111
  0
LINE
  5
22C
100
AcDbEntity
  8
RACCORDO
100
AcDbLine
 62
250
  6
CONTINUOUS
 10
-37.8137121785
 20
22.0643974111
 11
-37.8137121785
 21
14.5356025889
  0
LINE
  5
22D
100
AcDbEntity
  8
RACCORDO
100
AcDbLine
 62
250
  6
CONTINUOUS
 10
-37.8137121785
 20
-14.5356025889
 11
-37.8137121785
 21
-22.0643974111
  0
LINE
  5
22E
100
AcDbEntity
  8
RACCORDO
100
AcDbLine
 62
7
  6
CONTINUOUS
 10
-37.75
 20
-22.0006852326
 11
-37.75
 21
-14.5993147674
  0
LINE
  5
22F
100
AcDbEntity
  8
RACCORDO
100
AcDbLine
 62
7
  6
CONTINUOUS
 10
-37.75
 20
14.5993147674
 11
-37.75
 21
22.0006852326
  0
LINE
  5
230
100
AcDbEntity
  8
RACCORDO
100
AcDbLine
 62
250
  6
CONTINUOUS
 10
-37.3143974111
 20
14.0362878215
 11
-37.3143974111
 21
13.7366989611
  0
LINE
  5
231
100
AcDbEntity
  8
RACCORDO
100
AcDbLine
 62
250
  6
CONTINUOUS
 10
-37.3143974111
 20
-22.5637121785
 11
-37.3143974111
 21
-22.8633010389
  0
LINE
  5
232
100
AcDbEntity
  8
RACCORDO
100
AcDbLine
 62
250
  6
CONTINUOUS
 10
-37.3143974111
 20
-14.0362878215
 11
-37.3143974111
 21
-13.7366989611
  0
LINE
  5
233
100
AcDbEntity
  8
RACCORDO
100
AcDbLine
 62
250
  6
CONTINUOUS
 10
-37.3143974111
 20
22.5637121785
 11
-37.3143974111
 21
22.8633010389
  0
LINE
  5
234
100
AcDbEntity
  8
RACCORDO
100
AcDbLine
 62
250
  6
CONTINUOUS
 10
-34.6466345172
 20
22.5
 11
-34.625414381
 21
22.5637121785
  0
LINE
  5
235
100
AcDbEntity
  8
RACCORDO
100
AcDbLine
 62
250
  6
CONTINUOUS
 10
-34.1470151169
 20
21.9997711479
 11
-34.1259776491
 21
22.0629348756
  0
LINE
  5
236
100
AcDbEntity
  8
RACCORDO
100
AcDbLine
 62
7
  6
CONTINUOUS
 10
-34.2609632788
 20
21.1578775193
 11
-34.1503234244
 21
21.4900670064
  0
LINE
  5
237
100
AcDbEntity
  8
DRAFT
100
AcDbLine
 62
7
  6
CONTINUOUS
 10
-25.3792060575
 20
28.2076331822
 11
-28.2076331822
 21
25.3792060575
  0
LINE
  5
238
100
AcDbEntity
  8
RACCORDO
100
AcDbLine
 62
250
  6
CONTINUOUS
 10
-37.75
 20
14.5993147674
 11
-37.8137121785
 21
14.5356025889
  0
LINE
  5
239
100
AcDbEntity
  8
RACCORDO
100
AcDbLine
 62
250
  6
CONTINUOUS
 10
-40.3582501673
 20
-40.0582501673
 11
40.3582501673
 21
-40.0582501673
  0
LINE
  5
23A
100
AcDbEntity
  8
RACCORDO
100
AcDbLine
 62
250
  6
CONTINUOUS
 10
-40.3582501673
 20
-39.8867151501
 11
40.3582501673
 21
-39.8867151501
  0
LINE
  5
23B
100
AcDbEntity
  8
RACCORDO
100
AcDbLine
 62
250
  6
CONTINUOUS
 10
40.8867151501
 20
-39.3582501673
 11
41.0582501673
 21
-39.3582501673
  0
LINE
  5
23C
100
AcDbEntity
  8
RACCORDO
100
AcDbLine
 62
250
  6
CONTINUOUS
 10
-40.8867151501
 20
-39.3582501673
 11
-41.0582501673
 21
-39.3582501673
  0
LINE
  5
23D
100
AcDbEntity
  8
DRAFT
100
AcDbLine
 62
7
  6
CONTINUOUS
 10
-28.2076331822
 20
-25.3792060575
 11
-25.3792060575
 21
-28.2076331822
  0
LINE
  5
23E
100
AcDbEntity
  8
RACCORDO
100
AcDbLine
 62
250
  6
CONTINUOUS
 10
-37.75
 20
-14.5993147674
 11
-37.8137121785
 21
-14.5356025889
  0
LINE
  5
23F
100
AcDbEntity
  8
RACCORDO
100
AcDbLine
 62
250
  6
CONTINUOUS
 10
-34.6466345172
 20
-22.5
 11
-34.625414381
 21
-22.5637121785
  0
LINE
  5
240
100
AcDbEntity
  8
RACCORDO
100
AcDbLine
 62
250
  6
CONTINUOUS
 10
-34.1470151169
 20
-21.9997711479
 11
-34.1259776491
 21
-22.0629348756
  0
LINE
  5
241
100
AcDbEntity
  8
RACCORDO
100
AcDbLine
 62
7
  6
CONTINUOUS
 10
-34.1503234244
 20
-21.4900670064
 11
-34.2609632788
 21
-21.1578775193
  0
LINE
  5
242
100
AcDbEntity
  8
RACCORDO
100
AcDbLine
 62
7
  6
CONTINUOUS
 10
-35.15
 20
-15.6669458472
 11
-35.15
 21
-20.9330541528
  0
LINE
  5
243
100
AcDbEntity
  8
RACCORDO
100
AcDbLine
 62
7
  6
CONTINUOUS
 10
-35.15
 20
15.6669459958
 11
-35.15
 21
20.9330540042
  0
LINE
  5
244
100
AcDbEntity
  8
RACCORDO
100
AcDbLine
 62
7
  6
CONTINUOUS
 10
-35.1464469686
 20
-15.6633928158
 11
-35.1464469686
 21
-20.9366071842
  0
LINE
  5
245
100
AcDbEntity
  8
RACCORDO
100
AcDbLine
 62
7
  6
CONTINUOUS
 10
-35.1464469686
 20
15.6633928158
 11
-35.1464469686
 21
20.9366071842
  0
LINE
  5
246
100
AcDbEntity
  8
RACCORDO
100
AcDbLine
 62
250
  6
CONTINUOUS
 10
-34.625414381
 20
14.0362878215
 11
-34.625414381
 21
13.7366989611
  0
LINE
  5
247
100
AcDbEntity
  8
RACCORDO
100
AcDbLine
 62
250
  6
CONTINUOUS
 10
-34.625414381
 20
-22.5637121785
 11
-34.625414381
 21
-22.8633010389
  0
LINE
  5
248
100
AcDbEntity
  8
RACCORDO
100
AcDbLine
 62
250
  6
CONTINUOUS
 10
-34.625414381
 20
-14.0362878215
 11
-34.625414381
 21
-13.7366989611
  0
LINE
  5
249
100
AcDbEntity
  8
RACCORDO
100
AcDbLine
 62
250
  6
CONTINUOUS
 10
-34.625414381
 20
22.5637121785
 11
-34.625414381
 21
22.8633010389
  0
LINE
  5
24A
100
AcDbEntity
  8
RACCORDO
100
AcDbLine
 62
250
  6
CONTINUOUS
 10
-34.3071379368
 20
-15.44865123
 11
-34.3071379368
 21
-21.15134877
  0
LINE
  5
24B
100
AcDbEntity
  8
RACCORDO
100
AcDbLine
 62
250
  6
CONTINUOUS
 10
-34.3071379368
 20
15.44865123
 11
-34.3071379368
 21
21.15134877
  0
LINE
  5
24C
100
AcDbEntity
  8
RACCORDO
100
AcDbLine
 62
250
  6
CONTINUOUS
 10
-34.248589754
 20
-15.4462436376
 11
-34.248589754
 21
-21.1537563624
  0
LINE
  5
24D
100
AcDbEntity
  8
RACCORDO
100
AcDbLine
 62
250
  6
CONTINUOUS
 10
-34.248589754
 20
15.4462436376
 11
-34.248589754
 21
21.1537563624
  0
LINE
  5
24E
100
AcDbEntity
  8
RACCORDO
100
AcDbLine
 62
7
  6
CONTINUOUS
 10
-34.1470151169
 20
14.9102070867
 11
-34.1470151169
 21
14.6002288521
  0
LINE
  5
24F
100
AcDbEntity
  8
RACCORDO
100
AcDbLine
 62
7
  6
CONTINUOUS
 10
-34.1470151169
 20
-21.6897929133
 11
-34.1470151169
 21
-21.9997711479
  0
LINE
  5
250
100
AcDbEntity
  8
RACCORDO
100
AcDbLine
 62
7
  6
CONTINUOUS
 10
-34.1470151169
 20
-14.9102070867
 11
-34.1470151169
 21
-14.6002288521
  0
LINE
  5
251
100
AcDbEntity
  8
RACCORDO
100
AcDbLine
 62
7
  6
CONTINUOUS
 10
-34.1470151169
 20
21.6897929133
 11
-34.1470151169
 21
21.9997711479
  0
LINE
  5
252
100
AcDbEntity
  8
RACCORDO
100
AcDbLine
 62
250
  6
CONTINUOUS
 10
-34.1259776491
 20
-22.0629348756
 11
-34.1259776491
 21
-14.5370651244
  0
LINE
  5
253
100
AcDbEntity
  8
RACCORDO
100
AcDbLine
 62
250
  6
CONTINUOUS
 10
-34.1259776491
 20
14.5370651244
 11
-34.1259776491
 21
22.0629348756
  0
LINE
  5
254
100
AcDbEntity
  8
RACCORDO
100
AcDbLine
 62
250
  6
CONTINUOUS
 10
-33.8260233406
 20
-22.0629348756
 11
-33.8260233406
 21
-14.5370651244
  0
LINE
  5
255
100
AcDbEntity
  8
RACCORDO
100
AcDbLine
 62
250
  6
CONTINUOUS
 10
-33.8260233406
 20
14.5370651244
 11
-33.8260233406
 21
22.0629348756
  0
LINE
  5
256
100
AcDbEntity
  8
RACCORDO
100
AcDbLine
 62
250
  6
CONTINUOUS
 10
-37.2506852326
 20
14.1
 11
-37.3143974111
 21
14.0362878215
  0
LINE
  5
257
100
AcDbEntity
  8
RACCORDO
100
AcDbLine
 62
250
  6
CONTINUOUS
 10
-22.5398893843
 20
23.5599278638
 11
-22.3645543065
 21
23.7352629416
  0
LINE
  5
258
100
AcDbEntity
  8
RACCORDO
100
AcDbLine
 62
250
  6
CONTINUOUS
 10
-37.2506852326
 20
-14.1
 11
-37.3143974111
 21
-14.0362878215
  0
LINE
  5
259
100
AcDbEntity
  8
RACCORDO
100
AcDbLine
 62
250
  6
CONTINUOUS
 10
-22.5398893843
 20
-23.5599278638
 11
-22.3645543065
 21
-23.7352629416
  0
LINE
  5
25A
100
AcDbEntity
  8
RACCORDO
100
AcDbLine
 62
250
  6
CONTINUOUS
 10
-34.6466345172
 20
-14.1
 11
-34.625414381
 21
-14.0362878215
  0
LINE
  5
25B
100
AcDbEntity
  8
RACCORDO
100
AcDbLine
 62
250
  6
CONTINUOUS
 10
-22.2400721362
 20
23.2601106157
 11
-22.0647370584
 21
23.4354456935
  0
LINE
  5
25C
100
AcDbEntity
  8
RACCORDO
100
AcDbLine
 62
250
  6
CONTINUOUS
 10
-9.33159047
 20
27.5851576405
 11
-9.5979595866
 21
27.4475427858
  0
LINE
  5
25D
100
AcDbEntity
  8
RACCORDO
100
AcDbLine
 62
250
  6
CONTINUOUS
 10
22.2400721362
 20
-30.7573980861
 11
10.3299534608
 21
-30.7573980946
  0
LINE
  5
25E
100
AcDbEntity
  8
RACCORDO
100
AcDbLine
 62
250
  6
CONTINUOUS
 10
-11.3153934028
 20
-30.7573980903
 11
-22.2400721362
 21
-30.7573980861
  0
LINE
  5
25F
100
AcDbEntity
  8
RACCORDO
100
AcDbLine
 62
250
  6
CONTINUOUS
 10
22.2400721362
 20
-30.457580838
 11
10.3299534612
 21
-30.4575808379
  0
LINE
  5
260
100
AcDbEntity
  8
RACCORDO
100
AcDbLine
 62
250
  6
CONTINUOUS
 10
-11.3153934031
 20
-30.4575808379
 11
-22.2400721362
 21
-30.457580838
  0
LINE
  5
261
100
AcDbEntity
  8
RACCORDO
100
AcDbLine
 62
250
  6
CONTINUOUS
 10
-21.9744386085
 20
-30.1919473102
 11
-11.6295353037
 21
-30.1919473102
  0
LINE
  5
262
100
AcDbEntity
  8
RACCORDO
100
AcDbLine
 62
250
  6
CONTINUOUS
 10
10.6298409283
 20
-30.1919473102
 11
21.9744386085
 21
-30.1919473102
  0
LINE
  5
263
100
AcDbEntity
  8
RACCORDO
100
AcDbLine
 62
250
  6
CONTINUOUS
 10
-22.8397066324
 20
-30.1577635899
 11
-22.5398893843
 21
-30.1577635899
  0
LINE
  5
264
100
AcDbEntity
  8
RACCORDO
100
AcDbLine
 62
250
  6
CONTINUOUS
 10
22.8397066324
 20
-30.1577635899
 11
22.5398893843
 21
-30.1577635899
  0
LINE
  5
265
100
AcDbEntity
  8
RACCORDO
100
AcDbLine
 62
250
  6
CONTINUOUS
 10
-21.9744386085
 20
-29.8144843486
 11
-11.6295353031
 21
-29.8144843486
  0
LINE
  5
266
100
AcDbEntity
  8
RACCORDO
100
AcDbLine
 62
250
  6
CONTINUOUS
 10
10.6298409126
 20
-29.8144843505
 11
21.9744386085
 21
-29.8144843486
  0
LINE
  5
267
100
AcDbEntity
  8
RACCORDO
100
AcDbLine
 62
250
  6
CONTINUOUS
 10
9.7372990058
 20
-30.0665369062
 11
10.0336261483
 21
-30.112150236
  0
LINE
  5
268
100
AcDbEntity
  8
RACCORDO
100
AcDbLine
 62
250
  6
CONTINUOUS
 10
-10.4476994654
 20
-27.5571425054
 11
-10.7208506652
 21
-27.4335352371
  0
LINE
  5
269
100
AcDbEntity
  8
RACCORDO
100
AcDbLine
 62
250
  6
CONTINUOUS
 10
-22.2400721362
 20
-23.2601106157
 11
-22.0647370584
 21
-23.4354456935
  0
LINE
  5
26A
100
AcDbEntity
  8
RACCORDO
100
AcDbLine
 62
250
  6
CONTINUOUS
 10
-34.6466345172
 20
14.1
 11
-34.625414381
 21
14.0362878215
  0
LINE
  5
26B
100
AcDbEntity
  8
RACCORDO
100
AcDbLine
 62
250
  6
CONTINUOUS
 10
-34.1470151169
 20
-14.6002288521
 11
-34.1259776491
 21
-14.5370651244
  0
LINE
  5
26C
100
AcDbEntity
  8
RACCORDO
100
AcDbLine
 62
7
  6
CONTINUOUS
 10
-34.2609632788
 20
-15.4421224807
 11
-34.1503234244
 21
-15.1099329936
  0
LINE
  5
26D
100
AcDbEntity
  8
RACCORDO
100
AcDbLine
 62
250
  6
CONTINUOUS
 10
-10.727734525
 20
-30.0385217625
 11
-11.0215639216
 21
-30.098142668
  0
LINE
  5
26E
100
AcDbEntity
  8
RACCORDO
100
AcDbLine
 62
250
  6
CONTINUOUS
 10
7.7770919225
 20
-25.7269833921
 11
7.977076692
 21
-25.7252381515
  0
LINE
  5
26F
100
AcDbEntity
  8
RACCORDO
100
AcDbLine
 62
250
  6
CONTINUOUS
 10
-3.4729080775
 20
-25.7269833921
 11
-3.272923308
 21
-25.7252381515
  0
LINE
  5
270
100
AcDbEntity
  8
RACCORDO
100
AcDbLine
 62
250
  6
CONTINUOUS
 10
-14.7229080775
 20
-25.7269833921
 11
-14.522923308
 21
-25.7252381515
  0
LINE
  5
271
100
AcDbEntity
  8
RACCORDO
100
AcDbLine
 62
250
  6
CONTINUOUS
 10
14.8545942975
 20
-27.4760348245
 11
10.2469401694
 21
-27.4760348189
  0
LINE
  5
272
100
AcDbEntity
  8
RACCORDO
100
AcDbLine
 62
250
  6
CONTINUOUS
 10
-11.35638802
 20
-27.476034821
 11
-14.8545942975
 21
-27.4760348245
  0
LINE
  5
273
100
AcDbEntity
  8
RACCORDO
100
AcDbLine
 62
250
  6
CONTINUOUS
 10
14.8545942975
 20
-27.25386329
 11
10.2469402302
 21
-27.2538632898
  0
LINE
  5
274
100
AcDbEntity
  8
RACCORDO
100
AcDbLine
 62
250
  6
CONTINUOUS
 10
-11.356388056
 20
-27.25386329
 11
-14.8545942975
 21
-27.25386329
  0
LINE
  5
275
100
AcDbEntity
  8
RACCORDO
100
AcDbLine
 62
250
  6
CONTINUOUS
 10
-14.6108416232
 20
-27.0101106157
 11
-10.9940021006
 21
-27.0101106157
  0
LINE
  5
276
100
AcDbEntity
  8
RACCORDO
100
AcDbLine
 62
250
  6
CONTINUOUS
 10
9.8643288374
 20
-27.0101106157
 11
14.6108416232
 21
-27.0101106157
  0
LINE
  5
277
100
AcDbEntity
  8
RACCORDO
100
AcDbLine
 62
250
  6
CONTINUOUS
 10
-14.6108416232
 20
-26.7102933676
 11
-10.9940021002
 21
-26.7102933574
  0
LINE
  5
278
100
AcDbEntity
  8
RACCORDO
100
AcDbLine
 62
250
  6
CONTINUOUS
 10
9.8643288368
 20
-26.7102933619
 11
14.6108416232
 21
-26.7102933676
  0
LINE
  5
279
100
AcDbEntity
  8
RACCORDO
100
AcDbLine
 62
250
  6
CONTINUOUS
 10
14.3230266392
 20
-26.1236148336
 11
8.1769732853
 21
-26.1236148336
  0
LINE
  5
27A
100
AcDbEntity
  8
RACCORDO
100
AcDbLine
 62
250
  6
CONTINUOUS
 10
3.0730266392
 20
-26.1236148336
 11
-3.0730267147
 21
-26.1236148336
  0
LINE
  5
27B
100
AcDbEntity
  8
RACCORDO
100
AcDbLine
 62
250
  6
CONTINUOUS
 10
-9.2812660625
 20
-26.1236148336
 11
-14.3230267147
 21
-26.1236148336
  0
LINE
  5
27C
100
AcDbEntity
  8
RACCORDO
100
AcDbLine
 62
250
  6
CONTINUOUS
 10
-22.0106195291
 20
-25.9477587293
 11
-16.3393804709
 21
-25.9477587293
  0
LINE
  5
27D
100
AcDbEntity
  8
RACCORDO
100
AcDbLine
 62
250
  6
CONTINUOUS
 10
16.3393804709
 20
-25.9477587293
 11
22.0106195291
 21
-25.9477587293
  0
LINE
  5
27E
100
AcDbEntity
  8
RACCORDO
100
AcDbLine
 62
250
  6
CONTINUOUS
 10
14.3230267147
 20
-25.9237366682
 11
8.1769732853
 21
-25.9237366682
  0
LINE
  5
27F
100
AcDbEntity
  8
RACCORDO
100
AcDbLine
 62
250
  6
CONTINUOUS
 10
3.0730267147
 20
-25.9237366682
 11
-3.0730267147
 21
-25.9237366682
  0
LINE
  5
280
100
AcDbEntity
  8
RACCORDO
100
AcDbLine
 62
250
  6
CONTINUOUS
 10
-9.2812660625
 20
-25.9237366682
 11
-14.3230267147
 21
-25.9237366682
  0
LINE
  5
281
100
AcDbEntity
  8
RACCORDO
100
AcDbLine
 62
250
  6
CONTINUOUS
 10
15.5102933676
 20
-25.8108416232
 11
15.8101106157
 21
-25.8108416232
  0
LINE
  5
282
100
AcDbEntity
  8
RACCORDO
100
AcDbLine
 62
250
  6
CONTINUOUS
 10
-15.5102933676
 20
-25.8108416232
 11
-15.8101106157
 21
-25.8108416232
  0
LINE
  5
283
100
AcDbEntity
  8
RACCORDO
100
AcDbLine
 62
250
  6
CONTINUOUS
 10
-22.0106195291
 20
-25.7291514214
 11
-16.3393804709
 21
-25.7291514214
  0
LINE
  5
284
100
AcDbEntity
  8
RACCORDO
100
AcDbLine
 62
250
  6
CONTINUOUS
 10
16.3393804709
 20
-25.7291514214
 11
22.0106195291
 21
-25.7291514214
  0
LINE
  5
285
100
AcDbEntity
  8
RACCORDO
100
AcDbLine
 62
7
  6
CONTINUOUS
 10
-14.2690642394
 20
-25.7
 11
-9.3526012815
 21
-25.7
  0
LINE
  5
286
100
AcDbEntity
  8
RACCORDO
100
AcDbLine
 62
7
  6
CONTINUOUS
 10
-3.0190642394
 20
-25.7
 11
3.0190642394
 21
-25.7
  0
LINE
  5
287
100
AcDbEntity
  8
RACCORDO
100
AcDbLine
 62
7
  6
CONTINUOUS
 10
8.2309357606
 20
-25.7
 11
14.2690642394
 21
-25.7
  0
LINE
  5
288
100
AcDbEntity
  8
RACCORDO
100
AcDbLine
 62
250
  6
CONTINUOUS
 10
-3.9382571183
 20
-25.6383464351
 11
-4.1382266579
 21
-25.6383464351
  0
LINE
  5
289
100
AcDbEntity
  8
RACCORDO
100
AcDbLine
 62
250
  6
CONTINUOUS
 10
-4.4290843877
 20
-25.3653310144
 11
-4.2291148487
 21
-25.3653310144
  0
LINE
  5
28A
100
AcDbEntity
  8
RACCORDO
100
AcDbLine
 62
250
  6
CONTINUOUS
 10
3.9382571189
 20
-25.350473311
 11
4.1382266579
 21
-25.350473311
  0
LINE
  5
28B
100
AcDbEntity
  8
RACCORDO
100
AcDbLine
 62
250
  6
CONTINUOUS
 10
7.3117428813
 20
-25.288602518
 11
7.1117733421
 21
-25.288602518
  0
LINE
  5
28C
100
AcDbEntity
  8
RACCORDO
100
AcDbLine
 62
250
  6
CONTINUOUS
 10
4.2291148487
 20
-25.1306544392
 11
4.4290843877
 21
-25.1306544392
  0
LINE
  5
28D
100
AcDbEntity
  8
RACCORDO
100
AcDbLine
 62
250
  6
CONTINUOUS
 10
6.8209156123
 20
-25.0760145149
 11
7.0208851513
 21
-25.0760145149
  0
LINE
  5
28E
100
AcDbEntity
  8
RACCORDO
100
AcDbLine
 62
250
  6
CONTINUOUS
 10
-7.3117428811
 20
-24.9077986779
 11
-7.1117733421
 21
-24.9077986779
  0
LINE
  5
28F
100
AcDbEntity
  8
RACCORDO
100
AcDbLine
 62
250
  6
CONTINUOUS
 10
-7.0208851513
 20
-24.7234660946
 11
-6.8209156123
 21
-24.7234660946
  0
LINE
  5
290
100
AcDbEntity
  8
RACCORDO
100
AcDbLine
 62
250
  6
CONTINUOUS
 10
15.9854456935
 20
-24.2088241766
 11
22.3645543065
 21
-24.2088241766
  0
LINE
  5
291
100
AcDbEntity
  8
RACCORDO
100
AcDbLine
 62
250
  6
CONTINUOUS
 10
-15.9854456935
 20
-24.2088241766
 11
-22.3645543065
 21
-24.2088241766
  0
LINE
  5
292
100
AcDbEntity
  8
RACCORDO
100
AcDbLine
 62
250
  6
CONTINUOUS
 10
3.4729080775
 20
-25.7269833921
 11
3.272923308
 21
-25.7252381515
  0
LINE
  5
293
100
AcDbEntity
  8
RACCORDO
100
AcDbLine
 62
250
  6
CONTINUOUS
 10
14.7229080775
 20
-25.7269833921
 11
14.522923308
 21
-25.7252381515
  0
LINE
  5
294
100
AcDbEntity
  8
RACCORDO
100
AcDbLine
 62
250
  6
CONTINUOUS
 10
-7.7720476312
 20
-25.1489648703
 11
-7.9720324007
 21
-25.1472196297
  0
LINE
  5
295
100
AcDbEntity
  8
RACCORDO
100
AcDbLine
 62
250
  6
CONTINUOUS
 10
-34.1470151169
 20
14.6002288521
 11
-34.1259776491
 21
14.5370651244
  0
LINE
  5
296
100
AcDbEntity
  8
RACCORDO
100
AcDbLine
 62
7
  6
CONTINUOUS
 10
-34.1503234244
 20
15.1099329936
 11
-34.2609632788
 21
15.4421224807
  0
LINE
  5
297
100
AcDbEntity
  8
RACCORDO
100
AcDbLine
 62
250
  6
CONTINUOUS
 10
-22.3104367772
 20
-26.0254044428
 11
-22.2742558566
 21
-29.8921300621
  0
LINE
  5
298
100
AcDbEntity
  8
RACCORDO
100
AcDbLine
 62
250
  6
CONTINUOUS
 10
-22.0106195291
 20
-25.9477587293
 11
-21.9744386085
 21
-29.8144843486
  0
LINE
  5
299
100
AcDbEntity
  8
RACCORDO
100
AcDbLine
 62
250
  6
CONTINUOUS
 10
-22.8617428811
 20
-21.7618190336
 11
-22.8617428811
 21
21.7618190336
  0
LINE
  5
29A
100
AcDbEntity
  8
RACCORDO
100
AcDbLine
 62
250
  6
CONTINUOUS
 10
-22.8397066324
 20
-30.1577635899
 11
-22.8397066324
 21
-23.5599278638
  0
LINE
  5
29B
100
AcDbEntity
  8
RACCORDO
100
AcDbLine
 62
250
  6
CONTINUOUS
 10
-22.8397066324
 20
23.5599278638
 11
-22.8397066324
 21
30.1577635899
  0
LINE
  5
29C
100
AcDbEntity
  8
RACCORDO
100
AcDbLine
 62
250
  6
CONTINUOUS
 10
-22.6617733421
 20
-21.7618190336
 11
-22.6617733421
 21
21.7618190336
  0
LINE
  5
29D
100
AcDbEntity
  8
RACCORDO
100
AcDbLine
 62
7
  6
CONTINUOUS
 10
-22.55
 20
-21.6500456915
 11
-22.55
 21
21.6500456915
  0
LINE
  5
29E
100
AcDbEntity
  8
RACCORDO
100
AcDbLine
 62
250
  6
CONTINUOUS
 10
-22.5398893843
 20
-30.1577635899
 11
-22.5398893843
 21
-23.5599278638
  0
LINE
  5
29F
100
AcDbEntity
  8
RACCORDO
100
AcDbLine
 62
250
  6
CONTINUOUS
 10
-22.5398893843
 20
23.5599278638
 11
-22.5398893843
 21
30.1577635899
  0
LINE
  5
2A0
100
AcDbEntity
  8
RACCORDO
100
AcDbLine
 62
250
  6
CONTINUOUS
 10
-22.3645543065
 20
24.2088241766
 11
-22.3645543065
 21
23.7352629416
  0
LINE
  5
2A1
100
AcDbEntity
  8
RACCORDO
100
AcDbLine
 62
250
  6
CONTINUOUS
 10
-22.3645543065
 20
-23.7352629416
 11
-22.3645543065
 21
-24.2088241766
  0
LINE
  5
2A2
100
AcDbEntity
  8
RACCORDO
100
AcDbLine
 62
250
  6
CONTINUOUS
 10
-22.3618190336
 20
22.2617428811
 11
-22.3618190336
 21
22.0617733421
  0
LINE
  5
2A3
100
AcDbEntity
  8
RACCORDO
100
AcDbLine
 62
250
  6
CONTINUOUS
 10
-22.3618190336
 20
-22.2617428811
 11
-22.3618190336
 21
-22.0617733421
  0
LINE
  5
2A4
100
AcDbEntity
  8
RACCORDO
100
AcDbLine
 62
250
  6
CONTINUOUS
 10
-22.2400721362
 20
30.7573980861
 11
-22.2400721362
 21
30.457580838
  0
LINE
  5
2A5
100
AcDbEntity
  8
RACCORDO
100
AcDbLine
 62
250
  6
CONTINUOUS
 10
-22.2400721362
 20
-30.7573980861
 11
-22.2400721362
 21
-30.457580838
  0
LINE
  5
2A6
100
AcDbEntity
  8
RACCORDO
100
AcDbLine
 62
250
  6
CONTINUOUS
 10
-22.2400721362
 20
-22.9602933676
 11
-22.2400721362
 21
-23.2601106157
  0
LINE
  5
2A7
100
AcDbEntity
  8
RACCORDO
100
AcDbLine
 62
250
  6
CONTINUOUS
 10
-22.2400721362
 20
22.9602933676
 11
-22.2400721362
 21
23.2601106157
  0
LINE
  5
2A8
100
AcDbEntity
  8
RACCORDO
100
AcDbLine
 62
250
  6
CONTINUOUS
 10
-22.0647370584
 20
-23.4354456935
 11
-22.0647370584
 21
-24.2088241766
  0
LINE
  5
2A9
100
AcDbEntity
  8
RACCORDO
100
AcDbLine
 62
250
  6
CONTINUOUS
 10
-22.0647370584
 20
23.4354456935
 11
-22.0647370584
 21
24.2088241766
  0
LINE
  5
2AA
100
AcDbEntity
  8
RACCORDO
100
AcDbLine
 62
250
  6
CONTINUOUS
 10
-22.0106195291
 20
25.9477587293
 11
-22.0106195291
 21
25.7291514214
  0
LINE
  5
2AB
100
AcDbEntity
  8
RACCORDO
100
AcDbLine
 62
250
  6
CONTINUOUS
 10
-22.0106195291
 20
-25.7291514214
 11
-22.0106195291
 21
-25.9477587293
  0
LINE
  5
2AC
100
AcDbEntity
  8
RACCORDO
100
AcDbLine
 62
250
  6
CONTINUOUS
 10
-21.9744386085
 20
30.1919473102
 11
-21.9744386085
 21
29.8144843486
  0
LINE
  5
2AD
100
AcDbEntity
  8
RACCORDO
100
AcDbLine
 62
250
  6
CONTINUOUS
 10
-21.9744386085
 20
-30.1919473102
 11
-21.9744386085
 21
-29.8144843486
  0
LINE
  5
2AE
100
AcDbEntity
  8
RACCORDO
100
AcDbLine
 62
250
  6
CONTINUOUS
 10
-22.2742558566
 20
29.8921300621
 11
-22.3104367772
 21
26.0254044428
  0
LINE
  5
2AF
100
AcDbEntity
  8
RACCORDO
100
AcDbLine
 62
250
  6
CONTINUOUS
 10
-21.9744386085
 20
29.8144843486
 11
-22.0106195291
 21
25.9477587293
  0
LINE
  5
2B0
100
AcDbEntity
  8
RACCORDO
100
AcDbLine
 62
7
  6
CONTINUOUS
 10
34.9428009215
 20
-21.1402532314
 11
34.3071379368
 21
-21.15134877
  0
LINE
  5
2B1
100
AcDbEntity
  8
RACCORDO
100
AcDbLine
 62
250
  6
CONTINUOUS
 10
7.7468512267
 20
-22.2617428811
 11
7.9468359962
 21
-22.2599976405
  0
LINE
  5
2B2
100
AcDbEntity
  8
RACCORDO
100
AcDbLine
 62
250
  6
CONTINUOUS
 10
-3.5031487733
 20
-22.2617428811
 11
-3.3031640038
 21
-22.2599976405
  0
LINE
  5
2B3
100
AcDbEntity
  8
RACCORDO
100
AcDbLine
 62
250
  6
CONTINUOUS
 10
-14.7531487733
 20
-22.2617428811
 11
-14.5531640038
 21
-22.2599976405
  0
LINE
  5
2B4
100
AcDbEntity
  8
RACCORDO
100
AcDbLine
 62
7
  6
CONTINUOUS
 10
-14.300030461
 20
-23.75
 11
-8.199969539
 21
-23.75
  0
LINE
  5
2B5
100
AcDbEntity
  8
RACCORDO
100
AcDbLine
 62
7
  6
CONTINUOUS
 10
-3.050030461
 20
-23.75
 11
3.050030461
 21
-23.75
  0
LINE
  5
2B6
100
AcDbEntity
  8
RACCORDO
100
AcDbLine
 62
7
  6
CONTINUOUS
 10
8.199969539
 20
-23.75
 11
14.300030461
 21
-23.75
  0
LINE
  5
2B7
100
AcDbEntity
  8
RACCORDO
100
AcDbLine
 62
250
  6
CONTINUOUS
 10
15.9854456935
 20
-23.7352629416
 11
22.3645543065
 21
-23.7352629416
  0
LINE
  5
2B8
100
AcDbEntity
  8
RACCORDO
100
AcDbLine
 62
250
  6
CONTINUOUS
 10
-15.9854456935
 20
-23.7352629416
 11
-22.3645543065
 21
-23.7352629416
  0
LINE
  5
2B9
100
AcDbEntity
  8
RACCORDO
100
AcDbLine
 62
250
  6
CONTINUOUS
 10
-22.8397066324
 20
-23.5599278638
 11
-22.5398893843
 21
-23.5599278638
  0
LINE
  5
2BA
100
AcDbEntity
  8
RACCORDO
100
AcDbLine
 62
250
  6
CONTINUOUS
 10
22.8397066324
 20
-23.5599278638
 11
22.5398893843
 21
-23.5599278638
  0
LINE
  5
2BB
100
AcDbEntity
  8
RACCORDO
100
AcDbLine
 62
250
  6
CONTINUOUS
 10
15.5102933676
 20
-23.5599278638
 11
15.8101106157
 21
-23.5599278638
  0
LINE
  5
2BC
100
AcDbEntity
  8
RACCORDO
100
AcDbLine
 62
250
  6
CONTINUOUS
 10
-15.5102933676
 20
-23.5599278638
 11
-15.8101106157
 21
-23.5599278638
  0
LINE
  5
2BD
100
AcDbEntity
  8
RACCORDO
100
AcDbLine
 62
250
  6
CONTINUOUS
 10
22.0647370584
 20
-23.4354456935
 11
16.2852629416
 21
-23.4354456935
  0
LINE
  5
2BE
100
AcDbEntity
  8
RACCORDO
100
AcDbLine
 62
250
  6
CONTINUOUS
 10
-16.2852629416
 20
-23.4354456935
 11
-22.0647370584
 21
-23.4354456935
  0
LINE
  5
2BF
100
AcDbEntity
  8
RACCORDO
100
AcDbLine
 62
250
  6
CONTINUOUS
 10
-22.2400721362
 20
-23.2601106157
 11
-16.1099278638
 21
-23.2601106157
  0
LINE
  5
2C0
100
AcDbEntity
  8
RACCORDO
100
AcDbLine
 62
250
  6
CONTINUOUS
 10
16.1099278638
 20
-23.2601106157
 11
22.2400721362
 21
-23.2601106157
  0
LINE
  5
2C1
100
AcDbEntity
  8
RACCORDO
100
AcDbLine
 62
250
  6
CONTINUOUS
 10
-22.2400721362
 20
-22.9602933676
 11
-16.1099278638
 21
-22.9602933676
  0
LINE
  5
2C2
100
AcDbEntity
  8
RACCORDO
100
AcDbLine
 62
250
  6
CONTINUOUS
 10
16.1099278638
 20
-22.9602933676
 11
22.2400721362
 21
-22.9602933676
  0
LINE
  5
2C3
100
AcDbEntity
  8
RACCORDO
100
AcDbLine
 62
250
  6
CONTINUOUS
 10
-37.3143974111
 20
-22.8633010389
 11
-34.625414381
 21
-22.8633010389
  0
LINE
  5
2C4
100
AcDbEntity
  8
RACCORDO
100
AcDbLine
 62
250
  6
CONTINUOUS
 10
34.625414381
 20
-22.8633010389
 11
37.3143974111
 21
-22.8633010389
  0
LINE
  5
2C5
100
AcDbEntity
  8
RACCORDO
100
AcDbLine
 62
250
  6
CONTINUOUS
 10
-37.3143974111
 20
-22.5637121785
 11
-34.625414381
 21
-22.5637121785
  0
LINE
  5
2C6
100
AcDbEntity
  8
RACCORDO
100
AcDbLine
 62
250
  6
CONTINUOUS
 10
34.625414381
 20
-22.5637121785
 11
37.3143974111
 21
-22.5637121785
  0
LINE
  5
2C7
100
AcDbEntity
  8
RACCORDO
100
AcDbLine
 62
7
  6
CONTINUOUS
 10
37.2506852326
 20
-22.5
 11
34.6466345172
 21
-22.5
  0
LINE
  5
2C8
100
AcDbEntity
  8
RACCORDO
100
AcDbLine
 62
7
  6
CONTINUOUS
 10
-34.6466345172
 20
-22.5
 11
-37.2506852326
 21
-22.5
  0
LINE
  5
2C9
100
AcDbEntity
  8
RACCORDO
100
AcDbLine
 62
250
  6
CONTINUOUS
 10
22.3618190336
 20
-22.2617428811
 11
14.7531487733
 21
-22.2617428811
  0
LINE
  5
2CA
100
AcDbEntity
  8
RACCORDO
100
AcDbLine
 62
250
  6
CONTINUOUS
 10
7.7468512267
 20
-22.2617428811
 11
7.1117733421
 21
-22.2617428811
  0
LINE
  5
2CB
100
AcDbEntity
  8
RACCORDO
100
AcDbLine
 62
250
  6
CONTINUOUS
 10
-3.5031487733
 20
-22.2617428811
 11
-4.1382266579
 21
-22.2617428811
  0
LINE
  5
2CC
100
AcDbEntity
  8
RACCORDO
100
AcDbLine
 62
250
  6
CONTINUOUS
 10
3.5031487733
 20
-22.2617428811
 11
4.1382266579
 21
-22.2617428811
  0
LINE
  5
2CD
100
AcDbEntity
  8
RACCORDO
100
AcDbLine
 62
250
  6
CONTINUOUS
 10
-7.1117733421
 20
-22.2617428811
 11
-7.7468512267
 21
-22.2617428811
  0
LINE
  5
2CE
100
AcDbEntity
  8
RACCORDO
100
AcDbLine
 62
250
  6
CONTINUOUS
 10
-14.7531487733
 20
-22.2617428811
 11
-22.3618190336
 21
-22.2617428811
  0
LINE
  5
2CF
100
AcDbEntity
  8
RACCORDO
100
AcDbLine
 62
250
  6
CONTINUOUS
 10
-6.8209156123
 20
-22.1639945176
 11
-4.4290843877
 21
-22.1639945176
  0
LINE
  5
2D0
100
AcDbEntity
  8
RACCORDO
100
AcDbLine
 62
250
  6
CONTINUOUS
 10
4.4290843877
 20
-22.1639945176
 11
6.8209156123
 21
-22.1639945176
  0
LINE
  5
2D1
100
AcDbEntity
  8
RACCORDO
100
AcDbLine
 62
250
  6
CONTINUOUS
 10
37.8137121785
 20
-22.0643974111
 11
38.1133010389
 21
-22.0643974111
  0
LINE
  5
2D2
100
AcDbEntity
  8
RACCORDO
100
AcDbLine
 62
250
  6
CONTINUOUS
 10
-37.8137121785
 20
-22.0643974111
 11
-38.1133010389
 21
-22.0643974111
  0
LINE
  5
2D3
100
AcDbEntity
  8
RACCORDO
100
AcDbLine
 62
250
  6
CONTINUOUS
 10
-34.1259776491
 20
-22.0629348756
 11
-33.8260233406
 21
-22.0629348756
  0
LINE
  5
2D4
100
AcDbEntity
  8
RACCORDO
100
AcDbLine
 62
250
  6
CONTINUOUS
 10
34.1259776491
 20
-22.0629348756
 11
33.8260233406
 21
-22.0629348756
  0
LINE
  5
2D5
100
AcDbEntity
  8
RACCORDO
100
AcDbLine
 62
250
  6
CONTINUOUS
 10
22.3618190336
 20
-22.0617733421
 11
14.7531487733
 21
-22.0617733421
  0
LINE
  5
2D6
100
AcDbEntity
  8
RACCORDO
100
AcDbLine
 62
250
  6
CONTINUOUS
 10
7.7468512267
 20
-22.0617733421
 11
7.3117428811
 21
-22.0617733421
  0
LINE
  5
2D7
100
AcDbEntity
  8
RACCORDO
100
AcDbLine
 62
250
  6
CONTINUOUS
 10
3.9382571189
 20
-22.0617733421
 11
3.5031487733
 21
-22.0617733421
  0
LINE
  5
2D8
100
AcDbEntity
  8
RACCORDO
100
AcDbLine
 62
250
  6
CONTINUOUS
 10
-3.5031487733
 20
-22.0617733421
 11
-3.9382571189
 21
-22.0617733421
  0
LINE
  5
2D9
100
AcDbEntity
  8
RACCORDO
100
AcDbLine
 62
250
  6
CONTINUOUS
 10
-7.3117428811
 20
-22.0617733421
 11
-7.7468512267
 21
-22.0617733421
  0
LINE
  5
2DA
100
AcDbEntity
  8
RACCORDO
100
AcDbLine
 62
250
  6
CONTINUOUS
 10
-14.7531487733
 20
-22.0617733421
 11
-22.3618190336
 21
-22.0617733421
  0
LINE
  5
2DB
100
AcDbEntity
  8
RACCORDO
100
AcDbLine
 62
250
  6
CONTINUOUS
 10
-6.8209156123
 20
-21.9640249785
 11
-4.4290843877
 21
-21.9640249785
  0
LINE
  5
2DC
100
AcDbEntity
  8
RACCORDO
100
AcDbLine
 62
250
  6
CONTINUOUS
 10
4.4290843877
 20
-21.9640249785
 11
6.8209156123
 21
-21.9640249785
  0
LINE
  5
2DD
100
AcDbEntity
  8
RACCORDO
100
AcDbLine
 62
7
  6
CONTINUOUS
 10
22.2500456915
 20
-21.95
 11
14.6982396618
 21
-21.95
  0
LINE
  5
2DE
100
AcDbEntity
  8
RACCORDO
100
AcDbLine
 62
7
  6
CONTINUOUS
 10
7.8017603382
 20
-21.95
 11
3.4482396618
 21
-21.95
  0
LINE
  5
2DF
100
AcDbEntity
  8
RACCORDO
100
AcDbLine
 62
7
  6
CONTINUOUS
 10
-3.4482396618
 20
-21.95
 11
-7.8017603382
 21
-21.95
  0
LINE
  5
2E0
100
AcDbEntity
  8
RACCORDO
100
AcDbLine
 62
7
  6
CONTINUOUS
 10
-14.6982396618
 20
-21.95
 11
-22.2500456915
 21
-21.95
  0
LINE
  5
2E1
100
AcDbEntity
  8
RACCORDO
100
AcDbLine
 62
250
  6
CONTINUOUS
 10
-22.8617428811
 20
-21.7618190336
 11
-22.6617733421
 21
-21.7618190336
  0
LINE
  5
2E2
100
AcDbEntity
  8
RACCORDO
100
AcDbLine
 62
250
  6
CONTINUOUS
 10
22.8617428811
 20
-21.7618190336
 11
22.6617733421
 21
-21.7618190336
  0
LINE
  5
2E3
100
AcDbEntity
  8
RACCORDO
100
AcDbLine
 62
250
  6
CONTINUOUS
 10
-7.7468512267
 20
-22.2617428811
 11
-7.9468359962
 21
-22.2599976405
  0
LINE
  5
2E4
100
AcDbEntity
  8
RACCORDO
100
AcDbLine
 62
250
  6
CONTINUOUS
 10
3.5031487733
 20
-22.2617428811
 11
3.3031640038
 21
-22.2599976405
  0
LINE
  5
2E5
100
AcDbEntity
  8
RACCORDO
100
AcDbLine
 62
250
  6
CONTINUOUS
 10
14.7531487733
 20
-22.2617428811
 11
14.5531640038
 21
-22.2599976405
  0
LINE
  5
2E6
100
AcDbEntity
  8
RACCORDO
100
AcDbLine
 62
7
  6
CONTINUOUS
 10
-34.3071379368
 20
-21.15134877
 11
-34.9428009215
 21
-21.1402532314
  0
LINE
  5
2E7
100
AcDbEntity
  8
RACCORDO
100
AcDbLine
 62
250
  6
CONTINUOUS
 10
-9.0472291905
 20
-26.0479447054
 11
-9.1642476264
 21
-25.8859016043
  0
LINE
  5
2E8
100
AcDbEntity
  8
RACCORDO
100
AcDbLine
 62
250
  6
CONTINUOUS
 10
-16.3393804709
 20
25.9477587293
 11
-16.3395211105
 21
25.9627891564
  0
LINE
  5
2E9
100
AcDbEntity
  8
RACCORDO
100
AcDbLine
 62
250
  6
CONTINUOUS
 10
-16.3393804709
 20
-25.9477587293
 11
-16.3393804709
 21
-25.7291514214
  0
LINE
  5
2EA
100
AcDbEntity
  8
RACCORDO
100
AcDbLine
 62
250
  6
CONTINUOUS
 10
-16.3393804709
 20
25.7291514214
 11
-16.3393804709
 21
25.9477587293
  0
LINE
  5
2EB
100
AcDbEntity
  8
RACCORDO
100
AcDbLine
 62
250
  6
CONTINUOUS
 10
-16.2852629416
 20
-23.4354456935
 11
-16.2852629416
 21
-24.2088241766
  0
LINE
  5
2EC
100
AcDbEntity
  8
RACCORDO
100
AcDbLine
 62
250
  6
CONTINUOUS
 10
-16.2852629416
 20
23.4354456935
 11
-16.2852629416
 21
24.2088241766
  0
LINE
  5
2ED
100
AcDbEntity
  8
RACCORDO
100
AcDbLine
 62
250
  6
CONTINUOUS
 10
-16.1099278638
 20
-22.9602933676
 11
-16.1099278638
 21
-23.2601106157
  0
LINE
  5
2EE
100
AcDbEntity
  8
RACCORDO
100
AcDbLine
 62
250
  6
CONTINUOUS
 10
-16.1099278638
 20
22.9602933676
 11
-16.1099278638
 21
23.2601106157
  0
LINE
  5
2EF
100
AcDbEntity
  8
RACCORDO
100
AcDbLine
 62
250
  6
CONTINUOUS
 10
-15.9854456935
 20
-24.2088241766
 11
-15.9854456935
 21
-23.7352629416
  0
LINE
  5
2F0
100
AcDbEntity
  8
RACCORDO
100
AcDbLine
 62
250
  6
CONTINUOUS
 10
-15.9854456935
 20
23.7352629416
 11
-15.9854456935
 21
24.2088241766
  0
LINE
  5
2F1
100
AcDbEntity
  8
RACCORDO
100
AcDbLine
 62
250
  6
CONTINUOUS
 10
-16.3395211105
 20
-25.9627891564
 11
-16.3393804709
 21
-25.9477587293
  0
LINE
  5
2F2
100
AcDbEntity
  8
RACCORDO
100
AcDbLine
 62
250
  6
CONTINUOUS
 10
-7.9468359962
 20
22.2599976405
 11
-8.0017304096
 21
22.1482852947
  0
LINE
  5
2F3
100
AcDbEntity
  8
RACCORDO
100
AcDbLine
 62
250
  6
CONTINUOUS
 10
-7.7468512267
 20
22.0617733421
 11
-7.8017603382
 21
21.95
  0
LINE
  5
2F4
100
AcDbEntity
  8
RACCORDO
100
AcDbLine
 62
250
  6
CONTINUOUS
 10
-4.1382266579
 20
22.2617428811
 11
-4.2291148487
 21
22.1708546904
  0
LINE
  5
2F5
100
AcDbEntity
  8
RACCORDO
100
AcDbLine
 62
250
  6
CONTINUOUS
 10
-3.9382571189
 20
22.0617733421
 11
-4.0291453096
 21
21.9708851513
  0
LINE
  5
2F6
100
AcDbEntity
  8
RACCORDO
100
AcDbLine
 62
250
  6
CONTINUOUS
 10
-4.2291148487
 20
-22.1708546904
 11
-4.1382266579
 21
-22.2617428811
  0
LINE
  5
2F7
100
AcDbEntity
  8
RACCORDO
100
AcDbLine
 62
250
  6
CONTINUOUS
 10
-4.029145308
 20
-21.970885153
 11
-3.9382571189
 21
-22.0617733421
  0
LINE
  5
2F8
100
AcDbEntity
  8
RACCORDO
100
AcDbLine
 62
250
  6
CONTINUOUS
 10
-8.0017304096
 20
-22.1482852947
 11
-7.9468359962
 21
-22.2599976405
  0
LINE
  5
2F9
100
AcDbEntity
  8
RACCORDO
100
AcDbLine
 62
250
  6
CONTINUOUS
 10
-7.8017603382
 20
-21.95
 11
-7.7468512267
 21
-22.0617733421
  0
LINE
  5
2FA
100
AcDbEntity
  8
RACCORDO
100
AcDbLine
 62
250
  6
CONTINUOUS
 10
-8.0404001425
 20
-25.5233295363
 11
-8.106164528
 21
-25.3345801615
  0
LINE
  5
2FB
100
AcDbEntity
  8
RACCORDO
100
AcDbLine
 62
250
  6
CONTINUOUS
 10
-16.0395632228
 20
26.0254044428
 11
-16.0397038624
 21
26.04043487
  0
LINE
  5
2FC
100
AcDbEntity
  8
RACCORDO
100
AcDbLine
 62
250
  6
CONTINUOUS
 10
-14.7229080783
 20
-25.7269833026
 11
-14.7531487733
 21
-22.2617428811
  0
LINE
  5
2FD
100
AcDbEntity
  8
RACCORDO
100
AcDbLine
 62
7
  6
CONTINUOUS
 10
-14.522923308
 20
-25.7252381515
 11
-14.5531640038
 21
-22.2599976405
  0
LINE
  5
2FE
100
AcDbEntity
  8
RACCORDO
100
AcDbLine
 62
7
  6
CONTINUOUS
 10
-14.4690049209
 20
-25.5016842793
 11
-14.4982695904
 21
-22.1482852947
  0
LINE
  5
2FF
100
AcDbEntity
  8
RACCORDO
100
AcDbLine
 62
250
  6
CONTINUOUS
 10
-15.8101106157
 20
25.8108416232
 11
-15.8101106157
 21
23.5599278638
  0
LINE
  5
300
100
AcDbEntity
  8
RACCORDO
100
AcDbLine
 62
250
  6
CONTINUOUS
 10
-15.8101106157
 20
-23.5599278638
 11
-15.8101106157
 21
-25.8108416232
  0
LINE
  5
301
100
AcDbEntity
  8
RACCORDO
100
AcDbLine
 62
250
  6
CONTINUOUS
 10
-15.5102933676
 20
25.8108416232
 11
-15.5102933676
 21
23.5599278638
  0
LINE
  5
302
100
AcDbEntity
  8
RACCORDO
100
AcDbLine
 62
250
  6
CONTINUOUS
 10
-15.5102933676
 20
-23.5599278638
 11
-15.5102933676
 21
-25.8108416232
  0
LINE
  5
303
100
AcDbEntity
  8
RACCORDO
100
AcDbLine
 62
250
  6
CONTINUOUS
 10
-14.8545942975
 20
-27.25386329
 11
-14.8545942975
 21
-27.4760348245
  0
LINE
  5
304
100
AcDbEntity
  8
RACCORDO
100
AcDbLine
 62
250
  6
CONTINUOUS
 10
-14.8545942975
 20
27.25386329
 11
-14.8545942975
 21
27.4760348245
  0
LINE
  5
305
100
AcDbEntity
  8
RACCORDO
100
AcDbLine
 62
250
  6
CONTINUOUS
 10
-14.7531487733
 20
22.2617428811
 11
-14.7531487733
 21
22.0617733421
  0
LINE
  5
306
100
AcDbEntity
  8
RACCORDO
100
AcDbLine
 62
250
  6
CONTINUOUS
 10
-14.7531487733
 20
-22.2617428811
 11
-14.7531487733
 21
-22.0617733421
  0
LINE
  5
307
100
AcDbEntity
  8
RACCORDO
100
AcDbLine
 62
250
  6
CONTINUOUS
 10
-14.6108416232
 20
-26.7102933676
 11
-14.6108416232
 21
-27.0101106157
  0
LINE
  5
308
100
AcDbEntity
  8
RACCORDO
100
AcDbLine
 62
250
  6
CONTINUOUS
 10
-14.6108416232
 20
26.7102933676
 11
-14.6108416232
 21
27.0101106157
  0
LINE
  5
309
100
AcDbEntity
  8
RACCORDO
100
AcDbLine
 62
250
  6
CONTINUOUS
 10
-14.3230267147
 20
26.1236148336
 11
-14.3230267147
 21
25.9237366682
  0
LINE
  5
30A
100
AcDbEntity
  8
RACCORDO
100
AcDbLine
 62
250
  6
CONTINUOUS
 10
-14.3230267147
 20
-26.1236148336
 11
-14.3230267147
 21
-25.9237366682
  0
LINE
  5
30B
100
AcDbEntity
  8
RACCORDO
100
AcDbLine
 62
250
  6
CONTINUOUS
 10
-14.7531487733
 20
22.2617428811
 11
-14.7229080775
 21
25.7269833921
  0
LINE
  5
30C
100
AcDbEntity
  8
RACCORDO
100
AcDbLine
 62
7
  6
CONTINUOUS
 10
-14.5531640038
 20
22.2599976405
 11
-14.522923308
 21
25.7252381515
  0
LINE
  5
30D
100
AcDbEntity
  8
RACCORDO
100
AcDbLine
 62
7
  6
CONTINUOUS
 10
-14.4982698554
 20
22.1482549329
 11
-14.4690049209
 21
25.5016842793
  0
LINE
  5
30E
100
AcDbEntity
  8
RACCORDO
100
AcDbLine
 62
250
  6
CONTINUOUS
 10
-16.0397038624
 20
-26.04043487
 11
-16.0395632228
 21
-26.0254044428
  0
LINE
  5
30F
100
AcDbEntity
  8
RACCORDO
100
AcDbLine
 62
250
  6
CONTINUOUS
 10
-8.1769732853
 20
25.9237366682
 11
-8.2309357606
 21
25.7
  0
LINE
  5
310
100
AcDbEntity
  8
RACCORDO
100
AcDbLine
 62
250
  6
CONTINUOUS
 10
-7.977076692
 20
25.7252381515
 11
-8.0309950791
 21
25.5016842793
  0
LINE
  5
311
100
AcDbEntity
  8
RACCORDO
100
AcDbLine
 62
250
  6
CONTINUOUS
 10
-6.7722942745
 20
25.2698888209
 11
-6.8209156123
 21
25.0760145149
  0
LINE
  5
312
100
AcDbEntity
  8
RACCORDO
100
AcDbLine
 62
250
  6
CONTINUOUS
 10
-6.8021805011
 20
25.6732878403
 11
-6.8570530597
 21
25.4810892895
  0
LINE
  5
313
100
AcDbEntity
  8
RACCORDO
100
AcDbLine
 62
7
  6
CONTINUOUS
 10
-34.3071379368
 20
-15.44865123
 11
-34.9428009215
 21
-15.4597467686
  0
LINE
  5
314
100
AcDbEntity
  8
RACCORDO
100
AcDbLine
 62
250
  6
CONTINUOUS
 10
-34.1259776491
 20
-14.5370651244
 11
-33.8260233406
 21
-14.5370651244
  0
LINE
  5
315
100
AcDbEntity
  8
RACCORDO
100
AcDbLine
 62
250
  6
CONTINUOUS
 10
34.1259776491
 20
-14.5370651244
 11
33.8260233406
 21
-14.5370651244
  0
LINE
  5
316
100
AcDbEntity
  8
RACCORDO
100
AcDbLine
 62
250
  6
CONTINUOUS
 10
37.8137121785
 20
-14.5356025889
 11
38.1133010389
 21
-14.5356025889
  0
LINE
  5
317
100
AcDbEntity
  8
RACCORDO
100
AcDbLine
 62
250
  6
CONTINUOUS
 10
-37.8137121785
 20
-14.5356025889
 11
-38.1133010389
 21
-14.5356025889
  0
LINE
  5
318
100
AcDbEntity
  8
RACCORDO
100
AcDbLine
 62
7
  6
CONTINUOUS
 10
-37.2506852326
 20
-14.1
 11
-34.6466345172
 21
-14.1
  0
LINE
  5
319
100
AcDbEntity
  8
RACCORDO
100
AcDbLine
 62
7
  6
CONTINUOUS
 10
34.6466345172
 20
-14.1
 11
37.2506852326
 21
-14.1
  0
LINE
  5
31A
100
AcDbEntity
  8
RACCORDO
100
AcDbLine
 62
250
  6
CONTINUOUS
 10
37.3143974111
 20
-14.0362878215
 11
34.625414381
 21
-14.0362878215
  0
LINE
  5
31B
100
AcDbEntity
  8
RACCORDO
100
AcDbLine
 62
250
  6
CONTINUOUS
 10
-34.625414381
 20
-14.0362878215
 11
-37.3143974111
 21
-14.0362878215
  0
LINE
  5
31C
100
AcDbEntity
  8
RACCORDO
100
AcDbLine
 62
250
  6
CONTINUOUS
 10
37.3143974111
 20
-13.7366989611
 11
34.625414381
 21
-13.7366989611
  0
LINE
  5
31D
100
AcDbEntity
  8
RACCORDO
100
AcDbLine
 62
250
  6
CONTINUOUS
 10
-34.625414381
 20
-13.7366989611
 11
-37.3143974111
 21
-13.7366989611
  0
LINE
  5
31E
100
AcDbEntity
  8
RACCORDO
100
AcDbLine
 62
7
  6
CONTINUOUS
 10
34.9428009215
 20
-15.4597467686
 11
34.3071379368
 21
-15.44865123
  0
LINE
  5
31F
100
AcDbEntity
  8
RACCORDO
100
AcDbLine
 62
250
  6
CONTINUOUS
 10
-6.8968272268
 20
-25.3075182639
 11
-6.9043764231
 21
-25.1077827122
  0
LINE
  5
320
100
AcDbEntity
  8
RACCORDO
100
AcDbLine
 62
7
  6
CONTINUOUS
 10
-8.0309950791
 20
25.5016842793
 11
-8.0017304096
 21
22.1482852947
  0
LINE
  5
321
100
AcDbEntity
  8
RACCORDO
100
AcDbLine
 62
7
  6
CONTINUOUS
 10
-7.977076692
 20
25.7252381515
 11
-7.9468359962
 21
22.2599976405
  0
LINE
  5
322
100
AcDbEntity
  8
RACCORDO
100
AcDbLine
 62
250
  6
CONTINUOUS
 10
-11.6295353037
 20
-30.1919473102
 11
-11.6295353037
 21
-29.8144843486
  0
LINE
  5
323
100
AcDbEntity
  8
RACCORDO
100
AcDbLine
 62
250
  6
CONTINUOUS
 10
-11.356388056
 20
-27.25386329
 11
-11.3563880559
 21
-27.476034821
  0
LINE
  5
324
100
AcDbEntity
  8
RACCORDO
100
AcDbLine
 62
250
  6
CONTINUOUS
 10
-11.3153934028
 20
-30.7573980903
 11
-11.3153934029
 21
-30.4575808379
  0
LINE
  5
325
100
AcDbEntity
  8
RACCORDO
100
AcDbLine
 62
250
  6
CONTINUOUS
 10
-10.9940021002
 20
-26.7102933574
 11
-10.9940021002
 21
-27.0101106157
  0
LINE
  5
326
100
AcDbEntity
  8
RACCORDO
100
AcDbLine
 62
250
  6
CONTINUOUS
 10
-10.6298409283
 20
30.1919473102
 11
-10.6298409283
 21
29.8144843505
  0
LINE
  5
327
100
AcDbEntity
  8
RACCORDO
100
AcDbLine
 62
250
  6
CONTINUOUS
 10
-10.3299534608
 20
30.7573980946
 11
-10.3299534609
 21
30.4575808379
  0
LINE
  5
328
100
AcDbEntity
  8
RACCORDO
100
AcDbLine
 62
250
  6
CONTINUOUS
 10
-10.2469402302
 20
27.2538632898
 11
-10.2469402303
 21
27.4760348189
  0
LINE
  5
329
100
AcDbEntity
  8
RACCORDO
100
AcDbLine
 62
250
  6
CONTINUOUS
 10
-9.8643288368
 20
26.7102933619
 11
-9.8643288369
 21
27.0101106157
  0
LINE
  5
32A
100
AcDbEntity
  8
RACCORDO
100
AcDbLine
 62
250
  6
CONTINUOUS
 10
-9.2812660625
 20
-26.1236148336
 11
-9.2812660625
 21
-25.9237366682
  0
LINE
  5
32B
100
AcDbEntity
  8
RACCORDO
100
AcDbLine
 62
250
  6
CONTINUOUS
 10
-8.1769732853
 20
26.1236148336
 11
-8.1769732853
 21
25.9237366682
  0
LINE
  5
32C
100
AcDbEntity
  8
RACCORDO
100
AcDbLine
 62
250
  6
CONTINUOUS
 10
-7.7468512267
 20
22.2617428811
 11
-7.7468512267
 21
22.0617733421
  0
LINE
  5
32D
100
AcDbEntity
  8
RACCORDO
100
AcDbLine
 62
250
  6
CONTINUOUS
 10
-7.7468512267
 20
-22.2617428811
 11
-7.7468512267
 21
-22.0617733421
  0
LINE
  5
32E
100
AcDbEntity
  8
RACCORDO
100
AcDbLine
 62
7
  6
CONTINUOUS
 10
-8.0017301446
 20
-22.1482549329
 11
-8.0260002941
 21
-24.9293386033
  0
LINE
  5
32F
100
AcDbEntity
  8
RACCORDO
100
AcDbLine
 62
7
  6
CONTINUOUS
 10
-7.9468359962
 20
-22.2599976405
 11
-7.9720324007
 21
-25.1472196297
  0
LINE
  5
330
100
AcDbEntity
  8
RACCORDO
100
AcDbLine
 62
250
  6
CONTINUOUS
 10
-14.522923308
 20
-25.7252381515
 11
-14.4690049209
 21
-25.5016842793
  0
LINE
  5
331
100
AcDbEntity
  8
RACCORDO
100
AcDbLine
 62
250
  6
CONTINUOUS
 10
-14.3230267147
 20
-25.9237366682
 11
-14.2690642394
 21
-25.7
  0
LINE
  5
332
100
AcDbEntity
  8
RACCORDO
100
AcDbLine
 62
250
  6
CONTINUOUS
 10
4.4290843877
 20
25.3653310144
 11
4.5319203561
 21
25.5367254268
  0
LINE
  5
333
100
AcDbEntity
  8
RACCORDO
100
AcDbLine
 62
250
  6
CONTINUOUS
 10
4.5608122516
 20
25.970674917
 11
4.4494433162
 21
25.8046982885
  0
LINE
  5
334
100
AcDbEntity
  8
RACCORDO
100
AcDbLine
 62
250
  6
CONTINUOUS
 10
-37.75
 20
-22.0006852326
 11
-37.8137121785
 21
-22.0643974111
  0
LINE
  5
335
100
AcDbEntity
  8
RACCORDO
100
AcDbLine
 62
250
  6
CONTINUOUS
 10
7.1117733421
 20
22.2617428811
 11
7.0208851513
 21
22.1708546904
  0
LINE
  5
336
100
AcDbEntity
  8
RACCORDO
100
AcDbLine
 62
250
  6
CONTINUOUS
 10
-37.2506852326
 20
-22.5
 11
-37.3143974111
 21
-22.5637121785
  0
LINE
  5
337
100
AcDbEntity
  8
RACCORDO
100
AcDbLine
 62
250
  6
CONTINUOUS
 10
7.3117428811
 20
22.0617733421
 11
7.2208546904
 21
21.9708851513
  0
LINE
  5
338
100
AcDbEntity
  8
RACCORDO
100
AcDbLine
 62
250
  6
CONTINUOUS
 10
14.8545942975
 20
27.25386329
 11
14.6108416232
 21
27.0101106157
  0
LINE
  5
339
100
AcDbEntity
  8
RACCORDO
100
AcDbLine
 62
250
  6
CONTINUOUS
 10
-37.75
 20
22.0006852326
 11
-37.8137121785
 21
22.0643974111
  0
LINE
  5
33A
100
AcDbEntity
  8
RACCORDO
100
AcDbLine
 62
250
  6
CONTINUOUS
 10
7.0208851513
 20
-22.1708546904
 11
7.1117733421
 21
-22.2617428811
  0
LINE
  5
33B
100
AcDbEntity
  8
RACCORDO
100
AcDbLine
 62
250
  6
CONTINUOUS
 10
-37.2506852326
 20
22.5
 11
-37.3143974111
 21
22.5637121785
  0
LINE
  5
33C
100
AcDbEntity
  8
RACCORDO
100
AcDbLine
 62
250
  6
CONTINUOUS
 10
7.220854692
 20
-21.970885153
 11
7.3117428811
 21
-22.0617733421
  0
LINE
  5
33D
100
AcDbEntity
  8
RACCORDO
100
AcDbLine
 62
250
  6
CONTINUOUS
 10
14.8545942975
 20
-27.25386329
 11
14.6108416232
 21
-27.0101106157
  0
LINE
  5
33E
100
AcDbEntity
  8
RACCORDO
100
AcDbLine
 62
250
  6
CONTINUOUS
 10
-14.522923308
 20
25.7252381515
 11
-14.4690049209
 21
25.5016842793
  0
LINE
  5
33F
100
AcDbEntity
  8
RACCORDO
100
AcDbLine
 62
250
  6
CONTINUOUS
 10
-14.3230267147
 20
25.9237366682
 11
-14.2690642394
 21
25.7
  0
LINE
  5
340
100
AcDbEntity
  8
RACCORDO
100
AcDbLine
 62
250
  6
CONTINUOUS
 10
-6.8177063664
 20
-24.9233184945
 11
-6.8209156123
 21
-24.7234660946
  0
LINE
  5
341
100
AcDbEntity
  8
RACCORDO
100
AcDbLine
 62
250
  6
CONTINUOUS
 10
-7.7770919217
 20
25.7269833026
 11
-7.7468512267
 21
22.2617428811
  0
LINE
  5
342
100
AcDbEntity
  8
RACCORDO
100
AcDbLine
 62
250
  6
CONTINUOUS
 10
-3.4729080783
 20
-25.7269833026
 11
-3.5031487733
 21
-22.2617428811
  0
LINE
  5
343
100
AcDbEntity
  8
RACCORDO
100
AcDbLine
 62
250
  6
CONTINUOUS
 10
-7.3117428811
 20
-24.9077986779
 11
-7.3117428811
 21
-22.0617733421
  0
LINE
  5
344
100
AcDbEntity
  8
RACCORDO
100
AcDbLine
 62
250
  6
CONTINUOUS
 10
-7.3117428811
 20
22.0617733421
 11
-7.3117428813
 21
25.288602518
  0
LINE
  5
345
100
AcDbEntity
  8
RACCORDO
100
AcDbLine
 62
250
  6
CONTINUOUS
 10
-7.1117733421
 20
-24.9077986779
 11
-7.1117733421
 21
-22.2617428811
  0
LINE
  5
346
100
AcDbEntity
  8
RACCORDO
100
AcDbLine
 62
250
  6
CONTINUOUS
 10
-7.1117733421
 20
22.2617428811
 11
-7.1117733421
 21
25.288602518
  0
LINE
  5
347
100
AcDbEntity
  8
RACCORDO
100
AcDbLine
 62
250
  6
CONTINUOUS
 10
-7.0208851513
 20
-24.7234660946
 11
-7.0208851513
 21
-22.1708546904
  0
LINE
  5
348
100
AcDbEntity
  8
RACCORDO
100
AcDbLine
 62
250
  6
CONTINUOUS
 10
-7.0208851513
 20
22.1708546904
 11
-7.0208851513
 21
25.0760145149
  0
LINE
  5
349
100
AcDbEntity
  8
RACCORDO
100
AcDbLine
 62
250
  6
CONTINUOUS
 10
-6.8209156123
 20
-21.9640249785
 11
-6.8209156123
 21
-24.7234660946
  0
LINE
  5
34A
100
AcDbEntity
  8
RACCORDO
100
AcDbLine
 62
250
  6
CONTINUOUS
 10
-6.8209156123
 20
21.9640249785
 11
-6.8209156123
 21
25.0760145149
  0
LINE
  5
34B
100
AcDbEntity
  8
RACCORDO
100
AcDbLine
 62
250
  6
CONTINUOUS
 10
-4.4290843877
 20
-21.9640249785
 11
-4.4290843877
 21
-25.3653310144
  0
LINE
  5
34C
100
AcDbEntity
  8
RACCORDO
100
AcDbLine
 62
250
  6
CONTINUOUS
 10
-4.4290843877
 20
21.9640249785
 11
-4.4290843877
 21
25.1306544392
  0
LINE
  5
34D
100
AcDbEntity
  8
RACCORDO
100
AcDbLine
 62
250
  6
CONTINUOUS
 10
-4.2291148487
 20
25.1306544392
 11
-4.2291148487
 21
22.1708546904
  0
LINE
  5
34E
100
AcDbEntity
  8
RACCORDO
100
AcDbLine
 62
250
  6
CONTINUOUS
 10
-4.2291148487
 20
-22.1708546904
 11
-4.2291148487
 21
-25.3653310144
  0
LINE
  5
34F
100
AcDbEntity
  8
RACCORDO
100
AcDbLine
 62
250
  6
CONTINUOUS
 10
-4.1382266579
 20
25.3504733109
 11
-4.1382266579
 21
22.2617428811
  0
LINE
  5
350
100
AcDbEntity
  8
RACCORDO
100
AcDbLine
 62
250
  6
CONTINUOUS
 10
-4.1382266579
 20
-22.2617428811
 11
-4.1382266579
 21
-25.638346435
  0
LINE
  5
351
100
AcDbEntity
  8
RACCORDO
100
AcDbLine
 62
250
  6
CONTINUOUS
 10
-3.9382571188
 20
25.350473311
 11
-3.9382571189
 21
22.0617733421
  0
LINE
  5
352
100
AcDbEntity
  8
RACCORDO
100
AcDbLine
 62
250
  6
CONTINUOUS
 10
-3.9382571189
 20
-22.0617733421
 11
-3.9382571183
 21
-25.6383464351
  0
LINE
  5
353
100
AcDbEntity
  8
RACCORDO
100
AcDbLine
 62
250
  6
CONTINUOUS
 10
-7.7468512267
 20
-22.2617428811
 11
-7.7720476312
 21
-25.1489648703
  0
LINE
  5
354
100
AcDbEntity
  8
RACCORDO
100
AcDbLine
 62
250
  6
CONTINUOUS
 10
-3.5031487733
 20
22.2617428811
 11
-3.4729080775
 21
25.7269833921
  0
LINE
  5
355
100
AcDbEntity
  8
RACCORDO
100
AcDbLine
 62
250
  6
CONTINUOUS
 10
3.3031640038
 20
22.2599976405
 11
3.2482695904
 21
22.1482852947
  0
LINE
  5
356
100
AcDbEntity
  8
RACCORDO
100
AcDbLine
 62
250
  6
CONTINUOUS
 10
3.5031487733
 20
22.0617733421
 11
3.4482396618
 21
21.95
  0
LINE
  5
357
100
AcDbEntity
  8
RACCORDO
100
AcDbLine
 62
250
  6
CONTINUOUS
 10
16.0397038624
 20
26.04043487
 11
15.8101106157
 21
25.8108416232
  0
LINE
  5
358
100
AcDbEntity
  8
RACCORDO
100
AcDbLine
 62
250
  6
CONTINUOUS
 10
22.2400721362
 20
30.457580838
 11
21.9744386085
 21
30.1919473102
  0
LINE
  5
359
100
AcDbEntity
  8
RACCORDO
100
AcDbLine
 62
250
  6
CONTINUOUS
 10
15.8101106157
 20
23.5599278638
 11
15.9854456935
 21
23.7352629416
  0
LINE
  5
35A
100
AcDbEntity
  8
RACCORDO
100
AcDbLine
 62
250
  6
CONTINUOUS
 10
22.5398893843
 20
30.1577635899
 11
22.2742558566
 21
29.8921300621
  0
LINE
  5
35B
100
AcDbEntity
  8
RACCORDO
100
AcDbLine
 62
250
  6
CONTINUOUS
 10
16.1099278638
 20
23.2601106157
 11
16.2852629416
 21
23.4354456935
  0
LINE
  5
35C
100
AcDbEntity
  8
RACCORDO
100
AcDbLine
 62
250
  6
CONTINUOUS
 10
16.0397038624
 20
-26.04043487
 11
15.8101106157
 21
-25.8108416232
  0
LINE
  5
35D
100
AcDbEntity
  8
RACCORDO
100
AcDbLine
 62
250
  6
CONTINUOUS
 10
22.2400721362
 20
-30.457580838
 11
21.9744386085
 21
-30.1919473102
  0
LINE
  5
35E
100
AcDbEntity
  8
RACCORDO
100
AcDbLine
 62
250
  6
CONTINUOUS
 10
15.8101106157
 20
-23.5599278638
 11
15.9854456935
 21
-23.7352629416
  0
LINE
  5
35F
100
AcDbEntity
  8
RACCORDO
100
AcDbLine
 62
250
  6
CONTINUOUS
 10
22.5398893843
 20
-30.1577635899
 11
22.2742558566
 21
-29.8921300621
  0
LINE
  5
360
100
AcDbEntity
  8
RACCORDO
100
AcDbLine
 62
250
  6
CONTINUOUS
 10
16.1099278638
 20
-23.2601106157
 11
16.2852629416
 21
-23.4354456935
  0
LINE
  5
361
100
AcDbEntity
  8
RACCORDO
100
AcDbLine
 62
250
  6
CONTINUOUS
 10
3.2482695904
 20
-22.1482852947
 11
3.3031640038
 21
-22.2599976405
  0
LINE
  5
362
100
AcDbEntity
  8
RACCORDO
100
AcDbLine
 62
250
  6
CONTINUOUS
 10
3.4482396618
 20
-21.95
 11
3.5031487733
 21
-22.0617733421
  0
LINE
  5
363
100
AcDbEntity
  8
RACCORDO
100
AcDbLine
 62
250
  6
CONTINUOUS
 10
4.4661655262
 20
-25.7294507785
 11
4.4021199534
 21
-25.5401112802
  0
LINE
  5
364
100
AcDbEntity
  8
RACCORDO
100
AcDbLine
 62
7
  6
CONTINUOUS
 10
-3.272923308
 20
-25.7252381515
 11
-3.3031640038
 21
-22.2599976405
  0
LINE
  5
365
100
AcDbEntity
  8
RACCORDO
100
AcDbLine
 62
7
  6
CONTINUOUS
 10
-3.2190049209
 20
-25.5016842793
 11
-3.2482695904
 21
-22.1482852947
  0
LINE
  5
366
100
AcDbEntity
  8
RACCORDO
100
AcDbLine
 62
250
  6
CONTINUOUS
 10
-3.5031487733
 20
22.2617428811
 11
-3.5031487733
 21
22.0617733421
  0
LINE
  5
367
100
AcDbEntity
  8
RACCORDO
100
AcDbLine
 62
250
  6
CONTINUOUS
 10
-3.5031487733
 20
-22.2617428811
 11
-3.5031487733
 21
-22.0617733421
  0
LINE
  5
368
100
AcDbEntity
  8
RACCORDO
100
AcDbLine
 62
250
  6
CONTINUOUS
 10
-3.0730267147
 20
26.1236148336
 11
-3.0730267147
 21
25.9237366682
  0
LINE
  5
369
100
AcDbEntity
  8
RACCORDO
100
AcDbLine
 62
250
  6
CONTINUOUS
 10
-3.0730267147
 20
-26.1236148336
 11
-3.0730267147
 21
-25.9237366682
  0
LINE
  5
36A
100
AcDbEntity
  8
RACCORDO
100
AcDbLine
 62
7
  6
CONTINUOUS
 10
-3.3031640038
 20
22.2599976405
 11
-3.272923308
 21
25.7252381515
  0
LINE
  5
36B
100
AcDbEntity
  8
RACCORDO
100
AcDbLine
 62
7
  6
CONTINUOUS
 10
-3.2482698554
 20
22.1482549329
 11
-3.2190049209
 21
25.5016842793
  0
LINE
  5
36C
100
AcDbEntity
  8
RACCORDO
100
AcDbLine
 62
250
  6
CONTINUOUS
 10
3.0730267147
 20
25.9237366682
 11
3.0190642394
 21
25.7
  0
LINE
  5
36D
100
AcDbEntity
  8
RACCORDO
100
AcDbLine
 62
250
  6
CONTINUOUS
 10
3.272923308
 20
25.7252381515
 11
3.2190049209
 21
25.5016842793
  0
LINE
  5
36E
100
AcDbEntity
  8
RACCORDO
100
AcDbLine
 62
250
  6
CONTINUOUS
 10
-14.7531487733
 20
-22.0617733421
 11
-14.6982396618
 21
-21.95
  0
LINE
  5
36F
100
AcDbEntity
  8
RACCORDO
100
AcDbLine
 62
250
  6
CONTINUOUS
 10
-14.5531640038
 20
-22.2599976405
 11
-14.4982695904
 21
-22.1482852947
  0
LINE
  5
370
100
AcDbEntity
  8
RACCORDO
100
AcDbLine
 62
250
  6
CONTINUOUS
 10
-44.05
 20
-42.35
 11
-44.0002705969
 21
-42.3002705969
  0
LINE
  5
371
100
AcDbEntity
  8
RACCORDO
100
AcDbLine
 62
250
  6
CONTINUOUS
 10
-43.9720056104
 20
-42.2720056104
 11
-41.0582501673
 21
-39.3582501673
  0
LINE
  5
372
100
AcDbEntity
  8
RACCORDO
100
AcDbLine
 62
250
  6
CONTINUOUS
 10
-22.6617733421
 20
-21.7618190336
 11
-22.55
 21
-21.6500456915
  0
LINE
  5
373
100
AcDbEntity
  8
RACCORDO
100
AcDbLine
 62
250
  6
CONTINUOUS
 10
-22.3618190336
 20
-22.0617733421
 11
-22.2500456915
 21
-21.95
  0
LINE
  5
374
100
AcDbEntity
  8
RACCORDO
100
AcDbLine
 62
250
  6
CONTINUOUS
 10
-43.35
 20
-43.05
 11
-43.3002705969
 21
-43.0002705969
  0
LINE
  5
375
100
AcDbEntity
  8
RACCORDO
100
AcDbLine
 62
250
  6
CONTINUOUS
 10
-43.2720056104
 20
-42.9720056104
 11
-40.3582501673
 21
-40.0582501673
  0
LINE
  5
376
100
AcDbEntity
  8
RACCORDO
100
AcDbLine
 62
250
  6
CONTINUOUS
 10
43.35
 20
43.05
 11
43.3002705969
 21
43.0002705969
  0
LINE
  5
377
100
AcDbEntity
  8
RACCORDO
100
AcDbLine
 62
250
  6
CONTINUOUS
 10
43.2720056104
 20
42.9720056104
 11
40.3582501673
 21
40.0582501673
  0
LINE
  5
378
100
AcDbEntity
  8
RACCORDO
100
AcDbLine
 62
250
  6
CONTINUOUS
 10
22.3618190336
 20
22.0617733421
 11
22.2500456915
 21
21.95
  0
LINE
  5
379
100
AcDbEntity
  8
RACCORDO
100
AcDbLine
 62
250
  6
CONTINUOUS
 10
-44.05
 20
42.35
 11
-44.0002705969
 21
42.3002705969
  0
LINE
  5
37A
100
AcDbEntity
  8
RACCORDO
100
AcDbLine
 62
250
  6
CONTINUOUS
 10
-43.9720056104
 20
42.2720056104
 11
-41.0582501673
 21
39.3582501673
  0
LINE
  5
37B
100
AcDbEntity
  8
RACCORDO
100
AcDbLine
 62
250
  6
CONTINUOUS
 10
-22.6617733421
 20
21.7618190336
 11
-22.55
 21
21.6500456915
  0
LINE
  5
37C
100
AcDbEntity
  8
RACCORDO
100
AcDbLine
 62
250
  6
CONTINUOUS
 10
-22.3618190336
 20
22.0617733421
 11
-22.2500456915
 21
21.95
  0
LINE
  5
37D
100
AcDbEntity
  8
RACCORDO
100
AcDbLine
 62
250
  6
CONTINUOUS
 10
-43.35
 20
43.05
 11
-43.3002705969
 21
43.0002705969
  0
LINE
  5
37E
100
AcDbEntity
  8
RACCORDO
100
AcDbLine
 62
250
  6
CONTINUOUS
 10
-43.2720056104
 20
42.9720056104
 11
-40.3582501673
 21
40.0582501673
  0
LINE
  5
37F
100
AcDbEntity
  8
RACCORDO
100
AcDbLine
 62
250
  6
CONTINUOUS
 10
43.35
 20
-43.05
 11
43.3002705969
 21
-43.0002705969
  0
LINE
  5
380
100
AcDbEntity
  8
RACCORDO
100
AcDbLine
 62
250
  6
CONTINUOUS
 10
43.2720056104
 20
-42.9720056104
 11
40.3582501673
 21
-40.0582501673
  0
LINE
  5
381
100
AcDbEntity
  8
RACCORDO
100
AcDbLine
 62
250
  6
CONTINUOUS
 10
22.3618190336
 20
-22.0617733421
 11
22.2500456915
 21
-21.95
  0
LINE
  5
382
100
AcDbEntity
  8
RACCORDO
100
AcDbLine
 62
250
  6
CONTINUOUS
 10
-14.4982695904
 20
22.1482852947
 11
-14.5531640038
 21
22.2599976405
  0
LINE
  5
383
100
AcDbEntity
  8
RACCORDO
100
AcDbLine
 62
250
  6
CONTINUOUS
 10
-14.6982396618
 20
21.95
 11
-14.7531487733
 21
22.0617733421
  0
LINE
  5
384
100
AcDbEntity
  8
RACCORDO
100
AcDbLine
 62
250
  6
CONTINUOUS
 10
4.4865082644
 20
-25.3221062069
 11
4.4290843877
 21
-25.1306544392
  0
LINE
  5
385
100
AcDbEntity
  8
RACCORDO
100
AcDbLine
 62
250
  6
CONTINUOUS
 10
3.0730267147
 20
-25.9237366682
 11
3.0190642394
 21
-25.7
  0
LINE
  5
386
100
AcDbEntity
  8
RACCORDO
100
AcDbLine
 62
250
  6
CONTINUOUS
 10
3.272923308
 20
-25.7252381515
 11
3.2190049209
 21
-25.5016842793
  0
LINE
  5
387
100
AcDbEntity
  8
RACCORDO
100
AcDbLine
 62
7
  6
CONTINUOUS
 10
3.2190049209
 20
25.5016842793
 11
3.2482695904
 21
22.1482852947
  0
LINE
  5
388
100
AcDbEntity
  8
RACCORDO
100
AcDbLine
 62
7
  6
CONTINUOUS
 10
3.272923308
 20
25.7252381515
 11
3.3031640038
 21
22.2599976405
  0
LINE
  5
389
100
AcDbEntity
  8
RACCORDO
100
AcDbLine
 62
250
  6
CONTINUOUS
 10
3.4729080783
 20
25.7269833026
 11
3.5031487733
 21
22.2617428811
  0
LINE
  5
38A
100
AcDbEntity
  8
RACCORDO
100
AcDbLine
 62
250
  6
CONTINUOUS
 10
3.0730267147
 20
26.1236148336
 11
3.0730267147
 21
25.9237366682
  0
LINE
  5
38B
100
AcDbEntity
  8
RACCORDO
100
AcDbLine
 62
250
  6
CONTINUOUS
 10
3.0730267147
 20
-26.1236148336
 11
3.0730267147
 21
-25.9237366682
  0
LINE
  5
38C
100
AcDbEntity
  8
RACCORDO
100
AcDbLine
 62
250
  6
CONTINUOUS
 10
3.5031487733
 20
22.2617428811
 11
3.5031487733
 21
22.0617733421
  0
LINE
  5
38D
100
AcDbEntity
  8
RACCORDO
100
AcDbLine
 62
250
  6
CONTINUOUS
 10
3.5031487733
 20
-22.2617428811
 11
3.5031487733
 21
-22.0617733421
  0
LINE
  5
38E
100
AcDbEntity
  8
RACCORDO
100
AcDbLine
 62
250
  6
CONTINUOUS
 10
3.9382571189
 20
-25.350473311
 11
3.9382571189
 21
-22.0617733421
  0
LINE
  5
38F
100
AcDbEntity
  8
RACCORDO
100
AcDbLine
 62
250
  6
CONTINUOUS
 10
3.9382571189
 20
22.0617733421
 11
3.9382571188
 21
25.6383464512
  0
LINE
  5
390
100
AcDbEntity
  8
RACCORDO
100
AcDbLine
 62
250
  6
CONTINUOUS
 10
4.1382266579
 20
-25.3504733109
 11
4.1382266579
 21
-22.2617428811
  0
LINE
  5
391
100
AcDbEntity
  8
RACCORDO
100
AcDbLine
 62
250
  6
CONTINUOUS
 10
4.1382266579
 20
22.2617428811
 11
4.1382266579
 21
25.638346451
  0
LINE
  5
392
100
AcDbEntity
  8
RACCORDO
100
AcDbLine
 62
250
  6
CONTINUOUS
 10
4.2291148487
 20
-25.1306544392
 11
4.2291148487
 21
-22.1708546904
  0
LINE
  5
393
100
AcDbEntity
  8
RACCORDO
100
AcDbLine
 62
250
  6
CONTINUOUS
 10
4.2291148487
 20
22.1708546904
 11
4.2291148487
 21
25.3653310144
  0
LINE
  5
394
100
AcDbEntity
  8
RACCORDO
100
AcDbLine
 62
250
  6
CONTINUOUS
 10
4.4290843877
 20
-21.9640249785
 11
4.4290843877
 21
-25.1306544392
  0
LINE
  5
395
100
AcDbEntity
  8
RACCORDO
100
AcDbLine
 62
250
  6
CONTINUOUS
 10
4.4290843877
 20
21.9640249785
 11
4.4290843877
 21
25.3653310144
  0
LINE
  5
396
100
AcDbEntity
  8
RACCORDO
100
AcDbLine
 62
7
  6
CONTINUOUS
 10
3.2482698554
 20
-22.1482549329
 11
3.2190049209
 21
-25.5016842793
  0
LINE
  5
397
100
AcDbEntity
  8
RACCORDO
100
AcDbLine
 62
7
  6
CONTINUOUS
 10
3.3031640038
 20
-22.2599976405
 11
3.272923308
 21
-25.7252381515
  0
LINE
  5
398
100
AcDbEntity
  8
RACCORDO
100
AcDbLine
 62
250
  6
CONTINUOUS
 10
3.5031487733
 20
-22.2617428811
 11
3.4729080775
 21
-25.7269833921
  0
LINE
  5
399
100
AcDbEntity
  8
RACCORDO
100
AcDbLine
 62
250
  6
CONTINUOUS
 10
-3.272923308
 20
-25.7252381515
 11
-3.2190049209
 21
-25.5016842793
  0
LINE
  5
39A
100
AcDbEntity
  8
RACCORDO
100
AcDbLine
 62
250
  6
CONTINUOUS
 10
-3.0730267147
 20
-25.9237366682
 11
-3.0190642394
 21
-25.7
  0
LINE
  5
39B
100
AcDbEntity
  8
RACCORDO
100
AcDbLine
 62
250
  6
CONTINUOUS
 10
14.5531640038
 20
22.2599976405
 11
14.4982695904
 21
22.1482852947
  0
LINE
  5
39C
100
AcDbEntity
  8
RACCORDO
100
AcDbLine
 62
250
  6
CONTINUOUS
 10
14.7531487733
 20
22.0617733421
 11
14.6982396618
 21
21.95
  0
LINE
  5
39D
100
AcDbEntity
  8
RACCORDO
100
AcDbLine
 62
250
  6
CONTINUOUS
 10
22.6617733421
 20
21.7618190336
 11
22.55
 21
21.6500456915
  0
LINE
  5
39E
100
AcDbEntity
  8
RACCORDO
100
AcDbLine
 62
250
  6
CONTINUOUS
 10
44.05
 20
42.35
 11
44.0002705969
 21
42.3002705969
  0
LINE
  5
39F
100
AcDbEntity
  8
RACCORDO
100
AcDbLine
 62
250
  6
CONTINUOUS
 10
43.9720056104
 20
42.2720056104
 11
41.0582501673
 21
39.3582501673
  0
LINE
  5
3A0
100
AcDbEntity
  8
RACCORDO
100
AcDbLine
 62
250
  6
CONTINUOUS
 10
22.6617733421
 20
-21.7618190336
 11
22.55
 21
-21.6500456915
  0
LINE
  5
3A1
100
AcDbEntity
  8
RACCORDO
100
AcDbLine
 62
250
  6
CONTINUOUS
 10
44.05
 20
-42.35
 11
44.0002705969
 21
-42.3002705969
  0
LINE
  5
3A2
100
AcDbEntity
  8
RACCORDO
100
AcDbLine
 62
250
  6
CONTINUOUS
 10
43.9720056104
 20
-42.2720056104
 11
41.0582501673
 21
-39.3582501673
  0
LINE
  5
3A3
100
AcDbEntity
  8
RACCORDO
100
AcDbLine
 62
250
  6
CONTINUOUS
 10
14.4982695904
 20
-22.1482852947
 11
14.5531640038
 21
-22.2599976405
  0
LINE
  5
3A4
100
AcDbEntity
  8
RACCORDO
100
AcDbLine
 62
250
  6
CONTINUOUS
 10
14.6982396618
 20
-21.95
 11
14.7531487733
 21
-22.0617733421
  0
LINE
  5
3A5
100
AcDbEntity
  8
RACCORDO
100
AcDbLine
 62
250
  6
CONTINUOUS
 10
-4.4661655262
 20
25.7294507785
 11
-4.4021199534
 21
25.5401112802
  0
LINE
  5
3A6
100
AcDbEntity
  8
RACCORDO
100
AcDbLine
 62
250
  6
CONTINUOUS
 10
-4.4865082644
 20
25.3221062069
 11
-4.4290843877
 21
25.1306544392
  0
LINE
  5
3A7
100
AcDbEntity
  8
RACCORDO
100
AcDbLine
 62
250
  6
CONTINUOUS
 10
-3.272923308
 20
25.7252381515
 11
-3.2190049209
 21
25.5016842793
  0
LINE
  5
3A8
100
AcDbEntity
  8
RACCORDO
100
AcDbLine
 62
250
  6
CONTINUOUS
 10
-3.0730267147
 20
25.9237366682
 11
-3.0190642394
 21
25.7
  0
LINE
  5
3A9
100
AcDbEntity
  8
RACCORDO
100
AcDbLine
 62
250
  6
CONTINUOUS
 10
6.8968272268
 20
25.3075182637
 11
6.9043764231
 21
25.1077827122
  0
LINE
  5
3AA
100
AcDbEntity
  8
RACCORDO
100
AcDbLine
 62
250
  6
CONTINUOUS
 10
6.8209156123
 20
24.7234660946
 11
6.8177063663
 21
24.9233184945
  0
LINE
  5
3AB
100
AcDbEntity
  8
RACCORDO
100
AcDbLine
 62
250
  6
CONTINUOUS
 10
7.7770919217
 20
-25.7269833026
 11
7.7468512267
 21
-22.2617428811
  0
LINE
  5
3AC
100
AcDbEntity
  8
RACCORDO
100
AcDbLine
 62
7
  6
CONTINUOUS
 10
7.977076692
 20
-25.7252381515
 11
7.9468359962
 21
-22.2599976405
  0
LINE
  5
3AD
100
AcDbEntity
  8
RACCORDO
100
AcDbLine
 62
7
  6
CONTINUOUS
 10
8.0309950791
 20
-25.5016842793
 11
8.0017304096
 21
-22.1482852947
  0
LINE
  5
3AE
100
AcDbEntity
  8
RACCORDO
100
AcDbLine
 62
250
  6
CONTINUOUS
 10
6.8209156123
 20
-21.9640249785
 11
6.8209156123
 21
-25.0760145149
  0
LINE
  5
3AF
100
AcDbEntity
  8
RACCORDO
100
AcDbLine
 62
250
  6
CONTINUOUS
 10
6.8209156123
 20
21.9640249785
 11
6.8209156123
 21
24.7234660946
  0
LINE
  5
3B0
100
AcDbEntity
  8
RACCORDO
100
AcDbLine
 62
250
  6
CONTINUOUS
 10
7.0208851513
 20
24.7234660946
 11
7.0208851513
 21
22.1708546904
  0
LINE
  5
3B1
100
AcDbEntity
  8
RACCORDO
100
AcDbLine
 62
250
  6
CONTINUOUS
 10
7.0208851513
 20
-22.1708546904
 11
7.0208851513
 21
-25.0760145149
  0
LINE
  5
3B2
100
AcDbEntity
  8
RACCORDO
100
AcDbLine
 62
250
  6
CONTINUOUS
 10
7.1117733421
 20
24.9077986773
 11
7.1117733421
 21
22.2617428811
  0
LINE
  5
3B3
100
AcDbEntity
  8
RACCORDO
100
AcDbLine
 62
250
  6
CONTINUOUS
 10
7.1117733421
 20
-22.2617428811
 11
7.1117733421
 21
-25.288602518
  0
LINE
  5
3B4
100
AcDbEntity
  8
RACCORDO
100
AcDbLine
 62
250
  6
CONTINUOUS
 10
7.3117428812
 20
24.9077986773
 11
7.3117428811
 21
22.0617733421
  0
LINE
  5
3B5
100
AcDbEntity
  8
RACCORDO
100
AcDbLine
 62
250
  6
CONTINUOUS
 10
7.3117428811
 20
-22.0617733421
 11
7.3117428813
 21
-25.288602518
  0
LINE
  5
3B6
100
AcDbEntity
  8
RACCORDO
100
AcDbLine
 62
250
  6
CONTINUOUS
 10
7.7468512267
 20
22.2617428811
 11
7.7468512267
 21
22.0617733421
  0
LINE
  5
3B7
100
AcDbEntity
  8
RACCORDO
100
AcDbLine
 62
250
  6
CONTINUOUS
 10
7.7468512267
 20
-22.2617428811
 11
7.7468512267
 21
-22.0617733421
  0
LINE
  5
3B8
100
AcDbEntity
  8
RACCORDO
100
AcDbLine
 62
250
  6
CONTINUOUS
 10
8.1769732853
 20
-26.1236148336
 11
8.1769732853
 21
-25.9237366682
  0
LINE
  5
3B9
100
AcDbEntity
  8
RACCORDO
100
AcDbLine
 62
250
  6
CONTINUOUS
 10
7.7468512267
 20
22.2617428811
 11
7.7720476312
 21
25.1489648703
  0
LINE
  5
3BA
100
AcDbEntity
  8
RACCORDO
100
AcDbLine
 62
7
  6
CONTINUOUS
 10
7.9468359962
 20
22.2599976405
 11
7.9720324007
 21
25.1472196297
  0
LINE
  5
3BB
100
AcDbEntity
  8
RACCORDO
100
AcDbLine
 62
7
  6
CONTINUOUS
 10
8.0017301446
 20
22.1482549329
 11
8.0260002941
 21
24.9293386033
  0
LINE
  5
3BC
100
AcDbEntity
  8
RACCORDO
100
AcDbLine
 62
250
  6
CONTINUOUS
 10
14.3230267147
 20
25.9237366682
 11
14.2690642394
 21
25.7
  0
LINE
  5
3BD
100
AcDbEntity
  8
RACCORDO
100
AcDbLine
 62
250
  6
CONTINUOUS
 10
14.522923308
 20
25.7252381515
 11
14.4690049209
 21
25.5016842793
  0
LINE
  5
3BE
100
AcDbEntity
  8
RACCORDO
100
AcDbLine
 62
250
  6
CONTINUOUS
 10
-3.5031487733
 20
-22.0617733421
 11
-3.4482396618
 21
-21.95
  0
LINE
  5
3BF
100
AcDbEntity
  8
RACCORDO
100
AcDbLine
 62
250
  6
CONTINUOUS
 10
-3.3031640038
 20
-22.2599976405
 11
-3.2482695904
 21
-22.1482852947
  0
LINE
  5
3C0
100
AcDbEntity
  8
RACCORDO
100
AcDbLine
 62
250
  6
CONTINUOUS
 10
-16.1099278638
 20
-23.2601106157
 11
-16.2852629416
 21
-23.4354456935
  0
LINE
  5
3C1
100
AcDbEntity
  8
RACCORDO
100
AcDbLine
 62
250
  6
CONTINUOUS
 10
-22.5398893843
 20
-30.1577635899
 11
-22.2742558566
 21
-29.8921300621
  0
LINE
  5
3C2
100
AcDbEntity
  8
RACCORDO
100
AcDbLine
 62
250
  6
CONTINUOUS
 10
-15.8101106157
 20
-23.5599278638
 11
-15.9854456935
 21
-23.7352629416
  0
LINE
  5
3C3
100
AcDbEntity
  8
RACCORDO
100
AcDbLine
 62
250
  6
CONTINUOUS
 10
-22.2400721362
 20
-30.457580838
 11
-21.9744386085
 21
-30.1919473102
  0
LINE
  5
3C4
100
AcDbEntity
  8
RACCORDO
100
AcDbLine
 62
250
  6
CONTINUOUS
 10
-16.0397038624
 20
-26.04043487
 11
-15.8101106157
 21
-25.8108416232
  0
LINE
  5
3C5
100
AcDbEntity
  8
RACCORDO
100
AcDbLine
 62
250
  6
CONTINUOUS
 10
-16.1099278638
 20
23.2601106157
 11
-16.2852629416
 21
23.4354456935
  0
LINE
  5
3C6
100
AcDbEntity
  8
RACCORDO
100
AcDbLine
 62
250
  6
CONTINUOUS
 10
-22.5398893843
 20
30.1577635899
 11
-22.2742558566
 21
29.8921300621
  0
LINE
  5
3C7
100
AcDbEntity
  8
RACCORDO
100
AcDbLine
 62
250
  6
CONTINUOUS
 10
-15.8101106157
 20
23.5599278638
 11
-15.9854456935
 21
23.7352629416
  0
LINE
  5
3C8
100
AcDbEntity
  8
RACCORDO
100
AcDbLine
 62
250
  6
CONTINUOUS
 10
-22.2400721362
 20
30.457580838
 11
-21.9744386085
 21
30.1919473102
  0
LINE
  5
3C9
100
AcDbEntity
  8
RACCORDO
100
AcDbLine
 62
250
  6
CONTINUOUS
 10
-16.0397038624
 20
26.04043487
 11
-15.8101106157
 21
25.8108416232
  0
LINE
  5
3CA
100
AcDbEntity
  8
RACCORDO
100
AcDbLine
 62
250
  6
CONTINUOUS
 10
-3.2482695904
 20
22.1482852947
 11
-3.3031640038
 21
22.2599976405
  0
LINE
  5
3CB
100
AcDbEntity
  8
RACCORDO
100
AcDbLine
 62
250
  6
CONTINUOUS
 10
-3.4482396618
 20
21.95
 11
-3.5031487733
 21
22.0617733421
  0
LINE
  5
3CC
100
AcDbEntity
  8
RACCORDO
100
AcDbLine
 62
250
  6
CONTINUOUS
 10
14.3230267147
 20
-25.9237366682
 11
14.2690642394
 21
-25.7
  0
LINE
  5
3CD
100
AcDbEntity
  8
RACCORDO
100
AcDbLine
 62
250
  6
CONTINUOUS
 10
14.522923308
 20
-25.7252381515
 11
14.4690049209
 21
-25.5016842793
  0
LINE
  5
3CE
100
AcDbEntity
  8
RACCORDO
100
AcDbLine
 62
250
  6
CONTINUOUS
 10
9.2812660624
 20
26.1236148336
 11
9.2812660624
 21
25.9237366682
  0
LINE
  5
3CF
100
AcDbEntity
  8
RACCORDO
100
AcDbLine
 62
250
  6
CONTINUOUS
 10
9.8643288368
 20
-26.7102933619
 11
9.8643288369
 21
-27.0101106157
  0
LINE
  5
3D0
100
AcDbEntity
  8
RACCORDO
100
AcDbLine
 62
250
  6
CONTINUOUS
 10
10.2469402302
 20
-27.2538632898
 11
10.2469402303
 21
-27.4760348189
  0
LINE
  5
3D1
100
AcDbEntity
  8
RACCORDO
100
AcDbLine
 62
250
  6
CONTINUOUS
 10
10.3299534608
 20
-30.7573980946
 11
10.3299534609
 21
-30.4575808379
  0
LINE
  5
3D2
100
AcDbEntity
  8
RACCORDO
100
AcDbLine
 62
250
  6
CONTINUOUS
 10
10.6298409283
 20
-30.1919473102
 11
10.6298409283
 21
-29.8144843505
  0
LINE
  5
3D3
100
AcDbEntity
  8
RACCORDO
100
AcDbLine
 62
250
  6
CONTINUOUS
 10
10.9940021002
 20
26.7102933574
 11
10.9940021002
 21
27.0101106157
  0
LINE
  5
3D4
100
AcDbEntity
  8
RACCORDO
100
AcDbLine
 62
250
  6
CONTINUOUS
 10
11.3153934028
 20
30.7573980903
 11
11.3153934029
 21
30.4575808379
  0
LINE
  5
3D5
100
AcDbEntity
  8
RACCORDO
100
AcDbLine
 62
250
  6
CONTINUOUS
 10
11.356388056
 20
27.25386329
 11
11.3563880559
 21
27.476034821
  0
LINE
  5
3D6
100
AcDbEntity
  8
RACCORDO
100
AcDbLine
 62
250
  6
CONTINUOUS
 10
11.6295353037
 20
30.1919473102
 11
11.6295353037
 21
29.8144843486
  0
LINE
  5
3D7
100
AcDbEntity
  8
RACCORDO
100
AcDbLine
 62
250
  6
CONTINUOUS
 10
6.7722942745
 20
-25.2698888209
 11
6.8209156123
 21
-25.0760145149
  0
LINE
  5
3D8
100
AcDbEntity
  8
RACCORDO
100
AcDbLine
 62
250
  6
CONTINUOUS
 10
-4.5319203561
 20
-25.5367254268
 11
-4.4290843877
 21
-25.3653310144
  0
LINE
  5
3D9
100
AcDbEntity
  8
RACCORDO
100
AcDbLine
 62
250
  6
CONTINUOUS
 10
-4.5608122551
 20
-25.9706749071
 11
-4.4494433236
 21
-25.8046982833
  0
LINE
  5
3DA
100
AcDbEntity
  8
RACCORDO
100
AcDbLine
 62
250
  6
CONTINUOUS
 10
-14.8545942975
 20
-27.25386329
 11
-14.6108416232
 21
-27.0101106157
  0
LINE
  5
3DB
100
AcDbEntity
  8
RACCORDO
100
AcDbLine
 62
250
  6
CONTINUOUS
 10
-7.3117428811
 20
-22.0617733421
 11
-7.2208546904
 21
-21.9708851513
  0
LINE
  5
3DC
100
AcDbEntity
  8
RACCORDO
100
AcDbLine
 62
250
  6
CONTINUOUS
 10
37.2506852326
 20
22.5
 11
37.3143974111
 21
22.5637121785
  0
LINE
  5
3DD
100
AcDbEntity
  8
RACCORDO
100
AcDbLine
 62
250
  6
CONTINUOUS
 10
-7.1117733421
 20
-22.2617428811
 11
-7.0208851513
 21
-22.1708546904
  0
LINE
  5
3DE
100
AcDbEntity
  8
RACCORDO
100
AcDbLine
 62
250
  6
CONTINUOUS
 10
37.75
 20
22.0006852326
 11
37.8137121785
 21
22.0643974111
  0
LINE
  5
3DF
100
AcDbEntity
  8
RACCORDO
100
AcDbLine
 62
250
  6
CONTINUOUS
 10
-14.8545942975
 20
27.25386329
 11
-14.6108416232
 21
27.0101106157
  0
LINE
  5
3E0
100
AcDbEntity
  8
RACCORDO
100
AcDbLine
 62
250
  6
CONTINUOUS
 10
-7.220854692
 20
21.970885153
 11
-7.3117428811
 21
22.0617733421
  0
LINE
  5
3E1
100
AcDbEntity
  8
RACCORDO
100
AcDbLine
 62
250
  6
CONTINUOUS
 10
37.2506852326
 20
-22.5
 11
37.3143974111
 21
-22.5637121785
  0
LINE
  5
3E2
100
AcDbEntity
  8
RACCORDO
100
AcDbLine
 62
250
  6
CONTINUOUS
 10
-7.0208851513
 20
22.1708546904
 11
-7.1117733421
 21
22.2617428811
  0
LINE
  5
3E3
100
AcDbEntity
  8
RACCORDO
100
AcDbLine
 62
250
  6
CONTINUOUS
 10
37.75
 20
-22.0006852326
 11
37.8137121785
 21
-22.0643974111
  0
LINE
  5
3E4
100
AcDbEntity
  8
RACCORDO
100
AcDbLine
 62
250
  6
CONTINUOUS
 10
16.0395632228
 20
-26.0254044428
 11
16.0397038624
 21
-26.04043487
  0
LINE
  5
3E5
100
AcDbEntity
  8
RACCORDO
100
AcDbLine
 62
250
  6
CONTINUOUS
 10
16.3393804709
 20
-25.9477587293
 11
16.3395211105
 21
-25.9627891564
  0
LINE
  5
3E6
100
AcDbEntity
  8
RACCORDO
100
AcDbLine
 62
7
  6
CONTINUOUS
 10
14.4690049209
 20
25.5016842793
 11
14.4982695904
 21
22.1482852947
  0
LINE
  5
3E7
100
AcDbEntity
  8
RACCORDO
100
AcDbLine
 62
7
  6
CONTINUOUS
 10
14.522923308
 20
25.7252381515
 11
14.5531640038
 21
22.2599976405
  0
LINE
  5
3E8
100
AcDbEntity
  8
RACCORDO
100
AcDbLine
 62
250
  6
CONTINUOUS
 10
14.7229080783
 20
25.7269833026
 11
14.7531487733
 21
22.2617428811
  0
LINE
  5
3E9
100
AcDbEntity
  8
RACCORDO
100
AcDbLine
 62
250
  6
CONTINUOUS
 10
14.3230267147
 20
26.1236148336
 11
14.3230267147
 21
25.9237366682
  0
LINE
  5
3EA
100
AcDbEntity
  8
RACCORDO
100
AcDbLine
 62
250
  6
CONTINUOUS
 10
14.3230267147
 20
-26.1236148336
 11
14.3230267147
 21
-25.9237366682
  0
LINE
  5
3EB
100
AcDbEntity
  8
RACCORDO
100
AcDbLine
 62
250
  6
CONTINUOUS
 10
14.6108416232
 20
-26.7102933676
 11
14.6108416232
 21
-27.0101106157
  0
LINE
  5
3EC
100
AcDbEntity
  8
RACCORDO
100
AcDbLine
 62
250
  6
CONTINUOUS
 10
14.6108416232
 20
26.7102933676
 11
14.6108416232
 21
27.0101106157
  0
LINE
  5
3ED
100
AcDbEntity
  8
RACCORDO
100
AcDbLine
 62
250
  6
CONTINUOUS
 10
14.7531487733
 20
22.2617428811
 11
14.7531487733
 21
22.0617733421
  0
LINE
  5
3EE
100
AcDbEntity
  8
RACCORDO
100
AcDbLine
 62
250
  6
CONTINUOUS
 10
14.7531487733
 20
-22.2617428811
 11
14.7531487733
 21
-22.0617733421
  0
LINE
  5
3EF
100
AcDbEntity
  8
RACCORDO
100
AcDbLine
 62
250
  6
CONTINUOUS
 10
14.8545942975
 20
-27.25386329
 11
14.8545942975
 21
-27.4760348245
  0
LINE
  5
3F0
100
AcDbEntity
  8
RACCORDO
100
AcDbLine
 62
250
  6
CONTINUOUS
 10
14.8545942975
 20
27.25386329
 11
14.8545942975
 21
27.4760348245
  0
LINE
  5
3F1
100
AcDbEntity
  8
RACCORDO
100
AcDbLine
 62
250
  6
CONTINUOUS
 10
15.5102933676
 20
-25.8108416232
 11
15.5102933676
 21
-23.5599278638
  0
LINE
  5
3F2
100
AcDbEntity
  8
RACCORDO
100
AcDbLine
 62
250
  6
CONTINUOUS
 10
15.5102933676
 20
23.5599278638
 11
15.5102933676
 21
25.8108416232
  0
LINE
  5
3F3
100
AcDbEntity
  8
RACCORDO
100
AcDbLine
 62
250
  6
CONTINUOUS
 10
15.8101106157
 20
-25.8108416232
 11
15.8101106157
 21
-23.5599278638
  0
LINE
  5
3F4
100
AcDbEntity
  8
RACCORDO
100
AcDbLine
 62
250
  6
CONTINUOUS
 10
15.8101106157
 20
23.5599278638
 11
15.8101106157
 21
25.8108416232
  0
LINE
  5
3F5
100
AcDbEntity
  8
RACCORDO
100
AcDbLine
 62
250
  6
CONTINUOUS
 10
15.9854456935
 20
24.2088241766
 11
15.9854456935
 21
23.7352629416
  0
LINE
  5
3F6
100
AcDbEntity
  8
RACCORDO
100
AcDbLine
 62
250
  6
CONTINUOUS
 10
15.9854456935
 20
-23.7352629416
 11
15.9854456935
 21
-24.2088241766
  0
LINE
  5
3F7
100
AcDbEntity
  8
RACCORDO
100
AcDbLine
 62
250
  6
CONTINUOUS
 10
16.1099278638
 20
-22.9602933676
 11
16.1099278638
 21
-23.2601106157
  0
LINE
  5
3F8
100
AcDbEntity
  8
RACCORDO
100
AcDbLine
 62
250
  6
CONTINUOUS
 10
16.1099278638
 20
22.9602933676
 11
16.1099278638
 21
23.2601106157
  0
LINE
  5
3F9
100
AcDbEntity
  8
RACCORDO
100
AcDbLine
 62
250
  6
CONTINUOUS
 10
16.2852629416
 20
-23.4354456935
 11
16.2852629416
 21
-24.2088241766
  0
LINE
  5
3FA
100
AcDbEntity
  8
RACCORDO
100
AcDbLine
 62
250
  6
CONTINUOUS
 10
16.2852629416
 20
23.4354456935
 11
16.2852629416
 21
24.2088241766
  0
LINE
  5
3FB
100
AcDbEntity
  8
RACCORDO
100
AcDbLine
 62
250
  6
CONTINUOUS
 10
16.3393804709
 20
25.9477587293
 11
16.3393804709
 21
25.7291514214
  0
LINE
  5
3FC
100
AcDbEntity
  8
RACCORDO
100
AcDbLine
 62
250
  6
CONTINUOUS
 10
16.3393804709
 20
-25.7291514214
 11
16.3393804709
 21
-25.9477587293
  0
LINE
  5
3FD
100
AcDbEntity
  8
RACCORDO
100
AcDbLine
 62
7
  6
CONTINUOUS
 10
14.4982698554
 20
-22.1482549329
 11
14.4690049209
 21
-25.5016842793
  0
LINE
  5
3FE
100
AcDbEntity
  8
RACCORDO
100
AcDbLine
 62
7
  6
CONTINUOUS
 10
14.5531640038
 20
-22.2599976405
 11
14.522923308
 21
-25.7252381515
  0
LINE
  5
3FF
100
AcDbEntity
  8
RACCORDO
100
AcDbLine
 62
250
  6
CONTINUOUS
 10
14.7531487733
 20
-22.2617428811
 11
14.7229080775
 21
-25.7269833921
  0
LINE
  5
400
100
AcDbEntity
  8
RACCORDO
100
AcDbLine
 62
250
  6
CONTINUOUS
 10
16.0397038624
 20
26.04043487
 11
16.0395632228
 21
26.0254044428
  0
LINE
  5
401
100
AcDbEntity
  8
RACCORDO
100
AcDbLine
 62
250
  6
CONTINUOUS
 10
16.3395211105
 20
25.9627891564
 11
16.3393804709
 21
25.9477587293
  0
LINE
  5
402
100
AcDbEntity
  8
RACCORDO
100
AcDbLine
 62
250
  6
CONTINUOUS
 10
7.977076692
 20
-25.7252381515
 11
8.0309950791
 21
-25.5016842793
  0
LINE
  5
403
100
AcDbEntity
  8
RACCORDO
100
AcDbLine
 62
250
  6
CONTINUOUS
 10
8.1769732853
 20
-25.9237366682
 11
8.2309357606
 21
-25.7
  0
LINE
  5
404
100
AcDbEntity
  8
RACCORDO
100
AcDbLine
 62
250
  6
CONTINUOUS
 10
6.8021805011
 20
-25.6732878403
 11
6.8570530597
 21
-25.4810892895
  0
LINE
  5
405
100
AcDbEntity
  8
RACCORDO
100
AcDbLine
 62
250
  6
CONTINUOUS
 10
7.7468512267
 20
-22.0617733421
 11
7.8017603382
 21
-21.95
  0
LINE
  5
406
100
AcDbEntity
  8
RACCORDO
100
AcDbLine
 62
250
  6
CONTINUOUS
 10
7.9468359962
 20
-22.2599976405
 11
8.0017304096
 21
-22.1482852947
  0
LINE
  5
407
100
AcDbEntity
  8
RACCORDO
100
AcDbLine
 62
7
  6
CONTINUOUS
 10
34.3071379368
 20
15.44865123
 11
34.9428009215
 21
15.4597467686
  0
LINE
  5
408
100
AcDbEntity
  8
RACCORDO
100
AcDbLine
 62
250
  6
CONTINUOUS
 10
-37.3143974111
 20
13.7366989611
 11
-34.625414381
 21
13.7366989611
  0
LINE
  5
409
100
AcDbEntity
  8
RACCORDO
100
AcDbLine
 62
250
  6
CONTINUOUS
 10
34.625414381
 20
13.7366989611
 11
37.3143974111
 21
13.7366989611
  0
LINE
  5
40A
100
AcDbEntity
  8
RACCORDO
100
AcDbLine
 62
250
  6
CONTINUOUS
 10
-37.3143974111
 20
14.0362878215
 11
-34.625414381
 21
14.0362878215
  0
LINE
  5
40B
100
AcDbEntity
  8
RACCORDO
100
AcDbLine
 62
250
  6
CONTINUOUS
 10
34.625414381
 20
14.0362878215
 11
37.3143974111
 21
14.0362878215
  0
LINE
  5
40C
100
AcDbEntity
  8
RACCORDO
100
AcDbLine
 62
7
  6
CONTINUOUS
 10
37.2506852326
 20
14.1
 11
34.6466345172
 21
14.1
  0
LINE
  5
40D
100
AcDbEntity
  8
RACCORDO
100
AcDbLine
 62
7
  6
CONTINUOUS
 10
-34.6466345172
 20
14.1
 11
-37.2506852326
 21
14.1
  0
LINE
  5
40E
100
AcDbEntity
  8
RACCORDO
100
AcDbLine
 62
250
  6
CONTINUOUS
 10
37.8137121785
 20
14.5356025889
 11
38.1133010389
 21
14.5356025889
  0
LINE
  5
40F
100
AcDbEntity
  8
RACCORDO
100
AcDbLine
 62
250
  6
CONTINUOUS
 10
-37.8137121785
 20
14.5356025889
 11
-38.1133010389
 21
14.5356025889
  0
LINE
  5
410
100
AcDbEntity
  8
RACCORDO
100
AcDbLine
 62
250
  6
CONTINUOUS
 10
-34.1259776491
 20
14.5370651244
 11
-33.8260233406
 21
14.5370651244
  0
LINE
  5
411
100
AcDbEntity
  8
RACCORDO
100
AcDbLine
 62
250
  6
CONTINUOUS
 10
34.1259776491
 20
14.5370651244
 11
33.8260233406
 21
14.5370651244
  0
LINE
  5
412
100
AcDbEntity
  8
RACCORDO
100
AcDbLine
 62
7
  6
CONTINUOUS
 10
-34.9428009215
 20
15.4597467686
 11
-34.3071379368
 21
15.44865123
  0
LINE
  5
413
100
AcDbEntity
  8
RACCORDO
100
AcDbLine
 62
250
  6
CONTINUOUS
 10
8.0017304096
 20
22.1482852947
 11
7.9468359962
 21
22.2599976405
  0
LINE
  5
414
100
AcDbEntity
  8
RACCORDO
100
AcDbLine
 62
250
  6
CONTINUOUS
 10
7.8017603382
 20
21.95
 11
7.7468512267
 21
22.0617733421
  0
LINE
  5
415
100
AcDbEntity
  8
RACCORDO
100
AcDbLine
 62
250
  6
CONTINUOUS
 10
8.0404001425
 20
25.5233295363
 11
8.106164528
 21
25.3345801615
  0
LINE
  5
416
100
AcDbEntity
  8
RACCORDO
100
AcDbLine
 62
250
  6
CONTINUOUS
 10
3.9382571189
 20
-22.0617733421
 11
4.0291453096
 21
-21.9708851513
  0
LINE
  5
417
100
AcDbEntity
  8
RACCORDO
100
AcDbLine
 62
250
  6
CONTINUOUS
 10
4.1382266579
 20
-22.2617428811
 11
4.2291148487
 21
-22.1708546904
  0
LINE
  5
418
100
AcDbEntity
  8
RACCORDO
100
AcDbLine
 62
250
  6
CONTINUOUS
 10
4.029145308
 20
21.970885153
 11
3.9382571189
 21
22.0617733421
  0
LINE
  5
419
100
AcDbEntity
  8
RACCORDO
100
AcDbLine
 62
250
  6
CONTINUOUS
 10
4.2291148487
 20
22.1708546904
 11
4.1382266579
 21
22.2617428811
  0
LINE
  5
41A
100
AcDbEntity
  8
RACCORDO
100
AcDbLine
 62
250
  6
CONTINUOUS
 10
22.0106195291
 20
25.9477587293
 11
21.9744386085
 21
29.8144843486
  0
LINE
  5
41B
100
AcDbEntity
  8
RACCORDO
100
AcDbLine
 62
250
  6
CONTINUOUS
 10
22.3104367772
 20
26.0254044428
 11
22.2742558566
 21
29.8921300621
  0
LINE
  5
41C
100
AcDbEntity
  8
RACCORDO
100
AcDbLine
 62
250
  6
CONTINUOUS
 10
21.9744386085
 20
30.1919473102
 11
21.9744386085
 21
29.8144843486
  0
LINE
  5
41D
100
AcDbEntity
  8
RACCORDO
100
AcDbLine
 62
250
  6
CONTINUOUS
 10
21.9744386085
 20
-30.1919473102
 11
21.9744386085
 21
-29.8144843486
  0
LINE
  5
41E
100
AcDbEntity
  8
RACCORDO
100
AcDbLine
 62
250
  6
CONTINUOUS
 10
22.0106195291
 20
-25.9477587293
 11
22.0106195291
 21
-25.7291514214
  0
LINE
  5
41F
100
AcDbEntity
  8
RACCORDO
100
AcDbLine
 62
250
  6
CONTINUOUS
 10
22.0106195291
 20
25.7291514214
 11
22.0106195291
 21
25.9477587293
  0
LINE
  5
420
100
AcDbEntity
  8
RACCORDO
100
AcDbLine
 62
250
  6
CONTINUOUS
 10
22.0647370584
 20
-23.4354456935
 11
22.0647370584
 21
-24.2088241766
  0
LINE
  5
421
100
AcDbEntity
  8
RACCORDO
100
AcDbLine
 62
250
  6
CONTINUOUS
 10
22.0647370584
 20
23.4354456935
 11
22.0647370584
 21
24.2088241766
  0
LINE
  5
422
100
AcDbEntity
  8
RACCORDO
100
AcDbLine
 62
250
  6
CONTINUOUS
 10
22.2400721362
 20
30.7573980861
 11
22.2400721362
 21
30.457580838
  0
LINE
  5
423
100
AcDbEntity
  8
RACCORDO
100
AcDbLine
 62
250
  6
CONTINUOUS
 10
22.2400721362
 20
-30.7573980861
 11
22.2400721362
 21
-30.457580838
  0
LINE
  5
424
100
AcDbEntity
  8
RACCORDO
100
AcDbLine
 62
250
  6
CONTINUOUS
 10
22.2400721362
 20
-22.9602933676
 11
22.2400721362
 21
-23.2601106157
  0
LINE
  5
425
100
AcDbEntity
  8
RACCORDO
100
AcDbLine
 62
250
  6
CONTINUOUS
 10
22.2400721362
 20
22.9602933676
 11
22.2400721362
 21
23.2601106157
  0
LINE
  5
426
100
AcDbEntity
  8
RACCORDO
100
AcDbLine
 62
250
  6
CONTINUOUS
 10
22.3618190336
 20
22.2617428811
 11
22.3618190336
 21
22.0617733421
  0
LINE
  5
427
100
AcDbEntity
  8
RACCORDO
100
AcDbLine
 62
250
  6
CONTINUOUS
 10
22.3618190336
 20
-22.2617428811
 11
22.3618190336
 21
-22.0617733421
  0
LINE
  5
428
100
AcDbEntity
  8
RACCORDO
100
AcDbLine
 62
250
  6
CONTINUOUS
 10
22.3645543065
 20
-24.2088241766
 11
22.3645543065
 21
-23.7352629416
  0
LINE
  5
429
100
AcDbEntity
  8
RACCORDO
100
AcDbLine
 62
250
  6
CONTINUOUS
 10
22.3645543065
 20
23.7352629416
 11
22.3645543065
 21
24.2088241766
  0
LINE
  5
42A
100
AcDbEntity
  8
RACCORDO
100
AcDbLine
 62
250
  6
CONTINUOUS
 10
22.5398893843
 20
30.1577635899
 11
22.5398893843
 21
23.5599278638
  0
LINE
  5
42B
100
AcDbEntity
  8
RACCORDO
100
AcDbLine
 62
250
  6
CONTINUOUS
 10
22.5398893843
 20
-23.5599278638
 11
22.5398893843
 21
-30.1577635899
  0
LINE
  5
42C
100
AcDbEntity
  8
RACCORDO
100
AcDbLine
 62
7
  6
CONTINUOUS
 10
22.55
 20
21.6500456915
 11
22.55
 21
-21.6500456915
  0
LINE
  5
42D
100
AcDbEntity
  8
RACCORDO
100
AcDbLine
 62
250
  6
CONTINUOUS
 10
22.6617733421
 20
21.7618190336
 11
22.6617733421
 21
-21.7618190336
  0
LINE
  5
42E
100
AcDbEntity
  8
RACCORDO
100
AcDbLine
 62
250
  6
CONTINUOUS
 10
22.8397066324
 20
30.1577635899
 11
22.8397066324
 21
23.5599278638
  0
LINE
  5
42F
100
AcDbEntity
  8
RACCORDO
100
AcDbLine
 62
250
  6
CONTINUOUS
 10
22.8397066324
 20
-23.5599278638
 11
22.8397066324
 21
-30.1577635899
  0
LINE
  5
430
100
AcDbEntity
  8
RACCORDO
100
AcDbLine
 62
250
  6
CONTINUOUS
 10
22.8617428811
 20
21.7618190336
 11
22.8617428811
 21
-21.7618190336
  0
LINE
  5
431
100
AcDbEntity
  8
RACCORDO
100
AcDbLine
 62
250
  6
CONTINUOUS
 10
21.9744386085
 20
-29.8144843486
 11
22.0106195291
 21
-25.9477587293
  0
LINE
  5
432
100
AcDbEntity
  8
RACCORDO
100
AcDbLine
 62
250
  6
CONTINUOUS
 10
22.2742558566
 20
-29.8921300621
 11
22.3104367772
 21
-26.0254044428
  0
LINE
  5
433
100
AcDbEntity
  8
RACCORDO
100
AcDbLine
 62
7
  6
CONTINUOUS
 10
-34.9428009215
 20
21.1402532314
 11
-34.3071379368
 21
21.15134877
  0
LINE
  5
434
100
AcDbEntity
  8
RACCORDO
100
AcDbLine
 62
250
  6
CONTINUOUS
 10
14.7531487733
 20
22.2617428811
 11
14.5531640038
 21
22.2599976405
  0
LINE
  5
435
100
AcDbEntity
  8
RACCORDO
100
AcDbLine
 62
250
  6
CONTINUOUS
 10
3.5031487733
 20
22.2617428811
 11
3.3031640038
 21
22.2599976405
  0
LINE
  5
436
100
AcDbEntity
  8
RACCORDO
100
AcDbLine
 62
250
  6
CONTINUOUS
 10
-7.7468512267
 20
22.2617428811
 11
-7.9468359962
 21
22.2599976405
  0
LINE
  5
437
100
AcDbEntity
  8
RACCORDO
100
AcDbLine
 62
250
  6
CONTINUOUS
 10
-22.8617428811
 20
21.7618190336
 11
-22.6617733421
 21
21.7618190336
  0
LINE
  5
438
100
AcDbEntity
  8
RACCORDO
100
AcDbLine
 62
250
  6
CONTINUOUS
 10
22.8617428811
 20
21.7618190336
 11
22.6617733421
 21
21.7618190336
  0
LINE
  5
439
100
AcDbEntity
  8
RACCORDO
100
AcDbLine
 62
7
  6
CONTINUOUS
 10
-22.2500456915
 20
21.95
 11
-14.6982396618
 21
21.95
  0
LINE
  5
43A
100
AcDbEntity
  8
RACCORDO
100
AcDbLine
 62
7
  6
CONTINUOUS
 10
-7.8017603382
 20
21.95
 11
-3.4482396618
 21
21.95
  0
LINE
  5
43B
100
AcDbEntity
  8
RACCORDO
100
AcDbLine
 62
7
  6
CONTINUOUS
 10
3.4482396618
 20
21.95
 11
7.8017603382
 21
21.95
  0
LINE
  5
43C
100
AcDbEntity
  8
RACCORDO
100
AcDbLine
 62
7
  6
CONTINUOUS
 10
14.6982396618
 20
21.95
 11
22.2500456915
 21
21.95
  0
LINE
  5
43D
100
AcDbEntity
  8
RACCORDO
100
AcDbLine
 62
250
  6
CONTINUOUS
 10
6.8209156123
 20
21.9640249785
 11
4.4290843877
 21
21.9640249785
  0
LINE
  5
43E
100
AcDbEntity
  8
RACCORDO
100
AcDbLine
 62
250
  6
CONTINUOUS
 10
-4.4290843877
 20
21.9640249785
 11
-6.8209156123
 21
21.9640249785
  0
LINE
  5
43F
100
AcDbEntity
  8
RACCORDO
100
AcDbLine
 62
250
  6
CONTINUOUS
 10
-22.3618190336
 20
22.0617733421
 11
-14.7531487733
 21
22.0617733421
  0
LINE
  5
440
100
AcDbEntity
  8
RACCORDO
100
AcDbLine
 62
250
  6
CONTINUOUS
 10
-7.7468512267
 20
22.0617733421
 11
-7.3117428811
 21
22.0617733421
  0
LINE
  5
441
100
AcDbEntity
  8
RACCORDO
100
AcDbLine
 62
250
  6
CONTINUOUS
 10
-3.9382571189
 20
22.0617733421
 11
-3.5031487733
 21
22.0617733421
  0
LINE
  5
442
100
AcDbEntity
  8
RACCORDO
100
AcDbLine
 62
250
  6
CONTINUOUS
 10
3.5031487733
 20
22.0617733421
 11
3.9382571189
 21
22.0617733421
  0
LINE
  5
443
100
AcDbEntity
  8
RACCORDO
100
AcDbLine
 62
250
  6
CONTINUOUS
 10
7.3117428811
 20
22.0617733421
 11
7.7468512267
 21
22.0617733421
  0
LINE
  5
444
100
AcDbEntity
  8
RACCORDO
100
AcDbLine
 62
250
  6
CONTINUOUS
 10
14.7531487733
 20
22.0617733421
 11
22.3618190336
 21
22.0617733421
  0
LINE
  5
445
100
AcDbEntity
  8
RACCORDO
100
AcDbLine
 62
250
  6
CONTINUOUS
 10
-34.1259776491
 20
22.0629348756
 11
-33.8260233406
 21
22.0629348756
  0
LINE
  5
446
100
AcDbEntity
  8
RACCORDO
100
AcDbLine
 62
250
  6
CONTINUOUS
 10
34.1259776491
 20
22.0629348756
 11
33.8260233406
 21
22.0629348756
  0
LINE
  5
447
100
AcDbEntity
  8
RACCORDO
100
AcDbLine
 62
250
  6
CONTINUOUS
 10
37.8137121785
 20
22.0643974111
 11
38.1133010389
 21
22.0643974111
  0
LINE
  5
448
100
AcDbEntity
  8
RACCORDO
100
AcDbLine
 62
250
  6
CONTINUOUS
 10
-37.8137121785
 20
22.0643974111
 11
-38.1133010389
 21
22.0643974111
  0
LINE
  5
449
100
AcDbEntity
  8
RACCORDO
100
AcDbLine
 62
250
  6
CONTINUOUS
 10
6.8209156123
 20
22.1639945176
 11
4.4290843877
 21
22.1639945176
  0
LINE
  5
44A
100
AcDbEntity
  8
RACCORDO
100
AcDbLine
 62
250
  6
CONTINUOUS
 10
-4.4290843877
 20
22.1639945176
 11
-6.8209156123
 21
22.1639945176
  0
LINE
  5
44B
100
AcDbEntity
  8
RACCORDO
100
AcDbLine
 62
250
  6
CONTINUOUS
 10
-22.3618190336
 20
22.2617428811
 11
-14.7531487733
 21
22.2617428811
  0
LINE
  5
44C
100
AcDbEntity
  8
RACCORDO
100
AcDbLine
 62
250
  6
CONTINUOUS
 10
-7.7468512267
 20
22.2617428811
 11
-7.1117733421
 21
22.2617428811
  0
LINE
  5
44D
100
AcDbEntity
  8
RACCORDO
100
AcDbLine
 62
250
  6
CONTINUOUS
 10
3.5031487733
 20
22.2617428811
 11
4.1382266579
 21
22.2617428811
  0
LINE
  5
44E
100
AcDbEntity
  8
RACCORDO
100
AcDbLine
 62
250
  6
CONTINUOUS
 10
-3.5031487733
 20
22.2617428811
 11
-4.1382266579
 21
22.2617428811
  0
LINE
  5
44F
100
AcDbEntity
  8
RACCORDO
100
AcDbLine
 62
250
  6
CONTINUOUS
 10
7.1117733421
 20
22.2617428811
 11
7.7468512267
 21
22.2617428811
  0
LINE
  5
450
100
AcDbEntity
  8
RACCORDO
100
AcDbLine
 62
250
  6
CONTINUOUS
 10
14.7531487733
 20
22.2617428811
 11
22.3618190336
 21
22.2617428811
  0
LINE
  5
451
100
AcDbEntity
  8
RACCORDO
100
AcDbLine
 62
7
  6
CONTINUOUS
 10
-37.2506852326
 20
22.5
 11
-34.6466345172
 21
22.5
  0
LINE
  5
452
100
AcDbEntity
  8
RACCORDO
100
AcDbLine
 62
7
  6
CONTINUOUS
 10
34.6466345172
 20
22.5
 11
37.2506852326
 21
22.5
  0
LINE
  5
453
100
AcDbEntity
  8
RACCORDO
100
AcDbLine
 62
250
  6
CONTINUOUS
 10
37.3143974111
 20
22.5637121785
 11
34.625414381
 21
22.5637121785
  0
LINE
  5
454
100
AcDbEntity
  8
RACCORDO
100
AcDbLine
 62
250
  6
CONTINUOUS
 10
-34.625414381
 20
22.5637121785
 11
-37.3143974111
 21
22.5637121785
  0
LINE
  5
455
100
AcDbEntity
  8
RACCORDO
100
AcDbLine
 62
250
  6
CONTINUOUS
 10
37.3143974111
 20
22.8633010389
 11
34.625414381
 21
22.8633010389
  0
LINE
  5
456
100
AcDbEntity
  8
RACCORDO
100
AcDbLine
 62
250
  6
CONTINUOUS
 10
-34.625414381
 20
22.8633010389
 11
-37.3143974111
 21
22.8633010389
  0
LINE
  5
457
100
AcDbEntity
  8
RACCORDO
100
AcDbLine
 62
250
  6
CONTINUOUS
 10
22.2400721362
 20
22.9602933676
 11
16.1099278638
 21
22.9602933676
  0
LINE
  5
458
100
AcDbEntity
  8
RACCORDO
100
AcDbLine
 62
250
  6
CONTINUOUS
 10
-16.1099278638
 20
22.9602933676
 11
-22.2400721362
 21
22.9602933676
  0
LINE
  5
459
100
AcDbEntity
  8
RACCORDO
100
AcDbLine
 62
250
  6
CONTINUOUS
 10
22.2400721362
 20
23.2601106157
 11
16.1099278638
 21
23.2601106157
  0
LINE
  5
45A
100
AcDbEntity
  8
RACCORDO
100
AcDbLine
 62
250
  6
CONTINUOUS
 10
-16.1099278638
 20
23.2601106157
 11
-22.2400721362
 21
23.2601106157
  0
LINE
  5
45B
100
AcDbEntity
  8
RACCORDO
100
AcDbLine
 62
250
  6
CONTINUOUS
 10
-22.0647370584
 20
23.4354456935
 11
-16.2852629416
 21
23.4354456935
  0
LINE
  5
45C
100
AcDbEntity
  8
RACCORDO
100
AcDbLine
 62
250
  6
CONTINUOUS
 10
16.2852629416
 20
23.4354456935
 11
22.0647370584
 21
23.4354456935
  0
LINE
  5
45D
100
AcDbEntity
  8
RACCORDO
100
AcDbLine
 62
250
  6
CONTINUOUS
 10
-22.8397066324
 20
23.5599278638
 11
-22.5398893843
 21
23.5599278638
  0
LINE
  5
45E
100
AcDbEntity
  8
RACCORDO
100
AcDbLine
 62
250
  6
CONTINUOUS
 10
22.8397066324
 20
23.5599278638
 11
22.5398893843
 21
23.5599278638
  0
LINE
  5
45F
100
AcDbEntity
  8
RACCORDO
100
AcDbLine
 62
250
  6
CONTINUOUS
 10
15.5102933676
 20
23.5599278638
 11
15.8101106157
 21
23.5599278638
  0
LINE
  5
460
100
AcDbEntity
  8
RACCORDO
100
AcDbLine
 62
250
  6
CONTINUOUS
 10
-15.5102933676
 20
23.5599278638
 11
-15.8101106157
 21
23.5599278638
  0
LINE
  5
461
100
AcDbEntity
  8
RACCORDO
100
AcDbLine
 62
250
  6
CONTINUOUS
 10
-15.9854456935
 20
23.7352629416
 11
-22.3645543065
 21
23.7352629416
  0
LINE
  5
462
100
AcDbEntity
  8
RACCORDO
100
AcDbLine
 62
250
  6
CONTINUOUS
 10
15.9854456935
 20
23.7352629416
 11
22.3645543065
 21
23.7352629416
  0
LINE
  5
463
100
AcDbEntity
  8
RACCORDO
100
AcDbLine
 62
7
  6
CONTINUOUS
 10
14.300030461
 20
23.75
 11
8.199969539
 21
23.75
  0
LINE
  5
464
100
AcDbEntity
  8
RACCORDO
100
AcDbLine
 62
7
  6
CONTINUOUS
 10
3.050030461
 20
23.75
 11
-3.050030461
 21
23.75
  0
LINE
  5
465
100
AcDbEntity
  8
RACCORDO
100
AcDbLine
 62
7
  6
CONTINUOUS
 10
-8.199969539
 20
23.75
 11
-14.300030461
 21
23.75
  0
LINE
  5
466
100
AcDbEntity
  8
RACCORDO
100
AcDbLine
 62
250
  6
CONTINUOUS
 10
-15.9854456935
 20
24.2088241766
 11
-22.3645543065
 21
24.2088241766
  0
LINE
  5
467
100
AcDbEntity
  8
RACCORDO
100
AcDbLine
 62
250
  6
CONTINUOUS
 10
15.9854456935
 20
24.2088241766
 11
22.3645543065
 21
24.2088241766
  0
LINE
  5
468
100
AcDbEntity
  8
RACCORDO
100
AcDbLine
 62
250
  6
CONTINUOUS
 10
6.8209156123
 20
24.7234660946
 11
7.0208851513
 21
24.7234660946
  0
LINE
  5
469
100
AcDbEntity
  8
RACCORDO
100
AcDbLine
 62
250
  6
CONTINUOUS
 10
7.3117428812
 20
24.9077986773
 11
7.1117733421
 21
24.9077986773
  0
LINE
  5
46A
100
AcDbEntity
  8
RACCORDO
100
AcDbLine
 62
250
  6
CONTINUOUS
 10
-6.8209156123
 20
25.0760145149
 11
-7.0208851513
 21
25.0760145149
  0
LINE
  5
46B
100
AcDbEntity
  8
RACCORDO
100
AcDbLine
 62
250
  6
CONTINUOUS
 10
-4.2291148487
 20
25.1306544392
 11
-4.4290843877
 21
25.1306544392
  0
LINE
  5
46C
100
AcDbEntity
  8
RACCORDO
100
AcDbLine
 62
250
  6
CONTINUOUS
 10
-14.7531487733
 20
22.2617428811
 11
-14.5531640038
 21
22.2599976405
  0
LINE
  5
46D
100
AcDbEntity
  8
RACCORDO
100
AcDbLine
 62
250
  6
CONTINUOUS
 10
-3.5031487733
 20
22.2617428811
 11
-3.3031640038
 21
22.2599976405
  0
LINE
  5
46E
100
AcDbEntity
  8
RACCORDO
100
AcDbLine
 62
250
  6
CONTINUOUS
 10
7.7468512267
 20
22.2617428811
 11
7.9468359962
 21
22.2599976405
  0
LINE
  5
46F
100
AcDbEntity
  8
RACCORDO
100
AcDbLine
 62
7
  6
CONTINUOUS
 10
34.3071379368
 20
21.15134877
 11
34.9428009215
 21
21.1402532314
  0
LINE
  5
470
100
AcDbEntity
  8
RACCORDO
100
AcDbLine
 62
250
  6
CONTINUOUS
 10
9.0472291904
 20
26.0479447054
 11
9.1642476263
 21
25.8859016043
  0
LINE
  5
471
100
AcDbEntity
  8
RACCORDO
100
AcDbLine
 62
7
  6
CONTINUOUS
 10
34.2609632788
 20
15.4421224807
 11
34.1503234244
 21
15.1099329936
  0
LINE
  5
472
100
AcDbEntity
  8
RACCORDO
100
AcDbLine
 62
250
  6
CONTINUOUS
 10
34.1470151169
 20
14.6002288521
 11
34.1259776491
 21
14.5370651244
  0
LINE
  5
473
100
AcDbEntity
  8
RACCORDO
100
AcDbLine
 62
250
  6
CONTINUOUS
 10
34.6466345172
 20
14.1
 11
34.625414381
 21
14.0362878215
  0
LINE
  5
474
100
AcDbEntity
  8
RACCORDO
100
AcDbLine
 62
250
  6
CONTINUOUS
 10
9.33159047
 20
-27.5851576405
 11
9.5979595866
 21
-27.4475427858
  0
LINE
  5
475
100
AcDbEntity
  8
RACCORDO
100
AcDbLine
 62
250
  6
CONTINUOUS
 10
10.727734525
 20
30.0385217625
 11
11.0215639216
 21
30.098142668
  0
LINE
  5
476
100
AcDbEntity
  8
RACCORDO
100
AcDbLine
 62
250
  6
CONTINUOUS
 10
14.7229080775
 20
25.7269833921
 11
14.522923308
 21
25.7252381515
  0
LINE
  5
477
100
AcDbEntity
  8
RACCORDO
100
AcDbLine
 62
250
  6
CONTINUOUS
 10
3.4729080775
 20
25.7269833921
 11
3.272923308
 21
25.7252381515
  0
LINE
  5
478
100
AcDbEntity
  8
RACCORDO
100
AcDbLine
 62
250
  6
CONTINUOUS
 10
-7.7770919225
 20
25.7269833921
 11
-7.977076692
 21
25.7252381515
  0
LINE
  5
479
100
AcDbEntity
  8
RACCORDO
100
AcDbLine
 62
250
  6
CONTINUOUS
 10
-7.3117428813
 20
25.288602518
 11
-7.1117733421
 21
25.288602518
  0
LINE
  5
47A
100
AcDbEntity
  8
RACCORDO
100
AcDbLine
 62
250
  6
CONTINUOUS
 10
-3.9382571188
 20
25.350473311
 11
-4.1382266579
 21
25.350473311
  0
LINE
  5
47B
100
AcDbEntity
  8
RACCORDO
100
AcDbLine
 62
250
  6
CONTINUOUS
 10
4.2291148487
 20
25.3653310144
 11
4.4290843877
 21
25.3653310144
  0
LINE
  5
47C
100
AcDbEntity
  8
RACCORDO
100
AcDbLine
 62
250
  6
CONTINUOUS
 10
3.9382571188
 20
25.6383464512
 11
4.1382266579
 21
25.6383464512
  0
LINE
  5
47D
100
AcDbEntity
  8
RACCORDO
100
AcDbLine
 62
7
  6
CONTINUOUS
 10
14.2690642394
 20
25.7
 11
9.3526012815
 21
25.7
  0
LINE
  5
47E
100
AcDbEntity
  8
RACCORDO
100
AcDbLine
 62
7
  6
CONTINUOUS
 10
3.0190642394
 20
25.7
 11
-3.0190642394
 21
25.7
  0
LINE
  5
47F
100
AcDbEntity
  8
RACCORDO
100
AcDbLine
 62
7
  6
CONTINUOUS
 10
-8.2309357606
 20
25.7
 11
-14.2690642394
 21
25.7
  0
LINE
  5
480
100
AcDbEntity
  8
RACCORDO
100
AcDbLine
 62
250
  6
CONTINUOUS
 10
22.0106195291
 20
25.7291514214
 11
16.3393804709
 21
25.7291514214
  0
LINE
  5
481
100
AcDbEntity
  8
RACCORDO
100
AcDbLine
 62
250
  6
CONTINUOUS
 10
-16.3393804709
 20
25.7291514214
 11
-22.0106195291
 21
25.7291514214
  0
LINE
  5
482
100
AcDbEntity
  8
RACCORDO
100
AcDbLine
 62
250
  6
CONTINUOUS
 10
15.5102933676
 20
25.8108416232
 11
15.8101106157
 21
25.8108416232
  0
LINE
  5
483
100
AcDbEntity
  8
RACCORDO
100
AcDbLine
 62
250
  6
CONTINUOUS
 10
-15.5102933676
 20
25.8108416232
 11
-15.8101106157
 21
25.8108416232
  0
LINE
  5
484
100
AcDbEntity
  8
RACCORDO
100
AcDbLine
 62
250
  6
CONTINUOUS
 10
-14.3230267147
 20
25.9237366682
 11
-8.1769732853
 21
25.9237366682
  0
LINE
  5
485
100
AcDbEntity
  8
RACCORDO
100
AcDbLine
 62
250
  6
CONTINUOUS
 10
-3.0730267147
 20
25.9237366682
 11
3.0730267147
 21
25.9237366682
  0
LINE
  5
486
100
AcDbEntity
  8
RACCORDO
100
AcDbLine
 62
250
  6
CONTINUOUS
 10
9.2812660624
 20
25.9237366682
 11
14.3230267147
 21
25.9237366682
  0
LINE
  5
487
100
AcDbEntity
  8
RACCORDO
100
AcDbLine
 62
250
  6
CONTINUOUS
 10
22.0106195291
 20
25.9477587293
 11
16.3393804709
 21
25.9477587293
  0
LINE
  5
488
100
AcDbEntity
  8
RACCORDO
100
AcDbLine
 62
250
  6
CONTINUOUS
 10
-16.3393804709
 20
25.9477587293
 11
-22.0106195291
 21
25.9477587293
  0
LINE
  5
489
100
AcDbEntity
  8
RACCORDO
100
AcDbLine
 62
250
  6
CONTINUOUS
 10
-14.3230266392
 20
26.1236148336
 11
-8.1769732853
 21
26.1236148336
  0
LINE
  5
48A
100
AcDbEntity
  8
RACCORDO
100
AcDbLine
 62
250
  6
CONTINUOUS
 10
-3.0730266392
 20
26.1236148336
 11
3.0730267147
 21
26.1236148336
  0
LINE
  5
48B
100
AcDbEntity
  8
RACCORDO
100
AcDbLine
 62
250
  6
CONTINUOUS
 10
9.2812660624
 20
26.1236148336
 11
14.3230267147
 21
26.1236148336
  0
LINE
  5
48C
100
AcDbEntity
  8
RACCORDO
100
AcDbLine
 62
250
  6
CONTINUOUS
 10
14.6108416232
 20
26.7102933676
 11
10.9940021002
 21
26.7102933574
  0
LINE
  5
48D
100
AcDbEntity
  8
RACCORDO
100
AcDbLine
 62
250
  6
CONTINUOUS
 10
-9.8643288368
 20
26.7102933619
 11
-14.6108416232
 21
26.7102933676
  0
LINE
  5
48E
100
AcDbEntity
  8
RACCORDO
100
AcDbLine
 62
250
  6
CONTINUOUS
 10
14.6108416232
 20
27.0101106157
 11
10.9940021007
 21
27.0101106157
  0
LINE
  5
48F
100
AcDbEntity
  8
RACCORDO
100
AcDbLine
 62
250
  6
CONTINUOUS
 10
-9.8643288373
 20
27.0101106157
 11
-14.6108416232
 21
27.0101106157
  0
LINE
  5
490
100
AcDbEntity
  8
RACCORDO
100
AcDbLine
 62
250
  6
CONTINUOUS
 10
-14.8545942975
 20
27.25386329
 11
-10.2469402302
 21
27.2538632898
  0
LINE
  5
491
100
AcDbEntity
  8
RACCORDO
100
AcDbLine
 62
250
  6
CONTINUOUS
 10
11.356388056
 20
27.25386329
 11
14.8545942975
 21
27.25386329
  0
LINE
  5
492
100
AcDbEntity
  8
RACCORDO
100
AcDbLine
 62
250
  6
CONTINUOUS
 10
-14.8545942975
 20
27.4760348245
 11
-10.2469401694
 21
27.4760348189
  0
LINE
  5
493
100
AcDbEntity
  8
RACCORDO
100
AcDbLine
 62
250
  6
CONTINUOUS
 10
11.35638802
 20
27.476034821
 11
14.8545942975
 21
27.4760348245
  0
LINE
  5
494
100
AcDbEntity
  8
RACCORDO
100
AcDbLine
 62
250
  6
CONTINUOUS
 10
7.7720476312
 20
25.1489648703
 11
7.9720324007
 21
25.1472196297
  0
LINE
  5
495
100
AcDbEntity
  8
RACCORDO
100
AcDbLine
 62
250
  6
CONTINUOUS
 10
-14.7229080775
 20
25.7269833921
 11
-14.522923308
 21
25.7252381515
  0
LINE
  5
496
100
AcDbEntity
  8
RACCORDO
100
AcDbLine
 62
250
  6
CONTINUOUS
 10
-3.4729080775
 20
25.7269833921
 11
-3.272923308
 21
25.7252381515
  0
LINE
  5
497
100
AcDbEntity
  8
RACCORDO
100
AcDbLine
 62
250
  6
CONTINUOUS
 10
-9.7372990058
 20
30.0665369062
 11
-10.0336261483
 21
30.112150236
  0
LINE
  5
498
100
AcDbEntity
  8
RACCORDO
100
AcDbLine
 62
7
  6
CONTINUOUS
 10
34.1503234244
 20
-15.1099329936
 11
34.2609632788
 21
-15.4421224807
  0
LINE
  5
499
100
AcDbEntity
  8
RACCORDO
100
AcDbLine
 62
250
  6
CONTINUOUS
 10
34.1470151169
 20
-14.6002288521
 11
34.1259776491
 21
-14.5370651244
  0
LINE
  5
49A
100
AcDbEntity
  8
RACCORDO
100
AcDbLine
 62
250
  6
CONTINUOUS
 10
34.6466345172
 20
-14.1
 11
34.625414381
 21
-14.0362878215
  0
LINE
  5
49B
100
AcDbEntity
  8
RACCORDO
100
AcDbLine
 62
250
  6
CONTINUOUS
 10
22.2400721362
 20
-23.2601106157
 11
22.0647370584
 21
-23.4354456935
  0
LINE
  5
49C
100
AcDbEntity
  8
RACCORDO
100
AcDbLine
 62
250
  6
CONTINUOUS
 10
22.5398893843
 20
-23.5599278638
 11
22.3645543065
 21
-23.7352629416
  0
LINE
  5
49D
100
AcDbEntity
  8
RACCORDO
100
AcDbLine
 62
250
  6
CONTINUOUS
 10
21.9744386085
 20
29.8144843486
 11
11.6295353031
 21
29.8144843486
  0
LINE
  5
49E
100
AcDbEntity
  8
RACCORDO
100
AcDbLine
 62
250
  6
CONTINUOUS
 10
-10.6298409126
 20
29.8144843505
 11
-21.9744386085
 21
29.8144843486
  0
LINE
  5
49F
100
AcDbEntity
  8
RACCORDO
100
AcDbLine
 62
250
  6
CONTINUOUS
 10
-22.8397066324
 20
30.1577635899
 11
-22.5398893843
 21
30.1577635899
  0
LINE
  5
4A0
100
AcDbEntity
  8
RACCORDO
100
AcDbLine
 62
250
  6
CONTINUOUS
 10
22.8397066324
 20
30.1577635899
 11
22.5398893843
 21
30.1577635899
  0
LINE
  5
4A1
100
AcDbEntity
  8
RACCORDO
100
AcDbLine
 62
250
  6
CONTINUOUS
 10
21.9744386085
 20
30.1919473102
 11
11.6295353037
 21
30.1919473102
  0
LINE
  5
4A2
100
AcDbEntity
  8
RACCORDO
100
AcDbLine
 62
250
  6
CONTINUOUS
 10
-10.6298409283
 20
30.1919473102
 11
-21.9744386085
 21
30.1919473102
  0
LINE
  5
4A3
100
AcDbEntity
  8
RACCORDO
100
AcDbLine
 62
250
  6
CONTINUOUS
 10
-22.2400721362
 20
30.457580838
 11
-10.3299534611
 21
30.4575808379
  0
LINE
  5
4A4
100
AcDbEntity
  8
RACCORDO
100
AcDbLine
 62
250
  6
CONTINUOUS
 10
11.3153934031
 20
30.4575808379
 11
22.2400721362
 21
30.457580838
  0
LINE
  5
4A5
100
AcDbEntity
  8
RACCORDO
100
AcDbLine
 62
250
  6
CONTINUOUS
 10
-22.2400721362
 20
30.7573980861
 11
-10.3299534608
 21
30.7573980946
  0
LINE
  5
4A6
100
AcDbEntity
  8
RACCORDO
100
AcDbLine
 62
250
  6
CONTINUOUS
 10
11.3153934028
 20
30.7573980903
 11
22.2400721362
 21
30.7573980861
  0
LINE
  5
4A7
100
AcDbEntity
  8
RACCORDO
100
AcDbLine
 62
250
  6
CONTINUOUS
 10
10.4476994654
 20
27.5571425054
 11
10.7208506652
 21
27.4335352371
  0
LINE
  5
4A8
100
AcDbEntity
  8
RACCORDO
100
AcDbLine
 62
250
  6
CONTINUOUS
 10
22.2400721362
 20
23.2601106157
 11
22.0647370584
 21
23.4354456935
  0
LINE
  5
4A9
100
AcDbEntity
  8
RACCORDO
100
AcDbLine
 62
250
  6
CONTINUOUS
 10
22.5398893843
 20
23.5599278638
 11
22.3645543065
 21
23.7352629416
  0
LINE
  5
4AA
100
AcDbEntity
  8
RACCORDO
100
AcDbLine
 62
250
  6
CONTINUOUS
 10
33.8260233406
 20
22.0629348756
 11
33.8260233406
 21
14.5370651244
  0
LINE
  5
4AB
100
AcDbEntity
  8
RACCORDO
100
AcDbLine
 62
250
  6
CONTINUOUS
 10
33.8260233406
 20
-14.5370651244
 11
33.8260233406
 21
-22.0629348756
  0
LINE
  5
4AC
100
AcDbEntity
  8
RACCORDO
100
AcDbLine
 62
250
  6
CONTINUOUS
 10
34.1259776491
 20
22.0629348756
 11
34.1259776491
 21
14.5370651244
  0
LINE
  5
4AD
100
AcDbEntity
  8
RACCORDO
100
AcDbLine
 62
250
  6
CONTINUOUS
 10
34.1259776491
 20
-14.5370651244
 11
34.1259776491
 21
-22.0629348756
  0
LINE
  5
4AE
100
AcDbEntity
  8
RACCORDO
100
AcDbLine
 62
7
  6
CONTINUOUS
 10
34.1470151169
 20
14.9102070867
 11
34.1470151169
 21
14.6002288521
  0
LINE
  5
4AF
100
AcDbEntity
  8
RACCORDO
100
AcDbLine
 62
7
  6
CONTINUOUS
 10
34.1470151169
 20
-21.6897929133
 11
34.1470151169
 21
-21.9997711479
  0
LINE
  5
4B0
100
AcDbEntity
  8
RACCORDO
100
AcDbLine
 62
7
  6
CONTINUOUS
 10
34.1470151169
 20
-14.9102070867
 11
34.1470151169
 21
-14.6002288521
  0
LINE
  5
4B1
100
AcDbEntity
  8
RACCORDO
100
AcDbLine
 62
7
  6
CONTINUOUS
 10
34.1470151169
 20
21.6897929133
 11
34.1470151169
 21
21.9997711479
  0
LINE
  5
4B2
100
AcDbEntity
  8
RACCORDO
100
AcDbLine
 62
250
  6
CONTINUOUS
 10
34.248589754
 20
-15.4462436376
 11
34.248589754
 21
-21.1537563624
  0
LINE
  5
4B3
100
AcDbEntity
  8
RACCORDO
100
AcDbLine
 62
250
  6
CONTINUOUS
 10
34.248589754
 20
15.4462436376
 11
34.248589754
 21
21.1537563624
  0
LINE
  5
4B4
100
AcDbEntity
  8
RACCORDO
100
AcDbLine
 62
250
  6
CONTINUOUS
 10
34.3071379368
 20
-15.44865123
 11
34.3071379368
 21
-21.15134877
  0
LINE
  5
4B5
100
AcDbEntity
  8
RACCORDO
100
AcDbLine
 62
250
  6
CONTINUOUS
 10
34.3071379368
 20
15.44865123
 11
34.3071379368
 21
21.15134877
  0
LINE
  5
4B6
100
AcDbEntity
  8
RACCORDO
100
AcDbLine
 62
250
  6
CONTINUOUS
 10
34.625414381
 20
14.0362878215
 11
34.625414381
 21
13.7366989611
  0
LINE
  5
4B7
100
AcDbEntity
  8
RACCORDO
100
AcDbLine
 62
250
  6
CONTINUOUS
 10
34.625414381
 20
-22.5637121785
 11
34.625414381
 21
-22.8633010389
  0
LINE
  5
4B8
100
AcDbEntity
  8
RACCORDO
100
AcDbLine
 62
250
  6
CONTINUOUS
 10
34.625414381
 20
-14.0362878215
 11
34.625414381
 21
-13.7366989611
  0
LINE
  5
4B9
100
AcDbEntity
  8
RACCORDO
100
AcDbLine
 62
250
  6
CONTINUOUS
 10
34.625414381
 20
22.5637121785
 11
34.625414381
 21
22.8633010389
  0
LINE
  5
4BA
100
AcDbEntity
  8
RACCORDO
100
AcDbLine
 62
7
  6
CONTINUOUS
 10
35.1464469686
 20
-15.6633928158
 11
35.1464469686
 21
-20.9366071842
  0
LINE
  5
4BB
100
AcDbEntity
  8
RACCORDO
100
AcDbLine
 62
7
  6
CONTINUOUS
 10
35.1464469686
 20
15.6633928158
 11
35.1464469686
 21
20.9366071842
  0
LINE
  5
4BC
100
AcDbEntity
  8
RACCORDO
100
AcDbLine
 62
7
  6
CONTINUOUS
 10
35.15
 20
-15.6669459958
 11
35.15
 21
-20.9330540042
  0
LINE
  5
4BD
100
AcDbEntity
  8
RACCORDO
100
AcDbLine
 62
7
  6
CONTINUOUS
 10
35.15
 20
15.6669458472
 11
35.15
 21
20.9330541528
  0
LINE
  5
4BE
100
AcDbEntity
  8
RACCORDO
100
AcDbLine
 62
250
  6
CONTINUOUS
 10
37.3143974111
 20
14.0362878215
 11
37.3143974111
 21
13.7366989611
  0
LINE
  5
4BF
100
AcDbEntity
  8
RACCORDO
100
AcDbLine
 62
250
  6
CONTINUOUS
 10
37.3143974111
 20
-22.5637121785
 11
37.3143974111
 21
-22.8633010389
  0
LINE
  5
4C0
100
AcDbEntity
  8
RACCORDO
100
AcDbLine
 62
250
  6
CONTINUOUS
 10
37.3143974111
 20
-14.0362878215
 11
37.3143974111
 21
-13.7366989611
  0
LINE
  5
4C1
100
AcDbEntity
  8
RACCORDO
100
AcDbLine
 62
250
  6
CONTINUOUS
 10
37.3143974111
 20
22.5637121785
 11
37.3143974111
 21
22.8633010389
  0
LINE
  5
4C2
100
AcDbEntity
  8
RACCORDO
100
AcDbLine
 62
250
  6
CONTINUOUS
 10
37.2506852326
 20
-14.1
 11
37.3143974111
 21
-14.0362878215
  0
LINE
  5
4C3
100
AcDbEntity
  8
RACCORDO
100
AcDbLine
 62
250
  6
CONTINUOUS
 10
37.75
 20
-14.5993147674
 11
37.8137121785
 21
-14.5356025889
  0
LINE
  5
4C4
100
AcDbEntity
  8
RACCORDO
100
AcDbLine
 62
250
  6
CONTINUOUS
 10
37.2506852326
 20
14.1
 11
37.3143974111
 21
14.0362878215
  0
LINE
  5
4C5
100
AcDbEntity
  8
RACCORDO
100
AcDbLine
 62
250
  6
CONTINUOUS
 10
37.75
 20
14.5993147674
 11
37.8137121785
 21
14.5356025889
  0
LINE
  5
4C6
100
AcDbEntity
  8
RACCORDO
100
AcDbLine
 62
7
  6
CONTINUOUS
 10
37.75
 20
22.0006852326
 11
37.75
 21
14.5993147674
  0
LINE
  5
4C7
100
AcDbEntity
  8
RACCORDO
100
AcDbLine
 62
7
  6
CONTINUOUS
 10
37.75
 20
-14.5993147674
 11
37.75
 21
-22.0006852326
  0
LINE
  5
4C8
100
AcDbEntity
  8
RACCORDO
100
AcDbLine
 62
250
  6
CONTINUOUS
 10
37.8137121785
 20
-22.0643974111
 11
37.8137121785
 21
-14.5356025889
  0
LINE
  5
4C9
100
AcDbEntity
  8
RACCORDO
100
AcDbLine
 62
250
  6
CONTINUOUS
 10
37.8137121785
 20
14.5356025889
 11
37.8137121785
 21
22.0643974111
  0
LINE
  5
4CA
100
AcDbEntity
  8
RACCORDO
100
AcDbLine
 62
250
  6
CONTINUOUS
 10
38.1133010389
 20
-22.0643974111
 11
38.1133010389
 21
-14.5356025889
  0
LINE
  5
4CB
100
AcDbEntity
  8
RACCORDO
100
AcDbLine
 62
250
  6
CONTINUOUS
 10
38.1133010389
 20
14.5356025889
 11
38.1133010389
 21
22.0643974111
  0
LINE
  5
4CC
100
AcDbEntity
  8
RACCORDO
100
AcDbLine
 62
250
  6
CONTINUOUS
 10
40.3582501673
 20
-39.8867151501
 11
40.3582501673
 21
-40.0582501673
  0
LINE
  5
4CD
100
AcDbEntity
  8
RACCORDO
100
AcDbLine
 62
250
  6
CONTINUOUS
 10
40.3582501673
 20
39.8867151501
 11
40.3582501673
 21
40.0582501673
  0
LINE
  5
4CE
100
AcDbEntity
  8
RACCORDO
100
AcDbLine
 62
250
  6
CONTINUOUS
 10
40.8867151501
 20
-39.3582501673
 11
40.8867151501
 21
39.3582501673
  0
LINE
  5
4CF
100
AcDbEntity
  8
RACCORDO
100
AcDbLine
 62
250
  6
CONTINUOUS
 10
41.0582501673
 20
-39.3582501673
 11
41.0582501673
 21
39.3582501673
  0
LINE
  5
4D0
100
AcDbEntity
  8
RACCORDO
100
AcDbLine
 62
7
  6
CONTINUOUS
 10
34.2609632788
 20
-21.1578775193
 11
34.1503234244
 21
-21.4900670064
  0
LINE
  5
4D1
100
AcDbEntity
  8
RACCORDO
100
AcDbLine
 62
250
  6
CONTINUOUS
 10
34.1470151169
 20
-21.9997711479
 11
34.1259776491
 21
-22.0629348756
  0
LINE
  5
4D2
100
AcDbEntity
  8
RACCORDO
100
AcDbLine
 62
250
  6
CONTINUOUS
 10
34.6466345172
 20
-22.5
 11
34.625414381
 21
-22.5637121785
  0
LINE
  5
4D3
100
AcDbEntity
  8
ASSI
100
AcDbLine
 62
7
  6
CONTINUOUS
 10
25.3483495706
 20
-28.1767766953
 11
28.1767766953
 21
-25.3483495706
  0
LINE
  5
4D4
100
AcDbEntity
  8
ASSI
100
AcDbLine
 62
7
  6
CONTINUOUS
 10
30.6516504294
 20
-27.8232233047
 11
27.8232233047
 21
-30.6516504294
  0
LINE
  5
4D5
100
AcDbEntity
  8
RACCORDO
100
AcDbLine
 62
250
  6
CONTINUOUS
 10
40.8867151501
 20
39.3582501673
 11
41.0582501673
 21
39.3582501673
  0
LINE
  5
4D6
100
AcDbEntity
  8
RACCORDO
100
AcDbLine
 62
250
  6
CONTINUOUS
 10
-40.8867151501
 20
39.3582501673
 11
-41.0582501673
 21
39.3582501673
  0
LINE
  5
4D7
100
AcDbEntity
  8
RACCORDO
100
AcDbLine
 62
250
  6
CONTINUOUS
 10
40.3582501673
 20
39.8867151501
 11
-40.3582501673
 21
39.8867151501
  0
LINE
  5
4D8
100
AcDbEntity
  8
RACCORDO
100
AcDbLine
 62
250
  6
CONTINUOUS
 10
40.3582501673
 20
40.0582501673
 11
-40.3582501673
 21
40.0582501673
  0
LINE
  5
4D9
100
AcDbEntity
  8
DRAFT
100
AcDbLine
 62
7
  6
CONTINUOUS
 10
28.2076331822
 20
25.3792060575
 11
25.3792060575
 21
28.2076331822
  0
LINE
  5
4DA
100
AcDbEntity
  8
DRAFT
100
AcDbLine
 62
7
  6
CONTINUOUS
 10
27.7923668178
 20
30.6207939425
 11
30.6207939425
 21
27.7923668178
  0
LINE
  5
4DB
100
AcDbEntity
  8
RACCORDO
100
AcDbLine
 62
7
  6
CONTINUOUS
 10
34.1503234244
 20
21.4900670064
 11
34.2609632788
 21
21.1578775193
  0
LINE
  5
4DC
100
AcDbEntity
  8
RACCORDO
100
AcDbLine
 62
250
  6
CONTINUOUS
 10
34.1470151169
 20
21.9997711479
 11
34.1259776491
 21
22.0629348756
  0
LINE
  5
4DD
100
AcDbEntity
  8
RACCORDO
100
AcDbLine
 62
250
  6
CONTINUOUS
 10
34.6466345172
 20
22.5
 11
34.625414381
 21
22.5637121785
  0
LINE
  5
4DE
100
AcDbEntity
  8
RACCORDO
100
AcDbLine
 62
250
  6
CONTINUOUS
 10
43.2720056104
 20
-42.9720056104
 11
43.2720056104
 21
-43.0001965001
  0
LINE
  5
4DF
100
AcDbEntity
  8
RACCORDO
100
AcDbLine
 62
250
  6
CONTINUOUS
 10
43.2720056104
 20
42.9720056104
 11
43.2720056104
 21
43.0001965001
  0
LINE
  5
4E0
100
AcDbEntity
  8
RACCORDO
100
AcDbLine
 62
250
  6
CONTINUOUS
 10
43.9720056104
 20
-42.2720056104
 11
43.9720056104
 21
42.2720056104
  0
LINE
  5
4E1
100
AcDbEntity
  8
RACCORDO
100
AcDbLine
 62
250
  6
CONTINUOUS
 10
44.0001965001
 20
-42.2720056104
 11
44.0001965001
 21
42.2720056104
  0
LINE
  5
4E2
100
AcDbEntity
  8
0
100
AcDbLine
 62
7
  6
CONTINUOUS
 10
44.05
 20
42.3500001347
 11
44.05
 21
-42.3499999928
  0
LINE
  5
4E3
100
AcDbEntity
  8
RACCORDO
100
AcDbLine
 62
250
  6
CONTINUOUS
 10
43.9720056104
 20
42.2720056104
 11
44.0001965001
 21
42.2720056104
  0
LINE
  5
4E4
100
AcDbEntity
  8
RACCORDO
100
AcDbLine
 62
250
  6
CONTINUOUS
 10
-43.9720056104
 20
42.2720056104
 11
-44.0001965001
 21
42.2720056104
  0
LINE
  5
4E5
100
AcDbEntity
  8
RACCORDO
100
AcDbLine
 62
250
  6
CONTINUOUS
 10
43.2720056104
 20
42.9720056104
 11
-43.2720056104
 21
42.9720056104
  0
LINE
  5
4E6
100
AcDbEntity
  8
RACCORDO
100
AcDbLine
 62
250
  6
CONTINUOUS
 10
43.2720056104
 20
43.0001965001
 11
-43.2720056104
 21
43.0001965001
  0
LINE
  5
4E7
100
AcDbEntity
  8
0
100
AcDbLine
 62
7
  6
CONTINUOUS
 10
-43.3500001347
 20
43.05
 11
43.3499999928
 21
43.05
  0
ARC
  5
4E8
100
AcDbEntity
  8
RACCORDO
100
AcDbCircle
 62
250
  6
CONTINUOUS
 10
-32.2465158955
 20
-41.4578946463
 40
11.7537179528
100
AcDbArc
 50
183.9717219729
 51
184.1562829
  0
ARC
  5
4E9
100
AcDbEntity
  8
RACCORDO
100
AcDbCircle
 62
250
  6
CONTINUOUS
 10
-42.457872173
 20
-31.2467103813
 40
11.7535254908
100
AcDbArc
 50
265.8435391421
 51
266.0281030705
  0
ARC
  5
4EA
100
AcDbEntity
  8
RACCORDO
100
AcDbCircle
 62
250
  6
CONTINUOUS
 10
-49.5654259263
 20
-42.2715489199
 40
5.5652294449
100
AcDbArc
 50
359.7043000298
 51
359.9952982286
  0
ARC
  5
4EB
100
AcDbEntity
  8
RACCORDO
100
AcDbCircle
 62
250
  6
CONTINUOUS
 10
-43.2715489203
 20
-48.5654257587
 40
5.5652292774
100
AcDbArc
 50
90.004701767
 51
90.2956999746
  0
ARC
  5
4EC
100
AcDbEntity
  8
DRAFT
100
AcDbCircle
 62
7
  6
CONTINUOUS
 10
-26.5857864376
 20
-29.4142135624
 40
1.7063623377
100
AcDbArc
 50
225.0
 51
45.0
  0
ARC
  5
4ED
100
AcDbEntity
  8
0
100
AcDbCircle
 62
7
  6
CONTINUOUS
 10
-43.35
 20
-42.35
 40
0.7
100
AcDbArc
 50
180.0000110265
 51
270.0000005873
  0
ARC
  5
4EE
100
AcDbEntity
  8
RACCORDO
100
AcDbCircle
 62
250
  6
CONTINUOUS
 10
-43.3026825911
 20
-42.3026825834
 40
0.6975884715
100
AcDbArc
 50
179.801892028
 51
270.1981092386
  0
ARC
  5
4EF
100
AcDbEntity
  8
DRAFT
100
AcDbCircle
 62
7
  6
CONTINUOUS
 10
-29.4142135624
 20
-26.5857864376
 40
1.7063623377
100
AcDbArc
 50
45.0
 51
225.0
  0
ARC
  5
4F0
100
AcDbEntity
  8
DRAFT
100
AcDbCircle
 62
7
  6
CONTINUOUS
 10
-29.4488155034
 20
-5.7242698613
 40
1.6063623377
100
AcDbArc
 50
191.0
 51
11.0
  0
ARC
  5
4F1
100
AcDbEntity
  8
RACCORDO
100
AcDbCircle
 62
250
  6
CONTINUOUS
 10
-34.6258058529
 20
-22.0635862175
 40
0.7997477558
100
AcDbArc
 50
270.0280471022
 51
0.0466615985
  0
ARC
  5
4F2
100
AcDbEntity
  8
RACCORDO
100
AcDbCircle
 62
250
  6
CONTINUOUS
 10
-34.6258056973
 20
-14.5364139224
 40
0.7997477473
100
AcDbArc
 50
359.9533484147
 51
89.9719640517
  0
ARC
  5
4F3
100
AcDbEntity
  8
RACCORDO
100
AcDbCircle
 62
250
  6
CONTINUOUS
 10
-37.3147959675
 20
-14.5352040324
 40
0.7985012039
100
AcDbArc
 50
89.9714020654
 51
180.0285979387
  0
ARC
  5
4F4
100
AcDbEntity
  8
RACCORDO
100
AcDbCircle
 62
250
  6
CONTINUOUS
 10
-37.3147959674
 20
-22.0647959674
 40
0.798501204
100
AcDbArc
 50
179.9714020733
 51
270.0285979307
  0
ARC
  5
4F5
100
AcDbEntity
  8
RACCORDO
100
AcDbCircle
 62
250
  6
CONTINUOUS
 10
-37.3157630354
 20
-22.0657630337
 40
0.4979452155
100
AcDbArc
 50
179.8428629674
 51
270.1571374177
  0
ARC
  5
4F6
100
AcDbEntity
  8
RACCORDO
100
AcDbCircle
 62
250
  6
CONTINUOUS
 10
-37.3157630338
 20
-14.5342369645
 40
0.4979452154
100
AcDbArc
 50
89.8428629541
 51
180.1571374309
  0
ARC
  5
4F7
100
AcDbEntity
  8
RACCORDO
100
AcDbCircle
 62
250
  6
CONTINUOUS
 10
-19.2959423874
 20
-36.4530253008
 40
28.6707479171
100
AcDbArc
 50
22.917243582
 51
23.3792799919
  0
ARC
  5
4F8
100
AcDbEntity
  8
RACCORDO
100
AcDbCircle
 62
250
  6
CONTINUOUS
 10
-15.9049325312
 20
-34.4933013071
 40
24.4811754924
100
AcDbArc
 50
21.6002271501
 51
22.1328423826
  0
ARC
  5
4F9
100
AcDbEntity
  8
RACCORDO
100
AcDbCircle
 62
7
  6
CONTINUOUS
 10
-4.4266360886
 20
-42.6241982457
 40
20.6601734123
100
AcDbArc
 50
89.414466812
 51
90.00678974
  0
ARC
  5
4FA
100
AcDbEntity
  8
RACCORDO
100
AcDbCircle
 62
250
  6
CONTINUOUS
 10
-22.9702198972
 20
-31.7559743312
 40
19.8007409064
100
AcDbArc
 50
17.9965390191
 51
18.8291749613
  0
ARC
  5
4FB
100
AcDbEntity
  8
RACCORDO
100
AcDbCircle
 62
7
  6
CONTINUOUS
 10
-6.8323508501
 20
-40.8316939107
 40
18.8676723975
100
AcDbArc
 50
89.965274418
 51
90.6210786809
  0
ARC
  5
4FC
100
AcDbEntity
  8
RACCORDO
100
AcDbCircle
 62
250
  6
CONTINUOUS
 10
-22.0912892575
 20
-31.0878495678
 40
18.415928308
100
AcDbArc
 50
16.6712248284
 51
17.5435479677
  0
ARC
  5
4FD
100
AcDbEntity
  8
RACCORDO
100
AcDbCircle
 62
250
  6
CONTINUOUS
 10
-4.7861685115
 20
-36.6305227244
 40
11.4494334799
100
AcDbArc
 50
122.8332350472
 51
125.0189053807
  0
ARC
  5
4FE
100
AcDbEntity
  8
RACCORDO
100
AcDbCircle
 62
250
  6
CONTINUOUS
 10
-5.1719332367
 20
-36.6413897702
 40
10.7505846223
100
AcDbArc
 50
121.0743733699
 51
123.3026036672
  0
ARC
  5
4FF
100
AcDbEntity
  8
RACCORDO
100
AcDbCircle
 62
250
  6
CONTINUOUS
 10
-6.7481127792
 20
-29.1994911667
 40
4.9200104136
100
AcDbArc
 50
159.4946241743
 51
187.1806604757
  0
ARC
  5
500
100
AcDbEntity
  8
RACCORDO
100
AcDbCircle
 62
250
  6
CONTINUOUS
 10
-6.7481406138
 20
-29.2771368257
 40
4.6201793116
100
AcDbArc
 50
159.4619220534
 51
187.1461875188
  0
ARC
  5
501
100
AcDbEntity
  8
RACCORDO
100
AcDbCircle
 62
250
  6
CONTINUOUS
 10
-6.7485316303
 20
-29.2311019436
 40
4.5082169855
100
AcDbArc
 50
59.0364103701
 51
90.9199812029
  0
ARC
  5
502
100
AcDbEntity
  8
RACCORDO
100
AcDbCircle
 62
250
  6
CONTINUOUS
 10
-6.7485316303
 20
-29.2311019436
 40
4.3601106157
100
AcDbArc
 50
155.6521426009
 51
191.4701570616
  0
ARC
  5
503
100
AcDbEntity
  8
RACCORDO
100
AcDbCircle
 62
7
  6
CONTINUOUS
 10
-6.7485316303
 20
-29.2311019436
 40
4.35
100
AcDbArc
 50
108.9482508678
 51
124.9134458214
  0
ARC
  5
504
100
AcDbEntity
  8
RACCORDO
100
AcDbCircle
 62
250
  6
CONTINUOUS
 10
-6.7485316303
 20
-29.2311019436
 40
4.3083388201
100
AcDbArc
 50
59.0364103701
 51
90.9199812029
  0
ARC
  5
505
100
AcDbEntity
  8
RACCORDO
100
AcDbCircle
 62
250
  6
CONTINUOUS
 10
-6.7485316303
 20
-29.2311019436
 40
4.1262633318
100
AcDbArc
 50
56.1387179258
 51
92.1645184628
  0
ARC
  5
506
100
AcDbEntity
  8
RACCORDO
100
AcDbCircle
 62
250
  6
CONTINUOUS
 10
-6.7485316303
 20
-29.2311019436
 40
4.1262633318
100
AcDbArc
 50
109.2094474471
 51
125.8347033731
  0
ARC
  5
507
100
AcDbEntity
  8
RACCORDO
100
AcDbCircle
 62
250
  6
CONTINUOUS
 10
-6.7485316303
 20
-29.2311019436
 40
4.0602933676
100
AcDbArc
 50
155.6521425975
 51
191.4701570642
  0
ARC
  5
508
100
AcDbEntity
  8
RACCORDO
100
AcDbCircle
 62
250
  6
CONTINUOUS
 10
-6.7485316303
 20
-29.2311019436
 40
3.9263851664
100
AcDbArc
 50
109.209447447
 51
125.8347033732
  0
ARC
  5
509
100
AcDbEntity
  8
RACCORDO
100
AcDbCircle
 62
250
  6
CONTINUOUS
 10
-6.7485316303
 20
-29.2311019436
 40
3.9263851664
100
AcDbArc
 50
56.138717921
 51
92.1645184633
  0
ARC
  5
50A
100
AcDbEntity
  8
RACCORDO
100
AcDbCircle
 62
7
  6
CONTINUOUS
 10
-6.7485316303
 20
-29.2311019436
 40
3.3063623377
100
AcDbArc
 50
21.8838986889
 51
317.9682357511
  0
ARC
  5
50B
100
AcDbEntity
  8
RACCORDO
100
AcDbCircle
 62
250
  6
CONTINUOUS
 10
-22.2402142473
 20
-30.1579057009
 40
0.5994888669
100
AcDbArc
 50
179.9864179047
 51
270.0135820942
  0
ARC
  5
50C
100
AcDbEntity
  8
RACCORDO
100
AcDbCircle
 62
250
  6
CONTINUOUS
 10
-11.3151627336
 20
-30.1579521296
 40
0.5994431271
100
AcDbArc
 50
269.9779523579
 51
11.4922023523
  0
ARC
  5
50D
100
AcDbEntity
  8
RACCORDO
100
AcDbCircle
 62
250
  6
CONTINUOUS
 10
-10.9935441717
 20
-27.3096327755
 40
0.5993151459
100
AcDbArc
 50
335.608393449
 51
90.04377714
  0
ARC
  5
50E
100
AcDbEntity
  8
RACCORDO
100
AcDbCircle
 62
250
  6
CONTINUOUS
 10
-11.3570861089
 20
-27.5541692991
 40
0.3003095375
100
AcDbArc
 50
340.1299032119
 51
89.8668180238
  0
ARC
  5
50F
100
AcDbEntity
  8
RACCORDO
100
AcDbCircle
 62
250
  6
CONTINUOUS
 10
-11.6300587751
 20
-29.8916727055
 40
0.3002781413
100
AcDbArc
 50
270.0998841519
 51
7.6126869211
  0
ARC
  5
510
100
AcDbEntity
  8
RACCORDO
100
AcDbCircle
 62
250
  6
CONTINUOUS
 10
-21.9740052355
 20
-29.8916966891
 40
0.3002516199
100
AcDbArc
 50
180.0826990058
 51
269.9173009942
  0
ARC
  5
511
100
AcDbEntity
  8
RACCORDO
100
AcDbCircle
 62
7
  6
CONTINUOUS
 10
-3.4020743943
 20
-27.8869198041
 40
0.2999656641
100
AcDbArc
 50
201.8851804247
 51
263.0432559887
  0
ARC
  5
512
100
AcDbEntity
  8
RACCORDO
100
AcDbCircle
 62
7
  6
CONTINUOUS
 10
-4.0698565876
 20
-31.6456779771
 40
0.2999484374
100
AcDbArc
 50
82.67100484
 51
137.9688232642
  0
ARC
  5
513
100
AcDbEntity
  8
RACCORDO
100
AcDbCircle
 62
250
  6
CONTINUOUS
 10
-22.2406362718
 20
-30.1583277292
 40
0.2992515536
100
AcDbArc
 50
179.8919829362
 51
270.1080156029
  0
ARC
  5
514
100
AcDbEntity
  8
RACCORDO
100
AcDbCircle
 62
250
  6
CONTINUOUS
 10
-11.3146034359
 20
-30.1584093582
 40
0.2991681302
100
AcDbArc
 50
269.8487014557
 51
11.6214528626
  0
ARC
  5
515
100
AcDbEntity
  8
RACCORDO
100
AcDbCircle
 62
250
  6
CONTINUOUS
 10
-3.4264079267
 20
-20.80938595
 40
12.462895187
100
AcDbArc
 50
228.8369574883
 51
230.7283558437
  0
ARC
  5
516
100
AcDbEntity
  8
RACCORDO
100
AcDbCircle
 62
250
  6
CONTINUOUS
 10
-4.0548642523
 20
-20.9839969977
 40
11.4718157052
100
AcDbArc
 50
230.6254963709
 51
232.606312053
  0
ARC
  5
517
100
AcDbEntity
  8
RACCORDO
100
AcDbCircle
 62
250
  6
CONTINUOUS
 10
-14.6106199534
 20
-25.8106199535
 40
1.199483779
100
AcDbArc
 50
180.0105884428
 51
269.9894115514
  0
ARC
  5
518
100
AcDbEntity
  8
RACCORDO
100
AcDbCircle
 62
250
  6
CONTINUOUS
 10
-14.61106124
 20
-25.81106124
 40
0.8992258957
100
AcDbArc
 50
179.9860068269
 51
270.0139931726
  0
ARC
  5
519
100
AcDbEntity
  8
RACCORDO
100
AcDbCircle
 62
250
  6
CONTINUOUS
 10
-16.1097958712
 20
-23.5597958711
 40
0.5995013127
100
AcDbArc
 50
359.9873851717
 51
90.0126148241
  0
ARC
  5
51A
100
AcDbEntity
  8
RACCORDO
100
AcDbCircle
 62
250
  6
CONTINUOUS
 10
-22.2402041288
 20
-23.5597958712
 40
0.5995013127
100
AcDbArc
 50
89.987385174
 51
180.0126148219
  0
ARC
  5
51B
100
AcDbEntity
  8
RACCORDO
100
AcDbCircle
 62
250
  6
CONTINUOUS
 10
-22.361847001
 20
-21.761847001
 40
0.4998958809
100
AcDbArc
 50
179.9967944979
 51
270.0032055021
  0
ARC
  5
51C
100
AcDbEntity
  8
RACCORDO
100
AcDbCircle
 62
250
  6
CONTINUOUS
 10
-8.1721360786
 20
-25.1455444748
 40
0.4001012736
100
AcDbArc
 50
289.2239724178
 51
359.5101846757
  0
ARC
  5
51D
100
AcDbEntity
  8
RACCORDO
100
AcDbCircle
 62
250
  6
CONTINUOUS
 10
-3.0729290164
 20
-25.7236375432
 40
0.3999843554
100
AcDbArc
 50
180.4792586395
 51
269.9860049573
  0
ARC
  5
51E
100
AcDbEntity
  8
RACCORDO
100
AcDbCircle
 62
250
  6
CONTINUOUS
 10
-14.3229290164
 20
-25.7236375432
 40
0.3999843554
100
AcDbArc
 50
180.4792586395
 51
269.9860049573
  0
ARC
  5
51F
100
AcDbEntity
  8
RACCORDO
100
AcDbCircle
 62
250
  6
CONTINUOUS
 10
-6.9118782764
 20
-24.9079504843
 40
0.3998570435
100
AcDbArc
 50
179.978247968
 51
272.1572162176
  0
ARC
  5
520
100
AcDbEntity
  8
RACCORDO
100
AcDbCircle
 62
250
  6
CONTINUOUS
 10
-9.2812620849
 20
-25.7238708042
 40
0.3997440295
100
AcDbArc
 50
269.9994298779
 51
305.8352734155
  0
ARC
  5
521
100
AcDbEntity
  8
RACCORDO
100
AcDbCircle
 62
250
  6
CONTINUOUS
 10
-4.3380316427
 20
-25.6387997994
 40
0.3997295946
100
AcDbArc
 50
236.1273886804
 51
0.0649762459
  0
ARC
  5
522
100
AcDbEntity
  8
RACCORDO
100
AcDbCircle
 62
250
  6
CONTINUOUS
 10
-16.2857021097
 20
-23.7357021097
 40
0.3002587515
100
AcDbArc
 50
0.0838032365
 51
89.9161967635
  0
ARC
  5
523
100
AcDbEntity
  8
RACCORDO
100
AcDbCircle
 62
250
  6
CONTINUOUS
 10
-22.0642978903
 20
-23.7357021097
 40
0.3002587515
100
AcDbArc
 50
90.0838032365
 51
179.9161967635
  0
ARC
  5
524
100
AcDbEntity
  8
RACCORDO
100
AcDbCircle
 62
250
  6
CONTINUOUS
 10
-22.3619209292
 20
-21.76192093
 40
0.2998514816
100
AcDbArc
 50
179.9805289585
 51
270.0194707381
  0
ARC
  5
525
100
AcDbEntity
  8
RACCORDO
100
AcDbCircle
 62
250
  6
CONTINUOUS
 10
-16.1093637282
 20
-23.5593637243
 40
0.2992515536
100
AcDbArc
 50
359.8919829302
 51
90.1080156089
  0
ARC
  5
526
100
AcDbEntity
  8
RACCORDO
100
AcDbCircle
 62
250
  6
CONTINUOUS
 10
-22.2406362757
 20
-23.5593637282
 40
0.2992515536
100
AcDbArc
 50
89.8919829302
 51
180.1080156089
  0
ARC
  5
527
100
AcDbEntity
  8
RACCORDO
100
AcDbCircle
 62
250
  6
CONTINUOUS
 10
-8.1721487507
 20
-25.1456486898
 40
0.2001225109
100
AcDbArc
 50
289.2517295892
 51
359.5502353829
  0
ARC
  5
528
100
AcDbEntity
  8
RACCORDO
100
AcDbCircle
 62
250
  6
CONTINUOUS
 10
-4.4292245147
 20
-25.364956795
 40
0.20012063
100
AcDbArc
 50
239.1259329748
 51
359.892852952
  0
ARC
  5
529
100
AcDbEntity
  8
RACCORDO
100
AcDbCircle
 62
250
  6
CONTINUOUS
 10
-6.8208076497
 20
-24.7232585498
 40
0.2000820576
100
AcDbArc
 50
180.0594341373
 51
270.8881149268
  0
ARC
  5
52A
100
AcDbEntity
  8
RACCORDO
100
AcDbCircle
 62
250
  6
CONTINUOUS
 10
-7.3118261349
 20
-22.2618261349
 40
0.2000539291
100
AcDbArc
 50
0.0238441402
 51
89.9761558598
  0
ARC
  5
52B
100
AcDbEntity
  8
RACCORDO
100
AcDbCircle
 62
250
  6
CONTINUOUS
 10
-3.9381738654
 20
-22.2618261346
 40
0.2000539288
100
AcDbArc
 50
90.0238440605
 51
179.9761559395
  0
ARC
  5
52C
100
AcDbEntity
  8
RACCORDO
100
AcDbCircle
 62
250
  6
CONTINUOUS
 10
-4.029062056
 20
-22.170937944
 40
0.2000539291
100
AcDbArc
 50
90.0238441186
 51
179.9761558814
  0
ARC
  5
52D
100
AcDbEntity
  8
RACCORDO
100
AcDbCircle
 62
250
  6
CONTINUOUS
 10
-7.220937944
 20
-22.170937944
 40
0.200053929
100
AcDbArc
 50
0.0238441165
 51
89.9761558836
  0
ARC
  5
52E
100
AcDbEntity
  8
RACCORDO
100
AcDbCircle
 62
7
  6
CONTINUOUS
 10
-8.2260281246
 20
-24.9276355136
 40
0.2000350806
100
AcDbArc
 50
288.9592255074
 51
359.5121804069
  0
ARC
  5
52F
100
AcDbEntity
  8
RACCORDO
100
AcDbCircle
 62
250
  6
CONTINUOUS
 10
-14.7531829769
 20
-22.2618020111
 40
0.2000289275
100
AcDbArc
 50
0.5168510324
 51
89.9902028013
  0
ARC
  5
530
100
AcDbEntity
  8
RACCORDO
100
AcDbCircle
 62
250
  6
CONTINUOUS
 10
-3.5031829769
 20
-22.2618020111
 40
0.2000289275
100
AcDbArc
 50
0.5168510379
 51
89.9902027955
  0
ARC
  5
531
100
AcDbEntity
  8
RACCORDO
100
AcDbCircle
 62
250
  6
CONTINUOUS
 10
-7.7468170233
 20
-22.2618020108
 40
0.2000289272
100
AcDbArc
 50
90.0097971279
 51
179.4831490493
  0
ARC
  5
532
100
AcDbEntity
  8
RACCORDO
100
AcDbCircle
 62
250
  6
CONTINUOUS
 10
-3.0729359163
 20
-25.7237673874
 40
0.1999806593
100
AcDbArc
 50
180.4213530556
 51
269.9739846396
  0
ARC
  5
533
100
AcDbEntity
  8
RACCORDO
100
AcDbCircle
 62
250
  6
CONTINUOUS
 10
-14.3229359163
 20
-25.7237673874
 40
0.1999806593
100
AcDbArc
 50
180.421353048
 51
269.9739846473
  0
ARC
  5
534
100
AcDbEntity
  8
RACCORDO
100
AcDbCircle
 62
7
  6
CONTINUOUS
 10
-14.6982371043
 20
-22.1499680117
 40
0.199968405
100
AcDbArc
 50
0.4777846218
 51
90.0007327786
  0
ARC
  5
535
100
AcDbEntity
  8
RACCORDO
100
AcDbCircle
 62
7
  6
CONTINUOUS
 10
-3.4482371043
 20
-22.1499680117
 40
0.199968405
100
AcDbArc
 50
0.4777846203
 51
90.0007327801
  0
ARC
  5
536
100
AcDbEntity
  8
RACCORDO
100
AcDbCircle
 62
7
  6
CONTINUOUS
 10
-7.8017708706
 20
-22.1499543613
 40
0.1999539034
100
AcDbArc
 50
89.9991643102
 51
179.517378807
  0
ARC
  5
537
100
AcDbEntity
  8
RACCORDO
100
AcDbCircle
 62
7
  6
CONTINUOUS
 10
-22.3500530569
 20
-18.1636500856
 40
0.1999469433
100
AcDbArc
 50
179.9977006779
 51
219.1027084261
  0
ARC
  5
538
100
AcDbEntity
  8
RACCORDO
100
AcDbCircle
 62
7
  6
CONTINUOUS
 10
-18.8779839127
 20
-21.7500550785
 40
0.1999449217
100
AcDbArc
 50
229.040964987
 51
270.00263445
  0
ARC
  5
539
100
AcDbEntity
  8
RACCORDO
100
AcDbCircle
 62
7
  6
CONTINUOUS
 10
-9.3525942038
 20
-25.5001443416
 40
0.1998556586
100
AcDbArc
 50
269.9979709082
 51
304.9154745212
  0
ARC
  5
53A
100
AcDbEntity
  8
RACCORDO
100
AcDbCircle
 62
250
  6
CONTINUOUS
 10
-6.911974782
 20
-24.9081487735
 40
0.1997879676
100
AcDbArc
 50
179.8995984255
 51
272.179710321
  0
ARC
  5
53B
100
AcDbEntity
  8
RACCORDO
100
AcDbCircle
 62
250
  6
CONTINUOUS
 10
-9.2811814706
 20
-25.7241201334
 40
0.1996165528
100
AcDbArc
 50
269.9757196538
 51
305.8589837199
  0
ARC
  5
53C
100
AcDbEntity
  8
RACCORDO
100
AcDbCircle
 62
7
  6
CONTINUOUS
 10
-29.2311019436
 20
6.7485316303
 40
3.3063623377
100
AcDbArc
 50
291.8838986889
 51
227.9682357511
  0
ARC
  5
53D
100
AcDbEntity
  8
RACCORDO
100
AcDbCircle
 62
250
  6
CONTINUOUS
 10
-34.6258058529
 20
14.5364137826
 40
0.7997477559
100
AcDbArc
 50
270.0280471059
 51
0.0466615948
  0
ARC
  5
53E
100
AcDbEntity
  8
RACCORDO
100
AcDbCircle
 62
250
  6
CONTINUOUS
 10
-34.6258056974
 20
22.0635860774
 40
0.7997477474
100
AcDbArc
 50
359.9533484249
 51
89.9719640416
  0
ARC
  5
53F
100
AcDbEntity
  8
RACCORDO
100
AcDbCircle
 62
250
  6
CONTINUOUS
 10
-37.3147959674
 20
22.0647959675
 40
0.798501204
100
AcDbArc
 50
89.9714020711
 51
180.0285979329
  0
ARC
  5
540
100
AcDbEntity
  8
RACCORDO
100
AcDbCircle
 62
250
  6
CONTINUOUS
 10
-37.3147959675
 20
14.5352040326
 40
0.798501204
100
AcDbArc
 50
179.9714020706
 51
270.0285979335
  0
ARC
  5
541
100
AcDbEntity
  8
RACCORDO
100
AcDbCircle
 62
250
  6
CONTINUOUS
 10
-37.3157630354
 20
14.5342369663
 40
0.4979452156
100
AcDbArc
 50
179.8428629736
 51
270.1571374114
  0
ARC
  5
542
100
AcDbEntity
  8
RACCORDO
100
AcDbCircle
 62
250
  6
CONTINUOUS
 10
-37.3157630339
 20
22.0657630356
 40
0.4979452153
100
AcDbArc
 50
89.8428629477
 51
180.1571374374
  0
ARC
  5
543
100
AcDbEntity
  8
RACCORDO
100
AcDbCircle
 62
7
  6
CONTINUOUS
 10
-27.8869198041
 20
3.4020743943
 40
0.2999656641
100
AcDbArc
 50
111.8851804246
 51
173.0432559889
  0
ARC
  5
544
100
AcDbEntity
  8
RACCORDO
100
AcDbCircle
 62
7
  6
CONTINUOUS
 10
-31.6456779741
 20
4.0698565887
 40
0.2999484345
100
AcDbArc
 50
352.6710045547
 51
47.9688235495
  0
ARC
  5
545
100
AcDbEntity
  8
RACCORDO
100
AcDbCircle
 62
250
  6
CONTINUOUS
 10
-34.4918084036
 20
45.3065509589
 40
46.3353764279
100
AcDbArc
 50
333.6265767693
 51
333.8807138
  0
ARC
  5
546
100
AcDbEntity
  8
RACCORDO
100
AcDbCircle
 62
250
  6
CONTINUOUS
 10
-28.4839957668
 20
35.2879840892
 40
26.2958284519
100
AcDbArc
 50
337.2772994553
 51
337.7955891375
  0
ARC
  5
547
100
AcDbEntity
  8
RACCORDO
100
AcDbCircle
 62
250
  6
CONTINUOUS
 10
-42.457894649
 20
31.2465159346
 40
11.7537179137
100
AcDbArc
 50
93.9717219726
 51
94.1562829003
  0
ARC
  5
548
100
AcDbEntity
  8
RACCORDO
100
AcDbCircle
 62
250
  6
CONTINUOUS
 10
-32.2467103813
 20
41.457872173
 40
11.7535254908
100
AcDbArc
 50
175.8435391421
 51
176.0281030705
  0
ARC
  5
549
100
AcDbEntity
  8
RACCORDO
100
AcDbCircle
 62
250
  6
CONTINUOUS
 10
-43.2715489199
 20
48.5654259262
 40
5.5652294448
100
AcDbArc
 50
269.7043000298
 51
269.9952982286
  0
ARC
  5
54A
100
AcDbEntity
  8
RACCORDO
100
AcDbCircle
 62
250
  6
CONTINUOUS
 10
-49.5654257587
 20
42.2715489203
 40
5.5652292774
100
AcDbArc
 50
0.004701767
 51
0.2956999746
  0
ARC
  5
54B
100
AcDbEntity
  8
DRAFT
100
AcDbCircle
 62
7
  6
CONTINUOUS
 10
-26.5857864376
 20
29.4142135624
 40
1.7063623377
100
AcDbArc
 50
315.0
 51
135.0
  0
ARC
  5
54C
100
AcDbEntity
  8
DRAFT
100
AcDbCircle
 62
7
  6
CONTINUOUS
 10
-29.4142135624
 20
26.5857864376
 40
1.7063623377
100
AcDbArc
 50
135.0
 51
315.0
  0
ARC
  5
54D
100
AcDbEntity
  8
0
100
AcDbCircle
 62
7
  6
CONTINUOUS
 10
-43.35
 20
42.35
 40
0.7
100
AcDbArc
 50
90.0000110266
 51
180.0000005873
  0
ARC
  5
54E
100
AcDbEntity
  8
RACCORDO
100
AcDbCircle
 62
250
  6
CONTINUOUS
 10
-43.3026825834
 20
42.3026825911
 40
0.6975884715
100
AcDbArc
 50
89.8018920266
 51
180.19810924
  0
ARC
  5
54F
100
AcDbEntity
  8
RACCORDO
100
AcDbCircle
 62
250
  6
CONTINUOUS
 10
-18.5127152299
 20
16.938785042
 40
29.2101823309
100
AcDbArc
 50
17.4538202668
 51
17.914447629
  0
ARC
  5
550
100
AcDbEntity
  8
RACCORDO
100
AcDbCircle
 62
250
  6
CONTINUOUS
 10
-15.4465213812
 20
17.5593810871
 40
25.9811642361
100
AcDbArc
 50
18.1763685152
 51
18.6921349951
  0
ARC
  5
551
100
AcDbEntity
  8
RACCORDO
100
AcDbCircle
 62
250
  6
CONTINUOUS
 10
-2.051479406
 20
20.8094860695
 40
12.7129408612
100
AcDbArc
 50
130.6309915945
 51
132.4365998131
  0
ARC
  5
552
100
AcDbEntity
  8
RACCORDO
100
AcDbCircle
 62
250
  6
CONTINUOUS
 10
-2.7409896287
 20
21.0224979659
 40
11.6535113073
100
AcDbArc
 50
128.7401045985
 51
130.6417545362
  0
ARC
  5
553
100
AcDbEntity
  8
RACCORDO
100
AcDbCircle
 62
250
  6
CONTINUOUS
 10
-14.610619683
 20
25.8106196829
 40
1.199483779
100
AcDbArc
 50
90.0106013637
 51
179.9893986303
  0
ARC
  5
554
100
AcDbEntity
  8
RACCORDO
100
AcDbCircle
 62
250
  6
CONTINUOUS
 10
-14.6110433261
 20
25.8110433261
 40
0.8992479301
100
AcDbArc
 50
89.9871484874
 51
180.0128515106
  0
ARC
  5
555
100
AcDbEntity
  8
RACCORDO
100
AcDbCircle
 62
250
  6
CONTINUOUS
 10
-22.2402142473
 20
23.5597857527
 40
0.5994888669
100
AcDbArc
 50
179.9864179047
 51
270.0135820942
  0
ARC
  5
556
100
AcDbEntity
  8
RACCORDO
100
AcDbCircle
 62
250
  6
CONTINUOUS
 10
-16.1097857527
 20
23.5597857527
 40
0.5994888669
100
AcDbArc
 50
269.9864179047
 51
0.0135820942
  0
ARC
  5
557
100
AcDbEntity
  8
RACCORDO
100
AcDbCircle
 62
250
  6
CONTINUOUS
 10
-22.361847001
 20
21.761847001
 40
0.4998958809
100
AcDbArc
 50
89.9967944979
 51
180.0032055021
  0
ARC
  5
558
100
AcDbEntity
  8
RACCORDO
100
AcDbCircle
 62
250
  6
CONTINUOUS
 10
-8.1770709484
 20
25.7236375748
 40
0.3999843554
100
AcDbArc
 50
0.4792541588
 51
89.9860099922
  0
ARC
  5
559
100
AcDbEntity
  8
RACCORDO
100
AcDbCircle
 62
250
  6
CONTINUOUS
 10
-3.0729292081
 20
25.7236374228
 40
0.3999843543
100
AcDbArc
 50
90.0139567629
 51
179.5207110605
  0
ARC
  5
55A
100
AcDbEntity
  8
RACCORDO
100
AcDbCircle
 62
250
  6
CONTINUOUS
 10
-14.3229292081
 20
25.7236374228
 40
0.3999843543
100
AcDbArc
 50
90.0139567629
 51
179.5207110605
  0
ARC
  5
55B
100
AcDbEntity
  8
RACCORDO
100
AcDbCircle
 62
250
  6
CONTINUOUS
 10
-6.9119108499
 20
25.2888291282
 40
0.3998206037
100
AcDbArc
 50
74.0704499621
 51
180.0324731562
  0
ARC
  5
55C
100
AcDbEntity
  8
RACCORDO
100
AcDbCircle
 62
250
  6
CONTINUOUS
 10
-4.3380800362
 20
25.3507237678
 40
0.3998099388
100
AcDbArc
 50
359.9641088167
 51
108.6855389074
  0
ARC
  5
55D
100
AcDbEntity
  8
RACCORDO
100
AcDbCircle
 62
250
  6
CONTINUOUS
 10
-16.2856963146
 20
23.7356963146
 40
0.3002516199
100
AcDbArc
 50
270.082699011
 51
359.917300989
  0
ARC
  5
55E
100
AcDbEntity
  8
RACCORDO
100
AcDbCircle
 62
250
  6
CONTINUOUS
 10
-22.0643036854
 20
23.7356963146
 40
0.3002516199
100
AcDbArc
 50
180.0826990081
 51
269.9173009919
  0
ARC
  5
55F
100
AcDbEntity
  8
RACCORDO
100
AcDbCircle
 62
250
  6
CONTINUOUS
 10
-22.3619209611
 20
21.7619206271
 40
0.2998516482
100
AcDbArc
 50
89.9805230306
 51
180.0194130107
  0
ARC
  5
560
100
AcDbEntity
  8
RACCORDO
100
AcDbCircle
 62
250
  6
CONTINUOUS
 10
-16.1093637243
 20
23.5593637282
 40
0.2992515535
100
AcDbArc
 50
269.8919829259
 51
0.1080156131
  0
ARC
  5
561
100
AcDbEntity
  8
RACCORDO
100
AcDbCircle
 62
250
  6
CONTINUOUS
 10
-22.2406362718
 20
23.5593637243
 40
0.2992515535
100
AcDbArc
 50
179.8919829267
 51
270.1080156124
  0
ARC
  5
562
100
AcDbEntity
  8
RACCORDO
100
AcDbCircle
 62
250
  6
CONTINUOUS
 10
-4.4292011702
 20
25.1303909073
 40
0.2000924291
100
AcDbArc
 50
0.0754636999
 51
106.6423356533
  0
ARC
  5
563
100
AcDbEntity
  8
RACCORDO
100
AcDbCircle
 62
250
  6
CONTINUOUS
 10
-6.8208023478
 20
25.0757648974
 40
0.2000884116
100
AcDbArc
 50
75.9701201951
 51
179.9285194722
  0
ARC
  5
564
100
AcDbEntity
  8
RACCORDO
100
AcDbCircle
 62
250
  6
CONTINUOUS
 10
-3.9381738651
 20
22.2618261349
 40
0.2000539291
100
AcDbArc
 50
180.0238441398
 51
269.9761558602
  0
ARC
  5
565
100
AcDbEntity
  8
RACCORDO
100
AcDbCircle
 62
250
  6
CONTINUOUS
 10
-4.029062056
 20
22.170937944
 40
0.200053929
100
AcDbArc
 50
180.0238441174
 51
269.9761558827
  0
ARC
  5
566
100
AcDbEntity
  8
RACCORDO
100
AcDbCircle
 62
250
  6
CONTINUOUS
 10
-7.3118261346
 20
22.2618261346
 40
0.2000539288
100
AcDbArc
 50
270.0238440549
 51
359.9761559451
  0
ARC
  5
567
100
AcDbEntity
  8
RACCORDO
100
AcDbCircle
 62
250
  6
CONTINUOUS
 10
-7.220937944
 20
22.170937944
 40
0.200053929
100
AcDbArc
 50
270.0238441107
 51
359.9761558893
  0
ARC
  5
568
100
AcDbEntity
  8
RACCORDO
100
AcDbCircle
 62
250
  6
CONTINUOUS
 10
-7.7468170231
 20
22.261802011
 40
0.2000289275
100
AcDbArc
 50
180.5168510315
 51
269.9902028036
  0
ARC
  5
569
100
AcDbEntity
  8
RACCORDO
100
AcDbCircle
 62
250
  6
CONTINUOUS
 10
-14.7531829767
 20
22.2618020108
 40
0.2000289271
100
AcDbArc
 50
270.0097971201
 51
359.4831490522
  0
ARC
  5
56A
100
AcDbEntity
  8
RACCORDO
100
AcDbCircle
 62
250
  6
CONTINUOUS
 10
-3.5031829767
 20
22.2618020108
 40
0.2000289272
100
AcDbArc
 50
270.009797122
 51
359.4831490495
  0
ARC
  5
56B
100
AcDbEntity
  8
RACCORDO
100
AcDbCircle
 62
250
  6
CONTINUOUS
 10
-8.1770640828
 20
25.7237673864
 40
0.1999806594
100
AcDbArc
 50
0.4213533524
 51
89.9739849182
  0
ARC
  5
56C
100
AcDbEntity
  8
RACCORDO
100
AcDbCircle
 62
250
  6
CONTINUOUS
 10
-14.3229360024
 20
25.7237673022
 40
0.1999806584
100
AcDbArc
 50
90.0259906417
 51
179.5786217207
  0
ARC
  5
56D
100
AcDbEntity
  8
RACCORDO
100
AcDbCircle
 62
250
  6
CONTINUOUS
 10
-3.0729360023
 20
25.7237673021
 40
0.1999806584
100
AcDbArc
 50
90.0259906506
 51
179.5786217118
  0
ARC
  5
56E
100
AcDbEntity
  8
RACCORDO
100
AcDbCircle
 62
7
  6
CONTINUOUS
 10
-7.8017628951
 20
22.149968011
 40
0.199968405
100
AcDbArc
 50
180.4777844449
 51
270.0007326086
  0
ARC
  5
56F
100
AcDbEntity
  8
RACCORDO
100
AcDbCircle
 62
7
  6
CONTINUOUS
 10
-14.6982291285
 20
22.1499543622
 40
0.1999539034
100
AcDbArc
 50
269.999164058
 51
359.5173785414
  0
ARC
  5
570
100
AcDbEntity
  8
RACCORDO
100
AcDbCircle
 62
7
  6
CONTINUOUS
 10
-3.4482291285
 20
22.1499543622
 40
0.1999539034
100
AcDbArc
 50
269.9991640555
 51
359.517378544
  0
ARC
  5
571
100
AcDbEntity
  8
RACCORDO
100
AcDbCircle
 62
7
  6
CONTINUOUS
 10
-22.3500530555
 20
18.1636500852
 40
0.1999469446
100
AcDbArc
 50
140.8972917096
 51
180.002299184
  0
ARC
  5
572
100
AcDbEntity
  8
RACCORDO
100
AcDbCircle
 62
7
  6
CONTINUOUS
 10
-18.8779839127
 20
21.7500550785
 40
0.1999449217
100
AcDbArc
 50
89.99736555
 51
130.959035013
  0
ARC
  5
573
100
AcDbEntity
  8
RACCORDO
100
AcDbCircle
 62
250
  6
CONTINUOUS
 10
-25.6466806761
 20
40.2892234553
 40
35.917230702
100
AcDbArc
 50
334.6710700158
 51
334.9961925441
  0
ARC
  5
574
100
AcDbEntity
  8
RACCORDO
100
AcDbCircle
 62
250
  6
CONTINUOUS
 10
-25.7237670407
 20
33.6682431426
 40
22.8183952565
100
AcDbArc
 50
338.5454204335
 51
339.1324026929
  0
ARC
  5
575
100
AcDbEntity
  8
RACCORDO
100
AcDbCircle
 62
7
  6
CONTINUOUS
 10
-6.8233639114
 20
42.6241982456
 40
20.6601734122
100
AcDbArc
 50
269.414466812
 51
270.00678974
  0
ARC
  5
576
100
AcDbEntity
  8
RACCORDO
100
AcDbCircle
 62
7
  6
CONTINUOUS
 10
-4.4176491499
 20
40.8316939112
 40
18.867672398
100
AcDbArc
 50
269.965274418
 51
270.6210786809
  0
ARC
  5
577
100
AcDbEntity
  8
RACCORDO
100
AcDbCircle
 62
250
  6
CONTINUOUS
 10
-4.0042955305
 20
36.6305955444
 40
11.2647112977
100
AcDbArc
 50
236.3459479128
 51
238.6535548007
  0
ARC
  5
578
100
AcDbEntity
  8
RACCORDO
100
AcDbCircle
 62
250
  6
CONTINUOUS
 10
-4.3453320243
 20
36.6831872213
 40
10.6248399724
100
AcDbArc
 50
238.0331940431
 51
240.3716262642
  0
ARC
  5
579
100
AcDbEntity
  8
RACCORDO
100
AcDbCircle
 62
250
  6
CONTINUOUS
 10
-5.7238588369
 20
29.4172230884
 40
4.9220398859
100
AcDbArc
 50
175.3705823112
 51
203.2277448241
  0
ARC
  5
57A
100
AcDbEntity
  8
RACCORDO
100
AcDbCircle
 62
250
  6
CONTINUOUS
 10
-5.7238864915
 20
29.4948687189
 40
4.6222089514
100
AcDbArc
 50
175.4052137164
 51
203.2598302012
  0
ARC
  5
57B
100
AcDbEntity
  8
RACCORDO
100
AcDbCircle
 62
250
  6
CONTINUOUS
 10
-5.7242698613
 20
29.4488155034
 40
4.5082169855
100
AcDbArc
 50
255.9212744165
 51
286.6960445623
  0
ARC
  5
57C
100
AcDbEntity
  8
RACCORDO
100
AcDbCircle
 62
250
  6
CONTINUOUS
 10
-5.7242698613
 20
29.4488155034
 40
4.3601106157
100
AcDbArc
 50
171.2492030444
 51
207.3223310769
  0
ARC
  5
57D
100
AcDbEntity
  8
RACCORDO
100
AcDbCircle
 62
250
  6
CONTINUOUS
 10
-5.7242698613
 20
29.4488155034
 40
4.3083388201
100
AcDbArc
 50
255.9212744165
 51
286.6960445623
  0
ARC
  5
57E
100
AcDbEntity
  8
RACCORDO
100
AcDbCircle
 62
250
  6
CONTINUOUS
 10
-5.7242698613
 20
29.4488155034
 40
4.1262633318
100
AcDbArc
 50
254.0659909854
 51
288.688511457
  0
ARC
  5
57F
100
AcDbEntity
  8
RACCORDO
100
AcDbCircle
 62
250
  6
CONTINUOUS
 10
-5.7242698613
 20
29.4488155034
 40
4.0602933676
100
AcDbArc
 50
171.2492030486
 51
207.3223310782
  0
ARC
  5
580
100
AcDbEntity
  8
RACCORDO
100
AcDbCircle
 62
250
  6
CONTINUOUS
 10
-5.7242698613
 20
29.4488155034
 40
3.9263851664
100
AcDbArc
 50
254.0659909841
 51
288.6885114579
  0
ARC
  5
581
100
AcDbEntity
  8
DRAFT
100
AcDbCircle
 62
7
  6
CONTINUOUS
 10
-5.7242698613
 20
29.4488155034
 40
1.6063623377
100
AcDbArc
 50
101.0
 51
281.0
  0
ARC
  5
582
100
AcDbEntity
  8
RACCORDO
100
AcDbCircle
 62
250
  6
CONTINUOUS
 10
-22.2402041288
 20
30.1578955824
 40
0.5995013128
100
AcDbArc
 50
89.9873851763
 51
180.0126148195
  0
ARC
  5
583
100
AcDbEntity
  8
RACCORDO
100
AcDbCircle
 62
250
  6
CONTINUOUS
 10
-10.3297503664
 20
30.1579377624
 40
0.5994579317
100
AcDbArc
 50
351.2297964181
 51
90.019411544
  0
ARC
  5
584
100
AcDbEntity
  8
RACCORDO
100
AcDbCircle
 62
250
  6
CONTINUOUS
 10
-9.8637990394
 20
27.3096049534
 40
0.599283015
100
AcDbArc
 50
269.9493499672
 51
27.3730062299
  0
ARC
  5
585
100
AcDbEntity
  8
RACCORDO
100
AcDbCircle
 62
250
  6
CONTINUOUS
 10
-10.2476901577
 20
27.5541793865
 40
0.3003202303
100
AcDbArc
 50
270.1430744759
 51
22.5920787499
  0
ARC
  5
586
100
AcDbEntity
  8
RACCORDO
100
AcDbCircle
 62
250
  6
CONTINUOUS
 10
-10.6303344613
 20
29.8916791141
 40
0.3002712818
100
AcDbArc
 50
354.930403473
 51
89.9058264237
  0
ARC
  5
587
100
AcDbEntity
  8
RACCORDO
100
AcDbCircle
 62
250
  6
CONTINUOUS
 10
-21.9740052355
 20
29.8916966891
 40
0.3002516199
100
AcDbArc
 50
90.0826990056
 51
179.9173009944
  0
ARC
  5
588
100
AcDbEntity
  8
RACCORDO
100
AcDbCircle
 62
250
  6
CONTINUOUS
 10
-22.2406362757
 20
30.1583277254
 40
0.2992515536
100
AcDbArc
 50
89.8919829302
 51
180.1080156089
  0
ARC
  5
589
100
AcDbEntity
  8
RACCORDO
100
AcDbCircle
 62
250
  6
CONTINUOUS
 10
-10.3292255132
 20
30.1583880615
 40
0.2991899514
100
AcDbArc
 50
351.1097936667
 51
90.1394086439
  0
ARC
  5
58A
100
AcDbEntity
  8
RACCORDO
100
AcDbCircle
 62
250
  6
CONTINUOUS
 10
25.1278141872
 20
-40.0454353189
 40
35.3439485724
100
AcDbArc
 50
154.6684332487
 51
154.998829309
  0
ARC
  5
58B
100
AcDbEntity
  8
RACCORDO
100
AcDbCircle
 62
250
  6
CONTINUOUS
 10
25.7237646968
 20
-33.6682422321
 40
22.8183927419
100
AcDbArc
 50
158.5454204087
 51
159.1324027327
  0
ARC
  5
58C
100
AcDbEntity
  8
RACCORDO
100
AcDbCircle
 62
7
  6
CONTINUOUS
 10
6.8233639114
 20
-42.6241982457
 40
20.6601734123
100
AcDbArc
 50
89.414466812
 51
90.00678974
  0
ARC
  5
58D
100
AcDbEntity
  8
RACCORDO
100
AcDbCircle
 62
7
  6
CONTINUOUS
 10
4.4176491499
 20
-40.8316939107
 40
18.8676723974
100
AcDbArc
 50
89.965274418
 51
90.6210786809
  0
ARC
  5
58E
100
AcDbEntity
  8
RACCORDO
100
AcDbCircle
 62
250
  6
CONTINUOUS
 10
4.0042953929
 20
-36.6305957582
 40
11.2647115519
100
AcDbArc
 50
56.3459479327
 51
58.6535547682
  0
ARC
  5
58F
100
AcDbEntity
  8
RACCORDO
100
AcDbCircle
 62
250
  6
CONTINUOUS
 10
4.345332023
 20
-36.6831872235
 40
10.624839975
100
AcDbArc
 50
58.0331940433
 51
60.3716262639
  0
ARC
  5
590
100
AcDbEntity
  8
RACCORDO
100
AcDbCircle
 62
250
  6
CONTINUOUS
 10
5.7238588369
 20
-29.4172230884
 40
4.9220398859
100
AcDbArc
 50
355.3705823112
 51
23.2277448241
  0
ARC
  5
591
100
AcDbEntity
  8
RACCORDO
100
AcDbCircle
 62
250
  6
CONTINUOUS
 10
5.7238864915
 20
-29.4948687189
 40
4.6222089514
100
AcDbArc
 50
355.4052137164
 51
23.2598302012
  0
ARC
  5
592
100
AcDbEntity
  8
RACCORDO
100
AcDbCircle
 62
250
  6
CONTINUOUS
 10
5.7242698613
 20
-29.4488155034
 40
4.5082169855
100
AcDbArc
 50
75.9212744165
 51
106.6960445623
  0
ARC
  5
593
100
AcDbEntity
  8
RACCORDO
100
AcDbCircle
 62
250
  6
CONTINUOUS
 10
5.7242698613
 20
-29.4488155034
 40
4.3601106157
100
AcDbArc
 50
351.2492030444
 51
27.322331077
  0
ARC
  5
594
100
AcDbEntity
  8
RACCORDO
100
AcDbCircle
 62
250
  6
CONTINUOUS
 10
5.7242698613
 20
-29.4488155034
 40
4.3083388201
100
AcDbArc
 50
75.9212744165
 51
106.6960445623
  0
ARC
  5
595
100
AcDbEntity
  8
RACCORDO
100
AcDbCircle
 62
250
  6
CONTINUOUS
 10
5.7242698613
 20
-29.4488155034
 40
4.1262633318
100
AcDbArc
 50
74.0659909849
 51
108.6885114564
  0
ARC
  5
596
100
AcDbEntity
  8
RACCORDO
100
AcDbCircle
 62
250
  6
CONTINUOUS
 10
5.7242698613
 20
-29.4488155034
 40
4.0602933676
100
AcDbArc
 50
351.2492030486
 51
27.3223310782
  0
ARC
  5
597
100
AcDbEntity
  8
RACCORDO
100
AcDbCircle
 62
250
  6
CONTINUOUS
 10
5.7242698613
 20
-29.4488155034
 40
3.9263851664
100
AcDbArc
 50
74.0659909841
 51
108.6885114579
  0
ARC
  5
598
100
AcDbEntity
  8
DRAFT
100
AcDbCircle
 62
7
  6
CONTINUOUS
 10
5.7242698613
 20
-29.4488155034
 40
1.6063623377
100
AcDbArc
 50
281.0
 51
101.0
  0
ARC
  5
599
100
AcDbEntity
  8
RACCORDO
100
AcDbCircle
 62
250
  6
CONTINUOUS
 10
22.2402142473
 20
-30.1579057009
 40
0.5994888669
100
AcDbArc
 50
269.9864179047
 51
0.0135820942
  0
ARC
  5
59A
100
AcDbEntity
  8
RACCORDO
100
AcDbCircle
 62
250
  6
CONTINUOUS
 10
10.3297503663
 20
-30.1579377624
 40
0.5994579315
100
AcDbArc
 50
171.2297964097
 51
270.0194115524
  0
ARC
  5
59B
100
AcDbEntity
  8
RACCORDO
100
AcDbCircle
 62
250
  6
CONTINUOUS
 10
9.8637991318
 20
-27.3096049711
 40
0.599283123
100
AcDbArc
 50
89.9493588057
 51
207.3730006647
  0
ARC
  5
59C
100
AcDbEntity
  8
RACCORDO
100
AcDbCircle
 62
250
  6
CONTINUOUS
 10
10.2476901575
 20
-27.5541793864
 40
0.3003202299
100
AcDbArc
 50
90.143074448
 51
202.5920787778
  0
ARC
  5
59D
100
AcDbEntity
  8
RACCORDO
100
AcDbCircle
 62
250
  6
CONTINUOUS
 10
10.6303273941
 20
-29.8916855713
 40
0.3002630303
100
AcDbArc
 50
174.9290569571
 51
269.9071729396
  0
ARC
  5
59E
100
AcDbEntity
  8
RACCORDO
100
AcDbCircle
 62
250
  6
CONTINUOUS
 10
21.9739994404
 20
-29.891690894
 40
0.3002587515
100
AcDbArc
 50
270.0838032367
 51
359.9161967633
  0
ARC
  5
59F
100
AcDbEntity
  8
RACCORDO
100
AcDbCircle
 62
250
  6
CONTINUOUS
 10
22.2406362756
 20
-30.1583277254
 40
0.2992515536
100
AcDbArc
 50
269.8919829367
 51
0.1080156023
  0
ARC
  5
5A0
100
AcDbEntity
  8
RACCORDO
100
AcDbCircle
 62
250
  6
CONTINUOUS
 10
10.3292255133
 20
-30.1583880615
 40
0.2991899514
100
AcDbArc
 50
171.1097936689
 51
270.1394086405
  0
ARC
  5
5A1
100
AcDbEntity
  8
RACCORDO
100
AcDbCircle
 62
250
  6
CONTINUOUS
 10
18.512765561
 20
-16.9387690099
 40
29.2102351533
100
AcDbArc
 50
197.4538206549
 51
197.914447184
  0
ARC
  5
5A2
100
AcDbEntity
  8
RACCORDO
100
AcDbCircle
 62
250
  6
CONTINUOUS
 10
15.4465551532
 20
-17.5593698407
 40
25.9811998311
100
AcDbArc
 50
198.1763688466
 51
198.69213462
  0
ARC
  5
5A3
100
AcDbEntity
  8
RACCORDO
100
AcDbCircle
 62
250
  6
CONTINUOUS
 10
2.0514793103
 20
-20.8094859631
 40
12.7129410043
100
AcDbArc
 50
310.6309916096
 51
312.4365998077
  0
ARC
  5
5A4
100
AcDbEntity
  8
RACCORDO
100
AcDbCircle
 62
250
  6
CONTINUOUS
 10
2.74098963
 20
-21.0224979675
 40
11.6535113052
100
AcDbArc
 50
308.7401045983
 51
310.6417545363
  0
ARC
  5
5A5
100
AcDbEntity
  8
RACCORDO
100
AcDbCircle
 62
250
  6
CONTINUOUS
 10
14.6106199535
 20
-25.8106199534
 40
1.199483779
100
AcDbArc
 50
270.0105884428
 51
359.9894115514
  0
ARC
  5
5A6
100
AcDbEntity
  8
RACCORDO
100
AcDbCircle
 62
250
  6
CONTINUOUS
 10
14.61106124
 20
-25.81106124
 40
0.8992258957
100
AcDbArc
 50
269.9860068269
 51
0.0139931726
  0
ARC
  5
5A7
100
AcDbEntity
  8
RACCORDO
100
AcDbCircle
 62
250
  6
CONTINUOUS
 10
22.2402041288
 20
-23.5597958712
 40
0.5995013128
100
AcDbArc
 50
359.9873851744
 51
90.0126148214
  0
ARC
  5
5A8
100
AcDbEntity
  8
RACCORDO
100
AcDbCircle
 62
250
  6
CONTINUOUS
 10
16.1097958712
 20
-23.5597958712
 40
0.5995013127
100
AcDbArc
 50
89.9873851743
 51
180.0126148215
  0
ARC
  5
5A9
100
AcDbEntity
  8
RACCORDO
100
AcDbCircle
 62
250
  6
CONTINUOUS
 10
22.361847001
 20
-21.761847001
 40
0.4998958809
100
AcDbArc
 50
269.9967944979
 51
0.0032055021
  0
ARC
  5
5AA
100
AcDbEntity
  8
RACCORDO
100
AcDbCircle
 62
250
  6
CONTINUOUS
 10
8.1770709836
 20
-25.7236375432
 40
0.3999843554
100
AcDbArc
 50
180.4792586395
 51
269.9860049573
  0
ARC
  5
5AB
100
AcDbEntity
  8
RACCORDO
100
AcDbCircle
 62
250
  6
CONTINUOUS
 10
3.0729291764
 20
-25.723637387
 40
0.3999843543
100
AcDbArc
 50
270.0139613035
 51
359.5207059699
  0
ARC
  5
5AC
100
AcDbEntity
  8
RACCORDO
100
AcDbCircle
 62
250
  6
CONTINUOUS
 10
14.3229291764
 20
-25.723637387
 40
0.3999843543
100
AcDbArc
 50
270.0139613035
 51
359.5207059699
  0
ARC
  5
5AD
100
AcDbEntity
  8
RACCORDO
100
AcDbCircle
 62
250
  6
CONTINUOUS
 10
6.9119108524
 20
-25.2888291264
 40
0.3998206036
100
AcDbArc
 50
254.0704496887
 51
0.032472894
  0
ARC
  5
5AE
100
AcDbEntity
  8
RACCORDO
100
AcDbCircle
 62
250
  6
CONTINUOUS
 10
4.3380800387
 20
-25.3507237696
 40
0.3998099389
100
AcDbArc
 50
179.9641085697
 51
288.6855386459
  0
ARC
  5
5AF
100
AcDbEntity
  8
RACCORDO
100
AcDbCircle
 62
250
  6
CONTINUOUS
 10
16.2857021097
 20
-23.7357021097
 40
0.3002587515
100
AcDbArc
 50
90.0838032365
 51
179.9161967635
  0
ARC
  5
5B0
100
AcDbEntity
  8
RACCORDO
100
AcDbCircle
 62
250
  6
CONTINUOUS
 10
22.0642978903
 20
-23.7357021097
 40
0.3002587515
100
AcDbArc
 50
0.0838032365
 51
89.9161967635
  0
ARC
  5
5B1
100
AcDbEntity
  8
RACCORDO
100
AcDbCircle
 62
250
  6
CONTINUOUS
 10
22.36192093
 20
-21.7619209292
 40
0.2998514816
100
AcDbArc
 50
269.9805289585
 51
0.0194707381
  0
ARC
  5
5B2
100
AcDbEntity
  8
RACCORDO
100
AcDbCircle
 62
250
  6
CONTINUOUS
 10
16.1093637243
 20
-23.5593637282
 40
0.2992515536
100
AcDbArc
 50
89.8919829302
 51
180.1080156089
  0
ARC
  5
5B3
100
AcDbEntity
  8
RACCORDO
100
AcDbCircle
 62
250
  6
CONTINUOUS
 10
22.2406362718
 20
-23.5593637243
 40
0.2992515536
100
AcDbArc
 50
359.8919829302
 51
90.1080156089
  0
ARC
  5
5B4
100
AcDbEntity
  8
RACCORDO
100
AcDbCircle
 62
250
  6
CONTINUOUS
 10
4.4292011715
 20
-25.1303909082
 40
0.2000924291
100
AcDbArc
 50
180.075463434
 51
286.6423353871
  0
ARC
  5
5B5
100
AcDbEntity
  8
RACCORDO
100
AcDbCircle
 62
250
  6
CONTINUOUS
 10
6.8208023484
 20
-25.0757648957
 40
0.2000884128
100
AcDbArc
 50
255.970120133
 51
359.9285189937
  0
ARC
  5
5B6
100
AcDbEntity
  8
RACCORDO
100
AcDbCircle
 62
250
  6
CONTINUOUS
 10
3.9381738651
 20
-22.2618261349
 40
0.2000539292
100
AcDbArc
 50
0.0238441448
 51
89.9761558552
  0
ARC
  5
5B7
100
AcDbEntity
  8
RACCORDO
100
AcDbCircle
 62
250
  6
CONTINUOUS
 10
7.3118261346
 20
-22.2618261346
 40
0.2000539288
100
AcDbArc
 50
90.0238440607
 51
179.9761559393
  0
ARC
  5
5B8
100
AcDbEntity
  8
RACCORDO
100
AcDbCircle
 62
250
  6
CONTINUOUS
 10
7.220937944
 20
-22.170937944
 40
0.200053929
100
AcDbArc
 50
90.0238441156
 51
179.9761558844
  0
ARC
  5
5B9
100
AcDbEntity
  8
RACCORDO
100
AcDbCircle
 62
250
  6
CONTINUOUS
 10
4.029062056
 20
-22.170937944
 40
0.200053929
100
AcDbArc
 50
0.0238441165
 51
89.9761558836
  0
ARC
  5
5BA
100
AcDbEntity
  8
RACCORDO
100
AcDbCircle
 62
250
  6
CONTINUOUS
 10
7.7468170231
 20
-22.2618020111
 40
0.2000289275
100
AcDbArc
 50
0.5168510343
 51
89.9902028039
  0
ARC
  5
5BB
100
AcDbEntity
  8
RACCORDO
100
AcDbCircle
 62
250
  6
CONTINUOUS
 10
3.5031829767
 20
-22.2618020107
 40
0.2000289271
100
AcDbArc
 50
90.009797121
 51
179.4831490541
  0
ARC
  5
5BC
100
AcDbEntity
  8
RACCORDO
100
AcDbCircle
 62
250
  6
CONTINUOUS
 10
14.7531829767
 20
-22.2618020108
 40
0.2000289272
100
AcDbArc
 50
90.0097971237
 51
179.4831490493
  0
ARC
  5
5BD
100
AcDbEntity
  8
RACCORDO
100
AcDbCircle
 62
250
  6
CONTINUOUS
 10
8.1770640837
 20
-25.7237673874
 40
0.1999806593
100
AcDbArc
 50
180.4213530556
 51
269.9739846396
  0
ARC
  5
5BE
100
AcDbEntity
  8
RACCORDO
100
AcDbCircle
 62
250
  6
CONTINUOUS
 10
14.3229360034
 20
-25.7237673012
 40
0.1999806584
100
AcDbArc
 50
270.0259903511
 51
359.5786214479
  0
ARC
  5
5BF
100
AcDbEntity
  8
RACCORDO
100
AcDbCircle
 62
250
  6
CONTINUOUS
 10
3.0729360033
 20
-25.7237673011
 40
0.1999806584
100
AcDbArc
 50
270.0259903723
 51
359.5786214266
  0
ARC
  5
5C0
100
AcDbEntity
  8
RACCORDO
100
AcDbCircle
 62
7
  6
CONTINUOUS
 10
7.8017628957
 20
-22.1499680116
 40
0.199968405
100
AcDbArc
 50
0.4777846188
 51
90.0007327816
  0
ARC
  5
5C1
100
AcDbEntity
  8
RACCORDO
100
AcDbCircle
 62
7
  6
CONTINUOUS
 10
3.4482291294
 20
-22.1499543613
 40
0.1999539034
100
AcDbArc
 50
89.9991643102
 51
179.517378807
  0
ARC
  5
5C2
100
AcDbEntity
  8
RACCORDO
100
AcDbCircle
 62
7
  6
CONTINUOUS
 10
14.6982291294
 20
-22.1499543613
 40
0.1999539034
100
AcDbArc
 50
89.9991643102
 51
179.517378807
  0
ARC
  5
5C3
100
AcDbEntity
  8
RACCORDO
100
AcDbCircle
 62
7
  6
CONTINUOUS
 10
22.3500530555
 20
-18.1636500852
 40
0.1999469446
100
AcDbArc
 50
320.8972917096
 51
0.002299184
  0
ARC
  5
5C4
100
AcDbEntity
  8
RACCORDO
100
AcDbCircle
 62
7
  6
CONTINUOUS
 10
18.8779839127
 20
-21.7500550785
 40
0.1999449217
100
AcDbArc
 50
269.99736555
 51
310.959035013
  0
ARC
  5
5C5
100
AcDbEntity
  8
RACCORDO
100
AcDbCircle
 62
250
  6
CONTINUOUS
 10
33.8182395931
 20
-44.9744367916
 40
45.5843824579
100
AcDbArc
 50
153.6244834077
 51
153.8828073049
  0
ARC
  5
5C6
100
AcDbEntity
  8
RACCORDO
100
AcDbCircle
 62
250
  6
CONTINUOUS
 10
28.4839957713
 20
-35.2879840911
 40
26.2958284568
100
AcDbArc
 50
157.2772994553
 51
157.7955891374
  0
ARC
  5
5C7
100
AcDbEntity
  8
RACCORDO
100
AcDbCircle
 62
250
  6
CONTINUOUS
 10
42.4578946483
 20
-31.2465159249
 40
11.7537179234
100
AcDbArc
 50
273.9717219727
 51
274.1562829002
  0
ARC
  5
5C8
100
AcDbEntity
  8
RACCORDO
100
AcDbCircle
 62
250
  6
CONTINUOUS
 10
32.2467103979
 20
-41.4578721741
 40
11.7535254741
100
AcDbArc
 50
355.843539142
 51
356.0281030706
  0
ARC
  5
5C9
100
AcDbEntity
  8
RACCORDO
100
AcDbCircle
 62
250
  6
CONTINUOUS
 10
43.2715489199
 20
-48.5654259235
 40
5.5652294422
100
AcDbArc
 50
89.7043000297
 51
89.9952982287
  0
ARC
  5
5CA
100
AcDbEntity
  8
RACCORDO
100
AcDbCircle
 62
250
  6
CONTINUOUS
 10
49.565425759
 20
-42.2715489203
 40
5.5652292776
100
AcDbArc
 50
180.004701767
 51
180.2956999746
  0
ARC
  5
5CB
100
AcDbEntity
  8
ASSI
100
AcDbCircle
 62
7
  6
CONTINUOUS
 10
26.5857864376
 20
-29.4142135624
 40
1.75
100
AcDbArc
 50
135.0
 51
315.0
  0
ARC
  5
5CC
100
AcDbEntity
  8
ASSI
100
AcDbCircle
 62
7
  6
CONTINUOUS
 10
29.4142135624
 20
-26.5857864376
 40
1.75
100
AcDbArc
 50
315.0
 51
135.0
  0
ARC
  5
5CD
100
AcDbEntity
  8
0
100
AcDbCircle
 62
7
  6
CONTINUOUS
 10
43.35
 20
-42.35
 40
0.7
100
AcDbArc
 50
270.0000110266
 51
0.0000005873
  0
ARC
  5
5CE
100
AcDbEntity
  8
RACCORDO
100
AcDbCircle
 62
250
  6
CONTINUOUS
 10
43.3026825833
 20
-42.302682591
 40
0.6975884717
100
AcDbArc
 50
269.8018920343
 51
0.1981092323
  0
ARC
  5
5CF
100
AcDbEntity
  8
RACCORDO
100
AcDbCircle
 62
7
  6
CONTINUOUS
 10
29.2311019436
 20
-6.7485316303
 40
3.3063623377
100
AcDbArc
 50
111.8838986889
 51
47.9682357511
  0
ARC
  5
5D0
100
AcDbEntity
  8
RACCORDO
100
AcDbCircle
 62
250
  6
CONTINUOUS
 10
34.6257968639
 20
-14.5364047978
 40
0.7997367955
100
AcDbArc
 50
90.0274033933
 51
180.0473057908
  0
ARC
  5
5D1
100
AcDbEntity
  8
RACCORDO
100
AcDbCircle
 62
250
  6
CONTINUOUS
 10
34.6257966966
 20
-22.0635950578
 40
0.799736782
100
AcDbArc
 50
179.9527045469
 51
269.9726085977
  0
ARC
  5
5D2
100
AcDbEntity
  8
RACCORDO
100
AcDbCircle
 62
250
  6
CONTINUOUS
 10
37.3147959674
 20
-22.0647959675
 40
0.798501204
100
AcDbArc
 50
269.9714020703
 51
0.0285979337
  0
ARC
  5
5D3
100
AcDbEntity
  8
RACCORDO
100
AcDbCircle
 62
250
  6
CONTINUOUS
 10
37.3147959675
 20
-14.5352040326
 40
0.7985012039
100
AcDbArc
 50
359.9714020698
 51
90.0285979342
  0
ARC
  5
5D4
100
AcDbEntity
  8
RACCORDO
100
AcDbCircle
 62
250
  6
CONTINUOUS
 10
37.3157630338
 20
-22.0657630355
 40
0.4979452154
100
AcDbArc
 50
269.8428629546
 51
0.1571374304
  0
ARC
  5
5D5
100
AcDbEntity
  8
RACCORDO
100
AcDbCircle
 62
250
  6
CONTINUOUS
 10
37.3157630356
 20
-14.5342369662
 40
0.4979452154
100
AcDbArc
 50
359.842862953
 51
90.1571374321
  0
ARC
  5
5D6
100
AcDbEntity
  8
RACCORDO
100
AcDbCircle
 62
7
  6
CONTINUOUS
 10
27.8869198041
 20
-3.4020743943
 40
0.2999656641
100
AcDbArc
 50
291.8851804245
 51
353.0432559889
  0
ARC
  5
5D7
100
AcDbEntity
  8
RACCORDO
100
AcDbCircle
 62
7
  6
CONTINUOUS
 10
31.6456779771
 20
-4.0698565876
 40
0.2999484374
100
AcDbArc
 50
172.67100484
 51
227.9688232642
  0
ARC
  5
5D8
100
AcDbEntity
  8
RACCORDO
100
AcDbCircle
 62
7
  6
CONTINUOUS
 10
0.0
 20
0.0
 40
31.6063623377
100
AcDbArc
 50
172.671592355
 51
191.0
  0
ARC
  5
5D9
100
AcDbEntity
  8
RACCORDO
100
AcDbCircle
 62
7
  6
CONTINUOUS
 10
0.0
 20
0.0
 40
31.6063623377
100
AcDbArc
 50
352.671592355
 51
11.0
  0
ARC
  5
5DA
100
AcDbEntity
  8
RACCORDO
100
AcDbCircle
 62
7
  6
CONTINUOUS
 10
0.0
 20
0.0
 40
31.6063623377
100
AcDbArc
 50
262.671592355
 51
281.0
  0
ARC
  5
5DB
100
AcDbEntity
  8
RACCORDO
100
AcDbCircle
 62
7
  6
CONTINUOUS
 10
0.0
 20
0.0
 40
31.6063623377
100
AcDbArc
 50
82.671592355
 51
101.0
  0
ARC
  5
5DC
100
AcDbEntity
  8
RACCORDO
100
AcDbCircle
 62
7
  6
CONTINUOUS
 10
0.0
 20
0.0
 40
29.0
100
AcDbArc
 50
130.956400562
 51
140.8995908645
  0
ARC
  5
5DD
100
AcDbEntity
  8
RACCORDO
100
AcDbCircle
 62
7
  6
CONTINUOUS
 10
0.0
 20
0.0
 40
29.0
100
AcDbArc
 50
219.1004091355
 51
229.043599438
  0
ARC
  5
5DE
100
AcDbEntity
  8
RACCORDO
100
AcDbCircle
 62
7
  6
CONTINUOUS
 10
0.0
 20
0.0
 40
29.0
100
AcDbArc
 50
310.956400562
 51
320.8995908645
  0
ARC
  5
5DF
100
AcDbEntity
  8
RACCORDO
100
AcDbCircle
 62
7
  6
CONTINUOUS
 10
0.0
 20
0.0
 40
29.0
100
AcDbArc
 50
39.1004091355
 51
49.043599438
  0
ARC
  5
5E0
100
AcDbEntity
  8
RACCORDO
100
AcDbCircle
 62
7
  6
CONTINUOUS
 10
0.0
 20
0.0
 40
28.3936376623
100
AcDbArc
 50
173.0445377205
 51
191.0
  0
ARC
  5
5E1
100
AcDbEntity
  8
RACCORDO
100
AcDbCircle
 62
7
  6
CONTINUOUS
 10
0.0
 20
0.0
 40
28.3936376623
100
AcDbArc
 50
353.0445377205
 51
11.0
  0
ARC
  5
5E2
100
AcDbEntity
  8
RACCORDO
100
AcDbCircle
 62
7
  6
CONTINUOUS
 10
0.0
 20
0.0
 40
28.3936376623
100
AcDbArc
 50
263.0445377205
 51
281.0
  0
ARC
  5
5E3
100
AcDbEntity
  8
RACCORDO
100
AcDbCircle
 62
7
  6
CONTINUOUS
 10
0.0
 20
0.0
 40
28.3936376623
100
AcDbArc
 50
83.0445377205
 51
101.0
  0
ARC
  5
5E4
100
AcDbEntity
  8
RACCORDO
100
AcDbCircle
 62
250
  6
CONTINUOUS
 10
3.4264077881
 20
20.8093857879
 40
12.4628954003
100
AcDbArc
 50
48.8369574987
 51
50.7283558215
  0
ARC
  5
5E5
100
AcDbEntity
  8
RACCORDO
100
AcDbCircle
 62
250
  6
CONTINUOUS
 10
4.054864251
 20
20.9839969961
 40
11.4718157072
100
AcDbArc
 50
50.6254963711
 51
52.6063120528
  0
ARC
  5
5E6
100
AcDbEntity
  8
RACCORDO
100
AcDbCircle
 62
250
  6
CONTINUOUS
 10
16.1097857527
 20
23.5597857527
 40
0.5994888669
100
AcDbArc
 50
179.9864179047
 51
270.0135820942
  0
ARC
  5
5E7
100
AcDbEntity
  8
RACCORDO
100
AcDbCircle
 62
250
  6
CONTINUOUS
 10
22.2402142473
 20
23.5597857527
 40
0.5994888669
100
AcDbArc
 50
269.9864179047
 51
0.0135820942
  0
ARC
  5
5E8
100
AcDbEntity
  8
RACCORDO
100
AcDbCircle
 62
250
  6
CONTINUOUS
 10
22.361847001
 20
21.761847001
 40
0.4998958809
100
AcDbArc
 50
359.9967944979
 51
90.0032055021
  0
ARC
  5
5E9
100
AcDbEntity
  8
RACCORDO
100
AcDbCircle
 62
250
  6
CONTINUOUS
 10
16.2856963147
 20
23.7356963147
 40
0.3002516199
100
AcDbArc
 50
180.0826990121
 51
269.9173009879
  0
ARC
  5
5EA
100
AcDbEntity
  8
RACCORDO
100
AcDbCircle
 62
250
  6
CONTINUOUS
 10
22.0643036854
 20
23.7356963146
 40
0.3002516199
100
AcDbArc
 50
270.0826990055
 51
359.9173009945
  0
ARC
  5
5EB
100
AcDbEntity
  8
RACCORDO
100
AcDbCircle
 62
250
  6
CONTINUOUS
 10
22.3619206271
 20
21.7619209611
 40
0.2998516482
100
AcDbArc
 50
359.980523031
 51
90.0194130102
  0
ARC
  5
5EC
100
AcDbEntity
  8
RACCORDO
100
AcDbCircle
 62
250
  6
CONTINUOUS
 10
16.1093637282
 20
23.5593637244
 40
0.2992515536
100
AcDbArc
 50
179.8919829356
 51
270.1080156035
  0
ARC
  5
5ED
100
AcDbEntity
  8
RACCORDO
100
AcDbCircle
 62
250
  6
CONTINUOUS
 10
22.2406362757
 20
23.5593637282
 40
0.2992515535
100
AcDbArc
 50
269.891982926
 51
0.108015613
  0
ARC
  5
5EE
100
AcDbEntity
  8
RACCORDO
100
AcDbCircle
 62
250
  6
CONTINUOUS
 10
7.3118261349
 20
22.2618261349
 40
0.2000539291
100
AcDbArc
 50
180.0238441421
 51
269.9761558579
  0
ARC
  5
5EF
100
AcDbEntity
  8
RACCORDO
100
AcDbCircle
 62
250
  6
CONTINUOUS
 10
7.220937944
 20
22.170937944
 40
0.200053929
100
AcDbArc
 50
180.0238441165
 51
269.9761558836
  0
ARC
  5
5F0
100
AcDbEntity
  8
RACCORDO
100
AcDbCircle
 62
250
  6
CONTINUOUS
 10
3.9381738654
 20
22.2618261346
 40
0.2000539288
100
AcDbArc
 50
270.0238440616
 51
359.9761559384
  0
ARC
  5
5F1
100
AcDbEntity
  8
RACCORDO
100
AcDbCircle
 62
250
  6
CONTINUOUS
 10
4.029062056
 20
22.170937944
 40
0.200053929
100
AcDbArc
 50
270.0238441153
 51
359.9761558847
  0
ARC
  5
5F2
100
AcDbEntity
  8
RACCORDO
100
AcDbCircle
 62
250
  6
CONTINUOUS
 10
14.7531829769
 20
22.2618020111
 40
0.2000289275
100
AcDbArc
 50
180.5168510354
 51
269.9902027985
  0
ARC
  5
5F3
100
AcDbEntity
  8
RACCORDO
100
AcDbCircle
 62
250
  6
CONTINUOUS
 10
3.5031829769
 20
22.2618020111
 40
0.2000289275
100
AcDbArc
 50
180.5168510328
 51
269.9902028
  0
ARC
  5
5F4
100
AcDbEntity
  8
RACCORDO
100
AcDbCircle
 62
250
  6
CONTINUOUS
 10
7.7468170233
 20
22.2618020108
 40
0.2000289272
100
AcDbArc
 50
270.0097971219
 51
359.4831490509
  0
ARC
  5
5F5
100
AcDbEntity
  8
RACCORDO
100
AcDbCircle
 62
7
  6
CONTINUOUS
 10
14.6982371049
 20
22.1499680111
 40
0.199968405
100
AcDbArc
 50
180.4777844512
 51
270.0007326023
  0
ARC
  5
5F6
100
AcDbEntity
  8
RACCORDO
100
AcDbCircle
 62
7
  6
CONTINUOUS
 10
3.448237105
 20
22.1499680111
 40
0.1999684051
100
AcDbArc
 50
180.4777844584
 51
270.000732595
  0
ARC
  5
5F7
100
AcDbEntity
  8
RACCORDO
100
AcDbCircle
 62
7
  6
CONTINUOUS
 10
7.8017708715
 20
22.1499543622
 40
0.1999539034
100
AcDbArc
 50
269.9991640502
 51
359.5173785492
  0
ARC
  5
5F8
100
AcDbEntity
  8
RACCORDO
100
AcDbCircle
 62
7
  6
CONTINUOUS
 10
22.3500530569
 20
18.1636500856
 40
0.1999469433
100
AcDbArc
 50
359.9977006779
 51
39.102708426
  0
ARC
  5
5F9
100
AcDbEntity
  8
RACCORDO
100
AcDbCircle
 62
7
  6
CONTINUOUS
 10
18.8779839127
 20
21.7500550785
 40
0.1999449217
100
AcDbArc
 50
49.0409649871
 51
90.00263445
  0
ARC
  5
5FA
100
AcDbEntity
  8
RACCORDO
100
AcDbCircle
 62
250
  6
CONTINUOUS
 10
6.7481127792
 20
29.1994911667
 40
4.9200104136
100
AcDbArc
 50
339.4946241743
 51
7.1806604757
  0
ARC
  5
5FB
100
AcDbEntity
  8
RACCORDO
100
AcDbCircle
 62
250
  6
CONTINUOUS
 10
6.7481406138
 20
29.2771368257
 40
4.6201793116
100
AcDbArc
 50
339.4619220534
 51
7.1461875188
  0
ARC
  5
5FC
100
AcDbEntity
  8
RACCORDO
100
AcDbCircle
 62
250
  6
CONTINUOUS
 10
6.7485316303
 20
29.2311019436
 40
4.5082169855
100
AcDbArc
 50
239.0364103701
 51
270.9199812029
  0
ARC
  5
5FD
100
AcDbEntity
  8
RACCORDO
100
AcDbCircle
 62
250
  6
CONTINUOUS
 10
6.7485316303
 20
29.2311019436
 40
4.3601106157
100
AcDbArc
 50
335.6521426009
 51
11.4701570616
  0
ARC
  5
5FE
100
AcDbEntity
  8
RACCORDO
100
AcDbCircle
 62
7
  6
CONTINUOUS
 10
6.7485316303
 20
29.2311019436
 40
4.35
100
AcDbArc
 50
288.9482508678
 51
304.9134458162
  0
ARC
  5
5FF
100
AcDbEntity
  8
RACCORDO
100
AcDbCircle
 62
250
  6
CONTINUOUS
 10
6.7485316303
 20
29.2311019436
 40
4.3083388201
100
AcDbArc
 50
239.0364103701
 51
270.9199812029
  0
ARC
  5
600
100
AcDbEntity
  8
RACCORDO
100
AcDbCircle
 62
250
  6
CONTINUOUS
 10
6.7485316303
 20
29.2311019436
 40
4.1262633318
100
AcDbArc
 50
236.1387178039
 51
272.1645184627
  0
ARC
  5
601
100
AcDbEntity
  8
RACCORDO
100
AcDbCircle
 62
250
  6
CONTINUOUS
 10
6.7485316303
 20
29.2311019436
 40
4.1262633318
100
AcDbArc
 50
289.209447447
 51
305.8347033718
  0
ARC
  5
602
100
AcDbEntity
  8
RACCORDO
100
AcDbCircle
 62
250
  6
CONTINUOUS
 10
6.7485316303
 20
29.2311019436
 40
4.0602933676
100
AcDbArc
 50
335.6521425975
 51
11.4701570642
  0
ARC
  5
603
100
AcDbEntity
  8
RACCORDO
100
AcDbCircle
 62
250
  6
CONTINUOUS
 10
6.7485316303
 20
29.2311019436
 40
3.9263851664
100
AcDbArc
 50
289.209447447
 51
305.8347033719
  0
ARC
  5
604
100
AcDbEntity
  8
RACCORDO
100
AcDbCircle
 62
250
  6
CONTINUOUS
 10
6.7485316303
 20
29.2311019436
 40
3.9263851664
100
AcDbArc
 50
236.1387190033
 51
272.164518463
  0
ARC
  5
605
100
AcDbEntity
  8
RACCORDO
100
AcDbCircle
 62
7
  6
CONTINUOUS
 10
6.7485316303
 20
29.2311019436
 40
3.3063623377
100
AcDbArc
 50
201.8838986889
 51
137.9682357511
  0
ARC
  5
606
100
AcDbEntity
  8
RACCORDO
100
AcDbCircle
 62
250
  6
CONTINUOUS
 10
11.3151627337
 20
30.1579521295
 40
0.5994431272
100
AcDbArc
 50
89.9779523669
 51
191.4922023433
  0
ARC
  5
607
100
AcDbEntity
  8
RACCORDO
100
AcDbCircle
 62
250
  6
CONTINUOUS
 10
10.9935441486
 20
27.3096327952
 40
0.5993151336
100
AcDbArc
 50
155.6083942555
 51
270.0437793403
  0
ARC
  5
608
100
AcDbEntity
  8
RACCORDO
100
AcDbCircle
 62
250
  6
CONTINUOUS
 10
8.1721359915
 20
25.14554454
 40
0.4001012736
100
AcDbArc
 50
109.223963722
 51
179.5101938993
  0
ARC
  5
609
100
AcDbEntity
  8
RACCORDO
100
AcDbCircle
 62
250
  6
CONTINUOUS
 10
3.0729290516
 20
25.7236375748
 40
0.3999843554
100
AcDbArc
 50
0.4792541588
 51
89.9860099922
  0
ARC
  5
60A
100
AcDbEntity
  8
RACCORDO
100
AcDbCircle
 62
250
  6
CONTINUOUS
 10
6.9118799019
 20
24.9079525712
 40
0.3998549253
100
AcDbArc
 50
359.9779487677
 51
92.1574602409
  0
ARC
  5
60B
100
AcDbEntity
  8
RACCORDO
100
AcDbCircle
 62
250
  6
CONTINUOUS
 10
9.2812620848
 20
25.7238708044
 40
0.3997440293
100
AcDbArc
 50
89.9994298777
 51
125.8352734304
  0
ARC
  5
60C
100
AcDbEntity
  8
RACCORDO
100
AcDbCircle
 62
250
  6
CONTINUOUS
 10
4.3380286377
 20
25.6388058785
 40
0.3997256191
100
AcDbArc
 50
56.1265347353
 51
180.0658456983
  0
ARC
  5
60D
100
AcDbEntity
  8
RACCORDO
100
AcDbCircle
 62
250
  6
CONTINUOUS
 10
11.3570861088
 20
27.5541692991
 40
0.3003095365
100
AcDbArc
 50
160.1299032038
 51
269.8668180319
  0
ARC
  5
60E
100
AcDbEntity
  8
RACCORDO
100
AcDbCircle
 62
250
  6
CONTINUOUS
 10
11.6300510365
 20
29.8916794667
 40
0.3002693835
100
AcDbArc
 50
90.0984097597
 51
187.6141613133
  0
ARC
  5
60F
100
AcDbEntity
  8
RACCORDO
100
AcDbCircle
 62
7
  6
CONTINUOUS
 10
3.4020743943
 20
27.8869198041
 40
0.2999656641
100
AcDbArc
 50
21.8851804247
 51
83.0432559887
  0
ARC
  5
610
100
AcDbEntity
  8
RACCORDO
100
AcDbCircle
 62
7
  6
CONTINUOUS
 10
4.0698565887
 20
31.6456779741
 40
0.2999484345
100
AcDbArc
 50
262.6710045546
 51
317.9688235495
  0
ARC
  5
611
100
AcDbEntity
  8
RACCORDO
100
AcDbCircle
 62
250
  6
CONTINUOUS
 10
11.314603436
 20
30.1584093581
 40
0.2991681303
100
AcDbArc
 50
89.8487014721
 51
191.6214528476
  0
ARC
  5
612
100
AcDbEntity
  8
RACCORDO
100
AcDbCircle
 62
250
  6
CONTINUOUS
 10
8.1721487507
 20
25.1456486898
 40
0.2001225109
100
AcDbArc
 50
109.2517295892
 51
179.5502353829
  0
ARC
  5
613
100
AcDbEntity
  8
RACCORDO
100
AcDbCircle
 62
250
  6
CONTINUOUS
 10
4.429224557
 20
25.3649567238
 40
0.2001207429
100
AcDbArc
 50
59.125953825
 51
179.8928325458
  0
ARC
  5
614
100
AcDbEntity
  8
RACCORDO
100
AcDbCircle
 62
250
  6
CONTINUOUS
 10
6.8208076507
 20
24.7232585488
 40
0.2000820576
100
AcDbArc
 50
0.0594344242
 51
90.8881152006
  0
ARC
  5
615
100
AcDbEntity
  8
RACCORDO
100
AcDbCircle
 62
7
  6
CONTINUOUS
 10
8.2260281246
 20
24.9276355136
 40
0.2000350806
100
AcDbArc
 50
108.9592255073
 51
179.5121804069
  0
ARC
  5
616
100
AcDbEntity
  8
RACCORDO
100
AcDbCircle
 62
250
  6
CONTINUOUS
 10
3.0729359173
 20
25.7237673864
 40
0.1999806593
100
AcDbArc
 50
0.4213533369
 51
89.9739849337
  0
ARC
  5
617
100
AcDbEntity
  8
RACCORDO
100
AcDbCircle
 62
7
  6
CONTINUOUS
 10
9.3525942034
 20
25.5001443425
 40
0.1998556577
100
AcDbArc
 50
89.9979708265
 51
124.9154746972
  0
ARC
  5
618
100
AcDbEntity
  8
RACCORDO
100
AcDbCircle
 62
250
  6
CONTINUOUS
 10
6.9119750289
 20
24.9081492543
 40
0.1997875392
100
AcDbArc
 50
359.8994588595
 51
92.179786194
  0
ARC
  5
619
100
AcDbEntity
  8
RACCORDO
100
AcDbCircle
 62
250
  6
CONTINUOUS
 10
9.2811814705
 20
25.7241201334
 40
0.1996165528
100
AcDbArc
 50
89.9757196548
 51
125.8589837187
  0
ARC
  5
61A
100
AcDbEntity
  8
RACCORDO
100
AcDbCircle
 62
7
  6
CONTINUOUS
 10
4.4266360886
 20
42.6241982454
 40
20.660173412
100
AcDbArc
 50
269.414466812
 51
270.00678974
  0
ARC
  5
61B
100
AcDbEntity
  8
RACCORDO
100
AcDbCircle
 62
7
  6
CONTINUOUS
 10
6.8323508501
 20
40.8316939106
 40
18.8676723973
100
AcDbArc
 50
269.965274418
 51
270.6210786809
  0
ARC
  5
61C
100
AcDbEntity
  8
RACCORDO
100
AcDbCircle
 62
250
  6
CONTINUOUS
 10
4.7861684095
 20
36.6305228738
 40
11.4494336609
100
AcDbArc
 50
302.833235071
 51
305.0189053696
  0
ARC
  5
61D
100
AcDbEntity
  8
RACCORDO
100
AcDbCircle
 62
250
  6
CONTINUOUS
 10
5.1719332379
 20
36.6413897683
 40
10.75058462
100
AcDbArc
 50
301.0743733696
 51
303.3026036673
  0
ARC
  5
61E
100
AcDbEntity
  8
RACCORDO
100
AcDbCircle
 62
250
  6
CONTINUOUS
 10
22.6974984131
 20
31.6651836393
 40
19.5133117276
100
AcDbArc
 50
197.9904055546
 51
198.8353064083
  0
ARC
  5
61F
100
AcDbEntity
  8
RACCORDO
100
AcDbCircle
 62
250
  6
CONTINUOUS
 10
21.8615760508
 20
31.0171485106
 40
18.1755881246
100
AcDbArc
 50
196.6654583399
 51
197.5493166674
  0
ARC
  5
620
100
AcDbEntity
  8
RACCORDO
100
AcDbCircle
 62
250
  6
CONTINUOUS
 10
14.6106196829
 20
25.810619683
 40
1.199483779
100
AcDbArc
 50
0.0106013637
 51
89.9893986303
  0
ARC
  5
621
100
AcDbEntity
  8
RACCORDO
100
AcDbCircle
 62
250
  6
CONTINUOUS
 10
14.6110433261
 20
25.8110433261
 40
0.89924793
100
AcDbArc
 50
359.9871484874
 51
90.0128515106
  0
ARC
  5
622
100
AcDbEntity
  8
RACCORDO
100
AcDbCircle
 62
250
  6
CONTINUOUS
 10
22.2402041288
 20
30.1578955825
 40
0.5995013127
100
AcDbArc
 50
359.987385171
 51
90.0126148248
  0
ARC
  5
623
100
AcDbEntity
  8
RACCORDO
100
AcDbCircle
 62
250
  6
CONTINUOUS
 10
14.3229290516
 20
25.7236375748
 40
0.3999843554
100
AcDbArc
 50
0.4792541588
 51
89.9860099922
  0
ARC
  5
624
100
AcDbEntity
  8
RACCORDO
100
AcDbCircle
 62
250
  6
CONTINUOUS
 10
21.9739994404
 20
29.891690894
 40
0.3002587515
100
AcDbArc
 50
0.0838032366
 51
89.9161967634
  0
ARC
  5
625
100
AcDbEntity
  8
RACCORDO
100
AcDbCircle
 62
250
  6
CONTINUOUS
 10
22.2406362719
 20
30.1583277294
 40
0.2992515535
100
AcDbArc
 50
359.8919829155
 51
90.1080156235
  0
ARC
  5
626
100
AcDbEntity
  8
RACCORDO
100
AcDbCircle
 62
250
  6
CONTINUOUS
 10
14.3229359173
 20
25.7237673864
 40
0.1999806593
100
AcDbArc
 50
0.4213533383
 51
89.9739849323
  0
ARC
  5
627
100
AcDbEntity
  8
RACCORDO
100
AcDbCircle
 62
250
  6
CONTINUOUS
 10
19.2959423854
 20
36.4530252999
 40
28.6707479148
100
AcDbArc
 50
202.917243582
 51
203.3792799919
  0
ARC
  5
628
100
AcDbEntity
  8
RACCORDO
100
AcDbCircle
 62
250
  6
CONTINUOUS
 10
15.9049318423
 20
34.4933010278
 40
24.481174749
100
AcDbArc
 50
201.600227136
 51
202.1328423846
  0
ARC
  5
629
100
AcDbEntity
  8
DRAFT
100
AcDbCircle
 62
7
  6
CONTINUOUS
 10
29.4488155034
 20
5.7242698613
 40
1.6063623377
100
AcDbArc
 50
11.0
 51
191.0
  0
ARC
  5
62A
100
AcDbEntity
  8
RACCORDO
100
AcDbCircle
 62
250
  6
CONTINUOUS
 10
34.6257968639
 20
22.0635952022
 40
0.7997367955
100
AcDbArc
 50
90.0274033933
 51
180.0473057908
  0
ARC
  5
62B
100
AcDbEntity
  8
RACCORDO
100
AcDbCircle
 62
250
  6
CONTINUOUS
 10
34.6257966966
 20
14.5364049422
 40
0.799736782
100
AcDbArc
 50
179.9527045469
 51
269.9726085977
  0
ARC
  5
62C
100
AcDbEntity
  8
RACCORDO
100
AcDbCircle
 62
250
  6
CONTINUOUS
 10
37.3147959675
 20
14.5352040324
 40
0.7985012038
100
AcDbArc
 50
269.9714020623
 51
0.0285979418
  0
ARC
  5
62D
100
AcDbEntity
  8
RACCORDO
100
AcDbCircle
 62
250
  6
CONTINUOUS
 10
37.3147959675
 20
22.0647959674
 40
0.798501204
100
AcDbArc
 50
359.9714020703
 51
90.0285979337
  0
ARC
  5
62E
100
AcDbEntity
  8
RACCORDO
100
AcDbCircle
 62
250
  6
CONTINUOUS
 10
37.3157630355
 20
22.0657630338
 40
0.4979452154
100
AcDbArc
 50
359.8428629553
 51
90.1571374298
  0
ARC
  5
62F
100
AcDbEntity
  8
RACCORDO
100
AcDbCircle
 62
250
  6
CONTINUOUS
 10
37.3157630338
 20
14.5342369645
 40
0.4979452154
100
AcDbArc
 50
269.8428629584
 51
0.1571374267
  0
ARC
  5
630
100
AcDbEntity
  8
RACCORDO
100
AcDbCircle
 62
250
  6
CONTINUOUS
 10
32.2465159573
 20
41.4578946506
 40
11.7537178909
100
AcDbArc
 50
3.9717219724
 51
4.1562829004
  0
ARC
  5
631
100
AcDbEntity
  8
RACCORDO
100
AcDbCircle
 62
250
  6
CONTINUOUS
 10
42.4578721753
 20
31.2467104141
 40
11.7535254579
100
AcDbArc
 50
85.8435391418
 51
86.0281030707
  0
ARC
  5
632
100
AcDbEntity
  8
RACCORDO
100
AcDbCircle
 62
250
  6
CONTINUOUS
 10
49.5654259262
 20
42.2715489199
 40
5.5652294448
100
AcDbArc
 50
179.7043000298
 51
179.9952982286
  0
ARC
  5
633
100
AcDbEntity
  8
RACCORDO
100
AcDbCircle
 62
250
  6
CONTINUOUS
 10
43.2715489203
 20
48.5654257586
 40
5.5652292772
100
AcDbArc
 50
270.004701767
 51
270.2956999746
  0
ARC
  5
634
100
AcDbEntity
  8
DRAFT
100
AcDbCircle
 62
7
  6
CONTINUOUS
 10
29.4142135624
 20
26.5857864376
 40
1.7063623377
100
AcDbArc
 50
225.0
 51
45.0
  0
ARC
  5
635
100
AcDbEntity
  8
DRAFT
100
AcDbCircle
 62
7
  6
CONTINUOUS
 10
26.5857864376
 20
29.4142135624
 40
1.7063623377
100
AcDbArc
 50
45.0
 51
225.0
  0
ARC
  5
636
100
AcDbEntity
  8
0
100
AcDbCircle
 62
7
  6
CONTINUOUS
 10
43.35
 20
42.35
 40
0.7
100
AcDbArc
 50
0.0000110265
 51
90.0000005873
  0
ARC
  5
637
100
AcDbEntity
  8
RACCORDO
100
AcDbCircle
 62
250
  6
CONTINUOUS
 10
43.3026825909
 20
42.3026825832
 40
0.6975884718
100
AcDbArc
 50
359.8018920411
 51
90.1981092255
  0
SPLINE
  5
638
100
AcDbEntity
  8
RACCORDO
100
AcDbSpline
 62
250
  6
CONTINUOUS
 70
0
 71
3
 72
11
 73
7
 74
0
 42
0.0000001
 43
0.0000001
 44
0.0000000001
 40
0.0
 40
0.0
 40
0.0
 40
0.0
 40
0.250035872
 40
0.5000519285
 40
0.7500404444
 40
1.0
 40
1.0
 40
1.0
 40
1.0
 10
34.6254143849
 20
22.5637121667
 30
0.0
 10
34.5603460544
 20
22.5637452951
 30
0.0
 10
34.4287603238
 20
22.5376997342
 30
0.0
 10
34.2626518476
 20
22.4260575192
 30
0.0
 10
34.1517446739
 20
22.2595222019
 30
0.0
 10
34.1259446507
 20
22.1279833089
 30
0.0
 10
34.1259776615
 20
22.0629348386
 30
0.0
  0
SPLINE
  5
639
100
AcDbEntity
  8
RACCORDO
100
AcDbSpline
 62
250
  6
CONTINUOUS
 70
0
 71
3
 72
11
 73
7
 74
0
 42
0.0000001
 43
0.0000001
 44
0.0000000001
 40
0.0
 40
0.0
 40
0.0
 40
0.0
 40
0.2499584375
 40
0.4999419876
 40
0.7499625522
 40
1.0
 40
1.0
 40
1.0
 40
1.0
 10
34.125977661
 20
14.53706516
 30
0.0
 10
34.1259445695
 20
14.4720169809
 30
0.0
 10
34.1517439017
 20
14.3404796027
 30
0.0
 10
34.2626500479
 20
14.1739443091
 30
0.0
 10
34.4287583993
 20
14.0623011068
 30
0.0
 10
34.5603456447
 20
14.0362547932
 30
0.0
 10
34.6254143852
 20
14.0362878339
 30
0.0
  0
SPLINE
  5
63A
100
AcDbEntity
  8
RACCORDO
100
AcDbSpline
 62
250
  6
CONTINUOUS
 70
0
 71
3
 72
11
 73
7
 74
0
 42
0.0000001
 43
0.0000001
 44
0.0000000001
 40
0.0
 40
0.0
 40
0.0
 40
0.0
 40
0.2499584375
 40
0.4999419876
 40
0.7499625522
 40
1.0
 40
1.0
 40
1.0
 40
1.0
 10
34.125977661
 20
-22.06293484
 30
0.0
 10
34.1259445695
 20
-22.1279830191
 30
0.0
 10
34.1517439017
 20
-22.2595203973
 30
0.0
 10
34.2626500479
 20
-22.4260556909
 30
0.0
 10
34.4287583993
 20
-22.5376988932
 30
0.0
 10
34.5603456447
 20
-22.5637452068
 30
0.0
 10
34.6254143852
 20
-22.5637121661
 30
0.0
  0
SPLINE
  5
63B
100
AcDbEntity
  8
RACCORDO
100
AcDbSpline
 62
250
  6
CONTINUOUS
 70
0
 71
3
 72
11
 73
7
 74
0
 42
0.0000001
 43
0.0000001
 44
0.0000000001
 40
0.0
 40
0.0
 40
0.0
 40
0.0
 40
0.250035872
 40
0.5000519285
 40
0.7500404444
 40
1.0
 40
1.0
 40
1.0
 40
1.0
 10
34.6254143849
 20
-14.0362878333
 30
0.0
 10
34.5603460544
 20
-14.0362547049
 30
0.0
 10
34.4287603238
 20
-14.0623002658
 30
0.0
 10
34.2626518476
 20
-14.1739424808
 30
0.0
 10
34.1517446739
 20
-14.3404777981
 30
0.0
 10
34.1259446507
 20
-14.4720166911
 30
0.0
 10
34.1259776615
 20
-14.5370651614
 30
0.0
  0
SPLINE
  5
63C
100
AcDbEntity
  8
RACCORDO
100
AcDbSpline
 62
250
  6
CONTINUOUS
 70
0
 71
3
 72
11
 73
7
 74
0
 42
0.0000001
 43
0.0000001
 44
0.0000000001
 40
0.0
 40
0.0
 40
0.0
 40
0.0
 40
0.2499584375
 40
0.4999419876
 40
0.7499625522
 40
1.0
 40
1.0
 40
1.0
 40
1.0
 10
-34.125977661
 20
22.06293484
 30
0.0
 10
-34.1259445695
 20
22.1279830191
 30
0.0
 10
-34.1517439017
 20
22.2595203973
 30
0.0
 10
-34.2626500479
 20
22.4260556909
 30
0.0
 10
-34.4287583993
 20
22.5376988932
 30
0.0
 10
-34.5603456447
 20
22.5637452068
 30
0.0
 10
-34.6254143852
 20
22.5637121661
 30
0.0
  0
SPLINE
  5
63D
100
AcDbEntity
  8
RACCORDO
100
AcDbSpline
 62
250
  6
CONTINUOUS
 70
0
 71
3
 72
11
 73
7
 74
0
 42
0.0000001
 43
0.0000001
 44
0.0000000001
 40
0.0
 40
0.0
 40
0.0
 40
0.0
 40
0.250035872
 40
0.5000519285
 40
0.7500404444
 40
1.0
 40
1.0
 40
1.0
 40
1.0
 10
-34.6254143849
 20
14.0362878333
 30
0.0
 10
-34.5603460544
 20
14.0362547049
 30
0.0
 10
-34.4287603238
 20
14.0623002658
 30
0.0
 10
-34.2626518476
 20
14.1739424808
 30
0.0
 10
-34.1517446739
 20
14.3404777981
 30
0.0
 10
-34.1259446507
 20
14.4720166911
 30
0.0
 10
-34.1259776615
 20
14.5370651614
 30
0.0
  0
SPLINE
  5
63E
100
AcDbEntity
  8
RACCORDO
100
AcDbSpline
 62
250
  6
CONTINUOUS
 70
0
 71
3
 72
11
 73
7
 74
0
 42
0.0000001
 43
0.0000001
 44
0.0000000001
 40
0.0
 40
0.0
 40
0.0
 40
0.0
 40
0.2499584375
 40
0.4999419876
 40
0.7499625522
 40
1.0
 40
1.0
 40
1.0
 40
1.0
 10
-34.125977661
 20
-14.53706516
 30
0.0
 10
-34.1259445695
 20
-14.4720169809
 30
0.0
 10
-34.1517439017
 20
-14.3404796027
 30
0.0
 10
-34.2626500479
 20
-14.1739443091
 30
0.0
 10
-34.4287583993
 20
-14.0623011068
 30
0.0
 10
-34.5603456447
 20
-14.0362547932
 30
0.0
 10
-34.6254143852
 20
-14.0362878339
 30
0.0
  0
SPLINE
  5
63F
100
AcDbEntity
  8
RACCORDO
100
AcDbSpline
 62
250
  6
CONTINUOUS
 70
0
 71
3
 72
11
 73
7
 74
0
 42
0.0000001
 43
0.0000001
 44
0.0000000001
 40
0.0
 40
0.0
 40
0.0
 40
0.0
 40
0.250035872
 40
0.5000519285
 40
0.7500404444
 40
1.0
 40
1.0
 40
1.0
 40
1.0
 10
-34.6254143849
 20
-22.5637121667
 30
0.0
 10
-34.5603460544
 20
-22.5637452951
 30
0.0
 10
-34.4287603238
 20
-22.5376997342
 30
0.0
 10
-34.2626518476
 20
-22.4260575192
 30
0.0
 10
-34.1517446739
 20
-22.2595222019
 30
0.0
 10
-34.1259446507
 20
-22.1279833089
 30
0.0
 10
-34.1259776615
 20
-22.0629348386
 30
0.0
  0
SPLINE
  5
640
100
AcDbEntity
  8
RACCORDO
100
AcDbSpline
 62
250
  6
CONTINUOUS
 70
0
 71
3
 72
11
 73
7
 74
0
 42
0.0000001
 43
0.0000001
 44
0.0000000001
 40
0.0
 40
0.0
 40
0.0
 40
0.0
 40
0.2499329611
 40
0.5000198187
 40
0.7500898861
 40
1.0
 40
1.0
 40
1.0
 40
1.0
 10
-4.1382266759
 20
-25.6383463765
 30
0.0
 10
-4.1381955041
 20
-25.6739624373
 30
0.0
 10
-4.1579119898
 20
-25.7467003662
 30
0.0
 10
-4.2390685067
 20
-25.8240477245
 30
0.0
 10
-4.3484625149
 20
-25.8487077069
 30
0.0
 10
-4.4199005806
 20
-25.8245853981
 30
0.0
 10
-4.4494433263
 20
-25.8046982404
 30
0.0
  0
SPLINE
  5
641
100
AcDbEntity
  8
RACCORDO
100
AcDbSpline
 62
250
  6
CONTINUOUS
 70
0
 71
3
 72
11
 73
7
 74
0
 42
0.0000001
 43
0.0000001
 44
0.0000000001
 40
0.0
 40
0.0
 40
0.0
 40
0.0
 40
0.2499789496
 40
0.500042357
 40
0.7500445677
 40
1.0
 40
1.0
 40
1.0
 40
1.0
 10
7.1117733287
 20
-25.2886024858
 30
0.0
 10
7.11179368
 20
-25.3191515858
 30
0.0
 10
7.097415263
 20
-25.3811946201
 30
0.0
 10
7.0368038732
 20
-25.4542097966
 30
0.0
 10
6.9500391123
 20
-25.4926604751
 30
0.0
 10
6.8864177555
 20
-25.4895027561
 30
0.0
 10
6.8570530547
 20
-25.4810892736
 30
0.0
  0
SPLINE
  5
642
100
AcDbEntity
  8
RACCORDO
100
AcDbSpline
 62
250
  6
CONTINUOUS
 70
0
 71
3
 72
11
 73
7
 74
0
 42
0.0000001
 43
0.0000001
 44
0.0000000001
 40
0.0
 40
0.0
 40
0.0
 40
0.0
 40
0.2500178574
 40
0.5000714835
 40
0.7500553094
 40
1.0
 40
1.0
 40
1.0
 40
1.0
 10
4.4021199619
 20
-25.5401112581
 30
0.0
 10
4.3724468695
 20
-25.5501815504
 30
0.0
 10
4.3072365345
 20
-25.5561900303
 30
0.0
 10
4.2169416162
 20
-25.519355802
 30
0.0
 10
4.1533447653
 20
-25.4454643495
 30
0.0
 10
4.1382049762
 20
-25.3817994354
 30
0.0
 10
4.1382266712
 20
-25.3504732783
 30
0.0
  0
SPLINE
  5
643
100
AcDbEntity
  8
RACCORDO
100
AcDbSpline
 62
250
  6
CONTINUOUS
 70
0
 71
3
 72
11
 73
7
 74
0
 42
0.0000001
 43
0.0000001
 44
0.0000000001
 40
0.0
 40
0.0
 40
0.0
 40
0.0
 40
0.2498825574
 40
0.4999211307
 40
0.7500142017
 40
1.0
 40
1.0
 40
1.0
 40
1.0
 10
4.1382266818
 20
25.6383463775
 30
0.0
 10
4.1381959987
 20
25.673955465
 30
0.0
 10
4.1579024564
 20
25.7466791508
 30
0.0
 10
4.2390364964
 20
25.8240314695
 30
0.0
 10
4.3484353041
 20
25.848716199
 30
0.0
 10
4.419890841
 20
25.8245905903
 30
0.0
 10
4.4494433349
 20
25.8046982261
 30
0.0
  0
SPLINE
  5
644
100
AcDbEntity
  8
RACCORDO
100
AcDbSpline
 62
250
  6
CONTINUOUS
 70
0
 71
3
 72
11
 73
7
 74
0
 42
0.0000001
 43
0.0000001
 44
0.0000000001
 40
0.0
 40
0.0
 40
0.0
 40
0.0
 40
0.2499789496
 40
0.500042357
 40
0.7500445677
 40
1.0
 40
1.0
 40
1.0
 40
1.0
 10
-7.1117733287
 20
25.2886024858
 30
0.0
 10
-7.11179368
 20
25.3191515858
 30
0.0
 10
-7.097415263
 20
25.3811946201
 30
0.0
 10
-7.0368038732
 20
25.4542097966
 30
0.0
 10
-6.9500391123
 20
25.4926604751
 30
0.0
 10
-6.8864177555
 20
25.4895027561
 30
0.0
 10
-6.8570530547
 20
25.4810892736
 30
0.0
  0
SPLINE
  5
645
100
AcDbEntity
  8
RACCORDO
100
AcDbSpline
 62
250
  6
CONTINUOUS
 70
0
 71
3
 72
11
 73
7
 74
0
 42
0.0000001
 43
0.0000001
 44
0.0000000001
 40
0.0
 40
0.0
 40
0.0
 40
0.0
 40
0.2500178574
 40
0.5000714835
 40
0.7500553094
 40
1.0
 40
1.0
 40
1.0
 40
1.0
 10
-4.4021199619
 20
25.5401112581
 30
0.0
 10
-4.3724468695
 20
25.5501815504
 30
0.0
 10
-4.3072365345
 20
25.5561900303
 30
0.0
 10
-4.2169416162
 20
25.519355802
 30
0.0
 10
-4.1533447653
 20
25.4454643495
 30
0.0
 10
-4.1382049762
 20
25.3817994354
 30
0.0
 10
-4.1382266712
 20
25.3504732783
 30
0.0
  0
SPLINE
  5
646
100
AcDbEntity
  8
RACCORDO
100
AcDbSpline
 62
250
  6
CONTINUOUS
 70
0
 71
3
 72
17
 73
13
 74
0
 42
0.0000001
 43
0.0000001
 44
0.0000000001
 40
0.0
 40
0.0
 40
0.0
 40
0.0
 40
0.007228056
 40
0.0233019243
 40
0.0484350453
 40
0.0824620884
 40
0.1759247291
 40
0.3002660244
 40
0.4508328795
 40
0.6219633276
 40
0.8073469637
 40
1.0
 40
1.0
 40
1.0
 40
1.0
 10
-4.2291148487
 20
22.1708549851
 30
0.0
 10
-4.2293317422
 20
22.1704237202
 30
0.0
 10
-4.2311018038
 20
22.1700188188
 30
0.0
 10
-4.2340556789
 20
22.169344789
 30
0.0
 10
-4.2391618116
 20
22.1687706672
 30
0.0
 10
-4.2492476695
 20
22.167834617
 30
0.0
 10
-4.266088599
 20
22.1668716561
 30
0.0
 10
-4.2906493665
 20
22.1658754411
 30
0.0
 10
-4.3204360871
 20
22.1650656264
 30
0.0
 10
-4.3542943465
 20
22.1644543774
 30
0.0
 10
-4.3909703157
 20
22.164079259
 30
0.0
 10
-4.4162178297
 20
22.1639945433
 30
0.0
 10
-4.4290843877
 20
22.1639945129
 30
0.0
  0
SPLINE
  5
647
100
AcDbEntity
  8
RACCORDO
100
AcDbSpline
 62
250
  6
CONTINUOUS
 70
0
 71
3
 72
17
 73
13
 74
0
 42
0.0000001
 43
0.0000001
 44
0.0000000001
 40
0.0
 40
0.0
 40
0.0
 40
0.0
 40
0.007228056
 40
0.0233019243
 40
0.0484350453
 40
0.0824620884
 40
0.1759247291
 40
0.3002660244
 40
0.4508328795
 40
0.6219633276
 40
0.8073469637
 40
1.0
 40
1.0
 40
1.0
 40
1.0
 10
7.0208851513
 20
22.1708549851
 30
0.0
 10
7.0206682578
 20
22.1704237202
 30
0.0
 10
7.0188981962
 20
22.1700188188
 30
0.0
 10
7.0159443211
 20
22.169344789
 30
0.0
 10
7.0108381884
 20
22.1687706672
 30
0.0
 10
7.0007523305
 20
22.167834617
 30
0.0
 10
6.983911401
 20
22.1668716561
 30
0.0
 10
6.9593506335
 20
22.1658754411
 30
0.0
 10
6.9295639129
 20
22.1650656264
 30
0.0
 10
6.8957056535
 20
22.1644543774
 30
0.0
 10
6.8590296843
 20
22.164079259
 30
0.0
 10
6.8337821703
 20
22.1639945433
 30
0.0
 10
6.8209156123
 20
22.1639945129
 30
0.0
  0
SPLINE
  5
648
100
AcDbEntity
  8
RACCORDO
100
AcDbSpline
 62
250
  6
CONTINUOUS
 70
0
 71
3
 72
17
 73
13
 74
0
 42
0.0000001
 43
0.0000001
 44
0.0000000001
 40
0.0
 40
0.0
 40
0.0
 40
0.0
 40
0.1925983144
 40
0.3780973043
 40
0.5492647504
 40
0.6998496394
 40
0.8241543459
 40
0.9175672614
 40
0.9515882958
 40
0.9767058396
 40
0.992773318
 40
1.0
 40
1.0
 40
1.0
 40
1.0
 10
4.4290843877
 20
22.1639945159
 30
0.0
 10
4.416221495
 20
22.163994579
 30
0.0
 10
4.3909699524
 20
22.1640793483
 30
0.0
 10
4.3542874958
 20
22.1644546621
 30
0.0
 10
4.3204178793
 20
22.1650657434
 30
0.0
 10
4.2906299686
 20
22.1658762254
 30
0.0
 10
4.2660737826
 20
22.166872681
 30
0.0
 10
4.2492390527
 20
22.1678348727
 30
0.0
 10
4.2391578903
 20
22.1687707251
 30
0.0
 10
4.2340538679
 20
22.1693456319
 30
0.0
 10
4.2311014078
 20
22.1700200361
 30
0.0
 10
4.2293319871
 20
22.1704240896
 30
0.0
 10
4.2291148487
 20
22.1708551281
 30
0.0
  0
SPLINE
  5
649
100
AcDbEntity
  8
RACCORDO
100
AcDbSpline
 62
250
  6
CONTINUOUS
 70
0
 71
3
 72
17
 73
13
 74
0
 42
0.0000001
 43
0.0000001
 44
0.0000000001
 40
0.0
 40
0.0
 40
0.0
 40
0.0
 40
0.1925983144
 40
0.3780973043
 40
0.5492647504
 40
0.6998496394
 40
0.8241543459
 40
0.9175672614
 40
0.9515882958
 40
0.9767058396
 40
0.992773318
 40
1.0
 40
1.0
 40
1.0
 40
1.0
 10
-6.8209156123
 20
22.1639945159
 30
0.0
 10
-6.833778505
 20
22.163994579
 30
0.0
 10
-6.8590300476
 20
22.1640793483
 30
0.0
 10
-6.8957125042
 20
22.1644546621
 30
0.0
 10
-6.9295821207
 20
22.1650657434
 30
0.0
 10
-6.9593700314
 20
22.1658762254
 30
0.0
 10
-6.9839262174
 20
22.166872681
 30
0.0
 10
-7.0007609473
 20
22.1678348727
 30
0.0
 10
-7.0108421097
 20
22.1687707251
 30
0.0
 10
-7.0159461321
 20
22.1693456319
 30
0.0
 10
-7.0188985922
 20
22.1700200361
 30
0.0
 10
-7.0206680129
 20
22.1704240896
 30
0.0
 10
-7.0208851513
 20
22.1708551281
 30
0.0
  0
SPLINE
  5
64A
100
AcDbEntity
  8
RACCORDO
100
AcDbSpline
 62
250
  6
CONTINUOUS
 70
0
 71
3
 72
17
 73
13
 74
0
 42
0.0000001
 43
0.0000001
 44
0.0000000001
 40
0.0
 40
0.0
 40
0.0
 40
0.0
 40
0.1925983144
 40
0.3780973043
 40
0.5492647504
 40
0.6998496394
 40
0.8241543459
 40
0.9175672614
 40
0.9515882958
 40
0.9767058396
 40
0.992773318
 40
1.0
 40
1.0
 40
1.0
 40
1.0
 10
6.8209156123
 20
-22.1639945159
 30
0.0
 10
6.833778505
 20
-22.163994579
 30
0.0
 10
6.8590300476
 20
-22.1640793483
 30
0.0
 10
6.8957125042
 20
-22.1644546621
 30
0.0
 10
6.9295821207
 20
-22.1650657434
 30
0.0
 10
6.9593700314
 20
-22.1658762254
 30
0.0
 10
6.9839262174
 20
-22.166872681
 30
0.0
 10
7.0007609473
 20
-22.1678348727
 30
0.0
 10
7.0108421097
 20
-22.1687707251
 30
0.0
 10
7.0159461321
 20
-22.1693456319
 30
0.0
 10
7.0188985922
 20
-22.1700200361
 30
0.0
 10
7.0206680129
 20
-22.1704240896
 30
0.0
 10
7.0208851513
 20
-22.1708551281
 30
0.0
  0
SPLINE
  5
64B
100
AcDbEntity
  8
RACCORDO
100
AcDbSpline
 62
250
  6
CONTINUOUS
 70
0
 71
3
 72
17
 73
13
 74
0
 42
0.0000001
 43
0.0000001
 44
0.0000000001
 40
0.0
 40
0.0
 40
0.0
 40
0.0
 40
0.007228056
 40
0.0233019243
 40
0.0484350453
 40
0.0824620884
 40
0.1759247291
 40
0.3002660244
 40
0.4508328795
 40
0.6219633276
 40
0.8073469637
 40
1.0
 40
1.0
 40
1.0
 40
1.0
 10
4.2291148487
 20
-22.1708549851
 30
0.0
 10
4.2293317422
 20
-22.1704237202
 30
0.0
 10
4.2311018038
 20
-22.1700188188
 30
0.0
 10
4.2340556789
 20
-22.169344789
 30
0.0
 10
4.2391618116
 20
-22.1687706672
 30
0.0
 10
4.2492476695
 20
-22.167834617
 30
0.0
 10
4.266088599
 20
-22.1668716561
 30
0.0
 10
4.2906493665
 20
-22.1658754411
 30
0.0
 10
4.3204360871
 20
-22.1650656264
 30
0.0
 10
4.3542943465
 20
-22.1644543774
 30
0.0
 10
4.3909703157
 20
-22.164079259
 30
0.0
 10
4.4162178297
 20
-22.1639945433
 30
0.0
 10
4.4290843877
 20
-22.1639945129
 30
0.0
  0
SPLINE
  5
64C
100
AcDbEntity
  8
RACCORDO
100
AcDbSpline
 62
250
  6
CONTINUOUS
 70
0
 71
3
 72
17
 73
13
 74
0
 42
0.0000001
 43
0.0000001
 44
0.0000000001
 40
0.0
 40
0.0
 40
0.0
 40
0.0
 40
0.1925983144
 40
0.3780973043
 40
0.5492647504
 40
0.6998496394
 40
0.8241543459
 40
0.9175672614
 40
0.9515882958
 40
0.9767058396
 40
0.992773318
 40
1.0
 40
1.0
 40
1.0
 40
1.0
 10
-4.4290843877
 20
-22.1639945159
 30
0.0
 10
-4.416221495
 20
-22.163994579
 30
0.0
 10
-4.3909699524
 20
-22.1640793483
 30
0.0
 10
-4.3542874958
 20
-22.1644546621
 30
0.0
 10
-4.3204178793
 20
-22.1650657434
 30
0.0
 10
-4.2906299686
 20
-22.1658762254
 30
0.0
 10
-4.2660737826
 20
-22.166872681
 30
0.0
 10
-4.2492390527
 20
-22.1678348727
 30
0.0
 10
-4.2391578903
 20
-22.1687707251
 30
0.0
 10
-4.2340538679
 20
-22.1693456319
 30
0.0
 10
-4.2311014078
 20
-22.1700200361
 30
0.0
 10
-4.2293319871
 20
-22.1704240896
 30
0.0
 10
-4.2291148487
 20
-22.1708551281
 30
0.0
  0
SPLINE
  5
64D
100
AcDbEntity
  8
RACCORDO
100
AcDbSpline
 62
250
  6
CONTINUOUS
 70
0
 71
3
 72
17
 73
13
 74
0
 42
0.0000001
 43
0.0000001
 44
0.0000000001
 40
0.0
 40
0.0
 40
0.0
 40
0.0
 40
0.007228056
 40
0.0233019243
 40
0.0484350453
 40
0.0824620884
 40
0.1759247291
 40
0.3002660244
 40
0.4508328795
 40
0.6219633276
 40
0.8073469637
 40
1.0
 40
1.0
 40
1.0
 40
1.0
 10
-7.0208851513
 20
-22.1708549851
 30
0.0
 10
-7.0206682578
 20
-22.1704237202
 30
0.0
 10
-7.0188981962
 20
-22.1700188188
 30
0.0
 10
-7.0159443211
 20
-22.169344789
 30
0.0
 10
-7.0108381884
 20
-22.1687706672
 30
0.0
 10
-7.0007523305
 20
-22.167834617
 30
0.0
 10
-6.983911401
 20
-22.1668716561
 30
0.0
 10
-6.9593506335
 20
-22.1658754411
 30
0.0
 10
-6.9295639129
 20
-22.1650656264
 30
0.0
 10
-6.8957056535
 20
-22.1644543774
 30
0.0
 10
-6.8590296843
 20
-22.164079259
 30
0.0
 10
-6.8337821703
 20
-22.1639945433
 30
0.0
 10
-6.8209156123
 20
-22.1639945129
 30
0.0
  0
SPLINE
  5
64E
100
AcDbEntity
  8
RACCORDO
100
AcDbSpline
 62
250
  6
CONTINUOUS
 70
0
 71
3
 72
11
 73
7
 74
0
 42
0.0000001
 43
0.0000001
 44
0.0000000001
 40
0.0
 40
0.0
 40
0.0
 40
0.0
 40
0.24995601
 40
0.5000800871
 40
0.7501840137
 40
1.0
 40
1.0
 40
1.0
 40
1.0
 10
40.3582501673
 20
-39.8867151501
 30
0.0
 10
40.4267292188
 20
-39.8867114974
 30
0.0
 10
40.5650394842
 20
-39.8571172365
 30
0.0
 10
40.7387192802
 20
-39.7386300772
 30
0.0
 10
40.8571404011
 20
-39.5649545979
 30
0.0
 10
40.8867130527
 20
-39.4266908574
 30
0.0
 10
40.8867151501
 20
-39.3582501673
 30
0.0
  0
SPLINE
  5
64F
100
AcDbEntity
  8
RACCORDO
100
AcDbSpline
 62
250
  6
CONTINUOUS
 70
0
 71
3
 72
11
 73
7
 74
0
 42
0.0000001
 43
0.0000001
 44
0.0000000001
 40
0.0
 40
0.0
 40
0.0
 40
0.0
 40
0.24995601
 40
0.5000800871
 40
0.7501840137
 40
1.0
 40
1.0
 40
1.0
 40
1.0
 10
-40.8867151501
 20
-39.3582501673
 30
0.0
 10
-40.8867114974
 20
-39.4267292188
 30
0.0
 10
-40.8571172365
 20
-39.5650394842
 30
0.0
 10
-40.7386300772
 20
-39.7387192802
 30
0.0
 10
-40.5649545979
 20
-39.8571404011
 30
0.0
 10
-40.4266908574
 20
-39.8867130527
 30
0.0
 10
-40.3582501673
 20
-39.8867151501
 30
0.0
  0
SPLINE
  5
650
100
AcDbEntity
  8
RACCORDO
100
AcDbSpline
 62
250
  6
CONTINUOUS
 70
0
 71
3
 72
11
 73
7
 74
0
 42
0.0000001
 43
0.0000001
 44
0.0000000001
 40
0.0
 40
0.0
 40
0.0
 40
0.0
 40
0.24995601
 40
0.5000800871
 40
0.7501840137
 40
1.0
 40
1.0
 40
1.0
 40
1.0
 10
-40.3582501673
 20
39.8867151501
 30
0.0
 10
-40.4267292188
 20
39.8867114974
 30
0.0
 10
-40.5650394842
 20
39.8571172365
 30
0.0
 10
-40.7387192802
 20
39.7386300772
 30
0.0
 10
-40.8571404011
 20
39.5649545979
 30
0.0
 10
-40.8867130527
 20
39.4266908574
 30
0.0
 10
-40.8867151501
 20
39.3582501673
 30
0.0
  0
SPLINE
  5
651
100
AcDbEntity
  8
RACCORDO
100
AcDbSpline
 62
250
  6
CONTINUOUS
 70
0
 71
3
 72
11
 73
7
 74
0
 42
0.0000001
 43
0.0000001
 44
0.0000000001
 40
0.0
 40
0.0
 40
0.0
 40
0.0
 40
0.24995601
 40
0.5000800871
 40
0.7501840137
 40
1.0
 40
1.0
 40
1.0
 40
1.0
 10
40.8867151501
 20
39.3582501673
 30
0.0
 10
40.8867114974
 20
39.4267292188
 30
0.0
 10
40.8571172365
 20
39.5650394842
 30
0.0
 10
40.7386300772
 20
39.7387192802
 30
0.0
 10
40.5649545979
 20
39.8571404011
 30
0.0
 10
40.4266908574
 20
39.8867130527
 30
0.0
 10
40.3582501673
 20
39.8867151501
 30
0.0
  0
SPLINE
  5
652
100
AcDbEntity
  8
RACCORDO
100
AcDbSpline
 62
250
  6
CONTINUOUS
 70
0
 71
3
 72
14
 73
10
 74
0
 42
0.0000001
 43
0.0000001
 44
0.0000000001
 40
0.0
 40
0.0
 40
0.0
 40
0.0
 40
0.0517931836
 40
0.1240512036
 40
0.221530229
 40
0.3436507748
 40
0.4873979209
 40
0.6483113816
 40
1.0
 40
1.0
 40
1.0
 40
1.0
 10
22.2742558566
 20
-29.8921300621
 30
0.0
 10
22.2735419373
 20
-29.8866454362
 30
0.0
 10
22.2662463125
 20
-29.8745119743
 30
0.0
 10
22.2466651277
 20
-29.8609173757
 30
0.0
 10
22.2180915324
 20
-29.8481531196
 30
0.0
 10
22.1808683574
 20
-29.836969835
 30
0.0
 10
22.1362233426
 20
-29.827601521
 30
0.0
 10
22.0667815718
 20
-29.817839851
 30
0.0
 10
22.0119933337
 20
-29.8148122085
 30
0.0
 10
21.9744386085
 20
-29.8144843486
 30
0.0
  0
SPLINE
  5
653
100
AcDbEntity
  8
RACCORDO
100
AcDbSpline
 62
250
  6
CONTINUOUS
 70
0
 71
3
 72
14
 73
10
 74
0
 42
0.0000001
 43
0.0000001
 44
0.0000000001
 40
0.0
 40
0.0
 40
0.0
 40
0.0
 40
0.05180525
 40
0.1240717289
 40
0.2215518009
 40
0.3436735324
 40
0.4874201427
 40
0.6483308059
 40
1.0
 40
1.0
 40
1.0
 40
1.0
 10
22.3104367772
 20
-26.0254044428
 30
0.0
 10
22.3097226929
 20
-26.0199185485
 30
0.0
 10
22.3024224073
 20
-26.0077848676
 30
0.0
 10
22.2828417076
 20
-25.9941872758
 30
0.0
 10
22.2542650563
 20
-25.9814255541
 30
0.0
 10
22.2170421855
 20
-25.9702422057
 30
0.0
 10
22.1723971379
 20
-25.9608748207
 30
0.0
 10
22.1029579109
 20
-25.9511139296
 30
0.0
 10
22.0481721164
 20
-25.9480865706
 30
0.0
 10
22.0106195291
 20
-25.9477587293
 30
0.0
  0
SPLINE
  5
654
100
AcDbEntity
  8
RACCORDO
100
AcDbSpline
 62
250
  6
CONTINUOUS
 70
0
 71
3
 72
11
 73
7
 74
0
 42
0.0000001
 43
0.0000001
 44
0.0000000001
 40
0.0
 40
0.0
 40
0.0
 40
0.0
 40
0.2484590363
 40
0.4980598667
 40
0.7487968382
 40
1.0
 40
1.0
 40
1.0
 40
1.0
 10
22.3104367772
 20
-26.0254044428
 30
0.0
 10
22.3102227173
 20
-25.9869446283
 30
0.0
 10
22.2941896827
 20
-25.9090968246
 30
0.0
 10
22.2272684886
 20
-25.8109346012
 30
0.0
 10
22.1279364522
 20
-25.7450764436
 30
0.0
 10
22.0495041445
 20
-25.7293626903
 30
0.0
 10
22.0106195291
 20
-25.7291514214
 30
0.0
  0
SPLINE
  5
655
100
AcDbEntity
  8
RACCORDO
100
AcDbSpline
 62
250
  6
CONTINUOUS
 70
0
 71
3
 72
11
 73
7
 74
0
 42
0.0000001
 43
0.0000001
 44
0.0000000001
 40
0.0
 40
0.0
 40
0.0
 40
0.0
 40
0.2484589425
 40
0.4980596404
 40
0.7487966522
 40
1.0
 40
1.0
 40
1.0
 40
1.0
 10
16.0395632228
 20
-26.0254044428
 30
0.0
 10
16.0397773018
 20
-25.9869446748
 30
0.0
 10
16.0558103376
 20
-25.9090969906
 30
0.0
 10
16.1227316078
 20
-25.8109348584
 30
0.0
 10
16.2220637836
 20
-25.7450773499
 30
0.0
 10
16.300495859
 20
-25.7293626898
 30
0.0
 10
16.3393804709
 20
-25.7291514214
 30
0.0
  0
SPLINE
  5
656
100
AcDbEntity
  8
RACCORDO
100
AcDbSpline
 62
250
  6
CONTINUOUS
 70
0
 71
3
 72
14
 73
10
 74
0
 42
0.0000001
 43
0.0000001
 44
0.0000000001
 40
0.0
 40
0.0
 40
0.0
 40
0.0
 40
0.0518051491
 40
0.1240711743
 40
0.2215509111
 40
0.3436722311
 40
0.4874177178
 40
0.6483279429
 40
1.0
 40
1.0
 40
1.0
 40
1.0
 10
16.0395632228
 20
-26.0254044428
 30
0.0
 10
16.0402773058
 20
-26.019918559
 30
0.0
 10
16.0475775361
 20
-26.0077849227
 30
0.0
 10
16.0671581377
 20
-25.9941873505
 30
0.0
 10
16.0957346711
 20
-25.9814256786
 30
0.0
 10
16.1329573314
 20
-25.9702423295
 30
0.0
 10
16.1776021615
 20
-25.960874924
 30
0.0
 10
16.2470415226
 20
-25.9511139776
 30
0.0
 10
16.3018275772
 20
-25.9480865733
 30
0.0
 10
16.3393804709
 20
-25.9477587293
 30
0.0
  0
SPLINE
  5
657
100
AcDbEntity
  8
RACCORDO
100
AcDbSpline
 62
250
  6
CONTINUOUS
 70
0
 71
3
 72
14
 73
10
 74
0
 42
0.0000001
 43
0.0000001
 44
0.0000000001
 40
0.0
 40
0.0
 40
0.0
 40
0.0
 40
0.0517899824
 40
0.1240635895
 40
0.2215448638
 40
0.3436899485
 40
0.4873893289
 40
0.6483064047
 40
1.0
 40
1.0
 40
1.0
 40
1.0
 10
16.0397038624
 20
-26.04043487
 30
0.0
 10
16.0404177295
 20
-26.0349506438
 30
0.0
 10
16.0477287739
 20
-26.0228248011
 30
0.0
 10
16.0672933881
 20
-26.0092127371
 30
0.0
 10
16.0958781195
 20
-25.9964529391
 30
0.0
 10
16.1330998898
 20
-25.9852810536
 30
0.0
 10
16.1777401843
 20
-25.9759013821
 30
0.0
 10
16.2471781245
 20
-25.9661465116
 30
0.0
 10
16.30196627
 20
-25.9631170169
 30
0.0
 10
16.3395211105
 20
-25.9627891564
 30
0.0
  0
SPLINE
  5
658
100
AcDbEntity
  8
RACCORDO
100
AcDbSpline
 62
250
  6
CONTINUOUS
 70
0
 71
3
 72
14
 73
10
 74
0
 42
0.0000001
 43
0.0000001
 44
0.0000000001
 40
0.0
 40
0.0
 40
0.0
 40
0.0
 40
0.0482733811
 40
0.1195779323
 40
0.2180934076
 40
0.3423674769
 40
0.4884787321
 40
0.6510079403
 40
1.0
 40
1.0
 40
1.0
 40
1.0
 10
9.9704184416
 20
-27.6695514894
 30
0.0
 10
9.9690011308
 20
-27.6641387136
 30
0.0
 10
9.9722660898
 20
-27.6495029155
 30
0.0
 10
9.9873863978
 20
-27.6291663601
 30
0.0
 10
10.0121020928
 20
-27.6054667959
 30
0.0
 10
10.0463027194
 20
-27.5797227028
 30
0.0
 10
10.0886298137
 20
-27.5526938918
 30
0.0
 10
10.1553209426
 20
-27.5157213093
 30
0.0
 10
10.2093878682
 20
-27.4910712321
 30
0.0
 10
10.2469402307
 20
-27.4760348245
 30
0.0
  0
SPLINE
  5
659
100
AcDbEntity
  8
RACCORDO
100
AcDbSpline
 62
250
  6
CONTINUOUS
 70
0
 71
3
 72
13
 73
9
 74
0
 42
0.0000001
 43
0.0000001
 44
0.0000000001
 40
0.0
 40
0.0
 40
0.0
 40
0.0
 40
0.1215099514
 40
0.2189392137
 40
0.3409968018
 40
0.4848081187
 40
0.6460798989
 40
1.0
 40
1.0
 40
1.0
 40
1.0
 10
10.3312404827
 20
-29.8651456556
 30
0.0
 10
10.3340013523
 20
-29.8527980527
 30
0.0
 10
10.3567332136
 20
-29.8381854134
 30
0.0
 10
10.3892372399
 20
-29.8271550298
 30
0.0
 10
10.4266977237
 20
-29.8191572753
 30
0.0
 10
10.4707609916
 20
-29.8138425387
 30
0.0
 10
10.5393658385
 20
-29.8100875554
 30
0.0
 10
10.5930928842
 20
-29.8117085823
 30
0.0
 10
10.6298409282
 20
-29.8144843484
 30
0.0
  0
SPLINE
  5
65A
100
AcDbEntity
  8
RACCORDO
100
AcDbSpline
 62
250
  6
CONTINUOUS
 70
0
 71
3
 72
13
 73
9
 74
0
 42
0.0000001
 43
0.0000001
 44
0.0000000001
 40
0.0
 40
0.0
 40
0.0
 40
0.0
 40
0.1213782019
 40
0.2186216264
 40
0.3404747297
 40
0.4841336446
 40
0.6453912484
 40
1.0
 40
1.0
 40
1.0
 40
1.0
 10
11.3324302691
 20
29.8518935054
 30
0.0
 10
11.3357034408
 20
29.8398350317
 30
0.0
 10
11.358720547
 20
29.8263909716
 30
0.0
 10
11.3912510658
 20
29.8168879691
 30
0.0
 10
11.4285311508
 20
29.8105858058
 30
0.0
 10
11.4722398722
 20
29.8072003599
 30
0.0
 10
11.5402131831
 20
29.8063766744
 30
0.0
 10
11.5932810136
 20
29.8102232133
 30
0.0
 10
11.6295353037
 20
29.8144843486
 30
0.0
  0
SPLINE
  5
65B
100
AcDbEntity
  8
RACCORDO
100
AcDbSpline
 62
250
  6
CONTINUOUS
 70
0
 71
3
 72
14
 73
10
 74
0
 42
0.0000001
 43
0.0000001
 44
0.0000000001
 40
0.0
 40
0.0
 40
0.0
 40
0.0
 40
0.0489421756
 40
0.1204815671
 40
0.2189052756
 40
0.342895582
 40
0.4886559172
 40
0.6508998155
 40
1.0
 40
1.0
 40
1.0
 40
1.0
 10
11.0746578647
 20
27.6562402101
 30
0.0
 10
11.0734793913
 20
27.6507392625
 30
0.0
 10
11.0772228819
 20
27.6362643358
 30
0.0
 10
11.0929950502
 20
27.6165429412
 30
0.0
 10
11.1183900253
 20
27.5940286549
 30
0.0
 10
11.1532557906
 20
27.569947485
 30
0.0
 10
11.1962395495
 20
27.544998871
 30
0.0
 10
11.2638557641
 20
27.5112675747
 30
0.0
 10
11.3185001312
 20
27.4892547964
 30
0.0
 10
11.3563880561
 20
27.4760348245
 30
0.0
  0
SPLINE
  5
65C
100
AcDbEntity
  8
RACCORDO
100
AcDbSpline
 62
250
  6
CONTINUOUS
 70
0
 71
3
 72
14
 73
10
 74
0
 42
0.0000001
 43
0.0000001
 44
0.0000000001
 40
0.0
 40
0.0
 40
0.0
 40
0.0
 40
0.0517899843
 40
0.124063599
 40
0.2215448847
 40
0.3436899767
 40
0.4873893647
 40
0.6483064371
 40
1.0
 40
1.0
 40
1.0
 40
1.0
 10
16.0397038624
 20
26.04043487
 30
0.0
 10
16.0404177296
 20
26.0349506436
 30
0.0
 10
16.0477287762
 20
26.0228248009
 30
0.0
 10
16.0672933917
 20
26.0092127356
 30
0.0
 10
16.0958781266
 20
25.9964529381
 30
0.0
 10
16.1330998994
 20
25.9852810526
 30
0.0
 10
16.1777401952
 20
25.9759013816
 30
0.0
 10
16.2471781321
 20
25.9661465122
 30
0.0
 10
16.3019662736
 20
25.9631170174
 30
0.0
 10
16.3395211105
 20
25.9627891564
 30
0.0
  0
SPLINE
  5
65D
100
AcDbEntity
  8
RACCORDO
100
AcDbSpline
 62
250
  6
CONTINUOUS
 70
0
 71
3
 72
14
 73
10
 74
0
 42
0.0000001
 43
0.0000001
 44
0.0000000001
 40
0.0
 40
0.0
 40
0.0
 40
0.0
 40
0.05180525
 40
0.1240717289
 40
0.2215518009
 40
0.3436735324
 40
0.4874201427
 40
0.6483308059
 40
1.0
 40
1.0
 40
1.0
 40
1.0
 10
16.0395632228
 20
26.0254044428
 30
0.0
 10
16.0402773071
 20
26.0199185485
 30
0.0
 10
16.0475775927
 20
26.0077848676
 30
0.0
 10
16.0671582924
 20
25.9941872758
 30
0.0
 10
16.0957349437
 20
25.9814255541
 30
0.0
 10
16.1329578145
 20
25.9702422057
 30
0.0
 10
16.1776028621
 20
25.9608748207
 30
0.0
 10
16.2470420891
 20
25.9511139296
 30
0.0
 10
16.3018278836
 20
25.9480865706
 30
0.0
 10
16.3393804709
 20
25.9477587293
 30
0.0
  0
SPLINE
  5
65E
100
AcDbEntity
  8
RACCORDO
100
AcDbSpline
 62
250
  6
CONTINUOUS
 70
0
 71
3
 72
11
 73
7
 74
0
 42
0.0000001
 43
0.0000001
 44
0.0000000001
 40
0.0
 40
0.0
 40
0.0
 40
0.0
 40
0.2484590363
 40
0.4980598667
 40
0.7487968382
 40
1.0
 40
1.0
 40
1.0
 40
1.0
 10
16.0395632228
 20
26.0254044428
 30
0.0
 10
16.0397772827
 20
25.9869446283
 30
0.0
 10
16.0558103173
 20
25.9090968246
 30
0.0
 10
16.1227315114
 20
25.8109346012
 30
0.0
 10
16.2220635478
 20
25.7450764436
 30
0.0
 10
16.3004958555
 20
25.7293626903
 30
0.0
 10
16.3393804709
 20
25.7291514214
 30
0.0
  0
SPLINE
  5
65F
100
AcDbEntity
  8
RACCORDO
100
AcDbSpline
 62
250
  6
CONTINUOUS
 70
0
 71
3
 72
11
 73
7
 74
0
 42
0.0000001
 43
0.0000001
 44
0.0000000001
 40
0.0
 40
0.0
 40
0.0
 40
0.0
 40
0.2496520539
 40
0.5000706363
 40
0.7504717218
 40
1.0
 40
1.0
 40
1.0
 40
1.0
 10
-41.0582501673
 20
-39.3582501673
 30
0.0
 10
-41.0520760088
 20
-39.4472531123
 30
0.0
 10
-41.0054592741
 20
-39.6246204814
 30
0.0
 10
-40.8484608366
 20
-39.8485632076
 30
0.0
 10
-40.6245247576
 20
-40.0054875097
 30
0.0
 10
-40.447209278
 20
-40.0520832911
 30
0.0
 10
-40.3582501673
 20
-40.0582501673
 30
0.0
  0
SPLINE
  5
660
100
AcDbEntity
  8
RACCORDO
100
AcDbSpline
 62
250
  6
CONTINUOUS
 70
0
 71
3
 72
11
 73
7
 74
0
 42
0.0000001
 43
0.0000001
 44
0.0000000001
 40
0.0
 40
0.0
 40
0.0
 40
0.0
 40
0.2499920233
 40
0.4999640653
 40
0.749946345
 40
1.0
 40
1.0
 40
1.0
 40
1.0
 10
-43.9693223716
 20
-42.3097714202
 30
0.0
 10
-43.9632194836
 20
-42.393864109
 30
0.0
 10
-43.9207912715
 20
-42.5613822958
 30
0.0
 10
-43.7736790782
 20
-42.7736304592
 30
0.0
 10
-43.5614274359
 20
-42.9207761423
 30
0.0
 10
-43.3938847451
 20
-42.9632167187
 30
0.0
 10
-43.3097714076
 20
-42.9693222556
 30
0.0
  0
SPLINE
  5
661
100
AcDbEntity
  8
RACCORDO
100
AcDbSpline
 62
250
  6
CONTINUOUS
 70
0
 71
3
 72
11
 73
7
 74
0
 42
0.0000001
 43
0.0000001
 44
0.0000000001
 40
0.0
 40
0.0
 40
0.0
 40
0.0
 40
0.2496520539
 40
0.5000706363
 40
0.7504717218
 40
1.0
 40
1.0
 40
1.0
 40
1.0
 10
-40.3582501673
 20
40.0582501673
 30
0.0
 10
-40.4472531123
 20
40.0520760088
 30
0.0
 10
-40.6246204814
 20
40.0054592741
 30
0.0
 10
-40.8485632076
 20
39.8484608366
 30
0.0
 10
-41.0054875097
 20
39.6245247576
 30
0.0
 10
-41.0520832911
 20
39.447209278
 30
0.0
 10
-41.0582501673
 20
39.3582501673
 30
0.0
  0
SPLINE
  5
662
100
AcDbEntity
  8
RACCORDO
100
AcDbSpline
 62
250
  6
CONTINUOUS
 70
0
 71
3
 72
11
 73
7
 74
0
 42
0.0000001
 43
0.0000001
 44
0.0000000001
 40
0.0
 40
0.0
 40
0.0
 40
0.0
 40
0.2499920233
 40
0.4999640653
 40
0.749946345
 40
1.0
 40
1.0
 40
1.0
 40
1.0
 10
-43.3097714202
 20
42.9693223716
 30
0.0
 10
-43.393864109
 20
42.9632194836
 30
0.0
 10
-43.5613822958
 20
42.9207912715
 30
0.0
 10
-43.7736304592
 20
42.7736790782
 30
0.0
 10
-43.9207761423
 20
42.5614274359
 30
0.0
 10
-43.9632167187
 20
42.3938847451
 30
0.0
 10
-43.9693222556
 20
42.3097714076
 30
0.0
  0
SPLINE
  5
663
100
AcDbEntity
  8
RACCORDO
100
AcDbSpline
 62
250
  6
CONTINUOUS
 70
0
 71
3
 72
11
 73
7
 74
0
 42
0.0000001
 43
0.0000001
 44
0.0000000001
 40
0.0
 40
0.0
 40
0.0
 40
0.0
 40
0.2496520539
 40
0.5000706363
 40
0.7504717218
 40
1.0
 40
1.0
 40
1.0
 40
1.0
 10
41.0582501673
 20
39.3582501673
 30
0.0
 10
41.0520760088
 20
39.4472531123
 30
0.0
 10
41.0054592741
 20
39.6246204814
 30
0.0
 10
40.8484608366
 20
39.8485632076
 30
0.0
 10
40.6245247576
 20
40.0054875097
 30
0.0
 10
40.447209278
 20
40.0520832911
 30
0.0
 10
40.3582501673
 20
40.0582501673
 30
0.0
  0
SPLINE
  5
664
100
AcDbEntity
  8
RACCORDO
100
AcDbSpline
 62
250
  6
CONTINUOUS
 70
0
 71
3
 72
11
 73
7
 74
0
 42
0.0000001
 43
0.0000001
 44
0.0000000001
 40
0.0
 40
0.0
 40
0.0
 40
0.0
 40
0.2499920233
 40
0.4999640653
 40
0.749946345
 40
1.0
 40
1.0
 40
1.0
 40
1.0
 10
43.9693223716
 20
42.3097714202
 30
0.0
 10
43.9632194836
 20
42.393864109
 30
0.0
 10
43.9207912715
 20
42.5613822958
 30
0.0
 10
43.7736790782
 20
42.7736304592
 30
0.0
 10
43.5614274359
 20
42.9207761423
 30
0.0
 10
43.3938847451
 20
42.9632167187
 30
0.0
 10
43.3097714076
 20
42.9693222556
 30
0.0
  0
SPLINE
  5
665
100
AcDbEntity
  8
RACCORDO
100
AcDbSpline
 62
250
  6
CONTINUOUS
 70
0
 71
3
 72
11
 73
7
 74
0
 42
0.0000001
 43
0.0000001
 44
0.0000000001
 40
0.0
 40
0.0
 40
0.0
 40
0.0
 40
0.2496520539
 40
0.5000706363
 40
0.7504717218
 40
1.0
 40
1.0
 40
1.0
 40
1.0
 10
40.3582501673
 20
-40.0582501673
 30
0.0
 10
40.4472531123
 20
-40.0520760088
 30
0.0
 10
40.6246204814
 20
-40.0054592741
 30
0.0
 10
40.8485632076
 20
-39.8484608366
 30
0.0
 10
41.0054875097
 20
-39.6245247576
 30
0.0
 10
41.0520832911
 20
-39.447209278
 30
0.0
 10
41.0582501673
 20
-39.3582501673
 30
0.0
  0
SPLINE
  5
666
100
AcDbEntity
  8
RACCORDO
100
AcDbSpline
 62
250
  6
CONTINUOUS
 70
0
 71
3
 72
11
 73
7
 74
0
 42
0.0000001
 43
0.0000001
 44
0.0000000001
 40
0.0
 40
0.0
 40
0.0
 40
0.0
 40
0.2499920233
 40
0.4999640653
 40
0.749946345
 40
1.0
 40
1.0
 40
1.0
 40
1.0
 10
43.3097714202
 20
-42.9693223716
 30
0.0
 10
43.393864109
 20
-42.9632194836
 30
0.0
 10
43.5613822958
 20
-42.9207912715
 30
0.0
 10
43.7736304592
 20
-42.7736790782
 30
0.0
 10
43.9207761423
 20
-42.5614274359
 30
0.0
 10
43.9632167187
 20
-42.3938847451
 30
0.0
 10
43.9693222556
 20
-42.3097714076
 30
0.0
  0
SPLINE
  5
667
100
AcDbEntity
  8
RACCORDO
100
AcDbSpline
 62
250
  6
CONTINUOUS
 70
0
 71
3
 72
11
 73
7
 74
0
 42
0.0000001
 43
0.0000001
 44
0.0000000001
 40
0.0
 40
0.0
 40
0.0
 40
0.0
 40
0.2484589425
 40
0.4980596404
 40
0.7487966522
 40
1.0
 40
1.0
 40
1.0
 40
1.0
 10
22.3104367772
 20
26.0254044428
 30
0.0
 10
22.3102226982
 20
25.9869446748
 30
0.0
 10
22.2941896624
 20
25.9090969906
 30
0.0
 10
22.2272683922
 20
25.8109348584
 30
0.0
 10
22.1279362164
 20
25.7450773499
 30
0.0
 10
22.049504141
 20
25.7293626898
 30
0.0
 10
22.0106195291
 20
25.7291514214
 30
0.0
  0
SPLINE
  5
668
100
AcDbEntity
  8
RACCORDO
100
AcDbSpline
 62
250
  6
CONTINUOUS
 70
0
 71
3
 72
14
 73
10
 74
0
 42
0.0000001
 43
0.0000001
 44
0.0000000001
 40
0.0
 40
0.0
 40
0.0
 40
0.0
 40
0.0518051491
 40
0.1240711743
 40
0.2215509111
 40
0.3436722311
 40
0.4874177178
 40
0.6483279429
 40
1.0
 40
1.0
 40
1.0
 40
1.0
 10
22.3104367772
 20
26.0254044428
 30
0.0
 10
22.3097226942
 20
26.019918559
 30
0.0
 10
22.3024224639
 20
26.0077849227
 30
0.0
 10
22.2828418623
 20
25.9941873505
 30
0.0
 10
22.2542653289
 20
25.9814256786
 30
0.0
 10
22.2170426686
 20
25.9702423295
 30
0.0
 10
22.1723978385
 20
25.960874924
 30
0.0
 10
22.1029584774
 20
25.9511139776
 30
0.0
 10
22.0481724228
 20
25.9480865733
 30
0.0
 10
22.0106195291
 20
25.9477587293
 30
0.0
  0
SPLINE
  5
669
100
AcDbEntity
  8
RACCORDO
100
AcDbSpline
 62
250
  6
CONTINUOUS
 70
0
 71
3
 72
14
 73
10
 74
0
 42
0.0000001
 43
0.0000001
 44
0.0000000001
 40
0.0
 40
0.0
 40
0.0
 40
0.0
 40
0.0517931347
 40
0.1240473203
 40
0.2215251552
 40
0.3436473238
 40
0.4873939351
 40
0.6483081294
 40
1.0
 40
1.0
 40
1.0
 40
1.0
 10
22.2742558566
 20
29.8921300621
 30
0.0
 10
22.273541938
 20
29.8866454412
 30
0.0
 10
22.2662464605
 20
29.8745124274
 30
0.0
 10
22.2466661763
 20
29.8609175765
 30
0.0
 10
22.2180926595
 20
29.848153867
 30
0.0
 10
22.1808697093
 20
29.8369700597
 30
0.0
 10
22.1362244736
 20
29.8276016782
 30
0.0
 10
22.0667823494
 20
29.8178399606
 30
0.0
 10
22.0119936823
 20
29.8148122116
 30
0.0
 10
21.9744386085
 20
29.8144843486
 30
0.0
  0
SPLINE
  5
66A
100
AcDbEntity
  8
RACCORDO
100
AcDbSpline
 62
250
  6
CONTINUOUS
 70
0
 71
3
 72
14
 73
10
 74
0
 42
0.0000001
 43
0.0000001
 44
0.0000000001
 40
0.0
 40
0.0
 40
0.0
 40
0.0
 40
0.0518051491
 40
0.1240711743
 40
0.2215509111
 40
0.3436722311
 40
0.4874177178
 40
0.6483279429
 40
1.0
 40
1.0
 40
1.0
 40
1.0
 10
-22.3104367772
 20
26.0254044428
 30
0.0
 10
-22.3097226942
 20
26.019918559
 30
0.0
 10
-22.3024224639
 20
26.0077849227
 30
0.0
 10
-22.2828418623
 20
25.9941873505
 30
0.0
 10
-22.2542653289
 20
25.9814256786
 30
0.0
 10
-22.2170426686
 20
25.9702423295
 30
0.0
 10
-22.1723978385
 20
25.960874924
 30
0.0
 10
-22.1029584774
 20
25.9511139776
 30
0.0
 10
-22.0481724228
 20
25.9480865733
 30
0.0
 10
-22.0106195291
 20
25.9477587293
 30
0.0
  0
SPLINE
  5
66B
100
AcDbEntity
  8
RACCORDO
100
AcDbSpline
 62
250
  6
CONTINUOUS
 70
0
 71
3
 72
11
 73
7
 74
0
 42
0.0000001
 43
0.0000001
 44
0.0000000001
 40
0.0
 40
0.0
 40
0.0
 40
0.0
 40
0.2484590363
 40
0.4980598667
 40
0.7487968382
 40
1.0
 40
1.0
 40
1.0
 40
1.0
 10
-22.3104367772
 20
26.0254044428
 30
0.0
 10
-22.3102227173
 20
25.9869446283
 30
0.0
 10
-22.2941896827
 20
25.9090968246
 30
0.0
 10
-22.2272684886
 20
25.8109346012
 30
0.0
 10
-22.1279364522
 20
25.7450764436
 30
0.0
 10
-22.0495041445
 20
25.7293626903
 30
0.0
 10
-22.0106195291
 20
25.7291514214
 30
0.0
  0
SPLINE
  5
66C
100
AcDbEntity
  8
RACCORDO
100
AcDbSpline
 62
250
  6
CONTINUOUS
 70
0
 71
3
 72
11
 73
7
 74
0
 42
0.0000001
 43
0.0000001
 44
0.0000000001
 40
0.0
 40
0.0
 40
0.0
 40
0.0
 40
0.2484589425
 40
0.4980596404
 40
0.7487966522
 40
1.0
 40
1.0
 40
1.0
 40
1.0
 10
-16.0395632228
 20
26.0254044428
 30
0.0
 10
-16.0397773018
 20
25.9869446748
 30
0.0
 10
-16.0558103376
 20
25.9090969906
 30
0.0
 10
-16.1227316078
 20
25.8109348584
 30
0.0
 10
-16.2220637836
 20
25.7450773499
 30
0.0
 10
-16.300495859
 20
25.7293626898
 30
0.0
 10
-16.3393804709
 20
25.7291514214
 30
0.0
  0
SPLINE
  5
66D
100
AcDbEntity
  8
RACCORDO
100
AcDbSpline
 62
250
  6
CONTINUOUS
 70
0
 71
3
 72
14
 73
10
 74
0
 42
0.0000001
 43
0.0000001
 44
0.0000000001
 40
0.0
 40
0.0
 40
0.0
 40
0.0
 40
0.0518051491
 40
0.1240711743
 40
0.2215509111
 40
0.3436722311
 40
0.4874177178
 40
0.6483279429
 40
1.0
 40
1.0
 40
1.0
 40
1.0
 10
-16.0395632228
 20
26.0254044428
 30
0.0
 10
-16.0402773058
 20
26.019918559
 30
0.0
 10
-16.0475775361
 20
26.0077849227
 30
0.0
 10
-16.0671581377
 20
25.9941873505
 30
0.0
 10
-16.0957346711
 20
25.9814256786
 30
0.0
 10
-16.1329573314
 20
25.9702423295
 30
0.0
 10
-16.1776021615
 20
25.960874924
 30
0.0
 10
-16.2470415226
 20
25.9511139776
 30
0.0
 10
-16.3018275772
 20
25.9480865733
 30
0.0
 10
-16.3393804709
 20
25.9477587293
 30
0.0
  0
SPLINE
  5
66E
100
AcDbEntity
  8
RACCORDO
100
AcDbSpline
 62
250
  6
CONTINUOUS
 70
0
 71
3
 72
14
 73
10
 74
0
 42
0.0000001
 43
0.0000001
 44
0.0000000001
 40
0.0
 40
0.0
 40
0.0
 40
0.0
 40
0.0517899824
 40
0.1240635895
 40
0.2215448638
 40
0.3436899485
 40
0.4873893289
 40
0.6483064047
 40
1.0
 40
1.0
 40
1.0
 40
1.0
 10
-16.0397038624
 20
26.04043487
 30
0.0
 10
-16.0404177295
 20
26.0349506438
 30
0.0
 10
-16.0477287739
 20
26.0228248011
 30
0.0
 10
-16.0672933881
 20
26.0092127371
 30
0.0
 10
-16.0958781195
 20
25.9964529391
 30
0.0
 10
-16.1330998898
 20
25.9852810536
 30
0.0
 10
-16.1777401843
 20
25.9759013821
 30
0.0
 10
-16.2471781245
 20
25.9661465116
 30
0.0
 10
-16.30196627
 20
25.9631170169
 30
0.0
 10
-16.3395211105
 20
25.9627891564
 30
0.0
  0
SPLINE
  5
66F
100
AcDbEntity
  8
RACCORDO
100
AcDbSpline
 62
250
  6
CONTINUOUS
 70
0
 71
3
 72
14
 73
10
 74
0
 42
0.0000001
 43
0.0000001
 44
0.0000000001
 40
0.0
 40
0.0
 40
0.0
 40
0.0
 40
0.0482733811
 40
0.1195779323
 40
0.2180934076
 40
0.3423674769
 40
0.4884787321
 40
0.6510079403
 40
1.0
 40
1.0
 40
1.0
 40
1.0
 10
-9.9704184416
 20
27.6695514894
 30
0.0
 10
-9.9690011308
 20
27.6641387136
 30
0.0
 10
-9.9722660898
 20
27.6495029155
 30
0.0
 10
-9.9873863978
 20
27.6291663601
 30
0.0
 10
-10.0121020928
 20
27.6054667959
 30
0.0
 10
-10.0463027194
 20
27.5797227028
 30
0.0
 10
-10.0886298137
 20
27.5526938918
 30
0.0
 10
-10.1553209426
 20
27.5157213093
 30
0.0
 10
-10.2093878682
 20
27.4910712321
 30
0.0
 10
-10.2469402307
 20
27.4760348245
 30
0.0
  0
SPLINE
  5
670
100
AcDbEntity
  8
RACCORDO
100
AcDbSpline
 62
250
  6
CONTINUOUS
 70
0
 71
3
 72
13
 73
9
 74
0
 42
0.0000001
 43
0.0000001
 44
0.0000000001
 40
0.0
 40
0.0
 40
0.0
 40
0.0
 40
0.1215099514
 40
0.2189392137
 40
0.3409968018
 40
0.4848081187
 40
0.6460798989
 40
1.0
 40
1.0
 40
1.0
 40
1.0
 10
-10.3312404827
 20
29.8651456556
 30
0.0
 10
-10.3340013523
 20
29.8527980527
 30
0.0
 10
-10.3567332136
 20
29.8381854134
 30
0.0
 10
-10.3892372399
 20
29.8271550298
 30
0.0
 10
-10.4266977237
 20
29.8191572753
 30
0.0
 10
-10.4707609916
 20
29.8138425387
 30
0.0
 10
-10.5393658385
 20
29.8100875554
 30
0.0
 10
-10.5930928842
 20
29.8117085823
 30
0.0
 10
-10.6298409282
 20
29.8144843484
 30
0.0
  0
SPLINE
  5
671
100
AcDbEntity
  8
RACCORDO
100
AcDbSpline
 62
250
  6
CONTINUOUS
 70
0
 71
3
 72
14
 73
10
 74
0
 42
0.0000001
 43
0.0000001
 44
0.0000000001
 40
0.0
 40
0.0
 40
0.0
 40
0.0
 40
0.0517931836
 40
0.1240512036
 40
0.221530229
 40
0.3436507748
 40
0.4873979209
 40
0.6483113816
 40
1.0
 40
1.0
 40
1.0
 40
1.0
 10
-22.2742558566
 20
29.8921300621
 30
0.0
 10
-22.2735419373
 20
29.8866454362
 30
0.0
 10
-22.2662463125
 20
29.8745119743
 30
0.0
 10
-22.2466651277
 20
29.8609173757
 30
0.0
 10
-22.2180915324
 20
29.8481531196
 30
0.0
 10
-22.1808683574
 20
29.836969835
 30
0.0
 10
-22.1362233426
 20
29.827601521
 30
0.0
 10
-22.0667815718
 20
29.817839851
 30
0.0
 10
-22.0119933337
 20
29.8148122085
 30
0.0
 10
-21.9744386085
 20
29.8144843486
 30
0.0
  0
SPLINE
  5
672
100
AcDbEntity
  8
RACCORDO
100
AcDbSpline
 62
250
  6
CONTINUOUS
 70
0
 71
3
 72
14
 73
10
 74
0
 42
0.0000001
 43
0.0000001
 44
0.0000000001
 40
0.0
 40
0.0
 40
0.0
 40
0.0
 40
0.0517931836
 40
0.1240512036
 40
0.221530229
 40
0.3436507748
 40
0.4873979209
 40
0.6483113816
 40
1.0
 40
1.0
 40
1.0
 40
1.0
 10
-22.2742558566
 20
-29.8921300621
 30
0.0
 10
-22.2735419373
 20
-29.8866454362
 30
0.0
 10
-22.2662463125
 20
-29.8745119743
 30
0.0
 10
-22.2466651278
 20
-29.8609173757
 30
0.0
 10
-22.2180915324
 20
-29.8481531196
 30
0.0
 10
-22.1808683574
 20
-29.836969835
 30
0.0
 10
-22.1362233426
 20
-29.827601521
 30
0.0
 10
-22.0667815718
 20
-29.817839851
 30
0.0
 10
-22.0119933337
 20
-29.8148122085
 30
0.0
 10
-21.9744386085
 20
-29.8144843486
 30
0.0
  0
SPLINE
  5
673
100
AcDbEntity
  8
RACCORDO
100
AcDbSpline
 62
250
  6
CONTINUOUS
 70
0
 71
3
 72
13
 73
9
 74
0
 42
0.0000001
 43
0.0000001
 44
0.0000000001
 40
0.0
 40
0.0
 40
0.0
 40
0.0
 40
0.1213782019
 40
0.2186216264
 40
0.3404747297
 40
0.4841336446
 40
0.6453912484
 40
1.0
 40
1.0
 40
1.0
 40
1.0
 10
-11.3324302691
 20
-29.8518935054
 30
0.0
 10
-11.3357034408
 20
-29.8398350317
 30
0.0
 10
-11.358720547
 20
-29.8263909716
 30
0.0
 10
-11.3912510658
 20
-29.8168879691
 30
0.0
 10
-11.4285311508
 20
-29.8105858058
 30
0.0
 10
-11.4722398722
 20
-29.8072003599
 30
0.0
 10
-11.5402131831
 20
-29.8063766744
 30
0.0
 10
-11.5932810136
 20
-29.8102232133
 30
0.0
 10
-11.6295353037
 20
-29.8144843486
 30
0.0
  0
SPLINE
  5
674
100
AcDbEntity
  8
RACCORDO
100
AcDbSpline
 62
250
  6
CONTINUOUS
 70
0
 71
3
 72
14
 73
10
 74
0
 42
0.0000001
 43
0.0000001
 44
0.0000000001
 40
0.0
 40
0.0
 40
0.0
 40
0.0
 40
0.0489421756
 40
0.1204815671
 40
0.2189052756
 40
0.342895582
 40
0.4886559172
 40
0.6508998155
 40
1.0
 40
1.0
 40
1.0
 40
1.0
 10
-11.0746578647
 20
-27.6562402101
 30
0.0
 10
-11.0734793913
 20
-27.6507392625
 30
0.0
 10
-11.0772228819
 20
-27.6362643358
 30
0.0
 10
-11.0929950502
 20
-27.6165429412
 30
0.0
 10
-11.1183900253
 20
-27.5940286549
 30
0.0
 10
-11.1532557906
 20
-27.569947485
 30
0.0
 10
-11.1962395495
 20
-27.544998871
 30
0.0
 10
-11.2638557641
 20
-27.5112675747
 30
0.0
 10
-11.3185001312
 20
-27.4892547964
 30
0.0
 10
-11.3563880561
 20
-27.4760348245
 30
0.0
  0
SPLINE
  5
675
100
AcDbEntity
  8
RACCORDO
100
AcDbSpline
 62
250
  6
CONTINUOUS
 70
0
 71
3
 72
14
 73
10
 74
0
 42
0.0000001
 43
0.0000001
 44
0.0000000001
 40
0.0
 40
0.0
 40
0.0
 40
0.0
 40
0.0517899843
 40
0.124063599
 40
0.2215448847
 40
0.3436899767
 40
0.4873893647
 40
0.6483064371
 40
1.0
 40
1.0
 40
1.0
 40
1.0
 10
-16.0397038624
 20
-26.04043487
 30
0.0
 10
-16.0404177296
 20
-26.0349506436
 30
0.0
 10
-16.0477287762
 20
-26.0228248009
 30
0.0
 10
-16.0672933917
 20
-26.0092127356
 30
0.0
 10
-16.0958781266
 20
-25.9964529381
 30
0.0
 10
-16.1330998994
 20
-25.9852810526
 30
0.0
 10
-16.1777401952
 20
-25.9759013816
 30
0.0
 10
-16.2471781321
 20
-25.9661465122
 30
0.0
 10
-16.3019662736
 20
-25.9631170174
 30
0.0
 10
-16.3395211105
 20
-25.9627891564
 30
0.0
  0
SPLINE
  5
676
100
AcDbEntity
  8
RACCORDO
100
AcDbSpline
 62
250
  6
CONTINUOUS
 70
0
 71
3
 72
14
 73
10
 74
0
 42
0.0000001
 43
0.0000001
 44
0.0000000001
 40
0.0
 40
0.0
 40
0.0
 40
0.0
 40
0.05180525
 40
0.1240717289
 40
0.2215518009
 40
0.3436735324
 40
0.4874201427
 40
0.6483308059
 40
1.0
 40
1.0
 40
1.0
 40
1.0
 10
-16.0395632228
 20
-26.0254044428
 30
0.0
 10
-16.0402773071
 20
-26.0199185485
 30
0.0
 10
-16.0475775927
 20
-26.0077848676
 30
0.0
 10
-16.0671582924
 20
-25.9941872758
 30
0.0
 10
-16.0957349437
 20
-25.9814255541
 30
0.0
 10
-16.1329578145
 20
-25.9702422057
 30
0.0
 10
-16.1776028621
 20
-25.9608748207
 30
0.0
 10
-16.2470420891
 20
-25.9511139296
 30
0.0
 10
-16.3018278836
 20
-25.9480865706
 30
0.0
 10
-16.3393804709
 20
-25.9477587293
 30
0.0
  0
SPLINE
  5
677
100
AcDbEntity
  8
RACCORDO
100
AcDbSpline
 62
250
  6
CONTINUOUS
 70
0
 71
3
 72
11
 73
7
 74
0
 42
0.0000001
 43
0.0000001
 44
0.0000000001
 40
0.0
 40
0.0
 40
0.0
 40
0.0
 40
0.2484590363
 40
0.4980598667
 40
0.7487968382
 40
1.0
 40
1.0
 40
1.0
 40
1.0
 10
-16.0395632228
 20
-26.0254044428
 30
0.0
 10
-16.0397772827
 20
-25.9869446283
 30
0.0
 10
-16.0558103173
 20
-25.9090968246
 30
0.0
 10
-16.1227315114
 20
-25.8109346012
 30
0.0
 10
-16.2220635478
 20
-25.7450764436
 30
0.0
 10
-16.3004958555
 20
-25.7293626903
 30
0.0
 10
-16.3393804709
 20
-25.7291514214
 30
0.0
  0
SPLINE
  5
678
100
AcDbEntity
  8
RACCORDO
100
AcDbSpline
 62
250
  6
CONTINUOUS
 70
0
 71
3
 72
11
 73
7
 74
0
 42
0.0000001
 43
0.0000001
 44
0.0000000001
 40
0.0
 40
0.0
 40
0.0
 40
0.0
 40
0.2484589425
 40
0.4980596404
 40
0.7487966522
 40
1.0
 40
1.0
 40
1.0
 40
1.0
 10
-22.3104367772
 20
-26.0254044428
 30
0.0
 10
-22.3102226982
 20
-25.9869446748
 30
0.0
 10
-22.2941896624
 20
-25.9090969906
 30
0.0
 10
-22.2272683922
 20
-25.8109348584
 30
0.0
 10
-22.1279362164
 20
-25.7450773499
 30
0.0
 10
-22.049504141
 20
-25.7293626898
 30
0.0
 10
-22.0106195291
 20
-25.7291514214
 30
0.0
  0
SPLINE
  5
679
100
AcDbEntity
  8
RACCORDO
100
AcDbSpline
 62
250
  6
CONTINUOUS
 70
0
 71
3
 72
14
 73
10
 74
0
 42
0.0000001
 43
0.0000001
 44
0.0000000001
 40
0.0
 40
0.0
 40
0.0
 40
0.0
 40
0.0518051491
 40
0.1240711743
 40
0.2215509111
 40
0.3436722311
 40
0.4874177178
 40
0.6483279429
 40
1.0
 40
1.0
 40
1.0
 40
1.0
 10
-22.3104367772
 20
-26.0254044428
 30
0.0
 10
-22.3097226942
 20
-26.019918559
 30
0.0
 10
-22.3024224639
 20
-26.0077849227
 30
0.0
 10
-22.2828418623
 20
-25.9941873505
 30
0.0
 10
-22.2542653289
 20
-25.9814256786
 30
0.0
 10
-22.2170426686
 20
-25.9702423295
 30
0.0
 10
-22.1723978385
 20
-25.960874924
 30
0.0
 10
-22.1029584774
 20
-25.9511139776
 30
0.0
 10
-22.0481724228
 20
-25.9480865733
 30
0.0
 10
-22.0106195291
 20
-25.9477587293
 30
0.0
  0
SPLINE
  5
67A
100
AcDbEntity
  8
RACCORDO
100
AcDbSpline
 62
250
  6
CONTINUOUS
 70
0
 71
3
 72
11
 73
7
 74
0
 42
0.0000001
 43
0.0000001
 44
0.0000000001
 40
0.0
 40
0.0
 40
0.0
 40
0.0
 40
0.2499020898
 40
0.4999810686
 40
0.7500640451
 40
1.0
 40
1.0
 40
1.0
 40
1.0
 10
-9.5979597384
 20
27.4475427835
 30
0.0
 10
-9.5746201482
 20
27.4025802662
 30
0.0
 10
-9.5506305696
 20
27.2987012047
 30
0.0
 10
-9.5960977845
 20
27.1466052944
 30
0.0
 10
-9.710352975
 20
27.0363844524
 30
0.0
 10
-9.8136628529
 20
27.0100127755
 30
0.0
 10
-9.864328921
 20
27.0101106557
 30
0.0
  0
SPLINE
  5
67B
100
AcDbEntity
  8
RACCORDO
100
AcDbSpline
 62
250
  6
CONTINUOUS
 70
0
 71
3
 72
11
 73
7
 74
0
 42
0.0000001
 43
0.0000001
 44
0.0000000001
 40
0.0
 40
0.0
 40
0.0
 40
0.0
 40
0.2499098978
 40
0.4999746221
 40
0.7500438532
 40
1.0
 40
1.0
 40
1.0
 40
1.0
 10
-10.9940021604
 20
-27.0101106342
 30
0.0
 10
-10.9446078779
 20
-27.0100201932
 30
0.0
 10
-10.843986981
 20
-27.0350673078
 30
0.0
 10
-10.7307884842
 20
-27.1401105731
 30
0.0
 10
-10.681737475
 20
-27.2865522463
 30
0.0
 10
-10.7004009339
 20
-27.3885629313
 30
0.0
 10
-10.7208508787
 20
-27.4335352139
 30
0.0
  0
SPLINE
  5
67C
100
AcDbEntity
  8
RACCORDO
100
AcDbSpline
 62
250
  6
CONTINUOUS
 70
0
 71
3
 72
11
 73
7
 74
0
 42
0.0000001
 43
0.0000001
 44
0.0000000001
 40
0.0
 40
0.0
 40
0.0
 40
0.0
 40
0.2499020898
 40
0.4999810686
 40
0.7500640451
 40
1.0
 40
1.0
 40
1.0
 40
1.0
 10
9.5979597384
 20
-27.4475427835
 30
0.0
 10
9.5746201482
 20
-27.4025802662
 30
0.0
 10
9.5506305696
 20
-27.2987012047
 30
0.0
 10
9.5960977845
 20
-27.1466052944
 30
0.0
 10
9.710352975
 20
-27.0363844524
 30
0.0
 10
9.8136628529
 20
-27.0100127755
 30
0.0
 10
9.864328921
 20
-27.0101106557
 30
0.0
  0
SPLINE
  5
67D
100
AcDbEntity
  8
RACCORDO
100
AcDbSpline
 62
250
  6
CONTINUOUS
 70
0
 71
3
 72
11
 73
7
 74
0
 42
0.0000001
 43
0.0000001
 44
0.0000000001
 40
0.0
 40
0.0
 40
0.0
 40
0.0
 40
0.2499098978
 40
0.4999746221
 40
0.7500438532
 40
1.0
 40
1.0
 40
1.0
 40
1.0
 10
10.9940021604
 20
27.0101106342
 30
0.0
 10
10.9446078778
 20
27.0100201933
 30
0.0
 10
10.843986981
 20
27.0350673078
 30
0.0
 10
10.7307884842
 20
27.1401105731
 30
0.0
 10
10.681737475
 20
27.2865522463
 30
0.0
 10
10.7004009339
 20
27.3885629313
 30
0.0
 10
10.7208508787
 20
27.4335352139
 30
0.0
  0
SPLINE
  5
67E
100
AcDbEntity
  8
RACCORDO
100
AcDbSpline
 62
250
  6
CONTINUOUS
 70
0
 71
3
 72
15
 73
11
 74
0
 42
0.0000001
 43
0.0000001
 44
0.0000000001
 40
0.0
 40
0.0
 40
0.0
 40
0.0
 40
0.1284488358
 40
0.2563642436
 40
0.3832687221
 40
0.508855661
 40
0.6330849652
 40
0.7561286087
 40
0.8782987253
 40
1.0
 40
1.0
 40
1.0
 40
1.0
 10
14.8545942975
 20
27.25386329
 30
0.0
 10
14.935310763
 20
27.2538866504
 30
0.0
 10
15.0969073274
 20
27.2373891503
 30
0.0
 10
15.3280068889
 20
27.164026013
 30
0.0
 10
15.5378840033
 20
27.0461283208
 30
0.0
 10
15.7179425425
 20
26.8899966162
 30
0.0
 10
15.8620432542
 20
26.7033206518
 30
0.0
 10
15.9661646441
 20
26.4941823941
 30
0.0
 10
16.0280856186
 20
26.2707056034
 30
0.0
 10
16.0406173779
 20
26.1169057562
 30
0.0
 10
16.0397038624
 20
26.04043487
 30
0.0
  0
SPLINE
  5
67F
100
AcDbEntity
  8
RACCORDO
100
AcDbSpline
 62
250
  6
CONTINUOUS
 70
0
 71
3
 72
15
 73
11
 74
0
 42
0.0000001
 43
0.0000001
 44
0.0000000001
 40
0.0
 40
0.0
 40
0.0
 40
0.0
 40
0.1216989729
 40
0.243862067
 40
0.3669007953
 40
0.4911270175
 40
0.6167078299
 40
0.7436018676
 40
0.8715250693
 40
1.0
 40
1.0
 40
1.0
 40
1.0
 10
-16.0397038624
 20
26.04043487
 30
0.0
 10
-16.0406174333
 20
26.1169043196
 30
0.0
 10
-16.0280866306
 20
26.2706983663
 30
0.0
 10
-15.9661693018
 20
26.4941666553
 30
0.0
 10
-15.8620564918
 20
26.7032984822
 30
0.0
 10
-15.7179652574
 20
26.8899704451
 30
0.0
 10
-15.5379220599
 20
27.0461004302
 30
0.0
 10
-15.3280562939
 20
27.164006658
 30
0.0
 10
-15.0969452922
 20
27.2373841861
 30
0.0
 10
-14.9353271722
 20
27.2538862556
 30
0.0
 10
-14.8545942975
 20
27.25386329
 30
0.0
  0
SPLINE
  5
680
100
AcDbEntity
  8
RACCORDO
100
AcDbSpline
 62
250
  6
CONTINUOUS
 70
0
 71
3
 72
15
 73
11
 74
0
 42
0.0000001
 43
0.0000001
 44
0.0000000001
 40
0.0
 40
0.0
 40
0.0
 40
0.0
 40
0.1284488358
 40
0.2563642436
 40
0.3832687221
 40
0.508855661
 40
0.6330849652
 40
0.7561286087
 40
0.8782987253
 40
1.0
 40
1.0
 40
1.0
 40
1.0
 10
-14.8545942975
 20
-27.25386329
 30
0.0
 10
-14.935310763
 20
-27.2538866504
 30
0.0
 10
-15.0969073274
 20
-27.2373891503
 30
0.0
 10
-15.3280068889
 20
-27.164026013
 30
0.0
 10
-15.5378840033
 20
-27.0461283208
 30
0.0
 10
-15.7179425425
 20
-26.8899966162
 30
0.0
 10
-15.8620432542
 20
-26.7033206518
 30
0.0
 10
-15.9661646441
 20
-26.4941823941
 30
0.0
 10
-16.0280856186
 20
-26.2707056034
 30
0.0
 10
-16.0406173779
 20
-26.1169057562
 30
0.0
 10
-16.0397038624
 20
-26.04043487
 30
0.0
  0
SPLINE
  5
681
100
AcDbEntity
  8
RACCORDO
100
AcDbSpline
 62
250
  6
CONTINUOUS
 70
0
 71
3
 72
15
 73
11
 74
0
 42
0.0000001
 43
0.0000001
 44
0.0000000001
 40
0.0
 40
0.0
 40
0.0
 40
0.0
 40
0.1216989729
 40
0.243862067
 40
0.3669007953
 40
0.4911270175
 40
0.6167078299
 40
0.7436018676
 40
0.8715250693
 40
1.0
 40
1.0
 40
1.0
 40
1.0
 10
16.0397038624
 20
-26.04043487
 30
0.0
 10
16.0406174333
 20
-26.1169043196
 30
0.0
 10
16.0280866306
 20
-26.2706983663
 30
0.0
 10
15.9661693018
 20
-26.4941666553
 30
0.0
 10
15.8620564918
 20
-26.7032984822
 30
0.0
 10
15.7179652574
 20
-26.8899704451
 30
0.0
 10
15.5379220599
 20
-27.0461004302
 30
0.0
 10
15.3280562939
 20
-27.164006658
 30
0.0
 10
15.0969452922
 20
-27.2373841861
 30
0.0
 10
14.9353271722
 20
-27.2538862556
 30
0.0
 10
14.8545942975
 20
-27.25386329
 30
0.0
  0
SPLINE
  5
682
100
AcDbEntity
  8
RACCORDO
100
AcDbSpline
 62
250
  6
CONTINUOUS
 70
0
 71
3
 72
15
 73
11
 74
0
 42
0.0000001
 43
0.0000001
 44
0.0000000001
 40
0.0
 40
0.0
 40
0.0
 40
0.0
 40
0.3498401325
 40
0.5111430532
 40
0.6565599803
 40
0.7815859522
 40
0.8823793814
 40
0.955884954
 40
0.9817039761
 40
1.0
 40
1.0
 40
1.0
 40
1.0
 10
16.2852629416
 20
-24.2088241766
 30
0.0
 10
16.2852631696
 20
-24.3863514094
 30
0.0
 10
16.2870610236
 20
-24.6457391981
 30
0.0
 10
16.2934963736
 20
-24.9788544123
 30
0.0
 10
16.2998590953
 20
-25.1978542549
 30
0.0
 10
16.3075932062
 20
-25.3860936431
 30
0.0
 10
16.3165188337
 20
-25.5377167589
 30
0.0
 10
16.3250192136
 20
-25.6389654207
 30
0.0
 10
16.3329409403
 20
-25.6981206098
 30
0.0
 10
16.33703203
 20
-25.7201689826
 30
0.0
 10
16.3393804709
 20
-25.7291514214
 30
0.0
  0
SPLINE
  5
683
100
AcDbEntity
  8
RACCORDO
100
AcDbSpline
 62
250
  6
CONTINUOUS
 70
0
 71
3
 72
15
 73
11
 74
0
 42
0.0000001
 43
0.0000001
 44
0.0000000001
 40
0.0
 40
0.0
 40
0.0
 40
0.0
 40
0.0182904223
 40
0.0440985594
 40
0.1175759108
 40
0.2183576133
 40
0.3433777913
 40
0.4887820597
 40
0.6500691864
 40
1.0
 40
1.0
 40
1.0
 40
1.0
 10
22.0106195291
 20
-25.7291514214
 30
0.0
 10
22.0129674156
 20
-25.7201717754
 30
0.0
 10
22.0170584858
 20
-25.6981319329
 30
0.0
 10
22.024976411
 20
-25.6389990585
 30
0.0
 10
22.0334769016
 20
-25.5377764083
 30
0.0
 10
22.0424028643
 20
-25.3861764936
 30
0.0
 10
22.0501374673
 20
-25.1979524639
 30
0.0
 10
22.0565008005
 20
-24.9789700096
 30
0.0
 10
22.0629384805
 20
-24.6458232441
 30
0.0
 10
22.064736714
 20
-24.3863974332
 30
0.0
 10
22.0647370584
 20
-24.2088241766
 30
0.0
  0
SPLINE
  5
684
100
AcDbEntity
  8
RACCORDO
100
AcDbSpline
 62
250
  6
CONTINUOUS
 70
0
 71
3
 72
15
 73
11
 74
0
 42
0.0000001
 43
0.0000001
 44
0.0000000001
 40
0.0
 40
0.0
 40
0.0
 40
0.0
 40
0.3498401325
 40
0.5111430532
 40
0.6565599803
 40
0.7815859522
 40
0.8823793814
 40
0.955884954
 40
0.9817039761
 40
1.0
 40
1.0
 40
1.0
 40
1.0
 10
22.0647370584
 20
24.2088241766
 30
0.0
 10
22.0647368304
 20
24.3863514094
 30
0.0
 10
22.0629389764
 20
24.6457391981
 30
0.0
 10
22.0565036264
 20
24.9788544123
 30
0.0
 10
22.0501409047
 20
25.1978542549
 30
0.0
 10
22.0424067938
 20
25.3860936431
 30
0.0
 10
22.0334811663
 20
25.5377167589
 30
0.0
 10
22.0249807864
 20
25.6389654207
 30
0.0
 10
22.0170590597
 20
25.6981206098
 30
0.0
 10
22.01296797
 20
25.7201689826
 30
0.0
 10
22.0106195291
 20
25.7291514214
 30
0.0
  0
SPLINE
  5
685
100
AcDbEntity
  8
RACCORDO
100
AcDbSpline
 62
250
  6
CONTINUOUS
 70
0
 71
3
 72
15
 73
11
 74
0
 42
0.0000001
 43
0.0000001
 44
0.0000000001
 40
0.0
 40
0.0
 40
0.0
 40
0.0
 40
0.0182904223
 40
0.0440985594
 40
0.1175759108
 40
0.2183576133
 40
0.3433777913
 40
0.4887820597
 40
0.6500691864
 40
1.0
 40
1.0
 40
1.0
 40
1.0
 10
16.3393804709
 20
25.7291514214
 30
0.0
 10
16.3370325844
 20
25.7201717754
 30
0.0
 10
16.3329415142
 20
25.6981319329
 30
0.0
 10
16.325023589
 20
25.6389990585
 30
0.0
 10
16.3165230984
 20
25.5377764083
 30
0.0
 10
16.3075971357
 20
25.3861764936
 30
0.0
 10
16.2998625327
 20
25.1979524639
 30
0.0
 10
16.2934991995
 20
24.9789700096
 30
0.0
 10
16.2870615195
 20
24.6458232441
 30
0.0
 10
16.285263286
 20
24.3863974332
 30
0.0
 10
16.2852629416
 20
24.2088241766
 30
0.0
  0
SPLINE
  5
686
100
AcDbEntity
  8
RACCORDO
100
AcDbSpline
 62
250
  6
CONTINUOUS
 70
0
 71
3
 72
15
 73
11
 74
0
 42
0.0000001
 43
0.0000001
 44
0.0000000001
 40
0.0
 40
0.0
 40
0.0
 40
0.0
 40
0.3498401325
 40
0.5111430532
 40
0.6565599803
 40
0.7815859522
 40
0.8823793814
 40
0.955884954
 40
0.9817039761
 40
1.0
 40
1.0
 40
1.0
 40
1.0
 10
-16.2852629416
 20
24.2088241766
 30
0.0
 10
-16.2852631696
 20
24.3863514094
 30
0.0
 10
-16.2870610236
 20
24.6457391981
 30
0.0
 10
-16.2934963736
 20
24.9788544123
 30
0.0
 10
-16.2998590953
 20
25.1978542549
 30
0.0
 10
-16.3075932062
 20
25.3860936431
 30
0.0
 10
-16.3165188337
 20
25.5377167589
 30
0.0
 10
-16.3250192136
 20
25.6389654207
 30
0.0
 10
-16.3329409403
 20
25.6981206098
 30
0.0
 10
-16.33703203
 20
25.7201689826
 30
0.0
 10
-16.3393804709
 20
25.7291514214
 30
0.0
  0
SPLINE
  5
687
100
AcDbEntity
  8
RACCORDO
100
AcDbSpline
 62
250
  6
CONTINUOUS
 70
0
 71
3
 72
15
 73
11
 74
0
 42
0.0000001
 43
0.0000001
 44
0.0000000001
 40
0.0
 40
0.0
 40
0.0
 40
0.0
 40
0.0182904223
 40
0.0440985594
 40
0.1175759108
 40
0.2183576133
 40
0.3433777913
 40
0.4887820597
 40
0.6500691864
 40
1.0
 40
1.0
 40
1.0
 40
1.0
 10
-22.0106195291
 20
25.7291514214
 30
0.0
 10
-22.0129674156
 20
25.7201717754
 30
0.0
 10
-22.0170584858
 20
25.6981319329
 30
0.0
 10
-22.024976411
 20
25.6389990585
 30
0.0
 10
-22.0334769016
 20
25.5377764083
 30
0.0
 10
-22.0424028643
 20
25.3861764936
 30
0.0
 10
-22.0501374673
 20
25.1979524639
 30
0.0
 10
-22.0565008005
 20
24.9789700096
 30
0.0
 10
-22.0629384805
 20
24.6458232441
 30
0.0
 10
-22.064736714
 20
24.3863974332
 30
0.0
 10
-22.0647370584
 20
24.2088241766
 30
0.0
  0
SPLINE
  5
688
100
AcDbEntity
  8
RACCORDO
100
AcDbSpline
 62
250
  6
CONTINUOUS
 70
0
 71
3
 72
15
 73
11
 74
0
 42
0.0000001
 43
0.0000001
 44
0.0000000001
 40
0.0
 40
0.0
 40
0.0
 40
0.0
 40
0.3498401325
 40
0.5111430532
 40
0.6565599803
 40
0.7815859522
 40
0.8823793814
 40
0.955884954
 40
0.9817039761
 40
1.0
 40
1.0
 40
1.0
 40
1.0
 10
-22.0647370584
 20
-24.2088241766
 30
0.0
 10
-22.0647368304
 20
-24.3863514094
 30
0.0
 10
-22.0629389764
 20
-24.6457391981
 30
0.0
 10
-22.0565036264
 20
-24.9788544123
 30
0.0
 10
-22.0501409047
 20
-25.1978542549
 30
0.0
 10
-22.0424067938
 20
-25.3860936431
 30
0.0
 10
-22.0334811663
 20
-25.5377167589
 30
0.0
 10
-22.0249807864
 20
-25.6389654207
 30
0.0
 10
-22.0170590597
 20
-25.6981206098
 30
0.0
 10
-22.01296797
 20
-25.7201689826
 30
0.0
 10
-22.0106195291
 20
-25.7291514214
 30
0.0
  0
SPLINE
  5
689
100
AcDbEntity
  8
RACCORDO
100
AcDbSpline
 62
250
  6
CONTINUOUS
 70
0
 71
3
 72
15
 73
11
 74
0
 42
0.0000001
 43
0.0000001
 44
0.0000000001
 40
0.0
 40
0.0
 40
0.0
 40
0.0
 40
0.0182904223
 40
0.0440985594
 40
0.1175759108
 40
0.2183576133
 40
0.3433777913
 40
0.4887820597
 40
0.6500691864
 40
1.0
 40
1.0
 40
1.0
 40
1.0
 10
-16.3393804709
 20
-25.7291514214
 30
0.0
 10
-16.3370325844
 20
-25.7201717754
 30
0.0
 10
-16.3329415142
 20
-25.6981319329
 30
0.0
 10
-16.325023589
 20
-25.6389990585
 30
0.0
 10
-16.3165230984
 20
-25.5377764083
 30
0.0
 10
-16.3075971357
 20
-25.3861764936
 30
0.0
 10
-16.2998625327
 20
-25.1979524639
 30
0.0
 10
-16.2934991995
 20
-24.9789700096
 30
0.0
 10
-16.2870615195
 20
-24.6458232441
 30
0.0
 10
-16.285263286
 20
-24.3863974332
 30
0.0
 10
-16.2852629416
 20
-24.2088241766
 30
0.0
  0
SPLINE
  5
68A
100
AcDbEntity
  8
RACCORDO
100
AcDbSpline
 62
250
  6
CONTINUOUS
 70
0
 71
3
 72
17
 73
13
 74
0
 42
0.0000001
 43
0.0000001
 44
0.0000000001
 40
0.0
 40
0.0
 40
0.0
 40
0.0
 40
0.0068442488
 40
0.0216299959
 40
0.044447323
 40
0.0752632559
 40
0.1604760398
 40
0.2759679744
 40
0.4200695492
 40
0.5905381577
 40
0.7848349783
 40
1.0
 40
1.0
 40
1.0
 40
1.0
 10
4.0291453096
 20
-21.9708851513
 30
0.0
 10
4.0294432086
 20
-21.9705887807
 30
0.0
 10
4.0308724957
 20
-21.970385433
 30
0.0
 10
4.0334702679
 20
-21.9699145193
 30
0.0
 10
4.0377061768
 20
-21.96956062
 30
0.0
 10
4.0461792059
 20
-21.9689289072
 30
0.0
 10
4.0604006496
 20
-21.9682661796
 30
0.0
 10
4.0815473462
 20
-21.9675128856
 30
0.0
 10
4.1079465854
 20
-21.9668173166
 30
0.0
 10
4.1391813845
 20
-21.9661709341
 30
0.0
 10
4.1747830199
 20
-21.9655954668
 30
0.0
 10
4.1999205093
 20
-21.9652778625
 30
0.0
 10
4.2131300789
 20
-21.9651300039
 30
0.0
  0
SPLINE
  5
68B
100
AcDbEntity
  8
RACCORDO
100
AcDbSpline
 62
250
  6
CONTINUOUS
 70
0
 71
3
 72
17
 73
13
 74
0
 42
0.0000001
 43
0.0000001
 44
0.0000000001
 40
0.0
 40
0.0
 40
0.0
 40
0.0
 40
0.0068442488
 40
0.0216299959
 40
0.044447323
 40
0.0752632559
 40
0.1604760398
 40
0.2759679744
 40
0.4200695492
 40
0.5905381577
 40
0.7848349783
 40
1.0
 40
1.0
 40
1.0
 40
1.0
 10
-7.2208546904
 20
-21.9708851513
 30
0.0
 10
-7.2205567914
 20
-21.9705887807
 30
0.0
 10
-7.2191275043
 20
-21.970385433
 30
0.0
 10
-7.2165297321
 20
-21.9699145193
 30
0.0
 10
-7.2122938232
 20
-21.96956062
 30
0.0
 10
-7.2038207941
 20
-21.9689289072
 30
0.0
 10
-7.1895993504
 20
-21.9682661796
 30
0.0
 10
-7.1684526538
 20
-21.9675128856
 30
0.0
 10
-7.1420534146
 20
-21.9668173166
 30
0.0
 10
-7.1108186155
 20
-21.9661709341
 30
0.0
 10
-7.0752169801
 20
-21.9655954668
 30
0.0
 10
-7.0500794907
 20
-21.9652778625
 30
0.0
 10
-7.0368699211
 20
-21.9651300039
 30
0.0
  0
SPLINE
  5
68C
100
AcDbEntity
  8
RACCORDO
100
AcDbSpline
 62
250
  6
CONTINUOUS
 70
0
 71
3
 72
17
 73
13
 74
0
 42
0.0000001
 43
0.0000001
 44
0.0000000001
 40
0.0
 40
0.0
 40
0.0
 40
0.0
 40
0.0068442488
 40
0.0216299959
 40
0.044447323
 40
0.0752632559
 40
0.1604760398
 40
0.2759679744
 40
0.4200695492
 40
0.5905381577
 40
0.7848349783
 40
1.0
 40
1.0
 40
1.0
 40
1.0
 10
7.2208546904
 20
21.9708851513
 30
0.0
 10
7.2205567914
 20
21.9705887807
 30
0.0
 10
7.2191275043
 20
21.970385433
 30
0.0
 10
7.2165297321
 20
21.9699145193
 30
0.0
 10
7.2122938232
 20
21.96956062
 30
0.0
 10
7.2038207941
 20
21.9689289072
 30
0.0
 10
7.1895993504
 20
21.9682661796
 30
0.0
 10
7.1684526538
 20
21.9675128856
 30
0.0
 10
7.1420534146
 20
21.9668173166
 30
0.0
 10
7.1108186155
 20
21.9661709341
 30
0.0
 10
7.0752169801
 20
21.9655954668
 30
0.0
 10
7.0500794907
 20
21.9652778625
 30
0.0
 10
7.0368699211
 20
21.9651300039
 30
0.0
  0
SPLINE
  5
68D
100
AcDbEntity
  8
RACCORDO
100
AcDbSpline
 62
250
  6
CONTINUOUS
 70
0
 71
3
 72
17
 73
13
 74
0
 42
0.0000001
 43
0.0000001
 44
0.0000000001
 40
0.0
 40
0.0
 40
0.0
 40
0.0
 40
0.0068442488
 40
0.0216299959
 40
0.044447323
 40
0.0752632559
 40
0.1604760398
 40
0.2759679744
 40
0.4200695492
 40
0.5905381577
 40
0.7848349783
 40
1.0
 40
1.0
 40
1.0
 40
1.0
 10
-4.0291453096
 20
21.9708851513
 30
0.0
 10
-4.0294432086
 20
21.9705887807
 30
0.0
 10
-4.0308724957
 20
21.970385433
 30
0.0
 10
-4.0334702679
 20
21.9699145193
 30
0.0
 10
-4.0377061768
 20
21.96956062
 30
0.0
 10
-4.0461792059
 20
21.9689289072
 30
0.0
 10
-4.0604006496
 20
21.9682661796
 30
0.0
 10
-4.0815473462
 20
21.9675128856
 30
0.0
 10
-4.1079465854
 20
21.9668173166
 30
0.0
 10
-4.1391813845
 20
21.9661709341
 30
0.0
 10
-4.1747830199
 20
21.9655954668
 30
0.0
 10
-4.1999205093
 20
21.9652778625
 30
0.0
 10
-4.2131300789
 20
21.9651300039
 30
0.0
  0
SPLINE
  5
68E
100
AcDbEntity
  8
RACCORDO
100
AcDbSpline
 62
250
  6
CONTINUOUS
 70
0
 71
3
 72
17
 73
13
 74
0
 42
0.0000001
 43
0.0000001
 44
0.0000000001
 40
0.0
 40
0.0
 40
0.0
 40
0.0
 40
0.2150389301
 40
0.4093050399
 40
0.5797766514
 40
0.7239063532
 40
0.8394519726
 40
0.9247255832
 40
0.9555500505
 40
0.9783756909
 40
0.9931644546
 40
1.0
 40
1.0
 40
1.0
 40
1.0
 10
7.0344965068
 20
-21.9651036757
 30
0.0
 10
7.0478684657
 20
-21.965251142
 30
0.0
 10
7.0733201567
 20
-21.9655682486
 30
0.0
 10
7.1093710653
 20
-21.9661442747
 30
0.0
 10
7.1410084745
 20
-21.9667927346
 30
0.0
 10
7.1677533171
 20
-21.9674910999
 30
0.0
 10
7.1891815134
 20
-21.9682487866
 30
0.0
 10
7.2035941673
 20
-21.9689150601
 30
0.0
 10
7.2121813229
 20
-21.9695520579
 30
0.0
 10
7.2164734584
 20
-21.9699075627
 30
0.0
 10
7.2191048469
 20
-21.9703832351
 30
0.0
 10
7.2205529568
 20
-21.9705857293
 30
0.0
 10
7.220854692
 20
-21.970885153
 30
0.0
  0
SPLINE
  5
68F
100
AcDbEntity
  8
RACCORDO
100
AcDbSpline
 62
250
  6
CONTINUOUS
 70
0
 71
3
 72
17
 73
13
 74
0
 42
0.0000001
 43
0.0000001
 44
0.0000000001
 40
0.0
 40
0.0
 40
0.0
 40
0.0
 40
0.2150389301
 40
0.4093050399
 40
0.5797766514
 40
0.7239063532
 40
0.8394519726
 40
0.9247255832
 40
0.9555500505
 40
0.9783756909
 40
0.9931644546
 40
1.0
 40
1.0
 40
1.0
 40
1.0
 10
-4.2155034932
 20
-21.9651036757
 30
0.0
 10
-4.2021315343
 20
-21.965251142
 30
0.0
 10
-4.1766798433
 20
-21.9655682486
 30
0.0
 10
-4.1406289347
 20
-21.9661442747
 30
0.0
 10
-4.1089915255
 20
-21.9667927346
 30
0.0
 10
-4.0822466829
 20
-21.9674910999
 30
0.0
 10
-4.0608184866
 20
-21.9682487866
 30
0.0
 10
-4.0464058327
 20
-21.9689150601
 30
0.0
 10
-4.0378186771
 20
-21.9695520579
 30
0.0
 10
-4.0335265416
 20
-21.9699075627
 30
0.0
 10
-4.0308951531
 20
-21.9703832351
 30
0.0
 10
-4.0294470432
 20
-21.9705857293
 30
0.0
 10
-4.029145308
 20
-21.970885153
 30
0.0
  0
SPLINE
  5
690
100
AcDbEntity
  8
RACCORDO
100
AcDbSpline
 62
250
  6
CONTINUOUS
 70
0
 71
3
 72
17
 73
13
 74
0
 42
0.0000001
 43
0.0000001
 44
0.0000000001
 40
0.0
 40
0.0
 40
0.0
 40
0.0
 40
0.2150389301
 40
0.4093050399
 40
0.5797766514
 40
0.7239063532
 40
0.8394519726
 40
0.9247255832
 40
0.9555500505
 40
0.9783756909
 40
0.9931644546
 40
1.0
 40
1.0
 40
1.0
 40
1.0
 10
4.2155034932
 20
21.9651036757
 30
0.0
 10
4.2021315343
 20
21.965251142
 30
0.0
 10
4.1766798433
 20
21.9655682486
 30
0.0
 10
4.1406289347
 20
21.9661442747
 30
0.0
 10
4.1089915255
 20
21.9667927346
 30
0.0
 10
4.0822466829
 20
21.9674910999
 30
0.0
 10
4.0608184866
 20
21.9682487866
 30
0.0
 10
4.0464058327
 20
21.9689150601
 30
0.0
 10
4.0378186771
 20
21.9695520579
 30
0.0
 10
4.0335265416
 20
21.9699075627
 30
0.0
 10
4.0308951531
 20
21.9703832351
 30
0.0
 10
4.0294470432
 20
21.9705857293
 30
0.0
 10
4.029145308
 20
21.970885153
 30
0.0
  0
SPLINE
  5
691
100
AcDbEntity
  8
RACCORDO
100
AcDbSpline
 62
250
  6
CONTINUOUS
 70
0
 71
3
 72
17
 73
13
 74
0
 42
0.0000001
 43
0.0000001
 44
0.0000000001
 40
0.0
 40
0.0
 40
0.0
 40
0.0
 40
0.2150389301
 40
0.4093050399
 40
0.5797766514
 40
0.7239063532
 40
0.8394519726
 40
0.9247255832
 40
0.9555500505
 40
0.9783756909
 40
0.9931644546
 40
1.0
 40
1.0
 40
1.0
 40
1.0
 10
-7.0344965068
 20
21.9651036757
 30
0.0
 10
-7.0478684657
 20
21.965251142
 30
0.0
 10
-7.0733201567
 20
21.9655682486
 30
0.0
 10
-7.1093710653
 20
21.9661442747
 30
0.0
 10
-7.1410084745
 20
21.9667927346
 30
0.0
 10
-7.1677533171
 20
21.9674910999
 30
0.0
 10
-7.1891815134
 20
21.9682487866
 30
0.0
 10
-7.2035941673
 20
21.9689150601
 30
0.0
 10
-7.2121813229
 20
21.9695520579
 30
0.0
 10
-7.2164734584
 20
21.9699075627
 30
0.0
 10
-7.2191048469
 20
21.9703832351
 30
0.0
 10
-7.2205529568
 20
21.9705857293
 30
0.0
 10
-7.220854692
 20
21.970885153
 30
0.0
  0
LINE
  5
692
100
AcDbEntity
  8
RACCORDO
100
AcDbLine
 62
250
  6
CONTINUOUS
 10
8.1061645281
 20
25.3345801615
 11
8.1610376888
 21
25.1168186968
  0
LINE
  5
693
100
AcDbEntity
  8
RACCORDO
100
AcDbLine
 62
250
  6
CONTINUOUS
 10
-8.1061645281
 20
-25.3345801615
 11
-8.1610376888
 21
-25.1168186968
  0
LINE
  5
694
100
AcDbEntity
  8
RACCORDO
100
AcDbLine
 62
250
  6
CONTINUOUS
 10
-7.9720324007
 20
-25.1472196297
 11
-8.0260002941
 21
-24.9293386034
  0
SPLINE
  5
695
100
AcDbEntity
  8
RACCORDO
100
AcDbSpline
 62
250
  6
CONTINUOUS
 70
0
 71
3
 72
15
 73
11
 74
0
 42
0.0000001
 43
0.0000001
 44
0.0000000001
 40
0.0
 40
0.0
 40
0.0
 40
0.0
 40
0.3499411196
 40
0.5112912276
 40
0.6567481855
 40
0.7817989979
 40
0.8825894914
 40
0.9560428794
 40
0.9818022223
 40
1.0
 40
1.0
 40
1.0
 40
1.0
 10
-22.3645543065
 20
-24.2088241766
 30
0.0
 10
-22.3645537849
 20
-24.4209213317
 30
0.0
 10
-22.3627566393
 20
-24.7308176335
 30
0.0
 10
-22.3563225668
 20
-25.1288203612
 30
0.0
 10
-22.349960471
 20
-25.3904908622
 30
0.0
 10
-22.3422280568
 20
-25.6154109635
 30
0.0
 10
-22.3333018746
 20
-25.79658515
 30
0.0
 10
-22.3248075486
 20
-25.9175543392
 30
0.0
 10
-22.3168820943
 20
-25.9882697772
 30
0.0
 10
-22.3127942418
 20
-26.0146297701
 30
0.0
 10
-22.3104367772
 20
-26.0254044428
 30
0.0
  0
SPLINE
  5
696
100
AcDbEntity
  8
RACCORDO
100
AcDbSpline
 62
250
  6
CONTINUOUS
 70
0
 71
3
 72
15
 73
11
 74
0
 42
0.0000001
 43
0.0000001
 44
0.0000000001
 40
0.0
 40
0.0
 40
0.0
 40
0.0
 40
0.0181918791
 40
0.0439405333
 40
0.1173658493
 40
0.2181445408
 40
0.3431895707
 40
0.4886338666
 40
0.6499681885
 40
1.0
 40
1.0
 40
1.0
 40
1.0
 10
-16.0395632228
 20
-26.0254044428
 30
0.0
 10
-16.0372062558
 20
-26.0146333204
 30
0.0
 10
-16.0331184631
 20
-25.988283505
 30
0.0
 10
-16.0251968327
 20
-25.9175948273
 30
0.0
 10
-16.016702333
 20
-25.796656464
 30
0.0
 10
-16.0077759195
 20
-25.6155099366
 30
0.0
 10
-16.0000429419
 20
-25.3906082058
 30
0.0
 10
-15.9936802878
 20
-25.1289584579
 30
0.0
 10
-15.9872437806
 20
-24.7309180269
 30
0.0
 10
-15.9854464998
 20
-24.4209763063
 30
0.0
 10
-15.9854456935
 20
-24.2088241766
 30
0.0
  0
SPLINE
  5
697
100
AcDbEntity
  8
RACCORDO
100
AcDbSpline
 62
250
  6
CONTINUOUS
 70
0
 71
3
 72
15
 73
11
 74
0
 42
0.0000001
 43
0.0000001
 44
0.0000000001
 40
0.0
 40
0.0
 40
0.0
 40
0.0
 40
0.3499411196
 40
0.5112912276
 40
0.6567481855
 40
0.7817989979
 40
0.8825894914
 40
0.9560428794
 40
0.9818022223
 40
1.0
 40
1.0
 40
1.0
 40
1.0
 10
15.9854456935
 20
-24.2088241766
 30
0.0
 10
15.9854462151
 20
-24.4209213317
 30
0.0
 10
15.9872433607
 20
-24.7308176335
 30
0.0
 10
15.9936774332
 20
-25.1288203612
 30
0.0
 10
16.000039529
 20
-25.3904908622
 30
0.0
 10
16.0077719432
 20
-25.6154109635
 30
0.0
 10
16.0166981254
 20
-25.79658515
 30
0.0
 10
16.0251924514
 20
-25.9175543392
 30
0.0
 10
16.0331179057
 20
-25.9882697772
 30
0.0
 10
16.0372057582
 20
-26.0146297701
 30
0.0
 10
16.0395632228
 20
-26.0254044428
 30
0.0
  0
LINE
  5
698
100
AcDbEntity
  8
RACCORDO
100
AcDbLine
 62
250
  6
CONTINUOUS
 10
7.9720324007
 20
25.1472196297
 11
8.0260002941
 21
24.9293386034
  0
SPLINE
  5
699
100
AcDbEntity
  8
RACCORDO
100
AcDbSpline
 62
250
  6
CONTINUOUS
 70
0
 71
3
 72
15
 73
11
 74
0
 42
0.0000001
 43
0.0000001
 44
0.0000000001
 40
0.0
 40
0.0
 40
0.0
 40
0.0
 40
0.0181918791
 40
0.0439405333
 40
0.1173658493
 40
0.2181445408
 40
0.3431895707
 40
0.4886338666
 40
0.6499681885
 40
1.0
 40
1.0
 40
1.0
 40
1.0
 10
22.3104367772
 20
-26.0254044428
 30
0.0
 10
22.3127937442
 20
-26.0146333204
 30
0.0
 10
22.3168815369
 20
-25.988283505
 30
0.0
 10
22.3248031673
 20
-25.9175948273
 30
0.0
 10
22.333297667
 20
-25.796656464
 30
0.0
 10
22.3422240805
 20
-25.6155099366
 30
0.0
 10
22.3499570581
 20
-25.3906082058
 30
0.0
 10
22.3563197122
 20
-25.1289584579
 30
0.0
 10
22.3627562194
 20
-24.7309180269
 30
0.0
 10
22.3645535002
 20
-24.4209763063
 30
0.0
 10
22.3645543065
 20
-24.2088241766
 30
0.0
  0
SPLINE
  5
69A
100
AcDbEntity
  8
RACCORDO
100
AcDbSpline
 62
250
  6
CONTINUOUS
 70
0
 71
3
 72
15
 73
11
 74
0
 42
0.0000001
 43
0.0000001
 44
0.0000000001
 40
0.0
 40
0.0
 40
0.0
 40
0.0
 40
0.3499411196
 40
0.5112912276
 40
0.6567481855
 40
0.7817989979
 40
0.8825894914
 40
0.9560428794
 40
0.9818022223
 40
1.0
 40
1.0
 40
1.0
 40
1.0
 10
22.3645543065
 20
24.2088241766
 30
0.0
 10
22.3645537849
 20
24.4209213317
 30
0.0
 10
22.3627566393
 20
24.7308176335
 30
0.0
 10
22.3563225668
 20
25.1288203612
 30
0.0
 10
22.349960471
 20
25.3904908622
 30
0.0
 10
22.3422280568
 20
25.6154109635
 30
0.0
 10
22.3333018746
 20
25.79658515
 30
0.0
 10
22.3248075486
 20
25.9175543392
 30
0.0
 10
22.3168820943
 20
25.9882697772
 30
0.0
 10
22.3127942418
 20
26.0146297701
 30
0.0
 10
22.3104367772
 20
26.0254044428
 30
0.0
  0
SPLINE
  5
69B
100
AcDbEntity
  8
RACCORDO
100
AcDbSpline
 62
250
  6
CONTINUOUS
 70
0
 71
3
 72
15
 73
11
 74
0
 42
0.0000001
 43
0.0000001
 44
0.0000000001
 40
0.0
 40
0.0
 40
0.0
 40
0.0
 40
0.0181918791
 40
0.0439405333
 40
0.1173658493
 40
0.2181445408
 40
0.3431895707
 40
0.4886338666
 40
0.6499681885
 40
1.0
 40
1.0
 40
1.0
 40
1.0
 10
16.0395632228
 20
26.0254044428
 30
0.0
 10
16.0372062558
 20
26.0146333204
 30
0.0
 10
16.0331184631
 20
25.988283505
 30
0.0
 10
16.0251968327
 20
25.9175948273
 30
0.0
 10
16.016702333
 20
25.796656464
 30
0.0
 10
16.0077759195
 20
25.6155099366
 30
0.0
 10
16.0000429419
 20
25.3906082058
 30
0.0
 10
15.9936802878
 20
25.1289584579
 30
0.0
 10
15.9872437806
 20
24.7309180269
 30
0.0
 10
15.9854464998
 20
24.4209763063
 30
0.0
 10
15.9854456935
 20
24.2088241766
 30
0.0
  0
SPLINE
  5
69C
100
AcDbEntity
  8
RACCORDO
100
AcDbSpline
 62
250
  6
CONTINUOUS
 70
0
 71
3
 72
15
 73
11
 74
0
 42
0.0000001
 43
0.0000001
 44
0.0000000001
 40
0.0
 40
0.0
 40
0.0
 40
0.0
 40
0.3499411196
 40
0.5112912276
 40
0.6567481855
 40
0.7817989979
 40
0.8825894914
 40
0.9560428794
 40
0.9818022223
 40
1.0
 40
1.0
 40
1.0
 40
1.0
 10
-15.9854456935
 20
24.2088241766
 30
0.0
 10
-15.9854462151
 20
24.4209213317
 30
0.0
 10
-15.9872433607
 20
24.7308176335
 30
0.0
 10
-15.9936774332
 20
25.1288203612
 30
0.0
 10
-16.000039529
 20
25.3904908622
 30
0.0
 10
-16.0077719432
 20
25.6154109635
 30
0.0
 10
-16.0166981254
 20
25.79658515
 30
0.0
 10
-16.0251924514
 20
25.9175543392
 30
0.0
 10
-16.0331179057
 20
25.9882697772
 30
0.0
 10
-16.0372057582
 20
26.0146297701
 30
0.0
 10
-16.0395632228
 20
26.0254044428
 30
0.0
  0
SPLINE
  5
69D
100
AcDbEntity
  8
RACCORDO
100
AcDbSpline
 62
250
  6
CONTINUOUS
 70
0
 71
3
 72
15
 73
11
 74
0
 42
0.0000001
 43
0.0000001
 44
0.0000000001
 40
0.0
 40
0.0
 40
0.0
 40
0.0
 40
0.0181918791
 40
0.0439405333
 40
0.1173658493
 40
0.2181445408
 40
0.3431895707
 40
0.4886338666
 40
0.6499681885
 40
1.0
 40
1.0
 40
1.0
 40
1.0
 10
-22.3104367772
 20
26.0254044428
 30
0.0
 10
-22.3127937442
 20
26.0146333204
 30
0.0
 10
-22.3168815369
 20
25.988283505
 30
0.0
 10
-22.3248031673
 20
25.9175948273
 30
0.0
 10
-22.333297667
 20
25.796656464
 30
0.0
 10
-22.3422240805
 20
25.6155099366
 30
0.0
 10
-22.3499570581
 20
25.3906082058
 30
0.0
 10
-22.3563197122
 20
25.1289584579
 30
0.0
 10
-22.3627562194
 20
24.7309180269
 30
0.0
 10
-22.3645535002
 20
24.4209763063
 30
0.0
 10
-22.3645543065
 20
24.2088241766
 30
0.0
  0
SPLINE
  5
69E
100
AcDbEntity
  8
RACCORDO
100
AcDbSpline
 62
250
  6
CONTINUOUS
 70
0
 71
3
 72
15
 73
11
 74
0
 42
0.0000001
 43
0.0000001
 44
0.0000000001
 40
0.0
 40
0.0
 40
0.0
 40
0.0
 40
0.122963318
 40
0.2461948586
 40
0.3699692157
 40
0.4944814961
 40
0.6198340095
 40
0.7460006189
 40
0.8728132396
 40
1.0
 40
1.0
 40
1.0
 40
1.0
 10
16.3395211105
 20
-25.9627891564
 30
0.0
 10
16.340421028
 20
-26.0593184453
 30
0.0
 10
16.323838282
 20
-26.2532669761
 30
0.0
 10
16.2440361603
 20
-26.5343147659
 30
0.0
 10
16.1111460598
 20
-26.7960392292
 30
0.0
 10
15.9287760934
 20
-27.0282109935
 30
0.0
 10
15.7027365441
 20
-27.2211294797
 30
0.0
 10
15.4411054926
 20
-27.3659849856
 30
0.0
 10
15.154441426
 20
-27.4558123575
 30
0.0
 10
14.9544434334
 20
-27.4760313258
 30
0.0
 10
14.8545942975
 20
-27.4760348245
 30
0.0
  0
SPLINE
  5
69F
100
AcDbEntity
  8
RACCORDO
100
AcDbSpline
 62
250
  6
CONTINUOUS
 70
0
 71
3
 72
15
 73
11
 74
0
 42
0.0000001
 43
0.0000001
 44
0.0000000001
 40
0.0
 40
0.0
 40
0.0
 40
0.0
 40
0.1271620189
 40
0.253966495
 40
0.3801428504
 40
0.5055012723
 40
0.6300164186
 40
0.7537956242
 40
0.8770343409
 40
1.0
 40
1.0
 40
1.0
 40
1.0
 10
-14.8545942975
 20
-27.4760348245
 30
0.0
 10
-14.9544239975
 20
-27.476032226
 30
0.0
 10
-15.154395907
 20
-27.4558182599
 30
0.0
 10
-15.4410456112
 20
-27.3660080957
 30
0.0
 10
-15.7026895225
 20
-27.2211631679
 30
0.0
 10
-15.9287475093
 20
-27.0282432375
 30
0.0
 10
-16.1111292306
 20
-26.7960669691
 30
0.0
 10
-16.2440301629
 20
-26.5343346894
 30
0.0
 10
-16.3238369791
 20
-26.2532761944
 30
0.0
 10
-16.3404208605
 20
-26.0593202729
 30
0.0
 10
-16.3395211105
 20
-25.9627891564
 30
0.0
  0
SPLINE
  5
6A0
100
AcDbEntity
  8
RACCORDO
100
AcDbSpline
 62
250
  6
CONTINUOUS
 70
0
 71
3
 72
15
 73
11
 74
0
 42
0.0000001
 43
0.0000001
 44
0.0000000001
 40
0.0
 40
0.0
 40
0.0
 40
0.0
 40
0.1271620189
 40
0.253966495
 40
0.3801428504
 40
0.5055012723
 40
0.6300164186
 40
0.7537956242
 40
0.8770343409
 40
1.0
 40
1.0
 40
1.0
 40
1.0
 10
14.8545942975
 20
27.4760348245
 30
0.0
 10
14.9544239975
 20
27.476032226
 30
0.0
 10
15.154395907
 20
27.4558182599
 30
0.0
 10
15.4410456112
 20
27.3660080957
 30
0.0
 10
15.7026895225
 20
27.2211631679
 30
0.0
 10
15.9287475093
 20
27.0282432375
 30
0.0
 10
16.1111292306
 20
26.7960669691
 30
0.0
 10
16.2440301629
 20
26.5343346894
 30
0.0
 10
16.3238369791
 20
26.2532761944
 30
0.0
 10
16.3404208605
 20
26.0593202729
 30
0.0
 10
16.3395211105
 20
25.9627891564
 30
0.0
  0
SPLINE
  5
6A1
100
AcDbEntity
  8
RACCORDO
100
AcDbSpline
 62
250
  6
CONTINUOUS
 70
0
 71
3
 72
15
 73
11
 74
0
 42
0.0000001
 43
0.0000001
 44
0.0000000001
 40
0.0
 40
0.0
 40
0.0
 40
0.0
 40
0.122963318
 40
0.2461948586
 40
0.3699692157
 40
0.4944814961
 40
0.6198340095
 40
0.7460006189
 40
0.8728132396
 40
1.0
 40
1.0
 40
1.0
 40
1.0
 10
-16.3395211105
 20
25.9627891564
 30
0.0
 10
-16.340421028
 20
26.0593184453
 30
0.0
 10
-16.323838282
 20
26.2532669761
 30
0.0
 10
-16.2440361603
 20
26.5343147659
 30
0.0
 10
-16.1111460598
 20
26.7960392292
 30
0.0
 10
-15.9287760934
 20
27.0282109935
 30
0.0
 10
-15.7027365441
 20
27.2211294797
 30
0.0
 10
-15.4411054926
 20
27.3659849856
 30
0.0
 10
-15.154441426
 20
27.4558123575
 30
0.0
 10
-14.9544434334
 20
27.4760313258
 30
0.0
 10
-14.8545942975
 20
27.4760348245
 30
0.0
  0
SPLINE
  5
6A2
100
AcDbEntity
  8
RACCORDO
100
AcDbSpline
 62
250
  6
CONTINUOUS
 70
0
 71
3
 72
10
 73
6
 74
0
 42
0.0000001
 43
0.0000001
 44
0.0000000001
 40
0.0
 40
0.0
 40
0.0
 40
0.0
 40
0.6776890756
 40
0.8817227344
 40
1.0
 40
1.0
 40
1.0
 40
1.0
 10
43.9693218832
 20
42.3097716225
 30
0.0
 10
43.9766375815
 20
42.3086247548
 30
0.0
 10
43.9862887077
 20
42.3069513851
 30
0.0
 10
43.9964370077
 20
42.3033832738
 30
0.0
 10
43.9996570566
 20
42.3014081543
 30
0.0
 10
44.0002705684
 20
42.3002706506
 30
0.0
  0
SPLINE
  5
6A3
100
AcDbEntity
  8
RACCORDO
100
AcDbSpline
 62
250
  6
CONTINUOUS
 70
0
 71
3
 72
10
 73
6
 74
0
 42
0.0000001
 43
0.0000001
 44
0.0000000001
 40
0.0
 40
0.0
 40
0.0
 40
0.0
 40
0.6776699095
 40
0.8817040907
 40
1.0
 40
1.0
 40
1.0
 40
1.0
 10
43.3097714667
 20
42.9693228421
 30
0.0
 10
43.3086254024
 20
42.9766383652
 30
0.0
 10
43.3069527456
 20
42.9862892867
 30
0.0
 10
43.3033845203
 20
42.9964375534
 30
0.0
 10
43.3014084204
 20
42.9996572814
 30
0.0
 10
43.3002705969
 20
43.0002705969
 30
0.0
  0
SPLINE
  5
6A4
100
AcDbEntity
  8
RACCORDO
100
AcDbSpline
 62
250
  6
CONTINUOUS
 70
0
 71
3
 72
10
 73
6
 74
0
 42
0.0000001
 43
0.0000001
 44
0.0000000001
 40
0.0
 40
0.0
 40
0.0
 40
0.0
 40
0.6776890756
 40
0.8817227344
 40
1.0
 40
1.0
 40
1.0
 40
1.0
 10
-43.3097716225
 20
42.9693218832
 30
0.0
 10
-43.3086247548
 20
42.9766375815
 30
0.0
 10
-43.3069513851
 20
42.9862887077
 30
0.0
 10
-43.3033832738
 20
42.9964370077
 30
0.0
 10
-43.3014081543
 20
42.9996570566
 30
0.0
 10
-43.3002706506
 20
43.0002705684
 30
0.0
  0
SPLINE
  5
6A5
100
AcDbEntity
  8
RACCORDO
100
AcDbSpline
 62
250
  6
CONTINUOUS
 70
0
 71
3
 72
10
 73
6
 74
0
 42
0.0000001
 43
0.0000001
 44
0.0000000001
 40
0.0
 40
0.0
 40
0.0
 40
0.0
 40
0.6776699095
 40
0.8817040907
 40
1.0
 40
1.0
 40
1.0
 40
1.0
 10
-43.9693228421
 20
42.3097714667
 30
0.0
 10
-43.9766383652
 20
42.3086254024
 30
0.0
 10
-43.9862892867
 20
42.3069527456
 30
0.0
 10
-43.9964375534
 20
42.3033845203
 30
0.0
 10
-43.9996572814
 20
42.3014084204
 30
0.0
 10
-44.0002705969
 20
42.3002705969
 30
0.0
  0
SPLINE
  5
6A6
100
AcDbEntity
  8
RACCORDO
100
AcDbSpline
 62
250
  6
CONTINUOUS
 70
0
 71
3
 72
10
 73
6
 74
0
 42
0.0000001
 43
0.0000001
 44
0.0000000001
 40
0.0
 40
0.0
 40
0.0
 40
0.0
 40
0.6776890756
 40
0.8817227344
 40
1.0
 40
1.0
 40
1.0
 40
1.0
 10
-43.9693218832
 20
-42.3097716225
 30
0.0
 10
-43.9766375815
 20
-42.3086247548
 30
0.0
 10
-43.9862887077
 20
-42.3069513851
 30
0.0
 10
-43.9964370077
 20
-42.3033832738
 30
0.0
 10
-43.9996570566
 20
-42.3014081543
 30
0.0
 10
-44.0002705684
 20
-42.3002706506
 30
0.0
  0
SPLINE
  5
6A7
100
AcDbEntity
  8
RACCORDO
100
AcDbSpline
 62
250
  6
CONTINUOUS
 70
0
 71
3
 72
10
 73
6
 74
0
 42
0.0000001
 43
0.0000001
 44
0.0000000001
 40
0.0
 40
0.0
 40
0.0
 40
0.0
 40
0.6776699095
 40
0.8817040907
 40
1.0
 40
1.0
 40
1.0
 40
1.0
 10
-43.3097714667
 20
-42.9693228421
 30
0.0
 10
-43.3086254024
 20
-42.9766383652
 30
0.0
 10
-43.3069527456
 20
-42.9862892867
 30
0.0
 10
-43.3033845203
 20
-42.9964375534
 30
0.0
 10
-43.3014084204
 20
-42.9996572814
 30
0.0
 10
-43.3002705969
 20
-43.0002705969
 30
0.0
  0
SPLINE
  5
6A8
100
AcDbEntity
  8
RACCORDO
100
AcDbSpline
 62
250
  6
CONTINUOUS
 70
0
 71
3
 72
10
 73
6
 74
0
 42
0.0000001
 43
0.0000001
 44
0.0000000001
 40
0.0
 40
0.0
 40
0.0
 40
0.0
 40
0.6776890756
 40
0.8817227344
 40
1.0
 40
1.0
 40
1.0
 40
1.0
 10
43.3097716225
 20
-42.9693218832
 30
0.0
 10
43.3086247548
 20
-42.9766375815
 30
0.0
 10
43.3069513851
 20
-42.9862887077
 30
0.0
 10
43.3033832738
 20
-42.9964370077
 30
0.0
 10
43.3014081543
 20
-42.9996570566
 30
0.0
 10
43.3002706506
 20
-43.0002705684
 30
0.0
  0
SPLINE
  5
6A9
100
AcDbEntity
  8
RACCORDO
100
AcDbSpline
 62
250
  6
CONTINUOUS
 70
0
 71
3
 72
10
 73
6
 74
0
 42
0.0000001
 43
0.0000001
 44
0.0000000001
 40
0.0
 40
0.0
 40
0.0
 40
0.0
 40
0.6776699095
 40
0.8817040907
 40
1.0
 40
1.0
 40
1.0
 40
1.0
 10
43.9693228421
 20
-42.3097714667
 30
0.0
 10
43.9766383652
 20
-42.3086254024
 30
0.0
 10
43.9862892867
 20
-42.3069527456
 30
0.0
 10
43.9964375534
 20
-42.3033845203
 30
0.0
 10
43.9996572814
 20
-42.3014084204
 30
0.0
 10
44.0002705969
 20
-42.3002705969
 30
0.0
  0
ELLIPSE
  5
6AA
100
AcDbEntity
  8
RACCORDO
100
AcDbEllipse
 62
7
  6
CONTINUOUS
 10
-37.249313827
 20
-21.999313827
 30
0.0
 11
0.3545231217
 21
0.3545231217
 31
0.0
 40
0.9972646886
 41
2.3575640181
 42
3.9256212891
  0
ELLIPSE
  5
6AB
100
AcDbEntity
  8
RACCORDO
100
AcDbEllipse
 62
7
  6
CONTINUOUS
 10
-37.249313827
 20
-14.600686173
 30
0.0
 11
0.3545231217
 21
-0.3545231217
 31
0.0
 40
0.9972646886
 41
2.3575640181
 42
3.9256212891
  0
ELLIPSE
  5
6AC
100
AcDbEntity
  8
RACCORDO
100
AcDbEllipse
 62
7
  6
CONTINUOUS
 10
-37.249313827
 20
14.600686173
 30
0.0
 11
0.3545231217
 21
0.3545231217
 31
0.0
 40
0.9972646886
 41
2.3575640181
 42
3.9256212891
  0
ELLIPSE
  5
6AD
100
AcDbEntity
  8
RACCORDO
100
AcDbEllipse
 62
7
  6
CONTINUOUS
 10
-37.249313827
 20
21.999313827
 30
0.0
 11
0.3545231217
 21
-0.3545231217
 31
0.0
 40
0.9972646886
 41
2.3575640181
 42
3.9256212891
  0
ELLIPSE
  5
6AE
100
AcDbEntity
  8
RACCORDO
100
AcDbEllipse
 62
7
  6
CONTINUOUS
 10
37.249313827
 20
21.999313827
 30
0.0
 11
-0.3545231217
 21
-0.3545231217
 31
0.0
 40
0.9972646886
 41
2.3575640181
 42
3.9256212891
  0
ELLIPSE
  5
6AF
100
AcDbEntity
  8
RACCORDO
100
AcDbEllipse
 62
7
  6
CONTINUOUS
 10
37.249313827
 20
14.600686173
 30
0.0
 11
-0.3545231217
 21
0.3545231217
 31
0.0
 40
0.9972646886
 41
2.3575640181
 42
3.9256212891
  0
ELLIPSE
  5
6B0
100
AcDbEntity
  8
RACCORDO
100
AcDbEllipse
 62
7
  6
CONTINUOUS
 10
37.249313827
 20
-21.999313827
 30
0.0
 11
-0.3545231217
 21
0.3545231217
 31
0.0
 40
0.9972646886
 41
2.3575640181
 42
3.9256212891
  0
ELLIPSE
  5
6B1
100
AcDbEntity
  8
RACCORDO
100
AcDbEllipse
 62
7
  6
CONTINUOUS
 10
37.249313827
 20
-14.600686173
 30
0.0
 11
-0.3545231217
 21
-0.3545231217
 31
0.0
 40
0.9972646886
 41
2.3575640181
 42
3.9256212891
  0
ELLIPSE
  5
6B2
100
AcDbEntity
  8
RACCORDO
100
AcDbEllipse
 62
7
  6
CONTINUOUS
 10
34.6470912809
 20
21.999313827
 30
0.0
 11
0.1582391023
 21
-0.4751033573
 31
0.0
 40
0.9984778551
 41
2.8205423031
 42
4.3904252414
  0
ELLIPSE
  5
6B3
100
AcDbEntity
  8
RACCORDO
100
AcDbEllipse
 62
7
  6
CONTINUOUS
 10
34.6470912809
 20
14.600686173
 30
0.0
 11
0.1582391023
 21
0.4751033573
 31
0.0
 40
0.9984778551
 41
1.8927600658
 42
3.4626430041
  0
ELLIPSE
  5
6B4
100
AcDbEntity
  8
RACCORDO
100
AcDbEllipse
 62
7
  6
CONTINUOUS
 10
34.6470912809
 20
-21.999313827
 30
0.0
 11
0.1582391023
 21
0.4751033573
 31
0.0
 40
0.9984778551
 41
1.8927600658
 42
3.4626430041
  0
ELLIPSE
  5
6B5
100
AcDbEntity
  8
RACCORDO
100
AcDbEllipse
 62
7
  6
CONTINUOUS
 10
34.6470912809
 20
-14.600686173
 30
0.0
 11
0.1582391023
 21
-0.4751033573
 31
0.0
 40
0.9984778551
 41
2.8205423031
 42
4.3904252414
  0
ELLIPSE
  5
6B6
100
AcDbEntity
  8
RACCORDO
100
AcDbEllipse
 62
7
  6
CONTINUOUS
 10
-34.6470912809
 20
21.999313827
 30
0.0
 11
-0.1582391023
 21
-0.4751033573
 31
0.0
 40
0.9984778551
 41
1.8927600658
 42
3.4626430041
  0
ELLIPSE
  5
6B7
100
AcDbEntity
  8
RACCORDO
100
AcDbEllipse
 62
7
  6
CONTINUOUS
 10
-34.6470912809
 20
14.600686173
 30
0.0
 11
-0.1582391023
 21
0.4751033573
 31
0.0
 40
0.9984778551
 41
2.8205423031
 42
4.3904252414
  0
ELLIPSE
  5
6B8
100
AcDbEntity
  8
RACCORDO
100
AcDbEllipse
 62
7
  6
CONTINUOUS
 10
-34.6470912809
 20
-14.600686173
 30
0.0
 11
-0.1582391023
 21
-0.4751033573
 31
0.0
 40
0.9984778551
 41
1.8927600658
 42
3.4626430041
  0
ELLIPSE
  5
6B9
100
AcDbEntity
  8
RACCORDO
100
AcDbEllipse
 62
7
  6
CONTINUOUS
 10
-34.6470912809
 20
-21.999313827
 30
0.0
 11
-0.1582391023
 21
0.4751033573
 31
0.0
 40
0.9984778551
 41
2.8205423031
 42
4.3904252414
  0
ELLIPSE
  5
6BA
100
AcDbEntity
  8
RACCORDO
100
AcDbEllipse
 62
7
  6
CONTINUOUS
 10
34.4485592931
 20
-21.153817289
 30
0.0
 11
0.2
 21
-0.0
 31
0.0
 40
0.0174550649
 41
3.0377858168
 42
3.1241393611
  0
ELLIPSE
  5
6BB
100
AcDbEntity
  8
RACCORDO
100
AcDbEllipse
 62
7
  6
CONTINUOUS
 10
34.4485592931
 20
-15.446182711
 30
0.0
 11
0.2
 21
0.0
 31
0.0
 40
0.0174550649
 41
-2.4425408055
 42
-2.3561944902
  0
ELLIPSE
  5
6BC
100
AcDbEntity
  8
RACCORDO
100
AcDbEllipse
 62
7
  6
CONTINUOUS
 10
34.4485592931
 20
21.153817289
 30
0.0
 11
0.2
 21
0.0
 31
0.0
 40
0.0174550649
 41
-2.4425408042
 42
-2.3561944902
  0
ELLIPSE
  5
6BD
100
AcDbEntity
  8
RACCORDO
100
AcDbEllipse
 62
7
  6
CONTINUOUS
 10
34.4485592931
 20
15.446182711
 30
0.0
 11
0.2
 21
-0.0
 31
0.0
 40
0.0174550649
 41
3.0377858101
 42
3.1241393611
  0
ELLIPSE
  5
6BE
100
AcDbEntity
  8
RACCORDO
100
AcDbEllipse
 62
7
  6
CONTINUOUS
 10
-34.4485592931
 20
21.153817289
 30
0.0
 11
0.2
 21
0.0
 31
0.0
 40
0.0174550649
 41
-0.1038068368
 42
-0.0174532925
  0
ELLIPSE
  5
6BF
100
AcDbEntity
  8
RACCORDO
100
AcDbEllipse
 62
7
  6
CONTINUOUS
 10
-34.4485592931
 20
15.446182711
 30
0.0
 11
0.2
 21
-0.0
 31
0.0
 40
0.0174550649
 41
0.6990518481
 42
0.7853981634
  0
ELLIPSE
  5
6C0
100
AcDbEntity
  8
RACCORDO
100
AcDbEllipse
 62
7
  6
CONTINUOUS
 10
-34.4485592931
 20
-21.153817289
 30
0.0
 11
0.2
 21
0.0
 31
0.0
 40
0.0174550649
 41
0.6990518493
 42
0.7853981634
  0
ELLIPSE
  5
6C1
100
AcDbEntity
  8
RACCORDO
100
AcDbEllipse
 62
7
  6
CONTINUOUS
 10
-34.4485592931
 20
-15.446182711
 30
0.0
 11
0.2
 21
0.0
 31
0.0
 40
0.0174550649
 41
-0.1038068435
 42
-0.0174532925
  0
ELLIPSE
  5
6C2
100
AcDbEntity
  8
RACCORDO
100
AcDbEllipse
 62
7
  6
CONTINUOUS
 10
-34.1505061299
 20
-14.9102070867
 30
0.0
 11
-0.0
 21
0.2
 31
0.0
 40
0.0174550649
 41
-3.089232776
 42
-1.5707963268
  0
ELLIPSE
  5
6C3
100
AcDbEntity
  8
RACCORDO
100
AcDbEllipse
 62
7
  6
CONTINUOUS
 10
-34.1505061299
 20
-21.6897929133
 30
0.0
 11
-0.0
 21
0.2
 31
0.0
 40
0.0174550649
 41
-1.5707963268
 42
-0.0523598776
  0
ELLIPSE
  5
6C4
100
AcDbEntity
  8
RACCORDO
100
AcDbEllipse
 62
7
  6
CONTINUOUS
 10
-34.1505061299
 20
21.6897929133
 30
0.0
 11
0.0
 21
0.2
 31
0.0
 40
0.0174550649
 41
-3.089232776
 42
-1.5707963268
  0
ELLIPSE
  5
6C5
100
AcDbEntity
  8
RACCORDO
100
AcDbEllipse
 62
7
  6
CONTINUOUS
 10
-34.1505061299
 20
14.9102070867
 30
0.0
 11
0.0
 21
0.2
 31
0.0
 40
0.0174550649
 41
-1.5707963268
 42
-0.0523598776
  0
ELLIPSE
  5
6C6
100
AcDbEntity
  8
RACCORDO
100
AcDbEllipse
 62
7
  6
CONTINUOUS
 10
34.1505061299
 20
-14.9102070867
 30
0.0
 11
0.0
 21
0.2
 31
0.0
 40
0.0174550649
 41
-4.7123889804
 42
-3.1939525311
  0
ELLIPSE
  5
6C7
100
AcDbEntity
  8
RACCORDO
100
AcDbEllipse
 62
7
  6
CONTINUOUS
 10
34.1505061299
 20
-21.6897929133
 30
0.0
 11
-0.0
 21
0.2
 31
0.0
 40
0.0174550649
 41
0.0523598776
 42
1.5707963268
  0
ELLIPSE
  5
6C8
100
AcDbEntity
  8
RACCORDO
100
AcDbEllipse
 62
7
  6
CONTINUOUS
 10
34.1505061299
 20
21.6897929133
 30
0.0
 11
-0.0
 21
0.2
 31
0.0
 40
0.0174550649
 41
-4.7123889804
 42
-3.1939525311
  0
ELLIPSE
  5
6C9
100
AcDbEntity
  8
RACCORDO
100
AcDbEllipse
 62
7
  6
CONTINUOUS
 10
34.1505061299
 20
14.9102070867
 30
0.0
 11
0.0
 21
0.2
 31
0.0
 40
0.0174550649
 41
0.0523598776
 42
1.5707963268
  0
ELLIPSE
  5
6CA
100
AcDbEntity
  8
RACCORDO
100
AcDbEllipse
 62
7
  6
CONTINUOUS
 10
-14.2999695344
 20
-23.9500304656
 30
0.0
 11
-0.1414644378
 21
0.1414644378
 31
0.0
 40
0.9996954599
 41
-0.7852458701
 42
0.3730465223
  0
ELLIPSE
  5
6CB
100
AcDbEntity
  8
RACCORDO
100
AcDbEllipse
 62
7
  6
CONTINUOUS
 10
-8.2000304656
 20
-23.9500304656
 30
0.0
 11
0.1414644378
 21
0.1414644378
 31
0.0
 40
0.9996954599
 41
-0.3730465223
 42
0.7852458701
  0
ELLIPSE
  5
6CC
100
AcDbEntity
  8
RACCORDO
100
AcDbEllipse
 62
7
  6
CONTINUOUS
 10
-3.0499695344
 20
-23.9500304656
 30
0.0
 11
-0.1414644378
 21
0.1414644378
 31
0.0
 40
0.9996954599
 41
-0.7852458701
 42
0.3730465223
  0
ELLIPSE
  5
6CD
100
AcDbEntity
  8
RACCORDO
100
AcDbEllipse
 62
7
  6
CONTINUOUS
 10
3.0499695344
 20
-23.9500304656
 30
0.0
 11
0.1414644378
 21
0.1414644378
 31
0.0
 40
0.9996954599
 41
-0.3730465223
 42
0.7852458701
  0
ELLIPSE
  5
6CE
100
AcDbEntity
  8
RACCORDO
100
AcDbEllipse
 62
7
  6
CONTINUOUS
 10
8.2000304656
 20
-23.9500304656
 30
0.0
 11
-0.1414644378
 21
0.1414644378
 31
0.0
 40
0.9996954599
 41
-0.7852458701
 42
0.3730465223
  0
ELLIPSE
  5
6CF
100
AcDbEntity
  8
RACCORDO
100
AcDbEllipse
 62
7
  6
CONTINUOUS
 10
14.2999695344
 20
-23.9500304656
 30
0.0
 11
0.1414644378
 21
0.1414644378
 31
0.0
 40
0.9996954599
 41
-0.3730465223
 42
0.7852458701
  0
ELLIPSE
  5
6D0
100
AcDbEntity
  8
RACCORDO
100
AcDbEllipse
 62
7
  6
CONTINUOUS
 10
-14.2999695344
 20
23.9500304656
 30
0.0
 11
-0.1414644378
 21
-0.1414644378
 31
0.0
 40
0.9996954599
 41
-0.3730465223
 42
0.7852458701
  0
ELLIPSE
  5
6D1
100
AcDbEntity
  8
RACCORDO
100
AcDbEllipse
 62
7
  6
CONTINUOUS
 10
-8.2000304656
 20
23.9500304656
 30
0.0
 11
0.1414644378
 21
-0.1414644378
 31
0.0
 40
0.9996954599
 41
-0.7852458701
 42
0.3730465223
  0
ELLIPSE
  5
6D2
100
AcDbEntity
  8
RACCORDO
100
AcDbEllipse
 62
7
  6
CONTINUOUS
 10
-3.0499695344
 20
23.9500304656
 30
0.0
 11
-0.1414644378
 21
-0.1414644378
 31
0.0
 40
0.9996954599
 41
-0.3730465223
 42
0.7852458701
  0
ELLIPSE
  5
6D3
100
AcDbEntity
  8
RACCORDO
100
AcDbEllipse
 62
7
  6
CONTINUOUS
 10
3.0499695344
 20
23.9500304656
 30
0.0
 11
0.1414644378
 21
-0.1414644378
 31
0.0
 40
0.9996954599
 41
-0.7852458701
 42
0.3730465223
  0
ELLIPSE
  5
6D4
100
AcDbEntity
  8
RACCORDO
100
AcDbEllipse
 62
7
  6
CONTINUOUS
 10
8.2000304656
 20
23.9500304656
 30
0.0
 11
-0.1414644378
 21
-0.1414644378
 31
0.0
 40
0.9996954599
 41
-0.3730465223
 42
0.7852458701
  0
ELLIPSE
  5
6D5
100
AcDbEntity
  8
RACCORDO
100
AcDbEllipse
 62
7
  6
CONTINUOUS
 10
14.2999695344
 20
23.9500304656
 30
0.0
 11
0.1414644378
 21
-0.1414644378
 31
0.0
 40
0.9996954599
 41
-0.7852458701
 42
0.3730465223
  0
ELLIPSE
  5
6D6
100
AcDbEntity
  8
RACCORDO
100
AcDbEllipse
 62
7
  6
CONTINUOUS
 10
22.2499543016
 20
21.6499543016
 30
0.0
 11
-0.2121966568
 21
-0.2121966568
 31
0.0
 40
0.9996954599
 41
2.3563467834
 42
3.9268385237
  0
ELLIPSE
  5
6D7
100
AcDbEntity
  8
RACCORDO
100
AcDbEllipse
 62
7
  6
CONTINUOUS
 10
22.2499543016
 20
-21.6499543016
 30
0.0
 11
-0.2121966568
 21
0.2121966568
 31
0.0
 40
0.9996954599
 41
2.3563467834
 42
3.9268385237
  0
ELLIPSE
  5
6D8
100
AcDbEntity
  8
RACCORDO
100
AcDbEllipse
 62
7
  6
CONTINUOUS
 10
-22.2499543016
 20
-21.6499543016
 30
0.0
 11
0.2121966568
 21
0.2121966568
 31
0.0
 40
0.9996954599
 41
2.3563467834
 42
3.9268385237
  0
ELLIPSE
  5
6D9
100
AcDbEntity
  8
RACCORDO
100
AcDbEllipse
 62
7
  6
CONTINUOUS
 10
-22.2499543016
 20
21.6499543016
 30
0.0
 11
0.2121966568
 21
-0.2121966568
 31
0.0
 40
0.9996954599
 41
2.3563467834
 42
3.9268385237
  0
ELLIPSE
  5
6DA
100
AcDbEntity
  8
RACCORDO
100
AcDbEllipse
 62
7
  6
CONTINUOUS
 10
34.9428629304
 20
15.6597783166
 30
0.0
 11
0.1881049185
 21
0.0798458007
 31
0.0
 40
0.9751955544
 41
4.3196137521
 42
5.8907146654
  0
ELLIPSE
  5
6DB
100
AcDbEntity
  8
RACCORDO
100
AcDbEllipse
 62
7
  6
CONTINUOUS
 10
34.9428629304
 20
-20.9402216834
 30
0.0
 11
0.1881049185
 21
0.0798458007
 31
0.0
 40
0.9751955544
 41
4.3196137521
 42
5.8907146654
  0
ELLIPSE
  5
6DC
100
AcDbEntity
  8
RACCORDO
100
AcDbEllipse
 62
7
  6
CONTINUOUS
 10
-34.9428629304
 20
-15.6597783166
 30
0.0
 11
0.1881049185
 21
0.0798458007
 31
0.0
 40
0.9751955544
 41
7.4612064057
 42
9.0323073189
  0
ELLIPSE
  5
6DD
100
AcDbEntity
  8
RACCORDO
100
AcDbEllipse
 62
7
  6
CONTINUOUS
 10
34.9428629304
 20
20.9402216834
 30
0.0
 11
0.1881049185
 21
-0.0798458007
 31
0.0
 40
0.9751955544
 41
0.3924706418
 42
1.9635715551
  0
ELLIPSE
  5
6DE
100
AcDbEntity
  8
RACCORDO
100
AcDbEllipse
 62
7
  6
CONTINUOUS
 10
-34.9428629304
 20
15.6597783166
 30
0.0
 11
0.1881049185
 21
-0.0798458007
 31
0.0
 40
0.9751955544
 41
-2.7491220118
 42
-1.1780210985
  0
ELLIPSE
  5
6DF
100
AcDbEntity
  8
RACCORDO
100
AcDbEllipse
 62
7
  6
CONTINUOUS
 10
-34.9428629304
 20
-20.9402216834
 30
0.0
 11
0.1881049185
 21
-0.0798458007
 31
0.0
 40
0.9751955544
 41
-2.7491220118
 42
-1.1780210985
  0
ELLIPSE
  5
6E0
100
AcDbEntity
  8
RACCORDO
100
AcDbEllipse
 62
7
  6
CONTINUOUS
 10
-34.9428629304
 20
20.9402216834
 30
0.0
 11
0.1881049185
 21
0.0798458007
 31
0.0
 40
0.9751955544
 41
7.4612064057
 42
9.0323073189
  0
ELLIPSE
  5
6E1
100
AcDbEntity
  8
RACCORDO
100
AcDbEllipse
 62
7
  6
CONTINUOUS
 10
34.9428629304
 20
-15.6597783166
 30
0.0
 11
0.1881049185
 21
-0.0798458007
 31
0.0
 40
0.9751955544
 41
0.3924706418
 42
1.9635715551
  0
ELLIPSE
  5
6E2
100
AcDbEntity
  8
RACCORDO
100
AcDbEllipse
 62
7
  6
CONTINUOUS
 10
-14.2690054516
 20
-25.4998780911
 30
0.0
 11
0.0469231016
 21
0.1945503494
 31
0.0
 40
0.9993554248
 41
1.8163424169
 42
3.378113182
  0
ELLIPSE
  5
6E3
100
AcDbEntity
  8
RACCORDO
100
AcDbEllipse
 62
7
  6
CONTINUOUS
 10
-3.0190054516
 20
-25.4998780911
 30
0.0
 11
0.0469231016
 21
0.1945503494
 31
0.0
 40
0.9993554248
 41
1.8163424169
 42
3.378113182
  0
ELLIPSE
  5
6E4
100
AcDbEntity
  8
RACCORDO
100
AcDbEllipse
 62
7
  6
CONTINUOUS
 10
3.0190054516
 20
-25.4998780911
 30
0.0
 11
-0.0469231016
 21
0.1945503494
 31
0.0
 40
0.9993554248
 41
2.9050721252
 42
4.4668428903
  0
ELLIPSE
  5
6E5
100
AcDbEntity
  8
RACCORDO
100
AcDbEllipse
 62
7
  6
CONTINUOUS
 10
8.2309945484
 20
-25.4998780911
 30
0.0
 11
0.0469231016
 21
0.1945503494
 31
0.0
 40
0.9993554248
 41
1.8163424169
 42
3.378113182
  0
ELLIPSE
  5
6E6
100
AcDbEntity
  8
RACCORDO
100
AcDbEllipse
 62
7
  6
CONTINUOUS
 10
14.2690054516
 20
-25.4998780911
 30
0.0
 11
-0.0469231016
 21
0.1945503494
 31
0.0
 40
0.9993554248
 41
2.9050721252
 42
4.4668428903
  0
ELLIPSE
  5
6E7
100
AcDbEntity
  8
RACCORDO
100
AcDbEllipse
 62
7
  6
CONTINUOUS
 10
-8.2309945484
 20
25.4998780911
 30
0.0
 11
-0.0469231016
 21
-0.1945503494
 31
0.0
 40
0.9993554248
 41
1.8163424169
 42
3.378113182
  0
ELLIPSE
  5
6E8
100
AcDbEntity
  8
RACCORDO
100
AcDbEllipse
 62
7
  6
CONTINUOUS
 10
-14.2690054516
 20
25.4998780911
 30
0.0
 11
0.0469231016
 21
-0.1945503494
 31
0.0
 40
0.9993554248
 41
2.9050721252
 42
4.4668428903
  0
ELLIPSE
  5
6E9
100
AcDbEntity
  8
RACCORDO
100
AcDbEllipse
 62
7
  6
CONTINUOUS
 10
3.0190054516
 20
25.4998780911
 30
0.0
 11
-0.0469231016
 21
-0.1945503494
 31
0.0
 40
0.9993554248
 41
1.8163424169
 42
3.378113182
  0
ELLIPSE
  5
6EA
100
AcDbEntity
  8
RACCORDO
100
AcDbEllipse
 62
7
  6
CONTINUOUS
 10
-3.0190054516
 20
25.4998780911
 30
0.0
 11
0.0469231016
 21
-0.1945503494
 31
0.0
 40
0.9993554248
 41
2.9050721252
 42
4.4668428903
  0
ELLIPSE
  5
6EB
100
AcDbEntity
  8
RACCORDO
100
AcDbEllipse
 62
7
  6
CONTINUOUS
 10
14.2690054516
 20
25.4998780911
 30
0.0
 11
-0.0469231016
 21
-0.1945503494
 31
0.0
 40
0.9993554248
 41
1.8163424169
 42
3.378113182
  0
ENDSEC
  0
SECTION
  2
OBJECTS
  0
DICTIONARY
  5
C
100
AcDbDictionary
280
0
281
1
  3
ACAD_GROUP
350
D
  3
ACAD_MLINESTYLE
350
17
  3
ACAD_LAYOUT
350
1A
  3
ACAD_PLOTSETTINGS
350
19
  3
ACAD_PLOTSTYLENAME
350
E
  0
DICTIONARY
  5
D
102
{ACAD_REACTORS
330
C
102
}
100
AcDbDictionary
280
0
281
1
  0
ACDBDICTIONARYWDFLT
  5
E
102
{ACAD_REACTORS
330
C
102
}
100
AcDbDictionary
281
1
  3
Normal
350
F
100
AcDbDictionaryWithDefault
340
F
  0
DICTIONARY
  5
17
102
{ACAD_REACTORS
330
C
102
}
100
AcDbDictionary
280
0
281
1
  3
Standard
350
18
  0
DICTIONARY
  5
19
102
{ACAD_REACTORS
330
C
102
}
100
AcDbDictionary
281
1
  0
DICTIONARY
  5
1A
102
{ACAD_REACTORS
330
C
102
}
100
AcDbDictionary
281
1
  3
Model
350
6EC
  3
Layout1
350
6ED
  0
ACDBPLACEHOLDER
  5
F
102
{ACAD_REACTORS
330
E
102
}
  0
MLINESTYLE
  5
18
102
{ACAD_REACTORS
330
17
102
}
100
AcDbMlineStyle
  2
STANDARD
 70
0
  3

 62
256
 51
90.0
 52
90.0
 71
2
 49
0.5
 62
256
  6
BYLAYER
 49
-0.5
 62
256
  6
BYLAYER
  0
LAYOUT
  5
6EC
102
{ACAD_REACTORS
330
1A
102
}
100
AcDbPlotSettings
  1

  2
none_device
  4
ISO_A4_(297.00_x_210.00_MM)
  6

 40
0.0
 41
0.0
 42
0.0
 43
0.0
 44
297.0
 45
210.0
 46
0.0
 47
0.0
 48
0.0
 49
0.0
140
0.0
141
0.0
142
1.0
143
1.0
 70
1024
 72
1
 73
0
 74
0
  7

 75
0
147
1.0
148
0.0
149
0.0
100
AcDbLayout
  1
Model
 70
0
 71
0
 10
0.0
 20
0.0
 11
297.0
 21
210.0
 12
0.0
 22
0.0
 32
0.0
 14
0.0
 24
0.0
 34
0.0
 15
0.0
 25
0.0
 35
0.0
146
0.0
 13
0.0
 23
0.0
 33
0.0
 16
1.0
 26
0.0
 36
0.0
 17
0.0
 27
1.0
 37
0.0
 76
0
330
213
345
0
346
0
  0
LAYOUT
  5
6ED
102
{ACAD_REACTORS
330
1A
102
}
100
AcDbPlotSettings
  1

  2
none_device
  4
ISO_A4_(297.00_x_210.00_MM)
  6

 40
0.0
 41
0.0
 42
0.0
 43
0.0
 44
297.0
 45
210.0
 46
0.0
 47
0.0
 48
0.0
 49
0.0
140
0.0
141
0.0
142
1.0
143
1.0
 70
0
 72
1
 73
0
 74
0
  7

 75
0
147
1.0
148
0.0
149
0.0
100
AcDbLayout
  1
Layout1
 70
0
 71
1
 10
0.0
 20
0.0
 11
297.0
 21
210.0
 12
0.0
 22
0.0
 32
0.0
 14
0.0
 24
0.0
 34
0.0
 15
0.0
 25
0.0
 35
0.0
146
0.0
 13
0.0
 23
0.0
 33
0.0
 16
1.0
 26
0.0
 36
0.0
 17
0.0
 27
1.0
 37
0.0
 76
0
330
214
345
0
346
0
  0
ENDSEC
  0
EOF
