  0
SECTION
  2
HEADER
  9
$ACADVER
  1
AC1024
  9
$DWGCODEPAGE
  3
ANSI_1252
  9
$EXTMAX
 10
297.0
 20
210.0
 30
0.0
  9
$EXTMIN
 10
0.0
 20
0.0
 30
0.0
  9
$LIMMIN
 10
0.0
 20
0.0
  9
$LIMMAX
 10
297.0
 20
210.0
  9
$VIEWCTR
 10
148.5
 20
105.0
  9
$VIEWSIZE
 40
210.0
  9
$CLAYER
  8
0
  9
$LTSCALE
 40
16.335
  9
$CELTYPE
  6
BYLAYER
  9
$DIMSCALE
 40
1.0
  9
$DIMASZ
 40
3.0
  9
$DIMEXO
 40
0.5
  9
$DIMDLI
 40
11.286
  9
$DIMEXE
 40
1.5
  9
$DIMCEN
 40
2.673
  9
$DIMLFAC
 40
1.0
  9
$DIMBLK
  1
_FILLED
  9
$DIMALT
 70
0
  9
$DIMALTF
 40
0.0393700787
  9
$DIMTXT
 40
3.0
  9
$DIMTOL
 70
1
  9
$DIMLIM
 70
0
  9
$DIMTFAC
 40
1.0
  9
$DIMTP
 40
0.01
  9
$DIMTM
 40
0.01
  9
$DIMGAP
 40
0.625
  9
$DIMDSEP
 70
44
  9
$AUNITS
 70
0
  9
$PDMODE
 70
3
  9
$PDSIZE
 40
3.0
  9
$HANDSEED
  5
7A8
  9
$TILEMODE
 70
1
  9
$MEASUREMENT
 70
1
  9
$INSUNITS
 70
4
  0
ENDSEC
  0
SECTION
  2
CLASSES
  0
CLASS
  1
ACDBDICTIONARYWDFLT
  2
AcDbDictionaryWithDefault
  3
AutoCAD 2000
 90
0
 91
1
280
0
281
0
  0
CLASS
  1
ACDBPLACEHOLDER
  2
AcDbPlaceHolder
  3
AutoCAD 2000
 90
0
 91
1
280
0
281
0
  0
CLASS
  1
LAYOUT
  2
AcDbLayout
  3
AutoCAD 2000
 90
0
 91
0
280
0
281
0
  0
ENDSEC
  0
SECTION
  2
TABLES
  0
TABLE
  2
VPORT
  5
8
100
AcDbSymbolTable
 70
2
  0
VPORT
  5
1F4
100
AcDbSymbolTableRecord
100
AcDbViewportTableRecord
  2
*ACTIVE
 70
0
 10
0.0
 20
0.0
 11
1.0
 21
1.0
 12
148.5
 22
105.0
 13
0.0
 23
0.0
 14
1.0
 24
1.0
 15
0.0
 25
0.0
 16
0.0
 26
0.0
 36
1.0
 17
0.0
 27
0.0
 37
0.0
 40
210.0
 41
1.4142857143
 42
50.0
 43
0.0
 44
0.0
 50
0.0
 51
0.0
 71
0
 72
100
 73
1
 74
1
 75
0
 76
0
 77
0
 78
0
  0
ENDTAB
  0
TABLE
  2
LTYPE
  5
5
100
AcDbSymbolTable
 70
6
  0
LTYPE
  5
14
100
AcDbSymbolTableRecord
100
AcDbLinetypeTableRecord
  2
BYBLOCK
 70
0
  3

 72
65
 73
0
 40
0.0
  0
LTYPE
  5
15
100
AcDbSymbolTableRecord
100
AcDbLinetypeTableRecord
  2
BYLAYER
 70
0
  3

 72
65
 73
0
 40
0.0
  0
LTYPE
  5
16
100
AcDbSymbolTableRecord
100
AcDbLinetypeTableRecord
  2
CONTINUOUS
 70
64
  3
Solid line
 72
65
 73
0
 40
0.0
  0
LTYPE
  5
1F5
100
AcDbSymbolTableRecord
100
AcDbLinetypeTableRecord
  2
CENTER
 70
64
  3
____ _ ____ _ ____ _ ____ _ ____ _ ____ _ ____
 72
65
 73
4
 40
0.6
 49
0.375
 74
0
 49
-0.075
 74
0
 49
0.075
 74
0
 49
-0.075
 74
0
  0
LTYPE
  5
1F6
100
AcDbSymbolTableRecord
100
AcDbLinetypeTableRecord
  2
HIDDEN
 70
64
  3
- - - - - - - - - - - - - - - - - - - -
 72
65
 73
2
 40
0.2
 49
0.1
 74
0
 49
-0.1
 74
0
  0
LTYPE
  5
1F7
100
AcDbSymbolTableRecord
100
AcDbLinetypeTableRecord
  2
PHANTOM
 70
64
  3
_____ _ _ _____ _ _ _____ _ _ _____
 72
65
 73
6
 40
0.8
 49
0.45
 74
0
 49
-0.05
 74
0
 49
0.1
 74
0
 49
-0.05
 74
0
 49
0.1
 74
0
 49
-0.05
 74
0
  0
LTYPE
  5
1F8
100
AcDbSymbolTableRecord
100
AcDbLinetypeTableRecord
  2
DOT
 70
64
  3
. . . . . . . . . . . . . . . . . . . .
 72
65
 73
2
 40
0.2
 49
0.1
 74
0
 49
-0.1
 74
0
  0
LTYPE
  5
1F9
100
AcDbSymbolTableRecord
100
AcDbLinetypeTableRecord
  2
DASHED
 70
64
  3
- - - - - - - - - - - - - - - - - - - -
 72
65
 73
2
 40
0.2
 49
0.1
 74
0
 49
-0.1
 74
0
  0
ENDTAB
  0
TABLE
  2
LAYER
  5
2
100
AcDbSymbolTable
 70
36
  0
LAYER
  5
10
100
AcDbSymbolTableRecord
100
AcDbLayerTableRecord
  2
0
 70
0
 62
7
  6
CONTINUOUS
370
-3
390
F
  0
LAYER
  5
1FA
100
AcDbSymbolTableRecord
100
AcDbLayerTableRecord
  2
DEFAULT_1
 70
0
 62
7
  6
CENTER
370
-3
390
F
  0
LAYER
  5
1FB
100
AcDbSymbolTableRecord
100
AcDbLayerTableRecord
  2
DEFAULT_2
 70
0
 62
7
  6
HIDDEN
370
-3
390
F
  0
LAYER
  5
1FC
100
AcDbSymbolTableRecord
100
AcDbLayerTableRecord
  2
DEFAULT_3
 70
0
 62
7
  6
PHANTOM
370
-3
390
F
  0
LAYER
  5
1FD
100
AcDbSymbolTableRecord
100
AcDbLayerTableRecord
  2
ASSI
 70
0
 62
7
  6
CONTINUOUS
370
-3
390
F
  0
LAYER
  5
1FE
100
AcDbSymbolTableRecord
100
AcDbLayerTableRecord
  2
COLOR5
 70
0
 62
7
  6
CONTINUOUS
370
-3
390
F
  0
LAYER
  5
1FF
100
AcDbSymbolTableRecord
100
AcDbLayerTableRecord
  2
COORDINATE
 70
0
 62
7
  6
CONTINUOUS
370
-3
390
F
  0
LAYER
  5
200
100
AcDbSymbolTableRecord
100
AcDbLayerTableRecord
  2
COORD_ORIGINE
 70
0
 62
7
  6
CONTINUOUS
370
-3
390
F
  0
LAYER
  5
201
100
AcDbSymbolTableRecord
100
AcDbLayerTableRecord
  2
CURVE
 70
0
 62
7
  6
CONTINUOUS
370
-3
390
F
  0
LAYER
  5
202
100
AcDbSymbolTableRecord
100
AcDbLayerTableRecord
  2
DRAFT
 70
0
 62
7
  6
CONTINUOUS
370
-3
390
F
  0
LAYER
  5
203
100
AcDbSymbolTableRecord
100
AcDbLayerTableRecord
  2
IMPORT_SCRITTE
 70
0
 62
7
  6
CONTINUOUS
370
-3
390
F
  0
LAYER
  5
204
100
AcDbSymbolTableRecord
100
AcDbLayerTableRecord
  2
INTF_2
 70
0
 62
7
  6
CONTINUOUS
370
-3
390
F
  0
LAYER
  5
205
100
AcDbSymbolTableRecord
100
AcDbLayerTableRecord
  2
NOTE
 70
0
 62
7
  6
CONTINUOUS
370
-3
390
F
  0
LAYER
  5
206
100
AcDbSymbolTableRecord
100
AcDbLayerTableRecord
  2
PIANI
 70
0
 62
7
  6
CONTINUOUS
370
-3
390
F
  0
LAYER
  5
207
100
AcDbSymbolTableRecord
100
AcDbLayerTableRecord
  2
PIANI_ORIGINE
 70
0
 62
7
  6
CONTINUOUS
370
-3
390
F
  0
LAYER
  5
208
100
AcDbSymbolTableRecord
100
AcDbLayerTableRecord
  2
PIANI_RIFERIMENTO
 70
0
 62
7
  6
CONTINUOUS
370
-3
390
F
  0
LAYER
  5
209
100
AcDbSymbolTableRecord
100
AcDbLayerTableRecord
  2
PUNTI
 70
0
 62
7
  6
CONTINUOUS
370
-3
390
F
  0
LAYER
  5
20A
100
AcDbSymbolTableRecord
100
AcDbLayerTableRecord
  2
RACCORDO
 70
0
 62
7
  6
CONTINUOUS
370
-3
390
F
  0
LAYER
  5
20B
100
AcDbSymbolTableRecord
100
AcDbLayerTableRecord
  2
SMUSSO
 70
0
 62
7
  6
CONTINUOUS
370
-3
390
F
  0
LAYER
  5
20C
100
AcDbSymbolTableRecord
100
AcDbLayerTableRecord
  2
SNAPLINE
 70
0
 62
7
  6
CONTINUOUS
370
-3
390
F
  0
LAYER
  5
20D
100
AcDbSymbolTableRecord
100
AcDbLayerTableRecord
  2
SUPERFICI
 70
0
 62
7
  6
CONTINUOUS
370
-3
390
F
  0
LAYER
  5
20E
100
AcDbSymbolTableRecord
100
AcDbLayerTableRecord
  2
TRASH
 70
0
 62
7
  6
CONTINUOUS
370
-3
390
F
  0
LAYER
  5
20F
100
AcDbSymbolTableRecord
100
AcDbLayerTableRecord
  2
XSEC_DATUMS
 70
0
 62
7
  6
CONTINUOUS
370
-3
390
F
  0
ENDTAB
  0
TABLE
  2
STYLE
  5
3
100
AcDbSymbolTable
 70
1
  0
STYLE
  5
11
100
AcDbSymbolTableRecord
100
AcDbTextStyleTableRecord
  2
STANDARD
 70
0
 40
0.0
 41
0.8
 50
0.0
 71
0
 42
0.2
  3
txt
  4

  0
STYLE
  5
210
100
AcDbSymbolTableRecord
100
AcDbTextStyleTableRecord
  2
TEXTSTYLE_1
 70
0
 40
0.0
 41
0.8
 50
0.0
 71
0
 42
0.2
  3
gdt
  4

  0
ENDTAB
  0
TABLE
  2
VIEW
  5
6
100
AcDbSymbolTable
 70
0
  0
ENDTAB
  0
TABLE
  2
UCS
  5
7
100
AcDbSymbolTable
 70
0
  0
ENDTAB
  0
TABLE
  2
APPID
  5
9
100
AcDbSymbolTable
 70
1
  0
APPID
  5
211
100
AcDbSymbolTableRecord
100
AcDbRegAppTableRecord
  2
ACAD
 70
0
  0
ENDTAB
  0
TABLE
  2
BLOCK_RECORD
  5
1
100
AcDbSymbolTable
 70
0
  0
BLOCK_RECORD
  5
212
100
AcDbSymbolTableRecord
100
AcDbBlockTableRecord
  2
*Model_Space
  0
BLOCK_RECORD
  5
213
100
AcDbSymbolTableRecord
100
AcDbBlockTableRecord
  2
*Paper_Space
  0
BLOCK_RECORD
  5
214
100
AcDbSymbolTableRecord
100
AcDbBlockTableRecord
  2
_FILLED
  0
ENDTAB
  0
TABLE
  2
DIMSTYLE
  5
A
100
AcDbSymbolTable
 70
1
100
AcDbDimStyleTable
 71
0
  0
DIMSTYLE
105
215
100
AcDbSymbolTableRecord
100
AcDbDimStyleTableRecord
  2
STANDARD
 70
0
  3

  4

 40
1.0
 41
3.0
 42
0.5
 43
0.38
 44
1.5
 45
0.0
 46
0.0
 47
0.01
 48
0.01
140
3.0
141
0.09
142
0.0
143
25.4
144
1.0
145
0.0
146
1.0
147
0.625
 71
1
 72
0
 73
0
 74
0
 75
0
 76
0
 77
1
 78
8
 79
2
170
0
171
1
172
0
173
0
174
0
175
0
176
0
177
0
178
0
270
2
179
2
271
2
272
2
273
2
274
2
275
0
280
0
281
0
282
0
283
1
284
8
285
0
286
0
287
3
288
0
340
11
278
44
341
214
342
214
343
214
344
214
  0
ENDTAB
  0
ENDSEC
  0
SECTION
  2
BLOCKS
  0
BLOCK
  5
20
100
AcDbEntity
  8
0
100
AcDbBlockBegin
  2
*Model_Space
 70
0
 10
0.0
 20
0.0
 30
0.0
  3
*Model_Space
  1

  0
ENDBLK
  5
21
100
AcDbEntity
  8
0
100
AcDbBlockEnd
  0
BLOCK
  5
1C
100
AcDbEntity
  8
0
100
AcDbBlockBegin
  2
*Paper_Space
 70
0
 10
0.0
 20
0.0
 30
0.0
  3
*Paper_Space
  1

  0
ENDBLK
  5
1D
100
AcDbEntity
  8
0
100
AcDbBlockEnd
  0
BLOCK
  5
216
100
AcDbEntity
  8
0
100
AcDbBlockBegin
  2
_FILLED
 70
64
 10
0.0
 20
0.0
  3
_FILLED
  1

  0
SOLID
  5
217
100
AcDbEntity
  8
0
  6
BYBLOCK
 62
0
100
AcDbTrace
 10
0.0
 20
0.0
 11
-1.0
 21
0.3166666667
 12
-1.0
 22
-0.3166666667
 13
-1.0
 23
-0.3166666667
  0
ENDBLK
  5
218
100
AcDbEntity
  8
0
  6
BYBLOCK
 62
0
100
AcDbBlockEnd
  0
ENDSEC
  0
SECTION
  2
ENTITIES
  0
LWPOLYLINE
  5
219
100
AcDbEntity
  8
RACCORDO
100
AcDbPolyline
 62
7
  6
CONTINUOUS
 90
19
 70
0
 10
-9.2752736701
 20
37.7735427614
 10
-9.3808492525
 20
37.700948471
 10
-9.4813119325
 20
37.6214322218
 10
-9.5764769403
 20
37.5352929879
 10
-9.666668724
 20
37.4424846748
 10
-9.7512250556
 20
37.3436297258
 10
-9.8286022389
 20
37.2401211663
 10
-9.898533048
 20
37.1325315733
 10
-9.9612854195
 20
37.021027816
 10
-10.0162910354
 20
36.9064914319
 10
-10.0636439024
 20
36.7891559428
 10
-10.1034462444
 20
36.6694517715
 10
-10.1352724186
 20
36.5485619692
 10
-10.1592381361
 20
36.4264548157
 10
-10.1756120529
 20
36.3036720601
 10
-10.1843504821
 20
36.1822018219
 10
-10.1856585412
 20
36.0627758367
 10
-10.1798954532
 20
35.9448867072
 10
-10.1673205765
 20
35.8285849474
  0
LWPOLYLINE
  5
21A
100
AcDbEntity
  8
RACCORDO
100
AcDbPolyline
 62
7
  6
CONTINUOUS
 90
7
 70
0
 10
-9.2752736701
 20
37.7735427614
 10
-9.1843344685
 20
37.8305602852
 10
-9.0920190338
 20
37.8853240319
 10
-8.9983785182
 20
37.9377926029
 10
-8.9034646526
 20
37.9879249484
 10
-8.807329728
 20
38.0356803807
 10
-8.7100265763
 20
38.0810185885
  0
LWPOLYLINE
  5
21B
100
AcDbEntity
  8
RACCORDO
100
AcDbPolyline
 62
7
  6
CONTINUOUS
 90
7
 70
0
 10
-8.68465987
 20
38.1754980288
 10
-8.8079843168
 20
38.1196605102
 10
-8.9290784559
 20
38.060376593
 10
-9.0479422873
 20
37.9976462772
 10
-9.164575811
 20
37.9314695628
 10
-9.2789790271
 20
37.8618464498
 10
-9.3911519355
 20
37.7887769383
  0
LWPOLYLINE
  5
21C
100
AcDbEntity
  8
DRAFT
100
AcDbPolyline
 62
7
  6
CONTINUOUS
 90
28
 70
0
 10
15.06534013
 20
-34.4615262841
 10
15.3826418109
 20
-34.452973798
 10
15.6976723395
 20
-34.4279216315
 10
16.0104317161
 20
-34.3863697847
 10
16.321763542
 20
-34.3282145632
 10
16.6308242157
 20
-34.2535596614
 10
16.935082933
 20
-34.1627161625
 10
17.2346797633
 20
-34.0553913908
 10
17.5294746371
 20
-33.9318780221
 10
17.8165165424
 20
-33.7933651664
 10
18.0955151971
 20
-33.6398599976
 10
18.3667608831
 20
-33.4713553419
 10
18.6281734343
 20
-33.2890187882
 10
18.8798925675
 20
-33.0925150975
 10
19.121778566
 20
-32.8821795087
 10
19.3513321127
 20
-32.6601853275
 10
19.5682018163
 20
-32.426624365
 10
19.7727390682
 20
-32.1814048101
 10
19.9634987252
 20
-31.9264245353
 10
20.1405282082
 20
-31.6613970424
 10
20.3037800964
 20
-31.3866088296
 10
20.4516669835
 20
-31.1048172646
 10
20.5838795624
 20
-30.8161204328
 10
20.7007271403
 20
-30.5204202488
 10
20.8015502326
 20
-30.2201798236
 10
20.8861290112
 20
-29.9162201945
 10
20.9546833042
 20
-29.6077203243
 10
21.0072131117
 20
-29.2946802131
  0
LINE
  5
21D
100
AcDbEntity
  8
DRAFT
100
AcDbLine
 62
7
  6
CONTINUOUS
 10
-6.93465987
 20
-34.4615262841
 11
15.06534013
 21
-34.4615262841
  0
LINE
  5
21E
100
AcDbEntity
  8
0
100
AcDbLine
 62
7
  6
CONTINUOUS
 10
-2.88465987
 20
-32.8615262841
 11
-2.012368634
 21
-32.8615262841
  0
LINE
  5
21F
100
AcDbEntity
  8
0
100
AcDbLine
 62
7
  6
CONTINUOUS
 10
10.143048894
 20
-32.8615262841
 11
11.01534013
 21
-32.8615262841
  0
LINE
  5
220
100
AcDbEntity
  8
0
100
AcDbLine
 62
7
  6
CONTINUOUS
 10
-2.8594009451
 20
-32.7856878863
 11
-2.1450893673
 21
-32.7856878863
  0
LINE
  5
221
100
AcDbEntity
  8
0
100
AcDbLine
 62
7
  6
CONTINUOUS
 10
10.2757696273
 20
-32.7856878863
 11
10.9900812052
 21
-32.7856878863
  0
LWPOLYLINE
  5
222
100
AcDbEntity
  8
RACCORDO
100
AcDbPolyline
 62
7
  6
CONTINUOUS
 90
7
 70
0
 10
-8.7100265763
 20
-32.4040711567
 10
-8.807329728
 20
-32.358732949
 10
-8.9034646526
 20
-32.3109775166
 10
-8.9983785182
 20
-32.2608451711
 10
-9.0920190338
 20
-32.2083766001
 10
-9.1843344685
 20
-32.1536128534
 10
-9.2752736701
 20
-32.0965953296
  0
LWPOLYLINE
  5
223
100
AcDbEntity
  8
RACCORDO
100
AcDbPolyline
 62
7
  6
CONTINUOUS
 90
7
 70
0
 10
-9.3911519622
 20
-32.1118294903
 10
-9.2789790416
 20
-32.1848990093
 10
-9.1645758164
 20
-32.2545221277
 10
-9.0479422867
 20
-32.3206988457
 10
-8.9290784524
 20
-32.3834291633
 10
-8.8079843135
 20
-32.4427130804
 10
-8.68465987
 20
-32.498550597
  0
LWPOLYLINE
  5
224
100
AcDbEntity
  8
RACCORDO
100
AcDbPolyline
 62
7
  6
CONTINUOUS
 90
19
 70
0
 10
-9.3911519622
 20
-32.1118294903
 10
-9.4919765844
 20
-32.039454194
 10
-9.5877103005
 20
-31.9612262256
 10
-9.6783531103
 20
-31.8771455852
 10
-9.7644053987
 20
-31.7866383175
 10
-9.8453667809
 20
-31.6902783779
 10
-9.9197361025
 20
-31.5897876316
 10
-9.9871812954
 20
-31.4853305331
 10
-10.0480344277
 20
-31.3767426281
 10
-10.1017905499
 20
-31.2652524191
 10
-10.1483887844
 20
-31.1508569223
 10
-10.1878900088
 20
-31.0335591215
 10
-10.2199719052
 20
-30.914596471
 10
-10.244572634
 20
-30.7939019841
 10
-10.261754035
 20
-30.6715426475
 10
-10.2713793092
 20
-30.5489568749
 10
-10.2734028573
 20
-30.4266241377
 10
-10.2678702786
 20
-30.3040649645
 10
-10.2547815733
 20
-30.1812793554
  0
LWPOLYLINE
  5
225
100
AcDbEntity
  8
0
100
AcDbPolyline
 62
7
  6
CONTINUOUS
 90
45
 70
0
 10
4.2428361145
 20
-31.3874231812
 10
4.3636248725
 20
-31.3706930801
 10
4.4829401746
 20
-31.3455200868
 10
4.6001926305
 20
-31.3120285494
 10
4.7148030397
 20
-31.2703839081
 10
4.826205253
 20
-31.2207918774
 10
4.9338489687
 20
-31.1634974301
 10
5.0372024513
 20
-31.0987835872
 10
5.1357551578
 20
-31.0269700199
 10
5.2290202601
 20
-30.9484114703
 10
5.3165370496
 20
-30.8634959995
 10
5.3978732128
 20
-30.77264307
 10
5.4726269673
 20
-30.6763014744
 10
5.5404290461
 20
-30.5749471177
 10
5.6009445219
 20
-30.4690806673
 10
5.6538744615
 20
-30.3592250791
 10
5.6989574025
 20
-30.2459230145
 10
5.7359706449
 20
-30.1297341598
 10
5.7647313511
 20
-30.0112324614
 10
5.7850974491
 20
-29.8910032909
 10
5.7969683345
 20
-29.7696405531
 10
5.8002853673
 20
-29.6477437523
 10
5.7950321614
 20
-29.5259150314
 10
5.7812346658
 20
-29.4047561967
 10
5.7589610366
 20
-29.2848657457
 10
5.7283212999
 20
-29.1668359103
 10
5.6894668084
 20
-29.0512497316
 10
5.6425894941
 20
-28.9386781796
 10
5.5879209198
 20
-28.8296773327
 10
5.5257311355
 20
-28.724785631
 10
5.4563273443
 20
-28.6245212163
 10
5.3800523848
 20
-28.5293793729
 10
5.2972830379
 20
-28.4398300804
 10
5.2084281652
 20
-28.356315693
 10
5.1139266894
 20
-28.2792487536
 10
5.0142454266
 20
-28.2090099562
 10
4.9098767795
 20
-28.1459462653
 10
4.8013363059
 20
-28.0903692023
 10
4.6891601711
 20
-28.042553306
 10
4.5739025003
 20
-28.0027347771
 10
4.4561326407
 20
-27.9711103108
 10
4.3364323491
 20
-27.9478361257
 10
4.2153929184
 20
-27.9330271919
 10
4.0936122566
 20
-27.9267566629
 10
3.9716919334
 20
-27.9290555143
  0
LINE
  5
226
100
AcDbEntity
  8
RACCORDO
100
AcDbLine
 62
250
  6
CONTINUOUS
 10
-9.3911587513
 20
-32.111824006
 11
-9.275272923
 21
-32.0965958111
  0
LINE
  5
227
100
AcDbEntity
  8
0
100
AcDbLine
 62
7
  6
CONTINUOUS
 10
4.1211705693
 20
-31.3956277475
 11
4.2428361145
 21
-31.3874231812
  0
LINE
  5
228
100
AcDbEntity
  8
0
100
AcDbLine
 62
7
  6
CONTINUOUS
 10
1.56534013
 20
-31.4754903361
 11
6.56534013
 21
-31.4754903361
  0
LINE
  5
229
100
AcDbEntity
  8
0
100
AcDbLine
 62
7
  6
CONTINUOUS
 10
1.56534013
 20
-31.4615262841
 11
6.56534013
 21
-31.4615262841
  0
LINE
  5
22A
100
AcDbEntity
  8
0
100
AcDbLine
 62
7
  6
CONTINUOUS
 10
7.5603275671
 20
-31.1615262841
 11
4.9364013533
 21
-31.1615262841
  0
LINE
  5
22B
100
AcDbEntity
  8
0
100
AcDbLine
 62
7
  6
CONTINUOUS
 10
3.1952450393
 20
-31.1615262841
 11
0.5703526929
 21
-31.1615262841
  0
LWPOLYLINE
  5
22C
100
AcDbEntity
  8
0
100
AcDbPolyline
 62
7
  6
CONTINUOUS
 90
10
 70
0
 10
4.06534013
 20
-30.8277065749
 10
4.0021049856
 20
-30.827580399
 10
3.9389293809
 20
-30.8240270253
 10
3.8759989545
 20
-30.8170550306
 10
3.8135145648
 20
-30.8066861582
 10
3.7516430777
 20
-30.7929476119
 10
3.6905185382
 20
-30.7758632379
 10
3.630306583
 20
-30.7554678107
 10
3.5712021957
 20
-30.7318156546
 10
3.5133816991
 20
-30.7049668028
  0
LINE
  5
22D
100
AcDbEntity
  8
RACCORDO
100
AcDbLine
 62
250
  6
CONTINUOUS
 10
17.4059530663
 20
-32.0965958863
 11
17.5218388397
 21
-32.1118241215
  0
LWPOLYLINE
  5
22E
100
AcDbEntity
  8
0
100
AcDbPolyline
 62
7
  6
CONTINUOUS
 90
46
 70
0
 10
3.362612669
 20
-31.2384591597
 10
3.4732842894
 20
-31.2741261421
 10
3.5855568818
 20
-31.3020837383
 10
3.6988970835
 20
-31.3222790014
 10
3.8127717139
 20
-31.3346956483
 10
3.9266502792
 20
-31.339353792
 10
4.0400074425
 20
-31.3363095042
 10
4.1523254458
 20
-31.3256542106
 10
4.2630964753
 20
-31.3075139248
 10
4.3718249572
 20
-31.2820483246
 10
4.4780297741
 20
-31.249449677
 10
4.581246393
 20
-31.2099416178
 10
4.6810288944
 20
-31.1637777944
 10
4.7769518937
 20
-31.1112403774
 10
4.8686123478
 20
-31.0526384513
 10
4.9556312376
 20
-30.9883062912
 10
5.0376551208
 20
-30.9186015368
 10
5.1143575482
 20
-30.8439032715
 10
5.1854403375
 20
-30.7646100178
 10
5.2506347007
 20
-30.6811376593
 10
5.3097022199
 20
-30.5939172993
 10
5.3624356692
 20
-30.5033930674
 10
5.4086596798
 20
-30.4100198857
 10
5.4482312457
 20
-30.3142612036
 10
5.4810400705
 20
-30.2165867154
 10
5.5070087543
 20
-30.1174700696
 10
5.5260928206
 20
-30.0173865814
 10
5.5382805862
 20
-29.9168109603
 10
5.5435928745
 20
-29.8162150629
 10
5.5420825765
 20
-29.7160656817
 10
5.5338340616
 20
-29.6168223801
 10
5.5189624436
 20
-29.5189353837
 10
5.4976127067
 20
-29.422843538
 10
5.4699586964
 20
-29.3289723416
 10
5.4362019815
 20
-29.2377320622
 10
5.3965705956
 20
-29.1495159471
 10
5.3513176624
 20
-29.064698532
 10
5.3007199155
 20
-28.9836340588
 10
5.2450761193
 20
-28.9066550066
 10
5.1847053997
 20
-28.8340707434
 10
5.1199454942
 20
-28.766166303
 10
5.0511509306
 20
-28.7032012928
 10
4.978691143
 20
-28.6454089354
 10
4.9029485363
 20
-28.592995248
 10
4.8243165081
 20
-28.5461383627
 10
4.743197438
 20
-28.504987988
  0
LWPOLYLINE
  5
22F
100
AcDbEntity
  8
0
100
AcDbPolyline
 62
7
  6
CONTINUOUS
 90
37
 70
0
 10
3.8502342084
 20
-27.9399123912
 10
3.7298390561
 20
-27.9592736635
 10
3.6111012022
 20
-27.9870436917
 10
3.494607186
 20
-28.0230852984
 10
3.3809324625
 20
-28.0672204469
 10
3.2706385604
 20
-28.1192311196
 10
3.1642703078
 20
-28.1788603961
 10
3.0623531409
 20
-28.2458137212
 10
2.9653905089
 20
-28.3197603607
 10
2.8738613864
 20
-28.4003350349
 10
2.7882179081
 20
-28.487139723
 10
2.7088831346
 20
-28.5797456292
 10
2.6362489632
 20
-28.6776953008
 10
2.5706741915
 20
-28.7805048881
 10
2.5124827454
 20
-28.8876665344
 10
2.4619620788
 20
-28.9986508846
 10
2.4193617536
 20
-29.1129097002
 10
2.3848922071
 20
-29.2298785676
 10
2.358723712
 20
-29.3489796858
 10
2.3409855361
 20
-29.4696247211
 10
2.3317653028
 20
-29.591217713
 10
2.3311085589
 20
-29.713158018
 10
2.3390185495
 20
-29.8348432773
 10
2.3554562017
 20
-29.9556723913
 10
2.3803403178
 20
-30.0750484901
 10
2.4135479763
 20
-30.1923818807
 10
2.4549151393
 20
-30.307092961
 10
2.5042374626
 20
-30.4186150822
 10
2.5612713051
 20
-30.5263973484
 10
2.6257349324
 20
-30.6299073374
 10
2.6973099086
 20
-30.7286337314
 10
2.7756426689
 20
-30.8220888422
 10
2.8603462668
 20
-30.9098110206
 10
2.9510022848
 20
-30.991366937
 10
3.0471629019
 20
-31.0663537215
 10
3.1483531051
 20
-31.1344009545
 10
3.2540730367
 20
-31.195172496
  0
LINE
  5
230
100
AcDbEntity
  8
0
100
AcDbLine
 62
7
  6
CONTINUOUS
 10
3.9716919334
 20
-27.9290555143
 11
3.8502342084
 21
-27.9399123912
  0
LINE
  5
231
100
AcDbEntity
  8
0
100
AcDbLine
 62
7
  6
CONTINUOUS
 10
7.5603275671
 20
-28.1615262841
 11
4.9352335015
 21
-28.1615262841
  0
LINE
  5
232
100
AcDbEntity
  8
0
100
AcDbLine
 62
7
  6
CONTINUOUS
 10
3.1955556837
 20
-28.1615262841
 11
0.5703526929
 21
-28.1615262841
  0
LINE
  5
233
100
AcDbEntity
  8
0
100
AcDbLine
 62
7
  6
CONTINUOUS
 10
6.56534013
 20
-27.8615262841
 11
1.56534013
 21
-27.8615262841
  0
LINE
  5
234
100
AcDbEntity
  8
0
100
AcDbLine
 62
7
  6
CONTINUOUS
 10
6.56534013
 20
-27.8475622322
 11
1.56534013
 21
-27.8475622322
  0
LWPOLYLINE
  5
235
100
AcDbEntity
  8
0
100
AcDbPolyline
 62
7
  6
CONTINUOUS
 90
43
 70
0
 10
4.06534013
 20
-28.5873832624
 10
4.1461270167
 20
-28.5882183834
 10
4.2267852132
 20
-28.595133044
 10
4.3068569571
 20
-28.6081123519
 10
4.3860038986
 20
-28.627139999
 10
4.4636508924
 20
-28.6521169031
 10
4.5390144334
 20
-28.6827730409
 10
4.6114367055
 20
-28.7187425666
 10
4.6808132308
 20
-28.7598719917
 10
4.7471936109
 20
-28.8061869565
 10
4.8101815389
 20
-28.8574743378
 10
4.8694003481
 20
-28.913494751
 10
4.9248198076
 20
-28.9743714848
 10
4.9762201647
 20
-29.0401757259
 10
5.02291768
 20
-29.1103784609
 10
5.0642323686
 20
-29.1841514838
 10
5.0999028048
 20
-29.2611231315
 10
5.1296600396
 20
-29.3408239408
 10
5.153118947
 20
-29.4221089195
 10
5.1701800448
 20
-29.5040043701
 10
5.1810118292
 20
-29.5864678507
 10
5.1856862736
 20
-29.6697294068
 10
5.1841354626
 20
-29.7534143436
 10
5.1763226654
 20
-29.8369710404
 10
5.162161514
 20
-29.9203740156
 10
5.141484199
 20
-30.0035091431
 10
5.1143221328
 20
-30.0854769497
 10
5.081003083
 20
-30.1650963855
 10
5.0417696624
 20
-30.2418626663
 10
4.9968493683
 20
-30.3153946126
 10
4.9468650879
 20
-30.3848379865
 10
4.8924868344
 20
-30.4495925363
 10
4.8339126193
 20
-30.5097210378
 10
4.7710875376
 20
-30.5653938406
 10
4.7043235606
 20
-30.6163438014
 10
4.6340159327
 20
-30.6622782185
 10
4.5601011016
 20
-30.7031872826
 10
4.4826322838
 20
-30.7388891685
 10
4.4022625676
 20
-30.7689348485
 10
4.3198447421
 20
-30.7929534238
 10
4.2359844101
 20
-30.8107884568
 10
4.1509949864
 20
-30.8223931027
 10
4.06534013
 20
-30.8277065749
  0
LINE
  5
236
100
AcDbEntity
  8
0
100
AcDbLine
 62
7
  6
CONTINUOUS
 10
3.2540730367
 20
-31.195172496
 11
3.362612669
 21
-31.2384591597
  0
LWPOLYLINE
  5
237
100
AcDbEntity
  8
0
100
AcDbPolyline
 62
7
  6
CONTINUOUS
 90
8
 70
0
 10
3.2952436268
 20
-31.2162533653
 10
3.40634983
 20
-31.2665050086
 10
3.5207112952
 20
-31.3088284282
 10
3.6377631033
 20
-31.3430145559
 10
3.7569270454
 20
-31.3688945196
 10
3.8776144793
 20
-31.3863404778
 10
3.9992292369
 20
-31.395266251
 10
4.1211705693
 20
-31.3956277475
  0
LWPOLYLINE
  5
238
100
AcDbEntity
  8
0
100
AcDbPolyline
 62
7
  6
CONTINUOUS
 90
16
 70
0
 10
3.5133816991
 20
-30.7049668028
 10
3.4433048593
 20
-30.6701537501
 10
3.3753914259
 20
-30.6306014953
 10
3.309963815
 20
-30.5864420226
 10
3.2474615706
 20
-30.5379331806
 10
3.1880514777
 20
-30.4851637283
 10
3.1316931708
 20
-30.4279679324
 10
3.0785542263
 20
-30.3662643008
 10
3.0291966319
 20
-30.3004309667
 10
2.9841660219
 20
-30.2310087526
 10
2.9437017514
 20
-30.1582195109
 10
2.9080920779
 20
-30.0824159721
 10
2.8777641117
 20
-30.0044735294
 10
2.852869298
 20
-29.9249624889
 10
2.8334008794
 20
-29.8440827345
 10
2.819401882
 20
-29.7622133341
  0
LWPOLYLINE
  5
239
100
AcDbEntity
  8
DRAFT
100
AcDbPolyline
 62
7
  6
CONTINUOUS
 90
13
 70
0
 10
-11.547858187
 20
30.401535746
 10
-11.4319684201
 20
30.5631903192
 10
-11.3183868506
 20
30.7310577973
 10
-11.2074510403
 20
30.9051821405
 10
-11.099963542
 20
31.0848028956
 10
-10.9957824675
 20
31.2707018491
 10
-10.8940465945
 20
31.4653284919
 10
-10.7953458446
 20
31.6687749377
 10
-10.7003018457
 20
31.8811076913
 10
-10.608573154
 20
32.1049150025
 10
-10.520780375
 20
32.3411566978
 10
-10.4382476489
 20
32.5890438084
 10
-10.3619874708
 20
32.848573259
  0
LWPOLYLINE
  5
23A
100
AcDbEntity
  8
0
100
AcDbPolyline
 62
7
  6
CONTINUOUS
 90
10
 70
0
 10
-2.1450893673
 20
38.4626353181
 10
-2.239100455
 20
38.34820893
 10
-2.3295763287
 20
38.2309679614
 10
-2.4164331835
 20
38.1110218089
 10
-2.499594015
 20
37.9884788694
 10
-2.5789782452
 20
37.8634566696
 10
-2.6545028672
 20
37.7360827868
 10
-2.7260959945
 20
37.6064805539
 10
-2.7936958454
 20
37.474767916
 10
-2.8572411047
 20
37.3410682698
  0
LINE
  5
23B
100
AcDbEntity
  8
DRAFT
100
AcDbLine
 62
7
  6
CONTINUOUS
 10
-11.63465987
 20
26.5384737159
 11
-11.5523243474
 21
26.5658965892
  0
LWPOLYLINE
  5
23C
100
AcDbEntity
  8
0
100
AcDbPolyline
 62
250
  6
CONTINUOUS
 90
13
 70
0
 10
6.6061938393
 20
-24.4770085642
 10
6.6359005252
 20
-24.4761308886
 10
6.6658327112
 20
-24.4734484109
 10
6.6958769189
 20
-24.468910991
 10
6.7258387826
 20
-24.4624938549
 10
6.7556689608
 20
-24.4541518535
 10
6.7854507231
 20
-24.4437744221
 10
6.8148459314
 20
-24.4313873828
 10
6.8438868482
 20
-24.4168808344
 10
6.8731117625
 20
-24.3997690383
 10
6.9024677737
 20
-24.3797189084
 10
6.9313916424
 20
-24.3567186893
 10
6.9595318549
 20
-24.3306511665
  0
LWPOLYLINE
  5
23D
100
AcDbEntity
  8
0
100
AcDbPolyline
 62
250
  6
CONTINUOUS
 90
13
 70
0
 10
6.6061938404
 20
-24.6768867323
 10
6.6480596726
 20
-24.6757504816
 10
6.6899090425
 20
-24.6719650145
 10
6.7317419501
 20
-24.665530331
 10
6.7736518851
 20
-24.6565412491
 10
6.8155453578
 20
-24.6449029508
 10
6.8571418999
 20
-24.6303309824
 10
6.8983131184
 20
-24.613054112
 10
6.9391874063
 20
-24.5928435716
 10
6.9798694736
 20
-24.5687286035
 10
7.0203942237
 20
-24.5403856217
 10
7.0607267532
 20
-24.5081382122
 10
7.100867062
 20
-24.471986375
  0
LINE
  5
23E
100
AcDbEntity
  8
RACCORDO
100
AcDbLine
 62
7
  6
CONTINUOUS
 10
16.8481001438
 20
-25.4942862979
 11
17.8969792689
 21
-25.4930892706
  0
LINE
  5
23F
100
AcDbEntity
  8
RACCORDO
100
AcDbLine
 62
7
  6
CONTINUOUS
 10
17.8654162825
 20
-25.4615262841
 11
16.81534013
 21
-25.4615262841
  0
LINE
  5
240
100
AcDbEntity
  8
RACCORDO
100
AcDbLine
 62
7
  6
CONTINUOUS
 10
-8.68465987
 20
-25.4615262841
 11
-9.7347360224
 21
-25.4615262841
  0
LINE
  5
241
100
AcDbEntity
  8
DRAFT
100
AcDbLine
 62
250
  6
CONTINUOUS
 10
10.9821755067
 20
-25.1615262841
 11
8.4177323905
 21
-25.1615262841
  0
LINE
  5
242
100
AcDbEntity
  8
DRAFT
100
AcDbLine
 62
250
  6
CONTINUOUS
 10
-0.2870521304
 20
-25.1615262841
 11
-2.8514952466
 21
-25.1615262841
  0
LINE
  5
243
100
AcDbEntity
  8
0
100
AcDbLine
 62
250
  6
CONTINUOUS
 10
3.4073247129
 20
-24.6768867323
 11
1.5244864196
 21
-24.6768867323
  0
LINE
  5
244
100
AcDbEntity
  8
0
100
AcDbLine
 62
250
  6
CONTINUOUS
 10
4.7233555472
 20
-24.6768867323
 11
6.6061938404
 21
-24.6768867323
  0
LINE
  5
245
100
AcDbEntity
  8
0
100
AcDbLine
 62
250
  6
CONTINUOUS
 10
3.2539528022
 20
-24.4770085669
 11
1.5244864196
 21
-24.4770085669
  0
LINE
  5
246
100
AcDbEntity
  8
0
100
AcDbLine
 62
250
  6
CONTINUOUS
 10
4.8767274578
 20
-24.4770085669
 11
6.6061938404
 21
-24.4770085669
  0
LINE
  5
247
100
AcDbEntity
  8
RACCORDO
100
AcDbLine
 62
7
  6
CONTINUOUS
 10
6.5583595127
 20
-24.3615262841
 11
4.96534013
 21
-24.3615262841
  0
LINE
  5
248
100
AcDbEntity
  8
RACCORDO
100
AcDbLine
 62
7
  6
CONTINUOUS
 10
3.16534013
 20
-24.3615262841
 11
1.5723207474
 21
-24.3615262841
  0
LINE
  5
249
100
AcDbEntity
  8
RACCORDO
100
AcDbLine
 62
7
  6
CONTINUOUS
 10
-9.9347055614
 20
-24.2615262841
 11
-9.1568453245
 21
-24.2615262841
  0
LINE
  5
24A
100
AcDbEntity
  8
RACCORDO
100
AcDbLine
 62
7
  6
CONTINUOUS
 10
-3.9624744155
 20
-24.2615262841
 11
-3.1846141785
 21
-24.2615262841
  0
LINE
  5
24B
100
AcDbEntity
  8
RACCORDO
100
AcDbLine
 62
7
  6
CONTINUOUS
 10
11.3152944386
 20
-24.2615262841
 11
12.0931546755
 21
-24.2615262841
  0
LINE
  5
24C
100
AcDbEntity
  8
RACCORDO
100
AcDbLine
 62
7
  6
CONTINUOUS
 10
17.2875255845
 20
-24.2615262841
 11
18.0653858215
 21
-24.2615262841
  0
LINE
  5
24D
100
AcDbEntity
  8
0
100
AcDbLine
 62
7
  6
CONTINUOUS
 10
-9.137644753
 20
-24.2423257127
 11
-3.9816749869
 21
-24.2423257127
  0
LINE
  5
24E
100
AcDbEntity
  8
0
100
AcDbLine
 62
7
  6
CONTINUOUS
 10
12.112355247
 20
-24.2423257127
 11
17.2683250131
 21
-24.2423257127
  0
LINE
  5
24F
100
AcDbEntity
  8
RACCORDO
100
AcDbLine
 62
7
  6
CONTINUOUS
 10
-9.7662990088
 20
-25.4930892706
 11
-8.7174198838
 21
-25.4942862979
  0
LWPOLYLINE
  5
250
100
AcDbEntity
  8
0
100
AcDbPolyline
 62
250
  6
CONTINUOUS
 90
16
 70
0
 10
1.5244864196
 20
-24.6768867323
 10
1.491255074
 20
-24.6761319868
 10
1.4580722434
 20
-24.6737593156
 10
1.4249379277
 20
-24.6697687186
 10
1.3918373716
 20
-24.6642010865
 10
1.3587853304
 20
-24.6570155287
 10
1.3258260701
 20
-24.648089373
 10
1.2930172738
 20
-24.6375076161
 10
1.2603012584
 20
-24.6251852614
 10
1.2275492414
 20
-24.6107446461
 10
1.1947260858
 20
-24.5943145413
 10
1.1618669287
 20
-24.5757661758
 10
1.1289483985
 20
-24.5543355741
 10
1.0959627047
 20
-24.5297680774
 10
1.0629176379
 20
-24.5023183443
 10
1.029813198
 20
-24.471986375
  0
LWPOLYLINE
  5
251
100
AcDbEntity
  8
0
100
AcDbPolyline
 62
250
  6
CONTINUOUS
 90
16
 70
0
 10
1.5244864196
 20
-24.4770085669
 10
1.5008420106
 20
-24.4764536481
 10
1.4771200242
 20
-24.4747678052
 10
1.4533754375
 20
-24.4719361407
 10
1.429717443
 20
-24.4679566482
 10
1.4061502455
 20
-24.462814653
 10
1.3825784606
 20
-24.4564576372
 10
1.3591385492
 20
-24.448883742
 10
1.3358295601
 20
-24.4400527952
 10
1.3123802453
 20
-24.4297839927
 10
1.2889412309
 20
-24.418035327
 10
1.2655744007
 20
-24.4047239327
 10
1.2419532907
 20
-24.3894864196
 10
1.2181208493
 20
-24.3720876749
 10
1.1944418032
 20
-24.3525087642
 10
1.1711484042
 20
-24.3306511688
  0
LWPOLYLINE
  5
252
100
AcDbEntity
  8
RACCORDO
100
AcDbPolyline
 62
7
  6
CONTINUOUS
 90
19
 70
0
 10
-9.7662990088
 20
-25.4930892706
 10
-9.8096789833
 20
-25.4911275351
 10
-9.8529381166
 20
-25.4853611376
 10
-9.8957383261
 20
-25.4757787575
 10
-9.9378677943
 20
-25.4623505555
 10
-9.9788417915
 20
-25.4451529133
 10
-10.0179534348
 20
-25.4244838532
 10
-10.0547769855
 20
-25.4006565246
 10
-10.0892181999
 20
-25.3738241889
 10
-10.1211274227
 20
-25.3441564102
 10
-10.1502607722
 20
-25.311918813
 10
-10.1764383849
 20
-25.2773526667
 10
-10.199582781
 20
-25.2405622875
 10
-10.2195815388
 20
-25.2016271373
 10
-10.2361421263
 20
-25.1609995106
 10
-10.2490095276
 20
-25.1193797976
 10
-10.2581400892
 20
-25.0772425441
 10
-10.2635894079
 20
-25.0347884734
 10
-10.2653959845
 20
-24.992338551
  0
LWPOLYLINE
  5
253
100
AcDbEntity
  8
RACCORDO
100
AcDbPolyline
 62
250
  6
CONTINUOUS
 90
16
 70
0
 10
-9.7653000418
 20
-24.0921207644
 10
-9.7966477487
 20
-24.0904686719
 10
-9.8276521366
 20
-24.085549584
 10
-9.8579736467
 20
-24.0774173745
 10
-9.8872801986
 20
-24.066161107
 10
-9.9152508283
 20
-24.0519040597
 10
-9.9415792022
 20
-24.0348023755
 10
-9.965976973
 20
-24.0150433512
 10
-9.9881769371
 20
-23.9928433871
 10
-10.0079359614
 20
-23.9684456163
 10
-10.0250376456
 20
-23.9421172424
 10
-10.0392946928
 20
-23.9141466128
 10
-10.0505509603
 20
-23.8848400608
 10
-10.0586831698
 20
-23.8545185508
 10
-10.0636022577
 20
-23.8235141628
 10
-10.0652543503
 20
-23.7921664559
  0
LINE
  5
254
100
AcDbEntity
  8
DRAFT
100
AcDbLine
 62
7
  6
CONTINUOUS
 10
-11.63465987
 20
-20.8615262841
 11
-11.5523243474
 21
-20.8889491574
  0
LWPOLYLINE
  5
255
100
AcDbEntity
  8
0
100
AcDbPolyline
 62
7
  6
CONTINUOUS
 90
29
 70
0
 10
4.660000656
 20
-28.4696650154
 10
4.5751403977
 20
-28.4402612681
 10
4.4890337583
 20
-28.4168393955
 10
4.4020986554
 20
-28.3994329087
 10
4.3147518088
 20
-28.3880463586
 10
4.227406749
 20
-28.3826556523
 10
4.1404718634
 20
-28.3832085058
 10
4.0543484877
 20
-28.3896250288
 10
3.9694290545
 20
-28.4017984377
 10
3.886095305
 20
-28.4195958922
 10
3.8047165727
 20
-28.4428594498
 10
3.7256481478
 20
-28.4714071317
 10
3.6492297282
 20
-28.505034095
 10
3.5757839646
 20
-28.5435139036
 10
3.5056151054
 20
-28.5865998898
 10
3.4390077481
 20
-28.6340266005
 10
3.3762257006
 20
-28.6855113182
 10
3.3175109583
 20
-28.74075565
 10
3.2630828007
 20
-28.799447175
 10
3.2131370095
 20
-28.8612611417
 10
3.1678452124
 20
-28.9258622062
 10
3.1273543536
 20
-28.9929062024
 10
3.0917862921
 20
-29.062041935
 10
3.0612375293
 20
-29.1329129858
 10
3.0357790652
 20
-29.2051595247
 10
3.0154563821
 20
-29.2784201154
 10
3.0002895561
 20
-29.3523335078
 10
2.9902734926
 20
-29.426540408
 10
2.985378284
 20
-29.5006852169
  0
LINE
  5
256
100
AcDbEntity
  8
0
100
AcDbLine
 62
7
  6
CONTINUOUS
 10
4.743197438
 20
-28.504987988
 11
4.660000656
 21
-28.4696650154
  0
LINE
  5
257
100
AcDbEntity
  8
0
100
AcDbLine
 62
7
  6
CONTINUOUS
 10
-9.0835949783
 20
26.5895386075
 11
-9.0847946667
 21
26.5882940647
  0
LINE
  5
258
100
AcDbEntity
  8
0
100
AcDbLine
 62
7
  6
CONTINUOUS
 10
-3.8543507681
 20
29.4538724159
 11
-3.8357552226
 21
29.472661071
  0
LINE
  5
259
100
AcDbEntity
  8
0
100
AcDbLine
 62
7
  6
CONTINUOUS
 10
-3.9759370754
 20
29.3324792181
 11
-3.9639272722
 21
29.3446009161
  0
LWPOLYLINE
  5
25A
100
AcDbEntity
  8
0
100
AcDbPolyline
 62
7
  6
CONTINUOUS
 90
3
 70
0
 10
-9.1090214859
 20
26.564200717
 10
-9.1321377881
 20
26.5409687138
 10
-9.1462687609
 20
26.526916579
  0
LWPOLYLINE
  5
25B
100
AcDbEntity
  8
0
100
AcDbPolyline
 62
7
  6
CONTINUOUS
 90
7
 70
0
 10
-9.1462687609
 20
26.526916579
 10
-9.1789386975
 20
26.4941657298
 10
-9.1974776613
 20
26.4757362413
 10
-9.217234768
 20
26.4558988179
 10
-9.2381265415
 20
26.4347373591
 10
-9.2602364579
 20
26.4125428738
 10
-9.2835645174
 20
26.3895690685
  0
LINE
  5
25C
100
AcDbEntity
  8
0
100
AcDbLine
 62
7
  6
CONTINUOUS
 10
-9.03465987
 20
26.6384737159
 11
-9.0835949783
 21
26.5895386075
  0
LINE
  5
25D
100
AcDbEntity
  8
DRAFT
100
AcDbLine
 62
7
  6
CONTINUOUS
 10
-10.2654526132
 20
25.3076809727
 11
-10.23465987
 21
25.3384737159
  0
LINE
  5
25E
100
AcDbEntity
  8
0
100
AcDbLine
 62
7
  6
CONTINUOUS
 10
-3.9624744155
 20
29.9384737159
 11
-4.08465987
 21
29.8162882614
  0
LINE
  5
25F
100
AcDbEntity
  8
0
100
AcDbLine
 62
7
  6
CONTINUOUS
 10
-9.0847946667
 20
26.5882940647
 11
-9.1090214859
 21
26.564200717
  0
LINE
  5
260
100
AcDbEntity
  8
0
100
AcDbLine
 62
7
  6
CONTINUOUS
 10
-3.9639272722
 20
29.3446009161
 11
-3.8543507681
 21
29.4538724159
  0
LWPOLYLINE
  5
261
100
AcDbEntity
  8
DRAFT
100
AcDbPolyline
 62
7
  6
CONTINUOUS
 90
3
 70
0
 10
0.0928366842
 20
30.7699144679
 10
0.0338859598
 20
30.7271777656
 10
0.0264872222
 20
30.7218419551
  0
LINE
  5
262
100
AcDbEntity
  8
0
100
AcDbLine
 62
7
  6
CONTINUOUS
 10
-6.2178244933
 20
25.3384737159
 11
-6.2021149349
 21
25.3463278969
  0
LINE
  5
263
100
AcDbEntity
  8
0
100
AcDbLine
 62
7
  6
CONTINUOUS
 10
-0.5501421527
 20
27.9418428943
 11
-0.4479790022
 21
27.9929089061
  0
LINE
  5
264
100
AcDbEntity
  8
RACCORDO
100
AcDbLine
 62
7
  6
CONTINUOUS
 10
-0.4361359659
 20
27.9988284398
 11
-0.43465987
 21
27.9995661186
  0
LINE
  5
265
100
AcDbEntity
  8
RACCORDO
100
AcDbLine
 62
7
  6
CONTINUOUS
 10
0.7557333762
 20
27.845776124
 11
1.2043030515
 21
28.0020026216
  0
LINE
  5
266
100
AcDbEntity
  8
RACCORDO
100
AcDbLine
 62
250
  6
CONTINUOUS
 10
18.3269844763
 20
35.8385557794
 11
18.2980008204
 21
35.8285848313
  0
LINE
  5
267
100
AcDbEntity
  8
RACCORDO
100
AcDbLine
 62
250
  6
CONTINUOUS
 10
18.3561379445
 20
35.8484363471
 11
18.3269844763
 21
35.8385557794
  0
LINE
  5
268
100
AcDbEntity
  8
RACCORDO
100
AcDbLine
 62
250
  6
CONTINUOUS
 10
18.3854618418
 20
35.8582268481
 11
18.3561379445
 21
35.8484363471
  0
LINE
  5
269
100
AcDbEntity
  8
0
100
AcDbLine
 62
250
  6
CONTINUOUS
 10
4.5625860317
 20
-24.0768867323
 11
4.7556535138
 21
-24.0251544564
  0
LWPOLYLINE
  5
26A
100
AcDbEntity
  8
0
100
AcDbPolyline
 62
250
  6
CONTINUOUS
 90
13
 70
0
 10
3.5680942283
 20
-23.8770085669
 10
3.5463442386
 20
-23.8782151968
 10
3.5248524154
 20
-23.8817801118
 10
3.5038738732
 20
-23.8876609989
 10
3.483657643
 20
-23.8957880501
 10
3.4644436893
 20
-23.9060648004
 10
3.4464600659
 20
-23.918369283
 10
3.4299202363
 20
-23.9325554657
 10
3.4150205625
 20
-23.9484549513
 10
3.4019379407
 20
-23.9658789842
 10
3.3908276743
 20
-23.984620723
 10
3.3818216405
 20
-24.0044577049
 10
3.3750267462
 20
-24.0251544564
  0
LINE
  5
26B
100
AcDbEntity
  8
0
100
AcDbLine
 62
7
  6
CONTINUOUS
 10
6.9202588689
 20
-22.3226198088
 11
6.9263772086
 21
-22.3224379269
  0
LINE
  5
26C
100
AcDbEntity
  8
DRAFT
100
AcDbLine
 62
250
  6
CONTINUOUS
 10
-11.63465987
 20
-24.1615262841
 11
-10.2654732197
 21
-24.161331522
  0
LINE
  5
26D
100
AcDbEntity
  8
0
100
AcDbLine
 62
7
  6
CONTINUOUS
 10
17.16534013
 20
-24.1393408296
 11
12.21534013
 21
-24.1393408296
  0
LINE
  5
26E
100
AcDbEntity
  8
0
100
AcDbLine
 62
7
  6
CONTINUOUS
 10
-4.08465987
 20
-24.1393408296
 11
-9.03465987
 21
-24.1393408296
  0
LINE
  5
26F
100
AcDbEntity
  8
RACCORDO
100
AcDbLine
 62
250
  6
CONTINUOUS
 10
-9.7653000418
 20
-24.0921207644
 11
-3.3540196982
 21
-24.0921207644
  0
LINE
  5
270
100
AcDbEntity
  8
RACCORDO
100
AcDbLine
 62
250
  6
CONTINUOUS
 10
11.4846999582
 20
-24.0921207644
 11
17.8959803018
 21
-24.0921207644
  0
LINE
  5
271
100
AcDbEntity
  8
0
100
AcDbLine
 62
250
  6
CONTINUOUS
 10
4.5625860317
 20
-24.0768867323
 11
3.5680942283
 21
-24.0768867323
  0
LINE
  5
272
100
AcDbEntity
  8
0
100
AcDbLine
 62
250
  6
CONTINUOUS
 10
4.5625860317
 20
-23.8770085669
 11
3.5680942283
 21
-23.8770085669
  0
LINE
  5
273
100
AcDbEntity
  8
0
100
AcDbLine
 62
7
  6
CONTINUOUS
 10
17.4142447774
 20
-23.7939399546
 11
11.9664354826
 21
-23.7939399546
  0
LINE
  5
274
100
AcDbEntity
  8
0
100
AcDbLine
 62
7
  6
CONTINUOUS
 10
-3.8357552226
 20
-23.7939399546
 11
-9.2835645174
 21
-23.7939399546
  0
LINE
  5
275
100
AcDbEntity
  8
RACCORDO
100
AcDbLine
 62
250
  6
CONTINUOUS
 10
11.4846999582
 20
-23.7921664559
 11
11.1847456497
 21
-23.7921664559
  0
LINE
  5
276
100
AcDbEntity
  8
0
100
AcDbLine
 62
7
  6
CONTINUOUS
 10
-9.7653000418
 20
-23.7921664559
 11
-9.2835645174
 21
-23.7921664559
  0
LINE
  5
277
100
AcDbEntity
  8
0
100
AcDbLine
 62
7
  6
CONTINUOUS
 10
-3.8357552226
 20
-23.7921664559
 11
-3.3540196982
 21
-23.7921664559
  0
LINE
  5
278
100
AcDbEntity
  8
RACCORDO
100
AcDbLine
 62
250
  6
CONTINUOUS
 10
-3.3540196982
 20
-23.7921664559
 11
-3.0540653896
 21
-23.7921664559
  0
LINE
  5
279
100
AcDbEntity
  8
RACCORDO
100
AcDbLine
 62
250
  6
CONTINUOUS
 10
-9.7653000418
 20
-23.7921664559
 11
-10.0652543503
 21
-23.7921664559
  0
LINE
  5
27A
100
AcDbEntity
  8
0
100
AcDbLine
 62
7
  6
CONTINUOUS
 10
11.4846999582
 20
-23.7921664559
 11
11.9664354826
 21
-23.7921664559
  0
LINE
  5
27B
100
AcDbEntity
  8
0
100
AcDbLine
 62
7
  6
CONTINUOUS
 10
17.4142447774
 20
-23.7921664559
 11
17.8959803018
 21
-23.7921664559
  0
LINE
  5
27C
100
AcDbEntity
  8
RACCORDO
100
AcDbLine
 62
250
  6
CONTINUOUS
 10
17.8959803018
 20
-23.7921664559
 11
18.1959346104
 21
-23.7921664559
  0
LINE
  5
27D
100
AcDbEntity
  8
0
100
AcDbLine
 62
7
  6
CONTINUOUS
 10
4.651198704
 20
-23.7615262841
 11
3.4794815561
 21
-23.7615262841
  0
LINE
  5
27E
100
AcDbEntity
  8
0
100
AcDbLine
 62
250
  6
CONTINUOUS
 10
17.2740629246
 20
-23.6555317863
 11
12.1066173355
 21
-23.6555317863
  0
LINE
  5
27F
100
AcDbEntity
  8
0
100
AcDbLine
 62
250
  6
CONTINUOUS
 10
-3.9759370754
 20
-23.6555317863
 11
-9.1433826645
 21
-23.6555317863
  0
LINE
  5
280
100
AcDbEntity
  8
0
100
AcDbLine
 62
7
  6
CONTINUOUS
 10
17.2089791216
 20
-23.2051652757
 11
12.1717011385
 21
-23.2051652757
  0
LINE
  5
281
100
AcDbEntity
  8
0
100
AcDbLine
 62
7
  6
CONTINUOUS
 10
-4.0410208784
 20
-23.2051652757
 11
-9.0782988615
 21
-23.2051652757
  0
LINE
  5
282
100
AcDbEntity
  8
0
100
AcDbLine
 62
7
  6
CONTINUOUS
 10
17.16534013
 20
-23.1615262841
 11
12.21534013
 21
-23.1615262841
  0
LINE
  5
283
100
AcDbEntity
  8
0
100
AcDbLine
 62
7
  6
CONTINUOUS
 10
-4.08465987
 20
-23.1615262841
 11
-9.03465987
 21
-23.1615262841
  0
LINE
  5
284
100
AcDbEntity
  8
0
100
AcDbLine
 62
7
  6
CONTINUOUS
 10
1.4999339164
 20
-22.5641443444
 11
3.06534013
 21
-22.5641443444
  0
LINE
  5
285
100
AcDbEntity
  8
0
100
AcDbLine
 62
7
  6
CONTINUOUS
 10
5.06534013
 20
-22.5641443444
 11
6.6307463437
 21
-22.5641443444
  0
LINE
  5
286
100
AcDbEntity
  8
0
100
AcDbLine
 62
7
  6
CONTINUOUS
 10
1.2104213911
 20
-22.3226198088
 11
6.9202588689
 21
-22.3226198088
  0
LINE
  5
287
100
AcDbEntity
  8
DRAFT
100
AcDbLine
 62
7
  6
CONTINUOUS
 10
10.9821755067
 20
-22.2946909075
 11
10.5260078157
 21
-22.2946909075
  0
LINE
  5
288
100
AcDbEntity
  8
DRAFT
100
AcDbLine
 62
7
  6
CONTINUOUS
 10
-2.3953275557
 20
-22.2946909075
 11
-2.8514952466
 21
-22.2946909075
  0
LINE
  5
289
100
AcDbEntity
  8
0
100
AcDbLine
 62
7
  6
CONTINUOUS
 10
10.46534013
 20
-22.2615262841
 11
8.8807005782
 21
-22.2615262841
  0
LINE
  5
28A
100
AcDbEntity
  8
0
100
AcDbLine
 62
7
  6
CONTINUOUS
 10
-0.7500203182
 20
-22.2615262841
 11
-2.33465987
 21
-22.2615262841
  0
LINE
  5
28B
100
AcDbEntity
  8
RACCORDO
100
AcDbLine
 62
7
  6
CONTINUOUS
 10
8.3669854005
 20
-22.165523427
 11
7.5771693227
 21
-22.165523427
  0
LINE
  5
28C
100
AcDbEntity
  8
RACCORDO
100
AcDbLine
 62
7
  6
CONTINUOUS
 10
0.5535109373
 20
-22.165523427
 11
-0.2363051405
 21
-22.165523427
  0
LINE
  5
28D
100
AcDbEntity
  8
ASSI
100
AcDbLine
 62
7
  6
CONTINUOUS
 10
6.36534013
 20
-22.0974470787
 11
1.76534013
 21
-22.0974470787
  0
LINE
  5
28E
100
AcDbEntity
  8
RACCORDO
100
AcDbLine
 62
250
  6
CONTINUOUS
 10
-3.0540653896
 20
-22.0921207644
 11
1.76534013
 21
-22.0921207644
  0
LINE
  5
28F
100
AcDbEntity
  8
RACCORDO
100
AcDbLine
 62
250
  6
CONTINUOUS
 10
6.36534013
 20
-22.0921207644
 11
11.1847456497
 21
-22.0921207644
  0
LINE
  5
290
100
AcDbEntity
  8
RACCORDO
100
AcDbLine
 62
250
  6
CONTINUOUS
 10
-3.3540196982
 20
-21.7921664559
 11
1.76534013
 21
-21.7921664559
  0
LINE
  5
291
100
AcDbEntity
  8
RACCORDO
100
AcDbLine
 62
250
  6
CONTINUOUS
 10
6.36534013
 20
-21.7921664559
 11
11.4846999582
 21
-21.7921664559
  0
LINE
  5
292
100
AcDbEntity
  8
ASSI
100
AcDbLine
 62
250
  6
CONTINUOUS
 10
1.76534013
 20
-21.5065381172
 11
6.36534013
 21
-21.5065381172
  0
LINE
  5
293
100
AcDbEntity
  8
DRAFT
100
AcDbLine
 62
250
  6
CONTINUOUS
 10
19.76534013
 20
-24.1615262841
 11
18.3961328732
 21
-24.1613281187
  0
LINE
  5
294
100
AcDbEntity
  8
0
100
AcDbLine
 62
7
  6
CONTINUOUS
 10
1.2043030515
 20
-22.3224379269
 11
1.2104213911
 21
-22.3226198088
  0
LWPOLYLINE
  5
295
100
AcDbEntity
  8
RACCORDO
100
AcDbPolyline
 62
250
  6
CONTINUOUS
 90
16
 70
0
 10
11.4846999582
 20
-24.0921207644
 10
11.4533522513
 20
-24.0904686719
 10
11.4223478634
 20
-24.085549584
 10
11.3920263533
 20
-24.0774173745
 10
11.3627198014
 20
-24.066161107
 10
11.3347491717
 20
-24.0519040597
 10
11.3084207978
 20
-24.0348023755
 10
11.284023027
 20
-24.0150433512
 10
11.2618230629
 20
-23.9928433871
 10
11.2420640386
 20
-23.9684456163
 10
11.2249623544
 20
-23.9421172424
 10
11.2107053072
 20
-23.9141466128
 10
11.1994490397
 20
-23.8848400608
 10
11.1913168302
 20
-23.8545185508
 10
11.1863977423
 20
-23.8235141628
 10
11.1847456497
 20
-23.7921664559
  0
LINE
  5
296
100
AcDbEntity
  8
0
100
AcDbLine
 62
250
  6
CONTINUOUS
 10
3.5680942283
 20
-24.0768867323
 11
3.3750267462
 21
-24.0251544564
  0
LINE
  5
297
100
AcDbEntity
  8
RACCORDO
100
AcDbLine
 62
250
  6
CONTINUOUS
 10
18.3561381112
 20
-30.1714889714
 11
18.3854618395
 21
-30.1812793996
  0
LINE
  5
298
100
AcDbEntity
  8
RACCORDO
100
AcDbLine
 62
250
  6
CONTINUOUS
 10
18.3269845893
 20
-30.1616083863
 11
18.3561381112
 21
-30.1714889714
  0
LINE
  5
299
100
AcDbEntity
  8
RACCORDO
100
AcDbLine
 62
250
  6
CONTINUOUS
 10
18.2980008185
 20
-30.1516373858
 11
18.3269845893
 21
-30.1616083863
  0
LINE
  5
29A
100
AcDbEntity
  8
RACCORDO
100
AcDbLine
 62
7
  6
CONTINUOUS
 10
0.7557333762
 20
-22.1688286922
 11
1.2043030515
 21
-22.3250551898
  0
LINE
  5
29B
100
AcDbEntity
  8
0
100
AcDbLine
 62
7
  6
CONTINUOUS
 10
-0.4479790022
 20
-22.3159614743
 11
-0.5501421527
 21
-22.2648954625
  0
LINE
  5
29C
100
AcDbEntity
  8
0
100
AcDbLine
 62
7
  6
CONTINUOUS
 10
-6.2178244933
 20
-19.6615262841
 11
-6.2021149349
 21
-19.6693804651
  0
LWPOLYLINE
  5
29D
100
AcDbEntity
  8
DRAFT
100
AcDbPolyline
 62
7
  6
CONTINUOUS
 90
3
 70
0
 10
0.0928366842
 20
-25.0929670361
 10
0.0854910882
 20
-25.0876200304
 10
0.0264872222
 20
-25.0448945233
  0
LINE
  5
29E
100
AcDbEntity
  8
0
100
AcDbLine
 62
7
  6
CONTINUOUS
 10
-9.0835949783
 20
-20.9125911757
 11
-9.0848395211
 21
-20.9113914874
  0
LINE
  5
29F
100
AcDbEntity
  8
0
100
AcDbLine
 62
7
  6
CONTINUOUS
 10
-3.8545438776
 20
-23.7771180936
 11
-3.8357552226
 21
-23.7957136392
  0
LINE
  5
2A0
100
AcDbEntity
  8
0
100
AcDbLine
 62
7
  6
CONTINUOUS
 10
-3.9759370754
 20
-23.6555317863
 11
-3.9638153775
 21
-23.6675415895
  0
LWPOLYLINE
  5
2A1
100
AcDbEntity
  8
0
100
AcDbPolyline
 62
7
  6
CONTINUOUS
 90
3
 70
0
 10
-9.1089328688
 20
-20.8871646682
 10
-9.1321648721
 20
-20.864048366
 10
-9.1462170068
 20
-20.8499173931
  0
LWPOLYLINE
  5
2A2
100
AcDbEntity
  8
0
100
AcDbPolyline
 62
7
  6
CONTINUOUS
 90
7
 70
0
 10
-9.1462170068
 20
-20.8499173931
 10
-9.178967856
 20
-20.8172474566
 10
-9.1973973446
 20
-20.7987084928
 10
-9.217234768
 20
-20.7789513861
 10
-9.2383962268
 20
-20.7580596126
 10
-9.260590712
 20
-20.7359496961
 10
-9.2835645174
 20
-20.7126216367
  0
LINE
  5
2A3
100
AcDbEntity
  8
0
100
AcDbLine
 62
7
  6
CONTINUOUS
 10
-9.03465987
 20
-20.9615262841
 11
-9.0835949783
 21
-20.9125911757
  0
LINE
  5
2A4
100
AcDbEntity
  8
DRAFT
100
AcDbLine
 62
7
  6
CONTINUOUS
 10
-10.2654526132
 20
-19.6307335409
 11
-10.23465987
 21
-19.6615262841
  0
LINE
  5
2A5
100
AcDbEntity
  8
0
100
AcDbLine
 62
7
  6
CONTINUOUS
 10
-3.9624744155
 20
-24.2615262841
 11
-4.08465987
 21
-24.1393408296
  0
LINE
  5
2A6
100
AcDbEntity
  8
0
100
AcDbLine
 62
7
  6
CONTINUOUS
 10
-9.0848395211
 20
-20.9113914874
 11
-9.1089328688
 21
-20.8871646682
  0
LINE
  5
2A7
100
AcDbEntity
  8
0
100
AcDbLine
 62
7
  6
CONTINUOUS
 10
-3.9638153775
 20
-23.6675415895
 11
-3.8545438776
 21
-23.7771180936
  0
LWPOLYLINE
  5
2A8
100
AcDbEntity
  8
RACCORDO
100
AcDbPolyline
 62
7
  6
CONTINUOUS
 90
22
 70
0
 10
-10.3619874708
 20
32.848573259
 10
-10.3307661072
 20
32.9662526573
 10
-10.3017642427
 20
33.08324736
 10
-10.2749331151
 20
33.1995118807
 10
-10.2505502559
 20
33.3134188758
 10
-10.228190667
 20
33.4265005618
 10
-10.2069711092
 20
33.5434969061
 10
-10.1868017234
 20
33.6660822081
 10
-10.1681839696
 20
33.7925856248
 10
-10.1513379866
 20
33.9227635379
 10
-10.1364709481
 20
34.056342007
 10
-10.1237336183
 20
34.1935508754
 10
-10.1132857943
 20
34.3348938058
 10
-10.1053605499
 20
34.4801338833
 10
-10.1001724286
 20
34.6294272577
 10
-10.0979587899
 20
34.7838587751
 10
-10.0990289051
 20
34.9432744153
 10
-10.10370299
 20
35.107687538
 10
-10.1124077979
 20
35.278412034
 10
-10.1256219758
 20
35.4558002158
 10
-10.1437726035
 20
35.6392450705
 10
-10.1673205585
 20
35.8285848175
  0
LWPOLYLINE
  5
2A9
100
AcDbEntity
  8
RACCORDO
100
AcDbPolyline
 62
7
  6
CONTINUOUS
 90
6
 70
0
 10
-3.0859957635
 20
27.7370956183
 10
-3.0757104814
 20
27.7475553656
 10
-3.0670810181
 20
27.7560525678
 10
-3.0603862022
 20
27.7623536556
 10
-3.0559492644
 20
27.7666921984
 10
-3.0540653896
 20
27.7690681962
  0
LWPOLYLINE
  5
2AA
100
AcDbEntity
  8
RACCORDO
100
AcDbPolyline
 62
7
  6
CONTINUOUS
 90
3
 70
0
 10
-3.1247997694
 20
27.6983100801
 10
-3.1107679938
 20
27.7124729756
 10
-3.0859957635
 20
27.7370956183
  0
LINE
  5
2AB
100
AcDbEntity
  8
RACCORDO
100
AcDbLine
 62
7
  6
CONTINUOUS
 10
-3.3540196982
 20
27.4691138877
 11
-3.3357182192
 21
27.4875507172
  0
LINE
  5
2AC
100
AcDbEntity
  8
RACCORDO
100
AcDbLine
 62
250
  6
CONTINUOUS
 10
-3.1846141785
 20
29.9384737159
 11
-3.3540196982
 21
29.7690681962
  0
LINE
  5
2AD
100
AcDbEntity
  8
0
100
AcDbLine
 62
7
  6
CONTINUOUS
 10
-4.08465987
 20
28.8384737159
 11
-4.0410208784
 21
28.8821127075
  0
LINE
  5
2AE
100
AcDbEntity
  8
RACCORDO
100
AcDbLine
 62
250
  6
CONTINUOUS
 10
-2.88465987
 20
29.6385194073
 11
-3.0540653896
 21
29.4691138877
  0
LINE
  5
2AF
100
AcDbEntity
  8
RACCORDO
100
AcDbLine
 62
7
  6
CONTINUOUS
 10
-3.0540653896
 20
27.7690681962
 11
-2.8514952466
 21
27.9716383393
  0
LINE
  5
2B0
100
AcDbEntity
  8
DRAFT
100
AcDbLine
 62
7
  6
CONTINUOUS
 10
0.0264872222
 20
30.3934531171
 11
-2.3953275557
 21
27.9716383393
  0
LINE
  5
2B1
100
AcDbEntity
  8
DRAFT
100
AcDbLine
 62
7
  6
CONTINUOUS
 10
-2.33465987
 20
27.9384737159
 11
0.0928366842
 21
30.3659702701
  0
LINE
  5
2B2
100
AcDbEntity
  8
RACCORDO
100
AcDbLine
 62
7
  6
CONTINUOUS
 10
-3.1891036232
 20
27.6340299626
 11
-3.1556021749
 21
27.6676052126
  0
LINE
  5
2B3
100
AcDbEntity
  8
RACCORDO
100
AcDbLine
 62
7
  6
CONTINUOUS
 10
-3.1556021749
 20
27.6676052126
 11
-3.1247997694
 21
27.6983100801
  0
LINE
  5
2B4
100
AcDbEntity
  8
RACCORDO
100
AcDbLine
 62
7
  6
CONTINUOUS
 10
-3.3357182192
 20
27.4875507172
 11
-3.1891036232
 21
27.6340299626
  0
LWPOLYLINE
  5
2B5
100
AcDbEntity
  8
0
100
AcDbPolyline
 62
7
  6
CONTINUOUS
 90
25
 70
0
 10
8.4177323905
 20
30.8384737159
 10
8.5575115578
 20
30.8985854202
 10
8.6952997463
 20
30.9630201157
 10
8.8309639193
 20
31.0317107521
 10
8.9643733603
 20
31.1045856598
 10
9.0953997288
 20
31.1815702798
 10
9.2239170103
 20
31.2625872324
 10
9.3498022119
 20
31.3475538462
 10
9.4729344494
 20
31.4363833441
 10
9.5931947639
 20
31.5289864494
 10
9.7104675527
 20
31.6252685248
 10
9.8246420132
 20
31.725132834
 10
9.9356106502
 20
31.8284817544
 10
10.0432642316
 20
31.9352075429
 10
10.147504712
 20
32.0452067328
 10
10.2482447908
 20
32.1583846024
 10
10.3453875014
 20
32.2746285529
 10
10.4388405707
 20
32.3938242219
 10
10.5285260991
 20
32.5158721266
 10
10.6143569679
 20
32.6406529795
 10
10.6962498937
 20
32.7680446861
 10
10.77413503
 20
32.8979416677
 10
10.8479381023
 20
33.0302242369
 10
10.917582409
 20
33.1647576353
 10
10.9829986854
 20
33.3014110508
  0
LWPOLYLINE
  5
2B6
100
AcDbEntity
  8
0
100
AcDbPolyline
 62
7
  6
CONTINUOUS
 90
3
 70
0
 10
8.7983182129
 20
28.3349358248
 10
8.8592741866
 20
28.3603777486
 10
8.8807005782
 20
28.3691002906
  0
LINE
  5
2B7
100
AcDbEntity
  8
DRAFT
100
AcDbLine
 62
7
  6
CONTINUOUS
 10
8.0378435758
 20
30.3659702701
 11
8.1041930379
 21
30.3934531171
  0
LINE
  5
2B8
100
AcDbEntity
  8
0
100
AcDbLine
 62
7
  6
CONTINUOUS
 10
8.56534013
 20
28.2384737159
 11
8.7983182129
 21
28.3349358248
  0
LINE
  5
2B9
100
AcDbEntity
  8
0
100
AcDbLine
 62
250
  6
CONTINUOUS
 10
1.700600876
 20
-19.7468965837
 11
1.9836786156
 21
-19.6977450992
  0
LINE
  5
2BA
100
AcDbEntity
  8
RACCORDO
100
AcDbLine
 62
7
  6
CONTINUOUS
 10
1.4700709426
 20
-19.6801130805
 11
1.1038623419
 21
-19.7375429007
  0
LWPOLYLINE
  5
2BB
100
AcDbEntity
  8
0
100
AcDbPolyline
 62
250
  6
CONTINUOUS
 90
5
 70
0
 10
1.9836786156
 20
-19.6977450992
 10
1.9901821306
 20
-19.6971094507
 10
2.0015367564
 20
-19.6964884358
 10
2.0177424929
 20
-19.6958820545
 10
2.0389105525
 20
-19.6952884498
  0
LINE
  5
2BC
100
AcDbEntity
  8
0
100
AcDbLine
 62
7
  6
CONTINUOUS
 10
6.3916665475
 20
-19.7494313539
 11
6.3915155701
 21
-19.749439137
  0
LINE
  5
2BD
100
AcDbEntity
  8
0
100
AcDbLine
 62
250
  6
CONTINUOUS
 10
6.430079384
 20
-19.7468965837
 11
6.3916665475
 21
-19.7494313539
  0
LWPOLYLINE
  5
2BE
100
AcDbEntity
  8
0
100
AcDbPolyline
 62
250
  6
CONTINUOUS
 90
3
 70
0
 10
6.3915155701
 20
-19.749439137
 10
6.3807850077
 20
-19.7493601474
 10
6.376684115
 20
-19.7499754032
  0
LWPOLYLINE
  5
2BF
100
AcDbEntity
  8
0
100
AcDbPolyline
 62
250
  6
CONTINUOUS
 90
6
 70
0
 10
6.1470016445
 20
-19.6977450992
 10
6.0977080853
 20
-19.7002085814
 10
6.0488960169
 20
-19.7075317263
 10
6.0010422268
 20
-19.7196430027
 10
5.9546141426
 20
-19.7364241099
 10
5.9158852392
 20
-19.7549301445
  0
LINE
  5
2C0
100
AcDbEntity
  8
0
100
AcDbLine
 62
7
  6
CONTINUOUS
 10
6.3908815196
 20
-19.7494696491
 11
6.387927887
 21
-19.7495949472
  0
LINE
  5
2C1
100
AcDbEntity
  8
0
100
AcDbLine
 62
7
  6
CONTINUOUS
 10
6.387927887
 20
-19.7495949472
 11
6.3831198016
 21
-19.7497705806
  0
LINE
  5
2C2
100
AcDbEntity
  8
0
100
AcDbLine
 62
7
  6
CONTINUOUS
 10
6.3831198016
 20
-19.7497705806
 11
6.3725154187
 21
-19.750096232
  0
LINE
  5
2C3
100
AcDbEntity
  8
0
100
AcDbLine
 62
7
  6
CONTINUOUS
 10
6.3725154187
 20
-19.750096232
 11
6.3524226526
 21
-19.7505993524
  0
LINE
  5
2C4
100
AcDbEntity
  8
0
100
AcDbLine
 62
250
  6
CONTINUOUS
 10
2.0389105525
 20
-19.6952884498
 11
2.0954663669
 21
-19.694150712
  0
LINE
  5
2C5
100
AcDbEntity
  8
0
100
AcDbLine
 62
7
  6
CONTINUOUS
 10
6.3524226526
 20
-19.7505993524
 11
6.3193818555
 21
-19.7512574502
  0
LINE
  5
2C6
100
AcDbEntity
  8
0
100
AcDbLine
 62
7
  6
CONTINUOUS
 10
6.3193818555
 20
-19.7512574502
 11
6.2489511734
 21
-19.7522993657
  0
LINE
  5
2C7
100
AcDbEntity
  8
0
100
AcDbLine
 62
250
  6
CONTINUOUS
 10
6.2512666904
 20
-19.7523253942
 11
6.2489511734
 21
-19.7522993657
  0
LINE
  5
2C8
100
AcDbEntity
  8
0
100
AcDbLine
 62
250
  6
CONTINUOUS
 10
2.0954663669
 20
-19.694150712
 11
2.2138475045
 21
-19.6926012077
  0
LINE
  5
2C9
100
AcDbEntity
  8
0
100
AcDbLine
 62
7
  6
CONTINUOUS
 10
6.2489511734
 20
-19.7522993657
 11
6.1048835852
 21
-19.7537435031
  0
LINE
  5
2CA
100
AcDbEntity
  8
0
100
AcDbLine
 62
250
  6
CONTINUOUS
 10
6.1231170951
 20
-19.7536263177
 11
6.1048835852
 21
-19.7537435031
  0
LINE
  5
2CB
100
AcDbEntity
  8
0
100
AcDbLine
 62
250
  6
CONTINUOUS
 10
2.2138475045
 20
-19.6926012077
 11
2.4856561375
 21
-19.6906199668
  0
LINE
  5
2CC
100
AcDbEntity
  8
0
100
AcDbLine
 62
7
  6
CONTINUOUS
 10
6.1048835852
 20
-19.7537435031
 11
5.8063498268
 21
-19.7553801774
  0
LINE
  5
2CD
100
AcDbEntity
  8
0
100
AcDbLine
 62
250
  6
CONTINUOUS
 10
2.4856561375
 20
-19.6906199668
 11
2.9778925461
 21
-19.6894881539
  0
LINE
  5
2CE
100
AcDbEntity
  8
ASSI
100
AcDbLine
 62
250
  6
CONTINUOUS
 10
1.76534013
 20
-21.246730496
 11
6.36534013
 21
-21.246730496
  0
LINE
  5
2CF
100
AcDbEntity
  8
ASSI
100
AcDbLine
 62
7
  6
CONTINUOUS
 10
6.36534013
 20
-20.9869756348
 11
1.76534013
 21
-20.9869756348
  0
LINE
  5
2D0
100
AcDbEntity
  8
0
100
AcDbLine
 62
7
  6
CONTINUOUS
 10
-9.03465987
 20
-20.9615262841
 11
-4.08465987
 21
-20.9615262841
  0
LINE
  5
2D1
100
AcDbEntity
  8
0
100
AcDbLine
 62
7
  6
CONTINUOUS
 10
12.21534013
 20
-20.9615262841
 11
17.16534013
 21
-20.9615262841
  0
LINE
  5
2D2
100
AcDbEntity
  8
0
100
AcDbLine
 62
250
  6
CONTINUOUS
 10
-9.0835949783
 20
-20.9125911757
 11
-4.0357247616
 21
-20.9125911757
  0
LINE
  5
2D3
100
AcDbEntity
  8
0
100
AcDbLine
 62
250
  6
CONTINUOUS
 10
12.1664050217
 20
-20.9125911757
 11
17.2142752384
 21
-20.9125911757
  0
LINE
  5
2D4
100
AcDbEntity
  8
DRAFT
100
AcDbLine
 62
7
  6
CONTINUOUS
 10
19.76534013
 20
-20.8615262841
 11
18.36534013
 21
-20.8615262841
  0
LINE
  5
2D5
100
AcDbEntity
  8
DRAFT
100
AcDbLine
 62
7
  6
CONTINUOUS
 10
-10.23465987
 20
-20.8615262841
 11
-11.63465987
 21
-20.8615262841
  0
LINE
  5
2D6
100
AcDbEntity
  8
0
100
AcDbLine
 62
250
  6
CONTINUOUS
 10
-9.2835645174
 20
-20.7126216367
 11
-3.8357552226
 21
-20.7126216367
  0
LINE
  5
2D7
100
AcDbEntity
  8
0
100
AcDbLine
 62
250
  6
CONTINUOUS
 10
11.9664354826
 20
-20.7126216367
 11
17.4142447774
 21
-20.7126216367
  0
LINE
  5
2D8
100
AcDbEntity
  8
0
100
AcDbLine
 62
250
  6
CONTINUOUS
 10
17.2364302319
 20
-19.9636382529
 11
-9.1057499719
 21
-19.9636382529
  0
LINE
  5
2D9
100
AcDbEntity
  8
0
100
AcDbLine
 62
7
  6
CONTINUOUS
 10
17.0364302308
 20
-19.7636458683
 11
-8.9057499707
 21
-19.7636458683
  0
LINE
  5
2DA
100
AcDbEntity
  8
0
100
AcDbLine
 62
7
  6
CONTINUOUS
 10
5.8063498268
 20
-19.7553801774
 11
2.6963418166
 21
-19.7560262908
  0
LINE
  5
2DB
100
AcDbEntity
  8
RACCORDO
100
AcDbLine
 62
7
  6
CONTINUOUS
 10
8.4093371136
 20
-19.7391954074
 11
7.2299157457
 21
-19.7391954074
  0
LINE
  5
2DC
100
AcDbEntity
  8
RACCORDO
100
AcDbLine
 62
7
  6
CONTINUOUS
 10
0.9007645144
 20
-19.7391954074
 11
-0.2786568536
 21
-19.7391954074
  0
LINE
  5
2DD
100
AcDbEntity
  8
0
100
AcDbLine
 62
7
  6
CONTINUOUS
 10
2.9778925461
 20
-19.6894881539
 11
5.1527877139
 21
-19.6894881539
  0
LINE
  5
2DE
100
AcDbEntity
  8
0
100
AcDbLine
 62
7
  6
CONTINUOUS
 10
6.6606093174
 20
-19.6801130805
 11
4.4117893049
 21
-19.6801130805
  0
LINE
  5
2DF
100
AcDbEntity
  8
0
100
AcDbLine
 62
7
  6
CONTINUOUS
 10
3.7188909552
 20
-19.6801130805
 11
1.4700709426
 21
-19.6801130805
  0
LINE
  5
2E0
100
AcDbEntity
  8
0
100
AcDbLine
 62
7
  6
CONTINUOUS
 10
-3.067204805
 20
-19.6693804651
 11
-6.2021149349
 21
-19.6693804651
  0
LINE
  5
2E1
100
AcDbEntity
  8
0
100
AcDbLine
 62
7
  6
CONTINUOUS
 10
11.1978850651
 20
-19.6693804651
 11
14.332795195
 21
-19.6693804651
  0
LINE
  5
2E2
100
AcDbEntity
  8
0
100
AcDbLine
 62
7
  6
CONTINUOUS
 10
4.4101934988
 20
-19.661872933
 11
3.7204867613
 21
-19.661872933
  0
LINE
  5
2E3
100
AcDbEntity
  8
DRAFT
100
AcDbLine
 62
7
  6
CONTINUOUS
 10
16.06534013
 20
-19.6615262841
 11
15.31534013
 21
-19.6615262841
  0
LINE
  5
2E4
100
AcDbEntity
  8
DRAFT
100
AcDbLine
 62
7
  6
CONTINUOUS
 10
-11.63465987
 20
-19.6615262841
 11
-10.23465987
 21
-19.6615262841
  0
LINE
  5
2E5
100
AcDbEntity
  8
0
100
AcDbLine
 62
7
  6
CONTINUOUS
 10
-7.18465987
 20
-19.6615262841
 11
-6.2178244933
 21
-19.6615262841
  0
LINE
  5
2E6
100
AcDbEntity
  8
0
100
AcDbLine
 62
7
  6
CONTINUOUS
 10
-3.0514952466
 20
-19.6615262841
 11
-0.4800430388
 21
-19.6615262841
  0
LINE
  5
2E7
100
AcDbEntity
  8
DRAFT
100
AcDbLine
 62
7
  6
CONTINUOUS
 10
-7.18465987
 20
-19.6615262841
 11
-7.93465987
 21
-19.6615262841
  0
LINE
  5
2E8
100
AcDbEntity
  8
0
100
AcDbLine
 62
7
  6
CONTINUOUS
 10
8.6107232988
 20
-19.6615262841
 11
11.1821755067
 21
-19.6615262841
  0
LINE
  5
2E9
100
AcDbEntity
  8
0
100
AcDbLine
 62
7
  6
CONTINUOUS
 10
14.3485047534
 20
-19.6615262841
 11
15.31534013
 21
-19.6615262841
  0
LINE
  5
2EA
100
AcDbEntity
  8
DRAFT
100
AcDbLine
 62
7
  6
CONTINUOUS
 10
18.36534013
 20
-19.6615262841
 11
19.76534013
 21
-19.6615262841
  0
LINE
  5
2EB
100
AcDbEntity
  8
0
100
AcDbLine
 62
250
  6
CONTINUOUS
 10
5.1527877139
 20
-19.6894881539
 11
5.6325908919
 21
-19.69056057
  0
LINE
  5
2EC
100
AcDbEntity
  8
0
100
AcDbLine
 62
7
  6
CONTINUOUS
 10
2.6963418166
 20
-19.7560262908
 11
2.2250517132
 21
-19.754979626
  0
LINE
  5
2ED
100
AcDbEntity
  8
0
100
AcDbLine
 62
7
  6
CONTINUOUS
 10
2.2250517132
 20
-19.754979626
 11
1.9796196751
 21
-19.7533452922
  0
LINE
  5
2EE
100
AcDbEntity
  8
0
100
AcDbLine
 62
250
  6
CONTINUOUS
 10
1.9851176322
 20
-19.7534336541
 11
1.9796196751
 21
-19.7533452922
  0
LINE
  5
2EF
100
AcDbEntity
  8
0
100
AcDbLine
 62
250
  6
CONTINUOUS
 10
5.6325908919
 20
-19.69056057
 11
5.9075394966
 21
-19.6925054888
  0
LWPOLYLINE
  5
2F0
100
AcDbEntity
  8
0
100
AcDbPolyline
 62
7
  6
CONTINUOUS
 90
12
 70
0
 10
4.4101934988
 20
-19.661872933
 10
4.4171461206
 20
-19.6619640868
 10
4.4241198875
 20
-19.6623812697
 10
4.4310992578
 20
-19.6631284823
 10
4.4380634997
 20
-19.6642079994
 10
4.4450011618
 20
-19.6656228662
 10
4.4519096266
 20
-19.6673791157
 10
4.4587710611
 20
-19.6694795218
 10
4.4655676896
 20
-19.6719261377
 10
4.4722950773
 20
-19.6747266814
 10
4.478937957
 20
-19.6778856899
 10
4.4854711387
 20
-19.68140213
  0
LINE
  5
2F1
100
AcDbEntity
  8
0
100
AcDbLine
 62
7
  6
CONTINUOUS
 10
1.9796196751
 20
-19.7533452922
 11
1.8609488984
 21
-19.7520229947
  0
LINE
  5
2F2
100
AcDbEntity
  8
0
100
AcDbLine
 62
250
  6
CONTINUOUS
 10
5.9075394966
 20
-19.6925054888
 11
6.0290049947
 21
-19.6940484314
  0
LINE
  5
2F3
100
AcDbEntity
  8
0
100
AcDbLine
 62
7
  6
CONTINUOUS
 10
1.8609488984
 20
-19.7520229947
 11
1.8077070918
 21
-19.7511927205
  0
LWPOLYLINE
  5
2F4
100
AcDbEntity
  8
0
100
AcDbPolyline
 62
250
  6
CONTINUOUS
 90
6
 70
0
 10
6.0290049947
 20
-19.6940484314
 10
6.0888133652
 20
-19.6952189963
 10
6.111355176
 20
-19.6958320336
 10
6.1284266336
 20
-19.6964553373
 10
6.1403087898
 20
-19.6970930258
 10
6.1470016445
 20
-19.6977450992
  0
LINE
  5
2F5
100
AcDbEntity
  8
0
100
AcDbLine
 62
7
  6
CONTINUOUS
 10
1.8077070918
 20
-19.7511927205
 11
1.773808749
 21
-19.7504957884
  0
LWPOLYLINE
  5
2F6
100
AcDbEntity
  8
0
100
AcDbPolyline
 62
250
  6
CONTINUOUS
 90
7
 70
0
 10
1.7585235505
 20
-19.7501075631
 10
1.7474271774
 20
-19.7500047287
 10
1.7281089275
 20
-19.7494147216
 10
1.7136623643
 20
-19.748808016
 10
1.7044368481
 20
-19.7481875705
 10
1.7000830187
 20
-19.7475504263
 10
1.700600876
 20
-19.7468965837
  0
LINE
  5
2F7
100
AcDbEntity
  8
0
100
AcDbLine
 62
7
  6
CONTINUOUS
 10
1.773808749
 20
-19.7504957884
 11
1.7585235505
 21
-19.7501075631
  0
LINE
  5
2F8
100
AcDbEntity
  8
0
100
AcDbLine
 62
7
  6
CONTINUOUS
 10
1.7585235505
 20
-19.7501075631
 11
1.7474147845
 21
-19.7497654362
  0
LINE
  5
2F9
100
AcDbEntity
  8
0
100
AcDbLine
 62
7
  6
CONTINUOUS
 10
1.7474147845
 20
-19.7497654362
 11
1.7423721064
 21
-19.74957891
  0
LWPOLYLINE
  5
2FA
100
AcDbEntity
  8
0
100
AcDbPolyline
 62
7
  6
CONTINUOUS
 90
3
 70
0
 10
1.7423721064
 20
-19.74957891
 10
1.73938276
 20
-19.7494498266
 10
1.739180452
 20
-19.7494401507
  0
LINE
  5
2FB
100
AcDbEntity
  8
0
100
AcDbLine
 62
250
  6
CONTINUOUS
 10
1.700600876
 20
-19.7468965837
 11
1.739180452
 21
-19.7494401507
  0
LWPOLYLINE
  5
2FC
100
AcDbEntity
  8
0
100
AcDbPolyline
 62
250
  6
CONTINUOUS
 90
3
 70
0
 10
1.73938276
 20
-19.7494498266
 10
1.7498944353
 20
-19.7493600658
 10
1.7540021787
 20
-19.7499763397
  0
LWPOLYLINE
  5
2FD
100
AcDbEntity
  8
0
100
AcDbPolyline
 62
250
  6
CONTINUOUS
 90
6
 70
0
 10
1.9836786156
 20
-19.6977450992
 10
2.0329732977
 20
-19.7002086933
 10
2.0817862774
 20
-19.7075321351
 10
2.1296407479
 20
-19.7196438344
 10
2.1760692683
 20
-19.736425428
 10
2.2147942996
 20
-19.7549299564
  0
LINE
  5
2FE
100
AcDbEntity
  8
RACCORDO
100
AcDbLine
 62
7
  6
CONTINUOUS
 10
6.6606093174
 20
-19.6801130805
 11
7.0268179181
 21
-19.7375429007
  0
LINE
  5
2FF
100
AcDbEntity
  8
0
100
AcDbLine
 62
250
  6
CONTINUOUS
 10
6.1470016445
 20
-19.6977450992
 11
6.430079384
 21
-19.7468965837
  0
LWPOLYLINE
  5
300
100
AcDbEntity
  8
0
100
AcDbPolyline
 62
7
  6
CONTINUOUS
 90
3
 70
0
 10
8.7982895236
 20
-22.658057655
 10
8.8593820628
 20
-22.6831698805
 10
8.8807005782
 20
-22.6921528588
  0
LINE
  5
301
100
AcDbEntity
  8
DRAFT
100
AcDbLine
 62
7
  6
CONTINUOUS
 10
8.0378435758
 20
-24.6890228383
 11
8.1041930379
 21
-24.7165056853
  0
LINE
  5
302
100
AcDbEntity
  8
0
100
AcDbLine
 62
7
  6
CONTINUOUS
 10
8.56534013
 20
-22.5615262841
 11
8.7982895236
 21
-22.658057655
  0
LWPOLYLINE
  5
303
100
AcDbEntity
  8
RACCORDO
100
AcDbPolyline
 62
7
  6
CONTINUOUS
 90
6
 70
0
 10
-3.0860379675
 20
-22.0601903906
 10
-3.0755782203
 20
-22.0704756727
 10
-3.0670810181
 20
-22.079105136
 10
-3.0607799303
 20
-22.0857999519
 10
-3.0564413874
 20
-22.0902368897
 10
-3.0540653896
 20
-22.0921207644
  0
LWPOLYLINE
  5
304
100
AcDbEntity
  8
RACCORDO
100
AcDbPolyline
 62
7
  6
CONTINUOUS
 90
3
 70
0
 10
-3.1248235057
 20
-22.0213863847
 10
-3.1106606102
 20
-22.0354181603
 10
-3.0860379675
 20
-22.0601903906
  0
LINE
  5
305
100
AcDbEntity
  8
RACCORDO
100
AcDbLine
 62
7
  6
CONTINUOUS
 10
-3.3540196982
 20
-21.7921664559
 11
-3.3355828687
 21
-21.8104679349
  0
LINE
  5
306
100
AcDbEntity
  8
RACCORDO
100
AcDbLine
 62
250
  6
CONTINUOUS
 10
-3.3540196982
 20
-24.0921207644
 11
-3.1846141785
 21
-24.2615262841
  0
LINE
  5
307
100
AcDbEntity
  8
0
100
AcDbLine
 62
7
  6
CONTINUOUS
 10
-4.08465987
 20
-23.1615262841
 11
-4.0410208784
 21
-23.2051652757
  0
LINE
  5
308
100
AcDbEntity
  8
RACCORDO
100
AcDbLine
 62
250
  6
CONTINUOUS
 10
-3.0540653896
 20
-23.7921664559
 11
-2.88465987
 21
-23.9615719756
  0
LINE
  5
309
100
AcDbEntity
  8
RACCORDO
100
AcDbLine
 62
7
  6
CONTINUOUS
 10
-3.0540653896
 20
-22.0921207644
 11
-2.8514952466
 21
-22.2946909075
  0
LINE
  5
30A
100
AcDbEntity
  8
DRAFT
100
AcDbLine
 62
7
  6
CONTINUOUS
 10
0.0264872222
 20
-24.7165056853
 11
-2.3953275557
 21
-22.2946909075
  0
LINE
  5
30B
100
AcDbEntity
  8
DRAFT
100
AcDbLine
 62
7
  6
CONTINUOUS
 10
0.0928366842
 20
-24.6890228383
 11
-2.33465987
 21
-22.2615262841
  0
LINE
  5
30C
100
AcDbEntity
  8
RACCORDO
100
AcDbLine
 62
7
  6
CONTINUOUS
 10
-3.1891036232
 20
-21.9570825308
 11
-3.1555283733
 21
-21.9905839792
  0
LINE
  5
30D
100
AcDbEntity
  8
RACCORDO
100
AcDbLine
 62
7
  6
CONTINUOUS
 10
-3.1555283733
 20
-21.9905839792
 11
-3.1248235057
 21
-22.0213863847
  0
LINE
  5
30E
100
AcDbEntity
  8
RACCORDO
100
AcDbLine
 62
7
  6
CONTINUOUS
 10
-3.3355828687
 20
-21.8104679349
 11
-3.1891036232
 21
-21.9570825308
  0
LWPOLYLINE
  5
30F
100
AcDbEntity
  8
DRAFT
100
AcDbPolyline
 62
7
  6
CONTINUOUS
 90
13
 70
0
 10
-10.3619874708
 20
-27.1716258272
 10
-10.4409858747
 20
-26.9033938027
 10
-10.5263235873
 20
-26.6485483369
 10
-10.6167874976
 20
-26.4070535177
 10
-10.7108750135
 20
-26.1796326295
 10
-10.8077927412
 20
-25.965284621
 10
-10.9077126621
 20
-25.7614062843
 10
-11.0098715621
 20
-25.5678669647
 10
-11.1135549004
 20
-25.3844982534
 10
-11.2194921195
 20
-25.2088091264
 10
-11.3277087962
 20
-25.0399486085
 10
-11.4373071177
 20
-24.8785840529
 10
-11.547858187
 20
-24.7245883142
  0
LWPOLYLINE
  5
310
100
AcDbEntity
  8
DRAFT
100
AcDbPolyline
 62
7
  6
CONTINUOUS
 90
28
 70
0
 10
-12.8765328517
 20
-29.2946802131
 10
-12.8240030303
 20
-29.6077203375
 10
-12.7554487446
 20
-29.9162201835
 10
-12.6708699948
 20
-30.220179751
 10
-12.5700469492
 20
-30.5204200699
 10
-12.4531994394
 20
-30.8161201102
 10
-12.3209869598
 20
-31.1048167825
 10
-12.1731002203
 20
-31.3866081585
 10
-12.009848511
 20
-31.6613961665
 10
-11.8328191967
 20
-31.9264235018
 10
-11.64205969
 20
-32.1814036907
 10
-11.4375225783
 20
-32.4266232069
 10
-11.2206529889
 20
-32.6601841667
 10
-10.9910995297
 20
-32.8821783825
 10
-10.7492135927
 20
-33.092514042
 10
-10.4974944816
 20
-33.2890178241
 10
-10.2360819118
 20
-33.4713544906
 10
-9.964836168
 20
-33.6398592798
 10
-9.6858374075
 20
-33.7933645854
 10
-9.3987953226
 20
-33.9318775863
 10
-9.1040002211
 20
-34.0553911037
 10
-8.8044031832
 20
-34.1627159953
 10
-8.5001442941
 20
-34.2535595704
 10
-8.1910834686
 20
-34.3282145197
 10
-7.879751531
 20
-34.3863697727
 10
-7.5669920894
 20
-34.4279216394
 10
-7.2519615358
 20
-34.4529738099
 10
-6.93465987
 20
-34.4615262841
  0
LWPOLYLINE
  5
311
100
AcDbEntity
  8
DRAFT
100
AcDbPolyline
 62
7
  6
CONTINUOUS
 90
10
 70
0
 10
-12.8765328517
 20
34.9716276448
 10
-12.9515833238
 20
34.4044575313
 10
-13.0178316553
 20
33.8363131039
 10
-13.0752778461
 20
33.2671943627
 10
-13.123938569
 20
32.6968623302
 10
-13.1637971513
 20
32.1255559839
 10
-13.1948035744
 20
31.5539922561
 10
-13.2169411655
 20
30.9824101242
 10
-13.2302265973
 20
30.4105706108
 10
-13.23465987
 20
29.8384737159
  0
LINE
  5
312
100
AcDbEntity
  8
0
100
AcDbLine
 62
7
  6
CONTINUOUS
 10
-8.68465987
 20
38.1754980288
 11
-8.7100265763
 21
38.0810185885
  0
LINE
  5
313
100
AcDbEntity
  8
0
100
AcDbLine
 62
250
  6
CONTINUOUS
 10
1.029813198
 20
30.1489338068
 11
-0.7500203182
 21
28.3691002906
  0
LINE
  5
314
100
AcDbEntity
  8
0
100
AcDbLine
 62
250
  6
CONTINUOUS
 10
1.1711484042
 20
30.0075986006
 11
-0.5501421527
 21
28.2863080436
  0
LINE
  5
315
100
AcDbEntity
  8
RACCORDO
100
AcDbLine
 62
7
  6
CONTINUOUS
 10
1.2189827319
 20
29.8921163178
 11
-0.43465987
 21
28.2384737159
  0
LINE
  5
316
100
AcDbEntity
  8
DRAFT
100
AcDbLine
 62
7
  6
CONTINUOUS
 10
10.5260078157
 20
27.9716383393
 11
10.46534013
 21
27.9384737159
  0
LWPOLYLINE
  5
317
100
AcDbEntity
  8
0
100
AcDbPolyline
 62
7
  6
CONTINUOUS
 90
12
 70
0
 10
4.4830762104
 20
25.3570605123
 10
4.4789369844
 20
25.3548326292
 10
4.4722931641
 20
25.351673261
 10
4.4655642868
 20
25.3488722504
 10
4.4587658308
 20
25.3464252136
 10
4.4519029344
 20
25.3443246746
 10
4.4449934548
 20
25.3425685344
 10
4.4380551955
 20
25.3411539424
 10
4.4310913554
 20
25.34007488
 10
4.4241135953
 20
25.3393281773
 10
4.4171424652
 20
25.3389113856
 10
4.4101934988
 20
25.3388203648
  0
LINE
  5
318
100
AcDbEntity
  8
DRAFT
100
AcDbLine
 62
7
  6
CONTINUOUS
 10
19.6785384471
 20
30.401535746
 11
19.7604019604
 21
30.4290273131
  0
LINE
  5
319
100
AcDbEntity
  8
DRAFT
100
AcDbLine
 62
7
  6
CONTINUOUS
 10
19.7604019604
 20
-24.7520798813
 11
19.6785384471
 21
-24.7245883142
  0
LINE
  5
31A
100
AcDbEntity
  8
DRAFT
100
AcDbLine
 62
7
  6
CONTINUOUS
 10
10.5260078157
 20
-22.2946909075
 11
10.46534013
 21
-22.2615262841
  0
LINE
  5
31B
100
AcDbEntity
  8
0
100
AcDbLine
 62
250
  6
CONTINUOUS
 10
1.029813198
 20
-24.471986375
 11
-0.7500203182
 21
-22.6921528588
  0
LINE
  5
31C
100
AcDbEntity
  8
0
100
AcDbLine
 62
250
  6
CONTINUOUS
 10
1.1711484042
 20
-24.3306511688
 11
-0.5501421527
 21
-22.6093606118
  0
LINE
  5
31D
100
AcDbEntity
  8
RACCORDO
100
AcDbLine
 62
7
  6
CONTINUOUS
 10
-0.43465987
 20
-22.5615262841
 11
1.2189827319
 21
-24.215168886
  0
LWPOLYLINE
  5
31E
100
AcDbEntity
  8
0
100
AcDbPolyline
 62
7
  6
CONTINUOUS
 90
10
 70
0
 10
-2.8572411047
 20
-31.664120838
 10
-2.7936958454
 20
-31.7978204841
 10
-2.7260959946
 20
-31.929533122
 10
-2.6545028673
 20
-32.0591353548
 10
-2.5789782454
 20
-32.1865092375
 10
-2.4995940152
 20
-32.3115314374
 10
-2.4164331837
 20
-32.4340743768
 10
-2.3295763289
 20
-32.5540205294
 10
-2.2391004551
 20
-32.6712614981
 10
-2.1450893673
 20
-32.7856878863
  0
LINE
  5
31F
100
AcDbEntity
  8
0
100
AcDbLine
 62
7
  6
CONTINUOUS
 10
-8.7100265763
 20
-32.4040711567
 11
-8.68465987
 21
-32.498550597
  0
LINE
  5
320
100
AcDbEntity
  8
DRAFT
100
AcDbLine
 62
7
  6
CONTINUOUS
 10
-11.6307582663
 20
-24.6864418394
 11
-11.6297217003
 21
-24.7520798813
  0
LWPOLYLINE
  5
321
100
AcDbEntity
  8
DRAFT
100
AcDbPolyline
 62
7
  6
CONTINUOUS
 90
10
 70
0
 10
-13.23465987
 20
-24.1615262841
 10
-13.2302265973
 20
-24.733623179
 10
-13.2169411655
 20
-25.3054626924
 10
-13.1948035744
 20
-25.8770448243
 10
-13.1637971513
 20
-26.4486085521
 10
-13.123938569
 20
-27.0199148985
 10
-13.0752778461
 20
-27.590246931
 10
-13.0178316553
 20
-28.1593656722
 10
-12.9515833238
 20
-28.7275100995
 10
-12.8765328517
 20
-29.2946802131
  0
LINE
  5
322
100
AcDbEntity
  8
DRAFT
100
AcDbLine
 62
7
  6
CONTINUOUS
 10
-13.23465987
 20
29.8384737159
 11
-13.23465987
 21
-24.1615262841
  0
LWPOLYLINE
  5
323
100
AcDbEntity
  8
DRAFT
100
AcDbPolyline
 62
7
  6
CONTINUOUS
 90
3
 70
0
 10
-11.6297217003
 20
30.4290273131
 10
-11.6307582663
 20
30.3633892712
 10
-11.6331360508
 20
30.1665042892
  0
LINE
  5
324
100
AcDbEntity
  8
0
100
AcDbLine
 62
7
  6
CONTINUOUS
 10
3.2539528022
 20
30.1539559987
 11
3.2550446025
 21
30.1554245321
  0
LINE
  5
325
100
AcDbEntity
  8
0
100
AcDbLine
 62
7
  6
CONTINUOUS
 10
3.3402499449
 20
30.2663259962
 11
3.3718492733
 21
30.3078791326
  0
LWPOLYLINE
  5
326
100
AcDbEntity
  8
0
100
AcDbPolyline
 62
7
  6
CONTINUOUS
 90
3
 70
0
 10
3.3718492733
 20
30.3078791326
 10
3.3890929178
 20
30.3304398007
 10
3.4073247129
 20
30.3538341641
  0
LINE
  5
327
100
AcDbEntity
  8
0
100
AcDbLine
 62
7
  6
CONTINUOUS
 10
3.16534013
 20
30.0384737159
 11
3.2539528022
 21
30.1539559987
  0
LINE
  5
328
100
AcDbEntity
  8
0
100
AcDbLine
 62
250
  6
CONTINUOUS
 10
3.286414074
 20
29.5866196054
 11
3.3750267462
 21
29.7021018882
  0
LINE
  5
329
100
AcDbEntity
  8
0
100
AcDbLine
 62
250
  6
CONTINUOUS
 10
3.4794815561
 20
29.4384737159
 11
3.5680942283
 21
29.5539559987
  0
LINE
  5
32A
100
AcDbEntity
  8
0
100
AcDbLine
 62
7
  6
CONTINUOUS
 10
3.2550446025
 20
30.1554245321
 11
3.3402499449
 21
30.2663259962
  0
LINE
  5
32B
100
AcDbEntity
  8
0
100
AcDbLine
 62
7
  6
CONTINUOUS
 10
-8.9057804328
 20
14.767353153
 11
-8.9067776841
 21
14.7663360648
  0
LINE
  5
32C
100
AcDbEntity
  8
0
100
AcDbLine
 62
7
  6
CONTINUOUS
 10
-9.0880433415
 20
14.5853333947
 11
-9.1057499719
 21
14.567383614
  0
LINE
  5
32D
100
AcDbEntity
  8
DRAFT
100
AcDbLine
 62
7
  6
CONTINUOUS
 10
-10.2654526132
 20
13.7076809727
 11
-10.23465987
 21
13.7384737159
  0
LINE
  5
32E
100
AcDbEntity
  8
0
100
AcDbLine
 62
7
  6
CONTINUOUS
 10
-8.9057804328
 20
14.767353153
 11
-8.7017513793
 21
14.9713822065
  0
LINE
  5
32F
100
AcDbEntity
  8
0
100
AcDbLine
 62
250
  6
CONTINUOUS
 10
7.100867062
 20
30.1489338068
 11
6.9595318559
 21
30.0075986006
  0
LWPOLYLINE
  5
330
100
AcDbEntity
  8
0
100
AcDbPolyline
 62
7
  6
CONTINUOUS
 90
3
 70
0
 10
-8.9067776841
 20
14.7663360648
 10
-8.9130115749
 20
14.7601220109
 10
-8.9248790814
 20
14.748197812
  0
LWPOLYLINE
  5
331
100
AcDbEntity
  8
0
100
AcDbPolyline
 62
7
  6
CONTINUOUS
 90
3
 70
0
 10
-8.9248790814
 20
14.748197812
 10
-8.932782349
 20
14.7403512368
 10
-9.0355839929
 20
14.6374587321
  0
LINE
  5
332
100
AcDbEntity
  8
0
100
AcDbLine
 62
7
  6
CONTINUOUS
 10
-9.0355839929
 20
14.6374587321
 11
-9.0880433415
 21
14.5853333947
  0
LINE
  5
333
100
AcDbEntity
  8
0
100
AcDbLine
 62
7
  6
CONTINUOUS
 10
11.1821755067
 20
25.3384737159
 11
11.1978850651
 21
25.3463278969
  0
LINE
  5
334
100
AcDbEntity
  8
DRAFT
100
AcDbLine
 62
7
  6
CONTINUOUS
 10
-11.63465987
 20
14.9384737159
 11
-11.5523243474
 21
14.9658965892
  0
LINE
  5
335
100
AcDbEntity
  8
DRAFT
100
AcDbLine
 62
7
  6
CONTINUOUS
 10
19.76534013
 20
25.3384737159
 11
19.6830046075
 21
25.3110508426
  0
LINE
  5
336
100
AcDbEntity
  8
DRAFT
100
AcDbLine
 62
7
  6
CONTINUOUS
 10
-11.63465987
 20
-9.2615262841
 11
-11.5523243474
 21
-9.2889491574
  0
LINE
  5
337
100
AcDbEntity
  8
DRAFT
100
AcDbLine
 62
7
  6
CONTINUOUS
 10
19.76534013
 20
-19.6615262841
 11
19.6830046075
 21
-19.6341034108
  0
LINE
  5
338
100
AcDbEntity
  8
0
100
AcDbLine
 62
7
  6
CONTINUOUS
 10
11.1821755067
 20
-19.6615262841
 11
11.1978850651
 21
-19.6693804651
  0
LWPOLYLINE
  5
339
100
AcDbEntity
  8
0
100
AcDbPolyline
 62
250
  6
CONTINUOUS
 90
8
 70
0
 10
6.430079384
 20
-19.7468965837
 10
6.4310568531
 20
-19.7474842377
 10
6.4277685162
 20
-19.7480635552
 10
6.4202143732
 20
-19.7486345362
 10
6.4083268836
 20
-19.7491986319
 10
6.392173588
 20
-19.7497543911
 10
6.3719571079
 20
-19.7502974604
 10
6.3524226526
 20
-19.7505993524
  0
LINE
  5
33A
100
AcDbEntity
  8
DRAFT
100
AcDbLine
 62
7
  6
CONTINUOUS
 10
-10.2654526132
 20
-8.0307335409
 11
-10.23465987
 21
-8.0615262841
  0
LWPOLYLINE
  5
33B
100
AcDbEntity
  8
0
100
AcDbPolyline
 62
7
  6
CONTINUOUS
 90
3
 70
0
 10
-8.9130139286
 20
-9.0831722255
 10
-8.906777137
 20
-9.0893924987
 10
-8.9057804328
 20
-9.0904057212
  0
LINE
  5
33C
100
AcDbEntity
  8
0
100
AcDbLine
 62
7
  6
CONTINUOUS
 10
-8.9057804328
 20
-9.0904057212
 11
-8.7017513793
 21
-9.2944347748
  0
LINE
  5
33D
100
AcDbEntity
  8
0
100
AcDbLine
 62
250
  6
CONTINUOUS
 10
6.9595318559
 20
-24.3306511688
 11
7.100867062
 21
-24.471986375
  0
LWPOLYLINE
  5
33E
100
AcDbEntity
  8
0
100
AcDbPolyline
 62
7
  6
CONTINUOUS
 90
3
 70
0
 10
-9.0355773236
 20
-8.960517925
 10
-8.9419050191
 20
-9.0543114082
 10
-8.9249056016
 20
-9.0712224519
  0
LINE
  5
33F
100
AcDbEntity
  8
0
100
AcDbLine
 62
7
  6
CONTINUOUS
 10
-8.9249056016
 20
-9.0712224519
 11
-8.9130139286
 21
-9.0831722255
  0
LWPOLYLINE
  5
340
100
AcDbEntity
  8
0
100
AcDbPolyline
 62
7
  6
CONTINUOUS
 90
3
 70
0
 10
-9.1057499719
 20
-8.8904361822
 10
-9.0880286319
 20
-8.9083997215
 10
-9.0355773236
 20
-8.960517925
  0
LINE
  5
341
100
AcDbEntity
  8
0
100
AcDbLine
 62
7
  6
CONTINUOUS
 10
3.2539528022
 20
-24.4770085669
 11
3.2550887179
 21
-24.4784432493
  0
LINE
  5
342
100
AcDbEntity
  8
0
100
AcDbLine
 62
7
  6
CONTINUOUS
 10
3.3401585409
 20
-24.5894487012
 11
3.3721172805
 21
-24.6307260516
  0
LWPOLYLINE
  5
343
100
AcDbEntity
  8
0
100
AcDbPolyline
 62
7
  6
CONTINUOUS
 90
3
 70
0
 10
3.3721172805
 20
-24.6307260516
 10
3.3894462289
 20
-24.6532212638
 10
3.4073247129
 20
-24.6768867323
  0
LINE
  5
344
100
AcDbEntity
  8
0
100
AcDbLine
 62
7
  6
CONTINUOUS
 10
3.16534013
 20
-24.3615262841
 11
3.2539528022
 21
-24.4770085669
  0
LINE
  5
345
100
AcDbEntity
  8
0
100
AcDbLine
 62
250
  6
CONTINUOUS
 10
3.3750267462
 20
-24.0251544564
 11
3.286414074
 21
-23.9096721736
  0
LINE
  5
346
100
AcDbEntity
  8
0
100
AcDbLine
 62
250
  6
CONTINUOUS
 10
3.5680942283
 20
-23.8770085669
 11
3.4794815561
 21
-23.7615262841
  0
LINE
  5
347
100
AcDbEntity
  8
0
100
AcDbLine
 62
7
  6
CONTINUOUS
 10
3.2550887179
 20
-24.4784432493
 11
3.3401585409
 21
-24.5894487012
  0
LINE
  5
348
100
AcDbEntity
  8
DRAFT
100
AcDbLine
 62
7
  6
CONTINUOUS
 10
-11.547858187
 20
-24.7245883142
 11
-11.5503460822
 21
-24.5367891008
  0
LINE
  5
349
100
AcDbEntity
  8
DRAFT
100
AcDbLine
 62
7
  6
CONTINUOUS
 10
-11.6331360508
 20
-24.4895568575
 11
-11.6307582663
 21
-24.6864418394
  0
LINE
  5
34A
100
AcDbEntity
  8
DRAFT
100
AcDbLine
 62
7
  6
CONTINUOUS
 10
-11.5503460822
 20
-24.5367891008
 11
-11.5518370091
 21
-24.3490347884
  0
LINE
  5
34B
100
AcDbEntity
  8
DRAFT
100
AcDbLine
 62
7
  6
CONTINUOUS
 10
-11.6344161254
 20
-24.2927195977
 11
-11.6331360508
 21
-24.4895568575
  0
LINE
  5
34C
100
AcDbEntity
  8
DRAFT
100
AcDbLine
 62
7
  6
CONTINUOUS
 10
-11.63465987
 20
25.3384737159
 11
-11.63465987
 21
14.9384737159
  0
LINE
  5
34D
100
AcDbEntity
  8
DRAFT
100
AcDbLine
 62
7
  6
CONTINUOUS
 10
-11.63465987
 20
13.7384737159
 11
-11.63465987
 21
3.4384737159
  0
LINE
  5
34E
100
AcDbEntity
  8
DRAFT
100
AcDbLine
 62
7
  6
CONTINUOUS
 10
-11.63465987
 20
2.2384737159
 11
-11.63465987
 21
-8.0615262841
  0
LINE
  5
34F
100
AcDbEntity
  8
DRAFT
100
AcDbLine
 62
7
  6
CONTINUOUS
 10
-11.63465987
 20
-9.2615262841
 11
-11.63465987
 21
-19.6615262841
  0
LINE
  5
350
100
AcDbEntity
  8
DRAFT
100
AcDbLine
 62
7
  6
CONTINUOUS
 10
-11.63465987
 20
-20.8615262841
 11
-11.6344161254
 21
-24.2927195977
  0
LINE
  5
351
100
AcDbEntity
  8
DRAFT
100
AcDbLine
 62
7
  6
CONTINUOUS
 10
-11.5518370091
 20
-24.3490347884
 11
-11.5523243474
 21
-20.8889491574
  0
LINE
  5
352
100
AcDbEntity
  8
DRAFT
100
AcDbLine
 62
7
  6
CONTINUOUS
 10
-11.5523243474
 20
-19.6341034108
 11
-11.5523243474
 21
-9.2889491574
  0
LINE
  5
353
100
AcDbEntity
  8
DRAFT
100
AcDbLine
 62
7
  6
CONTINUOUS
 10
-11.5523243474
 20
-8.0341034108
 11
-11.5523243474
 21
2.2110508426
  0
LINE
  5
354
100
AcDbEntity
  8
DRAFT
100
AcDbLine
 62
7
  6
CONTINUOUS
 10
-11.5523243474
 20
3.4658965892
 11
-11.5523243474
 21
13.7110508426
  0
LINE
  5
355
100
AcDbEntity
  8
DRAFT
100
AcDbLine
 62
7
  6
CONTINUOUS
 10
-11.5523243474
 20
14.9658965892
 11
-11.5523243474
 21
25.3110508426
  0
LINE
  5
356
100
AcDbEntity
  8
RACCORDO
100
AcDbLine
 62
7
  6
CONTINUOUS
 10
-10.2654489503
 20
-24.161331522
 11
-10.2653959845
 21
-24.992338551
  0
LINE
  5
357
100
AcDbEntity
  8
DRAFT
100
AcDbLine
 62
7
  6
CONTINUOUS
 10
-10.2654489503
 20
-24.161331522
 11
-10.2654526132
 21
-20.8923190273
  0
LINE
  5
358
100
AcDbEntity
  8
DRAFT
100
AcDbLine
 62
7
  6
CONTINUOUS
 10
-10.2654526132
 20
-19.6307335409
 11
-10.2654526132
 21
-9.2923190273
  0
LINE
  5
359
100
AcDbEntity
  8
DRAFT
100
AcDbLine
 62
7
  6
CONTINUOUS
 10
-10.2654526132
 20
-8.0307335409
 11
-10.2654526132
 21
2.2076809727
  0
LINE
  5
35A
100
AcDbEntity
  8
DRAFT
100
AcDbLine
 62
7
  6
CONTINUOUS
 10
-10.2654526132
 20
3.4692664591
 11
-10.2654526132
 21
13.7076809727
  0
LINE
  5
35B
100
AcDbEntity
  8
DRAFT
100
AcDbLine
 62
7
  6
CONTINUOUS
 10
-10.2654526132
 20
14.9692664591
 11
-10.2654526132
 21
25.3076809727
  0
LINE
  5
35C
100
AcDbEntity
  8
DRAFT
100
AcDbLine
 62
7
  6
CONTINUOUS
 10
-10.2654526132
 20
26.5692664591
 11
-10.2654526132
 21
29.8382755505
  0
LINE
  5
35D
100
AcDbEntity
  8
RACCORDO
100
AcDbLine
 62
7
  6
CONTINUOUS
 10
-10.23465987
 20
-24.9616024365
 11
-10.23465987
 21
-23.9615719756
  0
LINE
  5
35E
100
AcDbEntity
  8
DRAFT
100
AcDbLine
 62
7
  6
CONTINUOUS
 10
-10.23465987
 20
-20.8615262841
 11
-10.23465987
 21
-19.6615262841
  0
LINE
  5
35F
100
AcDbEntity
  8
DRAFT
100
AcDbLine
 62
7
  6
CONTINUOUS
 10
-10.23465987
 20
-9.2615262841
 11
-10.23465987
 21
-8.0615262841
  0
LINE
  5
360
100
AcDbEntity
  8
DRAFT
100
AcDbLine
 62
7
  6
CONTINUOUS
 10
-10.23465987
 20
2.2384737159
 11
-10.23465987
 21
3.4384737159
  0
LINE
  5
361
100
AcDbEntity
  8
DRAFT
100
AcDbLine
 62
7
  6
CONTINUOUS
 10
-10.23465987
 20
13.7384737159
 11
-10.23465987
 21
14.9384737159
  0
LINE
  5
362
100
AcDbEntity
  8
DRAFT
100
AcDbLine
 62
7
  6
CONTINUOUS
 10
-10.23465987
 20
25.3384737159
 11
-10.23465987
 21
26.5384737159
  0
LINE
  5
363
100
AcDbEntity
  8
RACCORDO
100
AcDbLine
 62
7
  6
CONTINUOUS
 10
-10.23465987
 20
29.6385194073
 11
-10.23465987
 21
30.6385498683
  0
LINE
  5
364
100
AcDbEntity
  8
RACCORDO
100
AcDbLine
 62
250
  6
CONTINUOUS
 10
-10.0652543503
 20
29.4691138877
 11
-10.0652543503
 21
-23.7921664559
  0
LINE
  5
365
100
AcDbEntity
  8
RACCORDO
100
AcDbLine
 62
250
  6
CONTINUOUS
 10
-9.7653000418
 20
-24.0921207644
 11
-9.7653000418
 21
29.7690681962
  0
LINE
  5
366
100
AcDbEntity
  8
0
100
AcDbLine
 62
250
  6
CONTINUOUS
 10
-9.2835645174
 20
29.4691138877
 11
-9.2835645174
 21
26.3895690685
  0
LINE
  5
367
100
AcDbEntity
  8
0
100
AcDbLine
 62
250
  6
CONTINUOUS
 10
-9.2835645174
 20
-20.7126216367
 11
-9.2835645174
 21
-23.7921664559
  0
LINE
  5
368
100
AcDbEntity
  8
RACCORDO
100
AcDbLine
 62
7
  6
CONTINUOUS
 10
-10.2653959845
 20
30.6692859828
 11
-10.2654526132
 21
29.8382755505
  0
LINE
  5
369
100
AcDbEntity
  8
DRAFT
100
AcDbLine
 62
7
  6
CONTINUOUS
 10
-11.5523243474
 20
26.5658965892
 11
-11.5521125349
 21
29.9634040511
  0
LINE
  5
36A
100
AcDbEntity
  8
DRAFT
100
AcDbLine
 62
7
  6
CONTINUOUS
 10
-11.6344161254
 20
29.9696670295
 11
-11.63465987
 21
26.5384737159
  0
LINE
  5
36B
100
AcDbEntity
  8
DRAFT
100
AcDbLine
 62
7
  6
CONTINUOUS
 10
-11.5521125349
 20
29.9634040511
 11
-11.5509538586
 21
30.1511428063
  0
LINE
  5
36C
100
AcDbEntity
  8
DRAFT
100
AcDbLine
 62
7
  6
CONTINUOUS
 10
-11.6331360508
 20
30.1665042892
 11
-11.6344161254
 21
29.9696670295
  0
LWPOLYLINE
  5
36D
100
AcDbEntity
  8
DRAFT
100
AcDbPolyline
 62
7
  6
CONTINUOUS
 90
3
 70
0
 10
-11.5509538586
 20
30.1511428063
 10
-11.5487982903
 20
30.3389282103
 10
-11.547858187
 20
30.401535746
  0
LWPOLYLINE
  5
36E
100
AcDbEntity
  8
RACCORDO
100
AcDbPolyline
 62
7
  6
CONTINUOUS
 90
19
 70
0
 10
-10.2653959845
 20
30.6692859828
 10
-10.2636819431
 20
30.7106327714
 10
-10.2584759225
 20
30.7522133576
 10
-10.2496856486
 20
30.7937196854
 10
-10.2371901633
 20
30.8349859978
 10
-10.2209823223
 20
30.8754996619
 10
-10.2013082356
 20
30.914458505
 10
-10.1784339416
 20
30.9513919216
 10
-10.1524434496
 20
30.986211074
 10
-10.1234451011
 20
31.0187371739
 10
-10.0916437912
 20
31.0486923484
 10
-10.0572509682
 20
31.0758331712
 10
-10.0203707228
 20
31.1000043913
 10
-9.9810594951
 20
31.121044519
 10
-9.9397643309
 20
31.1385951771
 10
-9.8972389229
 20
31.1523176585
 10
-9.8539918208
 20
31.162119658
 10
-9.8102288783
 20
31.1680256941
 10
-9.7662990088
 20
31.1700367023
  0
LWPOLYLINE
  5
36F
100
AcDbEntity
  8
RACCORDO
100
AcDbPolyline
 62
250
  6
CONTINUOUS
 90
16
 70
0
 10
-10.0652543503
 20
29.4691138877
 10
-10.0636022577
 20
29.5004615946
 10
-10.0586831698
 20
29.5314659826
 10
-10.0505509603
 20
29.5617874926
 10
-10.0392946928
 20
29.5910940446
 10
-10.0250376456
 20
29.6190646742
 10
-10.0079359614
 20
29.6453930481
 10
-9.9881769371
 20
29.6697908189
 10
-9.965976973
 20
29.691990783
 10
-9.9415792022
 20
29.7117498073
 10
-9.9152508283
 20
29.7288514915
 10
-9.8872801986
 20
29.7431085387
 10
-9.8579736467
 20
29.7543648062
 10
-9.8276521366
 20
29.7624970158
 10
-9.7966477487
 20
29.7674161036
 10
-9.7653000418
 20
29.7690681962
  0
LINE
  5
370
100
AcDbEntity
  8
0
100
AcDbLine
 62
250
  6
CONTINUOUS
 10
-7.3846370247
 20
14.9716383393
 11
-7.4841766251
 21
14.7725439758
  0
LINE
  5
371
100
AcDbEntity
  8
0
100
AcDbLine
 62
250
  6
CONTINUOUS
 10
-7.18465987
 20
14.7716180274
 11
-7.2841842404
 21
14.5725744368
  0
LINE
  5
372
100
AcDbEntity
  8
0
100
AcDbLine
 62
7
  6
CONTINUOUS
 10
3.5133816991
 20
34.3950331972
 11
3.2540730367
 21
33.904827504
  0
LINE
  5
373
100
AcDbEntity
  8
0
100
AcDbLine
 62
7
  6
CONTINUOUS
 10
17.0364302308
 20
25.4405933001
 11
16.8324316394
 21
25.3386017725
  0
LWPOLYLINE
  5
374
100
AcDbEntity
  8
0
100
AcDbPolyline
 62
250
  6
CONTINUOUS
 90
8
 70
0
 10
-7.4841766251
 20
14.7725439758
 10
-7.4856284852
 20
14.7720910415
 10
-7.4890981061
 20
14.7716502249
 10
-7.4945854879
 20
14.7712215262
 10
-7.5021575836
 20
14.770802964
 10
-7.5117474401
 20
14.7703965197
 10
-7.5231541984
 20
14.7700081365
 10
-7.5363762276
 20
14.7696377959
  0
LWPOLYLINE
  5
375
100
AcDbEntity
  8
0
100
AcDbPolyline
 62
250
  6
CONTINUOUS
 90
6
 70
0
 10
15.4148645005
 20
-8.8956270752
 10
15.4170727104
 20
-8.8951739838
 10
15.4228901955
 20
-8.8947330738
 10
15.4322126047
 20
-8.8943043452
 10
15.4448851176
 20
-8.8938858519
 10
15.4607734217
 20
-8.89347954
  0
LWPOLYLINE
  5
376
100
AcDbEntity
  8
0
100
AcDbPolyline
 62
250
  6
CONTINUOUS
 90
7
 70
0
 10
-7.2841842404
 20
-8.8956270707
 10
-7.2863236545
 20
-8.8951815715
 10
-7.2919860901
 20
-8.8947459927
 10
-7.3011222497
 20
-8.8943203342
 10
-7.313712865
 20
-8.8939006035
 10
-7.3296312985
 20
-8.8934907932
 10
-7.3702097756
 20
-8.8927376327
  0
LWPOLYLINE
  5
377
100
AcDbEntity
  8
0
100
AcDbPolyline
 62
250
  6
CONTINUOUS
 90
10
 70
0
 10
-7.4841766251
 20
-9.095596544
 10
-7.4855336178
 20
-9.0951511882
 10
-7.4889212198
 20
-9.0947156941
 10
-7.4943394309
 20
-9.094290062
 10
-7.5019260761
 20
-9.0938702643
 10
-7.5115433305
 20
-9.0934603284
 10
-7.5227777193
 20
-9.0930723368
 10
-7.5357939459
 20
-9.0927071136
 10
-7.5504273068
 20
-9.0923638346
 10
-7.5817094477
 20
-9.0917763679
  0
LINE
  5
378
100
AcDbEntity
  8
0
100
AcDbLine
 62
7
  6
CONTINUOUS
 10
17.0364606929
 20
-19.7636610982
 11
16.8324316394
 21
-19.6616543407
  0
LINE
  5
379
100
AcDbEntity
  8
0
100
AcDbLine
 62
250
  6
CONTINUOUS
 10
-7.3846370247
 20
-9.2946909075
 11
-7.4841766251
 21
-9.095596544
  0
LINE
  5
37A
100
AcDbEntity
  8
0
100
AcDbLine
 62
250
  6
CONTINUOUS
 10
-7.18465987
 20
-9.0946705956
 11
-7.2841842404
 21
-8.895627005
  0
LWPOLYLINE
  5
37B
100
AcDbEntity
  8
0
100
AcDbPolyline
 62
7
  6
CONTINUOUS
 90
28
 70
0
 10
3.1553469752
 20
-30.1104415159
 10
3.121386773
 20
-30.039880614
 10
3.09311318
 20
-29.9673605418
 10
3.0705798972
 20
-29.8933536894
 10
3.0538574521
 20
-29.8186269233
 10
3.0428228412
 20
-29.7433415051
 10
3.0373867129
 20
-29.6670108087
 10
3.0376743521
 20
-29.5898005298
 10
3.0437973441
 20
-29.5123927222
 10
3.0558407985
 20
-29.4350609641
 10
3.073931784
 20
-29.3580109537
 10
3.0980601471
 20
-29.28198111
 10
3.1279532307
 20
-29.2080242065
 10
3.163411663
 20
-29.1365926334
 10
3.2042238358
 20
-29.0680778505
 10
3.2498041554
 20
-29.0033143519
 10
3.2995071451
 20
-28.9428992113
 10
3.3531659285
 20
-28.8867469605
 10
3.4108907889
 20
-28.8346487139
 10
3.472436677
 20
-28.7868484891
 10
3.5374158219
 20
-28.7436688678
 10
3.6058560546
 20
-28.7051574368
 10
3.6777241401
 20
-28.671490811
 10
3.7523965002
 20
-28.6431145158
 10
3.8289840824
 20
-28.6204154257
 10
3.9068800915
 20
-28.6035396246
 10
3.9858122246
 20
-28.5925128302
 10
4.06534013
 20
-28.5873832624
  0
LWPOLYLINE
  5
37C
100
AcDbEntity
  8
RACCORDO
100
AcDbPolyline
 62
7
  6
CONTINUOUS
 90
19
 70
0
 10
-10.2547815733
 20
35.8582267872
 10
-10.2679890892
 20
35.9809980803
 10
-10.2735044427
 20
36.1039204835
 10
-10.2713276338
 20
36.2269939967
 10
-10.2613648692
 20
36.3509868398
 10
-10.2437099423
 20
36.4751307931
 10
-10.2186442327
 20
36.5971211969
 10
-10.1861091992
 20
36.7165222601
 10
-10.1461633831
 20
36.833769774
 10
-10.0992637883
 20
36.947866453
 10
-10.0454112351
 20
37.0588022284
 10
-9.9846049033
 20
37.1665871689
 10
-9.9172993362
 20
37.2702541953
 10
-9.8431549055
 20
37.3700390609
 10
-9.7625112396
 20
37.4657060124
 10
-9.6768417667
 20
37.5555807098
 10
-9.5866376298
 20
37.63910504
 10
-9.4914076861
 20
37.7168371161
 10
-9.3911519355
 20
37.7887769383
  0
LWPOLYLINE
  5
37D
100
AcDbEntity
  8
0
100
AcDbPolyline
 62
250
  6
CONTINUOUS
 90
13
 70
0
 10
-7.2841842404
 20
-8.4274255632
 10
-7.2858989465
 20
-8.4013260611
 10
-7.2910057499
 20
-8.3756731766
 10
-7.2994172414
 20
-8.3509057661
 10
-7.3109894876
 20
-8.3274475121
 10
-7.3255244719
 20
-8.305699726
 10
-7.3427734634
 20
-8.2860344701
 10
-7.3624413251
 20
-8.2687881235
 10
-7.3841915619
 20
-8.2542556631
 10
-7.4076520355
 20
-8.2426856487
 10
-7.4324213766
 20
-8.2342759367
 10
-7.4580758596
 20
-8.2291703079
 10
-7.4841766251
 20
-8.2274560242
  0
LWPOLYLINE
  5
37E
100
AcDbEntity
  8
0
100
AcDbPolyline
 62
250
  6
CONTINUOUS
 90
13
 70
0
 10
-7.2841842404
 20
3.0725744368
 10
-7.2858989465
 20
3.0986739389
 10
-7.2910057499
 20
3.1243268234
 10
-7.2994172414
 20
3.1490942339
 10
-7.3109894876
 20
3.1725524879
 10
-7.3255244719
 20
3.194300274
 10
-7.3427734634
 20
3.2139655299
 10
-7.3624413251
 20
3.2312118765
 10
-7.3841915619
 20
3.2457443369
 10
-7.4076520355
 20
3.2573143513
 10
-7.4324213766
 20
3.2657240633
 10
-7.4580758596
 20
3.2708296921
 10
-7.4841766251
 20
3.2725439758
  0
LINE
  5
37F
100
AcDbEntity
  8
0
100
AcDbLine
 62
7
  6
CONTINUOUS
 10
-8.7124579408
 20
-31.0572410395
 11
-8.7100265763
 21
-32.4040711567
  0
LINE
  5
380
100
AcDbEntity
  8
0
100
AcDbLine
 62
7
  6
CONTINUOUS
 10
-8.7174198838
 20
-25.4942862979
 11
-8.7124579408
 21
-31.0572410395
  0
LINE
  5
381
100
AcDbEntity
  8
0
100
AcDbLine
 62
250
  6
CONTINUOUS
 10
-9.1057499719
 20
25.6405856847
 11
-9.1057499719
 21
14.567383614
  0
LINE
  5
382
100
AcDbEntity
  8
0
100
AcDbLine
 62
250
  6
CONTINUOUS
 10
-9.1057499719
 20
14.1095638178
 11
-9.1057499719
 21
3.067383614
  0
LINE
  5
383
100
AcDbEntity
  8
0
100
AcDbLine
 62
250
  6
CONTINUOUS
 10
-9.1057499719
 20
2.6095638178
 11
-9.1057499719
 21
-8.432616386
  0
LINE
  5
384
100
AcDbEntity
  8
0
100
AcDbLine
 62
250
  6
CONTINUOUS
 10
-9.1057499719
 20
-8.8904361822
 11
-9.1057499719
 21
-19.9636382529
  0
LINE
  5
385
100
AcDbEntity
  8
0
100
AcDbLine
 62
250
  6
CONTINUOUS
 10
-9.0835949783
 20
29.1908693716
 11
-9.0835949783
 21
26.5895386075
  0
LINE
  5
386
100
AcDbEntity
  8
0
100
AcDbLine
 62
250
  6
CONTINUOUS
 10
-9.0835949783
 20
-20.9125911757
 11
-9.0835949783
 21
-23.5139219399
  0
LINE
  5
387
100
AcDbEntity
  8
0
100
AcDbLine
 62
7
  6
CONTINUOUS
 10
-9.03465987
 20
-23.1615262841
 11
-9.03465987
 21
-20.9615262841
  0
LINE
  5
388
100
AcDbEntity
  8
0
100
AcDbLine
 62
7
  6
CONTINUOUS
 10
-9.03465987
 20
26.6384737159
 11
-9.03465987
 21
28.8384737159
  0
LINE
  5
389
100
AcDbEntity
  8
0
100
AcDbLine
 62
250
  6
CONTINUOUS
 10
-8.9057804328
 20
25.44060853
 11
-8.9057804328
 21
14.767353153
  0
LINE
  5
38A
100
AcDbEntity
  8
0
100
AcDbLine
 62
250
  6
CONTINUOUS
 10
-8.9057804328
 20
13.9095942788
 11
-8.9057804328
 21
3.267353153
  0
LINE
  5
38B
100
AcDbEntity
  8
0
100
AcDbLine
 62
250
  6
CONTINUOUS
 10
-8.9057804328
 20
2.4095942788
 11
-8.9057804328
 21
-8.232646847
  0
LINE
  5
38C
100
AcDbEntity
  8
0
100
AcDbLine
 62
250
  6
CONTINUOUS
 10
-8.9057804328
 20
-9.0904057212
 11
-8.9057804328
 21
-19.7636610982
  0
LINE
  5
38D
100
AcDbEntity
  8
DRAFT
100
AcDbLine
 62
7
  6
CONTINUOUS
 10
-8.7017513793
 20
-19.6616543407
 11
-8.7017513793
 21
-9.2944347748
  0
LINE
  5
38E
100
AcDbEntity
  8
DRAFT
100
AcDbLine
 62
7
  6
CONTINUOUS
 10
-8.7017513793
 20
-8.0286177935
 11
-8.7017513793
 21
2.2055652252
  0
LINE
  5
38F
100
AcDbEntity
  8
DRAFT
100
AcDbLine
 62
7
  6
CONTINUOUS
 10
-8.7017513793
 20
3.4713822065
 11
-8.7017513793
 21
13.7055652252
  0
LINE
  5
390
100
AcDbEntity
  8
DRAFT
100
AcDbLine
 62
7
  6
CONTINUOUS
 10
-8.7017513793
 20
14.9713822065
 11
-8.7017513793
 21
25.3386017725
  0
LINE
  5
391
100
AcDbEntity
  8
0
100
AcDbLine
 62
7
  6
CONTINUOUS
 10
-8.68465987
 20
-32.498550597
 11
-8.68465987
 21
-25.4615262841
  0
LINE
  5
392
100
AcDbEntity
  8
0
100
AcDbLine
 62
7
  6
CONTINUOUS
 10
-8.68465987
 20
31.1384737159
 11
-8.68465987
 21
38.1754980288
  0
LINE
  5
393
100
AcDbEntity
  8
DRAFT
100
AcDbLine
 62
250
  6
CONTINUOUS
 10
-7.93465987
 20
25.3384737159
 11
-7.93465987
 21
14.9716383393
  0
LINE
  5
394
100
AcDbEntity
  8
DRAFT
100
AcDbLine
 62
250
  6
CONTINUOUS
 10
-7.93465987
 20
13.7053090925
 11
-7.93465987
 21
3.4716383393
  0
LINE
  5
395
100
AcDbEntity
  8
DRAFT
100
AcDbLine
 62
250
  6
CONTINUOUS
 10
-7.93465987
 20
2.2053090925
 11
-7.93465987
 21
-8.0283616607
  0
LINE
  5
396
100
AcDbEntity
  8
DRAFT
100
AcDbLine
 62
250
  6
CONTINUOUS
 10
-7.93465987
 20
-9.2946909075
 11
-7.93465987
 21
-19.6615262841
  0
LINE
  5
397
100
AcDbEntity
  8
0
100
AcDbLine
 62
250
  6
CONTINUOUS
 10
-7.784165202
 20
-9.0904057212
 11
-7.784165202
 21
-8.232646847
  0
LINE
  5
398
100
AcDbEntity
  8
0
100
AcDbLine
 62
250
  6
CONTINUOUS
 10
-7.784165202
 20
2.4095942788
 11
-7.784165202
 21
3.267353153
  0
LINE
  5
399
100
AcDbEntity
  8
0
100
AcDbLine
 62
250
  6
CONTINUOUS
 10
-7.784165202
 20
13.9095942788
 11
-7.784165202
 21
14.767353153
  0
LINE
  5
39A
100
AcDbEntity
  8
0
100
AcDbLine
 62
7
  6
CONTINUOUS
 10
-7.2841842404
 20
-8.895627005
 11
-7.2841842404
 21
-8.4274255632
  0
LINE
  5
39B
100
AcDbEntity
  8
0
100
AcDbLine
 62
7
  6
CONTINUOUS
 10
-7.2841842404
 20
2.604372995
 11
-7.2841842404
 21
3.0725744368
  0
LINE
  5
39C
100
AcDbEntity
  8
0
100
AcDbLine
 62
7
  6
CONTINUOUS
 10
-7.2841842404
 20
14.104372995
 11
-7.2841842404
 21
14.5725744368
  0
LINE
  5
39D
100
AcDbEntity
  8
0
100
AcDbLine
 62
7
  6
CONTINUOUS
 10
-7.18465987
 20
-19.6615262841
 11
-7.18465987
 21
25.3384737159
  0
LINE
  5
39E
100
AcDbEntity
  8
0
100
AcDbLine
 62
7
  6
CONTINUOUS
 10
-8.7100265763
 20
38.0810185885
 11
-8.7174198838
 21
31.1712337297
  0
LWPOLYLINE
  5
39F
100
AcDbEntity
  8
0
100
AcDbPolyline
 62
7
  6
CONTINUOUS
 90
16
 70
0
 10
-7.18465987
 20
13.9053090937
 10
-7.1858541835
 20
13.8840327879
 10
-7.189117096
 20
13.8634293547
 10
-7.1944486075
 20
13.8434987939
 10
-7.2019517928
 20
13.8240390444
 10
-7.2115235771
 20
13.8052521675
 10
-7.2228547356
 20
13.7877443463
 10
-7.236002554
 20
13.7715573882
 10
-7.2509097467
 20
13.7566494859
 10
-7.2670952313
 20
13.7435014012
 10
-7.2846006131
 20
13.7321704801
 10
-7.3033842869
 20
13.7225993766
 10
-7.3228403548
 20
13.7150968137
 10
-7.3427668507
 20
13.7097656993
 10
-7.3633657407
 20
13.7065031256
 10
-7.3846370247
 20
13.7053090925
  0
LWPOLYLINE
  5
3A0
100
AcDbEntity
  8
0
100
AcDbPolyline
 62
7
  6
CONTINUOUS
 90
16
 70
0
 10
-7.18465987
 20
2.4053090937
 10
-7.1858541835
 20
2.3840327879
 10
-7.189117096
 20
2.3634293547
 10
-7.1944486075
 20
2.3434987939
 10
-7.2019517928
 20
2.3240390444
 10
-7.2115235771
 20
2.3052521675
 10
-7.2228547356
 20
2.2877443463
 10
-7.236002554
 20
2.2715573882
 10
-7.2509097467
 20
2.2566494859
 10
-7.2670952313
 20
2.2435014012
 10
-7.2846006131
 20
2.2321704801
 10
-7.3033842869
 20
2.2225993766
 10
-7.3228403548
 20
2.2150968137
 10
-7.3427668507
 20
2.2097656993
 10
-7.3633657407
 20
2.2065031256
 10
-7.3846370247
 20
2.2053090925
  0
LWPOLYLINE
  5
3A1
100
AcDbEntity
  8
0
100
AcDbPolyline
 62
250
  6
CONTINUOUS
 90
13
 70
0
 10
-7.2841842404
 20
14.104372995
 10
-7.285898847
 20
14.0782742482
 10
-7.2910053845
 20
14.0526219719
 10
-7.2994164955
 20
14.0278549984
 10
-7.3109882914
 20
14.0043970157
 10
-7.325522814
 20
13.9826493185
 10
-7.3427714216
 20
13.9629839439
 10
-7.3624390429
 20
13.9457373067
 10
-7.3841892247
 20
13.9312044446
 10
-7.4076498873
 20
13.9196339707
 10
-7.4324196901
 20
13.9112238207
 10
-7.4580748969
 20
13.9061178666
 10
-7.4841766251
 20
13.904403456
  0
LWPOLYLINE
  5
3A2
100
AcDbEntity
  8
0
100
AcDbPolyline
 62
250
  6
CONTINUOUS
 90
13
 70
0
 10
-7.2841842404
 20
2.604372995
 10
-7.285898847
 20
2.5782742482
 10
-7.2910053845
 20
2.5526219719
 10
-7.2994164955
 20
2.5278549984
 10
-7.3109882914
 20
2.5043970157
 10
-7.325522814
 20
2.4826493185
 10
-7.3427714216
 20
2.4629839439
 10
-7.3624390429
 20
2.4457373067
 10
-7.3841892247
 20
2.4312044446
 10
-7.4076498873
 20
2.4196339707
 10
-7.4324196901
 20
2.4112238207
 10
-7.4580748969
 20
2.4061178666
 10
-7.4841766251
 20
2.404403456
  0
LINE
  5
3A3
100
AcDbEntity
  8
0
100
AcDbLine
 62
7
  6
CONTINUOUS
 10
-2.88465987
 20
37.1377791374
 11
-2.8756373713
 21
37.2069836631
  0
LINE
  5
3A4
100
AcDbEntity
  8
0
100
AcDbLine
 62
7
  6
CONTINUOUS
 10
-2.8756373713
 20
37.2069836631
 11
-2.8664974172
 21
37.2746972645
  0
LINE
  5
3A5
100
AcDbEntity
  8
0
100
AcDbLine
 62
7
  6
CONTINUOUS
 10
-2.8664974172
 20
37.2746972645
 11
-2.8572411047
 21
37.3410682698
  0
LINE
  5
3A6
100
AcDbEntity
  8
0
100
AcDbLine
 62
7
  6
CONTINUOUS
 10
12.1664050217
 20
26.5895386075
 11
12.1652053333
 21
26.5882940647
  0
LWPOLYLINE
  5
3A7
100
AcDbEntity
  8
0
100
AcDbPolyline
 62
7
  6
CONTINUOUS
 90
3
 70
0
 10
12.1409785141
 20
26.564200717
 10
12.1178622119
 20
26.5409687138
 10
12.1037312391
 20
26.526916579
  0
LWPOLYLINE
  5
3A8
100
AcDbEntity
  8
0
100
AcDbPolyline
 62
7
  6
CONTINUOUS
 90
7
 70
0
 10
12.1037312391
 20
26.526916579
 10
12.0710613025
 20
26.4941657298
 10
12.0525223387
 20
26.4757362413
 10
12.032765232
 20
26.4558988179
 10
12.0118734585
 20
26.4347373591
 10
11.9897635421
 20
26.4125428738
 10
11.9664354826
 20
26.3895690685
  0
LINE
  5
3A9
100
AcDbEntity
  8
0
100
AcDbLine
 62
7
  6
CONTINUOUS
 10
12.21534013
 20
26.6384737159
 11
12.1664050217
 21
26.5895386075
  0
LINE
  5
3AA
100
AcDbEntity
  8
0
100
AcDbLine
 62
7
  6
CONTINUOUS
 10
16.8481001438
 20
31.1712337297
 11
16.81534013
 21
31.1384737159
  0
LINE
  5
3AB
100
AcDbEntity
  8
0
100
AcDbLine
 62
7
  6
CONTINUOUS
 10
12.1652053333
 20
26.5882940647
 11
12.1409785141
 21
26.564200717
  0
LINE
  5
3AC
100
AcDbEntity
  8
0
100
AcDbLine
 62
250
  6
CONTINUOUS
 10
18.4926677308
 20
32.848573259
 11
17.7628703779
 21
32.1510981204
  0
LINE
  5
3AD
100
AcDbEntity
  8
0
100
AcDbLine
 62
250
  6
CONTINUOUS
 10
17.7628703779
 20
32.1510981204
 11
17.2143584162
 21
31.6288810036
  0
LINE
  5
3AE
100
AcDbEntity
  8
0
100
AcDbLine
 62
250
  6
CONTINUOUS
 10
17.2143584162
 20
31.6288810036
 11
16.848078299
 21
31.2815396627
  0
LWPOLYLINE
  5
3AF
100
AcDbEntity
  8
0
100
AcDbPolyline
 62
250
  6
CONTINUOUS
 90
13
 70
0
 10
-7.4841766251
 20
-9.095596544
 10
-7.4580755025
 20
-9.0938822133
 10
-7.4324207512
 20
-9.088776464
 10
-7.4076512392
 20
-9.0803665896
 10
-7.3841906959
 20
-9.0687964052
 10
-7.36244048
 20
-9.0542637964
 10
-7.3427727077
 20
-9.0370173426
 10
-7.3255238586
 20
-9.0173520432
 10
-7.3109890455
 20
-8.9956042906
 10
-7.2994169659
 20
-8.9721461373
 10
-7.291005615
 20
-8.9473788883
 10
-7.2858989098
 20
-8.9217262284
 10
-7.2841842405
 20
-8.895627005
  0
LINE
  5
3B0
100
AcDbEntity
  8
0
100
AcDbLine
 62
250
  6
CONTINUOUS
 10
15.6670564876
 20
-9.0926903641
 11
15.6987552848
 21
-9.0920098658
  0
LINE
  5
3B1
100
AcDbEntity
  8
0
100
AcDbLine
 62
250
  6
CONTINUOUS
 10
-7.5363762276
 20
-8.2303622041
 11
-7.5680750248
 21
-8.2310427024
  0
LINE
  5
3B2
100
AcDbEntity
  8
0
100
AcDbLine
 62
250
  6
CONTINUOUS
 10
15.4607734217
 20
-8.89347954
 11
15.5019123121
 21
-8.8927209064
  0
LINE
  5
3B3
100
AcDbEntity
  8
0
100
AcDbLine
 62
250
  6
CONTINUOUS
 10
-7.3300931616
 20
-8.4295730283
 11
-7.371232052
 21
-8.4303316618
  0
LINE
  5
3B4
100
AcDbEntity
  8
0
100
AcDbLine
 62
250
  6
CONTINUOUS
 10
15.6987552848
 20
-9.0920098658
 11
15.7368391298
 21
-9.0914257666
  0
LINE
  5
3B5
100
AcDbEntity
  8
0
100
AcDbLine
 62
250
  6
CONTINUOUS
 10
-7.5680750248
 20
-8.2310427024
 11
-7.6061588698
 21
-8.2316268017
  0
LINE
  5
3B6
100
AcDbEntity
  8
0
100
AcDbLine
 62
250
  6
CONTINUOUS
 10
15.5019123121
 20
-8.8927209064
 11
15.5851469713
 21
-8.8917362243
  0
LINE
  5
3B7
100
AcDbEntity
  8
0
100
AcDbLine
 62
250
  6
CONTINUOUS
 10
-7.371232052
 20
-8.4303316618
 11
-7.4544667113
 21
-8.4313163439
  0
LINE
  5
3B8
100
AcDbEntity
  8
0
100
AcDbLine
 62
250
  6
CONTINUOUS
 10
15.7368391298
 20
-9.0914257666
 11
15.8061660122
 21
-9.0907615714
  0
LINE
  5
3B9
100
AcDbEntity
  8
0
100
AcDbLine
 62
250
  6
CONTINUOUS
 10
-7.6061588698
 20
-8.2316268017
 11
-7.6754857521
 21
-8.2322909968
  0
LINE
  5
3BA
100
AcDbEntity
  8
0
100
AcDbLine
 62
250
  6
CONTINUOUS
 10
15.5851469713
 20
-8.8917362243
 11
15.733547208
 21
-8.8907920806
  0
LINE
  5
3BB
100
AcDbEntity
  8
0
100
AcDbLine
 62
250
  6
CONTINUOUS
 10
-7.4544667113
 20
-8.4313163439
 11
-7.6028669479
 21
-8.4322604876
  0
LINE
  5
3BC
100
AcDbEntity
  8
0
100
AcDbLine
 62
250
  6
CONTINUOUS
 10
15.8061660122
 20
-9.0907615714
 11
15.8861796684
 21
-9.0904335011
  0
LINE
  5
3BD
100
AcDbEntity
  8
0
100
AcDbLine
 62
250
  6
CONTINUOUS
 10
-7.6754857521
 20
-8.2322909968
 11
-7.7554994084
 21
-8.2326190672
  0
LINE
  5
3BE
100
AcDbEntity
  8
0
100
AcDbLine
 62
7
  6
CONTINUOUS
 10
16.06534013
 20
-9.2946909075
 11
15.5153172847
 21
-9.2946909075
  0
LINE
  5
3BF
100
AcDbEntity
  8
0
100
AcDbLine
 62
7
  6
CONTINUOUS
 10
-7.3846370247
 20
-9.2946909075
 11
-7.93465987
 21
-9.2946909075
  0
LINE
  5
3C0
100
AcDbEntity
  8
DRAFT
100
AcDbLine
 62
7
  6
CONTINUOUS
 10
19.76534013
 20
-9.2615262841
 11
18.36534013
 21
-9.2615262841
  0
LINE
  5
3C1
100
AcDbEntity
  8
DRAFT
100
AcDbLine
 62
7
  6
CONTINUOUS
 10
-10.23465987
 20
-9.2615262841
 11
-11.63465987
 21
-9.2615262841
  0
LINE
  5
3C2
100
AcDbEntity
  8
0
100
AcDbLine
 62
250
  6
CONTINUOUS
 10
15.8861796684
 20
-9.0904335011
 11
17.0364606929
 21
-9.0904057212
  0
LINE
  5
3C3
100
AcDbEntity
  8
0
100
AcDbLine
 62
250
  6
CONTINUOUS
 10
15.733547208
 20
-8.8907920806
 11
17.2364302319
 21
-8.8904361822
  0
LINE
  5
3C4
100
AcDbEntity
  8
0
100
AcDbLine
 62
250
  6
CONTINUOUS
 10
-7.6028669479
 20
-8.4322604876
 11
-9.1057499719
 21
-8.432616386
  0
LINE
  5
3C5
100
AcDbEntity
  8
0
100
AcDbLine
 62
250
  6
CONTINUOUS
 10
-7.7554994084
 20
-8.2326190672
 11
-8.9057804328
 21
-8.232646847
  0
LINE
  5
3C6
100
AcDbEntity
  8
DRAFT
100
AcDbLine
 62
7
  6
CONTINUOUS
 10
-11.63465987
 20
-8.0615262841
 11
-10.23465987
 21
-8.0615262841
  0
LINE
  5
3C7
100
AcDbEntity
  8
DRAFT
100
AcDbLine
 62
7
  6
CONTINUOUS
 10
18.36534013
 20
-8.0615262841
 11
19.76534013
 21
-8.0615262841
  0
LINE
  5
3C8
100
AcDbEntity
  8
0
100
AcDbLine
 62
7
  6
CONTINUOUS
 10
16.06534013
 20
-8.0283616607
 11
15.5153172847
 21
-8.0283616607
  0
LINE
  5
3C9
100
AcDbEntity
  8
0
100
AcDbLine
 62
7
  6
CONTINUOUS
 10
-7.3846370247
 20
-8.0283616607
 11
-7.93465987
 21
-8.0283616607
  0
LINE
  5
3CA
100
AcDbEntity
  8
0
100
AcDbLine
 62
250
  6
CONTINUOUS
 10
17.0364606929
 20
-8.232646847
 11
15.8392571219
 21
-8.232477903
  0
LINE
  5
3CB
100
AcDbEntity
  8
0
100
AcDbLine
 62
250
  6
CONTINUOUS
 10
-7.5868932015
 20
-8.8908609545
 11
-9.1057499719
 21
-8.8904361822
  0
LINE
  5
3CC
100
AcDbEntity
  8
0
100
AcDbLine
 62
250
  6
CONTINUOUS
 10
17.2364302319
 20
-8.432616386
 11
15.7099016411
 21
-8.4321557668
  0
LINE
  5
3CD
100
AcDbEntity
  8
0
100
AcDbLine
 62
250
  6
CONTINUOUS
 10
-7.7013616646
 20
-9.0906067297
 11
-8.9057804328
 21
-9.0904057212
  0
LINE
  5
3CE
100
AcDbEntity
  8
0
100
AcDbLine
 62
250
  6
CONTINUOUS
 10
15.8392571219
 20
-8.232477903
 11
15.7694645932
 21
-8.2319908905
  0
LINE
  5
3CF
100
AcDbEntity
  8
0
100
AcDbLine
 62
250
  6
CONTINUOUS
 10
-7.4469119082
 20
-8.8918067792
 11
-7.5868932015
 21
-8.8908609545
  0
LINE
  5
3D0
100
AcDbEntity
  8
0
100
AcDbLine
 62
250
  6
CONTINUOUS
 10
15.7099016411
 20
-8.4321557668
 11
15.5715618028
 21
-8.4311871667
  0
LINE
  5
3D1
100
AcDbEntity
  8
0
100
AcDbLine
 62
250
  6
CONTINUOUS
 10
-7.6317932333
 20
-9.0911288261
 11
-7.7013616646
 21
-9.0906067297
  0
LINE
  5
3D2
100
AcDbEntity
  8
0
100
AcDbLine
 62
250
  6
CONTINUOUS
 10
15.7694645932
 20
-8.2319908905
 11
15.7278325387
 21
-8.231505211
  0
LINE
  5
3D3
100
AcDbEntity
  8
0
100
AcDbLine
 62
250
  6
CONTINUOUS
 10
15.5715618028
 20
-8.4311871667
 11
15.5152408823
 21
-8.4305266538
  0
LINE
  5
3D4
100
AcDbEntity
  8
0
100
AcDbLine
 62
250
  6
CONTINUOUS
 10
-7.3702097756
 20
-8.8927376327
 11
-7.4469119082
 21
-8.8918067792
  0
LINE
  5
3D5
100
AcDbEntity
  8
0
100
AcDbLine
 62
250
  6
CONTINUOUS
 10
-7.5817094477
 20
-9.0917763679
 11
-7.6317932333
 21
-9.0911288261
  0
LWPOLYLINE
  5
3D6
100
AcDbEntity
  8
0
100
AcDbPolyline
 62
250
  6
CONTINUOUS
 90
10
 70
0
 10
15.7278325387
 20
-8.231505211
 10
15.6912555156
 20
-8.2309018295
 10
15.6749832308
 20
-8.2305571909
 10
15.6604131344
 20
-8.23018476
 10
15.6474631368
 20
-8.2297816512
 10
15.6362153276
 20
-8.2293507502
 10
15.6272706987
 20
-8.2289017661
 10
15.6208295806
 20
-8.2284379352
 10
15.6166916427
 20
-8.2279560212
 10
15.6148568851
 20
-8.2274560242
  0
LWPOLYLINE
  5
3D7
100
AcDbEntity
  8
0
100
AcDbPolyline
 62
250
  6
CONTINUOUS
 90
7
 70
0
 10
15.5152408823
 20
-8.4305266538
 10
15.4690509408
 20
-8.4297512301
 10
15.4505071088
 20
-8.429320487
 10
15.4355541889
 20
-8.4288715811
 10
15.4244790781
 20
-8.4284077066
 10
15.4175085614
 20
-8.4279256694
 10
15.4148645005
 20
-8.4274254695
  0
LWPOLYLINE
  5
3D8
100
AcDbEntity
  8
0
100
AcDbPolyline
 62
7
  6
CONTINUOUS
 90
16
 70
0
 10
-7.3846370247
 20
-8.0283616607
 10
-7.3633657407
 20
-8.0295556938
 10
-7.3427668507
 20
-8.0328182675
 10
-7.3228403548
 20
-8.0381493819
 10
-7.3033842869
 20
-8.0456519448
 10
-7.2846006131
 20
-8.0552230483
 10
-7.2670952313
 20
-8.0665539694
 10
-7.2509097467
 20
-8.0797020541
 10
-7.236002554
 20
-8.0946099564
 10
-7.2228547356
 20
-8.1107969145
 10
-7.2115235771
 20
-8.1283047357
 10
-7.2019517928
 20
-8.1470916126
 10
-7.1944486075
 20
-8.1665513621
 10
-7.189117096
 20
-8.1864819229
 10
-7.1858541835
 20
-8.2070853561
 10
-7.18465987
 20
-8.2283616619
  0
LWPOLYLINE
  5
3D9
100
AcDbEntity
  8
0
100
AcDbPolyline
 62
7
  6
CONTINUOUS
 90
16
 70
0
 10
15.5153172847
 20
-9.2946909075
 10
15.4940460007
 20
-9.2934968744
 10
15.4734471108
 20
-9.2902343007
 10
15.4535206149
 20
-9.2849031863
 10
15.434064547
 20
-9.2774006234
 10
15.4152808732
 20
-9.2678295199
 10
15.3977754914
 20
-9.2564985988
 10
15.3815900068
 20
-9.2433505141
 10
15.3666828141
 20
-9.2284426118
 10
15.3535349956
 20
-9.2122556537
 10
15.3422038372
 20
-9.1947478325
 10
15.3326320529
 20
-9.1759609556
 10
15.3251288676
 20
-9.1565012061
 10
15.3197973561
 20
-9.1365706453
 10
15.3165344436
 20
-9.1159672121
 10
15.31534013
 20
-9.0946909063
  0
LINE
  5
3DA
100
AcDbEntity
  8
0
100
AcDbLine
 62
250
  6
CONTINUOUS
 10
17.9454814795
 20
-26.648441789
 11
16.848078299
 21
-25.6045922309
  0
LINE
  5
3DB
100
AcDbEntity
  8
0
100
AcDbLine
 62
250
  6
CONTINUOUS
 10
18.4926677308
 20
-27.1716258272
 11
17.9454814795
 21
-26.648441789
  0
LINE
  5
3DC
100
AcDbEntity
  8
0
100
AcDbLine
 62
7
  6
CONTINUOUS
 10
12.1664050217
 20
-20.9125911757
 11
12.1651604789
 21
-20.9113914874
  0
LWPOLYLINE
  5
3DD
100
AcDbEntity
  8
0
100
AcDbPolyline
 62
7
  6
CONTINUOUS
 90
3
 70
0
 10
12.1410671312
 20
-20.8871646682
 10
12.1178351279
 20
-20.864048366
 10
12.1037829932
 20
-20.8499173931
  0
LWPOLYLINE
  5
3DE
100
AcDbEntity
  8
0
100
AcDbPolyline
 62
7
  6
CONTINUOUS
 90
7
 70
0
 10
12.1037829932
 20
-20.8499173931
 10
12.071032144
 20
-20.8172474566
 10
12.0526026554
 20
-20.7987084928
 10
12.032765232
 20
-20.7789513861
 10
12.0116037732
 20
-20.7580596126
 10
11.989409288
 20
-20.7359496961
 10
11.9664354826
 20
-20.7126216367
  0
LINE
  5
3DF
100
AcDbEntity
  8
0
100
AcDbLine
 62
7
  6
CONTINUOUS
 10
12.21534013
 20
-20.9615262841
 11
12.1664050217
 21
-20.9125911757
  0
LINE
  5
3E0
100
AcDbEntity
  8
0
100
AcDbLine
 62
7
  6
CONTINUOUS
 10
16.8481001438
 20
-25.4942862979
 11
16.81534013
 21
-25.4615262841
  0
LINE
  5
3E1
100
AcDbEntity
  8
0
100
AcDbLine
 62
7
  6
CONTINUOUS
 10
12.1651604789
 20
-20.9113914874
 11
12.1410671312
 21
-20.8871646682
  0
LINE
  5
3E2
100
AcDbEntity
  8
0
100
AcDbLine
 62
7
  6
CONTINUOUS
 10
-2.8664974172
 20
-31.5977498327
 11
-2.8572411047
 21
-31.664120838
  0
LINE
  5
3E3
100
AcDbEntity
  8
0
100
AcDbLine
 62
7
  6
CONTINUOUS
 10
-2.8756373713
 20
-31.5300362313
 11
-2.8664974172
 21
-31.5977498327
  0
LINE
  5
3E4
100
AcDbEntity
  8
0
100
AcDbLine
 62
7
  6
CONTINUOUS
 10
-2.88465987
 20
-31.4608317057
 11
-2.8756373713
 21
-31.5300362313
  0
LWPOLYLINE
  5
3E5
100
AcDbEntity
  8
0
100
AcDbPolyline
 62
250
  6
CONTINUOUS
 90
13
 70
0
 10
-7.2841842404
 20
14.5725744368
 10
-7.2858989465
 20
14.5986739389
 10
-7.2910057499
 20
14.6243268234
 10
-7.2994172414
 20
14.6490942339
 10
-7.3109894876
 20
14.6725524879
 10
-7.3255244719
 20
14.694300274
 10
-7.3427734634
 20
14.7139655299
 10
-7.3624413251
 20
14.7312118765
 10
-7.3841915619
 20
14.7457443369
 10
-7.4076520355
 20
14.7573143513
 10
-7.4324213766
 20
14.7657240633
 10
-7.4580758596
 20
14.7708296921
 10
-7.4841766251
 20
14.7725439758
  0
LINE
  5
3E6
100
AcDbEntity
  8
0
100
AcDbLine
 62
7
  6
CONTINUOUS
 10
-4.08465987
 20
28.8384737159
 11
-4.08465987
 21
26.6384737159
  0
LINE
  5
3E7
100
AcDbEntity
  8
0
100
AcDbLine
 62
7
  6
CONTINUOUS
 10
-4.08465987
 20
-20.9615262841
 11
-4.08465987
 21
-23.1615262841
  0
LINE
  5
3E8
100
AcDbEntity
  8
0
100
AcDbLine
 62
250
  6
CONTINUOUS
 10
-4.0357247616
 20
-23.5139219399
 11
-4.0357247616
 21
-20.9125911757
  0
LINE
  5
3E9
100
AcDbEntity
  8
0
100
AcDbLine
 62
250
  6
CONTINUOUS
 10
-4.0357247616
 20
26.5895386075
 11
-4.0357247616
 21
29.1908693716
  0
LINE
  5
3EA
100
AcDbEntity
  8
0
100
AcDbLine
 62
250
  6
CONTINUOUS
 10
-3.8357552226
 20
-23.7921664559
 11
-3.8357552226
 21
-20.7126216367
  0
LINE
  5
3EB
100
AcDbEntity
  8
0
100
AcDbLine
 62
250
  6
CONTINUOUS
 10
-3.8357552226
 20
26.3895690685
 11
-3.8357552226
 21
29.4691138877
  0
LWPOLYLINE
  5
3EC
100
AcDbEntity
  8
0
100
AcDbPolyline
 62
7
  6
CONTINUOUS
 90
16
 70
0
 10
-7.18465987
 20
-9.0946909063
 10
-7.1858541845
 20
-9.1159672117
 10
-7.1891170964
 20
-9.1365706431
 10
-7.1944486057
 20
-9.1565012005
 10
-7.2019517866
 20
-9.1759609438
 10
-7.2115235649
 20
-9.1947478132
 10
-7.2228547176
 20
-9.212255629
 10
-7.2360025303
 20
-9.2284425855
 10
-7.2509097175
 20
-9.2433504884
 10
-7.2670951992
 20
-9.2564985755
 10
-7.284600582
 20
-9.2678295011
 10
-7.3033842595
 20
-9.2774006109
 10
-7.3228403324
 20
-9.284903179
 10
-7.3427668344
 20
-9.2902342968
 10
-7.3633657318
 20
-9.293496873
 10
-7.3846370247
 20
-9.2946909075
  0
LWPOLYLINE
  5
3ED
100
AcDbEntity
  8
RACCORDO
100
AcDbPolyline
 62
7
  6
CONTINUOUS
 90
19
 70
0
 10
-10.1673205765
 20
-30.1516375155
 10
-10.1798848672
 20
-30.2675505539
 10
-10.1856608747
 20
-30.3851308878
 10
-10.1843876848
 20
-30.5043297563
 10
-10.1757260649
 20
-30.625628026
 10
-10.15944799
 20
-30.7483242719
 10
-10.1355245191
 20
-30.8705166891
 10
-10.1036404353
 20
-30.9917628474
 10
-10.0637030386
 20
-31.111993559
 10
-10.0161739276
 20
-31.2298090843
 10
-9.9608814946
 20
-31.3448024154
 10
-9.8978003375
 20
-31.4567078772
 10
-9.8277765137
 20
-31.564356803
 10
-9.7508398343
 20
-31.6672876591
 10
-9.6670230287
 20
-31.7652628059
 10
-9.5773238777
 20
-31.8575303895
 10
-9.4821862912
 20
-31.9436542248
 10
-9.3814480766
 20
-32.023449722
 10
-9.2752736701
 20
-32.0965953296
  0
LWPOLYLINE
  5
3EE
100
AcDbEntity
  8
RACCORDO
100
AcDbPolyline
 62
7
  6
CONTINUOUS
 90
22
 70
0
 10
-10.1673205604
 20
-30.1516373995
 10
-10.1437761722
 20
-29.9623297495
 10
-10.1256269149
 20
-29.7789099894
 10
-10.1124124961
 20
-29.6015397957
 10
-10.1037063578
 20
-29.4308253055
 10
-10.0990304372
 20
-29.2664149691
 10
-10.0979584481
 20
-29.1069972981
 10
-10.1001705431
 20
-28.9525563515
 10
-10.1053577654
 20
-28.8032487532
 10
-10.1132823532
 20
-28.6579998401
 10
-10.1237290706
 20
-28.5166578819
 10
-10.1364647398
 20
-28.379455338
 10
-10.1513296412
 20
-28.2458853937
 10
-10.1681733348
 20
-28.1157150568
 10
-10.1867882202
 20
-27.9892213917
 10
-10.2069529715
 20
-27.866654239
 10
-10.228162519
 20
-27.749701415
 10
-10.2505090737
 20
-27.6366713863
 10
-10.2748853373
 20
-27.5227794256
 10
-10.301721491
 20
-27.4064788304
 10
-10.3307386978
 20
-27.2894123048
 10
-10.3619874708
 20
-27.1716258272
  0
LINE
  5
3EF
100
AcDbEntity
  8
0
100
AcDbLine
 62
250
  6
CONTINUOUS
 10
6.5583595127
 20
30.0384737159
 11
6.6061938404
 21
30.1539559987
  0
LINE
  5
3F0
100
AcDbEntity
  8
0
100
AcDbLine
 62
250
  6
CONTINUOUS
 10
-7.3846370247
 20
3.4716383393
 11
-7.4841766251
 21
3.2725439758
  0
LINE
  5
3F1
100
AcDbEntity
  8
0
100
AcDbLine
 62
250
  6
CONTINUOUS
 10
-7.18465987
 20
3.2716180274
 11
-7.2841842404
 21
3.0725744368
  0
LINE
  5
3F2
100
AcDbEntity
  8
0
100
AcDbLine
 62
7
  6
CONTINUOUS
 10
-8.9057804328
 20
3.267353153
 11
-8.9067776841
 21
3.2663360648
  0
LINE
  5
3F3
100
AcDbEntity
  8
0
100
AcDbLine
 62
7
  6
CONTINUOUS
 10
-9.0880433415
 20
3.0853333947
 11
-9.1057499719
 21
3.067383614
  0
LINE
  5
3F4
100
AcDbEntity
  8
0
100
AcDbLine
 62
7
  6
CONTINUOUS
 10
17.3956492319
 20
29.4538724159
 11
17.4142447774
 21
29.472661071
  0
LINE
  5
3F5
100
AcDbEntity
  8
0
100
AcDbLine
 62
7
  6
CONTINUOUS
 10
17.2740629246
 20
29.3324792181
 11
17.2860727278
 21
29.3446009161
  0
LINE
  5
3F6
100
AcDbEntity
  8
RACCORDO
100
AcDbLine
 62
250
  6
CONTINUOUS
 10
17.8969792689
 20
31.1700367023
 11
17.8654162825
 21
31.1384737159
  0
LINE
  5
3F7
100
AcDbEntity
  8
0
100
AcDbLine
 62
7
  6
CONTINUOUS
 10
17.2875255845
 20
29.9384737159
 11
17.16534013
 21
29.8162882614
  0
LINE
  5
3F8
100
AcDbEntity
  8
DRAFT
100
AcDbLine
 62
7
  6
CONTINUOUS
 10
-10.2654526132
 20
2.2076809727
 11
-10.23465987
 21
2.2384737159
  0
LINE
  5
3F9
100
AcDbEntity
  8
RACCORDO
100
AcDbLine
 62
250
  6
CONTINUOUS
 10
18.3960762445
 20
30.6692859828
 11
18.36534013
 21
30.6385498683
  0
LINE
  5
3FA
100
AcDbEntity
  8
0
100
AcDbLine
 62
7
  6
CONTINUOUS
 10
-8.9057804328
 20
3.267353153
 11
-8.7017513793
 21
3.4713822065
  0
LINE
  5
3FB
100
AcDbEntity
  8
RACCORDO
100
AcDbLine
 62
250
  6
CONTINUOUS
 10
18.0653858215
 20
29.9384737159
 11
17.8959803018
 21
29.7690681962
  0
LINE
  5
3FC
100
AcDbEntity
  8
0
100
AcDbLine
 62
7
  6
CONTINUOUS
 10
17.16534013
 20
28.8384737159
 11
17.2089791216
 21
28.8821127075
  0
LINE
  5
3FD
100
AcDbEntity
  8
RACCORDO
100
AcDbLine
 62
250
  6
CONTINUOUS
 10
18.36534013
 20
29.6385194073
 11
18.1959346104
 21
29.4691138877
  0
LWPOLYLINE
  5
3FE
100
AcDbEntity
  8
0
100
AcDbPolyline
 62
7
  6
CONTINUOUS
 90
3
 70
0
 10
-8.9067776841
 20
3.2663360648
 10
-8.9130115749
 20
3.2601220109
 10
-8.9248790814
 20
3.248197812
  0
LWPOLYLINE
  5
3FF
100
AcDbEntity
  8
0
100
AcDbPolyline
 62
7
  6
CONTINUOUS
 90
3
 70
0
 10
-8.9248790814
 20
3.248197812
 10
-8.932782349
 20
3.2403512368
 10
-9.0355839929
 20
3.1374587321
  0
LINE
  5
400
100
AcDbEntity
  8
0
100
AcDbLine
 62
7
  6
CONTINUOUS
 10
17.2860727278
 20
29.3446009161
 11
17.3956492319
 21
29.4538724159
  0
LINE
  5
401
100
AcDbEntity
  8
0
100
AcDbLine
 62
7
  6
CONTINUOUS
 10
-9.0355839929
 20
3.1374587321
 11
-9.0880433415
 21
3.0853333947
  0
LWPOLYLINE
  5
402
100
AcDbEntity
  8
0
100
AcDbPolyline
 62
7
  6
CONTINUOUS
 90
6
 70
0
 10
17.0364302308
 20
25.4405933001
 10
17.0377263689
 20
25.441779633
 10
17.0409012042
 20
25.4449669546
 10
17.0459547366
 20
25.4501101893
 10
17.0529283641
 20
25.4571165427
 10
17.0989679528
 20
25.5030566455
  0
LWPOLYLINE
  5
403
100
AcDbEntity
  8
0
100
AcDbPolyline
 62
250
  6
CONTINUOUS
 90
6
 70
0
 10
-7.2841842404
 20
-8.4274254931
 10
-7.2863924503
 20
-8.4278785844
 10
-7.2922099354
 20
-8.4283194944
 10
-7.3015323446
 20
-8.428748223
 10
-7.3142048575
 20
-8.4291667163
 10
-7.3300931616
 20
-8.4295730283
  0
LINE
  5
404
100
AcDbEntity
  8
0
100
AcDbLine
 62
7
  6
CONTINUOUS
 10
17.3954561224
 20
-23.7771180936
 11
17.4142447774
 21
-23.7957136392
  0
LINE
  5
405
100
AcDbEntity
  8
0
100
AcDbLine
 62
7
  6
CONTINUOUS
 10
17.2740629246
 20
-23.6555317863
 11
17.2861846225
 21
-23.6675415895
  0
LINE
  5
406
100
AcDbEntity
  8
RACCORDO
100
AcDbLine
 62
250
  6
CONTINUOUS
 10
17.8969792689
 20
-25.4930892706
 11
17.8654162825
 21
-25.4615262841
  0
LINE
  5
407
100
AcDbEntity
  8
0
100
AcDbLine
 62
7
  6
CONTINUOUS
 10
17.2875255845
 20
-24.2615262841
 11
17.16534013
 21
-24.1393408296
  0
LINE
  5
408
100
AcDbEntity
  8
DRAFT
100
AcDbLine
 62
7
  6
CONTINUOUS
 10
-10.2654526132
 20
3.4692664591
 11
-10.23465987
 21
3.4384737159
  0
LINE
  5
409
100
AcDbEntity
  8
RACCORDO
100
AcDbLine
 62
250
  6
CONTINUOUS
 10
18.3960762445
 20
-24.992338551
 11
18.36534013
 21
-24.9616024365
  0
LWPOLYLINE
  5
40A
100
AcDbEntity
  8
0
100
AcDbPolyline
 62
7
  6
CONTINUOUS
 90
3
 70
0
 10
-8.9130138599
 20
2.4168277058
 10
-8.9067771575
 20
2.4106076363
 10
-8.9057804328
 20
2.4095942788
  0
LINE
  5
40B
100
AcDbEntity
  8
0
100
AcDbLine
 62
7
  6
CONTINUOUS
 10
-8.9057804328
 20
2.4095942788
 11
-8.7017513793
 21
2.2055652252
  0
LINE
  5
40C
100
AcDbEntity
  8
RACCORDO
100
AcDbLine
 62
250
  6
CONTINUOUS
 10
17.8959803018
 20
-24.0921207644
 11
18.0653858215
 21
-24.2615262841
  0
LINE
  5
40D
100
AcDbEntity
  8
0
100
AcDbLine
 62
7
  6
CONTINUOUS
 10
17.16534013
 20
-23.1615262841
 11
17.2089791216
 21
-23.2051652757
  0
LINE
  5
40E
100
AcDbEntity
  8
RACCORDO
100
AcDbLine
 62
250
  6
CONTINUOUS
 10
18.1959346104
 20
-23.7921664559
 11
18.36534013
 21
-23.9615719756
  0
LWPOLYLINE
  5
40F
100
AcDbEntity
  8
0
100
AcDbPolyline
 62
7
  6
CONTINUOUS
 90
3
 70
0
 10
-9.0355775769
 20
2.5394823328
 10
-8.9419025326
 20
2.4456860295
 10
-8.9249047245
 20
2.4287766252
  0
LINE
  5
410
100
AcDbEntity
  8
0
100
AcDbLine
 62
7
  6
CONTINUOUS
 10
-8.9249047245
 20
2.4287766252
 11
-8.9130138599
 21
2.4168277058
  0
LINE
  5
411
100
AcDbEntity
  8
0
100
AcDbLine
 62
7
  6
CONTINUOUS
 10
17.2861846225
 20
-23.6675415895
 11
17.3954561224
 21
-23.7771180936
  0
LWPOLYLINE
  5
412
100
AcDbEntity
  8
0
100
AcDbPolyline
 62
7
  6
CONTINUOUS
 90
3
 70
0
 10
-9.1057499719
 20
2.6095638178
 10
-9.088029208
 20
2.591600818
 10
-9.0355775769
 20
2.5394823328
  0
LINE
  5
413
100
AcDbEntity
  8
0
100
AcDbLine
 62
250
  6
CONTINUOUS
 10
-7.4841766251
 20
2.404403456
 11
-7.3846370247
 21
2.2053090925
  0
LINE
  5
414
100
AcDbEntity
  8
0
100
AcDbLine
 62
250
  6
CONTINUOUS
 10
-7.2841842404
 20
2.604372995
 11
-7.18465987
 21
2.4053294044
  0
LINE
  5
415
100
AcDbEntity
  8
0
100
AcDbLine
 62
250
  6
CONTINUOUS
 10
6.5583595127
 20
-24.3615262841
 11
6.6061938404
 21
-24.4770085669
  0
LINE
  5
416
100
AcDbEntity
  8
0
100
AcDbLine
 62
7
  6
CONTINUOUS
 10
-2.8594009451
 20
38.4626353181
 11
-2.8572411047
 21
37.3410682698
  0
LINE
  5
417
100
AcDbEntity
  8
RACCORDO
100
AcDbLine
 62
250
  6
CONTINUOUS
 10
-3.3540196982
 20
-21.7921664559
 11
-3.3540196982
 21
-24.0921207644
  0
LINE
  5
418
100
AcDbEntity
  8
RACCORDO
100
AcDbLine
 62
250
  6
CONTINUOUS
 10
-3.3540196982
 20
27.4691138877
 11
-3.3540196982
 21
29.7690681962
  0
LINE
  5
419
100
AcDbEntity
  8
RACCORDO
100
AcDbLine
 62
250
  6
CONTINUOUS
 10
-3.0540653896
 20
-23.7921664559
 11
-3.0540653896
 21
-22.0921207644
  0
LINE
  5
41A
100
AcDbEntity
  8
RACCORDO
100
AcDbLine
 62
250
  6
CONTINUOUS
 10
-3.0540653896
 20
27.7690681962
 11
-3.0540653896
 21
29.4691138877
  0
LINE
  5
41B
100
AcDbEntity
  8
0
100
AcDbLine
 62
7
  6
CONTINUOUS
 10
-2.88465987
 20
38.5384737159
 11
-2.88465987
 21
37.1377791374
  0
LINE
  5
41C
100
AcDbEntity
  8
RACCORDO
100
AcDbLine
 62
7
  6
CONTINUOUS
 10
-2.88465987
 20
-27.8622208626
 11
-2.88465987
 21
-23.9615719756
  0
LINE
  5
41D
100
AcDbEntity
  8
0
100
AcDbLine
 62
7
  6
CONTINUOUS
 10
-2.88465987
 20
-31.4608317057
 11
-2.88465987
 21
-32.8615262841
  0
LINE
  5
41E
100
AcDbEntity
  8
RACCORDO
100
AcDbLine
 62
7
  6
CONTINUOUS
 10
-2.88465987
 20
29.6385194073
 11
-2.88465987
 21
33.5391682943
  0
LINE
  5
41F
100
AcDbEntity
  8
DRAFT
100
AcDbLine
 62
7
  6
CONTINUOUS
 10
-2.8514952466
 20
30.8384737159
 11
-2.8514952466
 21
27.9716383393
  0
LINE
  5
420
100
AcDbEntity
  8
DRAFT
100
AcDbLine
 62
7
  6
CONTINUOUS
 10
-2.8514952466
 20
-25.1615262841
 11
-2.8514952466
 21
-22.2946909075
  0
LINE
  5
421
100
AcDbEntity
  8
RACCORDO
100
AcDbLine
 62
7
  6
CONTINUOUS
 10
-2.8523184253
 20
33.3014110508
 11
-2.8514952466
 21
30.8384737159
  0
LINE
  5
422
100
AcDbEntity
  8
RACCORDO
100
AcDbLine
 62
7
  6
CONTINUOUS
 10
-2.8514952466
 20
-25.1615262841
 11
-2.8523184253
 21
-27.624463619
  0
LINE
  5
423
100
AcDbEntity
  8
0
100
AcDbLine
 62
7
  6
CONTINUOUS
 10
-2.8594009451
 20
-32.7856878863
 11
-2.8572411047
 21
-31.664120838
  0
LWPOLYLINE
  5
424
100
AcDbEntity
  8
RACCORDO
100
AcDbPolyline
 62
250
  6
CONTINUOUS
 90
16
 70
0
 10
-3.0540653896
 20
-23.7921664559
 10
-3.0557174822
 20
-23.8235141628
 10
-3.0606365701
 20
-23.8545185508
 10
-3.0687687796
 20
-23.8848400608
 10
-3.0800250471
 20
-23.9141466128
 10
-3.0942820943
 20
-23.9421172424
 10
-3.1113837786
 20
-23.9684456163
 10
-3.1311428028
 20
-23.9928433871
 10
-3.153342767
 20
-24.0150433512
 10
-3.1777405378
 20
-24.0348023755
 10
-3.2040689117
 20
-24.0519040597
 10
-3.2320395413
 20
-24.066161107
 10
-3.2613460933
 20
-24.0774173745
 10
-3.2916676033
 20
-24.085549584
 10
-3.3226719913
 20
-24.0904686719
 10
-3.3540196982
 20
-24.0921207644
  0
LINE
  5
425
100
AcDbEntity
  8
0
100
AcDbLine
 62
250
  6
CONTINUOUS
 10
4.5625860317
 20
29.7538341641
 11
4.7233555472
 21
30.3538341641
  0
LINE
  5
426
100
AcDbEntity
  8
0
100
AcDbLine
 62
250
  6
CONTINUOUS
 10
4.7556535138
 20
29.7021018882
 11
4.8767274578
 21
30.1539559987
  0
LINE
  5
427
100
AcDbEntity
  8
0
100
AcDbLine
 62
7
  6
CONTINUOUS
 10
4.96534013
 20
30.0384737159
 11
4.844266186
 21
29.5866196054
  0
LINE
  5
428
100
AcDbEntity
  8
0
100
AcDbLine
 62
7
  6
CONTINUOUS
 10
5.0013251192
 20
28.0021845035
 11
5.06534013
 21
28.2410917762
  0
LINE
  5
429
100
AcDbEntity
  8
0
100
AcDbLine
 62
250
  6
CONTINUOUS
 10
6.9116975281
 20
29.8921163178
 11
6.9595318559
 21
30.0075986006
  0
LINE
  5
42A
100
AcDbEntity
  8
0
100
AcDbLine
 62
250
  6
CONTINUOUS
 10
-7.3846370247
 20
-8.0283616607
 11
-7.4841766251
 21
-8.2274560242
  0
LWPOLYLINE
  5
42B
100
AcDbEntity
  8
0
100
AcDbPolyline
 62
7
  6
CONTINUOUS
 90
7
 70
0
 10
17.0989679528
 20
25.5030566455
 10
17.1317272752
 20
25.5359115059
 10
17.1503191279
 20
25.5543924077
 10
17.1701127163
 20
25.574268169
 10
17.1910168192
 20
25.5954454324
 10
17.2131226577
 20
25.6176361765
 10
17.2364302319
 20
25.6405856847
  0
LINE
  5
42C
100
AcDbEntity
  8
DRAFT
100
AcDbLine
 62
7
  6
CONTINUOUS
 10
18.3961328732
 20
26.5692664591
 11
18.36534013
 21
26.5384737159
  0
LINE
  5
42D
100
AcDbEntity
  8
DRAFT
100
AcDbLine
 62
7
  6
CONTINUOUS
 10
-11.63465987
 20
3.4384737159
 11
-11.5523243474
 21
3.4658965892
  0
LINE
  5
42E
100
AcDbEntity
  8
DRAFT
100
AcDbLine
 62
7
  6
CONTINUOUS
 10
19.76534013
 20
13.7384737159
 11
19.6830046075
 21
13.7110508426
  0
LWPOLYLINE
  5
42F
100
AcDbEntity
  8
0
100
AcDbPolyline
 62
250
  6
CONTINUOUS
 90
8
 70
0
 10
15.6148568851
 20
13.904403456
 10
15.6163087452
 20
13.9048563903
 10
15.6197783662
 20
13.9052972068
 10
15.625265748
 20
13.9057259056
 10
15.6328378436
 20
13.9061444678
 10
15.6424277001
 20
13.9065509121
 10
15.6538344584
 20
13.9069392953
 10
15.6670564876
 20
13.9073096359
  0
LINE
  5
430
100
AcDbEntity
  8
INTF_2
100
AcDbLine
 62
7
  6
CONTINUOUS
 10
21.01534013
 20
-2.9115169642
 11
19.4861512492
 21
-2.9115169642
  0
LINE
  5
431
100
AcDbEntity
  8
INTF_2
100
AcDbLine
 62
7
  6
CONTINUOUS
 10
19.4932937243
 20
-2.3802687523
 11
19.9528134395
 21
-2.3802687523
  0
LINE
  5
432
100
AcDbEntity
  8
INTF_2
100
AcDbLine
 62
7
  6
CONTINUOUS
 10
20.4840616514
 20
-2.3802687523
 11
21.01534013
 21
-2.3802687523
  0
LWPOLYLINE
  5
433
100
AcDbEntity
  8
INTF_2
100
AcDbPolyline
 62
7
  6
CONTINUOUS
 90
51
 70
0
 10
19.4861512492
 20
-2.9115169642
 10
19.461326429
 20
-2.9110934177
 10
19.4364517486
 20
-2.9098293072
 10
19.4115551503
 20
-2.9077344264
 10
19.3866645767
 20
-2.9048185686
 10
19.3618079702
 20
-2.9010915275
 10
19.3370132733
 20
-2.8965630966
 10
19.3123084286
 20
-2.8912430694
 10
19.2877213783
 20
-2.8851412394
 10
19.2632800652
 20
-2.8782674002
 10
19.2390124315
 20
-2.8706313453
 10
19.2149464198
 20
-2.8622428682
 10
19.1911099725
 20
-2.8531117625
 10
19.1675310321
 20
-2.8432478217
 10
19.1442375412
 20
-2.8326608393
 10
19.1212574421
 20
-2.8213606089
 10
19.0986186773
 20
-2.8093569239
 10
19.0763491893
 20
-2.796659578
 10
19.0544769207
 20
-2.7832783647
 10
19.0330298137
 20
-2.7692230774
 10
19.012035811
 20
-2.7545035098
 10
18.991522855
 20
-2.7391294553
 10
18.9715188882
 20
-2.7231107075
 10
18.9520518529
 20
-2.7064570599
 10
18.9331496918
 20
-2.6891783061
 10
18.9148403473
 20
-2.6712842395
 10
18.8969823824
 20
-2.6526080926
 10
18.8797646379
 20
-2.6333428806
 10
18.8631946616
 20
-2.6135166785
 10
18.8472800017
 20
-2.5931575614
 10
18.8320282062
 20
-2.5722936041
 10
18.817446823
 20
-2.5509528817
 10
18.8035434002
 20
-2.529163469
 10
18.7903254857
 20
-2.5069534411
 10
18.7778006275
 20
-2.484350873
 10
18.7659763737
 20
-2.4613838395
 10
18.7548602723
 20
-2.4380804157
 10
18.7444598712
 20
-2.4144686766
 10
18.7347827185
 20
-2.390576697
 10
18.7258363622
 20
-2.366432552
 10
18.7176283502
 20
-2.3420643165
 10
18.7101662306
 20
-2.3175000655
 10
18.7034575514
 20
-2.292767874
 10
18.6975098605
 20
-2.2678958168
 10
18.692330706
 20
-2.2429119691
 10
18.6879276359
 20
-2.2178444057
 10
18.6843081982
 20
-2.1927212017
 10
18.6814799408
 20
-2.1675704319
 10
18.6794504118
 20
-2.1424201713
 10
18.6782271592
 20
-2.117298495
 10
18.6778177311
 20
-2.0922334779
  0
LINE
  5
434
100
AcDbEntity
  8
DRAFT
100
AcDbLine
 62
7
  6
CONTINUOUS
 10
-11.63465987
 20
2.2384737159
 11
-11.5523243474
 21
2.2110508426
  0
LINE
  5
435
100
AcDbEntity
  8
DRAFT
100
AcDbLine
 62
7
  6
CONTINUOUS
 10
19.76534013
 20
-8.0615262841
 11
19.6830046075
 21
-8.0341034108
  0
LWPOLYLINE
  5
436
100
AcDbEntity
  8
0
100
AcDbPolyline
 62
7
  6
CONTINUOUS
 90
7
 70
0
 10
17.0994185086
 20
-19.826684626
 10
17.1321553959
 20
-19.8593351214
 10
17.1505613575
 20
-19.877850018
 10
17.1703557964
 20
-19.8975638174
 10
17.1914502604
 20
-19.9183897265
 10
17.2135588502
 20
-19.9404145383
 10
17.2364302319
 20
-19.9636382529
  0
LWPOLYLINE
  5
437
100
AcDbEntity
  8
0
100
AcDbPolyline
 62
7
  6
CONTINUOUS
 90
3
 70
0
 10
17.0621989848
 20
-19.7894527728
 10
17.0853568362
 20
-19.8125490272
 10
17.0994185086
 20
-19.826684626
  0
LINE
  5
438
100
AcDbEntity
  8
DRAFT
100
AcDbLine
 62
7
  6
CONTINUOUS
 10
18.3961328732
 20
-20.8923190273
 11
18.36534013
 21
-20.8615262841
  0
LINE
  5
439
100
AcDbEntity
  8
0
100
AcDbLine
 62
7
  6
CONTINUOUS
 10
17.0462077054
 20
-19.7734157264
 11
17.0621989848
 21
-19.7894527728
  0
LWPOLYLINE
  5
43A
100
AcDbEntity
  8
0
100
AcDbPolyline
 62
7
  6
CONTINUOUS
 90
3
 70
0
 10
17.0364606929
 20
-19.7636610982
 10
17.0377730319
 20
-19.7650283764
 10
17.0462077054
 20
-19.7734157264
  0
LINE
  5
43B
100
AcDbEntity
  8
0
100
AcDbLine
 62
250
  6
CONTINUOUS
 10
-7.4841766251
 20
13.904403456
 11
-7.3846370247
 21
13.7053090925
  0
LWPOLYLINE
  5
43C
100
AcDbEntity
  8
0
100
AcDbPolyline
 62
7
  6
CONTINUOUS
 90
25
 70
0
 10
10.9829986854
 20
-27.624463619
 10
10.9175656896
 20
-27.4877766136
 10
10.847890966
 20
-27.3531891189
 10
10.7740418309
 20
-27.2208331585
 10
10.6960888512
 20
-27.0908379581
 10
10.6141083488
 20
-26.963331793
 10
10.5281825233
 20
-26.8384415874
 10
10.43839465
 20
-26.7162894862
 10
10.3448323132
 20
-26.5969954377
 10
10.2475902702
 20
-26.4806784874
 10
10.1467650952
 20
-26.3674542027
 10
10.0424536142
 20
-26.2574312069
 10
9.9347561032
 20
-26.1507133808
 10
9.8237809762
 20
-26.0474084075
 10
9.709632838
 20
-25.9476138438
 10
9.5924095049
 20
-25.8514147117
 10
9.472225724
 20
-25.7589076975
 10
9.3491957641
 20
-25.6701832193
 10
9.223418473
 20
-25.585314574
 10
9.0950140629
 20
-25.5043880892
 10
8.9641054899
 20
-25.4274864298
 10
8.8307970724
 20
-25.3546755422
 10
8.6952085364
 20
-25.2860282845
 10
8.5574763395
 20
-25.2216221897
 10
8.4177323905
 20
-25.1615262841
  0
LINE
  5
43D
100
AcDbEntity
  8
0
100
AcDbLine
 62
250
  6
CONTINUOUS
 10
6.9116975281
 20
-24.215168886
 11
6.9595318559
 21
-24.3306511688
  0
LWPOLYLINE
  5
43E
100
AcDbEntity
  8
0
100
AcDbPolyline
 62
250
  6
CONTINUOUS
 90
13
 70
0
 10
4.7556535138
 20
-24.0251544564
 10
4.748858681
 20
-24.0044578625
 10
4.7398527431
 20
-23.9846210247
 10
4.7287426049
 20
-23.9658794109
 10
4.7156601624
 20
-23.9484555048
 10
4.7007606986
 20
-23.9325561115
 10
4.6842210227
 20
-23.9183699188
 10
4.6662374225
 20
-23.9060653175
 10
4.6470233849
 20
-23.8957884085
 10
4.6268070178
 20
-23.8876612134
 10
4.6058283095
 20
-23.8817802151
 10
4.5843362741
 20
-23.8782152247
 10
4.5625860317
 20
-23.8770085669
  0
LINE
  5
43F
100
AcDbEntity
  8
0
100
AcDbLine
 62
250
  6
CONTINUOUS
 10
4.7233555472
 20
-24.6768867323
 11
4.5625860317
 21
-24.0768867323
  0
LINE
  5
440
100
AcDbEntity
  8
0
100
AcDbLine
 62
250
  6
CONTINUOUS
 10
4.8767274578
 20
-24.4770085669
 11
4.7556535138
 21
-24.0251544564
  0
LINE
  5
441
100
AcDbEntity
  8
0
100
AcDbLine
 62
7
  6
CONTINUOUS
 10
4.96534013
 20
-24.3615262841
 11
4.844266186
 21
-23.9096721736
  0
LINE
  5
442
100
AcDbEntity
  8
0
100
AcDbLine
 62
7
  6
CONTINUOUS
 10
5.0013251192
 20
-22.3252370717
 11
5.06534013
 21
-22.5641443444
  0
LWPOLYLINE
  5
443
100
AcDbEntity
  8
0
100
AcDbPolyline
 62
7
  6
CONTINUOUS
 90
9
 70
0
 10
2.9855496873
 20
-29.5744177289
 10
2.9907097165
 20
-29.6473947839
 10
3.0007573458
 20
-29.7192818629
 10
3.0155693203
 20
-29.7897546216
 10
3.0350010667
 20
-29.8585003535
 10
3.0588876999
 20
-29.9252193767
 10
3.0870451188
 20
-29.9896263386
 10
3.1192711847
 20
-30.0514514316
 10
3.1553469752
 20
-30.1104415159
  0
LINE
  5
444
100
AcDbEntity
  8
RACCORDO
100
AcDbLine
 62
7
  6
CONTINUOUS
 10
-0.4337458321
 20
-22.3138914789
 11
-0.4362746702
 21
-22.16901444
  0
LINE
  5
445
100
AcDbEntity
  8
RACCORDO
100
AcDbLine
 62
7
  6
CONTINUOUS
 10
-0.4800430388
 20
-19.6615262841
 11
-0.4787177848
 21
-19.7374500339
  0
LINE
  5
446
100
AcDbEntity
  8
0
100
AcDbLine
 62
250
  6
CONTINUOUS
 10
-0.7500203182
 20
-22.6921528588
 11
-0.7500203182
 21
-22.2615262841
  0
LINE
  5
447
100
AcDbEntity
  8
0
100
AcDbLine
 62
250
  6
CONTINUOUS
 10
-0.7500203182
 20
27.9384737159
 11
-0.7500203182
 21
28.3691002906
  0
LINE
  5
448
100
AcDbEntity
  8
0
100
AcDbLine
 62
250
  6
CONTINUOUS
 10
-0.5501421527
 20
-22.6093606118
 11
-0.5501421527
 21
-22.2648954625
  0
LINE
  5
449
100
AcDbEntity
  8
0
100
AcDbLine
 62
250
  6
CONTINUOUS
 10
-0.5501421527
 20
27.9418428943
 11
-0.5501421527
 21
28.2863080436
  0
LINE
  5
44A
100
AcDbEntity
  8
RACCORDO
100
AcDbLine
 62
7
  6
CONTINUOUS
 10
-0.43465987
 20
-22.5615262841
 11
-0.43465987
 21
-22.3226190114
  0
LINE
  5
44B
100
AcDbEntity
  8
RACCORDO
100
AcDbLine
 62
7
  6
CONTINUOUS
 10
-0.43465987
 20
27.9995664431
 11
-0.43465987
 21
28.2384737159
  0
LINE
  5
44C
100
AcDbEntity
  8
DRAFT
100
AcDbLine
 62
7
  6
CONTINUOUS
 10
0.0264872222
 20
-25.0448945233
 11
0.0264872222
 21
-24.7165056853
  0
LINE
  5
44D
100
AcDbEntity
  8
DRAFT
100
AcDbLine
 62
7
  6
CONTINUOUS
 10
0.0264872222
 20
30.3934531171
 11
0.0264872222
 21
30.7218419551
  0
LINE
  5
44E
100
AcDbEntity
  8
DRAFT
100
AcDbLine
 62
7
  6
CONTINUOUS
 10
0.0928366842
 20
-25.0929670361
 11
0.0928366842
 21
-24.6890228383
  0
LINE
  5
44F
100
AcDbEntity
  8
DRAFT
100
AcDbLine
 62
7
  6
CONTINUOUS
 10
0.0928366842
 20
30.3659702701
 11
0.0928366842
 21
30.7699144679
  0
LINE
  5
450
100
AcDbEntity
  8
0
100
AcDbLine
 62
250
  6
CONTINUOUS
 10
1.5244864196
 20
-24.6768867323
 11
1.5244864196
 21
-24.4770085669
  0
LINE
  5
451
100
AcDbEntity
  8
0
100
AcDbLine
 62
250
  6
CONTINUOUS
 10
1.5244864196
 20
30.1539559987
 11
1.5244864196
 21
30.3538341641
  0
LINE
  5
452
100
AcDbEntity
  8
RACCORDO
100
AcDbLine
 62
7
  6
CONTINUOUS
 10
-0.4337458321
 20
27.9908389107
 11
-0.4362746702
 21
27.8459618718
  0
LINE
  5
453
100
AcDbEntity
  8
RACCORDO
100
AcDbLine
 62
7
  6
CONTINUOUS
 10
-0.4800430388
 20
25.3384737159
 11
-0.4787177848
 21
25.4143974657
  0
LINE
  5
454
100
AcDbEntity
  8
0
100
AcDbLine
 62
7
  6
CONTINUOUS
 10
-2.88465987
 20
-27.8622208626
 11
-2.8740405955
 21
-27.7810204124
  0
LINE
  5
455
100
AcDbEntity
  8
0
100
AcDbLine
 62
7
  6
CONTINUOUS
 10
-2.8740405955
 20
-27.7810204124
 11
-2.8632595616
 21
-27.701845461
  0
LINE
  5
456
100
AcDbEntity
  8
0
100
AcDbLine
 62
7
  6
CONTINUOUS
 10
-2.8632595616
 20
-27.701845461
 11
-2.8523184253
 21
-27.624463619
  0
LINE
  5
457
100
AcDbEntity
  8
0
100
AcDbLine
 62
7
  6
CONTINUOUS
 10
10.9900812052
 20
38.4626353181
 11
11.01534013
 21
38.5384737159
  0
LINE
  5
458
100
AcDbEntity
  8
0
100
AcDbLine
 62
250
  6
CONTINUOUS
 10
-7.18465987
 20
-8.2283819726
 11
-7.2841842404
 21
-8.4274255632
  0
LWPOLYLINE
  5
459
100
AcDbEntity
  8
0
100
AcDbPolyline
 62
250
  6
CONTINUOUS
 90
8
 70
0
 10
-7.4841766251
 20
3.2725439758
 10
-7.4856284852
 20
3.2720910415
 10
-7.4890981061
 20
3.2716502249
 10
-7.4945854879
 20
3.2712215262
 10
-7.5021575836
 20
3.270802964
 10
-7.5117474401
 20
3.2703965197
 10
-7.5231541984
 20
3.2700081365
 10
-7.5363762276
 20
3.2696377959
  0
LWPOLYLINE
  5
45A
100
AcDbEntity
  8
0
100
AcDbPolyline
 62
250
  6
CONTINUOUS
 90
6
 70
0
 10
15.4148645005
 20
2.6043729248
 10
15.4170727104
 20
2.6048260162
 10
15.4228901955
 20
2.6052669262
 10
15.4322126047
 20
2.6056956548
 10
15.4448851176
 20
2.6061141481
 10
15.4607734217
 20
2.60652046
  0
LWPOLYLINE
  5
45B
100
AcDbEntity
  8
INTF_2
100
AcDbPolyline
 62
7
  6
CONTINUOUS
 90
51
 70
0
 10
19.4932937243
 20
-1.1052730438
 10
19.4845333211
 20
-1.1054283819
 10
19.4757576215
 20
-1.1058915877
 10
19.4669765019
 20
-1.1066584489
 10
19.458199839
 20
-1.1077247529
 10
19.4494375095
 20
-1.1090862872
 10
19.4406993899
 20
-1.1107388393
 10
19.4319953569
 20
-1.1126781969
 10
19.423335287
 20
-1.1149001473
 10
19.414729057
 20
-1.1174004782
 10
19.4061865434
 20
-1.1201749769
 10
19.3977176228
 20
-1.1232194312
 10
19.389332172
 20
-1.1265296284
 10
19.3810400674
 20
-1.130101356
 10
19.3728511857
 20
-1.1339304017
 10
19.3647754036
 20
-1.1380125529
 10
19.3568225976
 20
-1.1423435971
 10
19.3490026444
 20
-1.1469193219
 10
19.3413254205
 20
-1.1517355148
 10
19.3338008027
 20
-1.1567879632
 10
19.3264386676
 20
-1.1620724548
 10
19.3192488916
 20
-1.1675847769
 10
19.3122413516
 20
-1.1733207173
 10
19.3054259241
 20
-1.1792760632
 10
19.2988124857
 20
-1.1854466024
 10
19.292410913
 20
-1.1918281223
 10
19.2860655953
 20
-1.1985965935
 10
19.2799561495
 20
-1.2055731649
 10
19.2740845436
 20
-1.2127478282
 10
19.2684527456
 20
-1.2201105749
 10
19.2630627235
 20
-1.2276513969
 10
19.2579164454
 20
-1.2353602857
 10
19.2530158791
 20
-1.243227233
 10
19.2483629928
 20
-1.2512422305
 10
19.2439597544
 20
-1.2593952699
 10
19.2398081319
 20
-1.2676763427
 10
19.2359100933
 20
-1.2760754408
 10
19.2322676066
 20
-1.2845825557
 10
19.2288826398
 20
-1.2931876792
 10
19.2257571609
 20
-1.3018808028
 10
19.222893138
 20
-1.3106519184
 10
19.2202925389
 20
-1.3194910174
 10
19.2179573317
 20
-1.3283880917
 10
19.2158894845
 20
-1.3373331328
 10
19.2140909651
 20
-1.3463161325
 10
19.2125637417
 20
-1.3553270824
 10
19.2113097821
 20
-1.3643559741
 10
19.2103310545
 20
-1.3733927994
 10
19.2096295267
 20
-1.3824275499
 10
19.2092071669
 20
-1.3914502173
 10
19.2090659429
 20
-1.4004507933
  0
LINE
  5
45C
100
AcDbEntity
  8
INTF_2
100
AcDbLine
 62
7
  6
CONTINUOUS
 10
16.79999813
 20
-1.1052732841
 11
15.91534013
 21
-1.1052732841
  0
LINE
  5
45D
100
AcDbEntity
  8
INTF_2
100
AcDbLine
 62
7
  6
CONTINUOUS
 10
21.01534013
 20
-1.1052730438
 11
20.4840616514
 21
-1.1052730438
  0
LINE
  5
45E
100
AcDbEntity
  8
INTF_2
100
AcDbLine
 62
7
  6
CONTINUOUS
 10
19.9528134395
 20
-1.1052730438
 11
19.4932937243
 21
-1.1052730438
  0
LINE
  5
45F
100
AcDbEntity
  8
INTF_2
100
AcDbLine
 62
7
  6
CONTINUOUS
 10
19.4861512492
 20
-0.5740246581
 11
21.01534013
 21
-0.5740246581
  0
LINE
  5
460
100
AcDbEntity
  8
INTF_2
100
AcDbLine
 62
7
  6
CONTINUOUS
 10
15.9153520935
 20
-0.149033761
 11
17.4445130599
 21
-0.149033761
  0
LINE
  5
461
100
AcDbEntity
  8
INTF_2
100
AcDbLine
 62
7
  6
CONTINUOUS
 10
18.6778444763
 20
-0.149033761
 11
19.2090944489
 21
-0.149033761
  0
LINE
  5
462
100
AcDbEntity
  8
INTF_2
100
AcDbLine
 62
7
  6
CONTINUOUS
 10
20.4840901574
 20
-0.149033761
 11
21.01534013
 21
-0.149033761
  0
LINE
  5
463
100
AcDbEntity
  8
0
100
AcDbLine
 62
250
  6
CONTINUOUS
 10
-7.2841842404
 20
14.104372995
 11
-7.18465987
 21
13.9053294044
  0
LINE
  5
464
100
AcDbEntity
  8
0
100
AcDbLine
 62
7
  6
CONTINUOUS
 10
10.9900812052
 20
-32.7856878863
 11
11.01534013
 21
-32.8615262841
  0
LINE
  5
465
100
AcDbEntity
  8
0
100
AcDbLine
 62
7
  6
CONTINUOUS
 10
-2.8632595616
 20
33.3787928927
 11
-2.8523184253
 21
33.3014110508
  0
LINE
  5
466
100
AcDbEntity
  8
0
100
AcDbLine
 62
7
  6
CONTINUOUS
 10
-2.8740405955
 20
33.4579678442
 11
-2.8632595616
 21
33.3787928927
  0
LINE
  5
467
100
AcDbEntity
  8
0
100
AcDbLine
 62
7
  6
CONTINUOUS
 10
-2.88465987
 20
33.5391682943
 11
-2.8740405955
 21
33.4579678442
  0
LINE
  5
468
100
AcDbEntity
  8
0
100
AcDbLine
 62
250
  6
CONTINUOUS
 10
4.4101934988
 20
-19.661872933
 11
4.4117893049
 21
-19.6801130805
  0
LINE
  5
469
100
AcDbEntity
  8
0
100
AcDbLine
 62
7
  6
CONTINUOUS
 10
2.985378284
 20
-29.5006852169
 11
2.9855496873
 21
-29.5744177289
  0
LINE
  5
46A
100
AcDbEntity
  8
0
100
AcDbLine
 62
7
  6
CONTINUOUS
 10
2.985378284
 20
35.5993147831
 11
2.9855496873
 21
35.5255822711
  0
LINE
  5
46B
100
AcDbEntity
  8
RACCORDO
100
AcDbLine
 62
7
  6
CONTINUOUS
 10
1.76534013
 20
-20.9869756348
 11
1.76534013
 21
-22.0974470787
  0
LINE
  5
46C
100
AcDbEntity
  8
RACCORDO
100
AcDbLine
 62
7
  6
CONTINUOUS
 10
1.76534013
 20
26.6639230666
 11
1.76534013
 21
27.7743945105
  0
LINE
  5
46D
100
AcDbEntity
  8
0
100
AcDbLine
 62
250
  6
CONTINUOUS
 10
2.9778925461
 20
-19.6894881539
 11
2.9778925461
 21
-19.7560262908
  0
LINE
  5
46E
100
AcDbEntity
  8
0
100
AcDbLine
 62
250
  6
CONTINUOUS
 10
2.9778925461
 20
25.3664355856
 11
2.9778925456
 21
25.4329737226
  0
LINE
  5
46F
100
AcDbEntity
  8
0
100
AcDbLine
 62
250
  6
CONTINUOUS
 10
3.5680942283
 20
29.7538341641
 11
3.5680942283
 21
29.5539559987
  0
LINE
  5
470
100
AcDbEntity
  8
0
100
AcDbLine
 62
250
  6
CONTINUOUS
 10
3.5680942283
 20
-24.0768867323
 11
3.5680942283
 21
-23.8770085669
  0
LINE
  5
471
100
AcDbEntity
  8
0
100
AcDbLine
 62
250
  6
CONTINUOUS
 10
4.4117893049
 20
25.3570605123
 11
4.4101934988
 21
25.3388203648
  0
LINE
  5
472
100
AcDbEntity
  8
0
100
AcDbLine
 62
7
  6
CONTINUOUS
 10
-8.9057804328
 20
-8.232646847
 11
-8.9067776841
 21
-8.2336639352
  0
LINE
  5
473
100
AcDbEntity
  8
0
100
AcDbLine
 62
7
  6
CONTINUOUS
 10
-9.0880433415
 20
-8.4146666053
 11
-9.1057499719
 21
-8.432616386
  0
LINE
  5
474
100
AcDbEntity
  8
DRAFT
100
AcDbLine
 62
7
  6
CONTINUOUS
 10
-10.2654526132
 20
-9.2923190273
 11
-10.23465987
 21
-9.2615262841
  0
LINE
  5
475
100
AcDbEntity
  8
0
100
AcDbLine
 62
7
  6
CONTINUOUS
 10
-8.9057804328
 20
-8.232646847
 11
-8.7017513793
 21
-8.0286177935
  0
LWPOLYLINE
  5
476
100
AcDbEntity
  8
0
100
AcDbPolyline
 62
7
  6
CONTINUOUS
 90
3
 70
0
 10
-8.9067776841
 20
-8.2336639352
 10
-8.9130115749
 20
-8.2398779891
 10
-8.9248790814
 20
-8.251802188
  0
LWPOLYLINE
  5
477
100
AcDbEntity
  8
0
100
AcDbPolyline
 62
7
  6
CONTINUOUS
 90
3
 70
0
 10
-8.9248790814
 20
-8.251802188
 10
-8.932782349
 20
-8.2596487632
 10
-9.0355839929
 20
-8.3625412679
  0
LINE
  5
478
100
AcDbEntity
  8
0
100
AcDbLine
 62
7
  6
CONTINUOUS
 10
-9.0355839929
 20
-8.3625412679
 11
-9.0880433415
 21
-8.4146666053
  0
LINE
  5
479
100
AcDbEntity
  8
0
100
AcDbLine
 62
250
  6
CONTINUOUS
 10
15.6670564876
 20
2.4073096359
 11
15.6987552848
 21
2.4079901342
  0
LINE
  5
47A
100
AcDbEntity
  8
0
100
AcDbLine
 62
250
  6
CONTINUOUS
 10
15.4607734217
 20
2.60652046
 11
15.5019123121
 21
2.6072790936
  0
LWPOLYLINE
  5
47B
100
AcDbEntity
  8
INTF_2
100
AcDbPolyline
 62
7
  6
CONTINUOUS
 90
51
 70
0
 10
19.5042721984
 20
2.1884737159
 10
19.479076185
 20
2.1880652571
 10
19.4538258884
 20
2.1868447507
 10
19.4285489444
 20
2.1848195012
 10
19.4032729889
 20
2.1819968132
 10
19.3780256577
 20
2.1783839916
 10
19.3528345866
 20
2.1739883408
 10
19.3277274114
 20
2.1688171656
 10
19.3027317681
 20
2.1628777707
 10
19.2778752924
 20
2.1561774607
 10
19.2531856202
 20
2.1487235402
 10
19.2286903872
 20
2.1405233139
 10
19.2044172294
 20
2.1315840865
 10
19.1803937826
 20
2.1219131626
 10
19.1566476825
 20
2.111517847
 10
19.1332065651
 20
2.1004054442
 10
19.1100980661
 20
2.0885832589
 10
19.0873498215
 20
2.0760585957
 10
19.0649894669
 20
2.0628387594
 10
19.0430446384
 20
2.0489310546
 10
19.0215429716
 20
2.0343427859
 10
19.0005121024
 20
2.0190812581
 10
18.9799796668
 20
2.0031537757
 10
18.9599733004
 20
1.9865676434
 10
18.9405206391
 20
1.969330166
 10
18.9216493188
 20
1.9514486479
 10
18.9036079281
 20
1.93316829
 10
18.8861716201
 20
1.9142946415
 10
18.869351571
 20
1.8948553907
 10
18.8531589569
 20
1.8748782256
 10
18.8376049538
 20
1.8543908344
 10
18.8227007381
 20
1.8334209054
 10
18.8084574857
 20
1.8119961266
 10
18.7948863728
 20
1.7901441862
 10
18.7819985756
 20
1.7678927725
 10
18.7698052702
 20
1.7452695735
 10
18.7583176327
 20
1.7223022775
 10
18.7475468393
 20
1.6990185726
 10
18.7375040661
 20
1.6754461469
 10
18.7282004893
 20
1.6516126887
 10
18.7196472848
 20
1.6275458861
 10
18.711855629
 20
1.6032734273
 10
18.704836698
 20
1.5788230004
 10
18.6986016678
 20
1.5542222936
 10
18.6931617146
 20
1.529498995
 10
18.6885280146
 20
1.504680793
 10
18.6847117438
 20
1.4797953755
 10
18.6817240785
 20
1.4548704308
 10
18.6795761947
 20
1.429933647
 10
18.6782792686
 20
1.4050127124
 10
18.6778444763
 20
1.380135315
  0
LINE
  5
47C
100
AcDbEntity
  8
0
100
AcDbLine
 62
250
  6
CONTINUOUS
 10
15.6987552848
 20
2.4079901342
 11
15.7368391298
 21
2.4085742334
  0
LINE
  5
47D
100
AcDbEntity
  8
0
100
AcDbLine
 62
250
  6
CONTINUOUS
 10
15.5019123121
 20
2.6072790936
 11
15.5851469713
 21
2.6082637757
  0
LINE
  5
47E
100
AcDbEntity
  8
0
100
AcDbLine
 62
250
  6
CONTINUOUS
 10
-7.3961924616
 20
3.0693160166
 11
-7.4874378178
 21
3.0684036172
  0
LINE
  5
47F
100
AcDbEntity
  8
0
100
AcDbLine
 62
250
  6
CONTINUOUS
 10
15.7368391298
 20
2.4085742334
 11
15.8061660122
 21
2.4092384286
  0
LINE
  5
480
100
AcDbEntity
  8
0
100
AcDbLine
 62
250
  6
CONTINUOUS
 10
15.5851469713
 20
2.6082637757
 11
15.733547208
 21
2.6092079194
  0
LINE
  5
481
100
AcDbEntity
  8
0
100
AcDbLine
 62
250
  6
CONTINUOUS
 10
-7.4874378178
 20
3.0684036172
 11
-7.6459741768
 21
3.0675876682
  0
LINE
  5
482
100
AcDbEntity
  8
0
100
AcDbLine
 62
250
  6
CONTINUOUS
 10
15.8061660122
 20
2.4092384286
 11
15.8861796684
 21
2.4095664989
  0
LINE
  5
483
100
AcDbEntity
  8
INTF_2
100
AcDbLine
 62
7
  6
CONTINUOUS
 10
15.9153520935
 20
1.6572178317
 11
17.4373716744
 21
1.6572178317
  0
LINE
  5
484
100
AcDbEntity
  8
INTF_2
100
AcDbLine
 62
7
  6
CONTINUOUS
 10
19.5042721984
 20
1.6572178317
 11
20.1889102273
 21
1.6572178317
  0
LINE
  5
485
100
AcDbEntity
  8
INTF_2
100
AcDbLine
 62
7
  6
CONTINUOUS
 10
20.1889102273
 20
2.1884737159
 11
19.5042721984
 21
2.1884737159
  0
LINE
  5
486
100
AcDbEntity
  8
0
100
AcDbLine
 62
7
  6
CONTINUOUS
 10
16.06534013
 20
2.2053090925
 11
15.5153172847
 21
2.2053090925
  0
LINE
  5
487
100
AcDbEntity
  8
0
100
AcDbLine
 62
7
  6
CONTINUOUS
 10
-7.3846370247
 20
2.2053090925
 11
-7.93465987
 21
2.2053090925
  0
LINE
  5
488
100
AcDbEntity
  8
DRAFT
100
AcDbLine
 62
7
  6
CONTINUOUS
 10
19.76534013
 20
2.2384737159
 11
18.36534013
 21
2.2384737159
  0
LINE
  5
489
100
AcDbEntity
  8
DRAFT
100
AcDbLine
 62
7
  6
CONTINUOUS
 10
-10.23465987
 20
2.2384737159
 11
-11.63465987
 21
2.2384737159
  0
LINE
  5
48A
100
AcDbEntity
  8
0
100
AcDbLine
 62
250
  6
CONTINUOUS
 10
15.8861796684
 20
2.4095664989
 11
17.0364606929
 21
2.4095942788
  0
LINE
  5
48B
100
AcDbEntity
  8
0
100
AcDbLine
 62
250
  6
CONTINUOUS
 10
15.733547208
 20
2.6092079194
 11
17.2364302319
 21
2.6095638178
  0
LINE
  5
48C
100
AcDbEntity
  8
0
100
AcDbLine
 62
250
  6
CONTINUOUS
 10
-7.6459741768
 20
3.0675876682
 11
-9.1057499719
 21
3.067383614
  0
LINE
  5
48D
100
AcDbEntity
  8
0
100
AcDbLine
 62
250
  6
CONTINUOUS
 10
-8.9057804328
 20
2.4095942788
 11
-7.7085768619
 21
2.4094253348
  0
LINE
  5
48E
100
AcDbEntity
  8
0
100
AcDbLine
 62
250
  6
CONTINUOUS
 10
-9.1057499719
 20
2.6095638178
 11
-7.579221381
 21
2.6091031986
  0
LINE
  5
48F
100
AcDbEntity
  8
0
100
AcDbLine
 62
250
  6
CONTINUOUS
 10
17.2364302319
 20
3.067383614
 11
15.7099016411
 21
3.0678442332
  0
LINE
  5
490
100
AcDbEntity
  8
0
100
AcDbLine
 62
250
  6
CONTINUOUS
 10
-7.7085768619
 20
2.4094253348
 11
-7.6387843332
 21
2.4089383223
  0
LINE
  5
491
100
AcDbEntity
  8
0
100
AcDbLine
 62
250
  6
CONTINUOUS
 10
-7.579221381
 20
2.6091031986
 11
-7.4408815427
 21
2.6081345985
  0
LWPOLYLINE
  5
492
100
AcDbEntity
  8
0
100
AcDbPolyline
 62
250
  6
CONTINUOUS
 90
3
 70
0
 10
15.7099016411
 20
3.0678442332
 10
15.5715618028
 20
3.0688128333
 10
15.5421566322
 20
3.0691286657
  0
LINE
  5
493
100
AcDbEntity
  8
0
100
AcDbLine
 62
250
  6
CONTINUOUS
 10
-7.6387843332
 20
2.4089383223
 11
-7.5971522786
 21
2.4084526428
  0
LINE
  5
494
100
AcDbEntity
  8
0
100
AcDbLine
 62
250
  6
CONTINUOUS
 10
-7.4408815427
 20
2.6081345985
 11
-7.3845606223
 21
2.6074740855
  0
LWPOLYLINE
  5
495
100
AcDbEntity
  8
INTF_2
100
AcDbPolyline
 62
7
  6
CONTINUOUS
 90
51
 70
0
 10
20.1889102273
 20
1.6572178317
 10
20.1979107843
 20
1.6570766219
 10
20.206933441
 20
1.6566543033
 10
20.2159681888
 20
1.6559528421
 10
20.2250050188
 20
1.6549742044
 10
20.2340339225
 20
1.6537203565
 10
20.2430448909
 20
1.6521932645
 10
20.2520279155
 20
1.6503948947
 10
20.2609729874
 20
1.6483272131
 10
20.2698700979
 20
1.6459921859
 10
20.2787092384
 20
1.6433917794
 10
20.2874803999
 20
1.6405279598
 10
20.2961735739
 20
1.6374026931
 10
20.3047787515
 20
1.6340179456
 10
20.3132859241
 20
1.6303756835
 10
20.3216850828
 20
1.6264778729
 10
20.329966219
 20
1.62232648
 10
20.338119324
 20
1.6179234711
 10
20.3461343889
 20
1.6132708122
 10
20.354001405
 20
1.6083704696
 10
20.3617103637
 20
1.6032244094
 10
20.3692512561
 20
1.5978345979
 10
20.3766140735
 20
1.5922030012
 10
20.3837888073
 20
1.5863315854
 10
20.3907654486
 20
1.5802223168
 10
20.3975339887
 20
1.5738771616
 10
20.4039155861
 20
1.5674757193
 10
20.4100862007
 20
1.5608623957
 10
20.4160416198
 20
1.5540470682
 10
20.4217776308
 20
1.5470396144
 10
20.4272900213
 20
1.5398499117
 10
20.4325745786
 20
1.5324878378
 10
20.4376270902
 20
1.5249632701
 10
20.4424433435
 20
1.5172860861
 10
20.447019126
 20
1.5094661634
 10
20.4513502251
 20
1.5015133795
 10
20.4554324281
 20
1.4934376118
 10
20.4592615226
 20
1.485248738
 10
20.4628332961
 20
1.4769566356
 10
20.4661435358
 20
1.468571182
 10
20.4691880293
 20
1.4601022548
 10
20.471962564
 20
1.4515597315
 10
20.4744629274
 20
1.4429534896
 10
20.4766849068
 20
1.4342934067
 10
20.4786242898
 20
1.4255893602
 10
20.4802768636
 20
1.4168512277
 10
20.4816384159
 20
1.4080888867
 10
20.4827047339
 20
1.3993122147
 10
20.4834716053
 20
1.3905310893
 10
20.4839348173
 20
1.381755388
 10
20.4840901574
 20
1.3729949882
  0
LWPOLYLINE
  5
496
100
AcDbEntity
  8
0
100
AcDbPolyline
 62
250
  6
CONTINUOUS
 90
10
 70
0
 10
-7.5971522786
 20
2.4084526428
 10
-7.5605752555
 20
2.4078492613
 10
-7.5443029707
 20
2.4075046227
 10
-7.5297328743
 20
2.4071321918
 10
-7.5167828767
 20
2.406729083
 10
-7.5055350675
 20
2.406298182
 10
-7.4965904386
 20
2.4058491979
 10
-7.4901493205
 20
2.405385367
 10
-7.4860113827
 20
2.404903453
 10
-7.4841766251
 20
2.404403456
  0
LWPOLYLINE
  5
497
100
AcDbEntity
  8
0
100
AcDbPolyline
 62
250
  6
CONTINUOUS
 90
7
 70
0
 10
-7.3845606223
 20
2.6074740855
 10
-7.3383706807
 20
2.6066986619
 10
-7.3198268487
 20
2.6062679188
 10
-7.3048739289
 20
2.6058190129
 10
-7.293798818
 20
2.6053551384
 10
-7.2868283014
 20
2.6048731012
 10
-7.2841842404
 20
2.6043729012
  0
LWPOLYLINE
  5
498
100
AcDbEntity
  8
0
100
AcDbPolyline
 62
7
  6
CONTINUOUS
 90
16
 70
0
 10
-7.3846370247
 20
3.4716383393
 10
-7.3633657407
 20
3.4704443062
 10
-7.3427668507
 20
3.4671817325
 10
-7.3228403548
 20
3.4618506181
 10
-7.3033842869
 20
3.4543480552
 10
-7.2846006131
 20
3.4447769517
 10
-7.2670952313
 20
3.4334460306
 10
-7.2509097467
 20
3.4202979459
 10
-7.236002554
 20
3.4053900436
 10
-7.2228547356
 20
3.3892030855
 10
-7.2115235771
 20
3.3716952643
 10
-7.2019517928
 20
3.3529083874
 10
-7.1944486075
 20
3.3334486379
 10
-7.189117096
 20
3.3135180771
 10
-7.1858541835
 20
3.2929146439
 10
-7.18465987
 20
3.2716383381
  0
LWPOLYLINE
  5
499
100
AcDbEntity
  8
0
100
AcDbPolyline
 62
7
  6
CONTINUOUS
 90
16
 70
0
 10
15.5153172847
 20
2.2053090925
 10
15.4940460007
 20
2.2065031256
 10
15.4734471108
 20
2.2097656993
 10
15.4535206149
 20
2.2150968137
 10
15.434064547
 20
2.2225993766
 10
15.4152808732
 20
2.2321704801
 10
15.3977754914
 20
2.2435014012
 10
15.3815900068
 20
2.2566494859
 10
15.3666828141
 20
2.2715573882
 10
15.3535349956
 20
2.2877443463
 10
15.3422038372
 20
2.3052521675
 10
15.3326320529
 20
2.3240390444
 10
15.3251288676
 20
2.3434987939
 10
15.3197973561
 20
2.3634293547
 10
15.3165344436
 20
2.3840327879
 10
15.31534013
 20
2.4053090937
  0
LINE
  5
49A
100
AcDbEntity
  8
DRAFT
100
AcDbLine
 62
7
  6
CONTINUOUS
 10
-10.2654526132
 20
14.9692664591
 11
-10.23465987
 21
14.9384737159
  0
LWPOLYLINE
  5
49B
100
AcDbEntity
  8
0
100
AcDbPolyline
 62
7
  6
CONTINUOUS
 90
3
 70
0
 10
-8.9130138599
 20
13.9168277058
 10
-8.9067771575
 20
13.9106076363
 10
-8.9057804328
 20
13.9095942788
  0
LINE
  5
49C
100
AcDbEntity
  8
0
100
AcDbLine
 62
7
  6
CONTINUOUS
 10
-8.9057804328
 20
13.9095942788
 11
-8.7017513793
 21
13.7055652252
  0
LWPOLYLINE
  5
49D
100
AcDbEntity
  8
0
100
AcDbPolyline
 62
7
  6
CONTINUOUS
 90
3
 70
0
 10
-9.0355775769
 20
14.0394823328
 10
-8.9419025326
 20
13.9456860295
 10
-8.9249047245
 20
13.9287766252
  0
LINE
  5
49E
100
AcDbEntity
  8
0
100
AcDbLine
 62
7
  6
CONTINUOUS
 10
-8.9249047245
 20
13.9287766252
 11
-8.9130138599
 21
13.9168277058
  0
LWPOLYLINE
  5
49F
100
AcDbEntity
  8
0
100
AcDbPolyline
 62
7
  6
CONTINUOUS
 90
3
 70
0
 10
-9.1057499719
 20
14.1095638178
 10
-9.088029208
 20
14.091600818
 10
-9.0355775769
 20
14.0394823328
  0
LINE
  5
4A0
100
AcDbEntity
  8
0
100
AcDbLine
 62
250
  6
CONTINUOUS
 10
3.7204867613
 20
25.3388203648
 11
3.7188909552
 21
25.3570605123
  0
LWPOLYLINE
  5
4A1
100
AcDbEntity
  8
0
100
AcDbPolyline
 62
7
  6
CONTINUOUS
 90
9
 70
0
 10
2.9855496873
 20
35.5255822711
 10
2.9907097165
 20
35.4526052161
 10
3.0007573458
 20
35.3807181371
 10
3.0155693203
 20
35.3102453784
 10
3.0350010667
 20
35.2414996465
 10
3.0588876999
 20
35.1747806233
 10
3.0870451188
 20
35.1103736614
 10
3.1192711847
 20
35.0485485684
 10
3.1553469752
 20
34.9895584841
  0
LINE
  5
4A2
100
AcDbEntity
  8
0
100
AcDbLine
 62
250
  6
CONTINUOUS
 10
4.5625860317
 20
29.7538341641
 11
4.5625860317
 21
29.5539559987
  0
LINE
  5
4A3
100
AcDbEntity
  8
0
100
AcDbLine
 62
250
  6
CONTINUOUS
 10
4.5625860317
 20
-24.0768867323
 11
4.5625860317
 21
-23.8770085669
  0
LINE
  5
4A4
100
AcDbEntity
  8
0
100
AcDbLine
 62
250
  6
CONTINUOUS
 10
5.1527877139
 20
-19.6894881539
 11
5.1527877282
 21
-19.7560262908
  0
LINE
  5
4A5
100
AcDbEntity
  8
0
100
AcDbLine
 62
250
  6
CONTINUOUS
 10
5.1527877139
 20
25.3664355856
 11
5.1527877139
 21
25.4329737226
  0
LINE
  5
4A6
100
AcDbEntity
  8
RACCORDO
100
AcDbLine
 62
7
  6
CONTINUOUS
 10
6.36534013
 20
-20.9869756348
 11
6.36534013
 21
-22.0974470787
  0
LINE
  5
4A7
100
AcDbEntity
  8
RACCORDO
100
AcDbLine
 62
7
  6
CONTINUOUS
 10
6.36534013
 20
26.6639230666
 11
6.36534013
 21
27.7743945105
  0
LINE
  5
4A8
100
AcDbEntity
  8
0
100
AcDbLine
 62
250
  6
CONTINUOUS
 10
6.6061938404
 20
30.3538341641
 11
6.6061938404
 21
30.1539559987
  0
LINE
  5
4A9
100
AcDbEntity
  8
0
100
AcDbLine
 62
250
  6
CONTINUOUS
 10
6.6061938404
 20
-24.4770085669
 11
6.6061938404
 21
-24.6768867323
  0
LINE
  5
4AA
100
AcDbEntity
  8
0
100
AcDbLine
 62
250
  6
CONTINUOUS
 10
3.7188909552
 20
-19.6801130805
 11
3.7204867613
 21
-19.661872933
  0
LINE
  5
4AB
100
AcDbEntity
  8
0
100
AcDbLine
 62
7
  6
CONTINUOUS
 10
11.01534013
 20
33.5391682943
 11
11.0047208556
 21
33.4579678442
  0
LINE
  5
4AC
100
AcDbEntity
  8
0
100
AcDbLine
 62
7
  6
CONTINUOUS
 10
11.0047208556
 20
33.4579678442
 11
10.9939398216
 21
33.3787928927
  0
LINE
  5
4AD
100
AcDbEntity
  8
0
100
AcDbLine
 62
7
  6
CONTINUOUS
 10
10.9939398216
 20
33.3787928927
 11
10.9829986854
 21
33.3014110508
  0
LINE
  5
4AE
100
AcDbEntity
  8
0
100
AcDbLine
 62
7
  6
CONTINUOUS
 10
17.0364606929
 20
13.9095942788
 11
17.0374579441
 21
13.910611367
  0
LINE
  5
4AF
100
AcDbEntity
  8
0
100
AcDbLine
 62
7
  6
CONTINUOUS
 10
17.2187236016
 20
14.0916140371
 11
17.2364302319
 21
14.1095638178
  0
LINE
  5
4B0
100
AcDbEntity
  8
0
100
AcDbLine
 62
7
  6
CONTINUOUS
 10
17.0364606929
 20
13.9095942788
 11
16.8324316394
 21
13.7055652252
  0
LINE
  5
4B1
100
AcDbEntity
  8
DRAFT
100
AcDbLine
 62
7
  6
CONTINUOUS
 10
18.3961328732
 20
14.9692664591
 11
18.36534013
 21
14.9384737159
  0
LWPOLYLINE
  5
4B2
100
AcDbEntity
  8
0
100
AcDbPolyline
 62
7
  6
CONTINUOUS
 90
3
 70
0
 10
17.0374579441
 20
13.910611367
 10
17.043691835
 20
13.9168254209
 10
17.0555593414
 20
13.9287496198
  0
LWPOLYLINE
  5
4B3
100
AcDbEntity
  8
0
100
AcDbPolyline
 62
7
  6
CONTINUOUS
 90
3
 70
0
 10
17.0555593414
 20
13.9287496198
 10
17.0634626091
 20
13.936596195
 10
17.166264253
 20
14.0394886997
  0
LINE
  5
4B4
100
AcDbEntity
  8
0
100
AcDbLine
 62
7
  6
CONTINUOUS
 10
17.166264253
 20
14.0394886997
 11
17.2187236016
 21
14.0916140371
  0
LWPOLYLINE
  5
4B5
100
AcDbEntity
  8
0
100
AcDbPolyline
 62
250
  6
CONTINUOUS
 90
6
 70
0
 10
-7.2841842404
 20
3.0725745069
 10
-7.2863924503
 20
3.0721214156
 10
-7.2922099354
 20
3.0716805056
 10
-7.3015323446
 20
3.071251777
 10
-7.3142048575
 20
3.0708332837
 10
-7.3300931616
 20
3.0704269717
  0
LINE
  5
4B6
100
AcDbEntity
  8
0
100
AcDbLine
 62
250
  6
CONTINUOUS
 10
-7.5363762276
 20
3.2696377959
 11
-7.5680750248
 21
3.2689572976
  0
LWPOLYLINE
  5
4B7
100
AcDbEntity
  8
0
100
AcDbPolyline
 62
250
  6
CONTINUOUS
 90
3
 70
0
 10
-7.3300931616
 20
3.0704269717
 10
-7.371232052
 20
3.0696683382
 10
-7.3961924616
 20
3.0693160166
  0
LINE
  5
4B8
100
AcDbEntity
  8
0
100
AcDbLine
 62
250
  6
CONTINUOUS
 10
-7.5680750248
 20
3.2689572976
 11
-7.6061588698
 21
3.2683731983
  0
LINE
  5
4B9
100
AcDbEntity
  8
0
100
AcDbLine
 62
250
  6
CONTINUOUS
 10
-7.6061588698
 20
3.2683731983
 11
-7.6754857521
 21
3.2677090032
  0
LINE
  5
4BA
100
AcDbEntity
  8
0
100
AcDbLine
 62
250
  6
CONTINUOUS
 10
-7.6754857521
 20
3.2677090032
 11
-7.7554994084
 21
3.2673809328
  0
LINE
  5
4BB
100
AcDbEntity
  8
0
100
AcDbLine
 62
250
  6
CONTINUOUS
 10
-7.7554994084
 20
3.2673809328
 11
-8.9057804328
 21
3.267353153
  0
LINE
  5
4BC
100
AcDbEntity
  8
DRAFT
100
AcDbLine
 62
7
  6
CONTINUOUS
 10
-11.63465987
 20
3.4384737159
 11
-10.23465987
 21
3.4384737159
  0
LINE
  5
4BD
100
AcDbEntity
  8
DRAFT
100
AcDbLine
 62
7
  6
CONTINUOUS
 10
18.36534013
 20
3.4384737159
 11
19.76534013
 21
3.4384737159
  0
LINE
  5
4BE
100
AcDbEntity
  8
0
100
AcDbLine
 62
7
  6
CONTINUOUS
 10
16.06534013
 20
3.4716383393
 11
15.5153172847
 21
3.4716383393
  0
LINE
  5
4BF
100
AcDbEntity
  8
0
100
AcDbLine
 62
7
  6
CONTINUOUS
 10
-7.3846370247
 20
3.4716383393
 11
-7.93465987
 21
3.4716383393
  0
LINE
  5
4C0
100
AcDbEntity
  8
0
100
AcDbLine
 62
250
  6
CONTINUOUS
 10
17.0364606929
 20
3.267353153
 11
15.8392571219
 21
3.267522097
  0
LINE
  5
4C1
100
AcDbEntity
  8
0
100
AcDbLine
 62
250
  6
CONTINUOUS
 10
15.8392571219
 20
3.267522097
 11
15.7694645932
 21
3.2680091095
  0
LINE
  5
4C2
100
AcDbEntity
  8
0
100
AcDbLine
 62
250
  6
CONTINUOUS
 10
15.7694645932
 20
3.2680091095
 11
15.7278325387
 21
3.268494789
  0
LWPOLYLINE
  5
4C3
100
AcDbEntity
  8
0
100
AcDbPolyline
 62
250
  6
CONTINUOUS
 90
8
 70
0
 10
15.5421566322
 20
3.0691286657
 10
15.490791583
 20
3.0698457721
 10
15.4690509408
 20
3.0702487699
 10
15.4505071088
 20
3.070679513
 10
15.4355541889
 20
3.0711284189
 10
15.4244790781
 20
3.0715922934
 10
15.4175085614
 20
3.0720743306
 10
15.4148645005
 20
3.0725745305
  0
LWPOLYLINE
  5
4C4
100
AcDbEntity
  8
0
100
AcDbPolyline
 62
250
  6
CONTINUOUS
 90
10
 70
0
 10
15.7278325387
 20
3.268494789
 10
15.6912555156
 20
3.2690981705
 10
15.6749832308
 20
3.2694428091
 10
15.6604131344
 20
3.26981524
 10
15.6474631368
 20
3.2702183488
 10
15.6362153276
 20
3.2706492498
 10
15.6272706987
 20
3.2710982339
 10
15.6208295806
 20
3.2715620648
 10
15.6166916427
 20
3.2720439788
 10
15.6148568851
 20
3.2725439758
  0
LINE
  5
4C5
100
AcDbEntity
  8
0
100
AcDbLine
 62
7
  6
CONTINUOUS
 10
17.0364606929
 20
-8.232646847
 11
16.8324316394
 21
-8.0286177935
  0
LWPOLYLINE
  5
4C6
100
AcDbEntity
  8
0
100
AcDbPolyline
 62
7
  6
CONTINUOUS
 90
3
 70
0
 10
17.04369412
 20
-8.239880274
 10
17.0374574175
 20
-8.2336602045
 10
17.0364606929
 20
-8.232646847
  0
LINE
  5
4C7
100
AcDbEntity
  8
DRAFT
100
AcDbLine
 62
7
  6
CONTINUOUS
 10
18.3961328732
 20
-9.2923190273
 11
18.36534013
 21
-9.2615262841
  0
LINE
  5
4C8
100
AcDbEntity
  8
0
100
AcDbLine
 62
7
  6
CONTINUOUS
 10
17.0555849846
 20
-8.2518291935
 11
17.04369412
 21
-8.239880274
  0
LWPOLYLINE
  5
4C9
100
AcDbEntity
  8
0
100
AcDbPolyline
 62
7
  6
CONTINUOUS
 90
3
 70
0
 10
17.166257837
 20
-8.362534901
 10
17.0725827926
 20
-8.2687385977
 10
17.0555849846
 20
-8.2518291935
  0
LWPOLYLINE
  5
4CA
100
AcDbEntity
  8
0
100
AcDbPolyline
 62
7
  6
CONTINUOUS
 90
3
 70
0
 10
17.2364302319
 20
-8.432616386
 10
17.2187094681
 20
-8.4146533862
 10
17.166257837
 20
-8.362534901
  0
LINE
  5
4CB
100
AcDbEntity
  8
0
100
AcDbLine
 62
7
  6
CONTINUOUS
 10
10.9939398216
 20
-27.701845461
 11
10.9829986854
 21
-27.624463619
  0
LINE
  5
4CC
100
AcDbEntity
  8
0
100
AcDbLine
 62
7
  6
CONTINUOUS
 10
11.0047208556
 20
-27.7810204124
 11
10.9939398216
 21
-27.701845461
  0
LINE
  5
4CD
100
AcDbEntity
  8
0
100
AcDbLine
 62
7
  6
CONTINUOUS
 10
11.01534013
 20
-27.8622208626
 11
11.0047208556
 21
-27.7810204124
  0
LINE
  5
4CE
100
AcDbEntity
  8
RACCORDO
100
AcDbLine
 62
7
  6
CONTINUOUS
 10
8.5644260922
 20
27.9908389107
 11
8.5669549303
 21
27.8459618718
  0
LINE
  5
4CF
100
AcDbEntity
  8
RACCORDO
100
AcDbLine
 62
7
  6
CONTINUOUS
 10
8.6107232988
 20
25.3384737159
 11
8.6093980449
 21
25.4143974657
  0
LINE
  5
4D0
100
AcDbEntity
  8
DRAFT
100
AcDbLine
 62
7
  6
CONTINUOUS
 10
8.0378435758
 20
30.7699144679
 11
8.0378435758
 21
30.3659702701
  0
LINE
  5
4D1
100
AcDbEntity
  8
DRAFT
100
AcDbLine
 62
7
  6
CONTINUOUS
 10
8.0378435758
 20
-24.6890228383
 11
8.0378435758
 21
-25.0929670361
  0
LINE
  5
4D2
100
AcDbEntity
  8
DRAFT
100
AcDbLine
 62
7
  6
CONTINUOUS
 10
8.1041930379
 20
30.7218419551
 11
8.1041930379
 21
30.3934531171
  0
LINE
  5
4D3
100
AcDbEntity
  8
DRAFT
100
AcDbLine
 62
7
  6
CONTINUOUS
 10
8.1041930379
 20
-24.7165056853
 11
8.1041930379
 21
-25.0448945233
  0
LINE
  5
4D4
100
AcDbEntity
  8
RACCORDO
100
AcDbLine
 62
7
  6
CONTINUOUS
 10
8.56534013
 20
28.2384737159
 11
8.56534013
 21
27.9995664431
  0
LINE
  5
4D5
100
AcDbEntity
  8
RACCORDO
100
AcDbLine
 62
7
  6
CONTINUOUS
 10
8.56534013
 20
-22.3226190114
 11
8.56534013
 21
-22.5615262841
  0
LINE
  5
4D6
100
AcDbEntity
  8
0
100
AcDbLine
 62
250
  6
CONTINUOUS
 10
8.6808224128
 20
28.2863080436
 11
8.6808224128
 21
27.9418428943
  0
LINE
  5
4D7
100
AcDbEntity
  8
0
100
AcDbLine
 62
250
  6
CONTINUOUS
 10
8.6808224128
 20
-22.2648954625
 11
8.6808224128
 21
-22.6093606118
  0
LINE
  5
4D8
100
AcDbEntity
  8
0
100
AcDbLine
 62
250
  6
CONTINUOUS
 10
8.8807005782
 20
28.3691002906
 11
8.8807005782
 21
27.9384737159
  0
LINE
  5
4D9
100
AcDbEntity
  8
0
100
AcDbLine
 62
250
  6
CONTINUOUS
 10
8.8807005782
 20
-22.2615262841
 11
8.8807005782
 21
-22.6921528588
  0
LINE
  5
4DA
100
AcDbEntity
  8
RACCORDO
100
AcDbLine
 62
7
  6
CONTINUOUS
 10
8.5644260922
 20
-22.3138914789
 11
8.5669549303
 21
-22.16901444
  0
LINE
  5
4DB
100
AcDbEntity
  8
RACCORDO
100
AcDbLine
 62
7
  6
CONTINUOUS
 10
8.6107232988
 20
-19.6615262841
 11
8.6093980449
 21
-19.7374500339
  0
LWPOLYLINE
  5
4DC
100
AcDbEntity
  8
RACCORDO
100
AcDbPolyline
 62
250
  6
CONTINUOUS
 90
16
 70
0
 10
11.1847456497
 20
29.4691138877
 10
11.1863977423
 20
29.5004615946
 10
11.1913168302
 20
29.5314659826
 10
11.1994490397
 20
29.5617874926
 10
11.2107053072
 20
29.5910940446
 10
11.2249623544
 20
29.6190646742
 10
11.2420640386
 20
29.6453930481
 10
11.2618230629
 20
29.6697908189
 10
11.284023027
 20
29.691990783
 10
11.3084207978
 20
29.7117498073
 10
11.3347491717
 20
29.7288514915
 10
11.3627198014
 20
29.7431085387
 10
11.3920263533
 20
29.7543648062
 10
11.4223478634
 20
29.7624970158
 10
11.4533522513
 20
29.7674161036
 10
11.4846999582
 20
29.7690681962
  0
LINE
  5
4DD
100
AcDbEntity
  8
0
100
AcDbLine
 62
7
  6
CONTINUOUS
 10
3.1293551408
 20
-22.3252370717
 11
3.06534013
 21
-22.5641443444
  0
LINE
  5
4DE
100
AcDbEntity
  8
0
100
AcDbLine
 62
7
  6
CONTINUOUS
 10
-2.8594009451
 20
-32.7856878863
 11
-2.88465987
 21
-32.8615262841
  0
LINE
  5
4DF
100
AcDbEntity
  8
0
100
AcDbLine
 62
250
  6
CONTINUOUS
 10
15.31534013
 20
13.9053294044
 11
15.4148645005
 21
14.104372995
  0
LINE
  5
4E0
100
AcDbEntity
  8
0
100
AcDbLine
 62
250
  6
CONTINUOUS
 10
15.5153172847
 20
13.7053090925
 11
15.6148568851
 21
13.904403456
  0
LINE
  5
4E1
100
AcDbEntity
  8
DRAFT
100
AcDbLine
 62
7
  6
CONTINUOUS
 10
-11.63465987
 20
-8.0615262841
 11
-11.5523243474
 21
-8.0341034108
  0
LINE
  5
4E2
100
AcDbEntity
  8
DRAFT
100
AcDbLine
 62
7
  6
CONTINUOUS
 10
19.76534013
 20
2.2384737159
 11
19.6830046075
 21
2.2110508426
  0
LWPOLYLINE
  5
4E3
100
AcDbEntity
  8
0
100
AcDbPolyline
 62
250
  6
CONTINUOUS
 90
8
 70
0
 10
15.6148568851
 20
2.404403456
 10
15.6163087452
 20
2.4048563903
 10
15.6197783662
 20
2.4052972068
 10
15.625265748
 20
2.4057259056
 10
15.6328378436
 20
2.4061444678
 10
15.6424277001
 20
2.4065509121
 10
15.6538344584
 20
2.4069392953
 10
15.6670564876
 20
2.4073096359
  0
LINE
  5
4E4
100
AcDbEntity
  8
DRAFT
100
AcDbLine
 62
7
  6
CONTINUOUS
 10
-11.63465987
 20
13.7384737159
 11
-11.5523243474
 21
13.7110508426
  0
LINE
  5
4E5
100
AcDbEntity
  8
DRAFT
100
AcDbLine
 62
7
  6
CONTINUOUS
 10
19.76534013
 20
3.4384737159
 11
19.6830046075
 21
3.4658965892
  0
LINE
  5
4E6
100
AcDbEntity
  8
0
100
AcDbLine
 62
250
  6
CONTINUOUS
 10
15.4148645005
 20
-8.4274255632
 11
15.31534013
 21
-8.2283819726
  0
LINE
  5
4E7
100
AcDbEntity
  8
0
100
AcDbLine
 62
250
  6
CONTINUOUS
 10
15.6148568851
 20
-8.2274560242
 11
15.5153172847
 21
-8.0283616607
  0
LINE
  5
4E8
100
AcDbEntity
  8
0
100
AcDbLine
 62
7
  6
CONTINUOUS
 10
-2.8594009451
 20
38.4626353181
 11
-2.88465987
 21
38.5384737159
  0
LINE
  5
4E9
100
AcDbEntity
  8
0
100
AcDbLine
 62
7
  6
CONTINUOUS
 10
3.1293551408
 20
28.0021845035
 11
3.06534013
 21
28.2410917762
  0
LINE
  5
4EA
100
AcDbEntity
  8
0
100
AcDbLine
 62
7
  6
CONTINUOUS
 10
10.9900812052
 20
-32.7856878863
 11
10.9879213648
 21
-31.664120838
  0
LINE
  5
4EB
100
AcDbEntity
  8
RACCORDO
100
AcDbLine
 62
7
  6
CONTINUOUS
 10
10.9829986854
 20
-27.624463619
 11
10.9821755067
 21
-25.1615262841
  0
LINE
  5
4EC
100
AcDbEntity
  8
DRAFT
100
AcDbLine
 62
7
  6
CONTINUOUS
 10
10.9821755067
 20
30.8384737159
 11
10.9821755067
 21
27.9716383393
  0
LINE
  5
4ED
100
AcDbEntity
  8
DRAFT
100
AcDbLine
 62
7
  6
CONTINUOUS
 10
10.9821755067
 20
-25.1615262841
 11
10.9821755067
 21
-22.2946909075
  0
LINE
  5
4EE
100
AcDbEntity
  8
RACCORDO
100
AcDbLine
 62
7
  6
CONTINUOUS
 10
11.01534013
 20
33.5391682943
 11
11.01534013
 21
29.6385194073
  0
LINE
  5
4EF
100
AcDbEntity
  8
0
100
AcDbLine
 62
7
  6
CONTINUOUS
 10
11.01534013
 20
-32.8615262841
 11
11.01534013
 21
-31.4608317057
  0
LINE
  5
4F0
100
AcDbEntity
  8
RACCORDO
100
AcDbLine
 62
7
  6
CONTINUOUS
 10
11.01534013
 20
-23.9615719756
 11
11.01534013
 21
-27.8622208626
  0
LINE
  5
4F1
100
AcDbEntity
  8
0
100
AcDbLine
 62
7
  6
CONTINUOUS
 10
11.01534013
 20
37.1377791374
 11
11.01534013
 21
38.5384737159
  0
LINE
  5
4F2
100
AcDbEntity
  8
RACCORDO
100
AcDbLine
 62
250
  6
CONTINUOUS
 10
11.1847456497
 20
29.4691138877
 11
11.1847456497
 21
27.7690681962
  0
LINE
  5
4F3
100
AcDbEntity
  8
RACCORDO
100
AcDbLine
 62
250
  6
CONTINUOUS
 10
11.1847456497
 20
-22.0921207644
 11
11.1847456497
 21
-23.7921664559
  0
LINE
  5
4F4
100
AcDbEntity
  8
RACCORDO
100
AcDbLine
 62
250
  6
CONTINUOUS
 10
11.4846999582
 20
-21.7921664559
 11
11.4846999582
 21
-24.0921207644
  0
LINE
  5
4F5
100
AcDbEntity
  8
RACCORDO
100
AcDbLine
 62
250
  6
CONTINUOUS
 10
11.4846999582
 20
27.4691138877
 11
11.4846999582
 21
29.7690681962
  0
LINE
  5
4F6
100
AcDbEntity
  8
0
100
AcDbLine
 62
250
  6
CONTINUOUS
 10
11.9664354826
 20
29.4691138877
 11
11.9664354826
 21
26.3895690685
  0
LINE
  5
4F7
100
AcDbEntity
  8
0
100
AcDbLine
 62
250
  6
CONTINUOUS
 10
11.9664354826
 20
-20.7126216367
 11
11.9664354826
 21
-23.7921664559
  0
LINE
  5
4F8
100
AcDbEntity
  8
0
100
AcDbLine
 62
250
  6
CONTINUOUS
 10
12.1664050217
 20
29.1908693716
 11
12.1664050217
 21
26.5895386075
  0
LINE
  5
4F9
100
AcDbEntity
  8
0
100
AcDbLine
 62
250
  6
CONTINUOUS
 10
12.1664050217
 20
-20.9125911757
 11
12.1664050217
 21
-23.5139219399
  0
LINE
  5
4FA
100
AcDbEntity
  8
0
100
AcDbLine
 62
7
  6
CONTINUOUS
 10
12.21534013
 20
-23.1615262841
 11
12.21534013
 21
-20.9615262841
  0
LINE
  5
4FB
100
AcDbEntity
  8
0
100
AcDbLine
 62
7
  6
CONTINUOUS
 10
12.21534013
 20
26.6384737159
 11
12.21534013
 21
28.8384737159
  0
LINE
  5
4FC
100
AcDbEntity
  8
RACCORDO
100
AcDbLine
 62
7
  6
CONTINUOUS
 10
10.9821755067
 20
30.8384737159
 11
10.9829986854
 21
33.3014110508
  0
LINE
  5
4FD
100
AcDbEntity
  8
0
100
AcDbLine
 62
7
  6
CONTINUOUS
 10
10.9900812052
 20
38.4626353181
 11
10.9879213648
 21
37.3410682698
  0
LINE
  5
4FE
100
AcDbEntity
  8
0
100
AcDbLine
 62
7
  6
CONTINUOUS
 10
3.16534013
 20
-24.3615262841
 11
3.286414074
 21
-23.9096721736
  0
LINE
  5
4FF
100
AcDbEntity
  8
0
100
AcDbLine
 62
250
  6
CONTINUOUS
 10
3.3750267462
 20
-24.0251544564
 11
3.2539528022
 21
-24.4770085669
  0
LINE
  5
500
100
AcDbEntity
  8
0
100
AcDbLine
 62
250
  6
CONTINUOUS
 10
3.5680942283
 20
-24.0768867323
 11
3.4073247129
 21
-24.6768867323
  0
LINE
  5
501
100
AcDbEntity
  8
0
100
AcDbLine
 62
250
  6
CONTINUOUS
 10
1.2189827319
 20
-24.215168886
 11
1.1711484042
 21
-24.3306511688
  0
LINE
  5
502
100
AcDbEntity
  8
0
100
AcDbLine
 62
250
  6
CONTINUOUS
 10
1.5723207474
 20
-24.3615262841
 11
1.5244864196
 21
-24.4770085669
  0
LWPOLYLINE
  5
503
100
AcDbEntity
  8
0
100
AcDbPolyline
 62
7
  6
CONTINUOUS
 90
7
 70
0
 10
-8.9682876927
 20
-19.8261092137
 10
-9.0010470152
 20
-19.8589640741
 10
-9.0196388679
 20
-19.877444976
 10
-9.0394324562
 20
-19.8973207373
 10
-9.0603365591
 20
-19.9184980006
 10
-9.0824423977
 20
-19.9406887447
 10
-9.1057499719
 20
-19.9636382529
  0
LINE
  5
504
100
AcDbEntity
  8
DRAFT
100
AcDbLine
 62
7
  6
CONTINUOUS
 10
-10.2654526132
 20
-20.8923190273
 11
-10.23465987
 21
-20.8615262841
  0
LWPOLYLINE
  5
505
100
AcDbEntity
  8
0
100
AcDbPolyline
 62
7
  6
CONTINUOUS
 90
6
 70
0
 10
-8.9057499707
 20
-19.7636458683
 10
-8.9070461089
 20
-19.7648322013
 10
-8.9102209441
 20
-19.7680195228
 10
-8.9152744765
 20
-19.7731627575
 10
-8.922248104
 20
-19.7801691109
 10
-8.9682876927
 20
-19.8261092137
  0
LWPOLYLINE
  5
506
100
AcDbEntity
  8
0
100
AcDbPolyline
 62
250
  6
CONTINUOUS
 90
8
 70
0
 10
-7.4841766251
 20
-8.2274560242
 10
-7.4856284852
 20
-8.2279089585
 10
-7.4890981061
 20
-8.2283497751
 10
-7.4945854879
 20
-8.2287784738
 10
-7.5021575836
 20
-8.229197036
 10
-7.5117474401
 20
-8.2296034803
 10
-7.5231541984
 20
-8.2299918635
 10
-7.5363762276
 20
-8.2303622041
  0
LWPOLYLINE
  5
507
100
AcDbEntity
  8
0
100
AcDbPolyline
 62
7
  6
CONTINUOUS
 90
7
 70
0
 10
-8.9687382486
 20
25.5036320578
 10
-9.0014751358
 20
25.5362825532
 10
-9.0198810975
 20
25.5547974498
 10
-9.0396755364
 20
25.5745112492
 10
-9.0607700003
 20
25.5953371583
 10
-9.0828785901
 20
25.6173619701
 10
-9.1057499719
 20
25.6405856847
  0
LWPOLYLINE
  5
508
100
AcDbEntity
  8
0
100
AcDbPolyline
 62
7
  6
CONTINUOUS
 90
3
 70
0
 10
-8.9315187248
 20
25.4664002046
 10
-8.9546765762
 20
25.489496459
 10
-8.9687382486
 20
25.5036320578
  0
LINE
  5
509
100
AcDbEntity
  8
DRAFT
100
AcDbLine
 62
7
  6
CONTINUOUS
 10
-10.2654526132
 20
26.5692664591
 11
-10.23465987
 21
26.5384737159
  0
LINE
  5
50A
100
AcDbEntity
  8
0
100
AcDbLine
 62
7
  6
CONTINUOUS
 10
-8.9155274453
 20
25.4503631581
 11
-8.9315187248
 21
25.4664002046
  0
LWPOLYLINE
  5
50B
100
AcDbEntity
  8
0
100
AcDbPolyline
 62
7
  6
CONTINUOUS
 90
3
 70
0
 10
-8.9057804328
 20
25.44060853
 10
-8.9070927718
 20
25.4419758082
 10
-8.9155274453
 20
25.4503631581
  0
LWPOLYLINE
  5
50C
100
AcDbEntity
  8
0
100
AcDbPolyline
 62
7
  6
CONTINUOUS
 90
25
 70
0
 10
-2.8523184253
 20
33.3014110508
 10
-2.7868854296
 20
33.1647240454
 10
-2.717210706
 20
33.0301365507
 10
-2.6433615709
 20
32.8977805903
 10
-2.5654085911
 20
32.7677853899
 10
-2.4834280888
 20
32.6402792248
 10
-2.3975022633
 20
32.5153890192
 10
-2.3077143899
 20
32.3932369179
 10
-2.2141520531
 20
32.2739428695
 10
-2.1169100101
 20
32.1576259192
 10
-2.0160848351
 20
32.0444016345
 10
-1.9117733541
 20
31.9343786387
 10
-1.8040758431
 20
31.8276608126
 10
-1.6931007161
 20
31.7243558393
 10
-1.578952578
 20
31.6245612755
 10
-1.4617292449
 20
31.5283621435
 10
-1.3415454639
 20
31.4358551293
 10
-1.2185155041
 20
31.3471306511
 10
-1.0927382129
 20
31.2622620058
 10
-0.9643338028
 20
31.181335521
 10
-0.8334252298
 20
31.1044338616
 10
-0.7001168123
 20
31.031622974
 10
-0.5645282763
 20
30.9629757163
 10
-0.4267960794
 20
30.8985696214
 10
-0.2870521304
 20
30.8384737159
  0
LINE
  5
50D
100
AcDbEntity
  8
0
100
AcDbLine
 62
250
  6
CONTINUOUS
 10
1.2189827319
 20
29.8921163178
 11
1.1711484042
 21
30.0075986006
  0
LINE
  5
50E
100
AcDbEntity
  8
0
100
AcDbLine
 62
250
  6
CONTINUOUS
 10
1.5723207474
 20
30.0384737159
 11
1.5244864196
 21
30.1539559987
  0
LWPOLYLINE
  5
50F
100
AcDbEntity
  8
0
100
AcDbPolyline
 62
250
  6
CONTINUOUS
 90
13
 70
0
 10
3.3750267462
 20
29.7021018882
 10
3.381821579
 20
29.6814052943
 10
3.3908275169
 20
29.6615684565
 10
3.4019376552
 20
29.6428268427
 10
3.4150200977
 20
29.6254029366
 10
3.4299195614
 20
29.6095035433
 10
3.4464592373
 20
29.5953173506
 10
3.4644428376
 20
29.5830127493
 10
3.4836568752
 20
29.5727358402
 10
3.5038732423
 20
29.5646086452
 10
3.5248519505
 20
29.5587276469
 10
3.546343986
 20
29.5551626565
 10
3.5680942283
 20
29.5539559987
  0
LINE
  5
510
100
AcDbEntity
  8
0
100
AcDbLine
 62
7
  6
CONTINUOUS
 10
3.16534013
 20
30.0384737159
 11
3.286414074
 21
29.5866196054
  0
LINE
  5
511
100
AcDbEntity
  8
0
100
AcDbLine
 62
250
  6
CONTINUOUS
 10
3.2539528022
 20
30.1539559987
 11
3.3750267462
 21
29.7021018882
  0
LINE
  5
512
100
AcDbEntity
  8
0
100
AcDbLine
 62
250
  6
CONTINUOUS
 10
3.4073247129
 20
30.3538341641
 11
3.5680942283
 21
29.7538341641
  0
LWPOLYLINE
  5
513
100
AcDbEntity
  8
RACCORDO
100
AcDbPolyline
 62
7
  6
CONTINUOUS
 90
19
 70
0
 10
18.3854618334
 20
-30.1812793554
 10
18.3986693493
 20
-30.3040506485
 10
18.4041847027
 20
-30.4269730517
 10
18.4020078938
 20
-30.5500465649
 10
18.3920451293
 20
-30.6740394081
 10
18.3743902023
 20
-30.7981833613
 10
18.3493244928
 20
-30.9201737651
 10
18.3167894593
 20
-31.0395748283
 10
18.2768436431
 20
-31.1568223422
 10
18.2299440484
 20
-31.2709190212
 10
18.1760914952
 20
-31.3818547966
 10
18.1152851634
 20
-31.4896397372
 10
18.0479795963
 20
-31.5933067635
 10
17.9738351656
 20
-31.6930916292
 10
17.8931914996
 20
-31.7887585806
 10
17.8075220268
 20
-31.878633278
 10
17.71731789
 20
-31.9621576081
 10
17.6220879463
 20
-32.0398896842
 10
17.5218321958
 20
-32.1118295062
  0
LWPOLYLINE
  5
514
100
AcDbEntity
  8
0
100
AcDbPolyline
 62
250
  6
CONTINUOUS
 90
13
 70
0
 10
15.4148645005
 20
-8.895627005
 10
15.4165792066
 20
-8.9217265071
 10
15.42168601
 20
-8.9473793916
 10
15.4300975015
 20
-8.9721468022
 10
15.4416697477
 20
-8.9956050561
 10
15.4562047319
 20
-9.0173528422
 10
15.4734537235
 20
-9.0370180981
 10
15.4931215851
 20
-9.0542644447
 10
15.514871822
 20
-9.0687969051
 10
15.5383322956
 20
-9.0803669195
 10
15.5631016367
 20
-9.0887766316
 10
15.5887561196
 20
-9.0938822603
 10
15.6148568851
 20
-9.095596544
  0
LWPOLYLINE
  5
515
100
AcDbEntity
  8
0
100
AcDbPolyline
 62
250
  6
CONTINUOUS
 90
13
 70
0
 10
15.4148645005
 20
2.604372995
 10
15.4165792066
 20
2.5782734929
 10
15.42168601
 20
2.5526206084
 10
15.4300975015
 20
2.5278531978
 10
15.4416697477
 20
2.5043949439
 10
15.4562047319
 20
2.4826471578
 10
15.4734537235
 20
2.4629819019
 10
15.4931215851
 20
2.4457355553
 10
15.514871822
 20
2.4312030949
 10
15.5383322956
 20
2.4196330805
 10
15.5631016367
 20
2.4112233684
 10
15.5887561196
 20
2.4061177397
 10
15.6148568851
 20
2.404403456
  0
LINE
  5
516
100
AcDbEntity
  8
0
100
AcDbLine
 62
7
  6
CONTINUOUS
 10
15.31534013
 20
-19.6615262841
 11
15.31534013
 21
25.3384737159
  0
LWPOLYLINE
  5
517
100
AcDbEntity
  8
0
100
AcDbPolyline
 62
7
  6
CONTINUOUS
 90
16
 70
0
 10
15.31534013
 20
14.7716383381
 10
15.3165344436
 20
14.7929146439
 10
15.3197973561
 20
14.8135180771
 10
15.3251288676
 20
14.8334486379
 10
15.3326320529
 20
14.8529083874
 10
15.3422038372
 20
14.8716952643
 10
15.3535349956
 20
14.8892030855
 10
15.3666828141
 20
14.9053900436
 10
15.3815900068
 20
14.9202979459
 10
15.3977754914
 20
14.9334460306
 10
15.4152808732
 20
14.9447769517
 10
15.434064547
 20
14.9543480552
 10
15.4535206149
 20
14.9618506181
 10
15.4734471108
 20
14.9671817325
 10
15.4940460007
 20
14.9704443062
 10
15.5153172847
 20
14.9716383393
  0
LWPOLYLINE
  5
518
100
AcDbEntity
  8
0
100
AcDbPolyline
 62
7
  6
CONTINUOUS
 90
16
 70
0
 10
15.31534013
 20
3.2716383381
 10
15.3165344436
 20
3.2929146439
 10
15.3197973561
 20
3.3135180771
 10
15.3251288676
 20
3.3334486379
 10
15.3326320529
 20
3.3529083874
 10
15.3422038372
 20
3.3716952643
 10
15.3535349956
 20
3.3892030855
 10
15.3666828141
 20
3.4053900436
 10
15.3815900068
 20
3.4202979459
 10
15.3977754914
 20
3.4334460306
 10
15.4152808732
 20
3.4447769517
 10
15.434064547
 20
3.4543480552
 10
15.4535206149
 20
3.4618506181
 10
15.4734471108
 20
3.4671817325
 10
15.4940460007
 20
3.4704443062
 10
15.5153172847
 20
3.4716383393
  0
LWPOLYLINE
  5
519
100
AcDbEntity
  8
0
100
AcDbPolyline
 62
250
  6
CONTINUOUS
 90
13
 70
0
 10
15.4148645005
 20
14.5725744368
 10
15.4165791071
 20
14.5986731835
 10
15.4216856446
 20
14.6243254599
 10
15.4300967556
 20
14.6490924334
 10
15.4416685515
 20
14.6725504161
 10
15.4562030741
 20
14.6942981133
 10
15.4734516817
 20
14.7139634879
 10
15.493119303
 20
14.7312101251
 10
15.5148694847
 20
14.7457429871
 10
15.5383301474
 20
14.757313461
 10
15.5630999501
 20
14.7657236111
 10
15.588755157
 20
14.7708295651
 10
15.6148568851
 20
14.7725439758
  0
LWPOLYLINE
  5
51A
100
AcDbEntity
  8
0
100
AcDbPolyline
 62
250
  6
CONTINUOUS
 90
13
 70
0
 10
15.4148645005
 20
3.0725744368
 10
15.4165791071
 20
3.0986731835
 10
15.4216856446
 20
3.1243254599
 10
15.4300967556
 20
3.1490924334
 10
15.4416685515
 20
3.1725504161
 10
15.4562030741
 20
3.1942981133
 10
15.4734516817
 20
3.2139634879
 10
15.493119303
 20
3.2312101251
 10
15.5148694847
 20
3.2457429871
 10
15.5383301474
 20
3.257313461
 10
15.5630999501
 20
3.2657236111
 10
15.588755157
 20
3.2708295651
 10
15.6148568851
 20
3.2725439758
  0
LWPOLYLINE
  5
51B
100
AcDbEntity
  8
RACCORDO
100
AcDbPolyline
 62
7
  6
CONTINUOUS
 90
19
 70
0
 10
18.2980008366
 20
35.8285849473
 10
18.3105652742
 20
35.9444965615
 10
18.3163413091
 20
36.0620765659
 10
18.3150679838
 20
36.1812762154
 10
18.3064058456
 20
36.3025773611
 10
18.2901269545
 20
36.4252776156
 10
18.2662029171
 20
36.5474722404
 10
18.2343194478
 20
36.6687161865
 10
18.1943831933
 20
36.7889428761
 10
18.146853782
 20
36.9067574342
 10
18.0915574852
 20
37.0217565418
 10
18.0284704663
 20
37.1336706497
 10
17.9584424777
 20
37.2413247014
 10
17.8815054716
 20
37.3442540833
 10
17.7976906324
 20
37.4422245021
 10
17.707994125
 20
37.5344874641
 10
17.6128592322
 20
37.6206078899
 10
17.5121243551
 20
37.7004001557
 10
17.4059539302
 20
37.7735427614
  0
LWPOLYLINE
  5
51C
100
AcDbEntity
  8
RACCORDO
100
AcDbPolyline
 62
7
  6
CONTINUOUS
 90
22
 70
0
 10
18.2980008204
 20
35.8285848313
 10
18.2744564323
 20
35.6392771813
 10
18.256307175
 20
35.4558574212
 10
18.2430927562
 20
35.2784872275
 10
18.2343866178
 20
35.1077727373
 10
18.2297106972
 20
34.9433624008
 10
18.2286387082
 20
34.7839447298
 10
18.2308508032
 20
34.6295037833
 10
18.2360380255
 20
34.480196185
 10
18.2439626133
 20
34.3349472718
 10
18.2544093307
 20
34.1936053137
 10
18.2671449999
 20
34.0564027698
 10
18.2820099013
 20
33.9228328255
 10
18.2988535949
 20
33.7926624886
 10
18.3174684803
 20
33.6661688235
 10
18.3376332315
 20
33.5436016708
 10
18.358842779
 20
33.4266488468
 10
18.3811893337
 20
33.3136188181
 10
18.4055655973
 20
33.1997268574
 10
18.432401751
 20
33.0834262622
 10
18.4614189579
 20
32.9663597366
 10
18.4926677308
 20
32.848573259
  0
LINE
  5
51D
100
AcDbEntity
  8
0
100
AcDbLine
 62
7
  6
CONTINUOUS
 10
11.01534013
 20
-31.4608317057
 11
11.0093381816
 21
-31.5071337143
  0
LINE
  5
51E
100
AcDbEntity
  8
0
100
AcDbLine
 62
250
  6
CONTINUOUS
 10
15.31534013
 20
2.4053294044
 11
15.4148645005
 21
2.604372995
  0
LINE
  5
51F
100
AcDbEntity
  8
0
100
AcDbLine
 62
250
  6
CONTINUOUS
 10
15.5153172847
 20
2.2053090925
 11
15.6148568851
 21
2.404403456
  0
LINE
  5
520
100
AcDbEntity
  8
0
100
AcDbLine
 62
7
  6
CONTINUOUS
 10
-4.0357247616
 20
-20.9125911757
 11
-4.0345250733
 21
-20.911346633
  0
LINE
  5
521
100
AcDbEntity
  8
0
100
AcDbLine
 62
7
  6
CONTINUOUS
 10
17.0364606929
 20
2.4095942788
 11
17.0374579441
 21
2.410611367
  0
LINE
  5
522
100
AcDbEntity
  8
0
100
AcDbLine
 62
7
  6
CONTINUOUS
 10
17.2187236016
 20
2.5916140371
 11
17.2364302319
 21
2.6095638178
  0
LINE
  5
523
100
AcDbEntity
  8
0
100
AcDbLine
 62
7
  6
CONTINUOUS
 10
-9.2649689718
 20
-23.7769249842
 11
-9.2835645174
 21
-23.7957136392
  0
LINE
  5
524
100
AcDbEntity
  8
0
100
AcDbLine
 62
7
  6
CONTINUOUS
 10
-9.1433826645
 20
-23.6555317863
 11
-9.1553924677
 21
-23.6676534843
  0
LWPOLYLINE
  5
525
100
AcDbEntity
  8
0
100
AcDbPolyline
 62
7
  6
CONTINUOUS
 90
3
 70
0
 10
-4.010298254
 20
-20.8872532852
 10
-3.9871819518
 20
-20.864021282
 10
-3.973050979
 20
-20.8499691473
  0
LWPOLYLINE
  5
526
100
AcDbEntity
  8
0
100
AcDbPolyline
 62
7
  6
CONTINUOUS
 90
7
 70
0
 10
-3.973050979
 20
-20.8499691473
 10
-3.9403810424
 20
-20.8172182981
 10
-3.9218420787
 20
-20.7987888095
 10
-3.9020849719
 20
-20.7789513861
 10
-3.8811931985
 20
-20.7577899273
 10
-3.859083282
 20
-20.7355954421
 10
-3.8357552226
 20
-20.7126216367
  0
LINE
  5
527
100
AcDbEntity
  8
RACCORDO
100
AcDbLine
 62
250
  6
CONTINUOUS
 10
-10.23465987
 20
-23.9615719756
 11
-10.0652543503
 21
-23.7921664559
  0
LINE
  5
528
100
AcDbEntity
  8
0
100
AcDbLine
 62
7
  6
CONTINUOUS
 10
-9.03465987
 20
-23.1615262841
 11
-9.0782988615
 21
-23.2051652757
  0
LINE
  5
529
100
AcDbEntity
  8
RACCORDO
100
AcDbLine
 62
250
  6
CONTINUOUS
 10
-9.9347055614
 20
-24.2615262841
 11
-9.7653000418
 21
-24.0921207644
  0
LINE
  5
52A
100
AcDbEntity
  8
0
100
AcDbLine
 62
7
  6
CONTINUOUS
 10
17.0364606929
 20
2.4095942788
 11
16.8324316394
 21
2.2055652252
  0
LINE
  5
52B
100
AcDbEntity
  8
RACCORDO
100
AcDbLine
 62
250
  6
CONTINUOUS
 10
-10.2653959845
 20
-24.992338551
 11
-10.23465987
 21
-24.9616024365
  0
LINE
  5
52C
100
AcDbEntity
  8
DRAFT
100
AcDbLine
 62
7
  6
CONTINUOUS
 10
18.3961328732
 20
3.4692664591
 11
18.36534013
 21
3.4384737159
  0
LINE
  5
52D
100
AcDbEntity
  8
0
100
AcDbLine
 62
7
  6
CONTINUOUS
 10
-9.1568453245
 20
-24.2615262841
 11
-9.03465987
 21
-24.1393408296
  0
LINE
  5
52E
100
AcDbEntity
  8
RACCORDO
100
AcDbLine
 62
250
  6
CONTINUOUS
 10
-9.7662990088
 20
-25.4930892706
 11
-9.7347360224
 21
-25.4615262841
  0
LINE
  5
52F
100
AcDbEntity
  8
0
100
AcDbLine
 62
7
  6
CONTINUOUS
 10
-8.7174198838
 20
-25.4942862979
 11
-8.68465987
 21
-25.4615262841
  0
LINE
  5
530
100
AcDbEntity
  8
0
100
AcDbLine
 62
7
  6
CONTINUOUS
 10
-4.08465987
 20
-20.9615262841
 11
-4.0357247616
 21
-20.9125911757
  0
LWPOLYLINE
  5
531
100
AcDbEntity
  8
0
100
AcDbPolyline
 62
7
  6
CONTINUOUS
 90
3
 70
0
 10
17.0374579441
 20
2.410611367
 10
17.043691835
 20
2.4168254209
 10
17.0555593414
 20
2.4287496198
  0
LWPOLYLINE
  5
532
100
AcDbEntity
  8
0
100
AcDbPolyline
 62
7
  6
CONTINUOUS
 90
3
 70
0
 10
17.0555593414
 20
2.4287496198
 10
17.0634626091
 20
2.436596195
 10
17.166264253
 20
2.5394886997
  0
LINE
  5
533
100
AcDbEntity
  8
0
100
AcDbLine
 62
7
  6
CONTINUOUS
 10
-9.1553924677
 20
-23.6676534843
 11
-9.2649689718
 21
-23.7769249842
  0
LINE
  5
534
100
AcDbEntity
  8
0
100
AcDbLine
 62
7
  6
CONTINUOUS
 10
-4.0345250733
 20
-20.911346633
 11
-4.010298254
 21
-20.8872532852
  0
LINE
  5
535
100
AcDbEntity
  8
0
100
AcDbLine
 62
7
  6
CONTINUOUS
 10
17.166264253
 20
2.5394886997
 11
17.2187236016
 21
2.5916140371
  0
LWPOLYLINE
  5
536
100
AcDbEntity
  8
0
100
AcDbPolyline
 62
250
  6
CONTINUOUS
 90
6
 70
0
 10
15.4148645005
 20
14.1043729248
 10
15.4170727104
 20
14.1048260162
 10
15.4228901955
 20
14.1052669262
 10
15.4322126047
 20
14.1056956548
 10
15.4448851176
 20
14.1061141481
 10
15.4607734217
 20
14.10652046
  0
LINE
  5
537
100
AcDbEntity
  8
0
100
AcDbLine
 62
250
  6
CONTINUOUS
 10
15.6670564876
 20
13.9073096359
 11
15.6987552848
 21
13.9079901342
  0
LINE
  5
538
100
AcDbEntity
  8
0
100
AcDbLine
 62
250
  6
CONTINUOUS
 10
15.4607734217
 20
14.10652046
 11
15.5019123121
 21
14.1072790936
  0
LINE
  5
539
100
AcDbEntity
  8
0
100
AcDbLine
 62
250
  6
CONTINUOUS
 10
15.6987552848
 20
13.9079901342
 11
15.7368391298
 21
13.9085742334
  0
LINE
  5
53A
100
AcDbEntity
  8
0
100
AcDbLine
 62
250
  6
CONTINUOUS
 10
15.5019123121
 20
14.1072790936
 11
15.5851469713
 21
14.1082637757
  0
LINE
  5
53B
100
AcDbEntity
  8
0
100
AcDbLine
 62
250
  6
CONTINUOUS
 10
15.7368391298
 20
13.9085742334
 11
15.8061660122
 21
13.9092384286
  0
LINE
  5
53C
100
AcDbEntity
  8
0
100
AcDbLine
 62
250
  6
CONTINUOUS
 10
15.5851469713
 20
14.1082637757
 11
15.733547208
 21
14.1092079194
  0
LINE
  5
53D
100
AcDbEntity
  8
0
100
AcDbLine
 62
250
  6
CONTINUOUS
 10
15.8061660122
 20
13.9092384286
 11
15.8861796684
 21
13.9095664989
  0
LINE
  5
53E
100
AcDbEntity
  8
0
100
AcDbLine
 62
7
  6
CONTINUOUS
 10
16.06534013
 20
13.7053090925
 11
15.5153172847
 21
13.7053090925
  0
LINE
  5
53F
100
AcDbEntity
  8
0
100
AcDbLine
 62
7
  6
CONTINUOUS
 10
-7.3846370247
 20
13.7053090925
 11
-7.93465987
 21
13.7053090925
  0
LINE
  5
540
100
AcDbEntity
  8
DRAFT
100
AcDbLine
 62
7
  6
CONTINUOUS
 10
19.76534013
 20
13.7384737159
 11
18.36534013
 21
13.7384737159
  0
LINE
  5
541
100
AcDbEntity
  8
DRAFT
100
AcDbLine
 62
7
  6
CONTINUOUS
 10
-10.23465987
 20
13.7384737159
 11
-11.63465987
 21
13.7384737159
  0
LINE
  5
542
100
AcDbEntity
  8
0
100
AcDbLine
 62
250
  6
CONTINUOUS
 10
15.8861796684
 20
13.9095664989
 11
17.0364606929
 21
13.9095942788
  0
LINE
  5
543
100
AcDbEntity
  8
0
100
AcDbLine
 62
250
  6
CONTINUOUS
 10
15.733547208
 20
14.1092079194
 11
17.2364302319
 21
14.1095638178
  0
LINE
  5
544
100
AcDbEntity
  8
0
100
AcDbLine
 62
250
  6
CONTINUOUS
 10
-8.9057804328
 20
13.9095942788
 11
-7.7085768619
 21
13.9094253348
  0
LINE
  5
545
100
AcDbEntity
  8
0
100
AcDbLine
 62
250
  6
CONTINUOUS
 10
-9.1057499719
 20
14.1095638178
 11
-7.579221381
 21
14.1091031986
  0
LINE
  5
546
100
AcDbEntity
  8
0
100
AcDbLine
 62
250
  6
CONTINUOUS
 10
-7.7085768619
 20
13.9094253348
 11
-7.6387843332
 21
13.9089383223
  0
LINE
  5
547
100
AcDbEntity
  8
0
100
AcDbLine
 62
250
  6
CONTINUOUS
 10
-7.579221381
 20
14.1091031986
 11
-7.4408815427
 21
14.1081345985
  0
LINE
  5
548
100
AcDbEntity
  8
0
100
AcDbLine
 62
250
  6
CONTINUOUS
 10
-7.6387843332
 20
13.9089383223
 11
-7.5971522786
 21
13.9084526428
  0
LINE
  5
549
100
AcDbEntity
  8
0
100
AcDbLine
 62
250
  6
CONTINUOUS
 10
-7.4408815427
 20
14.1081345985
 11
-7.3845606223
 21
14.1074740855
  0
LWPOLYLINE
  5
54A
100
AcDbEntity
  8
0
100
AcDbPolyline
 62
250
  6
CONTINUOUS
 90
10
 70
0
 10
-7.5971522786
 20
13.9084526428
 10
-7.5605752555
 20
13.9078492613
 10
-7.5443029707
 20
13.9075046227
 10
-7.5297328743
 20
13.9071321918
 10
-7.5167828767
 20
13.906729083
 10
-7.5055350675
 20
13.906298182
 10
-7.4965904386
 20
13.9058491979
 10
-7.4901493205
 20
13.905385367
 10
-7.4860113827
 20
13.904903453
 10
-7.4841766251
 20
13.904403456
  0
LWPOLYLINE
  5
54B
100
AcDbEntity
  8
0
100
AcDbPolyline
 62
250
  6
CONTINUOUS
 90
7
 70
0
 10
-7.3845606223
 20
14.1074740855
 10
-7.3383706807
 20
14.1066986619
 10
-7.3198268487
 20
14.1062679188
 10
-7.3048739289
 20
14.1058190129
 10
-7.293798818
 20
14.1053551384
 10
-7.2868283014
 20
14.1048731012
 10
-7.2841842404
 20
14.1043729012
  0
LINE
  5
54C
100
AcDbEntity
  8
0
100
AcDbLine
 62
7
  6
CONTINUOUS
 10
-9.2647758624
 20
29.4540655254
 11
-9.2835645174
 21
29.472661071
  0
LINE
  5
54D
100
AcDbEntity
  8
0
100
AcDbLine
 62
7
  6
CONTINUOUS
 10
-9.1433826645
 20
29.3324792181
 11
-9.1555043625
 21
29.3444890213
  0
LWPOLYLINE
  5
54E
100
AcDbEntity
  8
0
100
AcDbPolyline
 62
7
  6
CONTINUOUS
 90
3
 70
0
 10
-4.0103868711
 20
26.5641120999
 10
-3.9871548679
 20
26.5409957977
 10
-3.9731027331
 20
26.5268648249
  0
LWPOLYLINE
  5
54F
100
AcDbEntity
  8
0
100
AcDbPolyline
 62
7
  6
CONTINUOUS
 90
7
 70
0
 10
-3.9731027331
 20
26.5268648249
 10
-3.9403518839
 20
26.4941948883
 10
-3.9219223953
 20
26.4756559246
 10
-3.9020849719
 20
26.4558988179
 10
-3.8809235131
 20
26.4350070444
 10
-3.8587290279
 20
26.4128971279
 10
-3.8357552226
 20
26.3895690685
  0
LINE
  5
550
100
AcDbEntity
  8
RACCORDO
100
AcDbLine
 62
250
  6
CONTINUOUS
 10
-10.0652543503
 20
29.4691138877
 11
-10.23465987
 21
29.6385194073
  0
LINE
  5
551
100
AcDbEntity
  8
0
100
AcDbLine
 62
7
  6
CONTINUOUS
 10
-9.03465987
 20
28.8384737159
 11
-9.0782988615
 21
28.8821127075
  0
LINE
  5
552
100
AcDbEntity
  8
RACCORDO
100
AcDbLine
 62
250
  6
CONTINUOUS
 10
-9.7653000418
 20
29.7690681962
 11
-9.9347055614
 21
29.9384737159
  0
LINE
  5
553
100
AcDbEntity
  8
0
100
AcDbLine
 62
7
  6
CONTINUOUS
 10
17.0364606929
 20
3.267353153
 11
16.8324316394
 21
3.4713822065
  0
LWPOLYLINE
  5
554
100
AcDbEntity
  8
0
100
AcDbPolyline
 62
7
  6
CONTINUOUS
 90
3
 70
0
 10
17.04369412
 20
3.260119726
 10
17.0374574175
 20
3.2663397955
 10
17.0364606929
 20
3.267353153
  0
LINE
  5
555
100
AcDbEntity
  8
RACCORDO
100
AcDbLine
 62
250
  6
CONTINUOUS
 10
-10.2653959845
 20
30.6692859828
 11
-10.23465987
 21
30.6385498683
  0
LINE
  5
556
100
AcDbEntity
  8
DRAFT
100
AcDbLine
 62
7
  6
CONTINUOUS
 10
18.3961328732
 20
2.2076809727
 11
18.36534013
 21
2.2384737159
  0
LINE
  5
557
100
AcDbEntity
  8
0
100
AcDbLine
 62
7
  6
CONTINUOUS
 10
-9.1568453245
 20
29.9384737159
 11
-9.03465987
 21
29.8162882614
  0
LINE
  5
558
100
AcDbEntity
  8
RACCORDO
100
AcDbLine
 62
250
  6
CONTINUOUS
 10
-9.7662990088
 20
31.1700367023
 11
-9.7347360224
 21
31.1384737159
  0
LINE
  5
559
100
AcDbEntity
  8
0
100
AcDbLine
 62
7
  6
CONTINUOUS
 10
-8.7174198838
 20
31.1712337297
 11
-8.68465987
 21
31.1384737159
  0
LINE
  5
55A
100
AcDbEntity
  8
0
100
AcDbLine
 62
7
  6
CONTINUOUS
 10
-4.08465987
 20
26.6384737159
 11
-4.0357247616
 21
26.5895386075
  0
LINE
  5
55B
100
AcDbEntity
  8
0
100
AcDbLine
 62
7
  6
CONTINUOUS
 10
17.0555849846
 20
3.2481708065
 11
17.04369412
 21
3.260119726
  0
LWPOLYLINE
  5
55C
100
AcDbEntity
  8
0
100
AcDbPolyline
 62
7
  6
CONTINUOUS
 90
3
 70
0
 10
17.166257837
 20
3.137465099
 10
17.0725827926
 20
3.2312614023
 10
17.0555849846
 20
3.2481708065
  0
LINE
  5
55D
100
AcDbEntity
  8
0
100
AcDbLine
 62
7
  6
CONTINUOUS
 10
-9.1555043625
 20
29.3444890213
 11
-9.2647758624
 21
29.4540655254
  0
LINE
  5
55E
100
AcDbEntity
  8
0
100
AcDbLine
 62
7
  6
CONTINUOUS
 10
-4.0344802188
 20
26.5883389192
 11
-4.0103868711
 21
26.5641120999
  0
LWPOLYLINE
  5
55F
100
AcDbEntity
  8
0
100
AcDbPolyline
 62
7
  6
CONTINUOUS
 90
3
 70
0
 10
17.2364302319
 20
3.067383614
 10
17.2187094681
 20
3.0853466138
 10
17.166257837
 20
3.137465099
  0
LINE
  5
560
100
AcDbEntity
  8
0
100
AcDbLine
 62
250
  6
CONTINUOUS
 10
15.4148645005
 20
3.0725744368
 11
15.31534013
 21
3.2716180274
  0
LINE
  5
561
100
AcDbEntity
  8
0
100
AcDbLine
 62
250
  6
CONTINUOUS
 10
15.6148568851
 20
3.2725439758
 11
15.5153172847
 21
3.4716383393
  0
LINE
  5
562
100
AcDbEntity
  8
0
100
AcDbLine
 62
7
  6
CONTINUOUS
 10
11.01534013
 20
37.1377791374
 11
11.0093381816
 21
37.1840811461
  0
LWPOLYLINE
  5
563
100
AcDbEntity
  8
0
100
AcDbPolyline
 62
250
  6
CONTINUOUS
 90
13
 70
0
 10
15.4148645005
 20
14.104372995
 10
15.4165792066
 20
14.0782734929
 10
15.42168601
 20
14.0526206084
 10
15.4300975015
 20
14.0278531978
 10
15.4416697477
 20
14.0043949439
 10
15.4562047319
 20
13.9826471578
 10
15.4734537235
 20
13.9629819019
 10
15.4931215851
 20
13.9457355553
 10
15.514871822
 20
13.9312030949
 10
15.5383322956
 20
13.9196330805
 10
15.5631016367
 20
13.9112233684
 10
15.5887561196
 20
13.9061177397
 10
15.6148568851
 20
13.904403456
  0
LINE
  5
564
100
AcDbEntity
  8
0
100
AcDbLine
 62
7
  6
CONTINUOUS
 10
16.8481001438
 20
31.1712337297
 11
16.8407068363
 21
38.0810185885
  0
LINE
  5
565
100
AcDbEntity
  8
0
100
AcDbLine
 62
7
  6
CONTINUOUS
 10
15.4148645005
 20
14.5725744368
 11
15.4148645005
 21
14.104372995
  0
LINE
  5
566
100
AcDbEntity
  8
0
100
AcDbLine
 62
7
  6
CONTINUOUS
 10
15.4148645005
 20
3.0725744368
 11
15.4148645005
 21
2.604372995
  0
LINE
  5
567
100
AcDbEntity
  8
0
100
AcDbLine
 62
7
  6
CONTINUOUS
 10
15.4148645005
 20
-8.4274255632
 11
15.4148645005
 21
-8.895627005
  0
LINE
  5
568
100
AcDbEntity
  8
0
100
AcDbLine
 62
250
  6
CONTINUOUS
 10
15.914845462
 20
-9.0904057212
 11
15.914845462
 21
-8.232646847
  0
LINE
  5
569
100
AcDbEntity
  8
0
100
AcDbLine
 62
250
  6
CONTINUOUS
 10
15.914845462
 20
2.4095942788
 11
15.914845462
 21
3.267353153
  0
LINE
  5
56A
100
AcDbEntity
  8
0
100
AcDbLine
 62
250
  6
CONTINUOUS
 10
15.914845462
 20
13.9095942788
 11
15.914845462
 21
14.767353153
  0
LINE
  5
56B
100
AcDbEntity
  8
INTF_2
100
AcDbLine
 62
7
  6
CONTINUOUS
 10
15.91534013
 20
-1.1052732841
 11
15.91534013
 21
-0.5740242841
  0
LINE
  5
56C
100
AcDbEntity
  8
INTF_2
100
AcDbLine
 62
7
  6
CONTINUOUS
 10
15.9153520935
 20
2.1884737159
 11
15.9153520935
 21
1.6572178317
  0
LINE
  5
56D
100
AcDbEntity
  8
INTF_2
100
AcDbLine
 62
7
  6
CONTINUOUS
 10
15.9153520935
 20
0.3822221232
 11
15.9153520935
 21
-0.149033761
  0
LINE
  5
56E
100
AcDbEntity
  8
INTF_2
100
AcDbLine
 62
7
  6
CONTINUOUS
 10
15.91535213
 20
-2.9163692841
 11
15.91535213
 21
-2.2293852841
  0
LINE
  5
56F
100
AcDbEntity
  8
DRAFT
100
AcDbLine
 62
250
  6
CONTINUOUS
 10
16.06534013
 20
25.3384737159
 11
16.06534013
 21
14.9716383393
  0
LINE
  5
570
100
AcDbEntity
  8
DRAFT
100
AcDbLine
 62
250
  6
CONTINUOUS
 10
16.06534013
 20
13.7053090925
 11
16.06534013
 21
3.4716383393
  0
LINE
  5
571
100
AcDbEntity
  8
DRAFT
100
AcDbLine
 62
250
  6
CONTINUOUS
 10
16.06534013
 20
2.2053090925
 11
16.06534013
 21
-8.0283616607
  0
LINE
  5
572
100
AcDbEntity
  8
DRAFT
100
AcDbLine
 62
250
  6
CONTINUOUS
 10
16.06534013
 20
-9.2946909075
 11
16.06534013
 21
-19.6615262841
  0
LINE
  5
573
100
AcDbEntity
  8
0
100
AcDbLine
 62
7
  6
CONTINUOUS
 10
16.81534013
 20
38.1754980288
 11
16.81534013
 21
31.1384737159
  0
LINE
  5
574
100
AcDbEntity
  8
0
100
AcDbLine
 62
7
  6
CONTINUOUS
 10
16.81534013
 20
-25.4615262841
 11
16.81534013
 21
-32.498550597
  0
LINE
  5
575
100
AcDbEntity
  8
DRAFT
100
AcDbLine
 62
7
  6
CONTINUOUS
 10
16.8324316394
 20
25.3386017725
 11
16.8324316394
 21
14.9713822065
  0
LINE
  5
576
100
AcDbEntity
  8
DRAFT
100
AcDbLine
 62
7
  6
CONTINUOUS
 10
16.8324316394
 20
13.7055652252
 11
16.8324316394
 21
3.4713822065
  0
LINE
  5
577
100
AcDbEntity
  8
DRAFT
100
AcDbLine
 62
7
  6
CONTINUOUS
 10
16.8324316394
 20
2.2055652252
 11
16.8324316394
 21
-8.0286177935
  0
LINE
  5
578
100
AcDbEntity
  8
DRAFT
100
AcDbLine
 62
7
  6
CONTINUOUS
 10
16.8324316394
 20
-9.2944347748
 11
16.8324316394
 21
-19.6616543407
  0
LINE
  5
579
100
AcDbEntity
  8
0
100
AcDbLine
 62
250
  6
CONTINUOUS
 10
17.0364606929
 20
-19.7636610982
 11
17.0364606929
 21
-9.0904057212
  0
LINE
  5
57A
100
AcDbEntity
  8
0
100
AcDbLine
 62
250
  6
CONTINUOUS
 10
17.0364606929
 20
-8.232646847
 11
17.0364606929
 21
2.4095942788
  0
LINE
  5
57B
100
AcDbEntity
  8
0
100
AcDbLine
 62
250
  6
CONTINUOUS
 10
17.0364606929
 20
3.267353153
 11
17.0364606929
 21
13.9095942788
  0
LINE
  5
57C
100
AcDbEntity
  8
0
100
AcDbLine
 62
250
  6
CONTINUOUS
 10
17.0364606929
 20
14.767353153
 11
17.0364606929
 21
25.44060853
  0
LINE
  5
57D
100
AcDbEntity
  8
0
100
AcDbLine
 62
7
  6
CONTINUOUS
 10
17.16534013
 20
28.8384737159
 11
17.16534013
 21
26.6384737159
  0
LINE
  5
57E
100
AcDbEntity
  8
0
100
AcDbLine
 62
7
  6
CONTINUOUS
 10
17.16534013
 20
-20.9615262841
 11
17.16534013
 21
-23.1615262841
  0
LINE
  5
57F
100
AcDbEntity
  8
0
100
AcDbLine
 62
250
  6
CONTINUOUS
 10
17.2142752384
 20
-23.5139219399
 11
17.2142752384
 21
-20.9125911757
  0
LINE
  5
580
100
AcDbEntity
  8
0
100
AcDbLine
 62
250
  6
CONTINUOUS
 10
17.2142752384
 20
26.5895386075
 11
17.2142752384
 21
29.1908693716
  0
LINE
  5
581
100
AcDbEntity
  8
0
100
AcDbLine
 62
250
  6
CONTINUOUS
 10
17.2364302319
 20
-19.9636382529
 11
17.2364302319
 21
-8.8904361822
  0
LINE
  5
582
100
AcDbEntity
  8
0
100
AcDbLine
 62
250
  6
CONTINUOUS
 10
17.2364302319
 20
-8.432616386
 11
17.2364302319
 21
2.6095638178
  0
LINE
  5
583
100
AcDbEntity
  8
0
100
AcDbLine
 62
250
  6
CONTINUOUS
 10
17.2364302319
 20
3.067383614
 11
17.2364302319
 21
14.1095638178
  0
LINE
  5
584
100
AcDbEntity
  8
0
100
AcDbLine
 62
250
  6
CONTINUOUS
 10
17.2364302319
 20
14.567383614
 11
17.2364302319
 21
25.6405856847
  0
LINE
  5
585
100
AcDbEntity
  8
0
100
AcDbLine
 62
250
  6
CONTINUOUS
 10
17.4142447774
 20
-23.7921664559
 11
17.4142447774
 21
-20.7126216367
  0
LINE
  5
586
100
AcDbEntity
  8
0
100
AcDbLine
 62
250
  6
CONTINUOUS
 10
17.4142447774
 20
26.3895690685
 11
17.4142447774
 21
29.4691138877
  0
LINE
  5
587
100
AcDbEntity
  8
RACCORDO
100
AcDbLine
 62
250
  6
CONTINUOUS
 10
17.8959803018
 20
-24.0921207644
 11
17.8959803018
 21
29.7690681962
  0
LINE
  5
588
100
AcDbEntity
  8
0
100
AcDbLine
 62
7
  6
CONTINUOUS
 10
16.8425992077
 20
-31.3801859889
 11
16.8481001438
 21
-25.4942862979
  0
LINE
  5
589
100
AcDbEntity
  8
0
100
AcDbLine
 62
7
  6
CONTINUOUS
 10
16.8407068363
 20
-32.4040711567
 11
16.8425992077
 21
-31.3801859889
  0
LWPOLYLINE
  5
58A
100
AcDbEntity
  8
0
100
AcDbPolyline
 62
7
  6
CONTINUOUS
 90
16
 70
0
 10
15.31534013
 20
-8.2283616619
 10
15.3165344436
 20
-8.2070853561
 10
15.3197973561
 20
-8.1864819229
 10
15.3251288676
 20
-8.1665513621
 10
15.3326320529
 20
-8.1470916126
 10
15.3422038372
 20
-8.1283047357
 10
15.3535349956
 20
-8.1107969145
 10
15.3666828141
 20
-8.0946099564
 10
15.3815900068
 20
-8.0797020541
 10
15.3977754914
 20
-8.0665539694
 10
15.4152808732
 20
-8.0552230483
 10
15.434064547
 20
-8.0456519448
 10
15.4535206149
 20
-8.0381493819
 10
15.4734471108
 20
-8.0328182675
 10
15.4940460007
 20
-8.0295556938
 10
15.5153172847
 20
-8.0283616607
  0
LWPOLYLINE
  5
58B
100
AcDbEntity
  8
0
100
AcDbPolyline
 62
250
  6
CONTINUOUS
 90
13
 70
0
 10
15.4148645005
 20
-8.4274255632
 10
15.4165791071
 20
-8.4013268165
 10
15.4216856446
 20
-8.3756745401
 10
15.4300967556
 20
-8.3509075666
 10
15.4416685515
 20
-8.3274495839
 10
15.4562030741
 20
-8.3057018867
 10
15.4734516817
 20
-8.2860365121
 10
15.493119303
 20
-8.2687898749
 10
15.5148694847
 20
-8.2542570129
 10
15.5383301474
 20
-8.242686539
 10
15.5630999501
 20
-8.2342763889
 10
15.588755157
 20
-8.2291704349
 10
15.6148568851
 20
-8.2274560242
  0
LINE
  5
58C
100
AcDbEntity
  8
0
100
AcDbLine
 62
7
  6
CONTINUOUS
 10
11.0093381816
 20
-31.5071337143
 11
11.000237298
 21
-31.5753333032
  0
LWPOLYLINE
  5
58D
100
AcDbEntity
  8
0
100
AcDbPolyline
 62
7
  6
CONTINUOUS
 90
3
 70
0
 10
11.000237298
 20
-31.5753333032
 10
10.991019731
 20
-31.6421463469
 10
10.9879213648
 20
-31.664120838
  0
LINE
  5
58E
100
AcDbEntity
  8
INTF_2
100
AcDbLine
 62
7
  6
CONTINUOUS
 10
15.91535213
 20
-2.2293852841
 11
16.79999813
 21
-1.1052732841
  0
LINE
  5
58F
100
AcDbEntity
  8
INTF_2
100
AcDbLine
 62
7
  6
CONTINUOUS
 10
17.08138113
 20
-1.4347202841
 11
15.91535213
 21
-2.9163692841
  0
LINE
  5
590
100
AcDbEntity
  8
0
100
AcDbLine
 62
250
  6
CONTINUOUS
 10
-10.3619874708
 20
-27.1716258272
 11
-9.6321901178
 21
-26.4741506886
  0
LINE
  5
591
100
AcDbEntity
  8
0
100
AcDbLine
 62
250
  6
CONTINUOUS
 10
-9.6321901178
 20
-26.4741506886
 11
-9.0836781561
 21
-25.9519335718
  0
LINE
  5
592
100
AcDbEntity
  8
0
100
AcDbLine
 62
250
  6
CONTINUOUS
 10
-9.0836781561
 20
-25.9519335718
 11
-8.7173980389
 21
-25.6045922309
  0
LWPOLYLINE
  5
593
100
AcDbEntity
  8
0
100
AcDbPolyline
 62
250
  6
CONTINUOUS
 90
6
 70
0
 10
-7.2841842404
 20
14.5725745069
 10
-7.2863924503
 20
14.5721214156
 10
-7.2922099354
 20
14.5716805056
 10
-7.3015323446
 20
14.571251777
 10
-7.3142048575
 20
14.5708332837
 10
-7.3300931616
 20
14.5704269717
  0
LINE
  5
594
100
AcDbEntity
  8
0
100
AcDbLine
 62
250
  6
CONTINUOUS
 10
-7.5363762276
 20
14.7696377959
 11
-7.5680750248
 21
14.7689572976
  0
LINE
  5
595
100
AcDbEntity
  8
0
100
AcDbLine
 62
250
  6
CONTINUOUS
 10
-7.3300931616
 20
14.5704269717
 11
-7.371232052
 21
14.5696683382
  0
LINE
  5
596
100
AcDbEntity
  8
0
100
AcDbLine
 62
250
  6
CONTINUOUS
 10
-7.5680750248
 20
14.7689572976
 11
-7.6061588698
 21
14.7683731983
  0
LINE
  5
597
100
AcDbEntity
  8
0
100
AcDbLine
 62
250
  6
CONTINUOUS
 10
-7.371232052
 20
14.5696683382
 11
-7.4544667113
 21
14.5686836561
  0
LINE
  5
598
100
AcDbEntity
  8
0
100
AcDbLine
 62
250
  6
CONTINUOUS
 10
-7.6061588698
 20
14.7683731983
 11
-7.6754857521
 21
14.7677090032
  0
LINE
  5
599
100
AcDbEntity
  8
0
100
AcDbLine
 62
250
  6
CONTINUOUS
 10
-7.4544667113
 20
14.5686836561
 11
-7.6028669479
 21
14.5677395124
  0
LINE
  5
59A
100
AcDbEntity
  8
0
100
AcDbLine
 62
250
  6
CONTINUOUS
 10
-7.6754857521
 20
14.7677090032
 11
-7.7554994084
 21
14.7673809328
  0
LINE
  5
59B
100
AcDbEntity
  8
0
100
AcDbLine
 62
250
  6
CONTINUOUS
 10
-7.6028669479
 20
14.5677395124
 11
-9.1057499719
 21
14.567383614
  0
LINE
  5
59C
100
AcDbEntity
  8
0
100
AcDbLine
 62
250
  6
CONTINUOUS
 10
-7.7554994084
 20
14.7673809328
 11
-8.9057804328
 21
14.767353153
  0
LINE
  5
59D
100
AcDbEntity
  8
DRAFT
100
AcDbLine
 62
7
  6
CONTINUOUS
 10
-11.63465987
 20
14.9384737159
 11
-10.23465987
 21
14.9384737159
  0
LINE
  5
59E
100
AcDbEntity
  8
DRAFT
100
AcDbLine
 62
7
  6
CONTINUOUS
 10
18.36534013
 20
14.9384737159
 11
19.76534013
 21
14.9384737159
  0
LINE
  5
59F
100
AcDbEntity
  8
0
100
AcDbLine
 62
7
  6
CONTINUOUS
 10
16.06534013
 20
14.9716383393
 11
15.5153172847
 21
14.9716383393
  0
LINE
  5
5A0
100
AcDbEntity
  8
0
100
AcDbLine
 62
7
  6
CONTINUOUS
 10
-7.3846370247
 20
14.9716383393
 11
-7.93465987
 21
14.9716383393
  0
LINE
  5
5A1
100
AcDbEntity
  8
0
100
AcDbLine
 62
250
  6
CONTINUOUS
 10
17.0364606929
 20
14.767353153
 11
15.8392571219
 21
14.767522097
  0
LINE
  5
5A2
100
AcDbEntity
  8
0
100
AcDbLine
 62
250
  6
CONTINUOUS
 10
17.2364302319
 20
14.567383614
 11
15.7099016411
 21
14.5678442332
  0
LINE
  5
5A3
100
AcDbEntity
  8
0
100
AcDbLine
 62
250
  6
CONTINUOUS
 10
15.8392571219
 20
14.767522097
 11
15.7694645932
 21
14.7680091095
  0
LINE
  5
5A4
100
AcDbEntity
  8
0
100
AcDbLine
 62
250
  6
CONTINUOUS
 10
15.7099016411
 20
14.5678442332
 11
15.5715618028
 21
14.5688128333
  0
LINE
  5
5A5
100
AcDbEntity
  8
0
100
AcDbLine
 62
250
  6
CONTINUOUS
 10
15.7694645932
 20
14.7680091095
 11
15.7278325387
 21
14.768494789
  0
LINE
  5
5A6
100
AcDbEntity
  8
0
100
AcDbLine
 62
250
  6
CONTINUOUS
 10
15.5715618028
 20
14.5688128333
 11
15.5152408823
 21
14.5694733462
  0
LWPOLYLINE
  5
5A7
100
AcDbEntity
  8
0
100
AcDbPolyline
 62
250
  6
CONTINUOUS
 90
10
 70
0
 10
15.7278325387
 20
14.768494789
 10
15.6912555156
 20
14.7690981705
 10
15.6749832308
 20
14.7694428091
 10
15.6604131344
 20
14.76981524
 10
15.6474631368
 20
14.7702183488
 10
15.6362153276
 20
14.7706492498
 10
15.6272706987
 20
14.7710982339
 10
15.6208295806
 20
14.7715620648
 10
15.6166916427
 20
14.7720439788
 10
15.6148568851
 20
14.7725439758
  0
LWPOLYLINE
  5
5A8
100
AcDbEntity
  8
0
100
AcDbPolyline
 62
250
  6
CONTINUOUS
 90
7
 70
0
 10
15.5152408823
 20
14.5694733462
 10
15.4690509408
 20
14.5702487699
 10
15.4505071088
 20
14.570679513
 10
15.4355541889
 20
14.5711284189
 10
15.4244790781
 20
14.5715922934
 10
15.4175085614
 20
14.5720743306
 10
15.4148645005
 20
14.5725745305
  0
LWPOLYLINE
  5
5A9
100
AcDbEntity
  8
0
100
AcDbPolyline
 62
7
  6
CONTINUOUS
 90
16
 70
0
 10
-7.3846370247
 20
14.9716383393
 10
-7.3633657407
 20
14.9704443062
 10
-7.3427668507
 20
14.9671817325
 10
-7.3228403548
 20
14.9618506181
 10
-7.3033842869
 20
14.9543480552
 10
-7.2846006131
 20
14.9447769517
 10
-7.2670952313
 20
14.9334460306
 10
-7.2509097467
 20
14.9202979459
 10
-7.236002554
 20
14.9053900436
 10
-7.2228547356
 20
14.8892030855
 10
-7.2115235771
 20
14.8716952643
 10
-7.2019517928
 20
14.8529083874
 10
-7.1944486075
 20
14.8334486379
 10
-7.189117096
 20
14.8135180771
 10
-7.1858541835
 20
14.7929146439
 10
-7.18465987
 20
14.7716383381
  0
LWPOLYLINE
  5
5AA
100
AcDbEntity
  8
0
100
AcDbPolyline
 62
7
  6
CONTINUOUS
 90
16
 70
0
 10
15.5153172847
 20
13.7053090925
 10
15.4940460007
 20
13.7065031256
 10
15.4734471108
 20
13.7097656993
 10
15.4535206149
 20
13.7150968137
 10
15.434064547
 20
13.7225993766
 10
15.4152808732
 20
13.7321704801
 10
15.3977754914
 20
13.7435014012
 10
15.3815900068
 20
13.7566494859
 10
15.3666828141
 20
13.7715573882
 10
15.3535349956
 20
13.7877443463
 10
15.3422038372
 20
13.8052521675
 10
15.3326320529
 20
13.8240390444
 10
15.3251288676
 20
13.8434987939
 10
15.3197973561
 20
13.8634293547
 10
15.3165344436
 20
13.8840327879
 10
15.31534013
 20
13.9053090937
  0
LINE
  5
5AB
100
AcDbEntity
  8
0
100
AcDbLine
 62
250
  6
CONTINUOUS
 10
-9.8148012194
 20
32.3253892208
 11
-8.7173980389
 21
31.2815396627
  0
LINE
  5
5AC
100
AcDbEntity
  8
0
100
AcDbLine
 62
250
  6
CONTINUOUS
 10
-10.3619874708
 20
32.848573259
 11
-9.8148012194
 21
32.3253892208
  0
LINE
  5
5AD
100
AcDbEntity
  8
0
100
AcDbLine
 62
7
  6
CONTINUOUS
 10
-4.0357247616
 20
26.5895386075
 11
-4.0344802188
 21
26.5883389192
  0
LWPOLYLINE
  5
5AE
100
AcDbEntity
  8
0
100
AcDbPolyline
 62
7
  6
CONTINUOUS
 90
28
 70
0
 10
3.1553469752
 20
34.9895584841
 10
3.121386773
 20
35.060119386
 10
3.09311318
 20
35.1326394582
 10
3.0705798972
 20
35.2066463106
 10
3.0538574521
 20
35.2813730767
 10
3.0428228412
 20
35.3566584949
 10
3.0373867129
 20
35.4329891913
 10
3.0376743521
 20
35.5101994702
 10
3.0437973441
 20
35.5876072778
 10
3.0558407985
 20
35.6649390359
 10
3.073931784
 20
35.7419890463
 10
3.0980601471
 20
35.81801889
 10
3.1279532307
 20
35.8919757935
 10
3.163411663
 20
35.9634073666
 10
3.2042238358
 20
36.0319221495
 10
3.2498041554
 20
36.0966856481
 10
3.2995071451
 20
36.1571007887
 10
3.3531659285
 20
36.2132530395
 10
3.4108907889
 20
36.2653512861
 10
3.472436677
 20
36.3131515109
 10
3.5374158219
 20
36.3563311322
 10
3.6058560546
 20
36.3948425632
 10
3.6777241401
 20
36.428509189
 10
3.7523965002
 20
36.4568854842
 10
3.8289840824
 20
36.4795845743
 10
3.9068800915
 20
36.4964603754
 10
3.9858122246
 20
36.5074871698
 10
4.06534013
 20
36.5126167376
  0
LINE
  5
5AF
100
AcDbEntity
  8
0
100
AcDbLine
 62
7
  6
CONTINUOUS
 10
10.9971776773
 20
37.2746972645
 11
10.9879213648
 21
37.3410682698
  0
LWPOLYLINE
  5
5B0
100
AcDbEntity
  8
0
100
AcDbPolyline
 62
7
  6
CONTINUOUS
 90
3
 70
0
 10
11.0093381816
 20
37.1840811461
 10
11.0063176314
 20
37.2069836631
 10
10.9971776773
 20
37.2746972645
  0
LWPOLYLINE
  5
5B1
100
AcDbEntity
  8
INTF_2
100
AcDbPolyline
 62
7
  6
CONTINUOUS
 90
51
 70
0
 10
19.2090659429
 20
-2.0850910029
 10
19.2092071669
 20
-2.0940915788
 10
19.2096295267
 20
-2.1031142462
 10
19.2103310545
 20
-2.1121489967
 10
19.2113097821
 20
-2.121185822
 10
19.2125637417
 20
-2.1302147138
 10
19.2140909651
 20
-2.1392256637
 10
19.2158894845
 20
-2.1482086633
 10
19.2179573317
 20
-2.1571537045
 10
19.2202925389
 20
-2.1660507787
 10
19.222893138
 20
-2.1748898778
 10
19.2257571609
 20
-2.1836609933
 10
19.2288826398
 20
-2.1923541169
 10
19.2322676066
 20
-2.2009592404
 10
19.2359100933
 20
-2.2094663553
 10
19.2398081319
 20
-2.2178654534
 10
19.2439597544
 20
-2.2261465263
 10
19.2483629928
 20
-2.2342995656
 10
19.2530158791
 20
-2.2423145631
 10
19.2579164454
 20
-2.2501815105
 10
19.2630627235
 20
-2.2578903993
 10
19.2684527456
 20
-2.2654312212
 10
19.2740845436
 20
-2.272793968
 10
19.2799561495
 20
-2.2799686312
 10
19.2860655953
 20
-2.2869452026
 10
19.292410913
 20
-2.2937136739
 10
19.2988124857
 20
-2.3000951937
 10
19.3054259241
 20
-2.3062657329
 10
19.3122413516
 20
-2.3122210789
 10
19.3192488916
 20
-2.3179570192
 10
19.3264386676
 20
-2.3234693414
 10
19.3338008027
 20
-2.3287538329
 10
19.3413254205
 20
-2.3338062814
 10
19.3490026444
 20
-2.3386224742
 10
19.3568225976
 20
-2.343198199
 10
19.3647754036
 20
-2.3475292432
 10
19.3728511857
 20
-2.3516113944
 10
19.3810400674
 20
-2.3554404401
 10
19.389332172
 20
-2.3590121678
 10
19.3977176228
 20
-2.362322365
 10
19.4061865434
 20
-2.3653668192
 10
19.414729057
 20
-2.368141318
 10
19.423335287
 20
-2.3706416488
 10
19.4319953569
 20
-2.3728635993
 10
19.4406993899
 20
-2.3748029568
 10
19.4494375095
 20
-2.376455509
 10
19.458199839
 20
-2.3778170433
 10
19.4669765019
 20
-2.3788833473
 10
19.4757576215
 20
-2.3796502084
 10
19.4845333211
 20
-2.3801134142
 10
19.4932937243
 20
-2.3802687523
  0
LINE
  5
5B2
100
AcDbEntity
  8
DRAFT
100
AcDbLine
 62
7
  6
CONTINUOUS
 10
19.76314571
 20
30.2321279701
 11
19.7604019604
 21
30.4290273131
  0
LINE
  5
5B3
100
AcDbEntity
  8
DRAFT
100
AcDbLine
 62
7
  6
CONTINUOUS
 10
19.6785384471
 20
30.401535746
 11
19.6810263422
 21
30.2137365326
  0
LINE
  5
5B4
100
AcDbEntity
  8
DRAFT
100
AcDbLine
 62
7
  6
CONTINUOUS
 10
19.7647916149
 20
30.0352729755
 11
19.76314571
 21
30.2321279701
  0
LINE
  5
5B5
100
AcDbEntity
  8
DRAFT
100
AcDbLine
 62
7
  6
CONTINUOUS
 10
19.6810263422
 20
30.2137365326
 11
19.6825172691
 21
30.0259822202
  0
LINE
  5
5B6
100
AcDbEntity
  8
DRAFT
100
AcDbLine
 62
7
  6
CONTINUOUS
 10
19.76534013
 20
29.8384737159
 11
19.7647916149
 21
30.0352729755
  0
LINE
  5
5B7
100
AcDbEntity
  8
RACCORDO
100
AcDbLine
 62
250
  6
CONTINUOUS
 10
18.1959346104
 20
-23.7921664559
 11
18.1959346104
 21
29.4691138877
  0
LINE
  5
5B8
100
AcDbEntity
  8
RACCORDO
100
AcDbLine
 62
7
  6
CONTINUOUS
 10
18.36534013
 20
30.6385498683
 11
18.36534013
 21
29.6385194073
  0
LINE
  5
5B9
100
AcDbEntity
  8
DRAFT
100
AcDbLine
 62
7
  6
CONTINUOUS
 10
18.36534013
 20
-20.8615262841
 11
18.36534013
 21
-19.6615262841
  0
LINE
  5
5BA
100
AcDbEntity
  8
RACCORDO
100
AcDbLine
 62
7
  6
CONTINUOUS
 10
18.36534013
 20
-23.9615719756
 11
18.36534013
 21
-24.9616024365
  0
LINE
  5
5BB
100
AcDbEntity
  8
DRAFT
100
AcDbLine
 62
7
  6
CONTINUOUS
 10
18.36534013
 20
-9.2615262841
 11
18.36534013
 21
-8.0615262841
  0
LINE
  5
5BC
100
AcDbEntity
  8
DRAFT
100
AcDbLine
 62
7
  6
CONTINUOUS
 10
18.36534013
 20
2.2384737159
 11
18.36534013
 21
3.4384737159
  0
LINE
  5
5BD
100
AcDbEntity
  8
DRAFT
100
AcDbLine
 62
7
  6
CONTINUOUS
 10
18.36534013
 20
13.7384737159
 11
18.36534013
 21
14.9384737159
  0
LINE
  5
5BE
100
AcDbEntity
  8
DRAFT
100
AcDbLine
 62
7
  6
CONTINUOUS
 10
18.36534013
 20
25.3384737159
 11
18.36534013
 21
26.5384737159
  0
LINE
  5
5BF
100
AcDbEntity
  8
DRAFT
100
AcDbLine
 62
7
  6
CONTINUOUS
 10
18.3961328732
 20
25.3076809727
 11
18.3961328732
 21
14.9692664591
  0
LINE
  5
5C0
100
AcDbEntity
  8
DRAFT
100
AcDbLine
 62
7
  6
CONTINUOUS
 10
18.3961328732
 20
13.7076809727
 11
18.3961328732
 21
3.4692664591
  0
LINE
  5
5C1
100
AcDbEntity
  8
DRAFT
100
AcDbLine
 62
7
  6
CONTINUOUS
 10
18.3961328732
 20
2.2076809727
 11
18.3961328732
 21
-8.0307335409
  0
LINE
  5
5C2
100
AcDbEntity
  8
DRAFT
100
AcDbLine
 62
7
  6
CONTINUOUS
 10
18.3961328732
 20
-9.2923190273
 11
18.3961328732
 21
-19.6307335409
  0
LINE
  5
5C3
100
AcDbEntity
  8
DRAFT
100
AcDbLine
 62
7
  6
CONTINUOUS
 10
18.3961328732
 20
-20.8923190273
 11
18.3961328732
 21
-24.1613281187
  0
LINE
  5
5C4
100
AcDbEntity
  8
DRAFT
100
AcDbLine
 62
7
  6
CONTINUOUS
 10
18.3961292104
 20
29.8382789538
 11
18.3961328732
 21
26.5692664591
  0
LINE
  5
5C5
100
AcDbEntity
  8
RACCORDO
100
AcDbLine
 62
7
  6
CONTINUOUS
 10
18.3961292104
 20
29.8382789538
 11
18.3960762445
 21
30.6692859828
  0
LINE
  5
5C6
100
AcDbEntity
  8
INTF_2
100
AcDbLine
 62
7
  6
CONTINUOUS
 10
18.6778177311
 20
-2.0922334779
 11
18.6778177311
 21
-1.3933081444
  0
LINE
  5
5C7
100
AcDbEntity
  8
INTF_2
100
AcDbLine
 62
7
  6
CONTINUOUS
 10
18.6778444763
 20
1.380135315
 11
18.6778444763
 21
-0.149033761
  0
LINE
  5
5C8
100
AcDbEntity
  8
INTF_2
100
AcDbLine
 62
7
  6
CONTINUOUS
 10
19.2090659429
 20
-1.4004507933
 11
19.2090659429
 21
-2.0850910029
  0
LINE
  5
5C9
100
AcDbEntity
  8
INTF_2
100
AcDbLine
 62
7
  6
CONTINUOUS
 10
19.2090944489
 20
-0.149033761
 11
19.2090944489
 21
1.3729949882
  0
LINE
  5
5CA
100
AcDbEntity
  8
DRAFT
100
AcDbLine
 62
7
  6
CONTINUOUS
 10
19.6825172691
 20
30.0259822202
 11
19.6830046075
 21
26.5658965892
  0
LINE
  5
5CB
100
AcDbEntity
  8
DRAFT
100
AcDbLine
 62
7
  6
CONTINUOUS
 10
19.6830046075
 20
25.3110508426
 11
19.6830046075
 21
14.9658965892
  0
LINE
  5
5CC
100
AcDbEntity
  8
DRAFT
100
AcDbLine
 62
7
  6
CONTINUOUS
 10
19.6830046075
 20
13.7110508426
 11
19.6830046075
 21
3.4658965892
  0
LINE
  5
5CD
100
AcDbEntity
  8
DRAFT
100
AcDbLine
 62
7
  6
CONTINUOUS
 10
19.6830046075
 20
2.2110508426
 11
19.6830046075
 21
-8.0341034108
  0
LINE
  5
5CE
100
AcDbEntity
  8
DRAFT
100
AcDbLine
 62
7
  6
CONTINUOUS
 10
19.6830046075
 20
-9.2889491574
 11
19.6830046075
 21
-19.6341034108
  0
LINE
  5
5CF
100
AcDbEntity
  8
DRAFT
100
AcDbLine
 62
7
  6
CONTINUOUS
 10
19.76534013
 20
-19.6615262841
 11
19.76534013
 21
-9.2615262841
  0
LINE
  5
5D0
100
AcDbEntity
  8
DRAFT
100
AcDbLine
 62
7
  6
CONTINUOUS
 10
19.76534013
 20
-8.0615262841
 11
19.76534013
 21
2.2384737159
  0
LINE
  5
5D1
100
AcDbEntity
  8
DRAFT
100
AcDbLine
 62
7
  6
CONTINUOUS
 10
19.76534013
 20
3.4384737159
 11
19.76534013
 21
13.7384737159
  0
LINE
  5
5D2
100
AcDbEntity
  8
DRAFT
100
AcDbLine
 62
7
  6
CONTINUOUS
 10
19.76534013
 20
14.9384737159
 11
19.76534013
 21
25.3384737159
  0
LINE
  5
5D3
100
AcDbEntity
  8
DRAFT
100
AcDbLine
 62
7
  6
CONTINUOUS
 10
19.76534013
 20
26.5384737159
 11
19.76534013
 21
29.8384737159
  0
LINE
  5
5D4
100
AcDbEntity
  8
INTF_2
100
AcDbLine
 62
7
  6
CONTINUOUS
 10
19.9528134395
 20
-2.3802687523
 11
19.9528134395
 21
-1.1052730438
  0
LINE
  5
5D5
100
AcDbEntity
  8
INTF_2
100
AcDbLine
 62
7
  6
CONTINUOUS
 10
20.4840616514
 20
-1.1052730438
 11
20.4840616514
 21
-2.3802687523
  0
LINE
  5
5D6
100
AcDbEntity
  8
INTF_2
100
AcDbLine
 62
7
  6
CONTINUOUS
 10
20.4840901574
 20
1.3729949882
 11
20.4840901574
 21
-0.149033761
  0
LINE
  5
5D7
100
AcDbEntity
  8
RACCORDO
100
AcDbLine
 62
7
  6
CONTINUOUS
 10
18.3960762445
 20
-24.992338551
 11
18.3961328732
 21
-24.1613281187
  0
LINE
  5
5D8
100
AcDbEntity
  8
DRAFT
100
AcDbLine
 62
7
  6
CONTINUOUS
 10
19.6830046075
 20
-20.8889491574
 11
19.682792795
 21
-24.2864566193
  0
LINE
  5
5D9
100
AcDbEntity
  8
DRAFT
100
AcDbLine
 62
7
  6
CONTINUOUS
 10
19.7650963855
 20
-24.2927195977
 11
19.76534013
 21
-20.8615262841
  0
LINE
  5
5DA
100
AcDbEntity
  8
DRAFT
100
AcDbLine
 62
7
  6
CONTINUOUS
 10
19.682792795
 20
-24.2864566193
 11
19.6816341187
 21
-24.4741953745
  0
LINE
  5
5DB
100
AcDbEntity
  8
DRAFT
100
AcDbLine
 62
7
  6
CONTINUOUS
 10
19.7638163108
 20
-24.4895568575
 11
19.7650963855
 21
-24.2927195977
  0
LWPOLYLINE
  5
5DC
100
AcDbEntity
  8
DRAFT
100
AcDbPolyline
 62
7
  6
CONTINUOUS
 90
3
 70
0
 10
19.6816341187
 20
-24.4741953745
 10
19.6794785504
 20
-24.6619807785
 10
19.6785384471
 20
-24.7245883142
  0
LWPOLYLINE
  5
5DD
100
AcDbEntity
  8
DRAFT
100
AcDbPolyline
 62
7
  6
CONTINUOUS
 90
3
 70
0
 10
19.7604019604
 20
-24.7520798813
 10
19.7614385263
 20
-24.6864418394
 10
19.7638163108
 20
-24.4895568575
  0
LWPOLYLINE
  5
5DE
100
AcDbEntity
  8
INTF_2
100
AcDbPolyline
 62
7
  6
CONTINUOUS
 90
51
 70
0
 10
18.6778177311
 20
-1.3933081444
 10
18.6782271592
 20
-1.3682431273
 10
18.6794504118
 20
-1.343121451
 10
18.6814799408
 20
-1.3179711904
 10
18.6843081982
 20
-1.2928204206
 10
18.6879276359
 20
-1.2676972166
 10
18.692330706
 20
-1.2426296532
 10
18.6975098605
 20
-1.2176458054
 10
18.7034575514
 20
-1.1927737483
 10
18.7101662306
 20
-1.1680415568
 10
18.7176283502
 20
-1.1434773058
 10
18.7258363622
 20
-1.1191090703
 10
18.7347827185
 20
-1.0949649253
 10
18.7444598712
 20
-1.0710729457
 10
18.7548602723
 20
-1.0474612065
 10
18.7659763737
 20
-1.0241577828
 10
18.7778006275
 20
-1.0011907493
 10
18.7903254857
 20
-0.9785881812
 10
18.8035434002
 20
-0.9563781533
 10
18.817446823
 20
-0.9345887406
 10
18.8320282062
 20
-0.9132480182
 10
18.8472800017
 20
-0.8923840609
 10
18.8631946616
 20
-0.8720249438
 10
18.8797646379
 20
-0.8521987417
 10
18.8969823824
 20
-0.8329335297
 10
18.9148403473
 20
-0.8142573828
 10
18.9331496918
 20
-0.7963633162
 10
18.9520518529
 20
-0.7790845624
 10
18.9715188882
 20
-0.7624309148
 10
18.991522855
 20
-0.746412167
 10
19.012035811
 20
-0.7310381125
 10
19.0330298137
 20
-0.7163185449
 10
19.0544769207
 20
-0.7022632576
 10
19.0763491893
 20
-0.6888820443
 10
19.0986186773
 20
-0.6761846984
 10
19.1212574421
 20
-0.6641810134
 10
19.1442375412
 20
-0.652880783
 10
19.1675310321
 20
-0.6422938006
 10
19.1911099725
 20
-0.6324298598
 10
19.2149464198
 20
-0.6232987541
 10
19.2390124315
 20
-0.614910277
 10
19.2632800652
 20
-0.6072742221
 10
19.2877213783
 20
-0.6004003829
 10
19.3123084286
 20
-0.5942985529
 10
19.3370132733
 20
-0.5889785257
 10
19.3618079702
 20
-0.5844500948
 10
19.3866645767
 20
-0.5807230537
 10
19.4115551503
 20
-0.5778071959
 10
19.4364517486
 20
-0.5757123151
 10
19.461326429
 20
-0.5744482046
 10
19.4861512492
 20
-0.5740246581
  0
LWPOLYLINE
  5
5DF
100
AcDbEntity
  8
INTF_2
100
AcDbPolyline
 62
7
  6
CONTINUOUS
 90
51
 70
0
 10
19.2090944489
 20
1.3729949882
 10
19.2092497856
 20
1.3817553717
 10
19.2097129876
 20
1.3905310588
 10
19.2104798428
 20
1.3993121719
 10
19.211546139
 20
1.4080888333
 10
19.2129076641
 20
1.4168511655
 10
19.2145602058
 20
1.4255892909
 10
19.2164995522
 20
1.4342933318
 10
19.218721491
 20
1.4429534107
 10
19.2212218101
 20
1.4515596499
 10
19.2239962974
 20
1.4601021718
 10
19.2270407407
 20
1.4685710989
 10
19.2303509278
 20
1.4769565536
 10
19.2339226467
 20
1.4852486582
 10
19.2377516852
 20
1.4934375351
 10
19.2418338311
 20
1.5015133068
 10
19.2461648722
 20
1.5094660956
 10
19.2507405966
 20
1.5172860239
 10
19.2555567919
 20
1.5249632142
 10
19.2606092461
 20
1.5324877888
 10
19.265893747
 20
1.5398498701
 10
19.2714060825
 20
1.5470395806
 10
19.2771420404
 20
1.5540470426
 10
19.2830974086
 20
1.5608623784
 10
19.289267975
 20
1.5674757106
 10
19.2956495274
 20
1.5738771616
 10
19.3024180073
 20
1.5802223099
 10
19.3093945908
 20
1.5863315728
 10
19.3165692692
 20
1.5922029838
 10
19.3239320334
 20
1.5978345768
 10
19.3314728747
 20
1.6032243856
 10
19.339181784
 20
1.6083704437
 10
19.3470487527
 20
1.6132707851
 10
19.3550637717
 20
1.6179234435
 10
19.3632168322
 20
1.6223264525
 10
19.3714979253
 20
1.626477846
 10
19.3798970422
 20
1.6303756577
 10
19.3884041739
 20
1.6340179214
 10
19.3970093116
 20
1.6374026707
 10
19.4057024464
 20
1.6405279395
 10
19.4144735694
 20
1.6433917615
 10
19.4233126718
 20
1.6459921704
 10
19.4322097446
 20
1.6483272001
 10
19.441154779
 20
1.6503948841
 10
19.4501377661
 20
1.6521932564
 10
19.4591486971
 20
1.6537203506
 10
19.4681775629
 20
1.6549742004
 10
19.4772143549
 20
1.6559528397
 10
19.486249064
 20
1.6566543022
 10
19.4952716815
 20
1.6570766216
 10
19.5042721984
 20
1.6572178317
  0
LWPOLYLINE
  5
5E0
100
AcDbEntity
  8
RACCORDO
100
AcDbPolyline
 62
7
  6
CONTINUOUS
 90
19
 70
0
 10
18.3960762445
 20
-24.992338551
 10
18.3943622031
 20
-25.0336853396
 10
18.3891561825
 20
-25.0752659259
 10
18.3803659086
 20
-25.1167722537
 10
18.3678704234
 20
-25.158038566
 10
18.3516625823
 20
-25.1985522301
 10
18.3319884956
 20
-25.2375110732
 10
18.3091142017
 20
-25.2744444898
 10
18.2831237096
 20
-25.3092636423
 10
18.2541253612
 20
-25.3417897421
 10
18.2223240512
 20
-25.3717449166
 10
18.1879312283
 20
-25.3988857394
 10
18.1510509828
 20
-25.4230569595
 10
18.1117397552
 20
-25.4440970872
 10
18.0704445909
 20
-25.4616477453
 10
18.0279191829
 20
-25.4753702267
 10
17.9846720809
 20
-25.4851722263
 10
17.9409091384
 20
-25.4910782623
 10
17.8969792689
 20
-25.4930892706
  0
LWPOLYLINE
  5
5E1
100
AcDbEntity
  8
RACCORDO
100
AcDbPolyline
 62
250
  6
CONTINUOUS
 90
16
 70
0
 10
18.1959346104
 20
-23.7921664559
 10
18.1942825178
 20
-23.8235141628
 10
18.1893634299
 20
-23.8545185508
 10
18.1812312204
 20
-23.8848400608
 10
18.1699749529
 20
-23.9141466128
 10
18.1557179057
 20
-23.9421172424
 10
18.1386162214
 20
-23.9684456163
 10
18.1188571972
 20
-23.9928433871
 10
18.096657233
 20
-24.0150433512
 10
18.0722594622
 20
-24.0348023755
 10
18.0459310883
 20
-24.0519040597
 10
18.0179604587
 20
-24.066161107
 10
17.9886539067
 20
-24.0774173745
 10
17.9583323967
 20
-24.085549584
 10
17.9273280087
 20
-24.0904686719
 10
17.8959803018
 20
-24.0921207644
  0
LINE
  5
5E2
100
AcDbEntity
  8
0
100
AcDbLine
 62
250
  6
CONTINUOUS
 10
15.31534013
 20
-9.0946705956
 11
15.4148645005
 21
-8.895627005
  0
LINE
  5
5E3
100
AcDbEntity
  8
0
100
AcDbLine
 62
250
  6
CONTINUOUS
 10
15.5153172847
 20
-9.2946909075
 11
15.6148568851
 21
-9.095596544
  0
LINE
  5
5E4
100
AcDbEntity
  8
0
100
AcDbLine
 62
7
  6
CONTINUOUS
 10
3.5133816991
 20
-30.7049668028
 11
3.2540730367
 21
-31.195172496
  0
LINE
  5
5E5
100
AcDbEntity
  8
0
100
AcDbLine
 62
250
  6
CONTINUOUS
 10
4.651198704
 20
-23.7615262841
 11
4.5625860317
 21
-23.8770085669
  0
LINE
  5
5E6
100
AcDbEntity
  8
0
100
AcDbLine
 62
7
  6
CONTINUOUS
 10
-8.9057499707
 20
-19.7636458683
 11
-8.7017513793
 21
-19.6616543407
  0
LINE
  5
5E7
100
AcDbEntity
  8
DRAFT
100
AcDbLine
 62
7
  6
CONTINUOUS
 10
-11.63465987
 20
-19.6615262841
 11
-11.5523243474
 21
-19.6341034108
  0
LINE
  5
5E8
100
AcDbEntity
  8
DRAFT
100
AcDbLine
 62
7
  6
CONTINUOUS
 10
19.76534013
 20
-9.2615262841
 11
19.6830046075
 21
-9.2889491574
  0
LWPOLYLINE
  5
5E9
100
AcDbEntity
  8
0
100
AcDbPolyline
 62
250
  6
CONTINUOUS
 90
8
 70
0
 10
15.6148568851
 20
-9.095596544
 10
15.6163087452
 20
-9.0951436097
 10
15.6197783662
 20
-9.0947027932
 10
15.625265748
 20
-9.0942740944
 10
15.6328378436
 20
-9.0938555322
 10
15.6424277001
 20
-9.0934490879
 10
15.6538344584
 20
-9.0930607047
 10
15.6670564876
 20
-9.0926903641
  0
LINE
  5
5EA
100
AcDbEntity
  8
DRAFT
100
AcDbLine
 62
7
  6
CONTINUOUS
 10
-11.63465987
 20
25.3384737159
 11
-11.5523243474
 21
25.3110508426
  0
LINE
  5
5EB
100
AcDbEntity
  8
DRAFT
100
AcDbLine
 62
7
  6
CONTINUOUS
 10
19.76534013
 20
14.9384737159
 11
19.6830046075
 21
14.9658965892
  0
LINE
  5
5EC
100
AcDbEntity
  8
0
100
AcDbLine
 62
7
  6
CONTINUOUS
 10
-8.9057804328
 20
25.44060853
 11
-8.7017513793
 21
25.3386017725
  0
LINE
  5
5ED
100
AcDbEntity
  8
0
100
AcDbLine
 62
250
  6
CONTINUOUS
 10
4.5625860317
 20
29.5539559987
 11
4.651198704
 21
29.4384737159
  0
LINE
  5
5EE
100
AcDbEntity
  8
0
100
AcDbLine
 62
250
  6
CONTINUOUS
 10
15.4148645005
 20
14.5725744368
 11
15.31534013
 21
14.7716180274
  0
LINE
  5
5EF
100
AcDbEntity
  8
0
100
AcDbLine
 62
250
  6
CONTINUOUS
 10
15.6148568851
 20
14.7725439758
 11
15.5153172847
 21
14.9716383393
  0
LWPOLYLINE
  5
5F0
100
AcDbEntity
  8
INTF_2
100
AcDbPolyline
 62
7
  6
CONTINUOUS
 90
51
 70
0
 10
21.01534013
 20
1.380135315
 10
21.0149053343
 20
1.4050127285
 10
21.0136083982
 20
1.4299336773
 10
21.0114604982
 20
1.4548704734
 10
21.008472811
 20
1.4797954286
 10
21.004656513
 20
1.5046808549
 10
21.0000227809
 20
1.5294990641
 10
20.9945827911
 20
1.5542223683
 10
20.9883477203
 20
1.5788230792
 10
20.981328745
 20
1.6032735088
 10
20.9735370417
 20
1.6275459691
 10
20.964983787
 20
1.6516127719
 10
20.9556801575
 20
1.6754462292
 10
20.9456373297
 20
1.6990186528
 10
20.9348664802
 20
1.7223023547
 10
20.9233787856
 20
1.7452696467
 10
20.9111854223
 20
1.7678928409
 10
20.898297567
 20
1.790144249
 10
20.8847263961
 20
1.8119961831
 10
20.8704830864
 20
1.833420955
 10
20.8555788142
 20
1.8543908766
 10
20.8400247562
 20
1.8748782599
 10
20.823832089
 20
1.8948554168
 10
20.807011989
 20
1.9142946592
 10
20.7895756329
 20
1.9331682989
 10
20.7715341972
 20
1.9514486479
 10
20.7526628172
 20
1.969330173
 10
20.7332100987
 20
1.9865676564
 10
20.7132036773
 20
2.0031537935
 10
20.6926711886
 20
2.0190812797
 10
20.6716402685
 20
2.0343428104
 10
20.6501385526
 20
2.0489310811
 10
20.6281936766
 20
2.0628387872
 10
20.6058332761
 20
2.0760586241
 10
20.583084987
 20
2.0885832871
 10
20.5599764449
 20
2.1004054717
 10
20.5365352854
 20
2.1115178734
 10
20.5127891444
 20
2.1219131875
 10
20.4887656575
 20
2.1315841095
 10
20.4644924603
 20
2.1405233347
 10
20.4399971886
 20
2.1487235586
 10
20.4153074781
 20
2.1561774765
 10
20.3904509645
 20
2.162877784
 10
20.3654552835
 20
2.1688171764
 10
20.3403480708
 20
2.1739883492
 10
20.315156962
 20
2.1783839977
 10
20.2899095929
 20
2.1819968173
 10
20.2646335992
 20
2.1848195036
 10
20.2393566166
 20
2.1868447518
 10
20.2141062807
 20
2.1880652574
 10
20.1889102273
 20
2.1884737159
  0
LWPOLYLINE
  5
5F1
100
AcDbEntity
  8
DRAFT
100
AcDbPolyline
 62
7
  6
CONTINUOUS
 90
10
 70
0
 10
21.36534013
 20
29.8384737159
 10
21.3609068574
 20
30.4105706108
 10
21.3476214255
 20
30.9824101242
 10
21.3254838345
 20
31.5539922561
 10
21.2944774114
 20
32.1255559839
 10
21.2546188291
 20
32.6968623302
 10
21.2059581061
 20
33.2671943627
 10
21.1485119153
 20
33.8363131039
 10
21.0822635839
 20
34.4044575313
 10
21.0072131117
 20
34.9716276448
  0
LINE
  5
5F2
100
AcDbEntity
  8
INTF_2
100
AcDbLine
 62
7
  6
CONTINUOUS
 10
21.01534013
 20
-0.5740246581
 11
21.01534013
 21
-1.1052730438
  0
LINE
  5
5F3
100
AcDbEntity
  8
INTF_2
100
AcDbLine
 62
7
  6
CONTINUOUS
 10
21.01534013
 20
-2.3802687523
 11
21.01534013
 21
-2.9115169642
  0
LINE
  5
5F4
100
AcDbEntity
  8
INTF_2
100
AcDbLine
 62
7
  6
CONTINUOUS
 10
21.01534013
 20
-0.149033761
 11
21.01534013
 21
1.380135315
  0
LINE
  5
5F5
100
AcDbEntity
  8
DRAFT
100
AcDbLine
 62
7
  6
CONTINUOUS
 10
21.36534013
 20
-24.1615262841
 11
21.36534013
 21
29.8384737159
  0
LINE
  5
5F6
100
AcDbEntity
  8
0
100
AcDbLine
 62
7
  6
CONTINUOUS
 10
4.8767274578
 20
-24.4770085669
 11
4.8756356576
 21
-24.4784771003
  0
LINE
  5
5F7
100
AcDbEntity
  8
0
100
AcDbLine
 62
7
  6
CONTINUOUS
 10
4.7904303151
 20
-24.5893785644
 11
4.7588309868
 21
-24.6309317008
  0
LWPOLYLINE
  5
5F8
100
AcDbEntity
  8
0
100
AcDbPolyline
 62
7
  6
CONTINUOUS
 90
3
 70
0
 10
4.7588309868
 20
-24.6309317008
 10
4.7415873423
 20
-24.6534923689
 10
4.7233555472
 20
-24.6768867323
  0
LINE
  5
5F9
100
AcDbEntity
  8
0
100
AcDbLine
 62
250
  6
CONTINUOUS
 10
4.844266186
 20
-23.9096721736
 11
4.7556535138
 21
-24.0251544564
  0
LINE
  5
5FA
100
AcDbEntity
  8
0
100
AcDbLine
 62
7
  6
CONTINUOUS
 10
4.96534013
 20
-24.3615262841
 11
4.8767274578
 21
-24.4770085669
  0
LINE
  5
5FB
100
AcDbEntity
  8
0
100
AcDbLine
 62
7
  6
CONTINUOUS
 10
4.8756356576
 20
-24.4784771003
 11
4.7904303151
 21
-24.5893785644
  0
LINE
  5
5FC
100
AcDbEntity
  8
0
100
AcDbLine
 62
7
  6
CONTINUOUS
 10
17.0364606929
 20
-9.0904057212
 11
17.0374579441
 21
-9.089388633
  0
LINE
  5
5FD
100
AcDbEntity
  8
0
100
AcDbLine
 62
7
  6
CONTINUOUS
 10
17.2187236016
 20
-8.9083859629
 11
17.2364302319
 21
-8.8904361822
  0
LINE
  5
5FE
100
AcDbEntity
  8
0
100
AcDbLine
 62
250
  6
CONTINUOUS
 10
1.029813198
 20
-24.471986375
 11
1.1711484042
 21
-24.3306511688
  0
LINE
  5
5FF
100
AcDbEntity
  8
0
100
AcDbLine
 62
7
  6
CONTINUOUS
 10
17.0364606929
 20
-9.0904057212
 11
16.8324316394
 21
-9.2944347748
  0
LINE
  5
600
100
AcDbEntity
  8
DRAFT
100
AcDbLine
 62
7
  6
CONTINUOUS
 10
18.3961328732
 20
-8.0307335409
 11
18.36534013
 21
-8.0615262841
  0
LWPOLYLINE
  5
601
100
AcDbEntity
  8
0
100
AcDbPolyline
 62
7
  6
CONTINUOUS
 90
3
 70
0
 10
17.0374579441
 20
-9.089388633
 10
17.043691835
 20
-9.0831745791
 10
17.0555593414
 20
-9.0712503802
  0
LWPOLYLINE
  5
602
100
AcDbEntity
  8
0
100
AcDbPolyline
 62
7
  6
CONTINUOUS
 90
3
 70
0
 10
17.0555593414
 20
-9.0712503802
 10
17.0634626091
 20
-9.063403805
 10
17.166264253
 20
-8.9605113003
  0
LINE
  5
603
100
AcDbEntity
  8
0
100
AcDbLine
 62
7
  6
CONTINUOUS
 10
17.166264253
 20
-8.9605113003
 11
17.2187236016
 21
-8.9083859629
  0
LINE
  5
604
100
AcDbEntity
  8
DRAFT
100
AcDbLine
 62
7
  6
CONTINUOUS
 10
-2.3953275557
 20
-22.2946909075
 11
-2.33465987
 21
-22.2615262841
  0
LINE
  5
605
100
AcDbEntity
  8
0
100
AcDbLine
 62
7
  6
CONTINUOUS
 10
-3.0514952466
 20
-19.6615262841
 11
-3.067204805
 21
-19.6693804651
  0
LINE
  5
606
100
AcDbEntity
  8
0
100
AcDbLine
 62
7
  6
CONTINUOUS
 10
-3.0514952466
 20
25.3384737159
 11
-3.067204805
 21
25.3463278969
  0
LWPOLYLINE
  5
607
100
AcDbEntity
  8
0
100
AcDbPolyline
 62
250
  6
CONTINUOUS
 90
8
 70
0
 10
1.700600876
 20
25.4238440154
 10
1.6995284231
 20
25.4244230481
 10
1.7027059174
 20
25.4249958877
 10
1.7101333591
 20
25.4255625342
 10
1.7218845411
 20
25.4261252761
 10
1.7378856704
 20
25.4266818248
 10
1.757915368
 20
25.4272253154
 10
1.7782131409
 20
25.427545854
  0
LINE
  5
608
100
AcDbEntity
  8
DRAFT
100
AcDbLine
 62
7
  6
CONTINUOUS
 10
-2.3953275557
 20
27.9716383393
 11
-2.33465987
 21
27.9384737159
  0
LINE
  5
609
100
AcDbEntity
  8
0
100
AcDbLine
 62
250
  6
CONTINUOUS
 10
1.1711484042
 20
30.0075986006
 11
1.029813198
 21
30.1489338068
  0
LINE
  5
60A
100
AcDbEntity
  8
0
100
AcDbLine
 62
7
  6
CONTINUOUS
 10
17.0364606929
 20
14.767353153
 11
16.8324316394
 21
14.9713822065
  0
LWPOLYLINE
  5
60B
100
AcDbEntity
  8
0
100
AcDbPolyline
 62
7
  6
CONTINUOUS
 90
3
 70
0
 10
17.04369412
 20
14.760119726
 10
17.0374574175
 20
14.7663397955
 10
17.0364606929
 20
14.767353153
  0
LINE
  5
60C
100
AcDbEntity
  8
DRAFT
100
AcDbLine
 62
7
  6
CONTINUOUS
 10
18.3961328732
 20
13.7076809727
 11
18.36534013
 21
13.7384737159
  0
LINE
  5
60D
100
AcDbEntity
  8
0
100
AcDbLine
 62
7
  6
CONTINUOUS
 10
17.0555849846
 20
14.7481708065
 11
17.04369412
 21
14.760119726
  0
LWPOLYLINE
  5
60E
100
AcDbEntity
  8
0
100
AcDbPolyline
 62
7
  6
CONTINUOUS
 90
3
 70
0
 10
17.166257837
 20
14.637465099
 10
17.0725827926
 20
14.7312614023
 10
17.0555849846
 20
14.7481708065
  0
LWPOLYLINE
  5
60F
100
AcDbEntity
  8
0
100
AcDbPolyline
 62
7
  6
CONTINUOUS
 90
3
 70
0
 10
17.2364302319
 20
14.567383614
 10
17.2187094681
 20
14.5853466138
 10
17.166257837
 20
14.637465099
  0
LINE
  5
610
100
AcDbEntity
  8
0
100
AcDbLine
 62
7
  6
CONTINUOUS
 10
4.8767274578
 20
30.1539559987
 11
4.8755915422
 21
30.1553906811
  0
LINE
  5
611
100
AcDbEntity
  8
0
100
AcDbLine
 62
7
  6
CONTINUOUS
 10
4.7905217192
 20
30.266396133
 11
4.7585629796
 21
30.3076734834
  0
LWPOLYLINE
  5
612
100
AcDbEntity
  8
0
100
AcDbPolyline
 62
7
  6
CONTINUOUS
 90
3
 70
0
 10
4.7585629796
 20
30.3076734834
 10
4.7412340312
 20
30.3301686956
 10
4.7233555472
 20
30.3538341641
  0
LINE
  5
613
100
AcDbEntity
  8
0
100
AcDbLine
 62
250
  6
CONTINUOUS
 10
4.7556535138
 20
29.7021018882
 11
4.844266186
 21
29.5866196054
  0
LINE
  5
614
100
AcDbEntity
  8
0
100
AcDbLine
 62
7
  6
CONTINUOUS
 10
4.96534013
 20
30.0384737159
 11
4.8767274578
 21
30.1539559987
  0
LINE
  5
615
100
AcDbEntity
  8
0
100
AcDbLine
 62
7
  6
CONTINUOUS
 10
4.8755915422
 20
30.1553906811
 11
4.7905217192
 21
30.266396133
  0
LWPOLYLINE
  5
616
100
AcDbEntity
  8
DRAFT
100
AcDbPolyline
 62
7
  6
CONTINUOUS
 90
10
 70
0
 10
21.0072131117
 20
-29.2946802131
 10
21.0822635839
 20
-28.7275100995
 10
21.1485119153
 20
-28.1593656722
 10
21.2059581061
 20
-27.590246931
 10
21.2546188291
 20
-27.0199148985
 10
21.2944774114
 20
-26.4486085521
 10
21.3254838345
 20
-25.8770448243
 10
21.3476214255
 20
-25.3054626924
 10
21.3609068574
 20
-24.733623179
 10
21.36534013
 20
-24.1615262841
  0
LWPOLYLINE
  5
617
100
AcDbEntity
  8
RACCORDO
100
AcDbPolyline
 62
7
  6
CONTINUOUS
 90
22
 70
0
 10
18.4926677308
 20
-27.1716258272
 10
18.4614463673
 20
-27.2893052255
 10
18.4324445028
 20
-27.4062999282
 10
18.4056133751
 20
-27.5225644489
 10
18.381230516
 20
-27.636471444
 10
18.358870927
 20
-27.74955313
 10
18.3376513692
 20
-27.8665494744
 10
18.3174819834
 20
-27.9891347763
 10
18.2988642296
 20
-28.115638193
 10
18.2820182467
 20
-28.2458161061
 10
18.2671512082
 20
-28.3793945752
 10
18.2544138784
 20
-28.5166034436
 10
18.2439660544
 20
-28.657946374
 10
18.23604081
 20
-28.8031864515
 10
18.2308526887
 20
-28.9524798259
 10
18.22863905
 20
-29.1069113433
 10
18.2297091652
 20
-29.2663269836
 10
18.23438325
 20
-29.4307401062
 10
18.243088058
 20
-29.6014646022
 10
18.2563022359
 20
-29.778852784
 10
18.2744528635
 20
-29.9622976388
 10
18.2980008185
 20
-30.1516373858
  0
LINE
  5
618
100
AcDbEntity
  8
0
100
AcDbLine
 62
7
  6
CONTINUOUS
 10
16.81534013
 20
-32.498550597
 11
16.8407068363
 21
-32.4040711567
  0
LINE
  5
619
100
AcDbEntity
  8
RACCORDO
100
AcDbLine
 62
7
  6
CONTINUOUS
 10
6.9116975281
 20
-24.215168886
 11
8.56534013
 21
-22.5615262841
  0
LINE
  5
61A
100
AcDbEntity
  8
0
100
AcDbLine
 62
250
  6
CONTINUOUS
 10
6.9595318559
 20
-24.3306511688
 11
8.6808224128
 21
-22.6093606118
  0
LINE
  5
61B
100
AcDbEntity
  8
0
100
AcDbLine
 62
250
  6
CONTINUOUS
 10
7.100867062
 20
-24.471986375
 11
8.8807005782
 21
-22.6921528588
  0
LINE
  5
61C
100
AcDbEntity
  8
DRAFT
100
AcDbLine
 62
7
  6
CONTINUOUS
 10
10.46534013
 20
-22.2615262841
 11
8.0378435758
 21
-24.6890228383
  0
LWPOLYLINE
  5
61D
100
AcDbEntity
  8
0
100
AcDbPolyline
 62
7
  6
CONTINUOUS
 90
12
 70
0
 10
3.6476040496
 20
-19.6801130805
 10
3.6517432756
 20
-19.6778851974
 10
3.658387096
 20
-19.6747258293
 10
3.6651159732
 20
-19.6719248186
 10
3.6719144292
 20
-19.6694777818
 10
3.6787773257
 20
-19.6673772428
 10
3.6856868052
 20
-19.6656211026
 10
3.6926250646
 20
-19.6642065106
 10
3.6995889047
 20
-19.6631274482
 10
3.7065666648
 20
-19.6623807455
 10
3.7135377949
 20
-19.6619639538
 10
3.7204867613
 20
-19.661872933
  0
LWPOLYLINE
  5
61E
100
AcDbEntity
  8
0
100
AcDbPolyline
 62
7
  6
CONTINUOUS
 90
3
 70
0
 10
-0.6676379528
 20
-22.657988393
 10
-0.7285939265
 20
-22.6834303168
 10
-0.7500203182
 20
-22.6921528588
  0
LINE
  5
61F
100
AcDbEntity
  8
0
100
AcDbLine
 62
7
  6
CONTINUOUS
 10
-0.43465987
 20
-22.5615262841
 11
-0.6676379528
 21
-22.657988393
  0
LINE
  5
620
100
AcDbEntity
  8
DRAFT
100
AcDbLine
 62
7
  6
CONTINUOUS
 10
-11.547858187
 20
-24.7245883142
 11
-11.6297217003
 21
-24.7520798813
  0
LINE
  5
621
100
AcDbEntity
  8
0
100
AcDbLine
 62
250
  6
CONTINUOUS
 10
6.430079384
 20
25.4238440154
 11
6.1470016445
 21
25.374692531
  0
LINE
  5
622
100
AcDbEntity
  8
RACCORDO
100
AcDbLine
 62
7
  6
CONTINUOUS
 10
6.6606093174
 20
25.3570605123
 11
7.0268179181
 21
25.4144903325
  0
LWPOLYLINE
  5
623
100
AcDbEntity
  8
0
100
AcDbPolyline
 62
250
  6
CONTINUOUS
 90
5
 70
0
 10
6.1470016445
 20
25.374692531
 10
6.1406754572
 20
25.3740636423
 10
6.129469181
 20
25.3734473869
 10
6.113382816
 20
25.3728437646
 10
6.0922921452
 20
25.3722501543
  0
LINE
  5
624
100
AcDbEntity
  8
RACCORDO
100
AcDbLine
 62
7
  6
CONTINUOUS
 10
1.4700709426
 20
25.3570605123
 11
1.1038623419
 21
25.4144903325
  0
LINE
  5
625
100
AcDbEntity
  8
0
100
AcDbLine
 62
250
  6
CONTINUOUS
 10
1.9836786156
 20
25.374692531
 11
1.700600876
 21
25.4238440154
  0
LINE
  5
626
100
AcDbEntity
  8
DRAFT
100
AcDbLine
 62
7
  6
CONTINUOUS
 10
-11.6297217003
 20
30.4290273131
 11
-11.547858187
 21
30.401535746
  0
LWPOLYLINE
  5
627
100
AcDbEntity
  8
0
100
AcDbPolyline
 62
7
  6
CONTINUOUS
 90
3
 70
0
 10
-0.6676092636
 20
28.3350050868
 10
-0.7287018028
 20
28.3601173123
 10
-0.7500203182
 20
28.3691002906
  0
LINE
  5
628
100
AcDbEntity
  8
0
100
AcDbLine
 62
7
  6
CONTINUOUS
 10
-0.43465987
 20
28.2384737159
 11
-0.6676092636
 21
28.3350050868
  0
LINE
  5
629
100
AcDbEntity
  8
RACCORDO
100
AcDbLine
 62
7
  6
CONTINUOUS
 10
8.56534013
 20
28.2384737159
 11
6.9116975281
 21
29.8921163178
  0
LINE
  5
62A
100
AcDbEntity
  8
0
100
AcDbLine
 62
250
  6
CONTINUOUS
 10
6.9595318559
 20
30.0075986006
 11
8.6808224128
 21
28.2863080436
  0
LINE
  5
62B
100
AcDbEntity
  8
0
100
AcDbLine
 62
250
  6
CONTINUOUS
 10
7.100867062
 20
30.1489338068
 11
8.8807005782
 21
28.3691002906
  0
LINE
  5
62C
100
AcDbEntity
  8
DRAFT
100
AcDbLine
 62
7
  6
CONTINUOUS
 10
8.0378435758
 20
30.3659702701
 11
10.46534013
 21
27.9384737159
  0
LWPOLYLINE
  5
62D
100
AcDbEntity
  8
0
100
AcDbPolyline
 62
7
  6
CONTINUOUS
 90
10
 70
0
 10
10.9879213648
 20
37.3410682698
 10
10.9243761055
 20
37.4747679159
 10
10.8567762547
 20
37.6064805537
 10
10.7851831274
 20
37.7360827866
 10
10.7096585055
 20
37.8634566693
 10
10.6302742753
 20
37.9884788692
 10
10.5471134438
 20
38.1110218086
 10
10.4602565889
 20
38.2309679612
 10
10.3697807151
 20
38.3482089298
 10
10.2757696273
 20
38.4626353181
  0
LINE
  5
62E
100
AcDbEntity
  8
0
100
AcDbLine
 62
7
  6
CONTINUOUS
 10
16.8407068363
 20
38.0810185885
 11
16.81534013
 21
38.1754980288
  0
LWPOLYLINE
  5
62F
100
AcDbEntity
  8
DRAFT
100
AcDbPolyline
 62
7
  6
CONTINUOUS
 90
28
 70
0
 10
21.0072131117
 20
34.9716276448
 10
20.9546832903
 20
35.2846677693
 10
20.8861290047
 20
35.5931676153
 10
20.8015502548
 20
35.8971271828
 10
20.7007272093
 20
36.1973675017
 10
20.5838796995
 20
36.493067542
 10
20.4516672199
 20
36.7817642143
 10
20.3037804804
 20
37.0635555903
 10
20.140528771
 20
37.3383435983
 10
19.9634994568
 20
37.6033709336
 10
19.77273995
 20
37.8583511225
 10
19.5682028384
 20
38.1035706387
 10
19.351333249
 20
38.3371315985
 10
19.1217797897
 20
38.5591258143
 10
18.8798938527
 20
38.7694614737
 10
18.6281747417
 20
38.9659652558
 10
18.3667621719
 20
39.1483019224
 10
18.0955164281
 20
39.3168067115
 10
17.8165176675
 20
39.4703120172
 10
17.5294755827
 20
39.6088250181
 10
17.2346804812
 20
39.7323385355
 10
16.9350834433
 20
39.8396634271
 10
16.6308245542
 20
39.9305070022
 10
16.3217637287
 20
40.0051619515
 10
16.0104317911
 20
40.0633172045
 10
15.6976723495
 20
40.1048690712
 10
15.3826417958
 20
40.1299212417
 10
15.06534013
 20
40.1384737159
  0
LWPOLYLINE
  5
630
100
AcDbEntity
  8
RACCORDO
100
AcDbPolyline
 62
7
  6
CONTINUOUS
 90
6
 70
0
 10
11.2166760236
 20
-22.0601481866
 10
11.2063907414
 20
-22.0706079338
 10
11.1977612781
 20
-22.079105136
 10
11.1910664622
 20
-22.0854062238
 10
11.1866295244
 20
-22.0897447666
 10
11.1847456497
 20
-22.0921207644
  0
LINE
  5
631
100
AcDbEntity
  8
0
100
AcDbLine
 62
7
  6
CONTINUOUS
 10
11.9850310282
 20
-23.7769249842
 11
11.9664354826
 21
-23.7957136392
  0
LWPOLYLINE
  5
632
100
AcDbEntity
  8
RACCORDO
100
AcDbPolyline
 62
7
  6
CONTINUOUS
 90
3
 70
0
 10
11.2554800295
 20
-22.0213626484
 10
11.2414482539
 20
-22.0355255438
 10
11.2166760236
 20
-22.0601481866
  0
LINE
  5
633
100
AcDbEntity
  8
0
100
AcDbLine
 62
7
  6
CONTINUOUS
 10
12.1066173355
 20
-23.6555317863
 11
12.0946075323
 21
-23.6676534843
  0
LINE
  5
634
100
AcDbEntity
  8
RACCORDO
100
AcDbLine
 62
7
  6
CONTINUOUS
 10
11.4846999582
 20
-21.7921664559
 11
11.4663984793
 21
-21.8106032854
  0
LINE
  5
635
100
AcDbEntity
  8
DRAFT
100
AcDbLine
 62
7
  6
CONTINUOUS
 10
8.1041930379
 20
-24.7165056853
 11
10.5260078157
 21
-22.2946909075
  0
LINE
  5
636
100
AcDbEntity
  8
RACCORDO
100
AcDbLine
 62
7
  6
CONTINUOUS
 10
11.1847456497
 20
-22.0921207644
 11
10.9821755067
 21
-22.2946909075
  0
LINE
  5
637
100
AcDbEntity
  8
RACCORDO
100
AcDbLine
 62
250
  6
CONTINUOUS
 10
11.01534013
 20
-23.9615719756
 11
11.1847456497
 21
-23.7921664559
  0
LINE
  5
638
100
AcDbEntity
  8
0
100
AcDbLine
 62
7
  6
CONTINUOUS
 10
12.21534013
 20
-23.1615262841
 11
12.1717011385
 21
-23.2051652757
  0
LINE
  5
639
100
AcDbEntity
  8
RACCORDO
100
AcDbLine
 62
250
  6
CONTINUOUS
 10
11.3152944386
 20
-24.2615262841
 11
11.4846999582
 21
-24.0921207644
  0
LINE
  5
63A
100
AcDbEntity
  8
0
100
AcDbLine
 62
7
  6
CONTINUOUS
 10
12.0931546755
 20
-24.2615262841
 11
12.21534013
 21
-24.1393408296
  0
LINE
  5
63B
100
AcDbEntity
  8
RACCORDO
100
AcDbLine
 62
7
  6
CONTINUOUS
 10
11.3197838833
 20
-21.9570825308
 11
11.286282435
 21
-21.9906577808
  0
LINE
  5
63C
100
AcDbEntity
  8
RACCORDO
100
AcDbLine
 62
7
  6
CONTINUOUS
 10
11.286282435
 20
-21.9906577808
 11
11.2554800295
 21
-22.0213626484
  0
LINE
  5
63D
100
AcDbEntity
  8
RACCORDO
100
AcDbLine
 62
7
  6
CONTINUOUS
 10
11.4663984793
 20
-21.8106032854
 11
11.3197838833
 21
-21.9570825308
  0
LINE
  5
63E
100
AcDbEntity
  8
0
100
AcDbLine
 62
7
  6
CONTINUOUS
 10
12.0946075323
 20
-23.6676534843
 11
11.9850310282
 21
-23.7769249842
  0
LWPOLYLINE
  5
63F
100
AcDbEntity
  8
DRAFT
100
AcDbPolyline
 62
7
  6
CONTINUOUS
 90
3
 70
0
 10
8.0378435758
 20
-25.0929670361
 10
8.0967943002
 20
-25.0502303338
 10
8.1041930379
 20
-25.0448945233
  0
LINE
  5
640
100
AcDbEntity
  8
0
100
AcDbLine
 62
7
  6
CONTINUOUS
 10
8.6808224128
 20
-22.2648954625
 11
8.5786592622
 21
-22.3159614743
  0
LINE
  5
641
100
AcDbEntity
  8
0
100
AcDbLine
 62
7
  6
CONTINUOUS
 10
14.3485047534
 20
-19.6615262841
 11
14.332795195
 21
-19.6693804651
  0
LINE
  5
642
100
AcDbEntity
  8
RACCORDO
100
AcDbLine
 62
7
  6
CONTINUOUS
 10
8.5668162259
 20
-22.321881008
 11
8.56534013
 21
-22.3226186868
  0
LWPOLYLINE
  5
643
100
AcDbEntity
  8
0
100
AcDbPolyline
 62
7
  6
CONTINUOUS
 90
25
 70
0
 10
-0.2870521304
 20
-25.1615262841
 10
-0.4268312977
 20
-25.2216379884
 10
-0.5646194862
 20
-25.2860726839
 10
-0.7002836593
 20
-25.3547633203
 10
-0.8336931002
 20
-25.427638228
 10
-0.9647194687
 20
-25.504622848
 10
-1.0932367502
 20
-25.5856398007
 10
-1.2191219519
 20
-25.6706064144
 10
-1.3422541893
 20
-25.7594359123
 10
-1.4625145038
 20
-25.8520390176
 10
-1.5797872926
 20
-25.948321093
 10
-1.6939617531
 20
-26.0481854022
 10
-1.8049303901
 20
-26.1515343226
 10
-1.9125839716
 20
-26.2582601111
 10
-2.016824452
 20
-26.368259301
 10
-2.1175645307
 20
-26.4814371706
 10
-2.2147072413
 20
-26.5976811211
 10
-2.3081603106
 20
-26.7168767901
 10
-2.3978458391
 20
-26.8389246948
 10
-2.4836767079
 20
-26.9637055477
 10
-2.5655696336
 20
-27.0910972543
 10
-2.6434547699
 20
-27.220994236
 10
-2.7172578422
 20
-27.3532768051
 10
-2.7869021489
 20
-27.4878102035
 10
-2.8523184253
 20
-27.624463619
  0
LINE
  5
644
100
AcDbEntity
  8
DRAFT
100
AcDbLine
 62
7
  6
CONTINUOUS
 10
0.0928366842
 20
-24.6890228383
 11
0.0264872222
 21
-24.7165056853
  0
LINE
  5
645
100
AcDbEntity
  8
RACCORDO
100
AcDbLine
 62
7
  6
CONTINUOUS
 10
7.3749468839
 20
-22.1688286922
 11
6.9263772086
 21
-22.3250551898
  0
LINE
  5
646
100
AcDbEntity
  8
0
100
AcDbLine
 62
7
  6
CONTINUOUS
 10
1.7390479119
 20
25.4263806407
 11
1.7391874167
 21
25.4263878499
  0
LWPOLYLINE
  5
647
100
AcDbEntity
  8
0
100
AcDbPolyline
 62
250
  6
CONTINUOUS
 90
6
 70
0
 10
1.9836786156
 20
25.374692531
 10
2.0329721748
 20
25.3771560132
 10
2.0817842432
 20
25.3844791581
 10
2.1296380332
 20
25.3965904345
 10
2.1760661175
 20
25.4133715417
 10
2.2147954575
 20
25.4318777849
  0
LINE
  5
648
100
AcDbEntity
  8
0
100
AcDbLine
 62
250
  6
CONTINUOUS
 10
1.700600876
 20
25.4238440154
 11
1.7390479119
 21
25.4263806407
  0
LWPOLYLINE
  5
649
100
AcDbEntity
  8
0
100
AcDbPolyline
 62
250
  6
CONTINUOUS
 90
3
 70
0
 10
1.7391874167
 20
25.4263878499
 10
1.7498944556
 20
25.4263074996
 10
1.7539977399
 20
25.4269231047
  0
LINE
  5
64A
100
AcDbEntity
  8
0
100
AcDbLine
 62
7
  6
CONTINUOUS
 10
1.7398092189
 20
25.426417812
 11
1.7427390367
 21
25.4265422005
  0
LINE
  5
64B
100
AcDbEntity
  8
0
100
AcDbLine
 62
7
  6
CONTINUOUS
 10
1.7427390367
 20
25.4265422005
 11
1.7475335985
 21
25.4267174034
  0
LINE
  5
64C
100
AcDbEntity
  8
0
100
AcDbLine
 62
7
  6
CONTINUOUS
 10
1.7475335985
 20
25.4267174034
 11
1.7581297769
 21
25.4270428063
  0
LINE
  5
64D
100
AcDbEntity
  8
0
100
AcDbLine
 62
7
  6
CONTINUOUS
 10
1.7581297769
 20
25.4270428063
 11
1.7782131409
 21
25.427545854
  0
LINE
  5
64E
100
AcDbEntity
  8
0
100
AcDbLine
 62
250
  6
CONTINUOUS
 10
6.0922921452
 20
25.3722501543
 11
6.0358431876
 21
25.371108697
  0
LINE
  5
64F
100
AcDbEntity
  8
0
100
AcDbLine
 62
7
  6
CONTINUOUS
 10
1.7782131409
 20
25.427545854
 11
1.8112427713
 21
25.4282035042
  0
LINE
  5
650
100
AcDbEntity
  8
0
100
AcDbLine
 62
250
  6
CONTINUOUS
 10
1.8101264828
 20
25.4282725605
 11
1.8112427713
 21
25.4282035042
  0
LINE
  5
651
100
AcDbEntity
  8
0
100
AcDbLine
 62
250
  6
CONTINUOUS
 10
1.835152387
 20
25.428594898
 11
1.8419544915
 21
25.4287705727
  0
LINE
  5
652
100
AcDbEntity
  8
0
100
AcDbLine
 62
7
  6
CONTINUOUS
 10
1.8112427713
 20
25.4282035042
 11
1.8816685191
 21
25.4292463968
  0
LINE
  5
653
100
AcDbEntity
  8
0
100
AcDbLine
 62
250
  6
CONTINUOUS
 10
1.8775918227
 20
25.4292498169
 11
1.8816685191
 21
25.4292463968
  0
LINE
  5
654
100
AcDbEntity
  8
0
100
AcDbLine
 62
250
  6
CONTINUOUS
 10
6.0358431876
 20
25.371108697
 11
5.9177366123
 21
25.3695581006
  0
LINE
  5
655
100
AcDbEntity
  8
0
100
AcDbLine
 62
7
  6
CONTINUOUS
 10
1.8816685191
 20
25.4292463968
 11
2.0257318402
 21
25.4306900494
  0
LINE
  5
656
100
AcDbEntity
  8
0
100
AcDbLine
 62
250
  6
CONTINUOUS
 10
2.004689916
 20
25.4305504654
 11
2.0257318402
 21
25.4306900494
  0
LINE
  5
657
100
AcDbEntity
  8
0
100
AcDbLine
 62
250
  6
CONTINUOUS
 10
5.9177366123
 20
25.3695581006
 11
5.6455112196
 21
25.3675702098
  0
LINE
  5
658
100
AcDbEntity
  8
0
100
AcDbLine
 62
7
  6
CONTINUOUS
 10
2.0257318402
 20
25.4306900494
 11
2.3242943353
 21
25.4323277184
  0
LWPOLYLINE
  5
659
100
AcDbEntity
  8
0
100
AcDbPolyline
 62
250
  6
CONTINUOUS
 90
3
 70
0
 10
5.6455112196
 20
25.3675702098
 10
5.2271284846
 20
25.3664601461
 10
5.1527877139
 20
25.3664355856
  0
LINE
  5
65A
100
AcDbEntity
  8
DRAFT
100
AcDbLine
 62
7
  6
CONTINUOUS
 10
19.76534013
 20
25.3384737159
 11
18.36534013
 21
25.3384737159
  0
LINE
  5
65B
100
AcDbEntity
  8
DRAFT
100
AcDbLine
 62
7
  6
CONTINUOUS
 10
16.06534013
 20
25.3384737159
 11
15.31534013
 21
25.3384737159
  0
LINE
  5
65C
100
AcDbEntity
  8
0
100
AcDbLine
 62
7
  6
CONTINUOUS
 10
-7.18465987
 20
25.3384737159
 11
-6.2178244933
 21
25.3384737159
  0
LINE
  5
65D
100
AcDbEntity
  8
0
100
AcDbLine
 62
7
  6
CONTINUOUS
 10
-3.0514952466
 20
25.3384737159
 11
-0.4800430388
 21
25.3384737159
  0
LINE
  5
65E
100
AcDbEntity
  8
DRAFT
100
AcDbLine
 62
7
  6
CONTINUOUS
 10
-7.18465987
 20
25.3384737159
 11
-7.93465987
 21
25.3384737159
  0
LINE
  5
65F
100
AcDbEntity
  8
0
100
AcDbLine
 62
7
  6
CONTINUOUS
 10
8.6107232988
 20
25.3384737159
 11
11.1821755067
 21
25.3384737159
  0
LINE
  5
660
100
AcDbEntity
  8
DRAFT
100
AcDbLine
 62
7
  6
CONTINUOUS
 10
-10.23465987
 20
25.3384737159
 11
-11.63465987
 21
25.3384737159
  0
LINE
  5
661
100
AcDbEntity
  8
0
100
AcDbLine
 62
7
  6
CONTINUOUS
 10
14.3485047534
 20
25.3384737159
 11
15.31534013
 21
25.3384737159
  0
LINE
  5
662
100
AcDbEntity
  8
0
100
AcDbLine
 62
7
  6
CONTINUOUS
 10
3.7204867613
 20
25.3388203648
 11
4.4101934988
 21
25.3388203648
  0
LINE
  5
663
100
AcDbEntity
  8
0
100
AcDbLine
 62
7
  6
CONTINUOUS
 10
-3.067204805
 20
25.3463278969
 11
-6.2021149349
 21
25.3463278969
  0
LINE
  5
664
100
AcDbEntity
  8
0
100
AcDbLine
 62
7
  6
CONTINUOUS
 10
11.1978850651
 20
25.3463278969
 11
14.332795195
 21
25.3463278969
  0
LINE
  5
665
100
AcDbEntity
  8
0
100
AcDbLine
 62
7
  6
CONTINUOUS
 10
1.4700709426
 20
25.3570605123
 11
3.7188909552
 21
25.3570605123
  0
LINE
  5
666
100
AcDbEntity
  8
0
100
AcDbLine
 62
7
  6
CONTINUOUS
 10
4.4117893049
 20
25.3570605123
 11
6.6606093174
 21
25.3570605123
  0
LINE
  5
667
100
AcDbEntity
  8
0
100
AcDbLine
 62
7
  6
CONTINUOUS
 10
5.1527877139
 20
25.3664355856
 11
2.9778925461
 21
25.3664355856
  0
LINE
  5
668
100
AcDbEntity
  8
RACCORDO
100
AcDbLine
 62
7
  6
CONTINUOUS
 10
-0.2786568536
 20
25.4161428392
 11
0.9007645144
 21
25.4161428392
  0
LINE
  5
669
100
AcDbEntity
  8
RACCORDO
100
AcDbLine
 62
7
  6
CONTINUOUS
 10
7.2299157457
 20
25.4161428392
 11
8.4093371136
 21
25.4161428392
  0
LINE
  5
66A
100
AcDbEntity
  8
0
100
AcDbLine
 62
7
  6
CONTINUOUS
 10
-8.9057499707
 20
25.4405933001
 11
17.0364302308
 21
25.4405933001
  0
LINE
  5
66B
100
AcDbEntity
  8
0
100
AcDbLine
 62
250
  6
CONTINUOUS
 10
-9.1057499719
 20
25.6405856847
 11
17.2364302319
 21
25.6405856847
  0
LINE
  5
66C
100
AcDbEntity
  8
0
100
AcDbLine
 62
250
  6
CONTINUOUS
 10
17.4142447774
 20
26.3895690685
 11
11.9664354826
 21
26.3895690685
  0
LINE
  5
66D
100
AcDbEntity
  8
0
100
AcDbLine
 62
250
  6
CONTINUOUS
 10
-3.8357552226
 20
26.3895690685
 11
-9.2835645174
 21
26.3895690685
  0
LINE
  5
66E
100
AcDbEntity
  8
DRAFT
100
AcDbLine
 62
7
  6
CONTINUOUS
 10
-11.63465987
 20
26.5384737159
 11
-10.23465987
 21
26.5384737159
  0
LINE
  5
66F
100
AcDbEntity
  8
DRAFT
100
AcDbLine
 62
7
  6
CONTINUOUS
 10
18.36534013
 20
26.5384737159
 11
19.76534013
 21
26.5384737159
  0
LINE
  5
670
100
AcDbEntity
  8
0
100
AcDbLine
 62
250
  6
CONTINUOUS
 10
17.2142752384
 20
26.5895386075
 11
12.1664050217
 21
26.5895386075
  0
LINE
  5
671
100
AcDbEntity
  8
0
100
AcDbLine
 62
250
  6
CONTINUOUS
 10
-4.0357247616
 20
26.5895386075
 11
-9.0835949783
 21
26.5895386075
  0
LINE
  5
672
100
AcDbEntity
  8
0
100
AcDbLine
 62
7
  6
CONTINUOUS
 10
17.16534013
 20
26.6384737159
 11
12.21534013
 21
26.6384737159
  0
LINE
  5
673
100
AcDbEntity
  8
0
100
AcDbLine
 62
7
  6
CONTINUOUS
 10
-4.08465987
 20
26.6384737159
 11
-9.03465987
 21
26.6384737159
  0
LINE
  5
674
100
AcDbEntity
  8
ASSI
100
AcDbLine
 62
7
  6
CONTINUOUS
 10
6.36534013
 20
26.6639230666
 11
1.76534013
 21
26.6639230666
  0
LINE
  5
675
100
AcDbEntity
  8
ASSI
100
AcDbLine
 62
250
  6
CONTINUOUS
 10
1.76534013
 20
26.9236779278
 11
6.36534013
 21
26.9236779278
  0
LINE
  5
676
100
AcDbEntity
  8
ASSI
100
AcDbLine
 62
250
  6
CONTINUOUS
 10
1.76534013
 20
27.1834855489
 11
6.36534013
 21
27.1834855489
  0
LINE
  5
677
100
AcDbEntity
  8
RACCORDO
100
AcDbLine
 62
250
  6
CONTINUOUS
 10
11.4846999582
 20
27.4691138877
 11
6.36534013
 21
27.4691138877
  0
LINE
  5
678
100
AcDbEntity
  8
RACCORDO
100
AcDbLine
 62
250
  6
CONTINUOUS
 10
1.76534013
 20
27.4691138877
 11
-3.3540196982
 21
27.4691138877
  0
LINE
  5
679
100
AcDbEntity
  8
RACCORDO
100
AcDbLine
 62
250
  6
CONTINUOUS
 10
11.1847456497
 20
27.7690681962
 11
6.36534013
 21
27.7690681962
  0
LINE
  5
67A
100
AcDbEntity
  8
RACCORDO
100
AcDbLine
 62
250
  6
CONTINUOUS
 10
1.76534013
 20
27.7690681962
 11
-3.0540653896
 21
27.7690681962
  0
LINE
  5
67B
100
AcDbEntity
  8
ASSI
100
AcDbLine
 62
7
  6
CONTINUOUS
 10
6.36534013
 20
27.7743945105
 11
1.76534013
 21
27.7743945105
  0
LINE
  5
67C
100
AcDbEntity
  8
RACCORDO
100
AcDbLine
 62
7
  6
CONTINUOUS
 10
8.3669854005
 20
27.8424708588
 11
7.5771693227
 21
27.8424708588
  0
LINE
  5
67D
100
AcDbEntity
  8
RACCORDO
100
AcDbLine
 62
7
  6
CONTINUOUS
 10
0.5535109373
 20
27.8424708588
 11
-0.2363051405
 21
27.8424708588
  0
LINE
  5
67E
100
AcDbEntity
  8
0
100
AcDbLine
 62
250
  6
CONTINUOUS
 10
2.9778925461
 20
25.3664355856
 11
2.4992474862
 21
25.36750241
  0
LINE
  5
67F
100
AcDbEntity
  8
0
100
AcDbLine
 62
7
  6
CONTINUOUS
 10
2.3242943353
 20
25.4323277184
 11
5.8865886925
 21
25.4320134491
  0
LINE
  5
680
100
AcDbEntity
  8
0
100
AcDbLine
 62
250
  6
CONTINUOUS
 10
5.8785184492
 20
25.432067472
 11
5.8865886925
 21
25.4320134491
  0
LINE
  5
681
100
AcDbEntity
  8
0
100
AcDbLine
 62
7
  6
CONTINUOUS
 10
5.8865886925
 20
25.4320134491
 11
6.1510939356
 21
25.4302924736
  0
LINE
  5
682
100
AcDbEntity
  8
0
100
AcDbLine
 62
250
  6
CONTINUOUS
 10
2.4992474862
 20
25.36750241
 11
2.2241921446
 21
25.3694422668
  0
LINE
  5
683
100
AcDbEntity
  8
0
100
AcDbLine
 62
250
  6
CONTINUOUS
 10
6.1431651924
 20
25.4304022603
 11
6.1510939356
 21
25.4302924736
  0
LWPOLYLINE
  5
684
100
AcDbEntity
  8
0
100
AcDbPolyline
 62
7
  6
CONTINUOUS
 90
12
 70
0
 10
3.7204867613
 20
25.3388203648
 10
3.7135341394
 20
25.3389115186
 10
3.7065603726
 20
25.3393287015
 10
3.6995810023
 20
25.3400759141
 10
3.6926167604
 20
25.3411554311
 10
3.6856790983
 20
25.342570298
 10
3.6787706335
 20
25.3443265475
 10
3.671909199
 20
25.3464269536
 10
3.6651125705
 20
25.3488735695
 10
3.6583851828
 20
25.3516741132
 10
3.6517423031
 20
25.3548331217
 10
3.6452091214
 20
25.3583495618
  0
LINE
  5
685
100
AcDbEntity
  8
0
100
AcDbLine
 62
7
  6
CONTINUOUS
 10
6.1510939356
 20
25.4302924736
 11
6.2697722156
 21
25.4289702558
  0
LINE
  5
686
100
AcDbEntity
  8
0
100
AcDbLine
 62
250
  6
CONTINUOUS
 10
6.2662726376
 20
25.4290809863
 11
6.2697722156
 21
25.4289702558
  0
LINE
  5
687
100
AcDbEntity
  8
0
100
AcDbLine
 62
250
  6
CONTINUOUS
 10
6.2981301056
 20
25.4285582172
 11
6.3008171639
 21
25.4285907967
  0
LINE
  5
688
100
AcDbEntity
  8
0
100
AcDbLine
 62
250
  6
CONTINUOUS
 10
2.2241921446
 20
25.3694422668
 11
2.1016713095
 21
25.3709959274
  0
LINE
  5
689
100
AcDbEntity
  8
0
100
AcDbLine
 62
7
  6
CONTINUOUS
 10
6.2697722156
 20
25.4289702558
 11
6.3229901232
 21
25.4281400143
  0
LWPOLYLINE
  5
68A
100
AcDbEntity
  8
0
100
AcDbPolyline
 62
250
  6
CONTINUOUS
 90
6
 70
0
 10
2.1016713095
 20
25.3709959274
 10
2.0416290784
 20
25.3721730274
 10
2.0190710812
 20
25.3727874153
 10
2.0020282857
 20
25.3734098286
 10
1.9902307972
 20
25.3740448671
 10
1.9836786156
 20
25.374692531
  0
LINE
  5
68B
100
AcDbEntity
  8
0
100
AcDbLine
 62
7
  6
CONTINUOUS
 10
6.3229901232
 20
25.4281400143
 11
6.3569000139
 21
25.4274426513
  0
LWPOLYLINE
  5
68C
100
AcDbEntity
  8
0
100
AcDbPolyline
 62
250
  6
CONTINUOUS
 90
7
 70
0
 10
6.3721770598
 20
25.4270547841
 10
6.3828398914
 20
25.4269619866
 10
6.4024564662
 20
25.4263636931
 10
6.4170948897
 20
25.4257515186
 10
6.4264012057
 20
25.4251295652
 10
6.4307293705
 20
25.4244937308
 10
6.430079384
 20
25.4238440154
  0
LINE
  5
68D
100
AcDbEntity
  8
0
100
AcDbLine
 62
7
  6
CONTINUOUS
 10
6.3569000139
 20
25.4274426513
 11
6.3721770598
 21
25.4270547841
  0
LINE
  5
68E
100
AcDbEntity
  8
0
100
AcDbLine
 62
7
  6
CONTINUOUS
 10
6.3721770598
 20
25.4270547841
 11
6.3832728291
 21
25.4267129948
  0
LINE
  5
68F
100
AcDbEntity
  8
0
100
AcDbLine
 62
7
  6
CONTINUOUS
 10
6.3832728291
 20
25.4267129948
 11
6.3883042739
 21
25.4265267548
  0
LWPOLYLINE
  5
690
100
AcDbEntity
  8
0
100
AcDbPolyline
 62
7
  6
CONTINUOUS
 90
3
 70
0
 10
6.3883042739
 20
25.4265267548
 10
6.3912834796
 20
25.4263979736
 10
6.39148488
 20
25.426388328
  0
LWPOLYLINE
  5
691
100
AcDbEntity
  8
0
100
AcDbPolyline
 62
250
  6
CONTINUOUS
 90
6
 70
0
 10
6.1470016445
 20
25.374692531
 10
6.0977079069
 20
25.377156031
 10
6.0488956937
 20
25.384479223
 10
6.0010417957
 20
25.3965905666
 10
5.9546136423
 20
25.413371751
 10
5.9158864781
 20
25.4318770092
  0
LINE
  5
692
100
AcDbEntity
  8
0
100
AcDbLine
 62
250
  6
CONTINUOUS
 10
6.430079384
 20
25.4238440154
 11
6.39148488
 21
25.426388328
  0
LWPOLYLINE
  5
693
100
AcDbEntity
  8
0
100
AcDbPolyline
 62
250
  6
CONTINUOUS
 90
3
 70
0
 10
6.3912834796
 20
25.4263979736
 10
6.3807858248
 20
25.4263074976
 10
6.3766746472
 20
25.4269242867
  0
LINE
  5
694
100
AcDbEntity
  8
RACCORDO
100
AcDbLine
 62
7
  6
CONTINUOUS
 10
7.3749468839
 20
27.845776124
 11
6.9263772086
 21
28.0020026216
  0
LINE
  5
695
100
AcDbEntity
  8
DRAFT
100
AcDbLine
 62
7
  6
CONTINUOUS
 10
0.0928366842
 20
30.3659702701
 11
0.0264872222
 21
30.3934531171
  0
LINE
  5
696
100
AcDbEntity
  8
0
100
AcDbLine
 62
7
  6
CONTINUOUS
 10
8.5786592622
 20
27.9929089061
 11
8.6808224128
 21
27.9418428943
  0
LINE
  5
697
100
AcDbEntity
  8
0
100
AcDbLine
 62
7
  6
CONTINUOUS
 10
14.3485047534
 20
25.3384737159
 11
14.332795195
 21
25.3463278969
  0
LWPOLYLINE
  5
698
100
AcDbEntity
  8
DRAFT
100
AcDbPolyline
 62
7
  6
CONTINUOUS
 90
3
 70
0
 10
8.0378435758
 20
30.7699144679
 10
8.0451891718
 20
30.7645674622
 10
8.1041930379
 20
30.7218419551
  0
LINE
  5
699
100
AcDbEntity
  8
0
100
AcDbLine
 62
7
  6
CONTINUOUS
 10
11.9852241376
 20
29.4540655254
 11
11.9664354826
 21
29.472661071
  0
LINE
  5
69A
100
AcDbEntity
  8
0
100
AcDbLine
 62
7
  6
CONTINUOUS
 10
12.1066173355
 20
29.3324792181
 11
12.0944956375
 21
29.3444890213
  0
LWPOLYLINE
  5
69B
100
AcDbEntity
  8
RACCORDO
100
AcDbPolyline
 62
7
  6
CONTINUOUS
 90
7
 70
0
 10
11.2414482539
 20
27.7124729756
 10
11.2166760236
 20
27.7370956183
 10
11.2063907414
 20
27.7475553656
 10
11.1977612781
 20
27.7560525678
 10
11.1910664622
 20
27.7623536556
 10
11.1866295244
 20
27.7666921984
 10
11.1847456497
 20
27.7690681962
  0
LWPOLYLINE
  5
69C
100
AcDbEntity
  8
RACCORDO
100
AcDbPolyline
 62
7
  6
CONTINUOUS
 90
3
 70
0
 10
11.286282435
 20
27.6676052126
 10
11.2554800295
 20
27.6983100801
 10
11.2414482539
 20
27.7124729756
  0
LINE
  5
69D
100
AcDbEntity
  8
RACCORDO
100
AcDbLine
 62
7
  6
CONTINUOUS
 10
11.4663984793
 20
27.4875507172
 11
11.4106177986
 21
27.5431747119
  0
LINE
  5
69E
100
AcDbEntity
  8
DRAFT
100
AcDbLine
 62
7
  6
CONTINUOUS
 10
8.1041930379
 20
30.3934531171
 11
10.5260078157
 21
27.9716383393
  0
LINE
  5
69F
100
AcDbEntity
  8
RACCORDO
100
AcDbLine
 62
7
  6
CONTINUOUS
 10
11.1847456497
 20
27.7690681962
 11
10.9821755067
 21
27.9716383393
  0
LINE
  5
6A0
100
AcDbEntity
  8
RACCORDO
100
AcDbLine
 62
250
  6
CONTINUOUS
 10
11.1847456497
 20
29.4691138877
 11
11.01534013
 21
29.6385194073
  0
LINE
  5
6A1
100
AcDbEntity
  8
0
100
AcDbLine
 62
7
  6
CONTINUOUS
 10
12.21534013
 20
28.8384737159
 11
12.1717011385
 21
28.8821127075
  0
LINE
  5
6A2
100
AcDbEntity
  8
RACCORDO
100
AcDbLine
 62
250
  6
CONTINUOUS
 10
11.4846999582
 20
29.7690681962
 11
11.3152944386
 21
29.9384737159
  0
LINE
  5
6A3
100
AcDbEntity
  8
0
100
AcDbLine
 62
7
  6
CONTINUOUS
 10
12.0931546755
 20
29.9384737159
 11
12.21534013
 21
29.8162882614
  0
LINE
  5
6A4
100
AcDbEntity
  8
RACCORDO
100
AcDbLine
 62
7
  6
CONTINUOUS
 10
11.4106177986
 20
27.5431747119
 11
11.286282435
 21
27.6676052126
  0
LINE
  5
6A5
100
AcDbEntity
  8
RACCORDO
100
AcDbLine
 62
7
  6
CONTINUOUS
 10
11.4846999582
 20
27.4691138877
 11
11.4663984793
 21
27.4875507172
  0
LINE
  5
6A6
100
AcDbEntity
  8
0
100
AcDbLine
 62
7
  6
CONTINUOUS
 10
12.0944956375
 20
29.3444890213
 11
11.9852241376
 21
29.4540655254
  0
LWPOLYLINE
  5
6A7
100
AcDbEntity
  8
DRAFT
100
AcDbPolyline
 62
7
  6
CONTINUOUS
 90
13
 70
0
 10
18.4926677308
 20
32.848573259
 10
18.5716661348
 20
32.5803412344
 10
18.6570038474
 20
32.3254957687
 10
18.7474677577
 20
32.0840009495
 10
18.8415552735
 20
31.8565800613
 10
18.9384730013
 20
31.6422320528
 10
19.0383929222
 20
31.4383537161
 10
19.1405518222
 20
31.2448143965
 10
19.2442351604
 20
31.0614456852
 10
19.3501723795
 20
30.8857565582
 10
19.4583890562
 20
30.7168960403
 10
19.5679873778
 20
30.5555314847
 10
19.6785384471
 20
30.401535746
  0
LWPOLYLINE
  5
6A8
100
AcDbEntity
  8
0
100
AcDbPolyline
 62
7
  6
CONTINUOUS
 90
10
 70
0
 10
10.2757696273
 20
-32.7856878863
 10
10.3697807151
 20
-32.6712614982
 10
10.4602565888
 20
-32.5540205296
 10
10.5471134436
 20
-32.4340743771
 10
10.6302742751
 20
-32.3115314377
 10
10.7096585053
 20
-32.1865092378
 10
10.7851831273
 20
-32.0591353551
 10
10.8567762546
 20
-31.9295331221
 10
10.9243761054
 20
-31.7978204842
 10
10.9879213648
 20
-31.664120838
  0
LINE
  5
6A9
100
AcDbEntity
  8
0
100
AcDbLine
 62
7
  6
CONTINUOUS
 10
17.2142752384
 20
-20.9125911757
 11
17.2154749267
 21
-20.911346633
  0
LWPOLYLINE
  5
6AA
100
AcDbEntity
  8
0
100
AcDbPolyline
 62
7
  6
CONTINUOUS
 90
3
 70
0
 10
17.239701746
 20
-20.8872532852
 10
17.2628180482
 20
-20.864021282
 10
17.276949021
 20
-20.8499691473
  0
LWPOLYLINE
  5
6AB
100
AcDbEntity
  8
0
100
AcDbPolyline
 62
7
  6
CONTINUOUS
 90
7
 70
0
 10
17.276949021
 20
-20.8499691473
 10
17.3096189576
 20
-20.8172182981
 10
17.3281579213
 20
-20.7987888095
 10
17.3479150281
 20
-20.7789513861
 10
17.3688068015
 20
-20.7577899273
 10
17.390916718
 20
-20.7355954421
 10
17.4142447774
 20
-20.7126216367
  0
LINE
  5
6AC
100
AcDbEntity
  8
DRAFT
100
AcDbLine
 62
7
  6
CONTINUOUS
 10
18.3961328732
 20
-19.6307335409
 11
18.36534013
 21
-19.6615262841
  0
LINE
  5
6AD
100
AcDbEntity
  8
0
100
AcDbLine
 62
7
  6
CONTINUOUS
 10
17.16534013
 20
-20.9615262841
 11
17.2142752384
 21
-20.9125911757
  0
LINE
  5
6AE
100
AcDbEntity
  8
0
100
AcDbLine
 62
7
  6
CONTINUOUS
 10
17.2154749267
 20
-20.911346633
 11
17.239701746
 21
-20.8872532852
  0
LINE
  5
6AF
100
AcDbEntity
  8
RACCORDO
100
AcDbLine
 62
250
  6
CONTINUOUS
 10
-10.1963042134
 20
-30.1616083467
 11
-10.1673205604
 21
-30.1516373995
  0
LINE
  5
6B0
100
AcDbEntity
  8
RACCORDO
100
AcDbLine
 62
250
  6
CONTINUOUS
 10
-10.225457634
 20
-30.1714888984
 11
-10.1963042134
 21
-30.1616083467
  0
LINE
  5
6B1
100
AcDbEntity
  8
DRAFT
100
AcDbLine
 62
7
  6
CONTINUOUS
 10
19.76534013
 20
-20.8615262841
 11
19.6830046075
 21
-20.8889491574
  0
LINE
  5
6B2
100
AcDbEntity
  8
RACCORDO
100
AcDbLine
 62
250
  6
CONTINUOUS
 10
-10.2547815817
 20
-30.1812794163
 11
-10.225457634
 21
-30.1714888984
  0
LINE
  5
6B3
100
AcDbEntity
  8
0
100
AcDbLine
 62
250
  6
CONTINUOUS
 10
3.5680942283
 20
29.7538341641
 11
3.3750267462
 21
29.7021018882
  0
LWPOLYLINE
  5
6B4
100
AcDbEntity
  8
0
100
AcDbPolyline
 62
250
  6
CONTINUOUS
 90
13
 70
0
 10
4.5625860317
 20
29.5539559987
 10
4.5843360215
 20
29.5551626286
 10
4.6058278447
 20
29.5587275435
 10
4.6268063869
 20
29.5646084307
 10
4.647022617
 20
29.5727354818
 10
4.6662365708
 20
29.5830122322
 10
4.6842201942
 20
29.5953167148
 10
4.7007600238
 20
29.6095028975
 10
4.7156596976
 20
29.6254023831
 10
4.7287423194
 20
29.642826416
 10
4.7398525858
 20
29.6615681548
 10
4.7488586196
 20
29.6814051367
 10
4.7556535138
 20
29.7021018882
  0
LINE
  5
6B5
100
AcDbEntity
  8
0
100
AcDbLine
 62
7
  6
CONTINUOUS
 10
1.2104213911
 20
27.9995672406
 11
1.2043030515
 21
27.9993853587
  0
LWPOLYLINE
  5
6B6
100
AcDbEntity
  8
0
100
AcDbPolyline
 62
250
  6
CONTINUOUS
 90
13
 70
0
 10
1.5244864207
 20
30.153955996
 10
1.4947797348
 20
30.1530783204
 10
1.4648475488
 20
30.1503958427
 10
1.4348033412
 20
30.1458584228
 10
1.4048414775
 20
30.1394412867
 10
1.3750112993
 20
30.1310992853
 10
1.345229537
 20
30.1207218539
 10
1.3158343286
 20
30.1083348146
 10
1.2867934119
 20
30.0938282661
 10
1.2575684976
 20
30.07671647
 10
1.2282124864
 20
30.0566663402
 10
1.1992886177
 20
30.0336661211
 10
1.1711484052
 20
30.0075985983
  0
LWPOLYLINE
  5
6B7
100
AcDbEntity
  8
0
100
AcDbPolyline
 62
250
  6
CONTINUOUS
 90
13
 70
0
 10
1.5244864196
 20
30.3538341641
 10
1.4826205875
 20
30.3526979134
 10
1.4407712176
 20
30.3489124463
 10
1.3989383099
 20
30.3424777628
 10
1.357028375
 20
30.3334886809
 10
1.3151349023
 20
30.3218503825
 10
1.2735383602
 20
30.3072784142
 10
1.2323671416
 20
30.2900015438
 10
1.1914928537
 20
30.2697910034
 10
1.1508107864
 20
30.2456760353
 10
1.1102860364
 20
30.2173330535
 10
1.0699535069
 20
30.185085644
 10
1.029813198
 20
30.1489338068
  0
LINE
  5
6B8
100
AcDbEntity
  8
0
100
AcDbLine
 62
7
  6
CONTINUOUS
 10
10.46534013
 20
27.9384737159
 11
8.8807005782
 21
27.9384737159
  0
LINE
  5
6B9
100
AcDbEntity
  8
0
100
AcDbLine
 62
7
  6
CONTINUOUS
 10
-0.7500203182
 20
27.9384737159
 11
-2.33465987
 21
27.9384737159
  0
LINE
  5
6BA
100
AcDbEntity
  8
DRAFT
100
AcDbLine
 62
7
  6
CONTINUOUS
 10
-2.8514952466
 20
27.9716383393
 11
-2.3953275557
 21
27.9716383393
  0
LINE
  5
6BB
100
AcDbEntity
  8
DRAFT
100
AcDbLine
 62
7
  6
CONTINUOUS
 10
10.5260078157
 20
27.9716383393
 11
10.9821755067
 21
27.9716383393
  0
LINE
  5
6BC
100
AcDbEntity
  8
0
100
AcDbLine
 62
7
  6
CONTINUOUS
 10
6.9202588689
 20
27.9995672406
 11
1.2104213911
 21
27.9995672406
  0
LINE
  5
6BD
100
AcDbEntity
  8
0
100
AcDbLine
 62
7
  6
CONTINUOUS
 10
6.6307463437
 20
28.2410917762
 11
5.06534013
 21
28.2410917762
  0
LINE
  5
6BE
100
AcDbEntity
  8
0
100
AcDbLine
 62
7
  6
CONTINUOUS
 10
3.06534013
 20
28.2410917762
 11
1.4999339164
 21
28.2410917762
  0
LINE
  5
6BF
100
AcDbEntity
  8
0
100
AcDbLine
 62
7
  6
CONTINUOUS
 10
-9.03465987
 20
28.8384737159
 11
-4.08465987
 21
28.8384737159
  0
LINE
  5
6C0
100
AcDbEntity
  8
0
100
AcDbLine
 62
7
  6
CONTINUOUS
 10
12.21534013
 20
28.8384737159
 11
17.16534013
 21
28.8384737159
  0
LINE
  5
6C1
100
AcDbEntity
  8
0
100
AcDbLine
 62
7
  6
CONTINUOUS
 10
-9.0782988615
 20
28.8821127075
 11
-4.0410208784
 21
28.8821127075
  0
LINE
  5
6C2
100
AcDbEntity
  8
0
100
AcDbLine
 62
7
  6
CONTINUOUS
 10
12.1717011385
 20
28.8821127075
 11
17.2089791216
 21
28.8821127075
  0
LINE
  5
6C3
100
AcDbEntity
  8
0
100
AcDbLine
 62
250
  6
CONTINUOUS
 10
-9.1433826645
 20
29.3324792181
 11
-3.9759370754
 21
29.3324792181
  0
LINE
  5
6C4
100
AcDbEntity
  8
0
100
AcDbLine
 62
250
  6
CONTINUOUS
 10
12.1066173355
 20
29.3324792181
 11
17.2740629246
 21
29.3324792181
  0
LINE
  5
6C5
100
AcDbEntity
  8
0
100
AcDbLine
 62
7
  6
CONTINUOUS
 10
3.4794815561
 20
29.4384737159
 11
4.651198704
 21
29.4384737159
  0
LINE
  5
6C6
100
AcDbEntity
  8
0
100
AcDbLine
 62
7
  6
CONTINUOUS
 10
17.8959803018
 20
29.4691138877
 11
17.4142447774
 21
29.4691138877
  0
LINE
  5
6C7
100
AcDbEntity
  8
0
100
AcDbLine
 62
7
  6
CONTINUOUS
 10
11.9664354826
 20
29.4691138877
 11
11.4846999582
 21
29.4691138877
  0
LINE
  5
6C8
100
AcDbEntity
  8
RACCORDO
100
AcDbLine
 62
250
  6
CONTINUOUS
 10
11.4846999582
 20
29.4691138877
 11
11.1847456497
 21
29.4691138877
  0
LINE
  5
6C9
100
AcDbEntity
  8
RACCORDO
100
AcDbLine
 62
250
  6
CONTINUOUS
 10
-3.3540196982
 20
29.4691138877
 11
-3.0540653896
 21
29.4691138877
  0
LINE
  5
6CA
100
AcDbEntity
  8
0
100
AcDbLine
 62
7
  6
CONTINUOUS
 10
-3.3540196982
 20
29.4691138877
 11
-3.8357552226
 21
29.4691138877
  0
LINE
  5
6CB
100
AcDbEntity
  8
0
100
AcDbLine
 62
7
  6
CONTINUOUS
 10
-9.2835645174
 20
29.4691138877
 11
-9.7653000418
 21
29.4691138877
  0
LINE
  5
6CC
100
AcDbEntity
  8
RACCORDO
100
AcDbLine
 62
250
  6
CONTINUOUS
 10
-9.7653000418
 20
29.4691138877
 11
-10.0652543503
 21
29.4691138877
  0
LINE
  5
6CD
100
AcDbEntity
  8
RACCORDO
100
AcDbLine
 62
250
  6
CONTINUOUS
 10
17.8959803018
 20
29.4691138877
 11
18.1959346104
 21
29.4691138877
  0
LINE
  5
6CE
100
AcDbEntity
  8
0
100
AcDbLine
 62
7
  6
CONTINUOUS
 10
-9.2835645174
 20
29.4708873863
 11
-3.8357552226
 21
29.4708873863
  0
LINE
  5
6CF
100
AcDbEntity
  8
0
100
AcDbLine
 62
7
  6
CONTINUOUS
 10
11.9664354826
 20
29.4708873863
 11
17.4142447774
 21
29.4708873863
  0
LINE
  5
6D0
100
AcDbEntity
  8
0
100
AcDbLine
 62
250
  6
CONTINUOUS
 10
3.5680942283
 20
29.5539559987
 11
4.5625860317
 21
29.5539559987
  0
LINE
  5
6D1
100
AcDbEntity
  8
0
100
AcDbLine
 62
250
  6
CONTINUOUS
 10
3.5680942283
 20
29.7538341641
 11
4.5625860317
 21
29.7538341641
  0
LINE
  5
6D2
100
AcDbEntity
  8
RACCORDO
100
AcDbLine
 62
250
  6
CONTINUOUS
 10
17.8959803018
 20
29.7690681962
 11
11.4846999582
 21
29.7690681962
  0
LINE
  5
6D3
100
AcDbEntity
  8
RACCORDO
100
AcDbLine
 62
250
  6
CONTINUOUS
 10
-3.3540196982
 20
29.7690681962
 11
-9.7653000418
 21
29.7690681962
  0
LINE
  5
6D4
100
AcDbEntity
  8
0
100
AcDbLine
 62
7
  6
CONTINUOUS
 10
17.16534013
 20
29.8162882614
 11
12.21534013
 21
29.8162882614
  0
LINE
  5
6D5
100
AcDbEntity
  8
0
100
AcDbLine
 62
7
  6
CONTINUOUS
 10
-4.08465987
 20
29.8162882614
 11
-9.03465987
 21
29.8162882614
  0
LINE
  5
6D6
100
AcDbEntity
  8
DRAFT
100
AcDbLine
 62
250
  6
CONTINUOUS
 10
19.76534013
 20
29.8384737159
 11
18.3961534798
 21
29.8382789538
  0
LINE
  5
6D7
100
AcDbEntity
  8
0
100
AcDbLine
 62
7
  6
CONTINUOUS
 10
17.2683250131
 20
29.9192731445
 11
12.112355247
 21
29.9192731445
  0
LINE
  5
6D8
100
AcDbEntity
  8
0
100
AcDbLine
 62
7
  6
CONTINUOUS
 10
-3.9816749869
 20
29.9192731445
 11
-9.137644753
 21
29.9192731445
  0
LINE
  5
6D9
100
AcDbEntity
  8
RACCORDO
100
AcDbLine
 62
7
  6
CONTINUOUS
 10
18.0653858215
 20
29.9384737159
 11
17.2875255845
 21
29.9384737159
  0
LINE
  5
6DA
100
AcDbEntity
  8
RACCORDO
100
AcDbLine
 62
7
  6
CONTINUOUS
 10
12.0931546755
 20
29.9384737159
 11
11.3152944386
 21
29.9384737159
  0
LINE
  5
6DB
100
AcDbEntity
  8
RACCORDO
100
AcDbLine
 62
7
  6
CONTINUOUS
 10
-3.1846141785
 20
29.9384737159
 11
-3.9624744155
 21
29.9384737159
  0
LINE
  5
6DC
100
AcDbEntity
  8
RACCORDO
100
AcDbLine
 62
7
  6
CONTINUOUS
 10
-9.1568453245
 20
29.9384737159
 11
-9.9347055614
 21
29.9384737159
  0
LINE
  5
6DD
100
AcDbEntity
  8
RACCORDO
100
AcDbLine
 62
7
  6
CONTINUOUS
 10
1.5723207474
 20
30.0384737159
 11
3.16534013
 21
30.0384737159
  0
LINE
  5
6DE
100
AcDbEntity
  8
RACCORDO
100
AcDbLine
 62
7
  6
CONTINUOUS
 10
4.96534013
 20
30.0384737159
 11
6.5583595127
 21
30.0384737159
  0
LINE
  5
6DF
100
AcDbEntity
  8
0
100
AcDbLine
 62
250
  6
CONTINUOUS
 10
3.2539528022
 20
30.1539559987
 11
1.5244864196
 21
30.1539559987
  0
LINE
  5
6E0
100
AcDbEntity
  8
0
100
AcDbLine
 62
250
  6
CONTINUOUS
 10
4.8767274578
 20
30.1539559987
 11
6.6061938404
 21
30.1539559987
  0
LINE
  5
6E1
100
AcDbEntity
  8
0
100
AcDbLine
 62
250
  6
CONTINUOUS
 10
3.4073247129
 20
30.3538341641
 11
1.5244864196
 21
30.3538341641
  0
LINE
  5
6E2
100
AcDbEntity
  8
0
100
AcDbLine
 62
250
  6
CONTINUOUS
 10
4.7233555472
 20
30.3538341641
 11
6.6061938404
 21
30.3538341641
  0
LINE
  5
6E3
100
AcDbEntity
  8
DRAFT
100
AcDbLine
 62
250
  6
CONTINUOUS
 10
-11.63465987
 20
29.8384737159
 11
-10.2654526132
 21
29.8382755505
  0
LWPOLYLINE
  5
6E4
100
AcDbEntity
  8
0
100
AcDbPolyline
 62
250
  6
CONTINUOUS
 90
16
 70
0
 10
6.6061938404
 20
30.3538341641
 10
6.639425186
 20
30.3530794186
 10
6.6726080167
 20
30.3507067474
 10
6.7057423324
 20
30.3467161504
 10
6.7388428885
 20
30.3411485183
 10
6.7718949297
 20
30.3339629605
 10
6.8048541899
 20
30.3250368047
 10
6.8376629863
 20
30.3144550479
 10
6.8703790017
 20
30.3021326932
 10
6.9031310187
 20
30.2876920779
 10
6.9359541742
 20
30.2712619731
 10
6.9688133314
 20
30.2527136076
 10
7.0017318616
 20
30.2312830059
 10
7.0347175553
 20
30.2067155092
 10
7.0677626222
 20
30.1792657761
 10
7.100867062
 20
30.1489338068
  0
LWPOLYLINE
  5
6E5
100
AcDbEntity
  8
0
100
AcDbPolyline
 62
250
  6
CONTINUOUS
 90
16
 70
0
 10
6.6061938404
 20
30.1539559987
 10
6.6298382494
 20
30.1534010799
 10
6.6535602359
 20
30.151715237
 10
6.6773048226
 20
30.1488835725
 10
6.7009628171
 20
30.14490408
 10
6.7245300146
 20
30.1397620848
 10
6.7481017994
 20
30.133405069
 10
6.7715417109
 20
30.1258311738
 10
6.7948507
 20
30.117000227
 10
6.8183000147
 20
30.1067314245
 10
6.8417390291
 20
30.0949827588
 10
6.8651058593
 20
30.0816713645
 10
6.8887269693
 20
30.0664338514
 10
6.9125594108
 20
30.0490351067
 10
6.9362384569
 20
30.029456196
 10
6.9595318559
 20
30.0075986006
  0
LINE
  5
6E6
100
AcDbEntity
  8
0
100
AcDbLine
 62
7
  6
CONTINUOUS
 10
6.9263772086
 20
27.9993853587
 11
6.9202588689
 21
27.9995672406
  0
LWPOLYLINE
  5
6E7
100
AcDbEntity
  8
RACCORDO
100
AcDbPolyline
 62
250
  6
CONTINUOUS
 90
16
 70
0
 10
-3.3540196982
 20
29.7690681962
 10
-3.3226719913
 20
29.7674161036
 10
-3.2916676033
 20
29.7624970158
 10
-3.2613460933
 20
29.7543648062
 10
-3.2320395413
 20
29.7431085387
 10
-3.2040689117
 20
29.7288514915
 10
-3.1777405378
 20
29.7117498073
 10
-3.153342767
 20
29.691990783
 10
-3.1311428028
 20
29.6697908189
 10
-3.1113837786
 20
29.6453930481
 10
-3.0942820943
 20
29.6190646742
 10
-3.0800250471
 20
29.5910940446
 10
-3.0687687796
 20
29.5617874926
 10
-3.0606365701
 20
29.5314659826
 10
-3.0557174822
 20
29.5004615946
 10
-3.0540653896
 20
29.4691138877
  0
LWPOLYLINE
  5
6E8
100
AcDbEntity
  8
RACCORDO
100
AcDbPolyline
 62
250
  6
CONTINUOUS
 90
16
 70
0
 10
17.8959803018
 20
29.7690681962
 10
17.9273280087
 20
29.7674161036
 10
17.9583323967
 20
29.7624970158
 10
17.9886539067
 20
29.7543648062
 10
18.0179604587
 20
29.7431085387
 10
18.0459310883
 20
29.7288514915
 10
18.0722594622
 20
29.7117498073
 10
18.096657233
 20
29.691990783
 10
18.1188571972
 20
29.6697908189
 10
18.1386162214
 20
29.6453930481
 10
18.1557179057
 20
29.6190646742
 10
18.1699749529
 20
29.5910940446
 10
18.1812312204
 20
29.5617874926
 10
18.1893634299
 20
29.5314659826
 10
18.1942825178
 20
29.5004615946
 10
18.1959346104
 20
29.4691138877
  0
LINE
  5
6E9
100
AcDbEntity
  8
0
100
AcDbLine
 62
250
  6
CONTINUOUS
 10
4.5625860317
 20
29.7538341641
 11
4.7556535138
 21
29.7021018882
  0
LINE
  5
6EA
100
AcDbEntity
  8
DRAFT
100
AcDbLine
 62
7
  6
CONTINUOUS
 10
19.76534013
 20
26.5384737159
 11
19.6830046075
 21
26.5658965892
  0
LINE
  5
6EB
100
AcDbEntity
  8
RACCORDO
100
AcDbLine
 62
250
  6
CONTINUOUS
 10
-10.2254576362
 20
35.8484363309
 11
-10.2547815794
 21
35.8582268313
  0
LINE
  5
6EC
100
AcDbEntity
  8
RACCORDO
100
AcDbLine
 62
250
  6
CONTINUOUS
 10
-10.1963042233
 20
35.8385557819
 11
-10.2254576362
 21
35.8484363309
  0
LINE
  5
6ED
100
AcDbEntity
  8
RACCORDO
100
AcDbLine
 62
250
  6
CONTINUOUS
 10
-10.1673205585
 20
35.8285848175
 11
-10.1963042233
 21
35.8385557819
  0
LINE
  5
6EE
100
AcDbEntity
  8
0
100
AcDbLine
 62
7
  6
CONTINUOUS
 10
17.2142752384
 20
26.5895386075
 11
17.2155197812
 21
26.5883389192
  0
LWPOLYLINE
  5
6EF
100
AcDbEntity
  8
0
100
AcDbPolyline
 62
7
  6
CONTINUOUS
 90
3
 70
0
 10
17.2396131289
 20
26.5641120999
 10
17.2628451321
 20
26.5409957977
 10
17.2768972669
 20
26.5268648249
  0
LWPOLYLINE
  5
6F0
100
AcDbEntity
  8
0
100
AcDbPolyline
 62
7
  6
CONTINUOUS
 90
7
 70
0
 10
17.2768972669
 20
26.5268648249
 10
17.3096481161
 20
26.4941948883
 10
17.3280776047
 20
26.4756559246
 10
17.3479150281
 20
26.4558988179
 10
17.3690764869
 20
26.4350070444
 10
17.3912709721
 20
26.4128971279
 10
17.4142447774
 20
26.3895690685
  0
LINE
  5
6F1
100
AcDbEntity
  8
DRAFT
100
AcDbLine
 62
7
  6
CONTINUOUS
 10
18.3961328732
 20
25.3076809727
 11
18.36534013
 21
25.3384737159
  0
LINE
  5
6F2
100
AcDbEntity
  8
0
100
AcDbLine
 62
7
  6
CONTINUOUS
 10
17.16534013
 20
26.6384737159
 11
17.2142752384
 21
26.5895386075
  0
LINE
  5
6F3
100
AcDbEntity
  8
0
100
AcDbLine
 62
7
  6
CONTINUOUS
 10
17.2155197812
 20
26.5883389192
 11
17.2396131289
 21
26.5641120999
  0
LWPOLYLINE
  5
6F4
100
AcDbEntity
  8
DRAFT
100
AcDbPolyline
 62
7
  6
CONTINUOUS
 90
13
 70
0
 10
19.6785384471
 20
-24.7245883142
 10
19.5626486801
 20
-24.8862428874
 10
19.4490671107
 20
-25.0541103655
 10
19.3381313004
 20
-25.2282347087
 10
19.230643802
 20
-25.4078554638
 10
19.1264627276
 20
-25.5937544173
 10
19.0247268546
 20
-25.7883810601
 10
18.9260261047
 20
-25.991827506
 10
18.8309821058
 20
-26.2041602595
 10
18.7392534141
 20
-26.4279675707
 10
18.651460635
 20
-26.664209266
 10
18.568927909
 20
-26.9120963766
 10
18.4926677308
 20
-27.1716258272
  0
LINE
  5
6F5
100
AcDbEntity
  8
RACCORDO
100
AcDbLine
 62
7
  6
CONTINUOUS
 10
-8.7174198838
 20
31.1712337297
 11
-9.7662990088
 21
31.1700367023
  0
LINE
  5
6F6
100
AcDbEntity
  8
DRAFT
100
AcDbLine
 62
250
  6
CONTINUOUS
 10
10.9821755067
 20
30.8384737159
 11
8.4177323905
 21
30.8384737159
  0
LINE
  5
6F7
100
AcDbEntity
  8
DRAFT
100
AcDbLine
 62
250
  6
CONTINUOUS
 10
-0.2870521304
 20
30.8384737159
 11
-2.8514952466
 21
30.8384737159
  0
LINE
  5
6F8
100
AcDbEntity
  8
RACCORDO
100
AcDbLine
 62
7
  6
CONTINUOUS
 10
-9.7347360224
 20
31.1384737159
 11
-8.68465987
 21
31.1384737159
  0
LINE
  5
6F9
100
AcDbEntity
  8
RACCORDO
100
AcDbLine
 62
7
  6
CONTINUOUS
 10
16.81534013
 20
31.1384737159
 11
17.8654162825
 21
31.1384737159
  0
LINE
  5
6FA
100
AcDbEntity
  8
RACCORDO
100
AcDbLine
 62
7
  6
CONTINUOUS
 10
17.8969792689
 20
31.1700367023
 11
16.8481001438
 21
31.1712337297
  0
LWPOLYLINE
  5
6FB
100
AcDbEntity
  8
RACCORDO
100
AcDbPolyline
 62
7
  6
CONTINUOUS
 90
19
 70
0
 10
17.8969792689
 20
31.1700367023
 10
17.9403592433
 20
31.1680749668
 10
17.9836183766
 20
31.1623085694
 10
18.0264185862
 20
31.1527261893
 10
18.0685480544
 20
31.1392979873
 10
18.1095220515
 20
31.1221003451
 10
18.1486336949
 20
31.101431285
 10
18.1854572456
 20
31.0776039564
 10
18.2198984599
 20
31.0507716207
 10
18.2518076828
 20
31.021103842
 10
18.2809410322
 20
30.9888662447
 10
18.3071186449
 20
30.9543000985
 10
18.3302630411
 20
30.9175097193
 10
18.3502617988
 20
30.878574569
 10
18.3668223864
 20
30.8379469423
 10
18.3796897876
 20
30.7963272294
 10
18.3888203493
 20
30.7541899759
 10
18.3942696679
 20
30.7117359052
 10
18.3960762445
 20
30.6692859828
  0
LWPOLYLINE
  5
6FC
100
AcDbEntity
  8
0
100
AcDbPolyline
 62
7
  6
CONTINUOUS
 90
46
 70
0
 10
3.362612669
 20
33.8615408403
 10
3.4732842894
 20
33.8258738579
 10
3.5855568818
 20
33.7979162617
 10
3.6988970835
 20
33.7777209986
 10
3.8127717139
 20
33.7653043517
 10
3.9266502792
 20
33.760646208
 10
4.0400074425
 20
33.7636904958
 10
4.1523254458
 20
33.7743457894
 10
4.2630964753
 20
33.7924860752
 10
4.3718249572
 20
33.8179516754
 10
4.4780297741
 20
33.850550323
 10
4.581246393
 20
33.8900583822
 10
4.6810288944
 20
33.9362222056
 10
4.7769518937
 20
33.9887596226
 10
4.8686123478
 20
34.0473615487
 10
4.9556312376
 20
34.1116937088
 10
5.0376551208
 20
34.1813984632
 10
5.1143575482
 20
34.2560967285
 10
5.1854403375
 20
34.3353899822
 10
5.2506347007
 20
34.4188623407
 10
5.3097022199
 20
34.5060827007
 10
5.3624356692
 20
34.5966069326
 10
5.4086596798
 20
34.6899801143
 10
5.4482312457
 20
34.7857387964
 10
5.4810400705
 20
34.8834132846
 10
5.5070087543
 20
34.9825299304
 10
5.5260928206
 20
35.0826134186
 10
5.5382805862
 20
35.1831890397
 10
5.5435928745
 20
35.2837849371
 10
5.5420825765
 20
35.3839343183
 10
5.5338340616
 20
35.4831776199
 10
5.5189624436
 20
35.5810646163
 10
5.4976127067
 20
35.677156462
 10
5.4699586964
 20
35.7710276584
 10
5.4362019815
 20
35.8622679378
 10
5.3965705956
 20
35.9504840529
 10
5.3513176624
 20
36.035301468
 10
5.3007199155
 20
36.1163659412
 10
5.2450761193
 20
36.1933449934
 10
5.1847053997
 20
36.2659292566
 10
5.1199454942
 20
36.333833697
 10
5.0511509306
 20
36.3967987072
 10
4.978691143
 20
36.4545910646
 10
4.9029485363
 20
36.507004752
 10
4.8243165081
 20
36.5538616373
 10
4.743197438
 20
36.595012012
  0
LINE
  5
6FD
100
AcDbEntity
  8
0
100
AcDbLine
 62
7
  6
CONTINUOUS
 10
3.2540730367
 20
33.904827504
 11
3.362612669
 21
33.8615408403
  0
LWPOLYLINE
  5
6FE
100
AcDbEntity
  8
0
100
AcDbPolyline
 62
7
  6
CONTINUOUS
 90
8
 70
0
 10
3.2952436268
 20
33.8837466347
 10
3.40634983
 20
33.8334949914
 10
3.5207112952
 20
33.7911715718
 10
3.6377631033
 20
33.7569854441
 10
3.7569270454
 20
33.7311054804
 10
3.8776144793
 20
33.7136595222
 10
3.9992292369
 20
33.704733749
 10
4.1211705693
 20
33.7043722525
  0
LWPOLYLINE
  5
6FF
100
AcDbEntity
  8
0
100
AcDbPolyline
 62
7
  6
CONTINUOUS
 90
16
 70
0
 10
3.5133816991
 20
34.3950331972
 10
3.4433048593
 20
34.4298462499
 10
3.3753914259
 20
34.4693985047
 10
3.309963815
 20
34.5135579774
 10
3.2474615706
 20
34.5620668194
 10
3.1880514777
 20
34.6148362717
 10
3.1316931708
 20
34.6720320676
 10
3.0785542263
 20
34.7337356992
 10
3.0291966319
 20
34.7995690333
 10
2.9841660219
 20
34.8689912474
 10
2.9437017514
 20
34.9417804891
 10
2.9080920779
 20
35.0175840279
 10
2.8777641117
 20
35.0955264706
 10
2.852869298
 20
35.1750375111
 10
2.8334008794
 20
35.2559172655
 10
2.819401882
 20
35.3377866659
  0
LWPOLYLINE
  5
700
100
AcDbEntity
  8
0
100
AcDbPolyline
 62
7
  6
CONTINUOUS
 90
45
 70
0
 10
4.2428361145
 20
33.7125768188
 10
4.3636248725
 20
33.7293069199
 10
4.4829401746
 20
33.7544799132
 10
4.6001926305
 20
33.7879714506
 10
4.7148030397
 20
33.8296160919
 10
4.826205253
 20
33.8792081226
 10
4.9338489687
 20
33.9365025699
 10
5.0372024513
 20
34.0012164128
 10
5.1357551578
 20
34.0730299801
 10
5.2290202601
 20
34.1515885297
 10
5.3165370496
 20
34.2365040005
 10
5.3978732128
 20
34.32735693
 10
5.4726269673
 20
34.4236985256
 10
5.5404290461
 20
34.5250528823
 10
5.6009445219
 20
34.6309193327
 10
5.6538744615
 20
34.7407749209
 10
5.6989574025
 20
34.8540769855
 10
5.7359706449
 20
34.9702658402
 10
5.7647313511
 20
35.0887675386
 10
5.7850974491
 20
35.2089967091
 10
5.7969683345
 20
35.3303594469
 10
5.8002853673
 20
35.4522562477
 10
5.7950321614
 20
35.5740849686
 10
5.7812346658
 20
35.6952438033
 10
5.7589610366
 20
35.8151342543
 10
5.7283212999
 20
35.9331640897
 10
5.6894668084
 20
36.0487502684
 10
5.6425894941
 20
36.1613218204
 10
5.5879209198
 20
36.2703226673
 10
5.5257311355
 20
36.375214369
 10
5.4563273443
 20
36.4754787837
 10
5.3800523848
 20
36.5706206271
 10
5.2972830379
 20
36.6601699196
 10
5.2084281652
 20
36.743684307
 10
5.1139266894
 20
36.8207512464
 10
5.0142454266
 20
36.8909900438
 10
4.9098767795
 20
36.9540537347
 10
4.8013363059
 20
37.0096307977
 10
4.6891601711
 20
37.057446694
 10
4.5739025003
 20
37.0972652229
 10
4.4561326407
 20
37.1288896892
 10
4.3364323491
 20
37.1521638743
 10
4.2153929184
 20
37.1669728081
 10
4.0936122566
 20
37.1732433371
 10
3.9716919334
 20
37.1709444857
  0
LINE
  5
701
100
AcDbEntity
  8
RACCORDO
100
AcDbLine
 62
250
  6
CONTINUOUS
 10
17.5218390115
 20
37.7887714377
 11
17.4059531834
 21
37.7735432427
  0
LINE
  5
702
100
AcDbEntity
  8
0
100
AcDbLine
 62
7
  6
CONTINUOUS
 10
4.1211705693
 20
33.7043722525
 11
4.2428361145
 21
33.7125768188
  0
LINE
  5
703
100
AcDbEntity
  8
0
100
AcDbLine
 62
7
  6
CONTINUOUS
 10
1.56534013
 20
33.5245096639
 11
6.56534013
 21
33.5245096639
  0
LINE
  5
704
100
AcDbEntity
  8
0
100
AcDbLine
 62
7
  6
CONTINUOUS
 10
1.56534013
 20
33.5384737159
 11
6.56534013
 21
33.5384737159
  0
LINE
  5
705
100
AcDbEntity
  8
0
100
AcDbLine
 62
7
  6
CONTINUOUS
 10
7.5603275671
 20
33.8384737159
 11
4.7358120312
 21
33.8384737159
  0
LINE
  5
706
100
AcDbEntity
  8
0
100
AcDbLine
 62
7
  6
CONTINUOUS
 10
3.3957289955
 20
33.8384737159
 11
0.5703526929
 21
33.8384737159
  0
LWPOLYLINE
  5
707
100
AcDbEntity
  8
0
100
AcDbPolyline
 62
7
  6
CONTINUOUS
 90
10
 70
0
 10
4.06534013
 20
34.2722934251
 10
4.0021049856
 20
34.272419601
 10
3.9389293809
 20
34.2759729747
 10
3.8759989545
 20
34.2829449694
 10
3.8135145648
 20
34.2933138418
 10
3.7516430777
 20
34.3070523881
 10
3.6905185382
 20
34.3241367621
 10
3.630306583
 20
34.3445321893
 10
3.5712021957
 20
34.3681843454
 10
3.5133816991
 20
34.3950331972
  0
LINE
  5
708
100
AcDbEntity
  8
RACCORDO
100
AcDbLine
 62
250
  6
CONTINUOUS
 10
-9.275272806
 20
37.7735433183
 11
-9.3911585791
 21
37.7887715536
  0
LWPOLYLINE
  5
709
100
AcDbEntity
  8
0
100
AcDbPolyline
 62
7
  6
CONTINUOUS
 90
29
 70
0
 10
4.660000656
 20
36.6303349846
 10
4.5751403977
 20
36.6597387319
 10
4.4890337583
 20
36.6831606045
 10
4.4020986554
 20
36.7005670913
 10
4.3147518088
 20
36.7119536414
 10
4.227406749
 20
36.7173443477
 10
4.1404718634
 20
36.7167914942
 10
4.0543484877
 20
36.7103749712
 10
3.9694290545
 20
36.6982015623
 10
3.886095305
 20
36.6804041078
 10
3.8047165727
 20
36.6571405502
 10
3.7256481478
 20
36.6285928683
 10
3.6492297282
 20
36.594965905
 10
3.5757839646
 20
36.5564860964
 10
3.5056151054
 20
36.5134001102
 10
3.4390077481
 20
36.4659733995
 10
3.3762257006
 20
36.4144886818
 10
3.3175109583
 20
36.35924435
 10
3.2630828007
 20
36.300552825
 10
3.2131370095
 20
36.2387388583
 10
3.1678452124
 20
36.1741377938
 10
3.1273543536
 20
36.1070937976
 10
3.0917862921
 20
36.037958065
 10
3.0612375293
 20
35.9670870142
 10
3.0357790652
 20
35.8948404753
 10
3.0154563821
 20
35.8215798846
 10
3.0002895561
 20
35.7476664922
 10
2.9902734926
 20
35.673459592
 10
2.985378284
 20
35.5993147831
  0
LINE
  5
70A
100
AcDbEntity
  8
0
100
AcDbLine
 62
7
  6
CONTINUOUS
 10
4.743197438
 20
36.595012012
 11
4.660000656
 21
36.6303349846
  0
LWPOLYLINE
  5
70B
100
AcDbEntity
  8
0
100
AcDbPolyline
 62
7
  6
CONTINUOUS
 90
37
 70
0
 10
3.8502342084
 20
37.1600876088
 10
3.7298390561
 20
37.1407263365
 10
3.6111012022
 20
37.1129563083
 10
3.494607186
 20
37.0769147016
 10
3.3809324625
 20
37.0327795531
 10
3.2706385604
 20
36.9807688804
 10
3.1642703078
 20
36.9211396039
 10
3.0623531409
 20
36.8541862788
 10
2.9653905089
 20
36.7802396393
 10
2.8738613864
 20
36.6996649651
 10
2.7882179081
 20
36.612860277
 10
2.7088831346
 20
36.5202543708
 10
2.6362489632
 20
36.4223046992
 10
2.5706741915
 20
36.3194951119
 10
2.5124827454
 20
36.2123334656
 10
2.4619620788
 20
36.1013491154
 10
2.4193617536
 20
35.9870902998
 10
2.3848922071
 20
35.8701214324
 10
2.358723712
 20
35.7510203142
 10
2.3409855361
 20
35.6303752789
 10
2.3317653028
 20
35.508782287
 10
2.3311085589
 20
35.386841982
 10
2.3390185495
 20
35.2651567227
 10
2.3554562017
 20
35.1443276087
 10
2.3803403178
 20
35.0249515099
 10
2.4135479763
 20
34.9076181193
 10
2.4549151393
 20
34.792907039
 10
2.5042374626
 20
34.6813849178
 10
2.5612713051
 20
34.5736026516
 10
2.6257349324
 20
34.4700926626
 10
2.6973099086
 20
34.3713662686
 10
2.7756426689
 20
34.2779111578
 10
2.8603462668
 20
34.1901889794
 10
2.9510022848
 20
34.108633063
 10
3.0471629019
 20
34.0336462785
 10
3.1483531051
 20
33.9655990455
 10
3.2540730367
 20
33.904827504
  0
LINE
  5
70C
100
AcDbEntity
  8
0
100
AcDbLine
 62
7
  6
CONTINUOUS
 10
3.9716919334
 20
37.1709444857
 11
3.8502342084
 21
37.1600876088
  0
LINE
  5
70D
100
AcDbEntity
  8
0
100
AcDbLine
 62
7
  6
CONTINUOUS
 10
7.5603275671
 20
36.8384737159
 11
5.0894350911
 21
36.8384737159
  0
LINE
  5
70E
100
AcDbEntity
  8
0
100
AcDbLine
 62
7
  6
CONTINUOUS
 10
3.040852795
 20
36.8384737159
 11
0.5703526929
 21
36.8384737159
  0
LINE
  5
70F
100
AcDbEntity
  8
0
100
AcDbLine
 62
7
  6
CONTINUOUS
 10
6.56534013
 20
37.1384737159
 11
4.4078675036
 21
37.1384737159
  0
LINE
  5
710
100
AcDbEntity
  8
0
100
AcDbLine
 62
7
  6
CONTINUOUS
 10
3.7237776719
 20
37.1384737159
 11
1.56534013
 21
37.1384737159
  0
LINE
  5
711
100
AcDbEntity
  8
0
100
AcDbLine
 62
7
  6
CONTINUOUS
 10
6.56534013
 20
37.1524377678
 11
4.3321342535
 21
37.1524377678
  0
LINE
  5
712
100
AcDbEntity
  8
0
100
AcDbLine
 62
7
  6
CONTINUOUS
 10
3.7960053916
 20
37.1524377678
 11
1.56534013
 21
37.1524377678
  0
LINE
  5
713
100
AcDbEntity
  8
0
100
AcDbLine
 62
7
  6
CONTINUOUS
 10
10.9900812052
 20
38.4626353181
 11
10.2757696273
 21
38.4626353181
  0
LINE
  5
714
100
AcDbEntity
  8
0
100
AcDbLine
 62
7
  6
CONTINUOUS
 10
-2.1450893673
 20
38.4626353181
 11
-2.8594009451
 21
38.4626353181
  0
LINE
  5
715
100
AcDbEntity
  8
0
100
AcDbLine
 62
7
  6
CONTINUOUS
 10
11.01534013
 20
38.5384737159
 11
10.143048894
 21
38.5384737159
  0
LINE
  5
716
100
AcDbEntity
  8
0
100
AcDbLine
 62
7
  6
CONTINUOUS
 10
-2.012368634
 20
38.5384737159
 11
-2.88465987
 21
38.5384737159
  0
LWPOLYLINE
  5
717
100
AcDbEntity
  8
0
100
AcDbPolyline
 62
7
  6
CONTINUOUS
 90
43
 70
0
 10
4.06534013
 20
36.5126167376
 10
4.1461270167
 20
36.5117816166
 10
4.2267852132
 20
36.504866956
 10
4.3068569571
 20
36.4918876481
 10
4.3860038986
 20
36.472860001
 10
4.4636508924
 20
36.4478830969
 10
4.5390144334
 20
36.4172269591
 10
4.6114367055
 20
36.3812574334
 10
4.6808132308
 20
36.3401280083
 10
4.7471936109
 20
36.2938130435
 10
4.8101815389
 20
36.2425256622
 10
4.8694003481
 20
36.186505249
 10
4.9248198076
 20
36.1256285152
 10
4.9762201647
 20
36.0598242741
 10
5.02291768
 20
35.9896215391
 10
5.0642323686
 20
35.9158485162
 10
5.0999028048
 20
35.8388768685
 10
5.1296600396
 20
35.7591760592
 10
5.153118947
 20
35.6778910805
 10
5.1701800448
 20
35.5959956299
 10
5.1810118292
 20
35.5135321493
 10
5.1856862736
 20
35.4302705932
 10
5.1841354626
 20
35.3465856564
 10
5.1763226654
 20
35.2630289596
 10
5.162161514
 20
35.1796259844
 10
5.141484199
 20
35.0964908569
 10
5.1143221328
 20
35.0145230503
 10
5.081003083
 20
34.9349036145
 10
5.0417696624
 20
34.8581373337
 10
4.9968493683
 20
34.7846053874
 10
4.9468650879
 20
34.7151620135
 10
4.8924868344
 20
34.6504074637
 10
4.8339126193
 20
34.5902789622
 10
4.7710875376
 20
34.5346061594
 10
4.7043235606
 20
34.4836561986
 10
4.6340159327
 20
34.4377217815
 10
4.5601011016
 20
34.3968127174
 10
4.4826322838
 20
34.3611108315
 10
4.4022625676
 20
34.3310651515
 10
4.3198447421
 20
34.3070465762
 10
4.2359844101
 20
34.2892115432
 10
4.1509949864
 20
34.2776068973
 10
4.06534013
 20
34.2722934251
  0
LWPOLYLINE
  5
718
100
AcDbEntity
  8
RACCORDO
100
AcDbPolyline
 62
7
  6
CONTINUOUS
 90
19
 70
0
 10
17.4059539302
 20
-32.0965953296
 10
17.5115084892
 20
-32.0240126026
 10
17.6119439804
 20
-31.9445221093
 10
17.7070764936
 20
-31.858423185
 10
17.7972214785
 20
-31.7656832216
 10
17.8817281391
 20
-31.6669120509
 10
17.9590814558
 20
-31.5634619505
 10
18.0290282505
 20
-31.455883045
 10
18.0918173427
 20
-31.3443614318
 10
18.1468581739
 20
-31.2298000628
 10
18.1942390161
 20
-31.1124378259
 10
18.2340675718
 20
-30.9927003795
 10
18.2659150487
 20
-30.8717781647
 10
18.2898962976
 20
-30.7496426196
 10
18.3062814242
 20
-30.6268328305
 10
18.3150274546
 20
-30.5053355903
 10
18.3163398328
 20
-30.3858822674
 10
18.310577786
 20
-30.2679660534
 10
18.2980008366
 20
-30.1516375156
  0
LWPOLYLINE
  5
719
100
AcDbEntity
  8
RACCORDO
100
AcDbPolyline
 62
7
  6
CONTINUOUS
 90
7
 70
0
 10
17.4059539302
 20
-32.0965953296
 10
17.3150147285
 20
-32.1536128534
 10
17.2226992939
 20
-32.2083766001
 10
17.1290587783
 20
-32.2608451711
 10
17.0341449127
 20
-32.3109775166
 10
16.938009988
 20
-32.358732949
 10
16.8407068363
 20
-32.4040711567
  0
LWPOLYLINE
  5
71A
100
AcDbEntity
  8
RACCORDO
100
AcDbPolyline
 62
7
  6
CONTINUOUS
 90
7
 70
0
 10
16.81534013
 20
-32.498550597
 10
16.9386645771
 20
-32.4427130783
 10
17.0597587164
 20
-32.383429161
 10
17.1786225479
 20
-32.3206988451
 10
17.2952560717
 20
-32.2545221307
 10
17.4096592876
 20
-32.1848990177
 10
17.5218321958
 20
-32.1118295062
  0
LWPOLYLINE
  5
71B
100
AcDbEntity
  8
DRAFT
100
AcDbPolyline
 62
7
  6
CONTINUOUS
 90
28
 70
0
 10
-6.93465987
 20
40.1384737159
 10
-7.2519615508
 20
40.1299212297
 10
-7.5669920795
 20
40.1048690633
 10
-7.879751456
 20
40.0633172165
 10
-8.1910832819
 20
40.005161995
 10
-8.5001439556
 20
39.9305070932
 10
-8.8044026729
 20
39.8396635942
 10
-9.1039995032
 20
39.7323388226
 10
-9.3987943771
 20
39.6088254539
 10
-9.6858362823
 20
39.4703125982
 10
-9.964834937
 20
39.3168074294
 10
-10.236080623
 20
39.1483027737
 10
-10.4974931742
 20
38.96596622
 10
-10.7492123075
 20
38.7694625293
 10
-10.9910983059
 20
38.5591269405
 10
-11.2206518526
 20
38.3371327593
 10
-11.4375215562
 20
38.1035717968
 10
-11.6420588081
 20
37.8583522419
 10
-11.8328184651
 20
37.6033719671
 10
-12.0098479482
 20
37.3383444742
 10
-12.1730998363
 20
37.0635562614
 10
-12.3209867234
 20
36.7817646964
 10
-12.4531993023
 20
36.4930678646
 10
-12.5700468802
 20
36.1973676805
 10
-12.6708699725
 20
35.8971272554
 10
-12.7554487511
 20
35.5931676263
 10
-12.8240030442
 20
35.2846677561
 10
-12.8765328517
 20
34.9716276448
  0
LINE
  5
71C
100
AcDbEntity
  8
DRAFT
100
AcDbLine
 62
7
  6
CONTINUOUS
 10
15.06534013
 20
40.1384737159
 11
-6.93465987
 21
40.1384737159
  0
LWPOLYLINE
  5
71D
100
AcDbEntity
  8
RACCORDO
100
AcDbPolyline
 62
7
  6
CONTINUOUS
 90
7
 70
0
 10
16.8407068363
 20
38.0810185885
 10
16.938009988
 20
38.0356803807
 10
17.0341449127
 20
37.9879249484
 10
17.1290587783
 20
37.9377926029
 10
17.2226992939
 20
37.8853240319
 10
17.3150147285
 20
37.8305602852
 10
17.4059539302
 20
37.7735427614
  0
LWPOLYLINE
  5
71E
100
AcDbEntity
  8
RACCORDO
100
AcDbPolyline
 62
7
  6
CONTINUOUS
 90
7
 70
0
 10
17.5218322223
 20
37.7887769221
 10
17.4096593017
 20
37.861846441
 10
17.2952560766
 20
37.9314695595
 10
17.1786225468
 20
37.9976462775
 10
17.0597587125
 20
38.0603765951
 10
16.9386645736
 20
38.1196605122
 10
16.81534013
 20
38.1754980288
  0
LWPOLYLINE
  5
71F
100
AcDbEntity
  8
RACCORDO
100
AcDbPolyline
 62
7
  6
CONTINUOUS
 90
19
 70
0
 10
17.5218322223
 20
37.7887769221
 10
17.6226568445
 20
37.7164016257
 10
17.7183905606
 20
37.6381736574
 10
17.8090333704
 20
37.5540930169
 10
17.8950856588
 20
37.4635857493
 10
17.9760470409
 20
37.3672258097
 10
18.0504163626
 20
37.2667350634
 10
18.1178615555
 20
37.1622779649
 10
18.1787146878
 20
37.0536900599
 10
18.2324708099
 20
36.9421998509
 10
18.2790690445
 20
36.8278043541
 10
18.3185702688
 20
36.7105065533
 10
18.3506521653
 20
36.5915439028
 10
18.3752528941
 20
36.4708494159
 10
18.392434295
 20
36.3484900793
 10
18.4020595693
 20
36.2259043067
 10
18.4040831173
 20
36.1035715694
 10
18.3985505387
 20
35.9810123963
 10
18.3854618334
 20
35.8582267872
  0
ARC
  5
720
100
AcDbEntity
  8
RACCORDO
100
AcDbCircle
 62
7
  6
CONTINUOUS
 10
-17.63465987
 20
-29.1615262841
 40
7.45
100
AcDbArc
 50
352.132677477
 51
36.2899638618
  0
ARC
  5
721
100
AcDbEntity
  8
DRAFT
100
AcDbCircle
 62
7
  6
CONTINUOUS
 10
1.56534013
 20
-29.6615262841
 40
4.866349462
100
AcDbArc
 50
108.4346768885
 51
112.3741589802
  0
ARC
  5
722
100
AcDbEntity
  8
0
100
AcDbCircle
 62
7
  6
CONTINUOUS
 10
1.56534013
 20
-29.6615262841
 40
4.8
100
AcDbArc
 50
202.0153695404
 51
221.8103148958
  0
ARC
  5
723
100
AcDbEntity
  8
0
100
AcDbCircle
 62
7
  6
CONTINUOUS
 10
1.56534013
 20
-29.6615262841
 40
4.8
100
AcDbArc
 50
107.8647764628
 51
157.9846304596
  0
ARC
  5
724
100
AcDbEntity
  8
0
100
AcDbCircle
 62
7
  6
CONTINUOUS
 10
1.56534013
 20
-29.6615262841
 40
1.8139640519
100
AcDbArc
 50
90.0
 51
270.0
  0
ARC
  5
725
100
AcDbEntity
  8
0
100
AcDbCircle
 62
7
  6
CONTINUOUS
 10
1.56534013
 20
-29.6615262841
 40
1.8
100
AcDbArc
 50
90.0
 51
270.0
  0
ARC
  5
726
100
AcDbEntity
  8
RACCORDO
100
AcDbCircle
 62
7
  6
CONTINUOUS
 10
-17.63465987
 20
34.8384737159
 40
7.45
100
AcDbArc
 50
323.7100361382
 51
7.867322523
  0
ARC
  5
727
100
AcDbEntity
  8
DRAFT
100
AcDbCircle
 62
7
  6
CONTINUOUS
 10
1.56534013
 20
35.3384737159
 40
4.866349462
100
AcDbArc
 50
247.6258410198
 51
251.5653231115
  0
ARC
  5
728
100
AcDbEntity
  8
0
100
AcDbCircle
 62
7
  6
CONTINUOUS
 10
1.56534013
 20
35.3384737159
 40
4.8
100
AcDbArc
 50
138.1896851042
 51
157.9846304596
  0
ARC
  5
729
100
AcDbEntity
  8
0
100
AcDbCircle
 62
7
  6
CONTINUOUS
 10
1.56534013
 20
35.3384737159
 40
4.8
100
AcDbArc
 50
202.0153695404
 51
252.1352235372
  0
ARC
  5
72A
100
AcDbEntity
  8
0
100
AcDbCircle
 62
7
  6
CONTINUOUS
 10
1.56534013
 20
35.3384737159
 40
1.8139640519
100
AcDbArc
 50
90.0
 51
270.0
  0
ARC
  5
72B
100
AcDbEntity
  8
0
100
AcDbCircle
 62
7
  6
CONTINUOUS
 10
1.56534013
 20
35.3384737159
 40
1.8
100
AcDbArc
 50
90.0
 51
270.0
  0
ARC
  5
72C
100
AcDbEntity
  8
RACCORDO
100
AcDbCircle
 62
7
  6
CONTINUOUS
 10
25.76534013
 20
-29.1615262841
 40
7.45
100
AcDbArc
 50
143.7100361382
 51
187.867322523
  0
ARC
  5
72D
100
AcDbEntity
  8
DRAFT
100
AcDbCircle
 62
7
  6
CONTINUOUS
 10
6.56534013
 20
-29.6615262841
 40
4.866349462
100
AcDbArc
 50
67.6258410198
 51
71.5653231115
  0
ARC
  5
72E
100
AcDbEntity
  8
0
100
AcDbCircle
 62
7
  6
CONTINUOUS
 10
6.56534013
 20
-29.6615262841
 40
4.8
100
AcDbArc
 50
318.1896851042
 51
337.9846304596
  0
ARC
  5
72F
100
AcDbEntity
  8
0
100
AcDbCircle
 62
7
  6
CONTINUOUS
 10
6.56534013
 20
-29.6615262841
 40
4.8
100
AcDbArc
 50
22.0153695404
 51
72.1352235372
  0
ARC
  5
730
100
AcDbEntity
  8
RACCORDO
100
AcDbCircle
 62
7
  6
CONTINUOUS
 10
4.06534013
 20
-29.6615262841
 40
3.2043457495
100
AcDbArc
 50
152.0758600599
 51
207.9241399403
  0
ARC
  5
731
100
AcDbEntity
  8
RACCORDO
100
AcDbCircle
 62
7
  6
CONTINUOUS
 10
4.06534013
 20
-29.6615262841
 40
3.2043457495
100
AcDbArc
 50
332.0758600599
 51
27.9241399403
  0
ARC
  5
732
100
AcDbEntity
  8
RACCORDO
100
AcDbCircle
 62
250
  6
CONTINUOUS
 10
4.06534013
 20
-29.6615262841
 40
2.7043456907
100
AcDbArc
 50
326.30649046
 51
33.6935072581
  0
ARC
  5
733
100
AcDbEntity
  8
RACCORDO
100
AcDbCircle
 62
250
  6
CONTINUOUS
 10
4.06534013
 20
-29.6615262841
 40
2.7043456907
100
AcDbArc
 50
146.30649046
 51
213.6935072581
  0
ARC
  5
734
100
AcDbEntity
  8
0
100
AcDbCircle
 62
250
  6
CONTINUOUS
 10
4.06534013
 20
-29.6615262841
 40
1.85
100
AcDbArc
 50
125.8191732243
 51
234.1808193387
  0
ARC
  5
735
100
AcDbEntity
  8
0
100
AcDbCircle
 62
250
  6
CONTINUOUS
 10
4.06534013
 20
-29.6615262841
 40
1.85
100
AcDbArc
 50
305.8191732243
 51
54.1808193387
  0
ARC
  5
736
100
AcDbEntity
  8
0
100
AcDbCircle
 62
7
  6
CONTINUOUS
 10
6.56534013
 20
-29.6615262841
 40
1.8139640519
100
AcDbArc
 50
270.0
 51
90.0
  0
ARC
  5
737
100
AcDbEntity
  8
0
100
AcDbCircle
 62
7
  6
CONTINUOUS
 10
6.56534013
 20
-29.6615262841
 40
1.8
100
AcDbArc
 50
270.0
 51
90.0
  0
ARC
  5
738
100
AcDbEntity
  8
0
100
AcDbCircle
 62
7
  6
CONTINUOUS
 10
4.06534013
 20
-29.6615262841
 40
1.25
100
AcDbArc
 50
100.4804536421
 51
184.6201597509
  0
ARC
  5
739
100
AcDbEntity
  8
RACCORDO
100
AcDbCircle
 62
7
  6
CONTINUOUS
 10
25.76534013
 20
34.8384737159
 40
7.45
100
AcDbArc
 50
172.132677477
 51
216.2899638618
  0
ARC
  5
73A
100
AcDbEntity
  8
DRAFT
100
AcDbCircle
 62
7
  6
CONTINUOUS
 10
6.56534013
 20
35.3384737159
 40
4.866349462
100
AcDbArc
 50
288.4346768885
 51
292.3741589802
  0
ARC
  5
73B
100
AcDbEntity
  8
0
100
AcDbCircle
 62
7
  6
CONTINUOUS
 10
6.56534013
 20
35.3384737159
 40
4.8
100
AcDbArc
 50
22.0153695404
 51
41.8103148958
  0
ARC
  5
73C
100
AcDbEntity
  8
0
100
AcDbCircle
 62
7
  6
CONTINUOUS
 10
6.56534013
 20
35.3384737159
 40
4.8
100
AcDbArc
 50
287.8647764628
 51
337.9846304596
  0
ARC
  5
73D
100
AcDbEntity
  8
RACCORDO
100
AcDbCircle
 62
7
  6
CONTINUOUS
 10
4.06534013
 20
35.4384737159
 40
3.2043457495
100
AcDbArc
 50
154.0852713709
 51
209.955853411
  0
ARC
  5
73E
100
AcDbEntity
  8
RACCORDO
100
AcDbCircle
 62
7
  6
CONTINUOUS
 10
4.06534013
 20
35.4384737159
 40
3.2043457495
100
AcDbArc
 50
330.044146588
 51
25.9147286287
  0
ARC
  5
73F
100
AcDbEntity
  8
RACCORDO
100
AcDbCircle
 62
250
  6
CONTINUOUS
 10
4.06534013
 20
35.4384737159
 40
2.7043456907
100
AcDbArc
 50
323.7174333688
 51
31.1880134586
  0
ARC
  5
740
100
AcDbEntity
  8
RACCORDO
100
AcDbCircle
 62
250
  6
CONTINUOUS
 10
4.06534013
 20
35.4384737159
 40
2.7043456907
100
AcDbArc
 50
148.8119855704
 51
216.2825673144
  0
ARC
  5
741
100
AcDbEntity
  8
0
100
AcDbCircle
 62
250
  6
CONTINUOUS
 10
4.06534013
 20
35.4384737159
 40
1.85
100
AcDbArc
 50
130.7911652151
 51
239.930530886
  0
ARC
  5
742
100
AcDbEntity
  8
0
100
AcDbCircle
 62
250
  6
CONTINUOUS
 10
4.06534013
 20
35.4384737159
 40
1.85
100
AcDbArc
 50
300.0694664381
 51
49.2088335933
  0
ARC
  5
743
100
AcDbEntity
  8
0
100
AcDbCircle
 62
7
  6
CONTINUOUS
 10
6.56534013
 20
35.3384737159
 40
1.8139640519
100
AcDbArc
 50
270.0
 51
90.0
  0
ARC
  5
744
100
AcDbEntity
  8
0
100
AcDbCircle
 62
7
  6
CONTINUOUS
 10
6.56534013
 20
35.3384737159
 40
1.8
100
AcDbArc
 50
270.0
 51
90.0
  0
ARC
  5
745
100
AcDbEntity
  8
0
100
AcDbCircle
 62
7
  6
CONTINUOUS
 10
4.06534013
 20
35.4384737159
 40
1.25
100
AcDbArc
 50
100.4804536421
 51
184.6201597509
  0
ELLIPSE
  5
746
100
AcDbEntity
  8
0
100
AcDbEllipse
 62
7
  6
CONTINUOUS
 10
4.651011673
 20
-23.961648193
 30
0.0
 11
0.1218701742
 21
0.1588243033
 31
0.0
 40
0.9990326719
 41
-0.6540311184
 42
0.6540311184
  0
ELLIPSE
  5
747
100
AcDbEntity
  8
0
100
AcDbEllipse
 62
7
  6
CONTINUOUS
 10
3.479668587
 20
-23.961648193
 30
0.0
 11
-0.1218701742
 21
0.1588243033
 31
0.0
 40
0.9990326719
 41
-0.6540311184
 42
0.6540311184
  0
ELLIPSE
  5
748
100
AcDbEntity
  8
0
100
AcDbEllipse
 62
7
  6
CONTINUOUS
 10
3.479668587
 20
29.6385956248
 30
0.0
 11
0.1218701742
 21
0.1588243033
 31
0.0
 40
0.9990326719
 41
-3.795623772
 42
-2.4875615352
  0
ELLIPSE
  5
749
100
AcDbEntity
  8
0
100
AcDbEllipse
 62
7
  6
CONTINUOUS
 10
4.651011673
 20
29.6385956248
 30
0.0
 11
-0.1218701742
 21
0.1588243033
 31
0.0
 40
0.9990326719
 41
-3.795623772
 42
-2.4875615352
  0
ELLIPSE
  5
74A
100
AcDbEntity
  8
RACCORDO
100
AcDbEllipse
 62
7
  6
CONTINUOUS
 10
0.5528945328
 20
27.8459618718
 30
0.0
 11
0.2030946673
 21
-0.0000105986
 31
0.0
 40
0.0171890131
 41
-1.5677603649
 42
-0.0501965803
  0
ELLIPSE
  5
74B
100
AcDbEntity
  8
RACCORDO
100
AcDbEllipse
 62
7
  6
CONTINUOUS
 10
0.9010726932
 20
25.4143974657
 30
0.0
 11
0.2030939657
 21
-0.0000026487
 31
0.0
 40
0.0085939114
 41
0.0547500746
 42
1.5723138592
  0
ELLIPSE
  5
74C
100
AcDbEntity
  8
RACCORDO
100
AcDbEllipse
 62
7
  6
CONTINUOUS
 10
-0.2786873192
 20
25.4143974657
 30
0.0
 11
0.2000304679
 21
0.0000002658
 31
0.0
 40
0.0087255384
 41
1.5706440104
 42
3.1414403371
  0
ELLIPSE
  5
74D
100
AcDbEntity
  8
RACCORDO
100
AcDbEllipse
 62
7
  6
CONTINUOUS
 10
-0.2362442046
 20
27.8459618718
 30
0.0
 11
0.2000304749
 21
0.0000010638
 31
0.0
 40
0.0174524048
 41
3.1412879279
 42
4.7120842547
  0
ELLIPSE
  5
74E
100
AcDbEntity
  8
RACCORDO
100
AcDbEllipse
 62
7
  6
CONTINUOUS
 10
7.2296075669
 20
25.4143974657
 30
0.0
 11
0.2030939657
 21
0.0000026487
 31
0.0
 40
0.0085939114
 41
1.5692787944
 42
3.086842579
  0
ELLIPSE
  5
74F
100
AcDbEntity
  8
RACCORDO
100
AcDbEllipse
 62
7
  6
CONTINUOUS
 10
7.5777857273
 20
27.8459618718
 30
0.0
 11
0.2030946673
 21
0.0000105986
 31
0.0
 40
0.0171890131
 41
-3.0913960733
 42
-1.5738322887
  0
ELLIPSE
  5
750
100
AcDbEntity
  8
RACCORDO
100
AcDbEllipse
 62
7
  6
CONTINUOUS
 10
8.3669244647
 20
27.8459618718
 30
0.0
 11
0.2000304749
 21
-0.0000010638
 31
0.0
 40
0.0174524048
 41
-1.5704916011
 42
0.0003047257
  0
ELLIPSE
  5
751
100
AcDbEntity
  8
RACCORDO
100
AcDbEllipse
 62
7
  6
CONTINUOUS
 10
8.4093675793
 20
25.4143974657
 30
0.0
 11
0.2000304679
 21
-0.0000002658
 31
0.0
 40
0.0087255384
 41
0.0001523164
 42
1.5709486432
  0
ELLIPSE
  5
752
100
AcDbEntity
  8
RACCORDO
100
AcDbEllipse
 62
7
  6
CONTINUOUS
 10
0.5528945328
 20
-22.16901444
 30
0.0
 11
0.2030946673
 21
0.0000105986
 31
0.0
 40
0.0171890131
 41
0.0501965803
 42
1.5677603649
  0
ELLIPSE
  5
753
100
AcDbEntity
  8
RACCORDO
100
AcDbEllipse
 62
7
  6
CONTINUOUS
 10
0.9010726932
 20
-19.7374500339
 30
0.0
 11
0.2030939657
 21
0.0000026487
 31
0.0
 40
0.0085939114
 41
-1.5723138592
 42
-0.0547500746
  0
ELLIPSE
  5
754
100
AcDbEntity
  8
RACCORDO
100
AcDbEllipse
 62
7
  6
CONTINUOUS
 10
-0.2362442046
 20
-22.16901444
 30
0.0
 11
0.2000304749
 21
-0.0000010638
 31
0.0
 40
0.0174524048
 41
1.5711010525
 42
3.1418973793
  0
ELLIPSE
  5
755
100
AcDbEntity
  8
RACCORDO
100
AcDbEllipse
 62
7
  6
CONTINUOUS
 10
-0.2786873192
 20
-19.7374500339
 30
0.0
 11
0.2000304679
 21
-0.0000002658
 31
0.0
 40
0.0087255384
 41
-3.1414403372
 42
-1.5706440104
  0
ELLIPSE
  5
756
100
AcDbEntity
  8
RACCORDO
100
AcDbEllipse
 62
7
  6
CONTINUOUS
 10
7.5777857273
 20
-22.16901444
 30
0.0
 11
0.2030946673
 21
-0.0000105986
 31
0.0
 40
0.0171890131
 41
1.5738322887
 42
3.0913960733
  0
ELLIPSE
  5
757
100
AcDbEntity
  8
RACCORDO
100
AcDbEllipse
 62
7
  6
CONTINUOUS
 10
7.2296075669
 20
-19.7374500339
 30
0.0
 11
0.2030939657
 21
-0.0000026487
 31
0.0
 40
0.0085939114
 41
-3.086842579
 42
-1.5692787944
  0
ELLIPSE
  5
758
100
AcDbEntity
  8
RACCORDO
100
AcDbEllipse
 62
7
  6
CONTINUOUS
 10
8.4093675793
 20
-19.7374500339
 30
0.0
 11
0.2000304679
 21
0.0000002658
 31
0.0
 40
0.0087255384
 41
-1.5709486432
 42
-0.0001523164
  0
ELLIPSE
  5
759
100
AcDbEntity
  8
RACCORDO
100
AcDbEllipse
 62
7
  6
CONTINUOUS
 10
8.3669244647
 20
-22.16901444
 30
0.0
 11
0.2000304749
 21
0.0000010638
 31
0.0
 40
0.0174524048
 41
-0.0003047257
 42
1.5704916011
  0
ELLIPSE
  5
75A
100
AcDbEntity
  8
RACCORDO
100
AcDbEllipse
 62
7
  6
CONTINUOUS
 10
-0.9338219961
 20
27.9908389107
 30
0.0
 11
0.5000761872
 21
0.0000026595
 31
0.0
 40
0.0174524048
 41
6.2828805815
 42
6.5223424791
  0
ELLIPSE
  5
75B
100
AcDbEntity
  8
RACCORDO
100
AcDbEllipse
 62
7
  6
CONTINUOUS
 10
9.0645022562
 20
27.9908389107
 30
0.0
 11
0.5000761872
 21
-0.0000026595
 31
0.0
 40
0.0174524048
 41
9.1856207889
 42
9.4250826865
  0
ELLIPSE
  5
75C
100
AcDbEntity
  8
RACCORDO
100
AcDbEllipse
 62
7
  6
CONTINUOUS
 10
-0.9338219961
 20
-22.3138914789
 30
0.0
 11
0.5000761872
 21
-0.0000026595
 31
0.0
 40
0.0174524048
 41
6.0440281353
 42
6.2834900329
  0
ELLIPSE
  5
75D
100
AcDbEntity
  8
RACCORDO
100
AcDbEllipse
 62
7
  6
CONTINUOUS
 10
9.0645022562
 20
-22.3138914789
 30
0.0
 11
0.5000761872
 21
0.0000026595
 31
0.0
 40
0.0174524048
 41
3.1412879279
 42
3.3807498255
  0
ELLIPSE
  5
75E
100
AcDbEntity
  8
RACCORDO
100
AcDbEllipse
 62
7
  6
CONTINUOUS
 10
1.572573152
 20
-23.861221512
 30
0.0
 11
0.1914783511
 21
0.462269632
 31
0.0
 40
0.9992864213
 41
2.7491458864
 42
3.5340394208
  0
ELLIPSE
  5
75F
100
AcDbEntity
  8
RACCORDO
100
AcDbEllipse
 62
7
  6
CONTINUOUS
 10
6.5581071081
 20
-23.861221512
 30
0.0
 11
-0.1914783511
 21
0.462269632
 31
0.0
 40
0.9992864213
 41
2.7491458864
 42
3.5340394208
  0
ELLIPSE
  5
760
100
AcDbEntity
  8
RACCORDO
100
AcDbEllipse
 62
7
  6
CONTINUOUS
 10
1.572573152
 20
29.5381689437
 30
0.0
 11
0.1914783511
 21
-0.462269632
 31
0.0
 40
0.9992864213
 41
2.7491458864
 42
3.5340394208
  0
ELLIPSE
  5
761
100
AcDbEntity
  8
RACCORDO
100
AcDbEllipse
 62
7
  6
CONTINUOUS
 10
6.5581071081
 20
29.5381689437
 30
0.0
 11
-0.1914783511
 21
-0.462269632
 31
0.0
 40
0.9992864213
 41
2.7491458864
 42
3.5340394208
  0
ELLIPSE
  5
762
100
AcDbEntity
  8
0
100
AcDbEllipse
 62
7
  6
CONTINUOUS
 10
1.4999339164
 20
27.9910917762
 30
0.0
 11
0.2897979396
 21
-0.0
 31
0.0
 40
0.8626700395
 41
1.5707963268
 42
3.0972071723
  0
ELLIPSE
  5
763
100
AcDbEntity
  8
0
100
AcDbEllipse
 62
7
  6
CONTINUOUS
 10
6.6307463437
 20
27.9910917762
 30
0.0
 11
0.2897979396
 21
-0.0
 31
0.0
 40
0.8626700395
 41
6.3275707885
 42
7.853981634
  0
ELLIPSE
  5
764
100
AcDbEntity
  8
0
100
AcDbEllipse
 62
7
  6
CONTINUOUS
 10
6.6307463437
 20
-22.3141443444
 30
0.0
 11
-0.2897979396
 21
0.0
 31
0.0
 40
0.8626700395
 41
1.5707963268
 42
3.0972071723
  0
ELLIPSE
  5
765
100
AcDbEntity
  8
0
100
AcDbEllipse
 62
7
  6
CONTINUOUS
 10
1.4999339164
 20
-22.3141443444
 30
0.0
 11
-0.2897979396
 21
0.0
 31
0.0
 40
0.8626700395
 41
6.3275707885
 42
7.853981634
  0
ELLIPSE
  5
766
100
AcDbEntity
  8
0
100
AcDbEllipse
 62
7
  6
CONTINUOUS
 10
17.4142447774
 20
-23.5103700003
 30
0.0
 11
0.0
 21
0.2035214786
 31
0.0
 40
0.9826972631
 41
-4.6949356879
 42
-3.9182641707
  0
ELLIPSE
  5
767
100
AcDbEntity
  8
0
100
AcDbEllipse
 62
7
  6
CONTINUOUS
 10
-3.8357552226
 20
-23.5103700003
 30
0.0
 11
0.0
 21
0.2035214786
 31
0.0
 40
0.9826972631
 41
-4.6949356879
 42
-3.9182641707
  0
ELLIPSE
  5
768
100
AcDbEntity
  8
0
100
AcDbEllipse
 62
7
  6
CONTINUOUS
 10
-0.7500203182
 20
27.9419647289
 30
0.0
 11
0.2
 21
0.0
 31
0.0
 40
0.0174550649
 41
-1.5707963268
 42
-0.034906585
  0
ELLIPSE
  5
769
100
AcDbEntity
  8
RACCORDO
100
AcDbEllipse
 62
7
  6
CONTINUOUS
 10
18.0652944316
 20
29.6384280175
 30
0.0
 11
0.2121966568
 21
0.2121966568
 31
0.0
 40
0.9996954599
 41
-0.7852458701
 42
0.7852458701
  0
ELLIPSE
  5
76A
100
AcDbEntity
  8
RACCORDO
100
AcDbEllipse
 62
7
  6
CONTINUOUS
 10
11.3153858284
 20
29.6384280175
 30
0.0
 11
-0.2121966568
 21
0.2121966568
 31
0.0
 40
0.9996954599
 41
-0.7852458701
 42
0.7852458701
  0
ELLIPSE
  5
76B
100
AcDbEntity
  8
RACCORDO
100
AcDbEllipse
 62
7
  6
CONTINUOUS
 10
-9.9346141716
 20
29.6384280175
 30
0.0
 11
-0.2121966568
 21
0.2121966568
 31
0.0
 40
0.9996954599
 41
-0.7852458701
 42
0.7852458701
  0
ELLIPSE
  5
76C
100
AcDbEntity
  8
RACCORDO
100
AcDbEllipse
 62
7
  6
CONTINUOUS
 10
-3.1847055684
 20
29.6384280175
 30
0.0
 11
0.2121966568
 21
0.2121966568
 31
0.0
 40
0.9996954599
 41
-0.7852458701
 42
0.7852458701
  0
ELLIPSE
  5
76D
100
AcDbEntity
  8
RACCORDO
100
AcDbEllipse
 62
7
  6
CONTINUOUS
 10
18.0652944316
 20
-23.9614805857
 30
0.0
 11
0.2121966568
 21
-0.2121966568
 31
0.0
 40
0.9996954599
 41
-0.7852458701
 42
0.7852458701
  0
ELLIPSE
  5
76E
100
AcDbEntity
  8
RACCORDO
100
AcDbEllipse
 62
7
  6
CONTINUOUS
 10
11.3153858284
 20
-23.9614805857
 30
0.0
 11
0.2121966568
 21
0.2121966568
 31
0.0
 40
0.9996954599
 41
-3.9268385237
 42
-2.3563467834
  0
ELLIPSE
  5
76F
100
AcDbEntity
  8
RACCORDO
100
AcDbEllipse
 62
7
  6
CONTINUOUS
 10
-3.1847055684
 20
-23.9614805857
 30
0.0
 11
-0.2121966568
 21
0.2121966568
 31
0.0
 40
0.9996954599
 41
-3.9268385237
 42
-2.3563467834
  0
ELLIPSE
  5
770
100
AcDbEntity
  8
RACCORDO
100
AcDbEllipse
 62
7
  6
CONTINUOUS
 10
-9.9346141716
 20
-23.9614805857
 30
0.0
 11
0.2121966568
 21
0.2121966568
 31
0.0
 40
0.9996954599
 41
-3.9268385237
 42
-2.3563467834
  0
ELLIPSE
  5
771
100
AcDbEntity
  8
RACCORDO
100
AcDbEllipse
 62
7
  6
CONTINUOUS
 10
-9.7345837059
 20
30.6383975519
 30
0.0
 11
-0.3536610946
 21
0.3536610946
 31
0.0
 40
0.9996954599
 41
-0.7852458701
 42
0.7852458701
  0
ELLIPSE
  5
772
100
AcDbEntity
  8
RACCORDO
100
AcDbEllipse
 62
7
  6
CONTINUOUS
 10
17.865263966
 20
30.6383975519
 30
0.0
 11
0.3536610946
 21
0.3536610946
 31
0.0
 40
0.9996954599
 41
-0.7852458701
 42
0.7852458701
  0
ELLIPSE
  5
773
100
AcDbEntity
  8
RACCORDO
100
AcDbEllipse
 62
7
  6
CONTINUOUS
 10
-9.7345837059
 20
-24.9614501201
 30
0.0
 11
-0.3536610946
 21
-0.3536610946
 31
0.0
 40
0.9996954599
 41
-0.7852458701
 42
0.7852458701
  0
ELLIPSE
  5
774
100
AcDbEntity
  8
RACCORDO
100
AcDbEllipse
 62
7
  6
CONTINUOUS
 10
17.865263966
 20
-24.9614501201
 30
0.0
 11
0.3536610946
 21
-0.3536610946
 31
0.0
 40
0.9996954599
 41
-0.7852458701
 42
0.7852458701
  0
ELLIPSE
  5
775
100
AcDbEntity
  8
0
100
AcDbEllipse
 62
7
  6
CONTINUOUS
 10
17.4142447774
 20
29.1873174321
 30
0.0
 11
0.0
 21
0.2035214786
 31
0.0
 40
0.9826972631
 41
0.7766715171
 42
1.5533430343
  0
ELLIPSE
  5
776
100
AcDbEntity
  8
0
100
AcDbEllipse
 62
7
  6
CONTINUOUS
 10
-3.8357552226
 20
29.1873174321
 30
0.0
 11
0.0
 21
0.2035214786
 31
0.0
 40
0.9826972631
 41
0.7766715171
 42
1.5533430343
  0
ELLIPSE
  5
777
100
AcDbEntity
  8
0
100
AcDbEllipse
 62
7
  6
CONTINUOUS
 10
11.9664354826
 20
-23.5103700003
 30
0.0
 11
0.0
 21
0.2035214786
 31
0.0
 40
0.9826972631
 41
-2.3649211365
 42
-1.5882496193
  0
ELLIPSE
  5
778
100
AcDbEntity
  8
0
100
AcDbEllipse
 62
7
  6
CONTINUOUS
 10
-9.2835645174
 20
-23.5103700003
 30
0.0
 11
0.0
 21
0.2035214786
 31
0.0
 40
0.9826972631
 41
-2.3649211365
 42
-1.5882496193
  0
ELLIPSE
  5
779
100
AcDbEntity
  8
0
100
AcDbEllipse
 62
7
  6
CONTINUOUS
 10
11.9664354826
 20
29.1873174321
 30
0.0
 11
0.0
 21
0.2035214786
 31
0.0
 40
0.9826972631
 41
-1.5533430343
 42
-0.7766715171
  0
ELLIPSE
  5
77A
100
AcDbEntity
  8
DRAFT
100
AcDbEllipse
 62
7
  6
CONTINUOUS
 10
16.06534013
 20
25.5135140156
 30
0.0
 11
20.0576316624
 21
0.0
 31
0.0
 40
0.0087268678
 41
-1.5707963268
 42
-1.5325426266
  0
ELLIPSE
  5
77B
100
AcDbEntity
  8
0
100
AcDbEllipse
 62
7
  6
CONTINUOUS
 10
8.8807005782
 20
27.9419647289
 30
0.0
 11
0.2
 21
-0.0
 31
0.0
 40
0.0174550649
 41
-3.1066860686
 42
-1.5707963268
  0
ELLIPSE
  5
77C
100
AcDbEntity
  8
0
100
AcDbEllipse
 62
7
  6
CONTINUOUS
 10
8.8807005782
 20
-22.2650172971
 30
0.0
 11
0.2
 21
0.0
 31
0.0
 40
0.0174550649
 41
1.5707963268
 42
3.1066860685
  0
ELLIPSE
  5
77D
100
AcDbEntity
  8
DRAFT
100
AcDbEllipse
 62
7
  6
CONTINUOUS
 10
1.56534013
 20
-21.3538043378
 30
0.0
 11
0.0
 21
12.4679170719
 31
0.0
 40
0.7456587883
 41
-3.5521361586
 42
-3.5366182222
  0
ELLIPSE
  5
77E
100
AcDbEntity
  8
DRAFT
100
AcDbEllipse
 62
7
  6
CONTINUOUS
 10
6.56534013
 20
-21.3538043378
 30
0.0
 11
0.0
 21
12.4679170719
 31
0.0
 40
0.7456587883
 41
-2.746567085
 42
-2.7310491486
  0
ELLIPSE
  5
77F
100
AcDbEntity
  8
DRAFT
100
AcDbEllipse
 62
7
  6
CONTINUOUS
 10
6.56534013
 20
27.0307517695
 30
0.0
 11
0.0
 21
12.4679170719
 31
0.0
 40
0.7456587883
 41
-0.410543505
 42
-0.3950255686
  0
ELLIPSE
  5
780
100
AcDbEntity
  8
DRAFT
100
AcDbEllipse
 62
7
  6
CONTINUOUS
 10
1.56534013
 20
27.0307517695
 30
0.0
 11
0.0
 21
12.4679170719
 31
0.0
 40
0.7456587883
 41
0.3950255686
 42
0.410543505
  0
ELLIPSE
  5
781
100
AcDbEntity
  8
DRAFT
100
AcDbEllipse
 62
7
  6
CONTINUOUS
 10
-7.93465987
 20
25.5135140156
 30
0.0
 11
20.0576316624
 21
-0.0
 31
0.0
 40
0.0087268678
 41
-1.609050027
 42
-1.5707963268
  0
ELLIPSE
  5
782
100
AcDbEntity
  8
DRAFT
100
AcDbEllipse
 62
7
  6
CONTINUOUS
 10
-7.93465987
 20
-19.8365665838
 30
0.0
 11
20.0576316624
 21
-0.0
 31
0.0
 40
0.0087268678
 41
1.5707963268
 42
1.609050027
  0
ELLIPSE
  5
783
100
AcDbEntity
  8
0
100
AcDbEllipse
 62
7
  6
CONTINUOUS
 10
-0.7500203182
 20
-22.2650172971
 30
0.0
 11
0.2
 21
0.0
 31
0.0
 40
0.0174550649
 41
0.034906585
 42
1.5707963268
  0
ELLIPSE
  5
784
100
AcDbEntity
  8
DRAFT
100
AcDbEllipse
 62
7
  6
CONTINUOUS
 10
16.06534013
 20
-19.8365665838
 30
0.0
 11
20.0576316624
 21
-0.0
 31
0.0
 40
0.0087268678
 41
1.5325426266
 42
1.5707963268
  0
ELLIPSE
  5
785
100
AcDbEntity
  8
DRAFT
100
AcDbEllipse
 62
7
  6
CONTINUOUS
 10
16.06534013
 20
-8.9445836445
 30
0.0
 11
20.0576316624
 21
-0.0
 31
0.0
 40
0.0174550649
 41
-1.5707963268
 42
-1.5325426266
  0
ELLIPSE
  5
786
100
AcDbEntity
  8
DRAFT
100
AcDbEllipse
 62
7
  6
CONTINUOUS
 10
-7.93465987
 20
-8.9445836445
 30
0.0
 11
20.0576316624
 21
-0.0
 31
0.0
 40
0.0174550649
 41
-1.609050027
 42
-1.5707963268
  0
ELLIPSE
  5
787
100
AcDbEntity
  8
DRAFT
100
AcDbEllipse
 62
7
  6
CONTINUOUS
 10
16.06534013
 20
-8.3784689237
 30
0.0
 11
20.0576316624
 21
-0.0
 31
0.0
 40
0.0174550649
 41
1.5325426266
 42
1.5707963268
  0
ELLIPSE
  5
788
100
AcDbEntity
  8
DRAFT
100
AcDbEllipse
 62
7
  6
CONTINUOUS
 10
-7.93465987
 20
-8.3784689237
 30
0.0
 11
20.0576316624
 21
-0.0
 31
0.0
 40
0.0174550649
 41
1.5707963268
 42
1.609050027
  0
ELLIPSE
  5
789
100
AcDbEntity
  8
DRAFT
100
AcDbEllipse
 62
7
  6
CONTINUOUS
 10
16.06534013
 20
2.5554163555
 30
0.0
 11
20.0576316624
 21
-0.0
 31
0.0
 40
0.0174550649
 41
-1.5707963268
 42
-1.5325426266
  0
ELLIPSE
  5
78A
100
AcDbEntity
  8
DRAFT
100
AcDbEllipse
 62
7
  6
CONTINUOUS
 10
-7.93465987
 20
2.5554163555
 30
0.0
 11
20.0576316624
 21
-0.0
 31
0.0
 40
0.0174550649
 41
-1.609050027
 42
-1.5707963268
  0
ELLIPSE
  5
78B
100
AcDbEntity
  8
DRAFT
100
AcDbEllipse
 62
7
  6
CONTINUOUS
 10
16.06534013
 20
14.6215310763
 30
0.0
 11
20.0576316624
 21
-0.0
 31
0.0
 40
0.0174550649
 41
1.5325426266
 42
1.5707963268
  0
ELLIPSE
  5
78C
100
AcDbEntity
  8
DRAFT
100
AcDbEllipse
 62
7
  6
CONTINUOUS
 10
-7.93465987
 20
14.6215310763
 30
0.0
 11
20.0576316624
 21
-0.0
 31
0.0
 40
0.0174550649
 41
1.5707963268
 42
1.609050027
  0
ELLIPSE
  5
78D
100
AcDbEntity
  8
DRAFT
100
AcDbEllipse
 62
7
  6
CONTINUOUS
 10
16.06534013
 20
3.1215310763
 30
0.0
 11
20.0576316624
 21
-0.0
 31
0.0
 40
0.0174550649
 41
1.5325426266
 42
1.5707963268
  0
ELLIPSE
  5
78E
100
AcDbEntity
  8
DRAFT
100
AcDbEllipse
 62
7
  6
CONTINUOUS
 10
-7.93465987
 20
3.1215310763
 30
0.0
 11
20.0576316624
 21
-0.0
 31
0.0
 40
0.0174550649
 41
1.5707963268
 42
1.609050027
  0
ELLIPSE
  5
78F
100
AcDbEntity
  8
DRAFT
100
AcDbEllipse
 62
7
  6
CONTINUOUS
 10
16.06534013
 20
14.0554163555
 30
0.0
 11
20.0576316624
 21
-0.0
 31
0.0
 40
0.0174550649
 41
-1.5707963268
 42
-1.5325426266
  0
ELLIPSE
  5
790
100
AcDbEntity
  8
DRAFT
100
AcDbEllipse
 62
7
  6
CONTINUOUS
 10
-7.93465987
 20
14.0554163555
 30
0.0
 11
20.0576316624
 21
-0.0
 31
0.0
 40
0.0174550649
 41
-1.609050027
 42
-1.5707963268
  0
ELLIPSE
  5
791
100
AcDbEntity
  8
DRAFT
100
AcDbEllipse
 62
7
  6
CONTINUOUS
 10
16.06534013
 20
-20.5445836445
 30
0.0
 11
20.0576316624
 21
-0.0
 31
0.0
 40
0.0174550649
 41
-1.4543284117
 42
-1.3894403359
  0
ELLIPSE
  5
792
100
AcDbEntity
  8
DRAFT
100
AcDbEllipse
 62
7
  6
CONTINUOUS
 10
16.06534013
 20
-19.9784689237
 30
0.0
 11
20.0576316624
 21
-0.0
 31
0.0
 40
0.0174550649
 41
1.3894403359
 42
1.4543284117
  0
ELLIPSE
  5
793
100
AcDbEntity
  8
DRAFT
100
AcDbEllipse
 62
7
  6
CONTINUOUS
 10
16.06534013
 20
25.6554163555
 30
0.0
 11
20.0576316624
 21
-0.0
 31
0.0
 40
0.0174550649
 41
-1.4543284117
 42
-1.3894403359
  0
ELLIPSE
  5
794
100
AcDbEntity
  8
DRAFT
100
AcDbEllipse
 62
7
  6
CONTINUOUS
 10
16.06534013
 20
26.2215310763
 30
0.0
 11
20.0576316624
 21
-0.0
 31
0.0
 40
0.0174550649
 41
1.3894403359
 42
1.4543284117
  0
ELLIPSE
  5
795
100
AcDbEntity
  8
DRAFT
100
AcDbEllipse
 62
7
  6
CONTINUOUS
 10
16.06534013
 20
14.0554163555
 30
0.0
 11
20.0576316624
 21
-0.0
 31
0.0
 40
0.0174550649
 41
-1.4543284117
 42
-1.3894403359
  0
ELLIPSE
  5
796
100
AcDbEntity
  8
DRAFT
100
AcDbEllipse
 62
7
  6
CONTINUOUS
 10
16.06534013
 20
14.6215310763
 30
0.0
 11
20.0576316624
 21
-0.0
 31
0.0
 40
0.0174550649
 41
1.3894403359
 42
1.4543284117
  0
ELLIPSE
  5
797
100
AcDbEntity
  8
DRAFT
100
AcDbEllipse
 62
7
  6
CONTINUOUS
 10
16.06534013
 20
2.5554163555
 30
0.0
 11
20.0576316624
 21
-0.0
 31
0.0
 40
0.0174550649
 41
-1.4543284117
 42
-1.3894403359
  0
ELLIPSE
  5
798
100
AcDbEntity
  8
DRAFT
100
AcDbEllipse
 62
7
  6
CONTINUOUS
 10
16.06534013
 20
3.1215310763
 30
0.0
 11
20.0576316624
 21
-0.0
 31
0.0
 40
0.0174550649
 41
1.3894403359
 42
1.4543284117
  0
ELLIPSE
  5
799
100
AcDbEntity
  8
DRAFT
100
AcDbEllipse
 62
7
  6
CONTINUOUS
 10
16.06534013
 20
-8.3784689237
 30
0.0
 11
20.0576316624
 21
-0.0
 31
0.0
 40
0.0174550649
 41
1.3894403359
 42
1.4543284117
  0
ELLIPSE
  5
79A
100
AcDbEntity
  8
DRAFT
100
AcDbEllipse
 62
7
  6
CONTINUOUS
 10
16.06534013
 20
-8.9445836445
 30
0.0
 11
20.0576316624
 21
-0.0
 31
0.0
 40
0.0174550649
 41
-1.4543284117
 42
-1.3894403359
  0
ELLIPSE
  5
79B
100
AcDbEntity
  8
DRAFT
100
AcDbEllipse
 62
7
  6
CONTINUOUS
 10
-7.93465987
 20
-19.9784689237
 30
0.0
 11
20.0576316624
 21
-0.0
 31
0.0
 40
0.0174550649
 41
1.6872642419
 42
1.7521523177
  0
ELLIPSE
  5
79C
100
AcDbEntity
  8
DRAFT
100
AcDbEllipse
 62
7
  6
CONTINUOUS
 10
-7.93465987
 20
-20.5445836445
 30
0.0
 11
20.0576316624
 21
-0.0
 31
0.0
 40
0.0174550649
 41
-1.7521523177
 42
-1.6872642419
  0
ELLIPSE
  5
79D
100
AcDbEntity
  8
DRAFT
100
AcDbEllipse
 62
7
  6
CONTINUOUS
 10
-7.93465987
 20
26.2215310763
 30
0.0
 11
20.0576316624
 21
0.0
 31
0.0
 40
0.0174550649
 41
1.6872642419
 42
1.7521523177
  0
ELLIPSE
  5
79E
100
AcDbEntity
  8
DRAFT
100
AcDbEllipse
 62
7
  6
CONTINUOUS
 10
-7.93465987
 20
25.6554163555
 30
0.0
 11
20.0576316624
 21
-0.0
 31
0.0
 40
0.0174550649
 41
-1.7521523177
 42
-1.6872642419
  0
ELLIPSE
  5
79F
100
AcDbEntity
  8
DRAFT
100
AcDbEllipse
 62
7
  6
CONTINUOUS
 10
-7.93465987
 20
14.6215310763
 30
0.0
 11
20.0576316624
 21
-0.0
 31
0.0
 40
0.0174550649
 41
1.6872642419
 42
1.7521523177
  0
ELLIPSE
  5
7A0
100
AcDbEntity
  8
DRAFT
100
AcDbEllipse
 62
7
  6
CONTINUOUS
 10
-7.93465987
 20
14.0554163555
 30
0.0
 11
20.0576316624
 21
-0.0
 31
0.0
 40
0.0174550649
 41
-1.7521523177
 42
-1.6872642419
  0
ELLIPSE
  5
7A1
100
AcDbEntity
  8
0
100
AcDbEllipse
 62
7
  6
CONTINUOUS
 10
-9.2835645174
 20
29.1873174321
 30
0.0
 11
0.0
 21
0.2035214786
 31
0.0
 40
0.9826972631
 41
-1.5533430343
 42
-0.7766715171
  0
ELLIPSE
  5
7A2
100
AcDbEntity
  8
DRAFT
100
AcDbEllipse
 62
7
  6
CONTINUOUS
 10
-7.93465987
 20
3.1215310763
 30
0.0
 11
20.0576316624
 21
-0.0
 31
0.0
 40
0.0174550649
 41
1.6872642419
 42
1.7521523177
  0
ELLIPSE
  5
7A3
100
AcDbEntity
  8
DRAFT
100
AcDbEllipse
 62
7
  6
CONTINUOUS
 10
-7.93465987
 20
2.5554163555
 30
0.0
 11
20.0576316624
 21
-0.0
 31
0.0
 40
0.0174550649
 41
-1.7521523177
 42
-1.6872642419
  0
ELLIPSE
  5
7A4
100
AcDbEntity
  8
DRAFT
100
AcDbEllipse
 62
7
  6
CONTINUOUS
 10
-7.93465987
 20
-8.9445836445
 30
0.0
 11
20.0576316624
 21
-0.0
 31
0.0
 40
0.0174550649
 41
-1.7521523177
 42
-1.6872642419
  0
ELLIPSE
  5
7A5
100
AcDbEntity
  8
DRAFT
100
AcDbEllipse
 62
7
  6
CONTINUOUS
 10
-7.93465987
 20
-8.3784689237
 30
0.0
 11
20.0576316624
 21
-0.0
 31
0.0
 40
0.0174550649
 41
1.6872642419
 42
1.7521523177
  0
ENDSEC
  0
SECTION
  2
OBJECTS
  0
DICTIONARY
  5
C
100
AcDbDictionary
280
0
281
1
  3
ACAD_GROUP
350
D
  3
ACAD_MLINESTYLE
350
17
  3
ACAD_LAYOUT
350
1A
  3
ACAD_PLOTSETTINGS
350
19
  3
ACAD_PLOTSTYLENAME
350
E
  0
DICTIONARY
  5
D
102
{ACAD_REACTORS
330
C
102
}
100
AcDbDictionary
280
0
281
1
  0
ACDBDICTIONARYWDFLT
  5
E
102
{ACAD_REACTORS
330
C
102
}
100
AcDbDictionary
281
1
  3
Normal
350
F
100
AcDbDictionaryWithDefault
340
F
  0
DICTIONARY
  5
17
102
{ACAD_REACTORS
330
C
102
}
100
AcDbDictionary
280
0
281
1
  3
Standard
350
18
  0
DICTIONARY
  5
19
102
{ACAD_REACTORS
330
C
102
}
100
AcDbDictionary
281
1
  0
DICTIONARY
  5
1A
102
{ACAD_REACTORS
330
C
102
}
100
AcDbDictionary
281
1
  3
Model
350
7A6
  3
Layout1
350
7A7
  0
ACDBPLACEHOLDER
  5
F
102
{ACAD_REACTORS
330
E
102
}
  0
MLINESTYLE
  5
18
102
{ACAD_REACTORS
330
17
102
}
100
AcDbMlineStyle
  2
STANDARD
 70
0
  3

 62
256
 51
90.0
 52
90.0
 71
2
 49
0.5
 62
256
  6
BYLAYER
 49
-0.5
 62
256
  6
BYLAYER
  0
LAYOUT
  5
7A6
102
{ACAD_REACTORS
330
1A
102
}
100
AcDbPlotSettings
  1

  2
none_device
  4
ISO_A4_(297.00_x_210.00_MM)
  6

 40
0.0
 41
0.0
 42
0.0
 43
0.0
 44
297.0
 45
210.0
 46
0.0
 47
0.0
 48
0.0
 49
0.0
140
0.0
141
0.0
142
1.0
143
1.0
 70
1024
 72
1
 73
0
 74
0
  7

 75
0
147
1.0
148
0.0
149
0.0
100
AcDbLayout
  1
Model
 70
0
 71
0
 10
0.0
 20
0.0
 11
297.0
 21
210.0
 12
0.0
 22
0.0
 32
0.0
 14
0.0
 24
0.0
 34
0.0
 15
0.0
 25
0.0
 35
0.0
146
0.0
 13
0.0
 23
0.0
 33
0.0
 16
1.0
 26
0.0
 36
0.0
 17
0.0
 27
1.0
 37
0.0
 76
0
330
212
345
0
346
0
  0
LAYOUT
  5
7A7
102
{ACAD_REACTORS
330
1A
102
}
100
AcDbPlotSettings
  1

  2
none_device
  4
ISO_A4_(297.00_x_210.00_MM)
  6

 40
0.0
 41
0.0
 42
0.0
 43
0.0
 44
297.0
 45
210.0
 46
0.0
 47
0.0
 48
0.0
 49
0.0
140
0.0
141
0.0
142
1.0
143
1.0
 70
0
 72
1
 73
0
 74
0
  7

 75
0
147
1.0
148
0.0
149
0.0
100
AcDbLayout
  1
Layout1
 70
0
 71
1
 10
0.0
 20
0.0
 11
297.0
 21
210.0
 12
0.0
 22
0.0
 32
0.0
 14
0.0
 24
0.0
 34
0.0
 15
0.0
 25
0.0
 35
0.0
146
0.0
 13
0.0
 23
0.0
 33
0.0
 16
1.0
 26
0.0
 36
0.0
 17
0.0
 27
1.0
 37
0.0
 76
0
330
213
345
0
346
0
  0
ENDSEC
  0
EOF
