  0
SECTION
  2
HEADER
  9
$ACADVER
  1
AC1015
  9
$DWGCODEPAGE
  3
ANSI_1252
  9
$EXTMAX
 10
297.0
 20
210.0
 30
0.0
  9
$EXTMIN
 10
0.0
 20
0.0
 30
0.0
  9
$LIMMIN
 10
0.0
 20
0.0
  9
$LIMMAX
 10
297.0
 20
210.0
  9
$VIEWCTR
 10
148.5
 20
105.0
  9
$VIEWSIZE
 40
210.0
  9
$CLAYER
  8
0
  9
$LTSCALE
 40
16.335
  9
$CELTYPE
  6
BYLAYER
  9
$DIMSCALE
 40
1.0
  9
$DIMASZ
 40
3.0
  9
$DIMEXO
 40
1.85625
  9
$DIMDLI
 40
11.286
  9
$DIMEXE
 40
5.346
  9
$DIMCEN
 40
2.673
  9
$DIMLFAC
 40
1.0
  9
$DIMBLK
  1
_FILLED
  9
$DIMTXT
 40
3.0
  9
$DIMTOL
 70
1
  9
$DIMLIM
 70
0
  9
$DIMTFAC
 40
1.0
  9
$DIMTP
 40
0.01
  9
$DIMTM
 40
0.01
  9
$PDMODE
 70
3
  9
$PDSIZE
 40
3.0
  9
$HANDSEED
  5
314
  9
$TILEMODE
 70
1
  9
$MEASUREMENT
 70
1
  9
$INSUNITS
 70
4
  0
ENDSEC
  0
SECTION
  2
CLASSES
  0
CLASS
  1
ACDBDICTIONARYWDFLT
  2
AcDbDictionaryWithDefault
  3
AutoCAD 2000
 90
0
280
0
281
0
  0
CLASS
  1
ACDBPLACEHOLDER
  2
AcDbPlaceHolder
  3
AutoCAD 2000
 90
0
280
0
281
0
  0
CLASS
  1
LAYOUT
  2
AcDbLayout
  3
AutoCAD 2000
 90
0
280
0
281
0
  0
ENDSEC
  0
SECTION
  2
TABLES
  0
TABLE
  2
VPORT
  5
8
100
AcDbSymbolTable
 70
2
  0
VPORT
  5
1F4
100
AcDbSymbolTableRecord
100
AcDbViewportTableRecord
  2
*ACTIVE
 70
0
 10
0.0
 20
0.0
 11
1.0
 21
1.0
 12
148.5
 22
105.0
 13
0.0
 23
0.0
 14
1.0
 24
1.0
 15
0.0
 25
0.0
 16
0.0
 26
0.0
 36
1.0
 17
0.0
 27
0.0
 37
0.0
 40
210.0
 41
1.4142857143
 42
50.0
 43
0.0
 44
0.0
 50
0.0
 51
0.0
 71
0
 72
100
 73
1
 74
1
 75
0
 76
0
 77
0
 78
0
  0
ENDTAB
  0
TABLE
  2
LTYPE
  5
5
100
AcDbSymbolTable
 70
6
  0
LTYPE
  5
14
100
AcDbSymbolTableRecord
100
AcDbLinetypeTableRecord
  2
BYBLOCK
 70
0
  3

 72
65
 73
0
 40
0.0
  0
LTYPE
  5
15
100
AcDbSymbolTableRecord
100
AcDbLinetypeTableRecord
  2
BYLAYER
 70
0
  3

 72
65
 73
0
 40
0.0
  0
LTYPE
  5
16
100
AcDbSymbolTableRecord
100
AcDbLinetypeTableRecord
  2
CONTINUOUS
 70
64
  3
Solid line
 72
65
 73
0
 40
0.0
  0
LTYPE
  5
1F5
100
AcDbSymbolTableRecord
100
AcDbLinetypeTableRecord
  2
CENTER
 70
64
  3
____ _ ____ _ ____ _ ____ _ ____ _ ____ _ ____
 72
65
 73
4
 40
0.6
 49
0.375
 74
0
 49
-0.075
 74
0
 49
0.075
 74
0
 49
-0.075
 74
0
  0
LTYPE
  5
1F6
100
AcDbSymbolTableRecord
100
AcDbLinetypeTableRecord
  2
HIDDEN
 70
64
  3
- - - - - - - - - - - - - - - - - - - -
 72
65
 73
2
 40
0.2
 49
0.1
 74
0
 49
-0.1
 74
0
  0
LTYPE
  5
1F7
100
AcDbSymbolTableRecord
100
AcDbLinetypeTableRecord
  2
PHANTOM
 70
64
  3
_____ _ _ _____ _ _ _____ _ _ _____
 72
65
 73
6
 40
0.8
 49
0.45
 74
0
 49
-0.05
 74
0
 49
0.1
 74
0
 49
-0.05
 74
0
 49
0.1
 74
0
 49
-0.05
 74
0
  0
LTYPE
  5
1F8
100
AcDbSymbolTableRecord
100
AcDbLinetypeTableRecord
  2
DOT
 70
64
  3
. . . . . . . . . . . . . . . . . . . .
 72
65
 73
2
 40
0.2
 49
0.1
 74
0
 49
-0.1
 74
0
  0
LTYPE
  5
1F9
100
AcDbSymbolTableRecord
100
AcDbLinetypeTableRecord
  2
DASHED
 70
64
  3
- - - - - - - - - - - - - - - - - - - -
 72
65
 73
2
 40
0.2
 49
0.1
 74
0
 49
-0.1
 74
0
  0
ENDTAB
  0
TABLE
  2
LAYER
  5
2
100
AcDbSymbolTable
 70
36
  0
LAYER
  5
10
100
AcDbSymbolTableRecord
100
AcDbLayerTableRecord
  2
0
 70
0
 62
7
  6
CONTINUOUS
370
-3
390
F
  0
LAYER
  5
1FA
100
AcDbSymbolTableRecord
100
AcDbLayerTableRecord
  2
DEFAULT_1
 70
0
 62
7
  6
CENTER
370
-3
390
F
  0
LAYER
  5
1FB
100
AcDbSymbolTableRecord
100
AcDbLayerTableRecord
  2
DEFAULT_2
 70
0
 62
7
  6
HIDDEN
370
-3
390
F
  0
LAYER
  5
1FC
100
AcDbSymbolTableRecord
100
AcDbLayerTableRecord
  2
DEFAULT_3
 70
0
 62
7
  6
PHANTOM
370
-3
390
F
  0
LAYER
  5
1FD
100
AcDbSymbolTableRecord
100
AcDbLayerTableRecord
  2
ASSI
 70
0
 62
7
  6
CONTINUOUS
370
-3
390
F
  0
LAYER
  5
1FE
100
AcDbSymbolTableRecord
100
AcDbLayerTableRecord
  2
COLORE_MATERIALE
 70
0
 62
7
  6
CONTINUOUS
370
-3
390
F
  0
LAYER
  5
1FF
100
AcDbSymbolTableRecord
100
AcDbLayerTableRecord
  2
COORDINATE
 70
0
 62
7
  6
CONTINUOUS
370
-3
390
F
  0
LAYER
  5
200
100
AcDbSymbolTableRecord
100
AcDbLayerTableRecord
  2
COORD_ORIGINE
 70
0
 62
7
  6
CONTINUOUS
370
-3
390
F
  0
LAYER
  5
201
100
AcDbSymbolTableRecord
100
AcDbLayerTableRecord
  2
COPY
 70
0
 62
7
  6
CONTINUOUS
370
-3
390
F
  0
LAYER
  5
202
100
AcDbSymbolTableRecord
100
AcDbLayerTableRecord
  2
CURVE
 70
0
 62
7
  6
CONTINUOUS
370
-3
390
F
  0
LAYER
  5
203
100
AcDbSymbolTableRecord
100
AcDbLayerTableRecord
  2
DRAFT
 70
0
 62
7
  6
CONTINUOUS
370
-3
390
F
  0
LAYER
  5
204
100
AcDbSymbolTableRecord
100
AcDbLayerTableRecord
  2
IGS
 70
0
 62
7
  6
CONTINUOUS
370
-3
390
F
  0
LAYER
  5
205
100
AcDbSymbolTableRecord
100
AcDbLayerTableRecord
  2
PIANI
 70
0
 62
7
  6
CONTINUOUS
370
-3
390
F
  0
LAYER
  5
206
100
AcDbSymbolTableRecord
100
AcDbLayerTableRecord
  2
PIANI_ORIGINE
 70
0
 62
7
  6
CONTINUOUS
370
-3
390
F
  0
LAYER
  5
207
100
AcDbSymbolTableRecord
100
AcDbLayerTableRecord
  2
PIANI_RIFERIMENTO
 70
0
 62
7
  6
CONTINUOUS
370
-3
390
F
  0
LAYER
  5
208
100
AcDbSymbolTableRecord
100
AcDbLayerTableRecord
  2
RACCORDO
 70
0
 62
7
  6
CONTINUOUS
370
-3
390
F
  0
LAYER
  5
209
100
AcDbSymbolTableRecord
100
AcDbLayerTableRecord
  2
SMUSSO
 70
0
 62
7
  6
CONTINUOUS
370
-3
390
F
  0
LAYER
  5
20A
100
AcDbSymbolTableRecord
100
AcDbLayerTableRecord
  2
SNAPLINE
 70
0
 62
7
  6
CONTINUOUS
370
-3
390
F
  0
LAYER
  5
20B
100
AcDbSymbolTableRecord
100
AcDbLayerTableRecord
  2
SUPERFICI
 70
0
 62
7
  6
CONTINUOUS
370
-3
390
F
  0
LAYER
  5
20C
100
AcDbSymbolTableRecord
100
AcDbLayerTableRecord
  2
TRASH
 70
0
 62
7
  6
CONTINUOUS
370
-3
390
F
  0
ENDTAB
  0
TABLE
  2
STYLE
  5
3
100
AcDbSymbolTable
 70
1
  0
STYLE
  5
11
100
AcDbSymbolTableRecord
100
AcDbTextStyleTableRecord
  2
STANDARD
 70
0
 40
0.0
 41
0.8
 50
0.0
 71
0
 42
0.2
  3
txt
  4

  0
STYLE
  5
20D
100
AcDbSymbolTableRecord
100
AcDbTextStyleTableRecord
  2
TEXTSTYLE_1
 70
0
 40
0.0
 41
0.8
 50
0.0
 71
0
 42
0.2
  3
gdt
  4

  0
ENDTAB
  0
TABLE
  2
VIEW
  5
6
100
AcDbSymbolTable
 70
0
  0
ENDTAB
  0
TABLE
  2
UCS
  5
7
100
AcDbSymbolTable
 70
0
  0
ENDTAB
  0
TABLE
  2
APPID
  5
9
100
AcDbSymbolTable
 70
1
  0
APPID
  5
20E
100
AcDbSymbolTableRecord
100
AcDbRegAppTableRecord
  2
ACAD
 70
0
  0
ENDTAB
  0
TABLE
  2
BLOCK_RECORD
  5
1
100
AcDbSymbolTable
 70
0
  0
BLOCK_RECORD
  5
20F
100
AcDbSymbolTableRecord
100
AcDbBlockTableRecord
  2
*Model_Space
  0
BLOCK_RECORD
  5
210
100
AcDbSymbolTableRecord
100
AcDbBlockTableRecord
  2
*Paper_Space
  0
ENDTAB
  0
TABLE
  2
DIMSTYLE
  5
A
100
AcDbSymbolTable
 70
1
100
AcDbDimStyleTable
 71
0
  0
DIMSTYLE
105
211
100
AcDbSymbolTableRecord
100
AcDbDimStyleTableRecord
  2
STANDARD
 70
0
  3

  4

 40
1.0
 41
3.0
 42
0.0625
 43
0.38
 44
0.18
 45
0.0
 46
0.0
 47
0.01
 48
0.01
140
3.0
141
0.09
142
0.0
143
25.4
144
1.0
145
0.0
146
1.0
147
0.09
 71
1.0
 72
0.0
 73
0
 74
0
 75
0
 76
0
 77
1
 78
8
170
0
171
2
172
0
173
0
174
0
175
0
176
0
177
0
178
0
270
2
271
2
272
2
273
2
274
2
275
0
280
0
281
0
282
0
283
1
284
8
285
0
286
0
287
3
288
0
340
11
  0
ENDTAB
  0
ENDSEC
  0
SECTION
  2
BLOCKS
  0
BLOCK
  5
20
100
AcDbEntity
  8
0
100
AcDbBlockBegin
  2
*Model_Space
 70
0
 10
0.0
 20
0.0
 30
0.0
  3
*Model_Space
  1

  0
ENDBLK
  5
21
100
AcDbEntity
  8
0
100
AcDbBlockEnd
  0
BLOCK
  5
1C
100
AcDbEntity
  8
0
100
AcDbBlockBegin
  2
*Paper_Space
 70
0
 10
0.0
 20
0.0
 30
0.0
  3
*Paper_Space
  1

  0
ENDBLK
  5
1D
100
AcDbEntity
  8
0
100
AcDbBlockEnd
  0
ENDSEC
  0
SECTION
  2
ENTITIES
  0
LINE
  5
212
100
AcDbEntity
  8
DRAFT
100
AcDbLine
 62
7
  6
CONTINUOUS
 10
-22.546196655
 20
7.0305343175
 11
-22.546196655
 21
-2.017974105
  0
LINE
  5
213
100
AcDbEntity
  8
RACCORDO
100
AcDbLine
 62
7
  6
CONTINUOUS
 10
-22.546196655
 20
-2.017974105
 11
-22.546196655
 21
-10.5790901811
  0
LINE
  5
214
100
AcDbEntity
  8
RACCORDO
100
AcDbLine
 62
7
  6
CONTINUOUS
 10
-22.5060500057
 20
10.8119826557
 11
-22.5060500057
 21
7.0706809668
  0
LINE
  5
215
100
AcDbEntity
  8
0
100
AcDbLine
 62
253
  6
CONTINUOUS
 10
-22.302398964
 20
-1.9977314363
 11
-22.302398964
 21
2.13909337
  0
LINE
  5
216
100
AcDbEntity
  8
0
100
AcDbLine
 62
253
  6
CONTINUOUS
 10
-21.6062336372
 20
-1.9922611731
 11
-21.6062336372
 21
2.1336231068
  0
LINE
  5
217
100
AcDbEntity
  8
DRAFT
100
AcDbLine
 62
7
  6
CONTINUOUS
 10
-21.396196655
 20
2.1336231068
 11
-21.396196655
 21
-1.9922611731
  0
LINE
  5
218
100
AcDbEntity
  8
RACCORDO
100
AcDbLine
 62
7
  6
CONTINUOUS
 10
-21.396196655
 20
-2.017974105
 11
-21.396196655
 21
-9.4492172512
  0
LINE
  5
219
100
AcDbEntity
  8
DRAFT
100
AcDbLine
 62
7
  6
CONTINUOUS
 10
-21.396196655
 20
-2.017974105
 11
-21.396196655
 21
-2.0061928335
  0
LINE
  5
21A
100
AcDbEntity
  8
DRAFT
100
AcDbLine
 62
7
  6
CONTINUOUS
 10
-21.396196655
 20
2.1475547672
 11
-21.396196655
 21
7.0305343175
  0
LINE
  5
21B
100
AcDbEntity
  8
RACCORDO
100
AcDbLine
 62
7
  6
CONTINUOUS
 10
-21.3560500057
 20
7.0706809668
 11
-21.3560500057
 21
9.7056215577
  0
LINE
  5
21C
100
AcDbEntity
  8
RACCORDO
100
AcDbLine
 62
253
  6
CONTINUOUS
 10
-21.114796709
 20
-8.9929581866
 11
-21.114796709
 21
-9.1635670374
  0
LINE
  5
21D
100
AcDbEntity
  8
RACCORDO
100
AcDbLine
 62
253
  6
CONTINUOUS
 10
-21.0984288417
 20
9.8479394717
 11
-21.0984288417
 21
9.647359138
  0
LINE
  5
21E
100
AcDbEntity
  8
DRAFT
100
AcDbLine
 62
7
  6
CONTINUOUS
 10
-20.796196655
 20
-2.0031697578
 11
-20.796196655
 21
2.1445316915
  0
LINE
  5
21F
100
AcDbEntity
  8
DRAFT
100
AcDbLine
 62
7
  6
CONTINUOUS
 10
-20.239572328
 20
-11.0793190332
 11
-20.239572328
 21
-9.6493190332
  0
LINE
  5
220
100
AcDbEntity
  8
DRAFT
100
AcDbLine
 62
7
  6
CONTINUOUS
 10
-22.546196655
 20
7.0305343175
 11
-22.5060500057
 21
7.0706809668
  0
LINE
  5
221
100
AcDbEntity
  8
DRAFT
100
AcDbLine
 62
7
  6
CONTINUOUS
 10
-21.396196655
 20
7.0305343175
 11
-21.3560500057
 21
7.0706809668
  0
LINE
  5
222
100
AcDbEntity
  8
DRAFT
100
AcDbLine
 62
7
  6
CONTINUOUS
 10
-19.8711739821
 20
11.061954099
 11
-19.8711739821
 21
9.9055910967
  0
LINE
  5
223
100
AcDbEntity
  8
DRAFT
100
AcDbLine
 62
7
  6
CONTINUOUS
 10
-19.696196655
 20
9.8706809668
 11
-19.696196655
 21
11.0445003635
  0
LINE
  5
224
100
AcDbEntity
  8
RACCORDO
100
AcDbLine
 62
253
  6
CONTINUOUS
 10
-18.853931682
 20
-10.9535403629
 11
-18.853931682
 21
-9.4442560162
  0
LINE
  5
225
100
AcDbEntity
  8
RACCORDO
100
AcDbLine
 62
253
  6
CONTINUOUS
 10
-18.6807266012
 20
-10.948299585
 11
-18.6807266012
 21
-9.4319775601
  0
LINE
  5
226
100
AcDbEntity
  8
RACCORDO
100
AcDbLine
 62
253
  6
CONTINUOUS
 10
-21.314766247
 20
-8.9650577999
 11
-21.3737510793
 21
-9.3799761495
  0
LINE
  5
227
100
AcDbEntity
  8
RACCORDO
100
AcDbLine
 62
253
  6
CONTINUOUS
 10
-21.114796709
 20
-9.1635670374
 11
-21.1739000525
 21
-9.5793190332
  0
LINE
  5
228
100
AcDbEntity
  8
RACCORDO
100
AcDbLine
 62
253
  6
CONTINUOUS
 10
-21.3737510793
 20
-9.3799761495
 11
-21.396196655
 21
-9.4492172512
  0
LINE
  5
229
100
AcDbEntity
  8
RACCORDO
100
AcDbLine
 62
253
  6
CONTINUOUS
 10
-21.1736623107
 20
-9.5793190332
 11
-21.1963538951
 21
-9.6493190332
  0
LINE
  5
22A
100
AcDbEntity
  8
RACCORDO
100
AcDbLine
 62
253
  6
CONTINUOUS
 10
-15.4116667089
 20
-9.4319775601
 11
-15.4116667089
 21
-10.948299585
  0
LINE
  5
22B
100
AcDbEntity
  8
RACCORDO
100
AcDbLine
 62
253
  6
CONTINUOUS
 10
-15.2384616281
 20
-9.4442560162
 11
-15.2384616281
 21
-10.9535403629
  0
LINE
  5
22C
100
AcDbEntity
  8
DRAFT
100
AcDbLine
 62
7
  6
CONTINUOUS
 10
-13.8528209821
 20
-11.0793190332
 11
-13.8528209821
 21
-9.6493190332
  0
LINE
  5
22D
100
AcDbEntity
  8
RACCORDO
100
AcDbLine
 62
7
  6
CONTINUOUS
 10
-21.396196655
 20
2.1593360387
 11
-21.2997641464
 21
2.207548621
  0
LINE
  5
22E
100
AcDbEntity
  8
RACCORDO
100
AcDbLine
 62
7
  6
CONTINUOUS
 10
14.2109830219
 20
-9.5793190332
 11
14.846068318
 21
-9.4442560162
  0
LINE
  5
22F
100
AcDbEntity
  8
RACCORDO
100
AcDbLine
 62
7
  6
CONTINUOUS
 10
13.460427672
 20
-11.0793190332
 11
14.846068318
 21
-10.9535403629
  0
LINE
  5
230
100
AcDbEntity
  8
RACCORDO
100
AcDbLine
 62
7
  6
CONTINUOUS
 10
-13.8528209821
 20
-11.0793190332
 11
-15.2384616281
 21
-10.9535403629
  0
LINE
  5
231
100
AcDbEntity
  8
RACCORDO
100
AcDbLine
 62
7
  6
CONTINUOUS
 10
-14.603376332
 20
-9.5793190332
 11
-15.2384616281
 21
-9.4442560162
  0
LINE
  5
232
100
AcDbEntity
  8
DRAFT
100
AcDbLine
 62
7
  6
CONTINUOUS
 10
14.2109830219
 20
-9.5793190332
 11
13.460427672
 21
-9.6493190332
  0
LINE
  5
233
100
AcDbEntity
  8
RACCORDO
100
AcDbLine
 62
7
  6
CONTINUOUS
 10
3.1264530758
 20
-9.6493190332
 11
3.646068318
 21
-9.6008574947
  0
LINE
  5
234
100
AcDbEntity
  8
RACCORDO
100
AcDbLine
 62
7
  6
CONTINUOUS
 10
3.1264530758
 20
-11.0793190332
 11
3.646068318
 21
-11.0321520318
  0
LINE
  5
235
100
AcDbEntity
  8
RACCORDO
100
AcDbLine
 62
7
  6
CONTINUOUS
 10
-8.1735469242
 20
-11.0793190332
 11
-7.653931682
 21
-11.0321520318
  0
LINE
  5
236
100
AcDbEntity
  8
RACCORDO
100
AcDbLine
 62
7
  6
CONTINUOUS
 10
-22.0465772548
 20
-11.0793190332
 11
-20.239572328
 21
-11.0793190332
  0
LINE
  5
237
100
AcDbEntity
  8
DRAFT
100
AcDbLine
 62
7
  6
CONTINUOUS
 10
-13.8528209821
 20
-11.0793190332
 11
-8.1735469242
 21
-11.0793190332
  0
LINE
  5
238
100
AcDbEntity
  8
DRAFT
100
AcDbLine
 62
7
  6
CONTINUOUS
 10
-3.5188463859
 20
-11.0793190332
 11
3.1264530758
 21
-11.0793190332
  0
LINE
  5
239
100
AcDbEntity
  8
DRAFT
100
AcDbLine
 62
7
  6
CONTINUOUS
 10
7.7811536141
 20
-11.0793190332
 11
13.460427672
 21
-11.0793190332
  0
LINE
  5
23A
100
AcDbEntity
  8
RACCORDO
100
AcDbLine
 62
7
  6
CONTINUOUS
 10
19.8471790179
 20
-11.0793190332
 11
21.6541839447
 21
-11.0793190332
  0
LINE
  5
23B
100
AcDbEntity
  8
RACCORDO
100
AcDbLine
 62
7
  6
CONTINUOUS
 10
-7.4807266012
 20
-11.0269112539
 11
-4.2116667089
 21
-11.0269112539
  0
LINE
  5
23C
100
AcDbEntity
  8
RACCORDO
100
AcDbLine
 62
7
  6
CONTINUOUS
 10
3.8192733988
 20
-11.0269112539
 11
7.0883332911
 21
-11.0269112539
  0
LINE
  5
23D
100
AcDbEntity
  8
RACCORDO
100
AcDbLine
 62
7
  6
CONTINUOUS
 10
-18.6807266012
 20
-10.948299585
 11
-15.4116667089
 21
-10.948299585
  0
LINE
  5
23E
100
AcDbEntity
  8
RACCORDO
100
AcDbLine
 62
7
  6
CONTINUOUS
 10
15.0192733988
 20
-10.948299585
 11
18.2883332911
 21
-10.948299585
  0
LINE
  5
23F
100
AcDbEntity
  8
RACCORDO
100
AcDbLine
 62
7
  6
CONTINUOUS
 10
-3.5188463859
 20
-11.0793190332
 11
-4.0384616281
 21
-11.0321520318
  0
LINE
  5
240
100
AcDbEntity
  8
RACCORDO
100
AcDbLine
 62
7
  6
CONTINUOUS
 10
7.7811536141
 20
-11.0793190332
 11
7.2615383719
 21
-11.0321520318
  0
LINE
  5
241
100
AcDbEntity
  8
DRAFT
100
AcDbLine
 62
7
  6
CONTINUOUS
 10
-14.603376332
 20
-9.5793190332
 11
-13.8528209821
 21
-9.6493190332
  0
LINE
  5
242
100
AcDbEntity
  8
RACCORDO
100
AcDbLine
 62
7
  6
CONTINUOUS
 10
-3.5188463859
 20
-9.6493190332
 11
-4.0384616281
 21
-9.6008574947
  0
LINE
  5
243
100
AcDbEntity
  8
RACCORDO
100
AcDbLine
 62
7
  6
CONTINUOUS
 10
-21.3025830212
 20
-2.0647773572
 11
-21.396196655
 21
-2.017974105
  0
LINE
  5
244
100
AcDbEntity
  8
RACCORDO
100
AcDbLine
 62
7
  6
CONTINUOUS
 10
-8.1735469242
 20
-9.6493190332
 11
-7.653931682
 21
-9.6008574947
  0
LINE
  5
245
100
AcDbEntity
  8
RACCORDO
100
AcDbLine
 62
7
  6
CONTINUOUS
 10
-20.239572328
 20
-11.0793190332
 11
-18.853931682
 21
-10.9535403629
  0
LINE
  5
246
100
AcDbEntity
  8
RACCORDO
100
AcDbLine
 62
7
  6
CONTINUOUS
 10
-21.1963538951
 20
-9.6493190332
 11
-20.239572328
 21
-9.6493190332
  0
LINE
  5
247
100
AcDbEntity
  8
DRAFT
100
AcDbLine
 62
7
  6
CONTINUOUS
 10
-13.8528209821
 20
-9.6493190332
 11
-8.1735469242
 21
-9.6493190332
  0
LINE
  5
248
100
AcDbEntity
  8
DRAFT
100
AcDbLine
 62
7
  6
CONTINUOUS
 10
-3.5188463859
 20
-9.6493190332
 11
3.1264530758
 21
-9.6493190332
  0
LINE
  5
249
100
AcDbEntity
  8
DRAFT
100
AcDbLine
 62
7
  6
CONTINUOUS
 10
7.7811536141
 20
-9.6493190332
 11
13.460427672
 21
-9.6493190332
  0
LINE
  5
24A
100
AcDbEntity
  8
RACCORDO
100
AcDbLine
 62
7
  6
CONTINUOUS
 10
19.8471790179
 20
-9.6493190332
 11
20.803960585
 21
-9.6493190332
  0
LINE
  5
24B
100
AcDbEntity
  8
RACCORDO
100
AcDbLine
 62
7
  6
CONTINUOUS
 10
-7.4807266012
 20
-9.5954728793
 11
-4.2116667089
 21
-9.5954728793
  0
LINE
  5
24C
100
AcDbEntity
  8
RACCORDO
100
AcDbLine
 62
7
  6
CONTINUOUS
 10
3.8192733988
 20
-9.5954728793
 11
7.0883332911
 21
-9.5954728793
  0
LINE
  5
24D
100
AcDbEntity
  8
RACCORDO
100
AcDbLine
 62
7
  6
CONTINUOUS
 10
20.7815067424
 20
-9.5793190332
 11
19.096623668
 21
-9.5793190332
  0
LINE
  5
24E
100
AcDbEntity
  8
DRAFT
100
AcDbLine
 62
7
  6
CONTINUOUS
 10
14.2109830219
 20
-9.5793190332
 11
-14.603376332
 21
-9.5793190332
  0
LINE
  5
24F
100
AcDbEntity
  8
RACCORDO
100
AcDbLine
 62
7
  6
CONTINUOUS
 10
-19.4890169781
 20
-9.5793190332
 11
-21.1739000525
 21
-9.5793190332
  0
LINE
  5
250
100
AcDbEntity
  8
RACCORDO
100
AcDbLine
 62
7
  6
CONTINUOUS
 10
-18.6807266012
 20
-9.4319775601
 11
-15.4116667089
 21
-9.4319775601
  0
LINE
  5
251
100
AcDbEntity
  8
RACCORDO
100
AcDbLine
 62
7
  6
CONTINUOUS
 10
15.0192733988
 20
-9.4319775601
 11
18.2883332911
 21
-9.4319775601
  0
LINE
  5
252
100
AcDbEntity
  8
RACCORDO
100
AcDbLine
 62
253
  6
CONTINUOUS
 10
20.7224033989
 20
-9.1635670374
 11
-21.114796709
 21
-9.1635670374
  0
LINE
  5
253
100
AcDbEntity
  8
RACCORDO
100
AcDbLine
 62
253
  6
CONTINUOUS
 10
20.7224033183
 20
-8.9929581866
 11
-21.1147966283
 21
-8.9929581866
  0
LINE
  5
254
100
AcDbEntity
  8
RACCORDO
100
AcDbLine
 62
7
  6
CONTINUOUS
 10
19.8471790179
 20
-11.0793190332
 11
18.4615383719
 21
-10.9535403629
  0
LINE
  5
255
100
AcDbEntity
  8
RACCORDO
100
AcDbLine
 62
7
  6
CONTINUOUS
 10
7.7811536141
 20
-9.6493190332
 11
7.2615383719
 21
-9.6008574947
  0
LINE
  5
256
100
AcDbEntity
  8
RACCORDO
100
AcDbLine
 62
253
  6
CONTINUOUS
 10
-21.3560500057
 20
9.7056215577
 11
-21.2983983809
 21
9.6479699328
  0
LINE
  5
257
100
AcDbEntity
  8
DRAFT
100
AcDbLine
 62
7
  6
CONTINUOUS
 10
-8.1735469242
 20
-11.0793190332
 11
-8.1735469242
 21
-9.6493190332
  0
LINE
  5
258
100
AcDbEntity
  8
RACCORDO
100
AcDbLine
 62
253
  6
CONTINUOUS
 10
-7.653931682
 20
-11.0321520318
 11
-7.653931682
 21
-9.6008574947
  0
LINE
  5
259
100
AcDbEntity
  8
RACCORDO
100
AcDbLine
 62
253
  6
CONTINUOUS
 10
-7.4807266012
 20
-11.0269112539
 11
-7.4807266012
 21
-9.5954728793
  0
LINE
  5
25A
100
AcDbEntity
  8
DRAFT
100
AcDbLine
 62
7
  6
CONTINUOUS
 10
-19.4890169781
 20
-9.5793190332
 11
-20.239572328
 21
-9.6493190332
  0
LINE
  5
25B
100
AcDbEntity
  8
DRAFT
100
AcDbLine
 62
7
  6
CONTINUOUS
 10
19.096623668
 20
-9.5793190332
 11
19.8471790179
 21
-9.6493190332
  0
LINE
  5
25C
100
AcDbEntity
  8
RACCORDO
100
AcDbLine
 62
253
  6
CONTINUOUS
 10
-21.1560804667
 20
9.9055910967
 11
-21.0984288417
 21
9.8479394717
  0
LINE
  5
25D
100
AcDbEntity
  8
RACCORDO
100
AcDbLine
 62
7
  6
CONTINUOUS
 10
-19.4890169781
 20
-9.5793190332
 11
-18.853931682
 21
-9.4442560162
  0
LINE
  5
25E
100
AcDbEntity
  8
RACCORDO
100
AcDbLine
 62
7
  6
CONTINUOUS
 10
19.096623668
 20
-9.5793190332
 11
18.4615383719
 21
-9.4442560162
  0
LINE
  5
25F
100
AcDbEntity
  8
RACCORDO
100
AcDbLine
 62
253
  6
CONTINUOUS
 10
-4.2116667089
 20
-9.5954728793
 11
-4.2116667089
 21
-11.0269112539
  0
LINE
  5
260
100
AcDbEntity
  8
RACCORDO
100
AcDbLine
 62
253
  6
CONTINUOUS
 10
-4.0384616281
 20
-9.6008574947
 11
-4.0384616281
 21
-11.0321520318
  0
LINE
  5
261
100
AcDbEntity
  8
DRAFT
100
AcDbLine
 62
7
  6
CONTINUOUS
 10
-3.5188463859
 20
-11.0793190332
 11
-3.5188463859
 21
-9.6493190332
  0
LINE
  5
262
100
AcDbEntity
  8
0
100
AcDbLine
 62
7
  6
CONTINUOUS
 10
-2.827884655
 20
6.8681749668
 11
-2.493962655
 21
8.0382429668
  0
LINE
  5
263
100
AcDbEntity
  8
0
100
AcDbLine
 62
7
  6
CONTINUOUS
 10
-2.685780655
 20
6.3383799668
 11
-2.139376655
 21
8.0382429668
  0
LINE
  5
264
100
AcDbEntity
  8
0
100
AcDbLine
 62
7
  6
CONTINUOUS
 10
-2.007698655
 20
6.3383799668
 11
-2.007698655
 21
8.0383449668
  0
LINE
  5
265
100
AcDbEntity
  8
0
100
AcDbLine
 62
7
  6
CONTINUOUS
 10
-1.652870655
 20
6.3383799668
 11
-1.652870655
 21
8.0383449668
  0
LINE
  5
266
100
AcDbEntity
  8
0
100
AcDbLine
 62
7
  6
CONTINUOUS
 10
-1.461855655
 20
6.3383799668
 11
-1.308368655
 21
8.0382429668
  0
LINE
  5
267
100
AcDbEntity
  8
0
100
AcDbLine
 62
7
  6
CONTINUOUS
 10
-0.602752655
 20
7.0944739668
 11
-0.247924655
 21
8.0382429668
  0
LINE
  5
268
100
AcDbEntity
  8
0
100
AcDbLine
 62
7
  6
CONTINUOUS
 10
-0.579808655
 20
6.3383799668
 11
-0.157917655
 21
7.4437319668
  0
LINE
  5
269
100
AcDbEntity
  8
DRAFT
100
AcDbLine
 62
7
  6
CONTINUOUS
 10
21.003803345
 20
-1.9922611731
 11
20.403803345
 21
-1.9974972938
  0
LINE
  5
26A
100
AcDbEntity
  8
DRAFT
100
AcDbLine
 62
7
  6
CONTINUOUS
 10
-21.396196655
 20
-2.0061928335
 11
-20.796196655
 21
-2.0031697578
  0
LINE
  5
26B
100
AcDbEntity
  8
DRAFT
100
AcDbLine
 62
7
  6
CONTINUOUS
 10
-22.546196655
 20
-2.017974105
 11
-21.396196655
 21
-2.017974105
  0
LINE
  5
26C
100
AcDbEntity
  8
DRAFT
100
AcDbLine
 62
7
  6
CONTINUOUS
 10
21.003803345
 20
-2.017974105
 11
22.153803345
 21
-2.017974105
  0
LINE
  5
26D
100
AcDbEntity
  8
0
100
AcDbLine
 62
7
  6
CONTINUOUS
 10
21.2138403271
 20
-1.9922611731
 11
21.003803345
 21
-1.9922611731
  0
LINE
  5
26E
100
AcDbEntity
  8
0
100
AcDbLine
 62
7
  6
CONTINUOUS
 10
-21.396196655
 20
-1.9922611731
 11
-21.6062336372
 21
-1.9922611731
  0
LINE
  5
26F
100
AcDbEntity
  8
DRAFT
100
AcDbLine
 62
7
  6
CONTINUOUS
 10
20.403803345
 20
-2.0031697578
 11
21.003803345
 21
-2.0061928335
  0
LINE
  5
270
100
AcDbEntity
  8
DRAFT
100
AcDbLine
 62
7
  6
CONTINUOUS
 10
-20.796196655
 20
-1.9974972938
 11
-21.396196655
 21
-1.9922611731
  0
LINE
  5
271
100
AcDbEntity
  8
0
100
AcDbLine
 62
7
  6
CONTINUOUS
 10
-1.122400655
 20
6.3383799668
 11
-1.045828655
 21
7.4483589668
  0
LINE
  5
272
100
AcDbEntity
  8
0
100
AcDbLine
 62
7
  6
CONTINUOUS
 10
0.839287345
 20
6.9403229668
 11
1.015961345
 21
7.5711639668
  0
LINE
  5
273
100
AcDbEntity
  8
0
100
AcDbLine
 62
7
  6
CONTINUOUS
 10
0.668794345
 20
6.3383799668
 11
0.766705345
 21
6.6777329668
  0
LINE
  5
274
100
AcDbEntity
  8
0
100
AcDbLine
 62
7
  6
CONTINUOUS
 10
0.317816345
 20
6.3383799668
 11
0.851001345
 21
8.0382429668
  0
LINE
  5
275
100
AcDbEntity
  8
0
100
AcDbLine
 62
7
  6
CONTINUOUS
 10
-22.302398964
 20
-1.9977314363
 11
-22.546196655
 21
-2.017974105
  0
LINE
  5
276
100
AcDbEntity
  8
0
100
AcDbLine
 62
7
  6
CONTINUOUS
 10
22.153803345
 20
-2.017974105
 11
21.9100056539
 21
-1.9977314363
  0
LINE
  5
277
100
AcDbEntity
  8
0
100
AcDbLine
 62
7
  6
CONTINUOUS
 10
-2.998472655
 20
6.3383799668
 11
-3.537362655
 21
8.0382429668
  0
LINE
  5
278
100
AcDbEntity
  8
0
100
AcDbLine
 62
7
  6
CONTINUOUS
 10
-2.827884655
 20
6.8681749668
 11
-3.151909655
 21
8.0382429668
  0
LINE
  5
279
100
AcDbEntity
  8
0
100
AcDbLine
 62
7
  6
CONTINUOUS
 10
0.262099345
 20
6.3383799668
 11
0.103142345
 21
8.0382429668
  0
LINE
  5
27A
100
AcDbEntity
  8
0
100
AcDbLine
 62
7
  6
CONTINUOUS
 10
-0.085016655
 20
6.3383799668
 11
-0.157917655
 21
7.4437319668
  0
LINE
  5
27B
100
AcDbEntity
  8
0
100
AcDbLine
 62
7
  6
CONTINUOUS
 10
22.153803345
 20
2.1593360387
 11
21.9100056539
 21
2.13909337
  0
LINE
  5
27C
100
AcDbEntity
  8
DRAFT
100
AcDbLine
 62
253
  6
CONTINUOUS
 10
20.403803345
 20
1.6047510712
 11
-20.796196655
 21
1.6047510712
  0
LINE
  5
27D
100
AcDbEntity
  8
0
100
AcDbLine
 62
7
  6
CONTINUOUS
 10
-22.302398964
 20
2.13909337
 11
-22.546196655
 21
2.1593360387
  0
LINE
  5
27E
100
AcDbEntity
  8
0
100
AcDbLine
 62
7
  6
CONTINUOUS
 10
-0.629572655
 20
6.3383799668
 11
-1.045828655
 21
7.4483589668
  0
LINE
  5
27F
100
AcDbEntity
  8
0
100
AcDbLine
 62
7
  6
CONTINUOUS
 10
1.8200100089
 20
6.3383802801
 11
1.8200100089
 21
8.018383049
  0
LINE
  5
280
100
AcDbEntity
  8
0
100
AcDbLine
 62
7
  6
CONTINUOUS
 10
2.1616447766
 20
7.2820091353
 11
2.1616447766
 21
7.7486546178
  0
LINE
  5
281
100
AcDbEntity
  8
0
100
AcDbLine
 62
7
  6
CONTINUOUS
 10
2.1734103409
 20
6.3383802801
 11
2.1734103409
 21
7.0036126827
  0
LINE
  5
282
100
AcDbEntity
  8
0
100
AcDbLine
 62
7
  6
CONTINUOUS
 10
2.7322555277
 20
7.1318611584
 11
2.7322555277
 21
7.1419058656
  0
LINE
  5
283
100
AcDbEntity
  8
DRAFT
100
AcDbLine
 62
7
  6
CONTINUOUS
 10
3.1264530758
 20
-11.0793190332
 11
3.1264530758
 21
-9.6493190332
  0
LINE
  5
284
100
AcDbEntity
  8
DRAFT
100
AcDbLine
 62
7
  6
CONTINUOUS
 10
-20.796196655
 20
2.1388592274
 11
-21.396196655
 21
2.1336231068
  0
LINE
  5
285
100
AcDbEntity
  8
DRAFT
100
AcDbLine
 62
7
  6
CONTINUOUS
 10
20.403803345
 20
2.1445316915
 11
21.003803345
 21
2.1475547672
  0
LINE
  5
286
100
AcDbEntity
  8
0
100
AcDbLine
 62
7
  6
CONTINUOUS
 10
21.2138403271
 20
2.1336231068
 11
21.003803345
 21
2.1336231068
  0
LINE
  5
287
100
AcDbEntity
  8
0
100
AcDbLine
 62
7
  6
CONTINUOUS
 10
-21.396196655
 20
2.1336231068
 11
-21.6062336372
 21
2.1336231068
  0
LINE
  5
288
100
AcDbEntity
  8
DRAFT
100
AcDbLine
 62
7
  6
CONTINUOUS
 10
-22.546196655
 20
2.1593360387
 11
-21.396196655
 21
2.1593360387
  0
LINE
  5
289
100
AcDbEntity
  8
DRAFT
100
AcDbLine
 62
7
  6
CONTINUOUS
 10
21.003803345
 20
2.1593360387
 11
22.153803345
 21
2.1593360387
  0
LINE
  5
28A
100
AcDbEntity
  8
DRAFT
100
AcDbLine
 62
7
  6
CONTINUOUS
 10
-21.396196655
 20
2.1475547672
 11
-20.796196655
 21
2.1445316915
  0
LINE
  5
28B
100
AcDbEntity
  8
DRAFT
100
AcDbLine
 62
7
  6
CONTINUOUS
 10
21.003803345
 20
2.1336231068
 11
20.403803345
 21
2.1388592274
  0
LINE
  5
28C
100
AcDbEntity
  8
0
100
AcDbLine
 62
7
  6
CONTINUOUS
 10
-0.602752655
 20
7.0944739668
 11
-0.953833655
 21
8.0382429668
  0
LINE
  5
28D
100
AcDbEntity
  8
0
100
AcDbLine
 62
7
  6
CONTINUOUS
 10
1.341841345
 20
6.3383799668
 11
1.249922345
 21
6.6777329668
  0
LINE
  5
28E
100
AcDbEntity
  8
0
100
AcDbLine
 62
7
  6
CONTINUOUS
 10
1.179009345
 20
6.9403229668
 11
1.015961345
 21
7.5711639668
  0
LINE
  5
28F
100
AcDbEntity
  8
RACCORDO
100
AcDbLine
 62
253
  6
CONTINUOUS
 10
3.646068318
 20
-11.0321520318
 11
3.646068318
 21
-9.6008574947
  0
LINE
  5
290
100
AcDbEntity
  8
RACCORDO
100
AcDbLine
 62
253
  6
CONTINUOUS
 10
3.8192733988
 20
-11.0269112539
 11
3.8192733988
 21
-9.5954728793
  0
LINE
  5
291
100
AcDbEntity
  8
0
100
AcDbLine
 62
7
  6
CONTINUOUS
 10
1.715815345
 20
6.3383799668
 11
1.194255345
 21
8.0382429668
  0
LINE
  5
292
100
AcDbEntity
  8
DRAFT
100
AcDbLine
 62
7
  6
CONTINUOUS
 10
19.478780672
 20
9.9055910967
 11
19.303803345
 21
9.8706809668
  0
LINE
  5
293
100
AcDbEntity
  8
0
100
AcDbLine
 62
7
  6
CONTINUOUS
 10
-2.998472655
 20
6.3383799668
 11
-2.685780655
 21
6.3383799668
  0
LINE
  5
294
100
AcDbEntity
  8
0
100
AcDbLine
 62
7
  6
CONTINUOUS
 10
-2.007698655
 20
6.3383799668
 11
-1.652870655
 21
6.3383799668
  0
LINE
  5
295
100
AcDbEntity
  8
0
100
AcDbLine
 62
7
  6
CONTINUOUS
 10
-1.461855655
 20
6.3383799668
 11
-1.122400655
 21
6.3383799668
  0
LINE
  5
296
100
AcDbEntity
  8
0
100
AcDbLine
 62
7
  6
CONTINUOUS
 10
-0.629572655
 20
6.3383799668
 11
-0.579808655
 21
6.3383799668
  0
LINE
  5
297
100
AcDbEntity
  8
0
100
AcDbLine
 62
7
  6
CONTINUOUS
 10
-0.085016655
 20
6.3383799668
 11
0.262099345
 21
6.3383799668
  0
LINE
  5
298
100
AcDbEntity
  8
0
100
AcDbLine
 62
7
  6
CONTINUOUS
 10
0.317816345
 20
6.3383799668
 11
0.668794345
 21
6.3383799668
  0
LINE
  5
299
100
AcDbEntity
  8
0
100
AcDbLine
 62
7
  6
CONTINUOUS
 10
1.341841345
 20
6.3383799668
 11
1.715815345
 21
6.3383799668
  0
LINE
  5
29A
100
AcDbEntity
  8
0
100
AcDbLine
 62
7
  6
CONTINUOUS
 10
1.8200100089
 20
6.3383802801
 11
2.1734103409
 21
6.3383802801
  0
LINE
  5
29B
100
AcDbEntity
  8
0
100
AcDbLine
 62
7
  6
CONTINUOUS
 10
2.7167805601
 20
6.3383802801
 11
3.0580839034
 21
6.3383802801
  0
LINE
  5
29C
100
AcDbEntity
  8
0
100
AcDbLine
 62
7
  6
CONTINUOUS
 10
0.766705345
 20
6.6777329668
 11
1.249922345
 21
6.6777329668
  0
LINE
  5
29D
100
AcDbEntity
  8
DRAFT
100
AcDbLine
 62
7
  6
CONTINUOUS
 10
-19.8711739821
 20
9.9055910967
 11
-19.696196655
 21
9.8706809668
  0
LINE
  5
29E
100
AcDbEntity
  8
RACCORDO
100
AcDbLine
 62
253
  6
CONTINUOUS
 10
7.0883332911
 20
-9.5954728793
 11
7.0883332911
 21
-11.0269112539
  0
LINE
  5
29F
100
AcDbEntity
  8
RACCORDO
100
AcDbLine
 62
253
  6
CONTINUOUS
 10
7.2615383719
 20
-9.6008574947
 11
7.2615383719
 21
-11.0321520318
  0
LINE
  5
2A0
100
AcDbEntity
  8
DRAFT
100
AcDbLine
 62
7
  6
CONTINUOUS
 10
7.7811536141
 20
-11.0793190332
 11
7.7811536141
 21
-9.6493190332
  0
LINE
  5
2A1
100
AcDbEntity
  8
RACCORDO
100
AcDbLine
 62
253
  6
CONTINUOUS
 10
20.7060355316
 20
9.8479394717
 11
20.7636871566
 21
9.9055910967
  0
LINE
  5
2A2
100
AcDbEntity
  8
RACCORDO
100
AcDbLine
 62
253
  6
CONTINUOUS
 10
20.9060050708
 20
9.6479699328
 11
20.9636566956
 21
9.7056215577
  0
LINE
  5
2A3
100
AcDbEntity
  8
0
100
AcDbLine
 62
7
  6
CONTINUOUS
 10
0.839287345
 20
6.9403229668
 11
1.179009345
 21
6.9403229668
  0
LINE
  5
2A4
100
AcDbEntity
  8
0
100
AcDbLine
 62
7
  6
CONTINUOUS
 10
2.1734103409
 20
7.0036126827
 11
2.363660664
 21
7.0036126827
  0
LINE
  5
2A5
100
AcDbEntity
  8
DRAFT
100
AcDbLine
 62
7
  6
CONTINUOUS
 10
-22.546196655
 20
7.0305343175
 11
-21.396196655
 21
7.0305343175
  0
LINE
  5
2A6
100
AcDbEntity
  8
DRAFT
100
AcDbLine
 62
7
  6
CONTINUOUS
 10
21.003803345
 20
7.0305343175
 11
22.153803345
 21
7.0305343175
  0
LINE
  5
2A7
100
AcDbEntity
  8
DRAFT
100
AcDbLine
 62
7
  6
CONTINUOUS
 10
-22.5060500057
 20
7.0706809668
 11
-21.3560500057
 21
7.0706809668
  0
LINE
  5
2A8
100
AcDbEntity
  8
DRAFT
100
AcDbLine
 62
7
  6
CONTINUOUS
 10
20.9636566956
 20
7.0706809668
 11
22.1136566956
 21
7.0706809668
  0
LINE
  5
2A9
100
AcDbEntity
  8
0
100
AcDbLine
 62
7
  6
CONTINUOUS
 10
2.1616447766
 20
7.2820091353
 11
2.3644254894
 21
7.2820091353
  0
LINE
  5
2AA
100
AcDbEntity
  8
0
100
AcDbLine
 62
7
  6
CONTINUOUS
 10
-3.537362655
 20
8.0382429668
 11
-3.151909655
 21
8.0382429668
  0
LINE
  5
2AB
100
AcDbEntity
  8
0
100
AcDbLine
 62
7
  6
CONTINUOUS
 10
-2.493962655
 20
8.0382429668
 11
-2.139376655
 21
8.0382429668
  0
LINE
  5
2AC
100
AcDbEntity
  8
0
100
AcDbLine
 62
7
  6
CONTINUOUS
 10
-1.308368655
 20
8.0382429668
 11
-0.953833655
 21
8.0382429668
  0
LINE
  5
2AD
100
AcDbEntity
  8
0
100
AcDbLine
 62
7
  6
CONTINUOUS
 10
-0.247924655
 20
8.0382429668
 11
0.103142345
 21
8.0382429668
  0
LINE
  5
2AE
100
AcDbEntity
  8
0
100
AcDbLine
 62
7
  6
CONTINUOUS
 10
0.851001345
 20
8.0382429668
 11
1.194255345
 21
8.0382429668
  0
LINE
  5
2AF
100
AcDbEntity
  8
0
100
AcDbLine
 62
7
  6
CONTINUOUS
 10
-2.007698655
 20
8.0383449668
 11
-1.652870655
 21
8.0383449668
  0
LINE
  5
2B0
100
AcDbEntity
  8
DRAFT
100
AcDbLine
 62
7
  6
CONTINUOUS
 10
19.478780672
 20
11.061954099
 11
19.303803345
 21
11.0445003635
  0
LINE
  5
2B1
100
AcDbEntity
  8
RACCORDO
100
AcDbLine
 62
253
  6
CONTINUOUS
 10
-21.0984288421
 20
9.647359138
 11
20.706035532
 21
9.647359138
  0
LINE
  5
2B2
100
AcDbEntity
  8
RACCORDO
100
AcDbLine
 62
253
  6
CONTINUOUS
 10
-21.0984288417
 20
9.8479394717
 11
20.7060355316
 21
9.8479394717
  0
LINE
  5
2B3
100
AcDbEntity
  8
DRAFT
100
AcDbLine
 62
7
  6
CONTINUOUS
 10
-19.696196655
 20
9.8706809668
 11
19.303803345
 21
9.8706809668
  0
LINE
  5
2B4
100
AcDbEntity
  8
RACCORDO
100
AcDbLine
 62
7
  6
CONTINUOUS
 10
-21.1560804667
 20
9.9055910967
 11
-19.8711739821
 21
9.9055910967
  0
LINE
  5
2B5
100
AcDbEntity
  8
RACCORDO
100
AcDbLine
 62
7
  6
CONTINUOUS
 10
19.478780672
 20
9.9055910967
 11
20.7636871566
 21
9.9055910967
  0
LINE
  5
2B6
100
AcDbEntity
  8
DRAFT
100
AcDbLine
 62
7
  6
CONTINUOUS
 10
-19.8711739821
 20
11.061954099
 11
-19.696196655
 21
11.0445003635
  0
LINE
  5
2B7
100
AcDbEntity
  8
RACCORDO
100
AcDbLine
 62
7
  6
CONTINUOUS
 10
20.9101897111
 20
-2.0647773572
 11
21.003803345
 21
-2.017974105
  0
LINE
  5
2B8
100
AcDbEntity
  8
DRAFT
100
AcDbLine
 62
7
  6
CONTINUOUS
 10
-19.696196655
 20
11.0445003635
 11
19.303803345
 21
11.0445003635
  0
LINE
  5
2B9
100
AcDbEntity
  8
RACCORDO
100
AcDbLine
 62
7
  6
CONTINUOUS
 10
-22.2560500043
 20
11.061954099
 11
-19.8711739821
 21
11.061954099
  0
LINE
  5
2BA
100
AcDbEntity
  8
RACCORDO
100
AcDbLine
 62
7
  6
CONTINUOUS
 10
19.478780672
 20
11.061954099
 11
21.8636566942
 21
11.061954099
  0
LINE
  5
2BB
100
AcDbEntity
  8
RACCORDO
100
AcDbLine
 62
7
  6
CONTINUOUS
 10
21.003803345
 20
2.1593360387
 11
20.9073708363
 21
2.207548621
  0
LINE
  5
2BC
100
AcDbEntity
  8
DRAFT
100
AcDbLine
 62
7
  6
CONTINUOUS
 10
13.460427672
 20
-11.0793190332
 11
13.460427672
 21
-9.6493190332
  0
LINE
  5
2BD
100
AcDbEntity
  8
RACCORDO
100
AcDbLine
 62
253
  6
CONTINUOUS
 10
14.846068318
 20
-10.9535403629
 11
14.846068318
 21
-9.4442560162
  0
LINE
  5
2BE
100
AcDbEntity
  8
RACCORDO
100
AcDbLine
 62
253
  6
CONTINUOUS
 10
15.0192733988
 20
-10.948299585
 11
15.0192733988
 21
-9.4319775601
  0
LINE
  5
2BF
100
AcDbEntity
  8
RACCORDO
100
AcDbLine
 62
253
  6
CONTINUOUS
 10
18.2883332911
 20
-9.4319775601
 11
18.2883332911
 21
-10.948299585
  0
LINE
  5
2C0
100
AcDbEntity
  8
RACCORDO
100
AcDbLine
 62
253
  6
CONTINUOUS
 10
20.803960585
 20
-9.6493190332
 11
20.7812690006
 21
-9.5793190332
  0
LINE
  5
2C1
100
AcDbEntity
  8
RACCORDO
100
AcDbLine
 62
253
  6
CONTINUOUS
 10
21.003803345
 20
-9.4492172512
 11
20.9813577692
 21
-9.3799761495
  0
LINE
  5
2C2
100
AcDbEntity
  8
RACCORDO
100
AcDbLine
 62
253
  6
CONTINUOUS
 10
18.4615383719
 20
-9.4442560162
 11
18.4615383719
 21
-10.9535403629
  0
LINE
  5
2C3
100
AcDbEntity
  8
DRAFT
100
AcDbLine
 62
7
  6
CONTINUOUS
 10
19.303803345
 20
9.8706809668
 11
19.303803345
 21
11.0445003635
  0
LINE
  5
2C4
100
AcDbEntity
  8
DRAFT
100
AcDbLine
 62
7
  6
CONTINUOUS
 10
19.478780672
 20
11.061954099
 11
19.478780672
 21
9.9055910967
  0
LINE
  5
2C5
100
AcDbEntity
  8
DRAFT
100
AcDbLine
 62
7
  6
CONTINUOUS
 10
19.8471790179
 20
-11.0793190332
 11
19.8471790179
 21
-9.6493190332
  0
LINE
  5
2C6
100
AcDbEntity
  8
DRAFT
100
AcDbLine
 62
7
  6
CONTINUOUS
 10
21.003803345
 20
7.0305343175
 11
20.9636566956
 21
7.0706809668
  0
LINE
  5
2C7
100
AcDbEntity
  8
RACCORDO
100
AcDbLine
 62
253
  6
CONTINUOUS
 10
20.7815067424
 20
-9.5793190332
 11
20.7224033989
 21
-9.1635670374
  0
LINE
  5
2C8
100
AcDbEntity
  8
RACCORDO
100
AcDbLine
 62
253
  6
CONTINUOUS
 10
20.9813577692
 20
-9.3799761495
 11
20.9223729369
 21
-8.9650577999
  0
LINE
  5
2C9
100
AcDbEntity
  8
DRAFT
100
AcDbLine
 62
7
  6
CONTINUOUS
 10
20.403803345
 20
-2.0031697578
 11
20.403803345
 21
2.1445316915
  0
LINE
  5
2CA
100
AcDbEntity
  8
RACCORDO
100
AcDbLine
 62
253
  6
CONTINUOUS
 10
20.7060355316
 20
9.647359138
 11
20.7060355316
 21
9.8479394717
  0
LINE
  5
2CB
100
AcDbEntity
  8
RACCORDO
100
AcDbLine
 62
253
  6
CONTINUOUS
 10
20.7224033989
 20
-9.1635670374
 11
20.7224033989
 21
-8.9929581866
  0
LINE
  5
2CC
100
AcDbEntity
  8
RACCORDO
100
AcDbLine
 62
7
  6
CONTINUOUS
 10
20.9636566956
 20
9.7056215577
 11
20.9636566956
 21
7.0706809668
  0
LINE
  5
2CD
100
AcDbEntity
  8
DRAFT
100
AcDbLine
 62
7
  6
CONTINUOUS
 10
21.003803345
 20
2.1336231068
 11
21.003803345
 21
-1.9922611731
  0
LINE
  5
2CE
100
AcDbEntity
  8
RACCORDO
100
AcDbLine
 62
7
  6
CONTINUOUS
 10
21.003803345
 20
-2.017974105
 11
21.003803345
 21
-9.4492172512
  0
LINE
  5
2CF
100
AcDbEntity
  8
DRAFT
100
AcDbLine
 62
7
  6
CONTINUOUS
 10
21.003803345
 20
-2.017974105
 11
21.003803345
 21
-2.0061928335
  0
LINE
  5
2D0
100
AcDbEntity
  8
DRAFT
100
AcDbLine
 62
7
  6
CONTINUOUS
 10
21.003803345
 20
2.1475547672
 11
21.003803345
 21
7.0305343175
  0
LINE
  5
2D1
100
AcDbEntity
  8
0
100
AcDbLine
 62
253
  6
CONTINUOUS
 10
21.2138403271
 20
-1.9922611731
 11
21.2138403271
 21
2.1336231068
  0
LINE
  5
2D2
100
AcDbEntity
  8
DRAFT
100
AcDbLine
 62
7
  6
CONTINUOUS
 10
22.153803345
 20
7.0305343175
 11
22.1136566956
 21
7.0706809668
  0
LINE
  5
2D3
100
AcDbEntity
  8
0
100
AcDbLine
 62
253
  6
CONTINUOUS
 10
21.9100056539
 20
-1.9977314363
 11
21.9100056539
 21
2.13909337
  0
LINE
  5
2D4
100
AcDbEntity
  8
RACCORDO
100
AcDbLine
 62
7
  6
CONTINUOUS
 10
22.1136566956
 20
10.8119826557
 11
22.1136566956
 21
7.0706809668
  0
LINE
  5
2D5
100
AcDbEntity
  8
DRAFT
100
AcDbLine
 62
7
  6
CONTINUOUS
 10
22.153803345
 20
7.0305343175
 11
22.153803345
 21
-2.017974105
  0
LINE
  5
2D6
100
AcDbEntity
  8
RACCORDO
100
AcDbLine
 62
7
  6
CONTINUOUS
 10
22.153803345
 20
-2.017974105
 11
22.153803345
 21
-10.5790901811
  0
ARC
  5
2D7
100
AcDbEntity
  8
RACCORDO
100
AcDbCircle
 62
253
  6
CONTINUOUS
 10
-21.0983558631
 20
9.6478969541
 40
0.2000430124
100
AcDbArc
 50
90.0209023625
 51
179.9790976307
  0
ARC
  5
2D8
100
AcDbEntity
  8
RACCORDO
100
AcDbCircle
 62
253
  6
CONTINUOUS
 10
20.7059625497
 20
9.6478969508
 40
0.2000430123
100
AcDbArc
 50
0.0209033102
 51
89.9790966898
  0
SPLINE
  5
2D9
100
AcDbEntity
  8
0
100
AcDbSpline
 62
7
  6
CONTINUOUS
 70
0
 71
3
 72
11
 73
7
 74
5
 42
0.0000001
 43
0.0000001
 44
0.0000000001
 12
0.4322500232
 22
0.0096546192
 32
0.0
 13
-0.0065848298
 23
0.4323262756
 33
0.0
 40
0.0
 40
0.0
 40
0.0
 40
0.0
 40
0.2466908156
 40
0.4757966845
 40
0.7090560749
 40
1.0
 40
1.0
 40
1.0
 40
1.0
 10
2.3644254894
 20
7.2820091353
 30
0.0
 10
2.3999695263
 20
7.2828030373
 30
0.0
 10
2.4687437275
 20
7.2908407508
 30
0.0
 10
2.5643224862
 20
7.3347974333
 30
0.0
 10
2.6316005788
 20
7.4262324643
 30
0.0
 10
2.64069584
 20
7.5041474729
 30
0.0
 10
2.6400572346
 20
7.5460750407
 30
0.0
 11
2.3644254894
 21
7.2820091353
 31
0.0
 11
2.4700387178
 21
7.2969063013
 31
0.0
 11
2.5585987295
 21
7.3412815119
 31
0.0
 11
2.6189797046
 21
7.4220600225
 31
0.0
 11
2.6400572346
 21
7.5460750407
 31
0.0
  0
SPLINE
  5
2DA
100
AcDbEntity
  8
0
100
AcDbSpline
 62
7
  6
CONTINUOUS
 70
0
 71
3
 72
10
 73
6
 74
4
 42
0.0000001
 43
0.0000001
 44
0.0000000001
 12
-0.0048163605
 22
0.3162129876
 32
0.0
 13
-0.3141485589
 23
0.0364615628
 33
0.0
 40
0.0
 40
0.0
 40
0.0
 40
0.0
 40
0.2590177802
 40
0.5033555222
 40
1.0
 40
1.0
 40
1.0
 40
1.0
 10
2.6400572443
 20
7.5460750409
 30
0.0
 10
2.6396414033
 20
7.5733766363
 30
0.0
 10
2.6291676037
 20
7.6269934471
 30
0.0
 10
2.5702642464
 20
7.7170100426
 30
0.0
 10
2.4916192792
 20
7.7526258691
 30
0.0
 10
2.4396125635
 20
7.7586620137
 30
0.0
 11
2.6400572443
 21
7.5460750409
 31
0.0
 11
2.623784561
 21
7.6263576391
 31
0.0
 11
2.581320418
 21
7.6909182656
 31
0.0
 11
2.4396125635
 21
7.7586620137
 31
0.0
  0
SPLINE
  5
2DB
100
AcDbEntity
  8
0
100
AcDbSpline
 62
7
  6
CONTINUOUS
 70
0
 71
3
 72
9
 73
5
 74
3
 42
0.0000001
 43
0.0000001
 44
0.0000000001
 12
-0.2771140238
 22
0.0321631587
 32
0.0
 13
-0.2749994517
 23
-0.0469243777
 33
0.0
 40
0.0
 40
0.0
 40
0.0
 40
0.0
 40
0.4842460787
 40
1.0
 40
1.0
 40
1.0
 40
1.0
 10
2.4396125635
 20
7.7586620136
 30
0.0
 10
2.3948821037
 20
7.7638536414
 30
0.0
 10
2.3015343414
 20
7.7685612261
 30
0.0
 10
2.2089221251
 20
7.7567217618
 30
0.0
 10
2.1616447766
 20
7.7486546178
 30
0.0
 11
2.4396125635
 21
7.7586620136
 31
0.0
 11
2.3046480093
 21
7.7645327122
 31
0.0
 11
2.1616447766
 21
7.7486546178
 31
0.0
  0
SPLINE
  5
2DC
100
AcDbEntity
  8
0
100
AcDbSpline
 62
7
  6
CONTINUOUS
 70
0
 71
3
 72
10
 73
6
 74
4
 42
0.0000001
 43
0.0000001
 44
0.0000000001
 12
0.8731819798
 22
0.1284599377
 32
0.0
 13
0.8300707046
 23
-0.2998855628
 33
0.0
 40
0.0
 40
0.0
 40
0.0
 40
0.0
 40
0.4151262789
 40
0.7045762354
 40
1.0
 40
1.0
 40
1.0
 40
1.0
 10
1.8200100089
 20
8.018383049
 30
0.0
 10
1.9408369376
 20
8.0361587477
 30
0.0
 10
2.1474583381
 20
8.0586707417
 30
0.0
 10
2.4417609232
 20
8.0587259778
 30
0.0
 10
2.6139305077
 20
8.0300172415
 30
0.0
 10
2.6956713785
 20
8.0004861342
 30
0.0
 11
1.8200100089
 21
8.018383049
 31
0.0
 11
2.1845696218
 21
8.0548849397
 31
0.0
 11
2.4400125482
 21
8.0516864159
 31
0.0
 11
2.6956713785
 21
8.0004861342
 31
0.0
  0
SPLINE
  5
2DD
100
AcDbEntity
  8
0
100
AcDbSpline
 62
7
  6
CONTINUOUS
 70
0
 71
3
 72
28
 73
24
 74
22
 42
0.0000001
 43
0.0000001
 44
0.0000000001
 12
0.9982555359
 22
-0.3601242106
 32
0.0
 13
-1.0525018316
 23
-0.1358066879
 33
0.0
 40
0.0
 40
0.0
 40
0.0
 40
0.0
 40
0.0797942832
 40
0.1315485265
 40
0.1894923392
 40
0.253049564
 40
0.3223659403
 40
0.3594887382
 40
0.3984871576
 40
0.4396141877
 40
0.4610725976
 40
0.4831786022
 40
0.5106820829
 40
0.537183969
 40
0.5874399135
 40
0.634454631
 40
0.6786281854
 40
0.7594521046
 40
0.8311338665
 40
0.8932096617
 40
0.9439322028
 40
0.9806155629
 40
1.0
 40
1.0
 40
1.0
 40
1.0
 10
2.6956713785
 20
8.0004861342
 30
0.0
 10
2.7222230735
 20
7.9909075164
 30
0.0
 10
2.763485176
 20
7.9681163443
 30
0.0
 10
2.8167193574
 20
7.927298032
 30
0.0
 10
2.8602854949
 20
7.8838788203
 30
0.0
 10
2.9010168844
 20
7.8297559092
 30
0.0
 10
2.9293078395
 20
7.7763547009
 30
0.0
 10
2.9476113666
 20
7.728219208
 30
0.0
 10
2.9589971225
 20
7.6882819197
 30
0.0
 10
2.9658415421
 20
7.6529571722
 30
0.0
 10
2.9696750613
 20
7.6232369482
 30
0.0
 10
2.9718236969
 20
7.5981819128
 30
0.0
 10
2.9729283671
 20
7.571269492
 30
0.0
 10
2.9726928743
 20
7.5343775872
 30
0.0
 10
2.9692561809
 20
7.490653035
 30
0.0
 10
2.9604297966
 20
7.4413192842
 30
0.0
 10
2.9439063431
 20
7.3826743508
 30
0.0
 10
2.9157567949
 20
7.3185969787
 30
0.0
 10
2.8734819407
 20
7.2551106755
 30
0.0
 10
2.8293540594
 20
7.2068733504
 30
0.0
 10
2.7887756113
 20
7.1723756014
 30
0.0
 10
2.7570165436
 20
7.152583427
 30
0.0
 10
2.7390562462
 20
7.1427833777
 30
0.0
 10
2.7322555277
 20
7.1419058656
 30
0.0
 11
2.6956713785
 21
8.0004861342
 31
0.0
 11
2.770695972
 21
7.9612179258
 31
0.0
 11
2.8142608461
 21
7.9277718513
 31
0.0
 11
2.8578239277
 21
7.8843728885
 31
0.0
 11
2.8983575836
 21
7.8304623563
 31
0.0
 11
2.9328341807
 21
7.7654815737
 31
0.0
 11
2.9468549468
 21
7.7286652507
 31
0.0
 11
2.9582260859
 21
7.6888718597
 31
0.0
 11
2.9665691436
 21
7.6460315655
 31
0.0
 11
2.9694868751
 21
7.6234470062
 31
0.0
 11
2.971505666
 21
7.600074533
 31
0.0
 11
2.9727079747
 21
7.5709118598
 31
0.0
 11
2.972513128
 21
7.5427880074
 31
0.0
 11
2.9682668594
 21
7.4896243315
 31
0.0
 11
2.9594366424
 21
7.4405186371
 31
0.0
 11
2.9466922596
 21
7.3954060558
 31
0.0
 11
2.912140126
 21
7.3169007598
 31
0.0
 11
2.869968718
 21
7.2535894975
 31
0.0
 11
2.8255362948
 21
7.2049533229
 31
0.0
 11
2.7842011158
 21
7.1704732901
 31
0.0
 11
2.7513214402
 21
7.1496304482
 31
0.0
 11
2.7322555277
 21
7.1419058656
 31
0.0
  0
SPLINE
  5
2DE
100
AcDbEntity
  8
0
100
AcDbSpline
 62
7
  6
CONTINUOUS
 70
0
 71
3
 72
10
 73
6
 74
4
 42
0.0000001
 43
0.0000001
 44
0.0000000001
 12
0.3759372604
 22
-0.1499049826
 32
0.0
 13
0.1063828106
 23
-0.3904866934
 33
0.0
 40
0.0
 40
0.0
 40
0.0
 40
0.0
 40
0.2520037103
 40
0.5059767722
 40
1.0
 40
1.0
 40
1.0
 40
1.0
 10
2.7322555277
 20
7.1318611584
 30
0.0
 10
2.7638347225
 20
7.1192689545
 30
0.0
 10
2.8212593951
 20
7.0774128593
 30
0.0
 10
2.8931004025
 20
6.9611783727
 30
0.0
 10
2.9192892873
 20
6.8626715967
 30
0.0
 10
2.9368078138
 20
6.7983684312
 30
0.0
 11
2.7322555277
 21
7.1318611584
 31
0.0
 11
2.8158081238
 21
7.0733697403
 31
0.0
 11
2.8726790681
 21
6.9877473354
 31
0.0
 11
2.9368078138
 21
6.7983684312
 31
0.0
  0
SPLINE
  5
2DF
100
AcDbEntity
  8
0
100
AcDbSpline
 62
7
  6
CONTINUOUS
 70
0
 71
3
 72
9
 73
5
 74
3
 42
0.0000001
 43
0.0000001
 44
0.0000000001
 12
0.1250425264
 22
-0.4589787045
 32
0.0
 13
0.1246838217
 23
-0.4590762959
 33
0.0
 40
0.0
 40
0.0
 40
0.0
 40
0.0
 40
0.8019458866
 40
1.0
 40
1.0
 40
1.0
 40
1.0
 10
2.9368078144
 20
6.7983684314
 30
0.0
 10
2.9702335943
 20
6.6756764033
 30
0.0
 10
3.0095717242
 20
6.5220569892
 30
0.0
 10
3.0498525222
 20
6.3686875964
 30
0.0
 10
3.0580839034
 20
6.3383802801
 30
0.0
 11
2.9368078144
 21
6.7983684314
 31
0.0
 11
3.0339339433
 21
6.4294482818
 31
0.0
 11
3.0580839034
 21
6.3383802801
 31
0.0
  0
SPLINE
  5
2E0
100
AcDbEntity
  8
0
100
AcDbSpline
 62
7
  6
CONTINUOUS
 70
0
 71
3
 72
11
 73
7
 74
5
 42
0.0000001
 43
0.0000001
 44
0.0000000001
 12
-0.1488018179
 22
0.517564312
 32
0.0
 13
-0.1895141915
 23
0.5040852743
 33
0.0
 40
0.0
 40
0.0
 40
0.0
 40
0.0
 40
0.1342162665
 40
0.4412040772
 40
0.7774824254
 40
1.0
 40
1.0
 40
1.0
 40
1.0
 10
2.7167805601
 20
6.3383802801
 30
0.0
 10
2.7101233519
 20
6.3615354633
 30
0.0
 10
2.6880822217
 20
6.4376055248
 30
0.0
 10
2.6491492412
 20
6.5716490895
 30
0.0
 10
2.6040760738
 20
6.7203244806
 30
0.0
 10
2.5756105077
 20
6.816629264
 30
0.0
 10
2.5615537616
 20
6.8540185416
 30
0.0
 11
2.7167805601
 21
6.3383802801
 31
0.0
 11
2.6967084738
 21
6.4078168679
 31
0.0
 11
2.6503251981
 21
6.5664990217
 31
0.0
 11
2.5983802075
 21
6.7399853276
 31
0.0
 11
2.5615537616
 21
6.8540185416
 31
0.0
  0
SPLINE
  5
2E1
100
AcDbEntity
  8
0
100
AcDbSpline
 62
7
  6
CONTINUOUS
 70
0
 71
3
 72
10
 73
6
 74
4
 42
0.0000001
 43
0.0000001
 44
0.0000000001
 12
-0.0927466177
 22
0.246694254
 32
0.0
 13
-0.2635312833
 23
-0.0
 33
0.0
 40
0.0
 40
0.0
 40
0.0
 40
0.0
 40
0.3693225484
 40
0.6480034082
 40
1.0
 40
1.0
 40
1.0
 40
1.0
 10
2.5615537937
 20
6.8540185536
 30
0.0
 10
2.5501359879
 20
6.8843884705
 30
0.0
 10
2.521961269
 20
6.9358287135
 30
0.0
 10
2.4511772275
 20
6.9911112687
 30
0.0
 10
2.3945813685
 20
7.0036126827
 30
0.0
 10
2.363660664
 20
7.0036126827
 30
0.0
 11
2.5615537937
 21
6.8540185536
 31
0.0
 11
2.5122728157
 21
6.9379512254
 31
0.0
 11
2.4540327542
 21
6.9826915207
 31
0.0
 11
2.363660664
 21
7.0036126827
 31
0.0
  0
SPLINE
  5
2E2
100
AcDbEntity
  8
RACCORDO
100
AcDbSpline
 62
7
  6
CONTINUOUS
 70
0
 71
3
 72
21
 73
17
 74
15
 42
0.0000001
 43
0.0000001
 44
0.0000000001
 12
-0.1788844533
 22
0.0894353823
 32
0.0
 13
-0.1999958381
 23
0.0
 33
0.0
 40
0.0
 40
0.0
 40
0.0
 40
0.0
 40
0.0080948662
 40
0.0284124748
 40
0.0606486724
 40
0.1042665215
 40
0.1591714056
 40
0.2245470256
 40
0.2991197067
 40
0.382288435
 40
0.4735097
 40
0.5711122984
 40
0.6734015867
 40
0.780081717
 40
0.8896561946
 40
1.0
 40
1.0
 40
1.0
 40
1.0
 10
20.9073708363
 20
2.207548621
 30
0.0
 10
20.9068881544
 20
2.2077899435
 30
0.0
 10
20.904893671
 20
2.2076589925
 30
0.0
 10
20.900944145
 20
2.2080580353
 30
0.0
 10
20.8944869561
 20
2.2081063984
 30
0.0
 10
20.8857918492
 20
2.208329849
 30
0.0
 10
20.874859053
 20
2.2084739226
 30
0.0
 10
20.8618726743
 20
2.2086343872
 30
0.0
 10
20.8469982937
 20
2.2087727831
 30
0.0
 10
20.8304018749
 20
2.20889952
 30
0.0
 10
20.8122696531
 20
2.2090089536
 30
0.0
 10
20.7928627498
 20
2.2091005877
 30
0.0
 10
20.7724251574
 20
2.209172969
 30
0.0
 10
20.7511894024
 20
2.2092253738
 30
0.0
 10
20.729416647
 20
2.2092570446
 30
0.0
 10
20.7147557324
 20
2.2092640846
 30
0.0
 10
20.7073996317
 20
2.2092640846
 30
0.0
 11
20.9073708363
 21
2.207548621
 31
0.0
 11
20.9057633832
 21
2.2077411299
 31
0.0
 11
20.9017044258
 21
2.2079318841
 31
0.0
 11
20.8952599843
 21
2.2081171964
 31
0.0
 11
20.8865383988
 21
2.2082945364
 31
0.0
 11
20.8755589479
 21
2.2084633267
 31
0.0
 11
20.862485042
 21
2.2086206066
 31
0.0
 11
20.8475715009
 21
2.20876353
 31
0.0
 11
20.8309385913
 21
2.2088911879
 31
0.0
 11
20.8126950577
 21
2.2090025271
 31
0.0
 11
20.793175165
 21
2.2090953631
 31
0.0
 11
20.7727178632
 21
2.209168348
 31
0.0
 11
20.751382347
 21
2.2092213432
 31
0.0
 11
20.729467931
 21
2.2092534235
 31
0.0
 11
20.7073996317
 21
2.2092640846
 31
0.0
  0
SPLINE
  5
2E3
100
AcDbEntity
  8
RACCORDO
100
AcDbSpline
 62
7
  6
CONTINUOUS
 70
0
 71
3
 72
21
 73
17
 74
15
 42
0.0000001
 43
0.0000001
 44
0.0000000001
 12
-0.1999958381
 22
0.0
 32
0.0
 13
-0.1788844533
 23
-0.0894353823
 33
0.0
 40
0.0
 40
0.0
 40
0.0
 40
0.0
 40
0.1103438054
 40
0.219918283
 40
0.3265984133
 40
0.4288877016
 40
0.5264903
 40
0.617711565
 40
0.7008802933
 40
0.7754529744
 40
0.8408285944
 40
0.8957334785
 40
0.9393513276
 40
0.9715875252
 40
0.9919051338
 40
1.0
 40
1.0
 40
1.0
 40
1.0
 10
-21.0997929418
 20
2.2092640846
 30
0.0
 10
-21.1071490424
 20
2.2092640846
 30
0.0
 10
-21.1218099571
 20
2.2092570446
 30
0.0
 10
-21.1435827125
 20
2.2092253738
 30
0.0
 10
-21.1648184675
 20
2.209172969
 30
0.0
 10
-21.1852560599
 20
2.2091005877
 30
0.0
 10
-21.2046629632
 20
2.2090089536
 30
0.0
 10
-21.222795185
 20
2.20889952
 30
0.0
 10
-21.2393916037
 20
2.2087727831
 30
0.0
 10
-21.2542659844
 20
2.2086343872
 30
0.0
 10
-21.2672523631
 20
2.2084739226
 30
0.0
 10
-21.2781851593
 20
2.208329849
 30
0.0
 10
-21.2868802662
 20
2.2081063984
 30
0.0
 10
-21.2933374551
 20
2.2080580353
 30
0.0
 10
-21.2972869811
 20
2.2076589925
 30
0.0
 10
-21.2992814645
 20
2.2077899435
 30
0.0
 10
-21.2997641464
 20
2.207548621
 30
0.0
 11
-21.0997929418
 21
2.2092640846
 31
0.0
 11
-21.1218612411
 21
2.2092534235
 31
0.0
 11
-21.1437756571
 21
2.2092213432
 31
0.0
 11
-21.1651111733
 21
2.209168348
 31
0.0
 11
-21.1855684751
 21
2.2090953631
 31
0.0
 11
-21.2050883678
 21
2.2090025271
 31
0.0
 11
-21.2233319014
 21
2.2088911879
 31
0.0
 11
-21.239964811
 21
2.20876353
 31
0.0
 11
-21.254878352
 21
2.2086206066
 31
0.0
 11
-21.2679522579
 21
2.2084633267
 31
0.0
 11
-21.2789317089
 21
2.2082945364
 31
0.0
 11
-21.2876532944
 21
2.2081171964
 31
0.0
 11
-21.2940977359
 21
2.2079318841
 31
0.0
 11
-21.2981566932
 21
2.2077411299
 31
0.0
 11
-21.2997641464
 21
2.207548621
 31
0.0
  0
SPLINE
  5
2E4
100
AcDbEntity
  8
RACCORDO
100
AcDbSpline
 62
7
  6
CONTINUOUS
 70
0
 71
3
 72
21
 73
17
 74
15
 42
0.0000001
 43
0.0000001
 44
0.0000000001
 12
0.2000056115
 22
0.0
 32
0.0
 13
0.1788934063
 23
0.0894393305
 33
0.0
 40
0.0
 40
0.0
 40
0.0
 40
0.0
 40
0.1102731237
 40
0.2197867998
 40
0.3264192079
 40
0.4286752635
 40
0.5262603498
 40
0.617482217
 40
0.7006684637
 40
0.7752682643
 40
0.8406811748
 40
0.895627569
 40
0.9392846465
 40
0.971553742
 40
0.991894625
 40
1.0
 40
1.0
 40
1.0
 40
1.0
 10
20.710208779
 20
-2.0664946622
 30
0.0
 10
20.7175605268
 20
-2.0664946622
 30
0.0
 10
20.7322133921
 20
-2.0664876226
 30
0.0
 10
20.7539752642
 20
-2.0664559534
 30
0.0
 10
20.7752026062
 20
-2.0664035452
 30
0.0
 10
20.7956346326
 20
-2.0663311499
 30
0.0
 10
20.8150391412
 20
-2.0662394846
 30
0.0
 10
20.8331722893
 20
-2.0661299943
 30
0.0
 10
20.8497725348
 20
-2.0660031701
 30
0.0
 10
20.8646531034
 20
-2.0658646501
 30
0.0
 10
20.8776471765
 20
-2.0657040239
 30
0.0
 10
20.8885883771
 20
-2.0655597565
 30
0.0
 10
20.8972914692
 20
-2.0653360447
 30
0.0
 10
20.9037553682
 20
-2.0652875137
 30
0.0
 10
20.9077094403
 20
-2.0648880123
 30
0.0
 10
20.9097063784
 20
-2.0650190037
 30
0.0
 10
20.9101897111
 20
-2.0647773572
 30
0.0
 11
20.710208779
 21
-2.0664946622
 31
0.0
 11
20.7322640199
 21
-2.0664840025
 31
0.0
 11
20.7541673462
 21
-2.0664519242
 31
0.0
 11
20.7754943603
 21
-2.0663989262
 31
0.0
 11
20.795946015
 21
-2.066325928
 31
0.0
 11
20.8154633589
 21
-2.0662330616
 31
0.0
 11
20.8337079042
 21
-2.0661216653
 31
0.0
 11
20.8503451299
 21
-2.0659939159
 31
0.0
 11
20.8652648229
 21
-2.0658508686
 31
0.0
 11
20.8783468246
 21
-2.0656934206
 31
0.0
 11
20.8893351122
 21
-2.0655244193
 31
0.0
 11
20.8980649666
 21
-2.0653468333
 31
0.0
 11
20.9045162979
 21
-2.0651612442
 31
0.0
 11
20.9085800999
 21
-2.0649701867
 31
0.0
 11
20.9101897111
 21
-2.0647773572
 31
0.0
  0
SPLINE
  5
2E5
100
AcDbEntity
  8
RACCORDO
100
AcDbSpline
 62
7
  6
CONTINUOUS
 70
0
 71
3
 72
21
 73
17
 74
15
 42
0.0000001
 43
0.0000001
 44
0.0000000001
 12
0.1788934063
 22
-0.0894393305
 32
0.0
 13
0.2000056115
 23
-0.0
 33
0.0
 40
0.0
 40
0.0
 40
0.0
 40
0.0
 40
0.008105375
 40
0.028446258
 40
0.0607153535
 40
0.104372431
 40
0.1593188252
 40
0.2247317357
 40
0.2993315363
 40
0.382517783
 40
0.4737396502
 40
0.5713247365
 40
0.6735807921
 40
0.7802132002
 40
0.8897268763
 40
1.0
 40
1.0
 40
1.0
 40
1.0
 10
-21.3025830212
 20
-2.0647773572
 30
0.0
 10
-21.3020996885
 20
-2.0650190037
 30
0.0
 10
-21.3001027504
 20
-2.0648880123
 30
0.0
 10
-21.2961486783
 20
-2.0652875137
 30
0.0
 10
-21.2896847793
 20
-2.0653360447
 30
0.0
 10
-21.2809816872
 20
-2.0655597565
 30
0.0
 10
-21.2700404866
 20
-2.0657040239
 30
0.0
 10
-21.2570464135
 20
-2.0658646501
 30
0.0
 10
-21.2421658449
 20
-2.0660031701
 30
0.0
 10
-21.2255655994
 20
-2.0661299943
 30
0.0
 10
-21.2074324513
 20
-2.0662394846
 30
0.0
 10
-21.1880279427
 20
-2.0663311499
 30
0.0
 10
-21.1675959163
 20
-2.0664035452
 30
0.0
 10
-21.1463685743
 20
-2.0664559534
 30
0.0
 10
-21.1246067022
 20
-2.0664876226
 30
0.0
 10
-21.1099538369
 20
-2.0664946622
 30
0.0
 10
-21.1026020891
 20
-2.0664946622
 30
0.0
 11
-21.3025830212
 21
-2.0647773572
 31
0.0
 11
-21.30097341
 21
-2.0649701867
 31
0.0
 11
-21.296909608
 21
-2.0651612442
 31
0.0
 11
-21.2904582767
 21
-2.0653468333
 31
0.0
 11
-21.2817284223
 21
-2.0655244193
 31
0.0
 11
-21.2707401347
 21
-2.0656934206
 31
0.0
 11
-21.2576581329
 21
-2.0658508686
 31
0.0
 11
-21.24273844
 21
-2.0659939159
 31
0.0
 11
-21.2261012143
 21
-2.0661216653
 31
0.0
 11
-21.207856669
 21
-2.0662330616
 31
0.0
 11
-21.1883393251
 21
-2.066325928
 31
0.0
 11
-21.1678876704
 21
-2.0663989262
 31
0.0
 11
-21.1465606563
 21
-2.0664519242
 31
0.0
 11
-21.12465733
 21
-2.0664840025
 31
0.0
 11
-21.1026020891
 21
-2.0664946622
 31
0.0
  0
SPLINE
  5
2E6
100
AcDbEntity
  8
RACCORDO
100
AcDbSpline
 62
253
  6
CONTINUOUS
 70
0
 71
3
 72
12
 73
8
 74
6
 42
0.0000001
 43
0.0000001
 44
0.0000000001
 12
-0.0074329445
 22
-6.9264707984
 32
0.0
 13
-0.0169941987
 23
-6.9264539389
 33
0.0
 40
0.0
 40
0.0
 40
0.0
 40
0.0
 40
0.2005837684
 40
0.4009253421
 40
0.6009751995
 40
0.8006833638
 40
1.0
 40
1.0
 40
1.0
 40
1.0
 10
-21.1026020891
 20
-2.0664946622
 30
0.0
 10
-21.1030990651
 20
-2.5296072002
 30
0.0
 10
-21.104219239
 20
-3.4552729606
 30
0.0
 10
-21.1062795781
 20
-4.8428179698
 30
0.0
 10
-21.1087185903
 20
-6.2283407469
 30
0.0
 10
-21.1115357449
 20
-7.6114963992
 30
0.0
 10
-21.1136675528
 20
-8.5327723533
 30
0.0
 10
-21.1147966283
 20
-8.9929581866
 30
0.0
 11
-21.1026020891
 21
-2.0664946622
 31
0.0
 11
-21.1042835748
 21
-3.4558320588
 31
0.0
 11
-21.1063443352
 21
-4.8434913875
 31
0.0
 11
-21.108783866
 21
-6.2291295339
 31
0.0
 11
-21.1116015589
 21
-7.6124002287
 31
0.0
 11
-21.1147966283
 21
-8.9929581866
 31
0.0
  0
SPLINE
  5
2E7
100
AcDbEntity
  8
RACCORDO
100
AcDbSpline
 62
253
  6
CONTINUOUS
 70
0
 71
3
 72
12
 73
8
 74
6
 42
0.0000001
 43
0.0000001
 44
0.0000000001
 12
-0.0169941987
 22
6.9264539389
 32
0.0
 13
-0.0074329445
 23
6.9264707984
 33
0.0
 40
0.0
 40
0.0
 40
0.0
 40
0.0
 40
0.1993166362
 40
0.3990248005
 40
0.5990746579
 40
0.7994162316
 40
1.0
 40
1.0
 40
1.0
 40
1.0
 10
20.7224033183
 20
-8.9929581866
 30
0.0
 10
20.7212742428
 20
-8.5327723533
 30
0.0
 10
20.7191424348
 20
-7.6114963992
 30
0.0
 10
20.7163252803
 20
-6.2283407469
 30
0.0
 10
20.713886268
 20
-4.8428179698
 30
0.0
 10
20.7118259289
 20
-3.4552729606
 30
0.0
 10
20.710705755
 20
-2.5296072002
 30
0.0
 10
20.710208779
 20
-2.0664946622
 30
0.0
 11
20.7224033183
 21
-8.9929581866
 31
0.0
 11
20.7192082488
 21
-7.6124002287
 31
0.0
 11
20.7163905559
 21
-6.2291295339
 31
0.0
 11
20.7139510251
 21
-4.8434913875
 31
0.0
 11
20.7118902647
 21
-3.4558320588
 31
0.0
 11
20.710208779
 21
-2.0664946622
 31
0.0
  0
SPLINE
  5
2E8
100
AcDbEntity
  8
RACCORDO
100
AcDbSpline
 62
253
  6
CONTINUOUS
 70
0
 71
3
 72
10
 73
6
 74
4
 42
0.0000001
 43
0.0000001
 44
0.0000000001
 12
-0.0003963479
 22
-7.4380951866
 32
0.0
 13
-0.0023320039
 23
-7.4380948316
 33
0.0
 40
0.0
 40
0.0
 40
0.0
 40
0.0
 40
0.3333506822
 40
0.666684726
 40
1.0
 40
1.0
 40
1.0
 40
1.0
 10
-21.0984288421
 20
9.647359138
 30
0.0
 10
-21.098472883
 20
8.8208611031
 30
0.0
 10
-21.0986326454
 20
7.167906289
 30
0.0
 10
-21.0990873402
 20
4.6885412621
 30
0.0
 10
-21.0995338443
 20
3.0356742903
 30
0.0
 10
-21.0997929418
 20
2.2092640846
 30
0.0
 11
-21.0984288421
 21
9.647359138
 31
0.0
 11
-21.0986684951
 21
7.1678650414
 31
0.0
 11
-21.0991231963
 21
4.6884947331
 31
0.0
 11
-21.0997929418
 21
2.2092640846
 31
0.0
  0
SPLINE
  5
2E9
100
AcDbEntity
  8
RACCORDO
100
AcDbSpline
 62
253
  6
CONTINUOUS
 70
0
 71
3
 72
10
 73
6
 74
4
 42
0.0000001
 43
0.0000001
 44
0.0000000001
 12
-0.0023320039
 22
7.4380948316
 32
0.0
 13
-0.0003963479
 23
7.4380951866
 33
0.0
 40
0.0
 40
0.0
 40
0.0
 40
0.0
 40
0.333315274
 40
0.6666493178
 40
1.0
 40
1.0
 40
1.0
 40
1.0
 10
20.7073996317
 20
2.2092640846
 30
0.0
 10
20.7071405342
 20
3.0356742903
 30
0.0
 10
20.7066940301
 20
4.6885412621
 30
0.0
 10
20.7062393353
 20
7.167906289
 30
0.0
 10
20.7060795729
 20
8.8208611031
 30
0.0
 10
20.706035532
 20
9.647359138
 30
0.0
 11
20.7073996317
 21
2.2092640846
 31
0.0
 11
20.7067298862
 21
4.6884947331
 31
0.0
 11
20.706275185
 21
7.1678650414
 31
0.0
 11
20.706035532
 21
9.647359138
 31
0.0
  0
SPLINE
  5
2EA
100
AcDbEntity
  8
RACCORDO
100
AcDbSpline
 62
253
  6
CONTINUOUS
 70
0
 71
3
 72
12
 73
8
 74
6
 42
0.0000001
 43
0.0000001
 44
0.0000000001
 12
-0.0169681745
 22
6.9002708616
 32
0.0
 13
-0.0074360309
 23
6.9002877178
 33
0.0
 40
0.0
 40
0.0
 40
0.0
 40
0.0
 40
0.1993150844
 40
0.3990234975
 40
0.5990742742
 40
0.7994160735
 40
1.0
 40
1.0
 40
1.0
 40
1.0
 10
20.9223729369
 20
-8.9650577999
 30
0.0
 10
20.9212455992
 20
-8.5066151102
 30
0.0
 10
20.9191167489
 20
-7.5888247192
 30
0.0
 10
20.9163030765
 20
-6.2108984897
 30
0.0
 10
20.9138663205
 20
-4.8306099929
 30
0.0
 10
20.9118070975
 20
-3.4483071146
 30
0.0
 10
20.9106868939
 20
-2.5261396253
 30
0.0
 10
20.9101897111
 20
-2.0647773572
 30
0.0
 11
20.9223729369
 21
-8.9650577999
 31
0.0
 11
20.919182411
 21
-7.5897292731
 31
0.0
 11
20.9163681497
 21
-6.2116858366
 31
0.0
 11
20.9139308837
 21
-4.8312792693
 31
0.0
 11
20.9118712389
 21
-3.4488639437
 31
0.0
 11
20.9101897111
 21
-2.0647773572
 31
0.0
  0
SPLINE
  5
2EB
100
AcDbEntity
  8
RACCORDO
100
AcDbSpline
 62
253
  6
CONTINUOUS
 70
0
 71
3
 72
20
 73
16
 74
14
 42
0.0000001
 43
0.0000001
 44
0.0000000001
 12
-0.1999725599
 22
0.0000097714
 32
0.0
 13
-0.1969700028
 23
0.0345230762
 33
0.0
 40
0.0
 40
0.0
 40
0.0
 40
0.0
 40
0.1192201661
 40
0.2367402247
 40
0.350884311
 40
0.4600247046
 40
0.5626050422
 40
0.6571625138
 40
0.7423487258
 40
0.8169489347
 40
0.8798993795
 40
0.9303024761
 40
0.9674396848
 40
0.9907820292
 40
1.0
 40
1.0
 40
1.0
 40
1.0
 10
-21.0984288417
 20
9.647359138
 30
0.0
 10
-21.1063757623
 20
9.6473595263
 30
0.0
 10
-21.1221562786
 20
9.6473631592
 30
0.0
 10
-21.1455453526
 20
9.6473771683
 30
0.0
 10
-21.1682625288
 20
9.6473994966
 30
0.0
 10
-21.1899838447
 20
9.6474298637
 30
0.0
 10
-21.2103995699
 20
9.6474676324
 30
0.0
 10
-21.2292184902
 20
9.6475128193
 30
0.0
 10
-21.2461724957
 20
9.6475627856
 30
0.0
 10
-21.2610190253
 20
9.6476227096
 30
0.0
 10
-21.2735487174
 20
9.6476737049
 30
0.0
 10
-21.2835763693
 20
9.6477641283
 30
0.0
 10
-21.2909755023
 20
9.6477667494
 30
0.0
 10
-21.2956055382
 20
9.6479458632
 30
0.0
 10
-21.2977931595
 20
9.6478638551
 30
0.0
 10
-21.2983983807
 20
9.6479699326
 30
0.0
 11
-21.0984288417
 21
9.647359138
 31
0.0
 11
-21.1222696029
 21
9.647364661
 31
0.0
 11
-21.1457703856
 21
9.6473788287
 31
0.0
 11
-21.1685960595
 21
9.6474014392
 31
0.0
 11
-21.1904211218
 21
9.6474321699
 31
0.0
 11
-21.2109343386
 21
9.6474705827
 31
0.0
 11
-21.2298431834
 21
9.6475161298
 31
0.0
 11
-21.2468780089
 21
9.6475681616
 31
0.0
 11
-21.2617958917
 21
9.6476259362
 31
0.0
 11
-21.2743840972
 21
9.6476886297
 31
0.0
 11
-21.2844631127
 21
9.647755348
 31
0.0
 11
-21.2918892074
 21
9.6478251397
 31
0.0
 11
-21.2965564825
 21
9.6478970095
 31
0.0
 11
-21.2983983807
 21
9.6479699326
 31
0.0
  0
SPLINE
  5
2EC
100
AcDbEntity
  8
RACCORDO
100
AcDbSpline
 62
253
  6
CONTINUOUS
 70
0
 71
3
 72
20
 73
16
 74
14
 42
0.0000001
 43
0.0000001
 44
0.0000000001
 12
-0.1994033216
 22
-0.0150778031
 32
0.0
 13
-0.1999712846
 23
0.0007142419
 33
0.0
 40
0.0
 40
0.0
 40
0.0
 40
0.0
 40
0.0092179708
 40
0.0325603152
 40
0.0696975239
 40
0.1201006205
 40
0.1830510653
 40
0.2576512742
 40
0.3428374862
 40
0.4373949578
 40
0.5399752954
 40
0.649115689
 40
0.7632597753
 40
0.8807798339
 40
1.0
 40
1.0
 40
1.0
 40
1.0
 10
20.9060050706
 20
9.6479699326
 30
0.0
 10
20.9053923726
 20
9.6479236037
 30
0.0
 10
20.9032212362
 20
9.6478738776
 30
0.0
 10
20.8985768888
 20
9.6478091301
 30
0.0
 10
20.8911853979
 20
9.6477454388
 30
0.0
 10
20.8811545116
 20
9.6476808628
 30
0.0
 10
20.8686260299
 20
9.6476201938
 30
0.0
 10
20.8537790814
 20
9.647563621
 30
0.0
 10
20.8368252131
 20
9.6475125439
 30
0.0
 10
20.8180062498
 20
9.6474677634
 30
0.0
 10
20.7975905372
 20
9.6474296286
 30
0.0
 10
20.7758692193
 20
9.6474003619
 30
0.0
 10
20.7531520368
 20
9.6473737647
 30
0.0
 10
20.7297629916
 20
9.6473763315
 30
0.0
 10
20.7139824015
 20
9.647330754
 30
0.0
 10
20.7060355316
 20
9.647359138
 30
0.0
 11
20.9060050706
 21
9.6479699326
 31
0.0
 11
20.9041631724
 21
9.6478970095
 31
0.0
 11
20.8994958973
 21
9.6478251397
 31
0.0
 11
20.8920698026
 21
9.647755348
 31
0.0
 11
20.8819907871
 21
9.6476886297
 31
0.0
 11
20.8694025816
 21
9.6476259362
 31
0.0
 11
20.8544846988
 21
9.6475681616
 31
0.0
 11
20.8374498733
 21
9.6475161298
 31
0.0
 11
20.8185410285
 21
9.6474705827
 31
0.0
 11
20.7980278117
 21
9.6474321699
 31
0.0
 11
20.7762027494
 21
9.6474014392
 31
0.0
 11
20.7533770755
 21
9.6473788287
 31
0.0
 11
20.7298762928
 21
9.647364661
 31
0.0
 11
20.7060355316
 21
9.647359138
 31
0.0
  0
SPLINE
  5
2ED
100
AcDbEntity
  8
RACCORDO
100
AcDbSpline
 62
253
  6
CONTINUOUS
 70
0
 71
3
 72
20
 73
16
 74
14
 42
0.0000001
 43
0.0000001
 44
0.0000000001
 12
0.0244885415
 22
-0.2035912216
 32
0.0
 13
0.2050548652
 23
-0.001255569
 33
0.0
 40
0.0
 40
0.0
 40
0.0
 40
0.0
 40
0.0185313924
 40
0.0463342055
 40
0.0857273999
 40
0.1370656688
 40
0.2000161607
 40
0.273893183
 40
0.3577726999
 40
0.450546259
 40
0.5509552863
 40
0.6576184703
 40
0.7690567688
 40
0.8837177633
 40
1.0
 40
1.0
 40
1.0
 40
1.0
 10
-21.314766248
 20
-8.9650578071
 30
0.0
 10
-21.3146149791
 20
-8.9663154167
 30
0.0
 10
-21.3126560863
 20
-8.9691357436
 30
0.0
 10
-21.3076437554
 20
-8.9721822912
 30
0.0
 10
-21.3001196971
 20
-8.9752794994
 30
0.0
 10
-21.2900244286
 20
-8.9782097067
 30
0.0
 10
-21.2774635602
 20
-8.9810075851
 30
0.0
 10
-21.2625965571
 20
-8.9835909223
 30
0.0
 10
-21.2456295124
 20
-8.9859282802
 30
0.0
 10
-21.2268007338
 20
-8.9879787612
 30
0.0
 10
-21.2063771263
 20
-8.9897115246
 30
0.0
 10
-21.1846489616
 20
-8.99110161
 30
0.0
 10
-21.1619254826
 20
-8.9921215463
 30
0.0
 10
-21.1385305666
 20
-8.9927826469
 30
0.0
 10
-21.1227447884
 20
-8.9929095198
 30
0.0
 10
-21.114796709
 20
-8.9929581866
 30
0.0
 11
-21.314766248
 21
-8.9650578071
 31
0.0
 11
-21.3129280582
 21
-8.9683836507
 31
0.0
 11
-21.3082638198
 21
-8.9716621662
 31
0.0
 11
-21.3008400609
 21
-8.9748465902
 31
0.0
 11
-21.2907626701
 21
-8.9778915018
 31
0.0
 11
-21.2781753862
 21
-8.9807534697
 31
0.0
 11
-21.263257748
 21
-8.9833916722
 31
0.0
 11
-21.2462225332
 21
-8.9857684793
 31
0.0
 11
-21.2273127238
 21
-8.9878499893
 31
0.0
 11
-21.2067980401
 21
-8.9896065124
 31
0.0
 11
-21.1849710937
 21
-8.9910129946
 31
0.0
 11
-21.1621432136
 21
-8.9920493743
 31
0.0
 11
-21.1386400059
 21
-8.9927008692
 31
0.0
 11
-21.114796709
 21
-8.9929581866
 31
0.0
  0
SPLINE
  5
2EE
100
AcDbEntity
  8
RACCORDO
100
AcDbSpline
 62
253
  6
CONTINUOUS
 70
0
 71
3
 72
20
 73
16
 74
14
 42
0.0000001
 43
0.0000001
 44
0.0000000001
 12
-0.3125643916
 22
0.0006599426
 32
0.0
 13
-0.0006696878
 23
0.3125643708
 33
0.0
 40
0.0
 40
0.0
 40
0.0
 40
0.0
 40
0.0771601701
 40
0.1543230816
 40
0.2314718525
 40
0.3085904118
 40
0.3856644219
 40
0.4626821051
 40
0.5396349266
 40
0.6165180944
 40
0.6933308462
 40
0.7700765045
 40
0.846762294
 40
0.9233989301
 40
1.0
 40
1.0
 40
1.0
 40
1.0
 10
-21.114796709
 20
-9.1635670374
 30
0.0
 10
-21.1228358829
 20
-9.1635500636
 30
0.0
 10
-21.1389290823
 20
-9.1625513291
 30
0.0
 10
-21.1627024737
 20
-9.1581819064
 30
0.0
 10
-21.1857830248
 20
-9.151004479
 30
0.0
 10
-21.2078307338
 20
-9.1411233041
 30
0.0
 10
-21.2285263052
 20
-9.1286818903
 30
0.0
 10
-21.2475684951
 20
-9.1138609511
 30
0.0
 10
-21.2646804345
 20
-9.0968757907
 30
0.0
 10
-21.2796131365
 20
-9.077973242
 30
0.0
 10
-21.2921492706
 20
-9.0574279587
 30
0.0
 10
-21.302106306
 20
-9.0355389784
 30
0.0
 10
-21.3093392088
 20
-9.0126233867
 30
0.0
 10
-21.3137425637
 20
-8.989019158
 30
0.0
 10
-21.3147491484
 20
-8.9730387288
 30
0.0
 10
-21.314766248
 20
-8.9650578071
 30
0.0
 11
-21.114796709
 21
-9.1635670374
 31
0.0
 11
-21.1388679493
 21
-9.1620727702
 31
0.0
 11
-21.1625891254
 21
-9.1577133465
 31
0.0
 11
-21.1856152643
 21
-9.1505521649
 31
0.0
 11
-21.2076115004
 21
-9.140693369
 31
0.0
 11
-21.2282579462
 21
-9.1282803339
 31
0.0
 11
-21.2472543438
 21
-9.1134935803
 31
0.0
 11
-21.2643244317
 21
-9.0965481494
 31
0.0
 11
-21.2792199622
 21
-9.077690476
 31
0.0
 11
-21.2917243123
 21
-9.057194804
 31
0.0
 11
-21.3016556332
 21
-9.0353591988
 31
0.0
 11
-21.3088694952
 21
-9.0125012119
 31
0.0
 11
-21.3132609884
 21
-8.9889532634
 31
0.0
 11
-21.314766248
 21
-8.9650578071
 31
0.0
  0
SPLINE
  5
2EF
100
AcDbEntity
  8
RACCORDO
100
AcDbSpline
 62
253
  6
CONTINUOUS
 70
0
 71
3
 72
20
 73
16
 74
14
 42
0.0000001
 43
0.0000001
 44
0.0000000001
 12
0.2050580948
 22
0.0005019347
 32
0.0
 13
0.0252131962
 23
0.2035027492
 33
0.0
 40
0.0
 40
0.0
 40
0.0
 40
0.0
 40
0.1162822367
 40
0.2309432312
 40
0.3423815297
 40
0.4490447137
 40
0.549453741
 40
0.6422273001
 40
0.726106817
 40
0.7999838393
 40
0.8629343312
 40
0.9142726001
 40
0.9536657945
 40
0.9814686076
 40
1.0
 40
1.0
 40
1.0
 40
1.0
 10
20.7224033989
 20
-8.9929581866
 30
0.0
 10
20.7303516035
 20
-8.9929387312
 30
0.0
 10
20.7461371992
 20
-8.99276927
 30
0.0
 10
20.7695321874
 20
-8.9921250037
 30
0.0
 10
20.7922556476
 20
-8.9911007364
 30
0.0
 10
20.8139838178
 20
-8.9897117401
 30
0.0
 10
20.8344074211
 20
-8.9879787092
 30
0.0
 10
20.85323621
 20
-8.9859282932
 30
0.0
 10
20.8702032228
 20
-8.9835909167
 30
0.0
 10
20.885070324
 20
-8.9810075947
 30
0.0
 10
20.8976309045
 20
-8.9782096805
 30
0.0
 10
20.9077269651
 20
-8.97527957
 30
0.0
 10
20.9152490242
 20
-8.9721821177
 30
0.0
 10
20.9202659101
 20
-8.9691361262
 30
0.0
 10
20.9222171927
 20
-8.9663148702
 30
0.0
 10
20.9223729379
 20
-8.9650578071
 30
0.0
 11
20.7224033989
 21
-8.9929581866
 31
0.0
 11
20.7462466958
 21
-8.9927008692
 31
0.0
 11
20.7697499035
 21
-8.9920493743
 31
0.0
 11
20.7925777836
 21
-8.9910129946
 31
0.0
 11
20.81440473
 21
-8.9896065124
 31
0.0
 11
20.8349194137
 21
-8.9878499893
 31
0.0
 11
20.8538292231
 21
-8.9857684793
 31
0.0
 11
20.8708644379
 21
-8.9833916722
 31
0.0
 11
20.8857820762
 21
-8.9807534697
 31
0.0
 11
20.89836936
 21
-8.9778915018
 31
0.0
 11
20.9084467508
 21
-8.9748465902
 31
0.0
 11
20.9158705097
 21
-8.9716621662
 31
0.0
 11
20.9205347481
 21
-8.9683836507
 31
0.0
 11
20.9223729379
 21
-8.9650578071
 31
0.0
  0
SPLINE
  5
2F0
100
AcDbEntity
  8
RACCORDO
100
AcDbSpline
 62
253
  6
CONTINUOUS
 70
0
 71
3
 72
20
 73
16
 74
14
 42
0.0000001
 43
0.0000001
 44
0.0000000001
 12
-0.0006696878
 22
-0.3125643712
 32
0.0
 13
-0.3125643919
 23
-0.0006599426
 33
0.0
 40
0.0
 40
0.0
 40
0.0
 40
0.0
 40
0.0765364734
 40
0.1531740651
 40
0.2298608472
 40
0.3066122546
 40
0.3834306183
 40
0.4603199493
 40
0.5372790324
 40
0.6143031195
 40
0.6913836094
 40
0.7685086922
 40
0.8456639981
 40
0.9228333692
 40
1.0
 40
1.0
 40
1.0
 40
1.0
 10
20.9223729379
 20
-8.9650578071
 30
0.0
 10
20.9223558527
 20
-8.9730319986
 30
0.0
 10
20.9213505119
 20
-8.9890057556
 30
0.0
 10
20.9169507568
 20
-9.0126040158
 30
0.0
 10
20.9097199026
 20
-9.0355210946
 30
0.0
 10
20.8997643955
 20
-9.0574121991
 30
0.0
 10
20.8872290543
 20
-9.07796012
 30
0.0
 10
20.8722966099
 20
-9.0968652853
 30
0.0
 10
20.8551843854
 20
-9.1138529634
 30
0.0
 10
20.8361414357
 20
-9.1286761978
 30
0.0
 10
20.8154446854
 20
-9.1411196038
 30
0.0
 10
20.7933954547
 20
-9.1510023967
 30
0.0
 10
20.7703131282
 20
-9.1581810132
 30
0.0
 10
20.7465377954
 20
-9.1625511629
 30
0.0
 10
20.7304432459
 20
-9.1635500622
 30
0.0
 10
20.7224033989
 20
-9.1635670374
 30
0.0
 11
20.9223729379
 21
-8.9650578071
 31
0.0
 11
20.9208701722
 21
-8.9889331898
 31
0.0
 11
20.916481019
 21
-9.0124818785
 31
0.0
 11
20.9092693485
 21
-9.0353408823
 31
0.0
 11
20.8993393453
 21
-9.0571790608
 31
0.0
 11
20.8868358282
 21
-9.0776772956
 31
0.0
 11
20.8719405317
 21
-9.0965376088
 31
0.0
 11
20.8548701698
 21
-9.1134855416
 31
0.0
 11
20.8358730168
 21
-9.1282745834
 31
0.0
 11
20.8152254008
 21
-9.1406896029
 31
0.0
 11
20.7932276526
 21
-9.1505500105
 31
0.0
 11
20.7701997435
 21
-9.1577123784
 31
0.0
 11
20.7464766472
 21
-9.1620725242
 31
0.0
 11
20.7224033989
 21
-9.1635670374
 31
0.0
  0
SPLINE
  5
2F1
100
AcDbEntity
  8
RACCORDO
100
AcDbSpline
 62
7
  6
CONTINUOUS
 70
0
 71
3
 72
20
 73
16
 74
14
 42
0.0000001
 43
0.0000001
 44
0.0000000001
 12
-0.0004823989
 22
-0.3133952733
 32
0.0
 13
-0.3133956446
 23
-0.0
 33
0.0
 40
0.0
 40
0.0
 40
0.0
 40
0.0
 40
0.076665964
 40
0.1533814449
 40
0.230147769
 40
0.306964616
 40
0.383829791
 40
0.4607391046
 40
0.537686365
 40
0.6146635014
 40
0.691660804
 40
0.7686672649
 40
0.8456710097
 40
0.9226597773
 40
1.0
 40
1.0
 40
1.0
 40
1.0
 10
20.9813577692
 20
-9.3799761495
 30
0.0
 10
20.9813454413
 20
-9.3879850664
 30
0.0
 10
20.9803497101
 20
-9.404023448
 30
0.0
 10
20.9759644656
 20
-9.4277193716
 30
0.0
 10
20.9687481455
 20
-9.4507320464
 30
0.0
 10
20.9588037422
 20
-9.4727201385
 30
0.0
 10
20.9462747073
 20
-9.4933628469
 30
0.0
 10
20.9313428793
 20
-9.5123573589
 30
0.0
 10
20.9142257827
 20
-9.5294254518
 30
0.0
 10
20.895173417
 20
-9.544317131
 30
0.0
 10
20.8744643471
 20
-9.556814783
 30
0.0
 10
20.8524020292
 20
-9.5667356219
 30
0.0
 10
20.8293081815
 20
-9.5739374495
 30
0.0
 10
20.8054864674
 20
-9.5783166915
 30
0.0
 10
20.7893483636
 20
-9.5793190332
 30
0.0
 10
20.7812690006
 20
-9.5793190332
 30
0.0
 11
20.9813577692
 21
-9.3799761495
 31
0.0
 11
20.9798686414
 21
-9.4039567379
 31
0.0
 11
20.9754945352
 21
-9.4275977884
 31
0.0
 11
20.9682962733
 21
-9.4505539103
 31
0.0
 11
20.9583764816
 21
-9.4724892323
 31
0.0
 11
20.945878154
 21
-9.4930824811
 31
0.0
 11
20.9309825871
 21
-9.5120318562
 31
0.0
 11
20.9139067143
 21
-9.5290596193
 31
0.0
 11
20.8948998726
 21
-9.5439163277
 31
0.0
 11
20.8742400531
 21
-9.5563846333
 31
0.0
 11
20.8522296941
 21
-9.5662825831
 31
0.0
 11
20.829191084
 21
-9.5734663616
 31
0.0
 11
20.8054614572
 21
-9.5778324257
 31
0.0
 11
20.7812690006
 21
-9.5793190332
 31
0.0
  0
SPLINE
  5
2F2
100
AcDbEntity
  8
RACCORDO
100
AcDbSpline
 62
253
  6
CONTINUOUS
 70
0
 71
3
 72
10
 73
6
 74
4
 42
0.0000001
 43
0.0000001
 44
0.0000000001
 12
-0.0023350524
 22
7.4404210895
 32
0.0
 13
-0.0003966309
 23
7.4404214453
 33
0.0
 40
0.0
 40
0.0
 40
0.0
 40
0.0
 40
0.3333148751
 40
0.6666492143
 40
1.0
 40
1.0
 40
1.0
 40
1.0
 10
20.9073708363
 20
2.207548621
 30
0.0
 10
20.9071114004
 20
3.0342162964
 30
0.0
 10
20.9066643213
 20
4.6875999443
 30
0.0
 10
20.9062090713
 20
7.1677403907
 30
0.0
 10
20.9060491432
 20
8.8212131546
 30
0.0
 10
20.9060050708
 20
9.6479699328
 30
0.0
 11
20.9073708363
 21
2.207548621
 31
0.0
 11
20.906700229
 21
4.6875516787
 31
0.0
 11
20.9062449721
 21
7.1676996062
 31
0.0
 11
20.9060050708
 21
9.6479699328
 31
0.0
  0
SPLINE
  5
2F3
100
AcDbEntity
  8
RACCORDO
100
AcDbSpline
 62
253
  6
CONTINUOUS
 70
0
 71
3
 72
12
 73
8
 74
6
 42
0.0000001
 43
0.0000001
 44
0.0000000001
 12
-0.0074360309
 22
-6.9002877178
 32
0.0
 13
-0.0169681745
 23
-6.9002708616
 33
0.0
 40
0.0
 40
0.0
 40
0.0
 40
0.0
 40
0.2005839265
 40
0.4009257258
 40
0.6009765025
 40
0.8006849156
 40
1.0
 40
1.0
 40
1.0
 40
1.0
 10
-21.3025830212
 20
-2.0647773572
 30
0.0
 10
-21.303080204
 20
-2.5261396253
 30
0.0
 10
-21.3042004076
 20
-3.4483071146
 30
0.0
 10
-21.3062596306
 20
-4.8306099929
 30
0.0
 10
-21.3086963866
 20
-6.2108984897
 30
0.0
 10
-21.311510059
 20
-7.5888247192
 30
0.0
 10
-21.3136389093
 20
-8.5066151102
 30
0.0
 10
-21.314766247
 20
-8.9650577999
 30
0.0
 11
-21.3025830212
 21
-2.0647773572
 31
0.0
 11
-21.3042645489
 21
-3.4488639437
 31
0.0
 11
-21.3063241938
 21
-4.8312792693
 31
0.0
 11
-21.3087614598
 21
-6.2116858366
 31
0.0
 11
-21.3115757211
 21
-7.5897292731
 31
0.0
 11
-21.314766247
 21
-8.9650577999
 31
0.0
  0
SPLINE
  5
2F4
100
AcDbEntity
  8
RACCORDO
100
AcDbSpline
 62
253
  6
CONTINUOUS
 70
0
 71
3
 72
10
 73
6
 74
4
 42
0.0000001
 43
0.0000001
 44
0.0000000001
 12
-0.0003966309
 22
-7.4404214453
 32
0.0
 13
-0.0023350524
 23
-7.4404210895
 33
0.0
 40
0.0
 40
0.0
 40
0.0
 40
0.0
 40
0.3333507857
 40
0.6666851249
 40
1.0
 40
1.0
 40
1.0
 40
1.0
 10
-21.2983983809
 20
9.6479699328
 30
0.0
 10
-21.2984424533
 20
8.8212131546
 30
0.0
 10
-21.2986023814
 20
7.1677403907
 30
0.0
 10
-21.2990576314
 20
4.6875999443
 30
0.0
 10
-21.2995047105
 20
3.0342162964
 30
0.0
 10
-21.2997641464
 20
2.207548621
 30
0.0
 11
-21.2983983809
 21
9.6479699328
 31
0.0
 11
-21.2986382822
 21
7.1676996062
 31
0.0
 11
-21.2990935391
 21
4.6875516787
 31
0.0
 11
-21.2997641464
 21
2.207548621
 31
0.0
  0
SPLINE
  5
2F5
100
AcDbEntity
  8
RACCORDO
100
AcDbSpline
 62
7
  6
CONTINUOUS
 70
0
 71
3
 72
20
 73
16
 74
14
 42
0.0000001
 43
0.0000001
 44
0.0000000001
 12
0.0004820336
 22
-0.3131579843
 32
0.0
 13
0.3131583552
 23
0.0
 33
0.0
 40
0.0
 40
0.0
 40
0.0
 40
0.0
 40
0.0768237643
 40
0.1536472829
 40
0.2304809105
 40
0.3073333486
 40
0.3842114308
 40
0.4611200129
 40
0.5380619711
 40
0.6150383251
 40
0.6920484723
 40
0.7690905191
 40
0.8461617
 40
0.9232588437
 40
1.0
 40
1.0
 40
1.0
 40
1.0
 10
-21.3737510793
 20
-9.3799761495
 30
0.0
 10
-21.3737387354
 20
-9.3879954746
 30
0.0
 10
-21.372740763
 20
-9.4040495364
 30
0.0
 10
-21.3683478176
 20
-9.4277609946
 30
0.0
 10
-21.3611247613
 20
-9.4507755673
 30
0.0
 10
-21.351177808
 20
-9.4727557112
 30
0.0
 10
-21.3386520234
 20
-9.4933847703
 30
0.0
 10
-21.3237292868
 20
-9.512363957
 30
0.0
 10
-21.3066257255
 20
-9.5294185633
 30
0.0
 10
-21.2875887291
 20
-9.5443011473
 30
0.0
 10
-21.2668933557
 20
-9.5567956714
 30
0.0
 10
-21.2448389981
 20
-9.5667186349
 30
0.0
 10
-21.2217432927
 20
-9.5739287529
 30
0.0
 10
-21.19798378
 20
-9.5782954826
 30
0.0
 10
-21.1819107639
 20
-9.5793190332
 30
0.0
 10
-21.1739000525
 20
-9.5793190332
 30
0.0
 11
-21.3737510793
 21
-9.3799761495
 31
0.0
 11
-21.3722581271
 21
-9.4039877849
 31
0.0
 11
-21.3678765271
 21
-9.4276433428
 31
0.0
 11
-21.3606718328
 21
-9.4506004452
 31
0.0
 11
-21.3507498719
 21
-9.4725270128
 31
0.0
 11
-21.3382552403
 21
-9.4931058968
 31
0.0
 11
-21.3233692714
 21
-9.5120393119
 31
0.0
 11
-21.3063075035
 21
-9.5290530101
 31
0.0
 11
-21.2873166727
 21
-9.5439001438
 31
0.0
 11
-21.2666712687
 21
-9.5563647596
 31
0.0
 11
-21.244669699
 21
-9.5662648711
 31
0.0
 11
-21.2216301094
 21
-9.5734550667
 31
0.0
 11
-21.1978859257
 21
-9.5778286089
 31
0.0
 11
-21.1739000525
 21
-9.5793190332
 31
0.0
  0
ELLIPSE
  5
2F6
100
AcDbEntity
  8
RACCORDO
100
AcDbEllipse
 62
7
  6
CONTINUOUS
 10
-22.046120491
 20
-10.5786328602
 30
0.0
 11
-0.1582391023
 21
-0.4751033573
 31
0.0
 40
0.9984778551
 41
-1.2488325878
 42
0.3210503505
  0
ELLIPSE
  5
2F7
100
AcDbEntity
  8
RACCORDO
100
AcDbEllipse
 62
7
  6
CONTINUOUS
 10
21.6537271809
 20
-10.5786328602
 30
0.0
 11
-0.1582391023
 21
0.4751033573
 31
0.0
 40
0.9984778551
 41
2.8205423031
 42
4.3904252414
  0
ELLIPSE
  5
2F8
100
AcDbEntity
  8
RACCORDO
100
AcDbEllipse
 62
7
  6
CONTINUOUS
 10
18.2883332911
 20
-10.9587811408
 30
0.0
 11
0.2
 21
0.0
 31
0.0
 40
0.0524077793
 41
0.5235987756
 42
1.5707963268
  0
ELLIPSE
  5
2F9
100
AcDbEntity
  8
RACCORDO
100
AcDbEllipse
 62
7
  6
CONTINUOUS
 10
15.0192733988
 20
-10.9587811408
 30
0.0
 11
0.2
 21
-0.0
 31
0.0
 40
0.0524077793
 41
1.5707963268
 42
2.617993878
  0
ELLIPSE
  5
2FA
100
AcDbEntity
  8
RACCORDO
100
AcDbEllipse
 62
7
  6
CONTINUOUS
 10
3.8192733988
 20
-11.0373928097
 30
0.0
 11
0.2
 21
0.0
 31
0.0
 40
0.0524077793
 41
1.5707963268
 42
2.617993878
  0
ELLIPSE
  5
2FB
100
AcDbEntity
  8
RACCORDO
100
AcDbEllipse
 62
7
  6
CONTINUOUS
 10
7.0883332911
 20
-11.0373928097
 30
0.0
 11
0.2
 21
0.0
 31
0.0
 40
0.0524077793
 41
0.5235987756
 42
1.5707963268
  0
ELLIPSE
  5
2FC
100
AcDbEntity
  8
RACCORDO
100
AcDbEllipse
 62
7
  6
CONTINUOUS
 10
-7.4807266012
 20
-11.0373928097
 30
0.0
 11
0.2
 21
-0.0
 31
0.0
 40
0.0524077793
 41
1.5707963268
 42
2.617993878
  0
ELLIPSE
  5
2FD
100
AcDbEntity
  8
RACCORDO
100
AcDbEllipse
 62
7
  6
CONTINUOUS
 10
-4.2116667089
 20
-11.0373928097
 30
0.0
 11
0.2
 21
-0.0
 31
0.0
 40
0.0524077793
 41
0.5235987756
 42
1.5707963268
  0
ELLIPSE
  5
2FE
100
AcDbEntity
  8
RACCORDO
100
AcDbEllipse
 62
7
  6
CONTINUOUS
 10
-18.6807266012
 20
-10.9587811408
 30
0.0
 11
0.2
 21
0.0
 31
0.0
 40
0.0524077793
 41
1.5707963268
 42
2.617993878
  0
ELLIPSE
  5
2FF
100
AcDbEntity
  8
RACCORDO
100
AcDbEllipse
 62
7
  6
CONTINUOUS
 10
-15.4116667089
 20
-10.9587811408
 30
0.0
 11
0.2
 21
0.0
 31
0.0
 40
0.0524077793
 41
0.5235987756
 42
1.5707963268
  0
ELLIPSE
  5
300
100
AcDbEntity
  8
RACCORDO
100
AcDbEllipse
 62
7
  6
CONTINUOUS
 10
21.8636186136
 20
10.8119445794
 30
0.0
 11
-0.2236527791
 21
-0.1118178731
 31
0.0
 40
0.9998096356
 41
2.6780516535
 42
4.2486956813
  0
ELLIPSE
  5
301
100
AcDbEntity
  8
RACCORDO
100
AcDbEllipse
 62
7
  6
CONTINUOUS
 10
-22.2560119237
 20
10.8119445794
 30
0.0
 11
-0.2236527791
 21
0.1118178731
 31
0.0
 40
0.9998096356
 41
-1.1071030277
 42
0.4635410001
  0
ELLIPSE
  5
302
100
AcDbEntity
  8
RACCORDO
100
AcDbEllipse
 62
7
  6
CONTINUOUS
 10
18.2883332911
 20
-9.4565344723
 30
0.0
 11
0.2
 21
0.0
 31
0.0
 40
0.1227845609
 41
0.5235987756
 42
1.5707963268
  0
ELLIPSE
  5
303
100
AcDbEntity
  8
RACCORDO
100
AcDbEllipse
 62
7
  6
CONTINUOUS
 10
15.0192733988
 20
-9.4565344723
 30
0.0
 11
0.2
 21
-0.0
 31
0.0
 40
0.1227845609
 41
1.5707963268
 42
2.617993878
  0
ELLIPSE
  5
304
100
AcDbEntity
  8
RACCORDO
100
AcDbEllipse
 62
7
  6
CONTINUOUS
 10
3.8192733988
 20
-9.6062421101
 30
0.0
 11
0.2
 21
-0.0
 31
0.0
 40
0.0538461538
 41
1.5707963268
 42
2.617993878
  0
ELLIPSE
  5
305
100
AcDbEntity
  8
RACCORDO
100
AcDbEllipse
 62
7
  6
CONTINUOUS
 10
7.0883332911
 20
-9.6062421101
 30
0.0
 11
0.2
 21
-0.0
 31
0.0
 40
0.0538461538
 41
0.5235987756
 42
1.5707963268
  0
ELLIPSE
  5
306
100
AcDbEntity
  8
RACCORDO
100
AcDbEllipse
 62
7
  6
CONTINUOUS
 10
-7.4807266012
 20
-9.6062421101
 30
0.0
 11
0.2
 21
0.0
 31
0.0
 40
0.0538461538
 41
1.5707963268
 42
2.617993878
  0
ELLIPSE
  5
307
100
AcDbEntity
  8
RACCORDO
100
AcDbEllipse
 62
7
  6
CONTINUOUS
 10
-4.2116667089
 20
-9.6062421101
 30
0.0
 11
0.2
 21
-0.0
 31
0.0
 40
0.0538461538
 41
0.5235987756
 42
1.5707963268
  0
ELLIPSE
  5
308
100
AcDbEntity
  8
RACCORDO
100
AcDbEllipse
 62
7
  6
CONTINUOUS
 10
-18.6807266012
 20
-9.4565344723
 30
0.0
 11
0.2
 21
-0.0
 31
0.0
 40
0.1227845609
 41
1.5707963268
 42
2.617993878
  0
ELLIPSE
  5
309
100
AcDbEntity
  8
RACCORDO
100
AcDbEllipse
 62
7
  6
CONTINUOUS
 10
-15.4116667089
 20
-9.4565344723
 30
0.0
 11
0.2
 21
0.0
 31
0.0
 40
0.1227845609
 41
0.5235987756
 42
1.5707963268
  0
ELLIPSE
  5
30A
100
AcDbEntity
  8
RACCORDO
100
AcDbEllipse
 62
7
  6
CONTINUOUS
 10
20.76362623
 20
9.7055606311
 30
0.0
 11
0.1414644378
 21
0.1414644378
 31
0.0
 40
0.9996954599
 41
-0.7852458702
 42
0.7852458701
  0
ELLIPSE
  5
30B
100
AcDbEntity
  8
RACCORDO
100
AcDbEllipse
 62
7
  6
CONTINUOUS
 10
-21.1560195401
 20
9.7055606311
 30
0.0
 11
0.1414644378
 21
-0.1414644378
 31
0.0
 40
0.9996954599
 41
2.3563467834
 42
3.9268385237
  0
ELLIPSE
  5
30C
100
AcDbEntity
  8
RACCORDO
100
AcDbEllipse
 62
7
  6
CONTINUOUS
 10
20.8037728793
 20
-9.4490293022
 30
0.0
 11
-0.0617723213
 21
0.1905579802
 31
0.0
 40
0.9984017958
 41
-3.4546006943
 42
-1.8847427532
  0
ELLIPSE
  5
30D
100
AcDbEntity
  8
0
100
AcDbEllipse
 62
7
  6
CONTINUOUS
 10
-21.6062336372
 20
2.1397319142
 30
0.0
 11
0.7
 21
0.0
 31
0.0
 40
0.0087268678
 41
-3.0368728985
 42
-1.5707963268
  0
ELLIPSE
  5
30E
100
AcDbEntity
  8
0
100
AcDbEllipse
 62
7
  6
CONTINUOUS
 10
21.2138403271
 20
2.1397319142
 30
0.0
 11
0.7
 21
0.0
 31
0.0
 40
0.0087268678
 41
-1.5707963268
 42
-0.1047197551
  0
ELLIPSE
  5
30F
100
AcDbEntity
  8
0
100
AcDbEllipse
 62
7
  6
CONTINUOUS
 10
-21.6062336372
 20
-1.9983699806
 30
0.0
 11
0.7
 21
0.0
 31
0.0
 40
0.0087268678
 41
1.5707963268
 42
3.0368728985
  0
ELLIPSE
  5
310
100
AcDbEntity
  8
0
100
AcDbEllipse
 62
7
  6
CONTINUOUS
 10
21.2138403271
 20
-1.9983699806
 30
0.0
 11
0.7
 21
-0.0
 31
0.0
 40
0.0087268678
 41
0.1047197551
 42
1.5707963268
  0
ELLIPSE
  5
311
100
AcDbEntity
  8
RACCORDO
100
AcDbEllipse
 62
7
  6
CONTINUOUS
 10
-21.1961661894
 20
-9.4490293022
 30
0.0
 11
0.0617723213
 21
0.1905579802
 31
0.0
 40
0.9984017958
 41
-4.398442554
 42
-2.8285846129
  0
ENDSEC
  0
SECTION
  2
OBJECTS
  0
DICTIONARY
  5
C
100
AcDbDictionary
280
0
281
1
  3
ACAD_GROUP
350
D
  3
ACAD_MLINESTYLE
350
17
  3
ACAD_LAYOUT
350
1A
  3
ACAD_PLOTSETTINGS
350
19
  3
ACAD_PLOTSTYLENAME
350
E
  0
DICTIONARY
  5
D
102
{ACAD_REACTORS
330
C
102
}
100
AcDbDictionary
280
0
281
1
  0
ACDBDICTIONARYWDFLT
  5
E
102
{ACAD_REACTORS
330
C
102
}
100
AcDbDictionary
281
1
  3
Normal
350
F
100
AcDbDictionaryWithDefault
340
F
  0
DICTIONARY
  5
17
102
{ACAD_REACTORS
330
C
102
}
100
AcDbDictionary
280
0
281
1
  3
Standard
350
18
  0
DICTIONARY
  5
19
102
{ACAD_REACTORS
330
C
102
}
100
AcDbDictionary
281
1
  0
DICTIONARY
  5
1A
102
{ACAD_REACTORS
330
C
102
}
100
AcDbDictionary
281
1
  3
Model
350
312
  3
Layout1
350
313
  0
ACDBPLACEHOLDER
  5
F
102
{ACAD_REACTORS
330
E
102
}
  0
MLINESTYLE
  5
18
102
{ACAD_REACTORS
330
17
102
}
100
AcDbMlineStyle
  2
STANDARD
 70
0
  3

 62
256
 51
90.0
 52
90.0
 71
2
 49
0.5
 62
256
  6
BYLAYER
 49
-0.5
 62
256
  6
BYLAYER
  0
LAYOUT
  5
312
102
{ACAD_REACTORS
330
1A
102
}
100
AcDbPlotSettings
  1

  2
none_device
  4
ISO_A4_(297.00_x_210.00_MM)
  6

 40
0.0
 41
0.0
 42
0.0
 43
0.0
 44
297.0
 45
210.0
 46
0.0
 47
0.0
 48
0.0
 49
0.0
140
0.0
141
0.0
142
1.0
143
1.0
 70
1024
 72
1
 73
0
 74
0
  7

 75
0
147
1.0
148
0.0
149
0.0
100
AcDbLayout
  1
Model
 70
0
 71
0
 10
0.0
 20
0.0
 11
297.0
 21
210.0
 12
0.0
 22
0.0
 32
0.0
 14
0.0
 24
0.0
 34
0.0
 15
0.0
 25
0.0
 35
0.0
146
0.0
 13
0.0
 23
0.0
 33
0.0
 16
1.0
 26
0.0
 36
0.0
 17
0.0
 27
1.0
 37
0.0
 76
0
330
20F
345
0
346
0
  0
LAYOUT
  5
313
102
{ACAD_REACTORS
330
1A
102
}
100
AcDbPlotSettings
  1

  2
none_device
  4
ISO_A4_(297.00_x_210.00_MM)
  6

 40
0.0
 41
0.0
 42
0.0
 43
0.0
 44
297.0
 45
210.0
 46
0.0
 47
0.0
 48
0.0
 49
0.0
140
0.0
141
0.0
142
1.0
143
1.0
 70
0
 72
1
 73
0
 74
0
  7

 75
0
147
1.0
148
0.0
149
0.0
100
AcDbLayout
  1
Layout1
 70
0
 71
1
 10
0.0
 20
0.0
 11
297.0
 21
210.0
 12
0.0
 22
0.0
 32
0.0
 14
0.0
 24
0.0
 34
0.0
 15
0.0
 25
0.0
 35
0.0
146
0.0
 13
0.0
 23
0.0
 33
0.0
 16
1.0
 26
0.0
 36
0.0
 17
0.0
 27
1.0
 37
0.0
 76
0
330
210
345
0
346
0
  0
ENDSEC
  0
EOF
