  0
SECTION
  2
HEADER
  9
$ACADVER
  1
AC1015
  9
$DWGCODEPAGE
  3
ANSI_1252
  9
$EXTMAX
 10
297.0
 20
210.0
 30
0.0
  9
$EXTMIN
 10
0.0
 20
0.0
 30
0.0
  9
$LIMMIN
 10
0.0
 20
0.0
  9
$LIMMAX
 10
297.0
 20
210.0
  9
$VIEWCTR
 10
148.5
 20
105.0
  9
$VIEWSIZE
 40
210.0
  9
$CLAYER
  8
0
  9
$LTSCALE
 40
16.335
  9
$CELTYPE
  6
BYLAYER
  9
$DIMSCALE
 40
1.0
  9
$DIMASZ
 40
3.0
  9
$DIMEXO
 40
1.85625
  9
$DIMDLI
 40
11.286
  9
$DIMEXE
 40
5.346
  9
$DIMCEN
 40
2.673
  9
$DIMLFAC
 40
1.0
  9
$DIMBLK
  1
_FILLED
  9
$DIMTXT
 40
3.0
  9
$DIMTOL
 70
1
  9
$DIMLIM
 70
0
  9
$DIMTFAC
 40
1.0
  9
$DIMTP
 40
0.01
  9
$DIMTM
 40
0.01
  9
$PDMODE
 70
3
  9
$PDSIZE
 40
3.0
  9
$HANDSEED
  5
4CE
  9
$TILEMODE
 70
1
  9
$MEASUREMENT
 70
1
  9
$INSUNITS
 70
4
  0
ENDSEC
  0
SECTION
  2
CLASSES
  0
CLASS
  1
ACDBDICTIONARYWDFLT
  2
AcDbDictionaryWithDefault
  3
AutoCAD 2000
 90
0
280
0
281
0
  0
CLASS
  1
ACDBPLACEHOLDER
  2
AcDbPlaceHolder
  3
AutoCAD 2000
 90
0
280
0
281
0
  0
CLASS
  1
LAYOUT
  2
AcDbLayout
  3
AutoCAD 2000
 90
0
280
0
281
0
  0
ENDSEC
  0
SECTION
  2
TABLES
  0
TABLE
  2
VPORT
  5
8
100
AcDbSymbolTable
 70
2
  0
VPORT
  5
1F4
100
AcDbSymbolTableRecord
100
AcDbViewportTableRecord
  2
*ACTIVE
 70
0
 10
0.0
 20
0.0
 11
1.0
 21
1.0
 12
148.5
 22
105.0
 13
0.0
 23
0.0
 14
1.0
 24
1.0
 15
0.0
 25
0.0
 16
0.0
 26
0.0
 36
1.0
 17
0.0
 27
0.0
 37
0.0
 40
210.0
 41
1.4142857143
 42
50.0
 43
0.0
 44
0.0
 50
0.0
 51
0.0
 71
0
 72
100
 73
1
 74
1
 75
0
 76
0
 77
0
 78
0
  0
ENDTAB
  0
TABLE
  2
LTYPE
  5
5
100
AcDbSymbolTable
 70
6
  0
LTYPE
  5
14
100
AcDbSymbolTableRecord
100
AcDbLinetypeTableRecord
  2
BYBLOCK
 70
0
  3

 72
65
 73
0
 40
0.0
  0
LTYPE
  5
15
100
AcDbSymbolTableRecord
100
AcDbLinetypeTableRecord
  2
BYLAYER
 70
0
  3

 72
65
 73
0
 40
0.0
  0
LTYPE
  5
16
100
AcDbSymbolTableRecord
100
AcDbLinetypeTableRecord
  2
CONTINUOUS
 70
64
  3
Solid line
 72
65
 73
0
 40
0.0
  0
LTYPE
  5
1F5
100
AcDbSymbolTableRecord
100
AcDbLinetypeTableRecord
  2
CENTER
 70
64
  3
____ _ ____ _ ____ _ ____ _ ____ _ ____ _ ____
 72
65
 73
4
 40
0.6
 49
0.375
 74
0
 49
-0.075
 74
0
 49
0.075
 74
0
 49
-0.075
 74
0
  0
LTYPE
  5
1F6
100
AcDbSymbolTableRecord
100
AcDbLinetypeTableRecord
  2
HIDDEN
 70
64
  3
- - - - - - - - - - - - - - - - - - - -
 72
65
 73
2
 40
0.2
 49
0.1
 74
0
 49
-0.1
 74
0
  0
LTYPE
  5
1F7
100
AcDbSymbolTableRecord
100
AcDbLinetypeTableRecord
  2
PHANTOM
 70
64
  3
_____ _ _ _____ _ _ _____ _ _ _____
 72
65
 73
6
 40
0.8
 49
0.45
 74
0
 49
-0.05
 74
0
 49
0.1
 74
0
 49
-0.05
 74
0
 49
0.1
 74
0
 49
-0.05
 74
0
  0
LTYPE
  5
1F8
100
AcDbSymbolTableRecord
100
AcDbLinetypeTableRecord
  2
DOT
 70
64
  3
. . . . . . . . . . . . . . . . . . . .
 72
65
 73
2
 40
0.2
 49
0.1
 74
0
 49
-0.1
 74
0
  0
LTYPE
  5
1F9
100
AcDbSymbolTableRecord
100
AcDbLinetypeTableRecord
  2
DASHED
 70
64
  3
- - - - - - - - - - - - - - - - - - - -
 72
65
 73
2
 40
0.2
 49
0.1
 74
0
 49
-0.1
 74
0
  0
ENDTAB
  0
TABLE
  2
LAYER
  5
2
100
AcDbSymbolTable
 70
36
  0
LAYER
  5
10
100
AcDbSymbolTableRecord
100
AcDbLayerTableRecord
  2
0
 70
0
 62
7
  6
CONTINUOUS
370
-3
390
F
  0
LAYER
  5
1FA
100
AcDbSymbolTableRecord
100
AcDbLayerTableRecord
  2
DEFAULT_1
 70
0
 62
7
  6
CENTER
370
-3
390
F
  0
LAYER
  5
1FB
100
AcDbSymbolTableRecord
100
AcDbLayerTableRecord
  2
DEFAULT_2
 70
0
 62
7
  6
HIDDEN
370
-3
390
F
  0
LAYER
  5
1FC
100
AcDbSymbolTableRecord
100
AcDbLayerTableRecord
  2
DEFAULT_3
 70
0
 62
7
  6
PHANTOM
370
-3
390
F
  0
LAYER
  5
1FD
100
AcDbSymbolTableRecord
100
AcDbLayerTableRecord
  2
ASSI
 70
0
 62
7
  6
CONTINUOUS
370
-3
390
F
  0
LAYER
  5
1FE
100
AcDbSymbolTableRecord
100
AcDbLayerTableRecord
  2
COLOR9
 70
0
 62
7
  6
CONTINUOUS
370
-3
390
F
  0
LAYER
  5
1FF
100
AcDbSymbolTableRecord
100
AcDbLayerTableRecord
  2
COORDINATE
 70
0
 62
7
  6
CONTINUOUS
370
-3
390
F
  0
LAYER
  5
200
100
AcDbSymbolTableRecord
100
AcDbLayerTableRecord
  2
COORD_ORIGINE
 70
0
 62
7
  6
CONTINUOUS
370
-3
390
F
  0
LAYER
  5
201
100
AcDbSymbolTableRecord
100
AcDbLayerTableRecord
  2
COPY_PUBLISH
 70
0
 62
7
  6
CONTINUOUS
370
-3
390
F
  0
LAYER
  5
202
100
AcDbSymbolTableRecord
100
AcDbLayerTableRecord
  2
COSMETIC
 70
0
 62
7
  6
CONTINUOUS
370
-3
390
F
  0
LAYER
  5
203
100
AcDbSymbolTableRecord
100
AcDbLayerTableRecord
  2
CURVE
 70
0
 62
7
  6
CONTINUOUS
370
-3
390
F
  0
LAYER
  5
204
100
AcDbSymbolTableRecord
100
AcDbLayerTableRecord
  2
DRAFT
 70
0
 62
7
  6
CONTINUOUS
370
-3
390
F
  0
LAYER
  5
205
100
AcDbSymbolTableRecord
100
AcDbLayerTableRecord
  2
IGS_SCRITTE
 70
0
 62
7
  6
CONTINUOUS
370
-3
390
F
  0
LAYER
  5
206
100
AcDbSymbolTableRecord
100
AcDbLayerTableRecord
  2
IMPORT_IGES
 70
0
 62
7
  6
CONTINUOUS
370
-3
390
F
  0
LAYER
  5
207
100
AcDbSymbolTableRecord
100
AcDbLayerTableRecord
  2
INTF_YELLOW
 70
0
 62
7
  6
CONTINUOUS
370
-3
390
F
  0
LAYER
  5
208
100
AcDbSymbolTableRecord
100
AcDbLayerTableRecord
  2
PIANI
 70
0
 62
7
  6
CONTINUOUS
370
-3
390
F
  0
LAYER
  5
209
100
AcDbSymbolTableRecord
100
AcDbLayerTableRecord
  2
PIANI_ORIGINE
 70
0
 62
7
  6
CONTINUOUS
370
-3
390
F
  0
LAYER
  5
20A
100
AcDbSymbolTableRecord
100
AcDbLayerTableRecord
  2
PIANI_RIFERIMENTO
 70
0
 62
7
  6
CONTINUOUS
370
-3
390
F
  0
LAYER
  5
20B
100
AcDbSymbolTableRecord
100
AcDbLayerTableRecord
  2
RACCORDO
 70
0
 62
7
  6
CONTINUOUS
370
-3
390
F
  0
LAYER
  5
20C
100
AcDbSymbolTableRecord
100
AcDbLayerTableRecord
  2
SMUSSO
 70
0
 62
7
  6
CONTINUOUS
370
-3
390
F
  0
LAYER
  5
20D
100
AcDbSymbolTableRecord
100
AcDbLayerTableRecord
  2
SNAPLINE
 70
0
 62
7
  6
CONTINUOUS
370
-3
390
F
  0
LAYER
  5
20E
100
AcDbSymbolTableRecord
100
AcDbLayerTableRecord
  2
SOLIDO
 70
0
 62
7
  6
CONTINUOUS
370
-3
390
F
  0
LAYER
  5
20F
100
AcDbSymbolTableRecord
100
AcDbLayerTableRecord
  2
SUPERFICI
 70
0
 62
7
  6
CONTINUOUS
370
-3
390
F
  0
LAYER
  5
210
100
AcDbSymbolTableRecord
100
AcDbLayerTableRecord
  2
TRASH
 70
0
 62
7
  6
CONTINUOUS
370
-3
390
F
  0
LAYER
  5
211
100
AcDbSymbolTableRecord
100
AcDbLayerTableRecord
  2
WHITE
 70
0
 62
7
  6
CONTINUOUS
370
-3
390
F
  0
LAYER
  5
212
100
AcDbSymbolTableRecord
100
AcDbLayerTableRecord
  2
XSEC_DATUMS
 70
0
 62
7
  6
CONTINUOUS
370
-3
390
F
  0
ENDTAB
  0
TABLE
  2
STYLE
  5
3
100
AcDbSymbolTable
 70
1
  0
STYLE
  5
11
100
AcDbSymbolTableRecord
100
AcDbTextStyleTableRecord
  2
STANDARD
 70
0
 40
0.0
 41
0.8
 50
0.0
 71
0
 42
0.2
  3
txt
  4

  0
STYLE
  5
213
100
AcDbSymbolTableRecord
100
AcDbTextStyleTableRecord
  2
TEXTSTYLE_1
 70
0
 40
0.0
 41
0.8
 50
0.0
 71
0
 42
0.2
  3
gdt
  4

  0
ENDTAB
  0
TABLE
  2
VIEW
  5
6
100
AcDbSymbolTable
 70
0
  0
ENDTAB
  0
TABLE
  2
UCS
  5
7
100
AcDbSymbolTable
 70
0
  0
ENDTAB
  0
TABLE
  2
APPID
  5
9
100
AcDbSymbolTable
 70
1
  0
APPID
  5
214
100
AcDbSymbolTableRecord
100
AcDbRegAppTableRecord
  2
ACAD
 70
0
  0
ENDTAB
  0
TABLE
  2
BLOCK_RECORD
  5
1
100
AcDbSymbolTable
 70
0
  0
BLOCK_RECORD
  5
215
100
AcDbSymbolTableRecord
100
AcDbBlockTableRecord
  2
*Model_Space
  0
BLOCK_RECORD
  5
216
100
AcDbSymbolTableRecord
100
AcDbBlockTableRecord
  2
*Paper_Space
  0
ENDTAB
  0
TABLE
  2
DIMSTYLE
  5
A
100
AcDbSymbolTable
 70
1
100
AcDbDimStyleTable
 71
0
  0
DIMSTYLE
105
217
100
AcDbSymbolTableRecord
100
AcDbDimStyleTableRecord
  2
STANDARD
 70
0
  3

  4

 40
1.0
 41
3.0
 42
0.0625
 43
0.38
 44
0.18
 45
0.0
 46
0.0
 47
0.01
 48
0.01
140
3.0
141
0.09
142
0.0
143
25.4
144
1.0
145
0.0
146
1.0
147
0.09
 71
1.0
 72
0.0
 73
0
 74
0
 75
0
 76
0
 77
1
 78
8
170
0
171
2
172
0
173
0
174
0
175
0
176
0
177
0
178
0
270
2
271
2
272
2
273
2
274
2
275
0
280
0
281
0
282
0
283
1
284
8
285
0
286
0
287
3
288
0
340
11
  0
ENDTAB
  0
ENDSEC
  0
SECTION
  2
BLOCKS
  0
BLOCK
  5
20
100
AcDbEntity
  8
0
100
AcDbBlockBegin
  2
*Model_Space
 70
0
 10
0.0
 20
0.0
 30
0.0
  3
*Model_Space
  1

  0
ENDBLK
  5
21
100
AcDbEntity
  8
0
100
AcDbBlockEnd
  0
BLOCK
  5
1C
100
AcDbEntity
  8
0
100
AcDbBlockBegin
  2
*Paper_Space
 70
0
 10
0.0
 20
0.0
 30
0.0
  3
*Paper_Space
  1

  0
ENDBLK
  5
1D
100
AcDbEntity
  8
0
100
AcDbBlockEnd
  0
ENDSEC
  0
SECTION
  2
ENTITIES
  0
LINE
  5
218
100
AcDbEntity
  8
0
100
AcDbLine
 62
7
  6
CONTINUOUS
 10
-22.4111165127
 20
-10.5979228778
 11
-22.4374238221
 21
-1.9871755701
  0
LINE
  5
219
100
AcDbEntity
  8
RACCORDO
100
AcDbLine
 62
7
  6
CONTINUOUS
 10
-22.4374238221
 20
10.7628910512
 11
-22.4374238221
 21
-1.9871755701
  0
LINE
  5
21A
100
AcDbEntity
  8
RACCORDO
100
AcDbLine
 62
7
  6
CONTINUOUS
 10
-21.2374238221
 20
-1.9871755701
 11
-21.2261693139
 21
-9.3569343385
  0
LINE
  5
21B
100
AcDbEntity
  8
RACCORDO
100
AcDbLine
 62
7
  6
CONTINUOUS
 10
-21.2374238221
 20
9.6128548909
 11
-21.2374238221
 21
-1.9871755701
  0
LINE
  5
21C
100
AcDbEntity
  8
DRAFT
100
AcDbLine
 62
7
  6
CONTINUOUS
 10
-21.2206072794
 20
0.8128244299
 11
-21.2206072794
 21
-2.9871755701
  0
LINE
  5
21D
100
AcDbEntity
  8
0
100
AcDbLine
 62
7
  6
CONTINUOUS
 10
-20.6874238221
 20
0.8128244299
 11
-20.6874238221
 21
-2.9871755701
  0
LINE
  5
21E
100
AcDbEntity
  8
DRAFT
100
AcDbLine
 62
7
  6
CONTINUOUS
 10
-19.8498898127
 20
11.0128244299
 11
-19.8498898127
 21
9.8128244299
  0
LINE
  5
21F
100
AcDbEntity
  8
RACCORDO
100
AcDbLine
 62
253
  6
CONTINUOUS
 10
-20.9691432012
 20
1.6413265229
 11
-20.9694849889
 21
0.8128244299
  0
LINE
  5
220
100
AcDbEntity
  8
RACCORDO
100
AcDbLine
 62
7
  6
CONTINUOUS
 10
-18.9083368825
 20
9.7395461747
 11
-18.8925689517
 21
9.7553141055
  0
LINE
  5
221
100
AcDbEntity
  8
DRAFT
100
AcDbLine
 62
7
  6
CONTINUOUS
 10
-19.143377523
 20
-11.0954135106
 11
-19.2211422989
 21
-9.5558707008
  0
LINE
  5
222
100
AcDbEntity
  8
RACCORDO
100
AcDbLine
 62
253
  6
CONTINUOUS
 10
-18.8884789756
 20
7.5542457862
 11
-18.8778818873
 21
6.947139005
  0
LINE
  5
223
100
AcDbEntity
  8
RACCORDO
100
AcDbLine
 62
253
  6
CONTINUOUS
 10
-18.5885246402
 20
7.7663762823
 11
-18.5779276089
 21
7.1592727663
  0
LINE
  5
224
100
AcDbEntity
  8
DRAFT
100
AcDbLine
 62
7
  6
CONTINUOUS
 10
-19.5874238221
 20
10.9866438266
 11
-19.5874238221
 21
9.7604592351
  0
LINE
  5
225
100
AcDbEntity
  8
RACCORDO
100
AcDbLine
 62
253
  6
CONTINUOUS
 10
-18.8925689517
 20
9.7553141055
 11
-18.8925689517
 21
8.1199312111
  0
LINE
  5
226
100
AcDbEntity
  8
RACCORDO
100
AcDbLine
 62
253
  6
CONTINUOUS
 10
-18.8768593933
 20
6.8057176487
 11
-18.8768593933
 21
5.4198826199
  0
LINE
  5
227
100
AcDbEntity
  8
RACCORDO
100
AcDbLine
 62
253
  6
CONTINUOUS
 10
-18.795158849
 20
-11.0638046791
 11
-18.795158849
 21
-9.4652771848
  0
LINE
  5
228
100
AcDbEntity
  8
RACCORDO
100
AcDbLine
 62
253
  6
CONTINUOUS
 10
-18.6219537683
 20
-11.0585639011
 11
-18.6219537683
 21
-9.4529987287
  0
LINE
  5
229
100
AcDbEntity
  8
RACCORDO
100
AcDbLine
 62
253
  6
CONTINUOUS
 10
-18.5926146432
 20
9.7604592351
 11
-18.5926146432
 21
8.1199334347
  0
LINE
  5
22A
100
AcDbEntity
  8
RACCORDO
100
AcDbLine
 62
253
  6
CONTINUOUS
 10
-18.5769050847
 20
6.8057150944
 11
-18.5769050847
 21
5.4198853833
  0
LINE
  5
22B
100
AcDbEntity
  8
RACCORDO
100
AcDbLine
 62
253
  6
CONTINUOUS
 10
-18.3979425595
 20
5.4198853833
 11
-18.3979425595
 21
6.8057150944
  0
LINE
  5
22C
100
AcDbEntity
  8
RACCORDO
100
AcDbLine
 62
253
  6
CONTINUOUS
 10
-18.382233001
 20
8.1199334357
 11
-18.382233001
 21
9.7604592351
  0
LINE
  5
22D
100
AcDbEntity
  8
RACCORDO
100
AcDbLine
 62
253
  6
CONTINUOUS
 10
-18.3969200353
 20
7.1592727663
 11
-18.386323004
 21
7.7663762832
  0
LINE
  5
22E
100
AcDbEntity
  8
RACCORDO
100
AcDbLine
 62
253
  6
CONTINUOUS
 10
-18.0969657569
 20
6.947139005
 11
-18.0863686686
 21
7.5542457862
  0
LINE
  5
22F
100
AcDbEntity
  8
RACCORDO
100
AcDbLine
 62
253
  6
CONTINUOUS
 10
-21.1840671807
 20
-9.0607743439
 11
-21.2261693139
 21
-9.3569343385
  0
LINE
  5
230
100
AcDbEntity
  8
RACCORDO
100
AcDbLine
 62
253
  6
CONTINUOUS
 10
-20.9814442206
 20
-9.2406185539
 11
-21.026260496
 21
-9.5558707008
  0
LINE
  5
231
100
AcDbEntity
  8
DRAFT
100
AcDbLine
 62
7
  6
CONTINUOUS
 10
-17.3164713604
 20
-9.4529987287
 11
-17.3768737357
 21
-9.2406185539
  0
LINE
  5
232
100
AcDbEntity
  8
RACCORDO
100
AcDbLine
 62
253
  6
CONTINUOUS
 10
-17.2879268691
 20
-6.489420939
 11
-17.3458493351
 21
-6.1969504779
  0
LINE
  5
233
100
AcDbEntity
  8
RACCORDO
100
AcDbLine
 62
253
  6
CONTINUOUS
 10
-16.838047704
 20
-6.9474544778
 11
-16.8006164285
 21
-9.2461331826
  0
LINE
  5
234
100
AcDbEntity
  8
RACCORDO
100
AcDbLine
 62
253
  6
CONTINUOUS
 10
-16.588200027
 20
-6.8417980844
 11
-16.5583762838
 21
-8.6732933399
  0
LINE
  5
235
100
AcDbEntity
  8
RACCORDO
100
AcDbLine
 62
253
  6
CONTINUOUS
 10
-18.0979882509
 20
5.4198826199
 11
-18.0979882509
 21
6.8057176487
  0
LINE
  5
236
100
AcDbEntity
  8
RACCORDO
100
AcDbLine
 62
253
  6
CONTINUOUS
 10
-18.0822786925
 20
8.1199312111
 11
-18.0822786925
 21
9.7553141055
  0
LINE
  5
237
100
AcDbEntity
  8
RACCORDO
100
AcDbLine
 62
253
  6
CONTINUOUS
 10
-17.3458493351
 20
-4.7768822025
 11
-17.3458493351
 21
-6.1969504779
  0
LINE
  5
238
100
AcDbEntity
  8
RACCORDO
100
AcDbLine
 62
7
  6
CONTINUOUS
 10
-17.3164713604
 20
-9.4529987287
 11
-17.3164713604
 21
-8.6732933399
  0
LINE
  5
239
100
AcDbEntity
  8
RACCORDO
100
AcDbLine
 62
253
  6
CONTINUOUS
 10
-17.286484027
 20
-6.8206671713
 11
-17.286484027
 21
-6.5386613266
  0
LINE
  5
23A
100
AcDbEntity
  8
RACCORDO
100
AcDbLine
 62
253
  6
CONTINUOUS
 10
-17.0960016284
 20
-4.776884733
 11
-17.0960016284
 21
-5.9872811811
  0
LINE
  5
23B
100
AcDbEntity
  8
RACCORDO
100
AcDbLine
 62
253
  6
CONTINUOUS
 10
-17.0366363203
 20
-6.8206671713
 11
-17.0366363203
 21
-6.5386637187
  0
LINE
  5
23C
100
AcDbEntity
  8
RACCORDO
100
AcDbLine
 62
253
  6
CONTINUOUS
 10
-16.8382113239
 20
-6.5386637187
 11
-16.8382113239
 21
-6.8206671713
  0
LINE
  5
23D
100
AcDbEntity
  8
RACCORDO
100
AcDbLine
 62
253
  6
CONTINUOUS
 10
-16.7788460158
 20
-4.7768847564
 11
-16.7788460158
 21
-5.9872811811
  0
LINE
  5
23E
100
AcDbEntity
  8
RACCORDO
100
AcDbLine
 62
253
  6
CONTINUOUS
 10
-16.5883636172
 20
-6.5386613266
 11
-16.5883636172
 21
-6.8206671713
  0
LINE
  5
23F
100
AcDbEntity
  8
RACCORDO
100
AcDbLine
 62
7
  6
CONTINUOUS
 10
-16.5583762838
 20
-8.6732933399
 11
-16.5583762838
 21
-9.4529987287
  0
LINE
  5
240
100
AcDbEntity
  8
RACCORDO
100
AcDbLine
 62
253
  6
CONTINUOUS
 10
-16.528998309
 20
-4.7768822025
 11
-16.528998309
 21
-6.1969504779
  0
LINE
  5
241
100
AcDbEntity
  8
RACCORDO
100
AcDbLine
 62
253
  6
CONTINUOUS
 10
-17.3164713604
 20
-8.6732933399
 11
-17.2866476172
 21
-6.8417980844
  0
LINE
  5
242
100
AcDbEntity
  8
RACCORDO
100
AcDbLine
 62
253
  6
CONTINUOUS
 10
-17.0742312157
 20
-9.2461331826
 11
-17.0367999402
 21
-6.9474544778
  0
LINE
  5
243
100
AcDbEntity
  8
RACCORDO
100
AcDbLine
 62
253
  6
CONTINUOUS
 10
-18.8802894797
 20
5.2199130809
 11
-18.9077562221
 21
5.1924463385
  0
LINE
  5
244
100
AcDbEntity
  8
RACCORDO
100
AcDbLine
 62
253
  6
CONTINUOUS
 10
-18.5803352175
 20
4.919958726
 11
-18.607738166
 21
4.8925557775
  0
LINE
  5
245
100
AcDbEntity
  8
RACCORDO
100
AcDbLine
 62
253
  6
CONTINUOUS
 10
-17.0380792392
 20
-6.2432186128
 11
-17.088787418
 21
-5.9871755701
  0
LINE
  5
246
100
AcDbEntity
  8
RACCORDO
100
AcDbLine
 62
253
  6
CONTINUOUS
 10
-15.2528938759
 20
-9.4529987287
 11
-15.2528938759
 21
-11.0585639011
  0
LINE
  5
247
100
AcDbEntity
  8
0
100
AcDbLine
 62
7
  6
CONTINUOUS
 10
-15.1374238221
 20
-4.7194765701
 11
-15.1374238221
 21
-4.5386255025
  0
LINE
  5
248
100
AcDbEntity
  8
RACCORDO
100
AcDbLine
 62
253
  6
CONTINUOUS
 10
-15.0796887952
 20
-9.4652771848
 11
-15.0796887952
 21
-11.0638046791
  0
LINE
  5
249
100
AcDbEntity
  8
RACCORDO
100
AcDbLine
 62
253
  6
CONTINUOUS
 10
-16.7860602262
 20
-5.9871755701
 11
-16.836768405
 21
-6.2432186128
  0
LINE
  5
24A
100
AcDbEntity
  8
RACCORDO
100
AcDbLine
 62
253
  6
CONTINUOUS
 10
-16.528998309
 20
-6.1969504779
 11
-16.5869207751
 21
-6.489420939
  0
LINE
  5
24B
100
AcDbEntity
  8
RACCORDO
100
AcDbLine
 62
253
  6
CONTINUOUS
 10
-17.3955147049
 20
-4.678932394
 11
-17.3475344378
 21
-4.7269126612
  0
LINE
  5
24C
100
AcDbEntity
  8
RACCORDO
100
AcDbLine
 62
253
  6
CONTINUOUS
 10
-17.1464490409
 20
-4.4283026445
 11
-17.0976868171
 21
-4.4770648683
  0
LINE
  5
24D
100
AcDbEntity
  8
0
100
AcDbLine
 62
7
  6
CONTINUOUS
 10
-14.0749238221
 20
-3.4896893813
 11
-14.0749238221
 21
-3.4173488631
  0
LINE
  5
24E
100
AcDbEntity
  8
0
100
AcDbLine
 62
7
  6
CONTINUOUS
 10
-13.8624238221
 20
-4.7194765701
 11
-13.8624238221
 21
-4.5386255025
  0
LINE
  5
24F
100
AcDbEntity
  8
0
100
AcDbLine
 62
7
  6
CONTINUOUS
 10
-13.8624238221
 20
-3.4896893813
 11
-13.8624238221
 21
-3.4173488631
  0
LINE
  5
250
100
AcDbEntity
  8
0
100
AcDbLine
 62
7
  6
CONTINUOUS
 10
-13.579090455
 20
-4.0322425081
 11
-13.579090455
 21
-3.706710632
  0
LINE
  5
251
100
AcDbEntity
  8
0
100
AcDbLine
 62
7
  6
CONTINUOUS
 10
-13.4020070879
 20
-3.9960722997
 11
-13.4020070879
 21
-3.7428808405
  0
LINE
  5
252
100
AcDbEntity
  8
DRAFT
100
AcDbLine
 62
7
  6
CONTINUOUS
 10
-14.7314701212
 20
-11.0954135106
 11
-14.6537053453
 21
-9.5558707008
  0
LINE
  5
253
100
AcDbEntity
  8
0
100
AcDbLine
 62
7
  6
CONTINUOUS
 10
-15.1020071544
 20
-3.4173488631
 11
-15.0665904867
 21
-3.2726680293
  0
LINE
  5
254
100
AcDbEntity
  8
RACCORDO
100
AcDbLine
 62
7
  6
CONTINUOUS
 10
-16.503282368
 20
-9.2592835742
 11
-16.5583762838
 21
-9.4529987287
  0
LINE
  5
255
100
AcDbEntity
  8
0
100
AcDbLine
 62
7
  6
CONTINUOUS
 10
-14.0749238221
 20
-3.4173488631
 11
-14.1457571892
 21
-3.3088382377
  0
LINE
  5
256
100
AcDbEntity
  8
0
100
AcDbLine
 62
7
  6
CONTINUOUS
 10
-13.2249238221
 20
-4.4301148771
 11
-13.3665905563
 21
-4.2130936011
  0
LINE
  5
257
100
AcDbEntity
  8
0
100
AcDbLine
 62
7
  6
CONTINUOUS
 10
-13.4374238221
 20
-4.4662850856
 11
-13.5082571892
 21
-4.3216042264
  0
LINE
  5
258
100
AcDbEntity
  8
0
100
AcDbLine
 62
7
  6
CONTINUOUS
 10
-13.5082571892
 20
-4.3216042264
 11
-13.5436738221
 21
-4.2130936011
  0
LINE
  5
259
100
AcDbEntity
  8
0
100
AcDbLine
 62
7
  6
CONTINUOUS
 10
-13.8624238221
 20
-3.4173488631
 11
-13.897840455
 21
-3.2726680293
  0
LINE
  5
25A
100
AcDbEntity
  8
0
100
AcDbLine
 62
7
  6
CONTINUOUS
 10
-13.5436738221
 20
-4.2130936011
 11
-13.579090455
 21
-4.0322425081
  0
LINE
  5
25B
100
AcDbEntity
  8
0
100
AcDbLine
 62
7
  6
CONTINUOUS
 10
-13.3665905563
 20
-4.2130936011
 11
-13.4020070879
 21
-3.9960722997
  0
LINE
  5
25C
100
AcDbEntity
  8
0
100
AcDbLine
 62
7
  6
CONTINUOUS
 10
-12.4811738221
 20
-3.9960722997
 11
-12.4811738221
 21
-3.7428808405
  0
LINE
  5
25D
100
AcDbEntity
  8
0
100
AcDbLine
 62
7
  6
CONTINUOUS
 10
-12.3040905563
 20
-4.0322425081
 11
-12.3040905563
 21
-3.706710632
  0
LINE
  5
25E
100
AcDbEntity
  8
0
100
AcDbLine
 62
7
  6
CONTINUOUS
 10
-12.0207570879
 20
-4.285434018
 11
-12.0207570879
 21
-4.1769233926
  0
LINE
  5
25F
100
AcDbEntity
  8
0
100
AcDbLine
 62
7
  6
CONTINUOUS
 10
-11.9853405563
 20
-3.5620297982
 11
-11.9853405563
 21
-3.4535191729
  0
LINE
  5
260
100
AcDbEntity
  8
0
100
AcDbLine
 62
7
  6
CONTINUOUS
 10
-11.8436738221
 20
-4.285434018
 11
-11.8436738221
 21
-4.1769233926
  0
LINE
  5
261
100
AcDbEntity
  8
0
100
AcDbLine
 62
7
  6
CONTINUOUS
 10
-11.8082570879
 20
-3.5258595898
 11
-11.8082570879
 21
-3.4535191729
  0
LINE
  5
262
100
AcDbEntity
  8
0
100
AcDbLine
 62
7
  6
CONTINUOUS
 10
-13.4020070879
 20
-3.7428808405
 11
-13.3665905563
 21
-3.5258595898
  0
LINE
  5
263
100
AcDbEntity
  8
0
100
AcDbLine
 62
7
  6
CONTINUOUS
 10
-12.5165905563
 20
-4.2130936011
 11
-12.4811738221
 21
-3.9960722997
  0
LINE
  5
264
100
AcDbEntity
  8
0
100
AcDbLine
 62
7
  6
CONTINUOUS
 10
-13.579090455
 20
-3.706710632
 11
-13.5436738221
 21
-3.5258595898
  0
LINE
  5
265
100
AcDbEntity
  8
0
100
AcDbLine
 62
7
  6
CONTINUOUS
 10
-13.897840455
 20
-3.6343702151
 11
-13.8624238221
 21
-3.4896893813
  0
LINE
  5
266
100
AcDbEntity
  8
0
100
AcDbLine
 62
7
  6
CONTINUOUS
 10
-13.5436738221
 20
-3.5258595898
 11
-13.5082571892
 21
-3.4173488631
  0
LINE
  5
267
100
AcDbEntity
  8
RACCORDO
100
AcDbLine
 62
7
  6
CONTINUOUS
 10
14.4788577011
 20
-9.5558707008
 11
14.904841151
 21
-9.4652771848
  0
LINE
  5
268
100
AcDbEntity
  8
RACCORDO
100
AcDbLine
 62
7
  6
CONTINUOUS
 10
14.556622477
 20
-11.0954135106
 11
14.904841151
 21
-11.0638046791
  0
LINE
  5
269
100
AcDbEntity
  8
RACCORDO
100
AcDbLine
 62
7
  6
CONTINUOUS
 10
-14.7314701212
 20
-11.0954135106
 11
-15.0796887952
 21
-11.0638046791
  0
LINE
  5
26A
100
AcDbEntity
  8
RACCORDO
100
AcDbLine
 62
7
  6
CONTINUOUS
 10
-14.6537053453
 20
-9.5558707008
 11
-15.0796887952
 21
-9.4652771848
  0
LINE
  5
26B
100
AcDbEntity
  8
0
100
AcDbLine
 62
7
  6
CONTINUOUS
 10
-13.3311738221
 20
-4.5747957236
 11
-13.4374238221
 21
-4.4662850856
  0
LINE
  5
26C
100
AcDbEntity
  8
0
100
AcDbLine
 62
7
  6
CONTINUOUS
 10
-13.897840455
 20
-3.2726680293
 11
-14.0395071892
 21
-3.1279871954
  0
LINE
  5
26D
100
AcDbEntity
  8
0
100
AcDbLine
 62
7
  6
CONTINUOUS
 10
-11.8436738221
 20
-4.5747957236
 11
-11.9499238221
 21
-4.4662850856
  0
LINE
  5
26E
100
AcDbEntity
  8
0
100
AcDbLine
 62
7
  6
CONTINUOUS
 10
-11.7374238221
 20
-4.4301148771
 11
-11.8436738221
 21
-4.285434018
  0
LINE
  5
26F
100
AcDbEntity
  8
0
100
AcDbLine
 62
7
  6
CONTINUOUS
 10
-12.5165905563
 20
-3.5258595898
 11
-12.6582570879
 21
-3.3088382377
  0
LINE
  5
270
100
AcDbEntity
  8
0
100
AcDbLine
 62
7
  6
CONTINUOUS
 10
-11.7374238221
 20
-3.6343702151
 11
-11.8082570879
 21
-3.5258595898
  0
LINE
  5
271
100
AcDbEntity
  8
0
100
AcDbLine
 62
7
  6
CONTINUOUS
 10
-12.3749238221
 20
-3.4173488631
 11
-12.4457570879
 21
-3.2726680293
  0
LINE
  5
272
100
AcDbEntity
  8
0
100
AcDbLine
 62
7
  6
CONTINUOUS
 10
-11.9145070879
 20
-3.706710632
 11
-11.9853405563
 21
-3.5620297982
  0
LINE
  5
273
100
AcDbEntity
  8
0
100
AcDbLine
 62
7
  6
CONTINUOUS
 10
-11.9499238221
 20
-4.4662850856
 11
-12.0207570879
 21
-4.285434018
  0
LINE
  5
274
100
AcDbEntity
  8
0
100
AcDbLine
 62
7
  6
CONTINUOUS
 10
-10.7457572905
 20
-4.1769233926
 11
-10.8165903537
 21
-3.9960722997
  0
LINE
  5
275
100
AcDbEntity
  8
0
100
AcDbLine
 62
7
  6
CONTINUOUS
 10
-12.3395070879
 20
-3.5258595898
 11
-12.3749238221
 21
-3.4173488631
  0
LINE
  5
276
100
AcDbEntity
  8
0
100
AcDbLine
 62
7
  6
CONTINUOUS
 10
-12.3040905563
 20
-3.706710632
 11
-12.3395070879
 21
-3.5258595898
  0
LINE
  5
277
100
AcDbEntity
  8
0
100
AcDbLine
 62
7
  6
CONTINUOUS
 10
-12.4811738221
 20
-3.7428808405
 11
-12.5165905563
 21
-3.5258595898
  0
LINE
  5
278
100
AcDbEntity
  8
0
100
AcDbLine
 62
7
  6
CONTINUOUS
 10
-10.9582572905
 20
-3.5258595898
 11
-10.9582572905
 21
-3.4535191729
  0
LINE
  5
279
100
AcDbEntity
  8
0
100
AcDbLine
 62
7
  6
CONTINUOUS
 10
-10.9228403537
 20
-4.285434018
 11
-10.9228403537
 21
-4.1769233926
  0
LINE
  5
27A
100
AcDbEntity
  8
0
100
AcDbLine
 62
7
  6
CONTINUOUS
 10
-10.7811738221
 20
-3.5620297982
 11
-10.7811738221
 21
-3.4535191729
  0
LINE
  5
27B
100
AcDbEntity
  8
0
100
AcDbLine
 62
7
  6
CONTINUOUS
 10
-10.7457572905
 20
-4.285434018
 11
-10.7457572905
 21
-4.1769233926
  0
LINE
  5
27C
100
AcDbEntity
  8
0
100
AcDbLine
 62
7
  6
CONTINUOUS
 10
-10.4624238221
 20
-4.2130936011
 11
-10.4624238221
 21
-3.9960722997
  0
LINE
  5
27D
100
AcDbEntity
  8
0
100
AcDbLine
 62
7
  6
CONTINUOUS
 10
-12.3395070879
 20
-4.2130936011
 11
-12.3040905563
 21
-4.0322425081
  0
LINE
  5
27E
100
AcDbEntity
  8
0
100
AcDbLine
 62
7
  6
CONTINUOUS
 10
-12.3749238221
 20
-4.3216042264
 11
-12.3395070879
 21
-4.2130936011
  0
LINE
  5
27F
100
AcDbEntity
  8
0
100
AcDbLine
 62
7
  6
CONTINUOUS
 10
-11.9853405563
 20
-3.4535191729
 11
-11.9145070879
 21
-3.2726680293
  0
LINE
  5
280
100
AcDbEntity
  8
0
100
AcDbLine
 62
7
  6
CONTINUOUS
 10
-14.1457571892
 20
-3.6343702151
 11
-14.0749238221
 21
-3.4896893813
  0
LINE
  5
281
100
AcDbEntity
  8
0
100
AcDbLine
 62
7
  6
CONTINUOUS
 10
-13.5082571892
 20
-3.4173488631
 11
-13.4374238221
 21
-3.2726680293
  0
LINE
  5
282
100
AcDbEntity
  8
0
100
AcDbLine
 62
7
  6
CONTINUOUS
 10
-14.9249238221
 20
-3.4173488631
 11
-14.8540904803
 21
-3.3088382377
  0
LINE
  5
283
100
AcDbEntity
  8
RACCORDO
100
AcDbLine
 62
7
  6
CONTINUOUS
 10
3.2788577011
 20
-9.5558707008
 11
3.704841151
 21
-9.4652771848
  0
LINE
  5
284
100
AcDbEntity
  8
RACCORDO
100
AcDbLine
 62
7
  6
CONTINUOUS
 10
3.356622477
 20
-11.0954135106
 11
3.704841151
 21
-11.0638046791
  0
LINE
  5
285
100
AcDbEntity
  8
RACCORDO
100
AcDbLine
 62
7
  6
CONTINUOUS
 10
-7.943377523
 20
-11.0954135106
 11
-7.595158849
 21
-11.0638046791
  0
LINE
  5
286
100
AcDbEntity
  8
0
100
AcDbLine
 62
7
  6
CONTINUOUS
 10
-21.9102056273
 20
-11.0954135106
 11
-19.143377523
 21
-11.0954135106
  0
LINE
  5
287
100
AcDbEntity
  8
DRAFT
100
AcDbLine
 62
7
  6
CONTINUOUS
 10
-14.7314701212
 20
-11.0954135106
 11
-7.943377523
 21
-11.0954135106
  0
LINE
  5
288
100
AcDbEntity
  8
DRAFT
100
AcDbLine
 62
7
  6
CONTINUOUS
 10
-3.5314701212
 20
-11.0954135106
 11
3.356622477
 21
-11.0954135106
  0
LINE
  5
289
100
AcDbEntity
  8
DRAFT
100
AcDbLine
 62
7
  6
CONTINUOUS
 10
7.7685298788
 20
-11.0954135106
 11
14.556622477
 21
-11.0954135106
  0
LINE
  5
28A
100
AcDbEntity
  8
0
100
AcDbLine
 62
7
  6
CONTINUOUS
 10
18.9685298788
 20
-11.0954135106
 11
21.7353579832
 21
-11.0954135106
  0
LINE
  5
28B
100
AcDbEntity
  8
RACCORDO
100
AcDbLine
 62
7
  6
CONTINUOUS
 10
-18.6219537683
 20
-11.0585639011
 11
-15.2528938759
 21
-11.0585639011
  0
LINE
  5
28C
100
AcDbEntity
  8
RACCORDO
100
AcDbLine
 62
7
  6
CONTINUOUS
 10
-7.4219537683
 20
-11.0585639011
 11
-4.0528938759
 21
-11.0585639011
  0
LINE
  5
28D
100
AcDbEntity
  8
RACCORDO
100
AcDbLine
 62
7
  6
CONTINUOUS
 10
3.8780462317
 20
-11.0585639011
 11
7.2471061241
 21
-11.0585639011
  0
LINE
  5
28E
100
AcDbEntity
  8
RACCORDO
100
AcDbLine
 62
7
  6
CONTINUOUS
 10
15.0780462317
 20
-11.0585639011
 11
18.4471061241
 21
-11.0585639011
  0
LINE
  5
28F
100
AcDbEntity
  8
RACCORDO
100
AcDbLine
 62
7
  6
CONTINUOUS
 10
-3.5314701212
 20
-11.0954135106
 11
-3.8796887952
 21
-11.0638046791
  0
LINE
  5
290
100
AcDbEntity
  8
RACCORDO
100
AcDbLine
 62
7
  6
CONTINUOUS
 10
7.7685298788
 20
-11.0954135106
 11
7.4203112048
 21
-11.0638046791
  0
LINE
  5
291
100
AcDbEntity
  8
RACCORDO
100
AcDbLine
 62
7
  6
CONTINUOUS
 10
-3.4537053453
 20
-9.5558707008
 11
-3.8796887952
 21
-9.4652771848
  0
LINE
  5
292
100
AcDbEntity
  8
0
100
AcDbLine
 62
7
  6
CONTINUOUS
 10
-13.1540905563
 20
-4.6833063585
 11
-13.3311738221
 21
-4.5747957236
  0
LINE
  5
293
100
AcDbEntity
  8
0
100
AcDbLine
 62
7
  6
CONTINUOUS
 10
-11.6665903537
 20
-4.6833063585
 11
-11.8436738221
 21
-4.5747957236
  0
LINE
  5
294
100
AcDbEntity
  8
0
100
AcDbLine
 62
7
  6
CONTINUOUS
 10
-13.1186738221
 20
-4.502455294
 11
-13.2249238221
 21
-4.4301148771
  0
LINE
  5
295
100
AcDbEntity
  8
0
100
AcDbLine
 62
7
  6
CONTINUOUS
 10
-14.1457571892
 20
-3.3088382377
 11
-14.2520071892
 21
-3.2364978208
  0
LINE
  5
296
100
AcDbEntity
  8
0
100
AcDbLine
 62
7
  6
CONTINUOUS
 10
-12.6582570879
 20
-3.3088382377
 11
-12.7645070879
 21
-3.2364978208
  0
LINE
  5
297
100
AcDbEntity
  8
0
100
AcDbLine
 62
7
  6
CONTINUOUS
 10
-11.5957572905
 20
-3.7428808405
 11
-11.7374238221
 21
-3.6343702151
  0
LINE
  5
298
100
AcDbEntity
  8
0
100
AcDbLine
 62
7
  6
CONTINUOUS
 10
-12.4457570879
 20
-3.2726680293
 11
-12.5520070879
 21
-3.1641574039
  0
LINE
  5
299
100
AcDbEntity
  8
0
100
AcDbLine
 62
7
  6
CONTINUOUS
 10
-11.8082570879
 20
-3.8152212574
 11
-11.9145070879
 21
-3.706710632
  0
LINE
  5
29A
100
AcDbEntity
  8
0
100
AcDbLine
 62
7
  6
CONTINUOUS
 10
-10.8520072905
 20
-3.2726680293
 11
-10.9582572905
 21
-3.1641574039
  0
LINE
  5
29B
100
AcDbEntity
  8
0
100
AcDbLine
 62
7
  6
CONTINUOUS
 10
-10.9228403537
 20
-4.1769233926
 11
-11.0290903537
 21
-4.0322425081
  0
LINE
  5
29C
100
AcDbEntity
  8
0
100
AcDbLine
 62
7
  6
CONTINUOUS
 10
-10.9582572905
 20
-3.4535191729
 11
-11.0290903537
 21
-3.3450084462
  0
LINE
  5
29D
100
AcDbEntity
  8
0
100
AcDbLine
 62
7
  6
CONTINUOUS
 10
-10.7811738221
 20
-3.4535191729
 11
-10.8520072905
 21
-3.2726680293
  0
LINE
  5
29E
100
AcDbEntity
  8
DRAFT
100
AcDbLine
 62
7
  6
CONTINUOUS
 10
-7.943377523
 20
-11.0954135106
 11
-8.0211422989
 21
-9.5558707008
  0
LINE
  5
29F
100
AcDbEntity
  8
0
100
AcDbLine
 62
7
  6
CONTINUOUS
 10
-9.6124238221
 20
-4.7194765701
 11
-9.6124238221
 21
-4.2130936011
  0
LINE
  5
2A0
100
AcDbEntity
  8
0
100
AcDbLine
 62
7
  6
CONTINUOUS
 10
-9.6124238221
 20
-3.9960722997
 11
-9.6124238221
 21
-3.3088382377
  0
LINE
  5
2A1
100
AcDbEntity
  8
0
100
AcDbLine
 62
7
  6
CONTINUOUS
 10
-9.3999238221
 20
-4.7194765701
 11
-9.3999238221
 21
-4.2130936011
  0
LINE
  5
2A2
100
AcDbEntity
  8
0
100
AcDbLine
 62
7
  6
CONTINUOUS
 10
-9.3999238221
 20
-3.9960722997
 11
-9.3999238221
 21
-3.0194765701
  0
LINE
  5
2A3
100
AcDbEntity
  8
0
100
AcDbLine
 62
7
  6
CONTINUOUS
 10
-9.0457572905
 20
-4.2130936011
 11
-9.0457572905
 21
-3.9960722997
  0
LINE
  5
2A4
100
AcDbEntity
  8
0
100
AcDbLine
 62
7
  6
CONTINUOUS
 10
-8.7624238221
 20
-4.7194765701
 11
-8.7624238221
 21
-4.5386255025
  0
LINE
  5
2A5
100
AcDbEntity
  8
0
100
AcDbLine
 62
7
  6
CONTINUOUS
 10
-12.0207570879
 20
-4.1769233926
 11
-11.9499238221
 21
-3.9960722997
  0
LINE
  5
2A6
100
AcDbEntity
  8
0
100
AcDbLine
 62
7
  6
CONTINUOUS
 10
-10.8165903537
 20
-4.4662850856
 11
-10.7457572905
 21
-4.285434018
  0
LINE
  5
2A7
100
AcDbEntity
  8
0
100
AcDbLine
 62
7
  6
CONTINUOUS
 10
-12.4457570879
 20
-4.4662850856
 11
-12.3749238221
 21
-4.3216042264
  0
LINE
  5
2A8
100
AcDbEntity
  8
0
100
AcDbLine
 62
7
  6
CONTINUOUS
 10
-13.9686738221
 20
-3.7428808405
 11
-13.897840455
 21
-3.6343702151
  0
LINE
  5
2A9
100
AcDbEntity
  8
0
100
AcDbLine
 62
7
  6
CONTINUOUS
 10
-13.3665905563
 20
-3.5258595898
 11
-13.2249238221
 21
-3.3088382377
  0
LINE
  5
2AA
100
AcDbEntity
  8
0
100
AcDbLine
 62
7
  6
CONTINUOUS
 10
-12.6582570879
 20
-4.4301148771
 11
-12.5165905563
 21
-4.2130936011
  0
LINE
  5
2AB
100
AcDbEntity
  8
0
100
AcDbLine
 62
7
  6
CONTINUOUS
 10
-15.0665904867
 20
-3.2726680293
 11
-14.9249238221
 21
-3.1279871954
  0
LINE
  5
2AC
100
AcDbEntity
  8
RACCORDO
100
AcDbLine
 62
253
  6
CONTINUOUS
 10
-16.7283986032
 20
-4.4283026445
 11
-16.7771609132
 21
-4.4770649544
  0
LINE
  5
2AD
100
AcDbEntity
  8
RACCORDO
100
AcDbLine
 62
253
  6
CONTINUOUS
 10
-16.4793329393
 20
-4.678932394
 11
-16.5273132064
 21
-4.7269126612
  0
LINE
  5
2AE
100
AcDbEntity
  8
RACCORDO
100
AcDbLine
 62
7
  6
CONTINUOUS
 10
-19.143377523
 20
-11.0954135106
 11
-18.795158849
 21
-11.0638046791
  0
LINE
  5
2AF
100
AcDbEntity
  8
RACCORDO
100
AcDbLine
 62
7
  6
CONTINUOUS
 10
-21.026260496
 20
-9.5558707008
 11
-19.2211422989
 21
-9.5558707008
  0
LINE
  5
2B0
100
AcDbEntity
  8
DRAFT
100
AcDbLine
 62
7
  6
CONTINUOUS
 10
-14.6537053453
 20
-9.5558707008
 11
-8.0211422989
 21
-9.5558707008
  0
LINE
  5
2B1
100
AcDbEntity
  8
DRAFT
100
AcDbLine
 62
7
  6
CONTINUOUS
 10
-3.4537053453
 20
-9.5558707008
 11
3.2788577011
 21
-9.5558707008
  0
LINE
  5
2B2
100
AcDbEntity
  8
DRAFT
100
AcDbLine
 62
7
  6
CONTINUOUS
 10
7.8462946547
 20
-9.5558707008
 11
14.4788577011
 21
-9.5558707008
  0
LINE
  5
2B3
100
AcDbEntity
  8
RACCORDO
100
AcDbLine
 62
7
  6
CONTINUOUS
 10
19.0462946547
 20
-9.5558707008
 11
20.8514128518
 21
-9.5558707008
  0
LINE
  5
2B4
100
AcDbEntity
  8
RACCORDO
100
AcDbLine
 62
7
  6
CONTINUOUS
 10
-18.6219537683
 20
-9.4529987287
 11
-17.3164713604
 21
-9.4529987287
  0
LINE
  5
2B5
100
AcDbEntity
  8
RACCORDO
100
AcDbLine
 62
7
  6
CONTINUOUS
 10
-16.5583762838
 20
-9.4529987287
 11
-15.2528938759
 21
-9.4529987287
  0
LINE
  5
2B6
100
AcDbEntity
  8
RACCORDO
100
AcDbLine
 62
7
  6
CONTINUOUS
 10
-7.4219537683
 20
-9.4529987287
 11
-6.1374238221
 21
-9.4529987287
  0
LINE
  5
2B7
100
AcDbEntity
  8
RACCORDO
100
AcDbLine
 62
7
  6
CONTINUOUS
 10
-5.3374238221
 20
-9.4529987287
 11
-4.0528938759
 21
-9.4529987287
  0
LINE
  5
2B8
100
AcDbEntity
  8
RACCORDO
100
AcDbLine
 62
7
  6
CONTINUOUS
 10
3.8780462317
 20
-9.4529987287
 11
5.1625761779
 21
-9.4529987287
  0
LINE
  5
2B9
100
AcDbEntity
  8
RACCORDO
100
AcDbLine
 62
7
  6
CONTINUOUS
 10
5.9625761779
 20
-9.4529987287
 11
7.2471061241
 21
-9.4529987287
  0
LINE
  5
2BA
100
AcDbEntity
  8
RACCORDO
100
AcDbLine
 62
7
  6
CONTINUOUS
 10
15.0780462317
 20
-9.4529987287
 11
16.3835286396
 21
-9.4529987287
  0
LINE
  5
2BB
100
AcDbEntity
  8
RACCORDO
100
AcDbLine
 62
7
  6
CONTINUOUS
 10
17.1416237162
 20
-9.4529987287
 11
18.4471061241
 21
-9.4529987287
  0
LINE
  5
2BC
100
AcDbEntity
  8
RACCORDO
100
AcDbLine
 62
253
  6
CONTINUOUS
 10
20.8092499975
 20
-9.2592835742
 11
17.196717632
 21
-9.2592835742
  0
LINE
  5
2BD
100
AcDbEntity
  8
RACCORDO
100
AcDbLine
 62
253
  6
CONTINUOUS
 10
16.3284347238
 20
-9.2592835742
 11
5.9625761779
 21
-9.2592835742
  0
LINE
  5
2BE
100
AcDbEntity
  8
RACCORDO
100
AcDbLine
 62
253
  6
CONTINUOUS
 10
5.1625761779
 20
-9.2592835742
 11
-5.3374238221
 21
-9.2592835742
  0
LINE
  5
2BF
100
AcDbEntity
  8
RACCORDO
100
AcDbLine
 62
253
  6
CONTINUOUS
 10
-6.1374238221
 20
-9.2592835742
 11
-16.503282368
 21
-9.2592835742
  0
LINE
  5
2C0
100
AcDbEntity
  8
RACCORDO
100
AcDbLine
 62
7
  6
CONTINUOUS
 10
16.8993835715
 20
-9.2461331826
 11
16.6257687843
 21
-9.2461331826
  0
LINE
  5
2C1
100
AcDbEntity
  8
RACCORDO
100
AcDbLine
 62
7
  6
CONTINUOUS
 10
5.7125761779
 20
-9.2461331826
 11
5.4125761779
 21
-9.2461331826
  0
LINE
  5
2C2
100
AcDbEntity
  8
RACCORDO
100
AcDbLine
 62
7
  6
CONTINUOUS
 10
-5.5874238221
 20
-9.2461331826
 11
-5.8874238221
 21
-9.2461331826
  0
LINE
  5
2C3
100
AcDbEntity
  8
RACCORDO
100
AcDbLine
 62
7
  6
CONTINUOUS
 10
-16.8006164285
 20
-9.2461331826
 11
-17.0742312157
 21
-9.2461331826
  0
LINE
  5
2C4
100
AcDbEntity
  8
RACCORDO
100
AcDbLine
 62
7
  6
CONTINUOUS
 10
-17.3768737357
 20
-9.2406185539
 11
-20.9814442206
 21
-9.2406185539
  0
LINE
  5
2C5
100
AcDbEntity
  8
RACCORDO
100
AcDbLine
 62
253
  6
CONTINUOUS
 10
20.8092499213
 20
-9.0888232652
 11
17.2027816065
 21
-9.0888232652
  0
LINE
  5
2C6
100
AcDbEntity
  8
RACCORDO
100
AcDbLine
 62
253
  6
CONTINUOUS
 10
16.3223707493
 20
-9.0888232652
 11
5.9625761779
 21
-9.0888232652
  0
LINE
  5
2C7
100
AcDbEntity
  8
RACCORDO
100
AcDbLine
 62
253
  6
CONTINUOUS
 10
5.1625761779
 20
-9.0888232652
 11
-5.3374238221
 21
-9.0888232652
  0
LINE
  5
2C8
100
AcDbEntity
  8
RACCORDO
100
AcDbLine
 62
253
  6
CONTINUOUS
 10
-6.1374238221
 20
-9.0888232652
 11
-16.4972183935
 21
-9.0888232652
  0
LINE
  5
2C9
100
AcDbEntity
  8
RACCORDO
100
AcDbLine
 62
7
  6
CONTINUOUS
 10
18.9685298788
 20
-11.0954135106
 11
18.6203112048
 21
-11.0638046791
  0
LINE
  5
2CA
100
AcDbEntity
  8
0
100
AcDbLine
 62
7
  6
CONTINUOUS
 10
-11.5957572905
 20
-4.502455294
 11
-11.7374238221
 21
-4.4301148771
  0
LINE
  5
2CB
100
AcDbEntity
  8
0
100
AcDbLine
 62
7
  6
CONTINUOUS
 10
-14.0395071892
 20
-3.1279871954
 11
-14.1811738221
 21
-3.0556467785
  0
LINE
  5
2CC
100
AcDbEntity
  8
0
100
AcDbLine
 62
7
  6
CONTINUOUS
 10
-11.7374238221
 20
-3.8513914658
 11
-11.8082570879
 21
-3.8152212574
  0
LINE
  5
2CD
100
AcDbEntity
  8
0
100
AcDbLine
 62
7
  6
CONTINUOUS
 10
-11.0290903537
 20
-4.0322425081
 11
-11.1707572905
 21
-3.9599020912
  0
LINE
  5
2CE
100
AcDbEntity
  8
0
100
AcDbLine
 62
7
  6
CONTINUOUS
 10
-10.9582572905
 20
-3.8875616743
 11
-11.0290903537
 21
-3.8513914658
  0
LINE
  5
2CF
100
AcDbEntity
  8
0
100
AcDbLine
 62
7
  6
CONTINUOUS
 10
-12.5520070879
 20
-3.1641574039
 11
-12.7290905563
 21
-3.0556467785
  0
LINE
  5
2D0
100
AcDbEntity
  8
0
100
AcDbLine
 62
7
  6
CONTINUOUS
 10
-10.9582572905
 20
-3.1641574039
 11
-11.1353403537
 21
-3.0556467785
  0
LINE
  5
2D1
100
AcDbEntity
  8
0
100
AcDbLine
 62
7
  6
CONTINUOUS
 10
-10.8165903537
 20
-3.9960722997
 11
-10.9582572905
 21
-3.8875616743
  0
LINE
  5
2D2
100
AcDbEntity
  8
0
100
AcDbLine
 62
7
  6
CONTINUOUS
 10
-11.0290903537
 20
-3.3450084462
 11
-11.1707572905
 21
-3.2364978208
  0
LINE
  5
2D3
100
AcDbEntity
  8
RACCORDO
100
AcDbLine
 62
253
  6
CONTINUOUS
 10
-18.3671094782
 20
4.8925557775
 11
-18.3945124267
 21
4.919958726
  0
LINE
  5
2D4
100
AcDbEntity
  8
RACCORDO
100
AcDbLine
 62
253
  6
CONTINUOUS
 10
-18.0670914221
 20
5.1924463385
 11
-18.0945581645
 21
5.2199130809
  0
LINE
  5
2D5
100
AcDbEntity
  8
RACCORDO
100
AcDbLine
 62
253
  6
CONTINUOUS
 10
-21.2374238221
 20
9.6128548909
 11
-21.1675857971
 21
9.5430168659
  0
LINE
  5
2D6
100
AcDbEntity
  8
0
100
AcDbLine
 62
7
  6
CONTINUOUS
 10
-7.6999238221
 20
-3.4173488631
 11
-7.7707568852
 21
-3.3088382377
  0
LINE
  5
2D7
100
AcDbEntity
  8
0
100
AcDbLine
 62
7
  6
CONTINUOUS
 10
-7.6999238221
 20
-3.4896893813
 11
-7.6999238221
 21
-3.4173488631
  0
LINE
  5
2D8
100
AcDbEntity
  8
RACCORDO
100
AcDbLine
 62
253
  6
CONTINUOUS
 10
-7.595158849
 20
-11.0638046791
 11
-7.595158849
 21
-9.4652771848
  0
LINE
  5
2D9
100
AcDbEntity
  8
0
100
AcDbLine
 62
7
  6
CONTINUOUS
 10
-7.4874238221
 20
-4.7194765701
 11
-7.4874238221
 21
-4.5386255025
  0
LINE
  5
2DA
100
AcDbEntity
  8
0
100
AcDbLine
 62
7
  6
CONTINUOUS
 10
-7.4874238221
 20
-3.4896893813
 11
-7.4874238221
 21
-3.4173488631
  0
LINE
  5
2DB
100
AcDbEntity
  8
RACCORDO
100
AcDbLine
 62
253
  6
CONTINUOUS
 10
-7.4219537683
 20
-11.0585639011
 11
-7.4219537683
 21
-9.4529987287
  0
LINE
  5
2DC
100
AcDbEntity
  8
0
100
AcDbLine
 62
7
  6
CONTINUOUS
 10
-8.7270072905
 20
-3.4173488631
 11
-8.6915903537
 21
-3.2726680293
  0
LINE
  5
2DD
100
AcDbEntity
  8
0
100
AcDbLine
 62
7
  6
CONTINUOUS
 10
-10.8520072905
 20
-3.706710632
 11
-10.7811738221
 21
-3.5620297982
  0
LINE
  5
2DE
100
AcDbEntity
  8
0
100
AcDbLine
 62
7
  6
CONTINUOUS
 10
-11.8082570879
 20
-3.4535191729
 11
-11.7374238221
 21
-3.3450084462
  0
LINE
  5
2DF
100
AcDbEntity
  8
0
100
AcDbLine
 62
7
  6
CONTINUOUS
 10
-11.0290903537
 20
-3.6343702151
 11
-10.9582572905
 21
-3.5258595898
  0
LINE
  5
2E0
100
AcDbEntity
  8
0
100
AcDbLine
 62
7
  6
CONTINUOUS
 10
-11.8436738221
 20
-4.1769233926
 11
-11.7374238221
 21
-4.0322425081
  0
LINE
  5
2E1
100
AcDbEntity
  8
0
100
AcDbLine
 62
7
  6
CONTINUOUS
 10
-13.4374238221
 20
-3.2726680293
 11
-13.3311738221
 21
-3.1641574039
  0
LINE
  5
2E2
100
AcDbEntity
  8
0
100
AcDbLine
 62
7
  6
CONTINUOUS
 10
-15.1374238221
 20
-4.5386255025
 11
-14.1457571892
 21
-3.6343702151
  0
LINE
  5
2E3
100
AcDbEntity
  8
0
100
AcDbLine
 62
7
  6
CONTINUOUS
 10
-14.8540904803
 20
-4.5386255025
 11
-13.9686738221
 21
-3.7428808405
  0
LINE
  5
2E4
100
AcDbEntity
  8
RACCORDO
100
AcDbLine
 62
7
  6
CONTINUOUS
 10
-8.0211422989
 20
-9.5558707008
 11
-7.595158849
 21
-9.4652771848
  0
LINE
  5
2E5
100
AcDbEntity
  8
RACCORDO
100
AcDbLine
 62
253
  6
CONTINUOUS
 10
16.861952296
 20
-6.9474544778
 11
16.6632000598
 21
-6.9474544778
  0
LINE
  5
2E6
100
AcDbEntity
  8
RACCORDO
100
AcDbLine
 62
253
  6
CONTINUOUS
 10
-16.838047704
 20
-6.9474544778
 11
-17.0367999402
 21
-6.9474544778
  0
LINE
  5
2E7
100
AcDbEntity
  8
RACCORDO
100
AcDbLine
 62
253
  6
CONTINUOUS
 10
5.7125761779
 20
-6.9474526498
 11
5.4125761779
 21
-6.9474526498
  0
LINE
  5
2E8
100
AcDbEntity
  8
RACCORDO
100
AcDbLine
 62
253
  6
CONTINUOUS
 10
-5.5874238221
 20
-6.9474526498
 11
-5.8874238221
 21
-6.9474526498
  0
LINE
  5
2E9
100
AcDbEntity
  8
RACCORDO
100
AcDbLine
 62
253
  6
CONTINUOUS
 10
5.1625761779
 20
-6.8206671713
 11
5.9625761779
 21
-6.8206671713
  0
LINE
  5
2EA
100
AcDbEntity
  8
RACCORDO
100
AcDbLine
 62
253
  6
CONTINUOUS
 10
-5.3374238221
 20
-6.8206671713
 11
-6.1374238221
 21
-6.8206671713
  0
LINE
  5
2EB
100
AcDbEntity
  8
RACCORDO
100
AcDbLine
 62
253
  6
CONTINUOUS
 10
16.413515973
 20
-6.8206671713
 11
17.1116363828
 21
-6.8206671713
  0
LINE
  5
2EC
100
AcDbEntity
  8
RACCORDO
100
AcDbLine
 62
253
  6
CONTINUOUS
 10
-16.5883636172
 20
-6.8206671713
 11
-17.286484027
 21
-6.8206671713
  0
LINE
  5
2ED
100
AcDbEntity
  8
RACCORDO
100
AcDbLine
 62
253
  6
CONTINUOUS
 10
5.1625761779
 20
-6.5386613266
 11
5.9625761779
 21
-6.5386613266
  0
LINE
  5
2EE
100
AcDbEntity
  8
RACCORDO
100
AcDbLine
 62
253
  6
CONTINUOUS
 10
-5.3374238221
 20
-6.5386613266
 11
-6.1374238221
 21
-6.5386613266
  0
LINE
  5
2EF
100
AcDbEntity
  8
RACCORDO
100
AcDbLine
 62
253
  6
CONTINUOUS
 10
16.413515973
 20
-6.5386613266
 11
17.1116363828
 21
-6.5386613266
  0
LINE
  5
2F0
100
AcDbEntity
  8
RACCORDO
100
AcDbLine
 62
253
  6
CONTINUOUS
 10
-16.5883636172
 20
-6.5386613266
 11
-17.286484027
 21
-6.5386613266
  0
LINE
  5
2F1
100
AcDbEntity
  8
0
100
AcDbLine
 62
7
  6
CONTINUOUS
 10
-12.9415905563
 20
-4.7194765701
 11
-13.1540905563
 21
-4.6833063585
  0
LINE
  5
2F2
100
AcDbEntity
  8
0
100
AcDbLine
 62
7
  6
CONTINUOUS
 10
-12.9415905563
 20
-4.5386255025
 11
-13.1186738221
 21
-4.502455294
  0
LINE
  5
2F3
100
AcDbEntity
  8
0
100
AcDbLine
 62
7
  6
CONTINUOUS
 10
-11.4895072905
 20
-4.7194765701
 11
-11.6665903537
 21
-4.6833063585
  0
LINE
  5
2F4
100
AcDbEntity
  8
RACCORDO
100
AcDbLine
 62
7
  6
CONTINUOUS
 10
7.8462946547
 20
-9.5558707008
 11
7.4203112048
 21
-9.4652771848
  0
LINE
  5
2F5
100
AcDbEntity
  8
0
100
AcDbLine
 62
7
  6
CONTINUOUS
 10
-11.4540903537
 20
-4.5386255025
 11
-11.5957572905
 21
-4.502455294
  0
LINE
  5
2F6
100
AcDbEntity
  8
0
100
AcDbLine
 62
7
  6
CONTINUOUS
 10
-11.1707572905
 20
-3.9599020912
 11
-11.3124238221
 21
-3.9237318828
  0
LINE
  5
2F7
100
AcDbEntity
  8
0
100
AcDbLine
 62
7
  6
CONTINUOUS
 10
-11.4540903537
 20
-3.7790510489
 11
-11.5957572905
 21
-3.7428808405
  0
LINE
  5
2F8
100
AcDbEntity
  8
0
100
AcDbLine
 62
7
  6
CONTINUOUS
 10
-7.7707568852
 20
-3.3088382377
 11
-7.8770068852
 21
-3.2364978208
  0
LINE
  5
2F9
100
AcDbEntity
  8
RACCORDO
100
AcDbLine
 62
253
  6
CONTINUOUS
 10
-21.0374542831
 20
9.8128244299
 11
-20.9641760279
 21
9.7395461747
  0
LINE
  5
2FA
100
AcDbEntity
  8
0
100
AcDbLine
 62
7
  6
CONTINUOUS
 10
-7.522840759
 20
-3.2726680293
 11
-7.6645068852
 21
-3.1279871954
  0
LINE
  5
2FB
100
AcDbEntity
  8
0
100
AcDbLine
 62
7
  6
CONTINUOUS
 10
-7.4874238221
 20
-3.4173488631
 11
-7.522840759
 21
-3.2726680293
  0
LINE
  5
2FC
100
AcDbEntity
  8
RACCORDO
100
AcDbLine
 62
7
  6
CONTINUOUS
 10
-6.1374238221
 20
-9.4529987287
 11
-6.1374238221
 21
-4.7371755701
  0
LINE
  5
2FD
100
AcDbEntity
  8
RACCORDO
100
AcDbLine
 62
253
  6
CONTINUOUS
 10
-5.8874238221
 20
-9.2461331826
 11
-5.8874238221
 21
-4.4871755701
  0
LINE
  5
2FE
100
AcDbEntity
  8
RACCORDO
100
AcDbLine
 62
253
  6
CONTINUOUS
 10
-5.5874238221
 20
-4.4871755701
 11
-5.5874238221
 21
-9.2461331826
  0
LINE
  5
2FF
100
AcDbEntity
  8
RACCORDO
100
AcDbLine
 62
7
  6
CONTINUOUS
 10
-5.3374238221
 20
-4.7371755701
 11
-5.3374238221
 21
-9.4529987287
  0
LINE
  5
300
100
AcDbEntity
  8
SUPERFICI
100
AcDbLine
 62
7
  6
CONTINUOUS
 10
-5.1966280681
 20
3.3668911184
 11
-5.1966175128
 21
7.6578529976
  0
LINE
  5
301
100
AcDbEntity
  8
0
100
AcDbLine
 62
7
  6
CONTINUOUS
 10
-7.522840759
 20
-3.6343702151
 11
-7.4874238221
 21
-3.4896893813
  0
LINE
  5
302
100
AcDbEntity
  8
0
100
AcDbLine
 62
7
  6
CONTINUOUS
 10
-7.7707568852
 20
-3.6343702151
 11
-7.6999238221
 21
-3.4896893813
  0
LINE
  5
303
100
AcDbEntity
  8
0
100
AcDbLine
 62
7
  6
CONTINUOUS
 10
-8.5499238221
 20
-3.4173488631
 11
-8.4790903537
 21
-3.3088382377
  0
LINE
  5
304
100
AcDbEntity
  8
0
100
AcDbLine
 62
7
  6
CONTINUOUS
 10
-11.0290903537
 20
-4.4301148771
 11
-10.9228403537
 21
-4.285434018
  0
LINE
  5
305
100
AcDbEntity
  8
0
100
AcDbLine
 62
7
  6
CONTINUOUS
 10
-10.4624238221
 20
-3.9960722997
 11
-9.6124238221
 21
-3.0194765701
  0
LINE
  5
306
100
AcDbEntity
  8
0
100
AcDbLine
 62
7
  6
CONTINUOUS
 10
-10.2145072905
 20
-3.9960722997
 11
-9.6124238221
 21
-3.3088382377
  0
LINE
  5
307
100
AcDbEntity
  8
0
100
AcDbLine
 62
7
  6
CONTINUOUS
 10
-11.9145070879
 20
-3.2726680293
 11
-11.8082570879
 21
-3.1641574039
  0
LINE
  5
308
100
AcDbEntity
  8
0
100
AcDbLine
 62
7
  6
CONTINUOUS
 10
-12.5520070879
 20
-4.5747957236
 11
-12.4457570879
 21
-4.4662850856
  0
LINE
  5
309
100
AcDbEntity
  8
0
100
AcDbLine
 62
7
  6
CONTINUOUS
 10
-10.9582572905
 20
-3.8152212574
 11
-10.8520072905
 21
-3.706710632
  0
LINE
  5
30A
100
AcDbEntity
  8
0
100
AcDbLine
 62
7
  6
CONTINUOUS
 10
-14.8540904803
 20
-3.3088382377
 11
-14.7478404803
 21
-3.2364978208
  0
LINE
  5
30B
100
AcDbEntity
  8
RACCORDO
100
AcDbLine
 62
7
  6
CONTINUOUS
 10
-19.2211422989
 20
-9.5558707008
 11
-18.795158849
 21
-9.4652771848
  0
LINE
  5
30C
100
AcDbEntity
  8
RACCORDO
100
AcDbLine
 62
253
  6
CONTINUOUS
 10
5.7125761779
 20
-6.2432190007
 11
5.4125761779
 21
-6.2432190007
  0
LINE
  5
30D
100
AcDbEntity
  8
RACCORDO
100
AcDbLine
 62
253
  6
CONTINUOUS
 10
-5.5874238221
 20
-6.2432190007
 11
-5.8874238221
 21
-6.2432190007
  0
LINE
  5
30E
100
AcDbEntity
  8
RACCORDO
100
AcDbLine
 62
253
  6
CONTINUOUS
 10
16.863231595
 20
-6.2432186128
 11
16.6619207608
 21
-6.2432186128
  0
LINE
  5
30F
100
AcDbEntity
  8
RACCORDO
100
AcDbLine
 62
253
  6
CONTINUOUS
 10
-16.836768405
 20
-6.2432186128
 11
-17.0380792392
 21
-6.2432186128
  0
LINE
  5
310
100
AcDbEntity
  8
RACCORDO
100
AcDbLine
 62
7
  6
CONTINUOUS
 10
-17.088787418
 20
-5.9871755701
 11
-16.7860602262
 21
-5.9871755701
  0
LINE
  5
311
100
AcDbEntity
  8
RACCORDO
100
AcDbLine
 62
7
  6
CONTINUOUS
 10
16.9139397738
 20
-5.9871755701
 11
16.611212582
 21
-5.9871755701
  0
LINE
  5
312
100
AcDbEntity
  8
RACCORDO
100
AcDbLine
 62
7
  6
CONTINUOUS
 10
-5.8874238221
 20
-5.9871755701
 11
-5.5874238221
 21
-5.9871755701
  0
LINE
  5
313
100
AcDbEntity
  8
RACCORDO
100
AcDbLine
 62
7
  6
CONTINUOUS
 10
5.4125761779
 20
-5.9871755701
 11
5.7125761779
 21
-5.9871755701
  0
LINE
  5
314
100
AcDbEntity
  8
0
100
AcDbLine
 62
7
  6
CONTINUOUS
 10
-14.1811738221
 20
-3.0556467785
 11
-14.3936738221
 21
-3.0194765701
  0
LINE
  5
315
100
AcDbEntity
  8
0
100
AcDbLine
 62
7
  6
CONTINUOUS
 10
-12.7290905563
 20
-3.0556467785
 11
-12.9415905563
 21
-3.0194765701
  0
LINE
  5
316
100
AcDbEntity
  8
0
100
AcDbLine
 62
7
  6
CONTINUOUS
 10
-14.2520071892
 20
-3.2364978208
 11
-14.4290905057
 21
-3.2003276123
  0
LINE
  5
317
100
AcDbEntity
  8
0
100
AcDbLine
 62
7
  6
CONTINUOUS
 10
-12.7645070879
 20
-3.2364978208
 11
-12.9415905563
 21
-3.2003276123
  0
LINE
  5
318
100
AcDbEntity
  8
0
100
AcDbLine
 62
7
  6
CONTINUOUS
 10
-11.1353403537
 20
-3.0556467785
 11
-11.3124238221
 21
-3.0194765701
  0
LINE
  5
319
100
AcDbEntity
  8
RACCORDO
100
AcDbLine
 62
7
  6
CONTINUOUS
 10
19.0462946547
 20
-9.5558707008
 11
18.6203112048
 21
-9.4652771848
  0
LINE
  5
31A
100
AcDbEntity
  8
0
100
AcDbLine
 62
7
  6
CONTINUOUS
 10
-11.1707572905
 20
-3.2364978208
 11
-11.3124238221
 21
-3.2003276123
  0
LINE
  5
31B
100
AcDbEntity
  8
0
100
AcDbLine
 62
7
  6
CONTINUOUS
 10
-7.6645068852
 20
-3.1279871954
 11
-7.8061738221
 21
-3.0556467785
  0
LINE
  5
31C
100
AcDbEntity
  8
RACCORDO
100
AcDbLine
 62
7
  6
CONTINUOUS
 10
-18.0665107617
 20
9.7395461747
 11
-18.0822786925
 21
9.7553141055
  0
LINE
  5
31D
100
AcDbEntity
  8
RACCORDO
100
AcDbLine
 62
253
  6
CONTINUOUS
 10
-4.0528938759
 20
-9.4529987287
 11
-4.0528938759
 21
-11.0585639011
  0
LINE
  5
31E
100
AcDbEntity
  8
RACCORDO
100
AcDbLine
 62
253
  6
CONTINUOUS
 10
-3.8796887952
 20
-9.4652771848
 11
-3.8796887952
 21
-11.0638046791
  0
LINE
  5
31F
100
AcDbEntity
  8
0
100
AcDbLine
 62
7
  6
CONTINUOUS
 10
-7.5936738221
 20
-3.7428808405
 11
-7.522840759
 21
-3.6343702151
  0
LINE
  5
320
100
AcDbEntity
  8
0
100
AcDbLine
 62
7
  6
CONTINUOUS
 10
-10.9228403537
 20
-4.5747957236
 11
-10.8165903537
 21
-4.4662850856
  0
LINE
  5
321
100
AcDbEntity
  8
0
100
AcDbLine
 62
7
  6
CONTINUOUS
 10
-8.6915903537
 20
-3.2726680293
 11
-8.5499238221
 21
-3.1279871954
  0
LINE
  5
322
100
AcDbEntity
  8
0
100
AcDbLine
 62
7
  6
CONTINUOUS
 10
-11.7374238221
 20
-3.3450084462
 11
-11.5957572905
 21
-3.2364978208
  0
LINE
  5
323
100
AcDbEntity
  8
0
100
AcDbLine
 62
7
  6
CONTINUOUS
 10
-11.9499238221
 20
-3.9960722997
 11
-11.8082570879
 21
-3.8875616743
  0
LINE
  5
324
100
AcDbEntity
  8
0
100
AcDbLine
 62
7
  6
CONTINUOUS
 10
-11.1707572905
 20
-3.7428808405
 11
-11.0290903537
 21
-3.6343702151
  0
LINE
  5
325
100
AcDbEntity
  8
0
100
AcDbLine
 62
7
  6
CONTINUOUS
 10
-13.2249238221
 20
-3.3088382377
 11
-13.1186738221
 21
-3.2364978208
  0
LINE
  5
326
100
AcDbEntity
  8
0
100
AcDbLine
 62
7
  6
CONTINUOUS
 10
-12.7645070879
 20
-4.502455294
 11
-12.6582570879
 21
-4.4301148771
  0
LINE
  5
327
100
AcDbEntity
  8
0
100
AcDbLine
 62
7
  6
CONTINUOUS
 10
-13.3311738221
 20
-3.1641574039
 11
-13.1540905563
 21
-3.0556467785
  0
LINE
  5
328
100
AcDbEntity
  8
0
100
AcDbLine
 62
7
  6
CONTINUOUS
 10
-11.8082570879
 20
-3.1641574039
 11
-11.6311738221
 21
-3.0556467785
  0
LINE
  5
329
100
AcDbEntity
  8
0
100
AcDbLine
 62
7
  6
CONTINUOUS
 10
-14.9249238221
 20
-3.1279871954
 11
-14.7832571639
 21
-3.0556467785
  0
LINE
  5
32A
100
AcDbEntity
  8
RACCORDO
100
AcDbLine
 62
253
  6
CONTINUOUS
 10
5.9625761779
 20
-4.7871755701
 11
5.1625761779
 21
-4.7871755701
  0
LINE
  5
32B
100
AcDbEntity
  8
RACCORDO
100
AcDbLine
 62
253
  6
CONTINUOUS
 10
-5.3374238221
 20
-4.7871755701
 11
-6.1374238221
 21
-4.7871755701
  0
LINE
  5
32C
100
AcDbEntity
  8
RACCORDO
100
AcDbLine
 62
253
  6
CONTINUOUS
 10
17.171001691
 20
-4.7768822025
 11
16.3541506649
 21
-4.7768822025
  0
LINE
  5
32D
100
AcDbEntity
  8
RACCORDO
100
AcDbLine
 62
253
  6
CONTINUOUS
 10
-16.528998309
 20
-4.7768822025
 11
-17.3458493351
 21
-4.7768822025
  0
LINE
  5
32E
100
AcDbEntity
  8
0
100
AcDbLine
 62
7
  6
CONTINUOUS
 10
-15.1374238221
 20
-4.7194765701
 11
-13.8624238221
 21
-4.7194765701
  0
LINE
  5
32F
100
AcDbEntity
  8
0
100
AcDbLine
 62
7
  6
CONTINUOUS
 10
-11.4895072905
 20
-4.7194765701
 11
-11.2770072905
 21
-4.7194765701
  0
LINE
  5
330
100
AcDbEntity
  8
0
100
AcDbLine
 62
7
  6
CONTINUOUS
 10
-9.6124238221
 20
-4.7194765701
 11
-9.3999238221
 21
-4.7194765701
  0
LINE
  5
331
100
AcDbEntity
  8
0
100
AcDbLine
 62
7
  6
CONTINUOUS
 10
-8.7624238221
 20
-4.7194765701
 11
-7.4874238221
 21
-4.7194765701
  0
LINE
  5
332
100
AcDbEntity
  8
0
100
AcDbLine
 62
7
  6
CONTINUOUS
 10
8.3603001779
 20
-4.7194765701
 11
8.6729921779
 21
-4.7194765701
  0
LINE
  5
333
100
AcDbEntity
  8
0
100
AcDbLine
 62
7
  6
CONTINUOUS
 10
9.3510741779
 20
-4.7194765701
 11
9.7059021779
 21
-4.7194765701
  0
LINE
  5
334
100
AcDbEntity
  8
0
100
AcDbLine
 62
7
  6
CONTINUOUS
 10
9.8969171779
 20
-4.7194765701
 11
10.2363721779
 21
-4.7194765701
  0
LINE
  5
335
100
AcDbEntity
  8
0
100
AcDbLine
 62
7
  6
CONTINUOUS
 10
10.7292001779
 20
-4.7194765701
 11
10.7789641779
 21
-4.7194765701
  0
LINE
  5
336
100
AcDbEntity
  8
0
100
AcDbLine
 62
7
  6
CONTINUOUS
 10
11.2737561779
 20
-4.7194765701
 11
11.6208721779
 21
-4.7194765701
  0
LINE
  5
337
100
AcDbEntity
  8
0
100
AcDbLine
 62
7
  6
CONTINUOUS
 10
11.6765891779
 20
-4.7194765701
 11
12.0275671779
 21
-4.7194765701
  0
LINE
  5
338
100
AcDbEntity
  8
0
100
AcDbLine
 62
7
  6
CONTINUOUS
 10
12.7006141779
 20
-4.7194765701
 11
13.0745881779
 21
-4.7194765701
  0
LINE
  5
339
100
AcDbEntity
  8
0
100
AcDbLine
 62
7
  6
CONTINUOUS
 10
13.1787828418
 20
-4.7194762568
 11
13.5321831739
 21
-4.7194762568
  0
LINE
  5
33A
100
AcDbEntity
  8
0
100
AcDbLine
 62
7
  6
CONTINUOUS
 10
14.075553393
 20
-4.7194762568
 11
14.4168567364
 21
-4.7194762568
  0
LINE
  5
33B
100
AcDbEntity
  8
0
100
AcDbLine
 62
7
  6
CONTINUOUS
 10
-14.8540904803
 20
-4.5386255025
 11
-13.8624238221
 21
-4.5386255025
  0
LINE
  5
33C
100
AcDbEntity
  8
0
100
AcDbLine
 62
7
  6
CONTINUOUS
 10
-11.4540903537
 20
-4.5386255025
 11
-11.3124238221
 21
-4.5386255025
  0
LINE
  5
33D
100
AcDbEntity
  8
0
100
AcDbLine
 62
7
  6
CONTINUOUS
 10
-8.4790903537
 20
-4.5386255025
 11
-7.4874238221
 21
-4.5386255025
  0
LINE
  5
33E
100
AcDbEntity
  8
RACCORDO
100
AcDbLine
 62
7
  6
CONTINUOUS
 10
5.7125761779
 20
-4.4871755701
 11
5.4125761779
 21
-4.4871755701
  0
LINE
  5
33F
100
AcDbEntity
  8
RACCORDO
100
AcDbLine
 62
7
  6
CONTINUOUS
 10
-5.5874238221
 20
-4.4871755701
 11
-5.8874238221
 21
-4.4871755701
  0
LINE
  5
340
100
AcDbEntity
  8
RACCORDO
100
AcDbLine
 62
253
  6
CONTINUOUS
 10
-16.7771609132
 20
-4.4770649544
 11
-17.0976868171
 21
-4.4770648683
  0
LINE
  5
341
100
AcDbEntity
  8
RACCORDO
100
AcDbLine
 62
253
  6
CONTINUOUS
 10
16.9228390868
 20
-4.4770649544
 11
16.6023131829
 21
-4.4770648683
  0
LINE
  5
342
100
AcDbEntity
  8
RACCORDO
100
AcDbLine
 62
7
  6
CONTINUOUS
 10
-17.1464490409
 20
-4.4283026445
 11
-16.7283986032
 21
-4.4283026445
  0
LINE
  5
343
100
AcDbEntity
  8
RACCORDO
100
AcDbLine
 62
7
  6
CONTINUOUS
 10
16.5535509591
 20
-4.4283026445
 11
16.9716013968
 21
-4.4283026445
  0
LINE
  5
344
100
AcDbEntity
  8
0
100
AcDbLine
 62
7
  6
CONTINUOUS
 10
12.1254781779
 20
-4.3801235701
 11
12.6086951779
 21
-4.3801235701
  0
LINE
  5
345
100
AcDbEntity
  8
0
100
AcDbLine
 62
7
  6
CONTINUOUS
 10
-10.4624238221
 20
-4.2130936011
 11
-9.6124238221
 21
-4.2130936011
  0
LINE
  5
346
100
AcDbEntity
  8
0
100
AcDbLine
 62
7
  6
CONTINUOUS
 10
-9.3999238221
 20
-4.2130936011
 11
-9.0457572905
 21
-4.2130936011
  0
LINE
  5
347
100
AcDbEntity
  8
0
100
AcDbLine
 62
7
  6
CONTINUOUS
 10
12.1980601779
 20
-4.1175335701
 11
12.5377821779
 21
-4.1175335701
  0
LINE
  5
348
100
AcDbEntity
  8
0
100
AcDbLine
 62
7
  6
CONTINUOUS
 10
13.5321831739
 20
-4.0542438542
 11
13.7224334969
 21
-4.0542438542
  0
LINE
  5
349
100
AcDbEntity
  8
0
100
AcDbLine
 62
7
  6
CONTINUOUS
 10
-10.2145072905
 20
-3.9960722997
 11
-9.6124238221
 21
-3.9960722997
  0
LINE
  5
34A
100
AcDbEntity
  8
0
100
AcDbLine
 62
7
  6
CONTINUOUS
 10
-9.3999238221
 20
-3.9960722997
 11
-9.0457572905
 21
-3.9960722997
  0
LINE
  5
34B
100
AcDbEntity
  8
0
100
AcDbLine
 62
7
  6
CONTINUOUS
 10
-11.4540903537
 20
-3.9237318828
 11
-11.3124238221
 21
-3.9237318828
  0
LINE
  5
34C
100
AcDbEntity
  8
0
100
AcDbLine
 62
7
  6
CONTINUOUS
 10
-11.4540903537
 20
-3.7790510489
 11
-11.3124238221
 21
-3.7790510489
  0
LINE
  5
34D
100
AcDbEntity
  8
0
100
AcDbLine
 62
7
  6
CONTINUOUS
 10
13.5204176095
 20
-3.7758474016
 11
13.7231983224
 21
-3.7758474016
  0
LINE
  5
34E
100
AcDbEntity
  8
0
100
AcDbLine
 62
7
  6
CONTINUOUS
 10
-15.1020071544
 20
-3.4173488631
 11
-14.9249238221
 21
-3.4173488631
  0
LINE
  5
34F
100
AcDbEntity
  8
0
100
AcDbLine
 62
7
  6
CONTINUOUS
 10
-8.7270072905
 20
-3.4173488631
 11
-8.5499238221
 21
-3.4173488631
  0
LINE
  5
350
100
AcDbEntity
  8
0
100
AcDbLine
 62
7
  6
CONTINUOUS
 10
-14.5707571385
 20
-3.2003276123
 11
-14.4290905057
 21
-3.2003276123
  0
LINE
  5
351
100
AcDbEntity
  8
0
100
AcDbLine
 62
7
  6
CONTINUOUS
 10
-11.4540903537
 20
-3.2003276123
 11
-11.3124238221
 21
-3.2003276123
  0
LINE
  5
352
100
AcDbEntity
  8
0
100
AcDbLine
 62
7
  6
CONTINUOUS
 10
-8.1957568852
 20
-3.2003276123
 11
-8.054090759
 21
-3.2003276123
  0
LINE
  5
353
100
AcDbEntity
  8
0
100
AcDbLine
 62
7
  6
CONTINUOUS
 10
-7.8061738221
 20
-3.0556467785
 11
-8.0186738221
 21
-3.0194765701
  0
LINE
  5
354
100
AcDbEntity
  8
0
100
AcDbLine
 62
7
  6
CONTINUOUS
 10
-7.8770068852
 20
-3.2364978208
 11
-8.054090759
 21
-3.2003276123
  0
LINE
  5
355
100
AcDbEntity
  8
DRAFT
100
AcDbLine
 62
7
  6
CONTINUOUS
 10
-3.5314701212
 20
-11.0954135106
 11
-3.4537053453
 21
-9.5558707008
  0
LINE
  5
356
100
AcDbEntity
  8
0
100
AcDbLine
 62
7
  6
CONTINUOUS
 10
-8.7624238221
 20
-4.5386255025
 11
-7.7707568852
 21
-3.6343702151
  0
LINE
  5
357
100
AcDbEntity
  8
0
100
AcDbLine
 62
7
  6
CONTINUOUS
 10
-8.4790903537
 20
-4.5386255025
 11
-7.5936738221
 21
-3.7428808405
  0
LINE
  5
358
100
AcDbEntity
  8
0
100
AcDbLine
 62
7
  6
CONTINUOUS
 10
-8.4790903537
 20
-3.3088382377
 11
-8.3728403537
 21
-3.2364978208
  0
LINE
  5
359
100
AcDbEntity
  8
0
100
AcDbLine
 62
7
  6
CONTINUOUS
 10
-12.7290905563
 20
-4.6833063585
 11
-12.5520070879
 21
-4.5747957236
  0
LINE
  5
35A
100
AcDbEntity
  8
0
100
AcDbLine
 62
7
  6
CONTINUOUS
 10
-11.0999238221
 20
-4.6833063585
 11
-10.9228403537
 21
-4.5747957236
  0
LINE
  5
35B
100
AcDbEntity
  8
0
100
AcDbLine
 62
7
  6
CONTINUOUS
 10
-11.8082570879
 20
-3.8875616743
 11
-11.7374238221
 21
-3.8513914658
  0
LINE
  5
35C
100
AcDbEntity
  8
0
100
AcDbLine
 62
7
  6
CONTINUOUS
 10
-11.7374238221
 20
-4.0322425081
 11
-11.5957572905
 21
-3.9599020912
  0
LINE
  5
35D
100
AcDbEntity
  8
0
100
AcDbLine
 62
7
  6
CONTINUOUS
 10
-11.0290903537
 20
-3.8513914658
 11
-10.9582572905
 21
-3.8152212574
  0
LINE
  5
35E
100
AcDbEntity
  8
0
100
AcDbLine
 62
7
  6
CONTINUOUS
 10
-11.3124238221
 20
-4.5386255025
 11
-11.1707572905
 21
-4.502455294
  0
LINE
  5
35F
100
AcDbEntity
  8
0
100
AcDbLine
 62
7
  6
CONTINUOUS
 10
-11.2770072905
 20
-4.7194765701
 11
-11.0999238221
 21
-4.6833063585
  0
LINE
  5
360
100
AcDbEntity
  8
0
100
AcDbLine
 62
7
  6
CONTINUOUS
 10
-12.9415905563
 20
-4.5386255025
 11
-12.7645070879
 21
-4.502455294
  0
LINE
  5
361
100
AcDbEntity
  8
0
100
AcDbLine
 62
7
  6
CONTINUOUS
 10
-8.3728403537
 20
-3.2364978208
 11
-8.1957568852
 21
-3.2003276123
  0
LINE
  5
362
100
AcDbEntity
  8
0
100
AcDbLine
 62
7
  6
CONTINUOUS
 10
-12.9415905563
 20
-4.7194765701
 11
-12.7290905563
 21
-4.6833063585
  0
LINE
  5
363
100
AcDbEntity
  8
0
100
AcDbLine
 62
7
  6
CONTINUOUS
 10
-8.4082572905
 20
-3.0556467785
 11
-8.160340759
 21
-3.0194765701
  0
LINE
  5
364
100
AcDbEntity
  8
0
100
AcDbLine
 62
7
  6
CONTINUOUS
 10
7.8214101779
 20
-3.0196135701
 11
8.2068631779
 21
-3.0196135701
  0
LINE
  5
365
100
AcDbEntity
  8
0
100
AcDbLine
 62
7
  6
CONTINUOUS
 10
8.8648101779
 20
-3.0196135701
 11
9.2193961779
 21
-3.0196135701
  0
LINE
  5
366
100
AcDbEntity
  8
0
100
AcDbLine
 62
7
  6
CONTINUOUS
 10
10.0504041779
 20
-3.0196135701
 11
10.4049391779
 21
-3.0196135701
  0
LINE
  5
367
100
AcDbEntity
  8
0
100
AcDbLine
 62
7
  6
CONTINUOUS
 10
11.1108481779
 20
-3.0196135701
 11
11.4619151779
 21
-3.0196135701
  0
LINE
  5
368
100
AcDbEntity
  8
0
100
AcDbLine
 62
7
  6
CONTINUOUS
 10
12.2097741779
 20
-3.0196135701
 11
12.5530281779
 21
-3.0196135701
  0
LINE
  5
369
100
AcDbEntity
  8
0
100
AcDbLine
 62
7
  6
CONTINUOUS
 10
9.3510741779
 20
-3.0195115701
 11
9.7059021779
 21
-3.0195115701
  0
LINE
  5
36A
100
AcDbEntity
  8
0
100
AcDbLine
 62
7
  6
CONTINUOUS
 10
-14.5353405057
 20
-3.0194765701
 11
-14.3936738221
 21
-3.0194765701
  0
LINE
  5
36B
100
AcDbEntity
  8
0
100
AcDbLine
 62
7
  6
CONTINUOUS
 10
-11.4540903537
 20
-3.0194765701
 11
-11.3124238221
 21
-3.0194765701
  0
LINE
  5
36C
100
AcDbEntity
  8
0
100
AcDbLine
 62
7
  6
CONTINUOUS
 10
-9.6124238221
 20
-3.0194765701
 11
-9.3999238221
 21
-3.0194765701
  0
LINE
  5
36D
100
AcDbEntity
  8
0
100
AcDbLine
 62
7
  6
CONTINUOUS
 10
-8.160340759
 20
-3.0194765701
 11
-8.0186738221
 21
-3.0194765701
  0
LINE
  5
36E
100
AcDbEntity
  8
DRAFT
100
AcDbLine
 62
7
  6
CONTINUOUS
 10
21.0457596353
 20
-2.9871755701
 11
20.5125761779
 21
-2.9871755701
  0
LINE
  5
36F
100
AcDbEntity
  8
DRAFT
100
AcDbLine
 62
7
  6
CONTINUOUS
 10
-20.6874238221
 20
-2.9871755701
 11
-21.2206072794
 21
-2.9871755701
  0
LINE
  5
370
100
AcDbEntity
  8
DRAFT
100
AcDbLine
 62
7
  6
CONTINUOUS
 10
-22.4374238221
 20
-1.9871755701
 11
-21.2374238221
 21
-1.9871755701
  0
LINE
  5
371
100
AcDbEntity
  8
DRAFT
100
AcDbLine
 62
7
  6
CONTINUOUS
 10
21.0625761779
 20
-1.9871755701
 11
22.2625761779
 21
-1.9871755701
  0
LINE
  5
372
100
AcDbEntity
  8
RACCORDO
100
AcDbLine
 62
7
  6
CONTINUOUS
 10
-1.4831708731
 20
8.221783144
 11
-1.4825516873
 21
9.8538134208
  0
LINE
  5
373
100
AcDbEntity
  8
RACCORDO
100
AcDbLine
 62
253
  6
CONTINUOUS
 10
-1.2829220528
 20
8.7001757099
 11
-1.2828233023
 21
8.9604592351
  0
LINE
  5
374
100
AcDbEntity
  8
0
100
AcDbLine
 62
7
  6
CONTINUOUS
 10
-8.5499238221
 20
-3.1279871954
 11
-8.4082572905
 21
-3.0556467785
  0
LINE
  5
375
100
AcDbEntity
  8
0
100
AcDbLine
 62
7
  6
CONTINUOUS
 10
-11.1707572905
 20
-4.502455294
 11
-11.0290903537
 21
-4.4301148771
  0
LINE
  5
376
100
AcDbEntity
  8
0
100
AcDbLine
 62
7
  6
CONTINUOUS
 10
-11.5957572905
 20
-3.9599020912
 11
-11.4540903537
 21
-3.9237318828
  0
LINE
  5
377
100
AcDbEntity
  8
0
100
AcDbLine
 62
7
  6
CONTINUOUS
 10
-11.3124238221
 20
-3.7790510489
 11
-11.1707572905
 21
-3.7428808405
  0
LINE
  5
378
100
AcDbEntity
  8
0
100
AcDbLine
 62
7
  6
CONTINUOUS
 10
-11.5957572905
 20
-3.2364978208
 11
-11.4540903537
 21
-3.2003276123
  0
LINE
  5
379
100
AcDbEntity
  8
0
100
AcDbLine
 62
7
  6
CONTINUOUS
 10
-11.6311738221
 20
-3.0556467785
 11
-11.4540903537
 21
-3.0194765701
  0
LINE
  5
37A
100
AcDbEntity
  8
0
100
AcDbLine
 62
7
  6
CONTINUOUS
 10
-13.1186738221
 20
-3.2364978208
 11
-12.9415905563
 21
-3.2003276123
  0
LINE
  5
37B
100
AcDbEntity
  8
0
100
AcDbLine
 62
7
  6
CONTINUOUS
 10
-14.7478404803
 20
-3.2364978208
 11
-14.5707571385
 21
-3.2003276123
  0
LINE
  5
37C
100
AcDbEntity
  8
0
100
AcDbLine
 62
7
  6
CONTINUOUS
 10
-13.1540905563
 20
-3.0556467785
 11
-12.9415905563
 21
-3.0194765701
  0
LINE
  5
37D
100
AcDbEntity
  8
0
100
AcDbLine
 62
7
  6
CONTINUOUS
 10
-14.7832571639
 20
-3.0556467785
 11
-14.5353405057
 21
-3.0194765701
  0
LINE
  5
37E
100
AcDbEntity
  8
RACCORDO
100
AcDbLine
 62
253
  6
CONTINUOUS
 10
1.1079756581
 20
8.9604592351
 11
1.1080744086
 21
8.7001757099
  0
LINE
  5
37F
100
AcDbEntity
  8
RACCORDO
100
AcDbLine
 62
7
  6
CONTINUOUS
 10
1.3083232289
 20
8.221783144
 11
1.3077040432
 21
9.8538134208
  0
LINE
  5
380
100
AcDbEntity
  8
DRAFT
100
AcDbLine
 62
7
  6
CONTINUOUS
 10
21.0457596353
 20
0.8128244299
 11
20.5125761779
 21
0.8128244299
  0
LINE
  5
381
100
AcDbEntity
  8
DRAFT
100
AcDbLine
 62
7
  6
CONTINUOUS
 10
-20.6874238221
 20
0.8128244299
 11
-21.2206072794
 21
0.8128244299
  0
LINE
  5
382
100
AcDbEntity
  8
RACCORDO
100
AcDbLine
 62
253
  6
CONTINUOUS
 10
20.7942955572
 20
1.6413265229
 11
-20.9691432014
 21
1.6413265229
  0
LINE
  5
383
100
AcDbEntity
  8
DRAFT
100
AcDbLine
 62
7
  6
CONTINUOUS
 10
3.356622477
 20
-11.0954135106
 11
3.2788577011
 21
-9.5558707008
  0
LINE
  5
384
100
AcDbEntity
  8
SUPERFICI
100
AcDbLine
 62
7
  6
CONTINUOUS
 10
-4.6361086963
 20
2.802956307
 11
4.4612610522
 21
2.802956307
  0
LINE
  5
385
100
AcDbEntity
  8
RACCORDO
100
AcDbLine
 62
253
  6
CONTINUOUS
 10
3.704841151
 20
-11.0638046791
 11
3.704841151
 21
-9.4652771848
  0
LINE
  5
386
100
AcDbEntity
  8
RACCORDO
100
AcDbLine
 62
253
  6
CONTINUOUS
 10
3.8780462317
 20
-11.0585639011
 11
3.8780462317
 21
-9.4529987287
  0
LINE
  5
387
100
AcDbEntity
  8
SUPERFICI
100
AcDbLine
 62
7
  6
CONTINUOUS
 10
5.0217804239
 20
3.3668911184
 11
5.0217698686
 21
7.6578529976
  0
LINE
  5
388
100
AcDbEntity
  8
RACCORDO
100
AcDbLine
 62
7
  6
CONTINUOUS
 10
-18.607738166
 20
4.8925557775
 11
-18.3671094782
 21
4.8925557775
  0
LINE
  5
389
100
AcDbEntity
  8
RACCORDO
100
AcDbLine
 62
7
  6
CONTINUOUS
 10
18.192261834
 20
4.8925557775
 11
18.4328905218
 21
4.8925557775
  0
LINE
  5
38A
100
AcDbEntity
  8
RACCORDO
100
AcDbLine
 62
253
  6
CONTINUOUS
 10
-18.5803352175
 20
4.919958726
 11
-18.3945124267
 21
4.919958726
  0
LINE
  5
38B
100
AcDbEntity
  8
RACCORDO
100
AcDbLine
 62
253
  6
CONTINUOUS
 10
18.2196647825
 20
4.919958726
 11
18.4054875733
 21
4.919958726
  0
LINE
  5
38C
100
AcDbEntity
  8
RACCORDO
100
AcDbLine
 62
7
  6
CONTINUOUS
 10
5.1625761779
 20
-9.4529987287
 11
5.1625761779
 21
-4.7371755701
  0
LINE
  5
38D
100
AcDbEntity
  8
RACCORDO
100
AcDbLine
 62
253
  6
CONTINUOUS
 10
5.4125761779
 20
-9.2461331826
 11
5.4125761779
 21
-4.4871755701
  0
LINE
  5
38E
100
AcDbEntity
  8
RACCORDO
100
AcDbLine
 62
253
  6
CONTINUOUS
 10
5.7125761779
 20
-4.4871755701
 11
5.7125761779
 21
-9.2461331826
  0
LINE
  5
38F
100
AcDbEntity
  8
RACCORDO
100
AcDbLine
 62
7
  6
CONTINUOUS
 10
5.9625761779
 20
-4.7371755701
 11
5.9625761779
 21
-9.4529987287
  0
LINE
  5
390
100
AcDbEntity
  8
RACCORDO
100
AcDbLine
 62
7
  6
CONTINUOUS
 10
17.8916631175
 20
9.7395461747
 11
17.9074310483
 21
9.7553141055
  0
LINE
  5
391
100
AcDbEntity
  8
DRAFT
100
AcDbLine
 62
7
  6
CONTINUOUS
 10
19.6750421685
 20
9.8128244299
 11
19.4125761779
 21
9.7604592351
  0
LINE
  5
392
100
AcDbEntity
  8
RACCORDO
100
AcDbLine
 62
253
  6
CONTINUOUS
 10
-18.8768593933
 20
5.4198826199
 11
-18.0979882509
 21
5.4198826199
  0
LINE
  5
393
100
AcDbEntity
  8
RACCORDO
100
AcDbLine
 62
253
  6
CONTINUOUS
 10
17.9231406067
 20
5.4198826199
 11
18.7020117491
 21
5.4198826199
  0
LINE
  5
394
100
AcDbEntity
  8
RACCORDO
100
AcDbLine
 62
253
  6
CONTINUOUS
 10
17.9231406067
 20
6.8057176487
 11
18.7020117491
 21
6.8057176487
  0
LINE
  5
395
100
AcDbEntity
  8
RACCORDO
100
AcDbLine
 62
253
  6
CONTINUOUS
 10
-18.0979882509
 20
6.8057176487
 11
-18.8768593933
 21
6.8057176487
  0
LINE
  5
396
100
AcDbEntity
  8
DRAFT
100
AcDbLine
 62
7
  6
CONTINUOUS
 10
-19.8498898127
 20
9.8128244299
 11
-19.5874238221
 21
9.7604592351
  0
LINE
  5
397
100
AcDbEntity
  8
0
100
AcDbLine
 62
7
  6
CONTINUOUS
 10
8.3603001779
 20
-4.7194765701
 11
7.8214101779
 21
-3.0196135701
  0
LINE
  5
398
100
AcDbEntity
  8
RACCORDO
100
AcDbLine
 62
253
  6
CONTINUOUS
 10
7.2471061241
 20
-9.4529987287
 11
7.2471061241
 21
-11.0585639011
  0
LINE
  5
399
100
AcDbEntity
  8
RACCORDO
100
AcDbLine
 62
253
  6
CONTINUOUS
 10
7.4203112048
 20
-9.4652771848
 11
7.4203112048
 21
-11.0638046791
  0
LINE
  5
39A
100
AcDbEntity
  8
DRAFT
100
AcDbLine
 62
7
  6
CONTINUOUS
 10
7.7685298788
 20
-11.0954135106
 11
7.8462946547
 21
-9.5558707008
  0
LINE
  5
39B
100
AcDbEntity
  8
RACCORDO
100
AcDbLine
 62
253
  6
CONTINUOUS
 10
20.7893283837
 20
9.7395461747
 11
20.8626066389
 21
9.8128244299
  0
LINE
  5
39C
100
AcDbEntity
  8
RACCORDO
100
AcDbLine
 62
253
  6
CONTINUOUS
 10
20.9927381529
 20
9.5430168659
 11
21.0625761779
 21
9.6128548909
  0
LINE
  5
39D
100
AcDbEntity
  8
RACCORDO
100
AcDbLine
 62
253
  6
CONTINUOUS
 10
18.4030799647
 20
7.1592727663
 11
18.2220723911
 21
7.1592727663
  0
LINE
  5
39E
100
AcDbEntity
  8
RACCORDO
100
AcDbLine
 62
253
  6
CONTINUOUS
 10
-18.3969200353
 20
7.1592727663
 11
-18.5779276089
 21
7.1592727663
  0
LINE
  5
39F
100
AcDbEntity
  8
RACCORDO
100
AcDbLine
 62
253
  6
CONTINUOUS
 10
18.413676996
 20
7.7663762832
 11
18.2114753598
 21
7.7663762823
  0
LINE
  5
3A0
100
AcDbEntity
  8
RACCORDO
100
AcDbLine
 62
253
  6
CONTINUOUS
 10
-18.386323004
 20
7.7663762832
 11
-18.5885246402
 21
7.7663762823
  0
LINE
  5
3A1
100
AcDbEntity
  8
RACCORDO
100
AcDbLine
 62
253
  6
CONTINUOUS
 10
18.7177213075
 20
8.1199312111
 11
17.9074310483
 21
8.1199312111
  0
LINE
  5
3A2
100
AcDbEntity
  8
RACCORDO
100
AcDbLine
 62
253
  6
CONTINUOUS
 10
-18.0822786925
 20
8.1199312111
 11
-18.8925689517
 21
8.1199312111
  0
LINE
  5
3A3
100
AcDbEntity
  8
SUPERFICI
100
AcDbLine
 62
7
  6
CONTINUOUS
 10
-4.6314939476
 20
8.221783144
 11
-1.4831708731
 21
8.221783144
  0
LINE
  5
3A4
100
AcDbEntity
  8
SUPERFICI
100
AcDbLine
 62
7
  6
CONTINUOUS
 10
1.3083232289
 20
8.221783144
 11
4.4566463034
 21
8.221783144
  0
LINE
  5
3A5
100
AcDbEntity
  8
RACCORDO
100
AcDbLine
 62
253
  6
CONTINUOUS
 10
16.3044852951
 20
-4.678932394
 11
16.3524655622
 21
-4.7269126612
  0
LINE
  5
3A6
100
AcDbEntity
  8
0
100
AcDbLine
 62
7
  6
CONTINUOUS
 10
10.7292001779
 20
-4.7194765701
 11
10.3129441779
 21
-3.6094975701
  0
LINE
  5
3A7
100
AcDbEntity
  8
0
100
AcDbLine
 62
7
  6
CONTINUOUS
 10
8.5308881779
 20
-4.1896815701
 11
8.2068631779
 21
-3.0196135701
  0
LINE
  5
3A8
100
AcDbEntity
  8
0
100
AcDbLine
 62
7
  6
CONTINUOUS
 10
9.3510741779
 20
-4.7194765701
 11
9.3510741779
 21
-3.0195115701
  0
LINE
  5
3A9
100
AcDbEntity
  8
0
100
AcDbLine
 62
7
  6
CONTINUOUS
 10
9.7059021779
 20
-4.7194765701
 11
9.7059021779
 21
-3.0195115701
  0
LINE
  5
3AA
100
AcDbEntity
  8
0
100
AcDbLine
 62
7
  6
CONTINUOUS
 10
8.5308881779
 20
-4.1896815701
 11
8.8648101779
 21
-3.0196135701
  0
LINE
  5
3AB
100
AcDbEntity
  8
0
100
AcDbLine
 62
7
  6
CONTINUOUS
 10
8.6729921779
 20
-4.7194765701
 11
9.2193961779
 21
-3.0196135701
  0
LINE
  5
3AC
100
AcDbEntity
  8
RACCORDO
100
AcDbLine
 62
253
  6
CONTINUOUS
 10
17.9197105203
 20
5.2199130809
 11
17.8922437779
 21
5.1924463385
  0
LINE
  5
3AD
100
AcDbEntity
  8
RACCORDO
100
AcDbLine
 62
253
  6
CONTINUOUS
 10
18.2196647825
 20
4.919958726
 11
18.192261834
 21
4.8925557775
  0
LINE
  5
3AE
100
AcDbEntity
  8
DRAFT
100
AcDbLine
 62
7
  6
CONTINUOUS
 10
19.6750421685
 20
11.0128244299
 11
19.4125761779
 21
10.9866438266
  0
LINE
  5
3AF
100
AcDbEntity
  8
RACCORDO
100
AcDbLine
 62
7
  6
CONTINUOUS
 10
1.1080744086
 20
8.7001757099
 11
-1.2829220528
 21
8.7001757099
  0
LINE
  5
3B0
100
AcDbEntity
  8
RACCORDO
100
AcDbLine
 62
7
  6
CONTINUOUS
 10
1.1079756581
 20
8.9604592351
 11
-1.2828233023
 21
8.9604592351
  0
LINE
  5
3B1
100
AcDbEntity
  8
RACCORDO
100
AcDbLine
 62
7
  6
CONTINUOUS
 10
-20.9641760279
 20
9.7395461747
 11
-18.9083368825
 21
9.7395461747
  0
LINE
  5
3B2
100
AcDbEntity
  8
DRAFT
100
AcDbLine
 62
7
  6
CONTINUOUS
 10
17.8916631175
 20
9.7395461747
 11
1.3077473957
 21
9.7395461747
  0
LINE
  5
3B3
100
AcDbEntity
  8
DRAFT
100
AcDbLine
 62
7
  6
CONTINUOUS
 10
-1.4825950399
 20
9.7395461747
 11
-18.0665107617
 21
9.7395461747
  0
LINE
  5
3B4
100
AcDbEntity
  8
RACCORDO
100
AcDbLine
 62
7
  6
CONTINUOUS
 10
18.7334892383
 20
9.7395461747
 11
20.7893283837
 21
9.7395461747
  0
LINE
  5
3B5
100
AcDbEntity
  8
RACCORDO
100
AcDbLine
 62
7
  6
CONTINUOUS
 10
-19.5874238221
 20
9.7604592351
 11
-18.5926146432
 21
9.7604592351
  0
LINE
  5
3B6
100
AcDbEntity
  8
RACCORDO
100
AcDbLine
 62
7
  6
CONTINUOUS
 10
-18.382233001
 20
9.7604592351
 11
-1.5543477737
 21
9.7604592351
  0
LINE
  5
3B7
100
AcDbEntity
  8
RACCORDO
100
AcDbLine
 62
7
  6
CONTINUOUS
 10
1.3795001295
 20
9.7604592351
 11
18.2073853568
 21
9.7604592351
  0
LINE
  5
3B8
100
AcDbEntity
  8
RACCORDO
100
AcDbLine
 62
7
  6
CONTINUOUS
 10
18.417766999
 20
9.7604592351
 11
19.4125761779
 21
9.7604592351
  0
LINE
  5
3B9
100
AcDbEntity
  8
RACCORDO
100
AcDbLine
 62
7
  6
CONTINUOUS
 10
-21.0374542831
 20
9.8128244299
 11
-19.8498898127
 21
9.8128244299
  0
LINE
  5
3BA
100
AcDbEntity
  8
RACCORDO
100
AcDbLine
 62
7
  6
CONTINUOUS
 10
19.6750421685
 20
9.8128244299
 11
20.8626066389
 21
9.8128244299
  0
LINE
  5
3BB
100
AcDbEntity
  8
DRAFT
100
AcDbLine
 62
7
  6
CONTINUOUS
 10
-19.8498898127
 20
11.0128244299
 11
-19.5874238221
 21
10.9866438266
  0
LINE
  5
3BC
100
AcDbEntity
  8
RACCORDO
100
AcDbLine
 62
253
  6
CONTINUOUS
 10
16.5535509591
 20
-4.4283026445
 11
16.6023131829
 21
-4.4770648683
  0
LINE
  5
3BD
100
AcDbEntity
  8
0
100
AcDbLine
 62
7
  6
CONTINUOUS
 10
10.7560201779
 20
-3.9633825701
 11
10.4049391779
 21
-3.0196135701
  0
LINE
  5
3BE
100
AcDbEntity
  8
0
100
AcDbLine
 62
7
  6
CONTINUOUS
 10
11.6208721779
 20
-4.7194765701
 11
11.4619151779
 21
-3.0196135701
  0
LINE
  5
3BF
100
AcDbEntity
  8
0
100
AcDbLine
 62
7
  6
CONTINUOUS
 10
11.2737561779
 20
-4.7194765701
 11
11.2008551779
 21
-3.6141245701
  0
LINE
  5
3C0
100
AcDbEntity
  8
0
100
AcDbLine
 62
7
  6
CONTINUOUS
 10
10.2363721779
 20
-4.7194765701
 11
10.3129441779
 21
-3.6094975701
  0
LINE
  5
3C1
100
AcDbEntity
  8
0
100
AcDbLine
 62
7
  6
CONTINUOUS
 10
9.8969171779
 20
-4.7194765701
 11
10.0504041779
 21
-3.0196135701
  0
LINE
  5
3C2
100
AcDbEntity
  8
0
100
AcDbLine
 62
7
  6
CONTINUOUS
 10
10.7560201779
 20
-3.9633825701
 11
11.1108481779
 21
-3.0196135701
  0
LINE
  5
3C3
100
AcDbEntity
  8
0
100
AcDbLine
 62
7
  6
CONTINUOUS
 10
10.7789641779
 20
-4.7194765701
 11
11.2008551779
 21
-3.6141245701
  0
LINE
  5
3C4
100
AcDbEntity
  8
DRAFT
100
AcDbLine
 62
7
  6
CONTINUOUS
 10
-19.5874238221
 20
10.9866438266
 11
19.4125761779
 21
10.9866438266
  0
LINE
  5
3C5
100
AcDbEntity
  8
RACCORDO
100
AcDbLine
 62
7
  6
CONTINUOUS
 10
-22.1873476204
 20
11.0128244299
 11
-19.8498898127
 21
11.0128244299
  0
LINE
  5
3C6
100
AcDbEntity
  8
RACCORDO
100
AcDbLine
 62
7
  6
CONTINUOUS
 10
19.6750421685
 20
11.0128244299
 11
22.0124999762
 21
11.0128244299
  0
LINE
  5
3C7
100
AcDbEntity
  8
0
100
AcDbLine
 62
7
  6
CONTINUOUS
 10
13.0745881779
 20
-4.7194765701
 11
12.5530281779
 21
-3.0196135701
  0
LINE
  5
3C8
100
AcDbEntity
  8
0
100
AcDbLine
 62
7
  6
CONTINUOUS
 10
12.7006141779
 20
-4.7194765701
 11
12.6086951779
 21
-4.3801235701
  0
LINE
  5
3C9
100
AcDbEntity
  8
0
100
AcDbLine
 62
7
  6
CONTINUOUS
 10
12.5377821779
 20
-4.1175335701
 11
12.3747341779
 21
-3.4866925701
  0
LINE
  5
3CA
100
AcDbEntity
  8
0
100
AcDbLine
 62
7
  6
CONTINUOUS
 10
13.1787828418
 20
-4.7194762568
 11
13.1787828418
 21
-3.0394734879
  0
LINE
  5
3CB
100
AcDbEntity
  8
0
100
AcDbLine
 62
7
  6
CONTINUOUS
 10
12.1980601779
 20
-4.1175335701
 11
12.3747341779
 21
-3.4866925701
  0
LINE
  5
3CC
100
AcDbEntity
  8
0
100
AcDbLine
 62
7
  6
CONTINUOUS
 10
12.0275671779
 20
-4.7194765701
 11
12.1254781779
 21
-4.3801235701
  0
LINE
  5
3CD
100
AcDbEntity
  8
0
100
AcDbLine
 62
7
  6
CONTINUOUS
 10
11.6765891779
 20
-4.7194765701
 11
12.2097741779
 21
-3.0196135701
  0
LINE
  5
3CE
100
AcDbEntity
  8
RACCORDO
100
AcDbLine
 62
7
  6
CONTINUOUS
 10
16.3835286396
 20
-9.4529987287
 11
16.3284347238
 21
-9.2592835742
  0
LINE
  5
3CF
100
AcDbEntity
  8
DRAFT
100
AcDbLine
 62
7
  6
CONTINUOUS
 10
14.556622477
 20
-11.0954135106
 11
14.4788577011
 21
-9.5558707008
  0
LINE
  5
3D0
100
AcDbEntity
  8
0
100
AcDbLine
 62
7
  6
CONTINUOUS
 10
13.5204176095
 20
-3.7758474016
 11
13.5204176095
 21
-3.3092019191
  0
LINE
  5
3D1
100
AcDbEntity
  8
0
100
AcDbLine
 62
7
  6
CONTINUOUS
 10
13.5321831739
 20
-4.7194762568
 11
13.5321831739
 21
-4.0542438542
  0
LINE
  5
3D2
100
AcDbEntity
  8
0
100
AcDbLine
 62
7
  6
CONTINUOUS
 10
14.0910283607
 20
-3.9259953785
 11
14.0910283607
 21
-3.9159506713
  0
LINE
  5
3D3
100
AcDbEntity
  8
RACCORDO
100
AcDbLine
 62
253
  6
CONTINUOUS
 10
14.904841151
 20
-11.0638046791
 11
14.904841151
 21
-9.4652771848
  0
LINE
  5
3D4
100
AcDbEntity
  8
RACCORDO
100
AcDbLine
 62
253
  6
CONTINUOUS
 10
15.0780462317
 20
-11.0585639011
 11
15.0780462317
 21
-9.4529987287
  0
LINE
  5
3D5
100
AcDbEntity
  8
RACCORDO
100
AcDbLine
 62
253
  6
CONTINUOUS
 10
16.9716013968
 20
-4.4283026445
 11
16.9228390868
 21
-4.4770649544
  0
LINE
  5
3D6
100
AcDbEntity
  8
RACCORDO
100
AcDbLine
 62
253
  6
CONTINUOUS
 10
16.4120731309
 20
-6.489420939
 11
16.3541506649
 21
-6.1969504779
  0
LINE
  5
3D7
100
AcDbEntity
  8
RACCORDO
100
AcDbLine
 62
253
  6
CONTINUOUS
 10
16.861952296
 20
-6.9474544778
 11
16.8993835715
 21
-9.2461331826
  0
LINE
  5
3D8
100
AcDbEntity
  8
RACCORDO
100
AcDbLine
 62
253
  6
CONTINUOUS
 10
16.3541506649
 20
-4.7768822025
 11
16.3541506649
 21
-6.1969504779
  0
LINE
  5
3D9
100
AcDbEntity
  8
RACCORDO
100
AcDbLine
 62
7
  6
CONTINUOUS
 10
16.3835286396
 20
-9.4529987287
 11
16.3835286396
 21
-8.6732933399
  0
LINE
  5
3DA
100
AcDbEntity
  8
RACCORDO
100
AcDbLine
 62
253
  6
CONTINUOUS
 10
16.413515973
 20
-6.8206671713
 11
16.413515973
 21
-6.5386613266
  0
LINE
  5
3DB
100
AcDbEntity
  8
RACCORDO
100
AcDbLine
 62
253
  6
CONTINUOUS
 10
16.6039983716
 20
-4.776884733
 11
16.6039983716
 21
-5.9872811811
  0
LINE
  5
3DC
100
AcDbEntity
  8
RACCORDO
100
AcDbLine
 62
253
  6
CONTINUOUS
 10
16.6633636797
 20
-6.8206671713
 11
16.6633636797
 21
-6.5386637187
  0
LINE
  5
3DD
100
AcDbEntity
  8
RACCORDO
100
AcDbLine
 62
253
  6
CONTINUOUS
 10
16.3835286396
 20
-8.6732933399
 11
16.4133523828
 21
-6.8417980844
  0
LINE
  5
3DE
100
AcDbEntity
  8
RACCORDO
100
AcDbLine
 62
253
  6
CONTINUOUS
 10
17.2206670607
 20
-4.678932394
 11
17.1726867936
 21
-4.7269126612
  0
LINE
  5
3DF
100
AcDbEntity
  8
RACCORDO
100
AcDbLine
 62
253
  6
CONTINUOUS
 10
18.4328905218
 20
4.8925557775
 11
18.4054875733
 21
4.919958726
  0
LINE
  5
3E0
100
AcDbEntity
  8
RACCORDO
100
AcDbLine
 62
253
  6
CONTINUOUS
 10
16.6619207608
 20
-6.2432186128
 11
16.611212582
 21
-5.9871755701
  0
LINE
  5
3E1
100
AcDbEntity
  8
RACCORDO
100
AcDbLine
 62
253
  6
CONTINUOUS
 10
17.9115210244
 20
7.5542457862
 11
17.9221181127
 21
6.947139005
  0
LINE
  5
3E2
100
AcDbEntity
  8
RACCORDO
100
AcDbLine
 62
253
  6
CONTINUOUS
 10
18.2114753598
 20
7.7663762823
 11
18.2220723911
 21
7.1592727663
  0
LINE
  5
3E3
100
AcDbEntity
  8
RACCORDO
100
AcDbLine
 62
253
  6
CONTINUOUS
 10
17.111799973
 20
-6.8417980844
 11
17.1416237162
 21
-8.6732933399
  0
LINE
  5
3E4
100
AcDbEntity
  8
RACCORDO
100
AcDbLine
 62
253
  6
CONTINUOUS
 10
16.8617886761
 20
-6.5386637187
 11
16.8617886761
 21
-6.8206671713
  0
LINE
  5
3E5
100
AcDbEntity
  8
RACCORDO
100
AcDbLine
 62
253
  6
CONTINUOUS
 10
16.9211539842
 20
-4.7768847564
 11
16.9211539842
 21
-5.9872811811
  0
LINE
  5
3E6
100
AcDbEntity
  8
RACCORDO
100
AcDbLine
 62
253
  6
CONTINUOUS
 10
17.1116363828
 20
-6.5386613266
 11
17.1116363828
 21
-6.8206671713
  0
LINE
  5
3E7
100
AcDbEntity
  8
RACCORDO
100
AcDbLine
 62
7
  6
CONTINUOUS
 10
17.1416237162
 20
-8.6732933399
 11
17.1416237162
 21
-9.4529987287
  0
LINE
  5
3E8
100
AcDbEntity
  8
RACCORDO
100
AcDbLine
 62
253
  6
CONTINUOUS
 10
17.171001691
 20
-4.7768822025
 11
17.171001691
 21
-6.1969504779
  0
LINE
  5
3E9
100
AcDbEntity
  8
RACCORDO
100
AcDbLine
 62
253
  6
CONTINUOUS
 10
17.9074310483
 20
9.7553141055
 11
17.9074310483
 21
8.1199312111
  0
LINE
  5
3EA
100
AcDbEntity
  8
RACCORDO
100
AcDbLine
 62
253
  6
CONTINUOUS
 10
17.9231406067
 20
6.8057176487
 11
17.9231406067
 21
5.4198826199
  0
LINE
  5
3EB
100
AcDbEntity
  8
RACCORDO
100
AcDbLine
 62
253
  6
CONTINUOUS
 10
18.2073853568
 20
9.7604592351
 11
18.2073853568
 21
8.1199334347
  0
LINE
  5
3EC
100
AcDbEntity
  8
RACCORDO
100
AcDbLine
 62
253
  6
CONTINUOUS
 10
18.2230949153
 20
6.8057150944
 11
18.2230949153
 21
5.4198853833
  0
LINE
  5
3ED
100
AcDbEntity
  8
RACCORDO
100
AcDbLine
 62
253
  6
CONTINUOUS
 10
18.4020574405
 20
5.4198853833
 11
18.4020574405
 21
6.8057150944
  0
LINE
  5
3EE
100
AcDbEntity
  8
RACCORDO
100
AcDbLine
 62
253
  6
CONTINUOUS
 10
18.417766999
 20
8.1199334357
 11
18.417766999
 21
9.7604592351
  0
LINE
  5
3EF
100
AcDbEntity
  8
RACCORDO
100
AcDbLine
 62
253
  6
CONTINUOUS
 10
16.6257687843
 20
-9.2461331826
 11
16.6632000598
 21
-6.9474544778
  0
LINE
  5
3F0
100
AcDbEntity
  8
RACCORDO
100
AcDbLine
 62
253
  6
CONTINUOUS
 10
18.4030799647
 20
7.1592727663
 11
18.413676996
 21
7.7663762832
  0
LINE
  5
3F1
100
AcDbEntity
  8
RACCORDO
100
AcDbLine
 62
253
  6
CONTINUOUS
 10
16.9139397738
 20
-5.9871755701
 11
16.863231595
 21
-6.2432186128
  0
LINE
  5
3F2
100
AcDbEntity
  8
RACCORDO
100
AcDbLine
 62
253
  6
CONTINUOUS
 10
17.171001691
 20
-6.1969504779
 11
17.1130792249
 21
-6.489420939
  0
LINE
  5
3F3
100
AcDbEntity
  8
RACCORDO
100
AcDbLine
 62
253
  6
CONTINUOUS
 10
18.7329085779
 20
5.1924463385
 11
18.7054418355
 21
5.2199130809
  0
LINE
  5
3F4
100
AcDbEntity
  8
RACCORDO
100
AcDbLine
 62
253
  6
CONTINUOUS
 10
18.4471061241
 20
-9.4529987287
 11
18.4471061241
 21
-11.0585639011
  0
LINE
  5
3F5
100
AcDbEntity
  8
RACCORDO
100
AcDbLine
 62
253
  6
CONTINUOUS
 10
18.6203112048
 20
-9.4652771848
 11
18.6203112048
 21
-11.0638046791
  0
LINE
  5
3F6
100
AcDbEntity
  8
RACCORDO
100
AcDbLine
 62
253
  6
CONTINUOUS
 10
18.7020117491
 20
5.4198826199
 11
18.7020117491
 21
6.8057176487
  0
LINE
  5
3F7
100
AcDbEntity
  8
RACCORDO
100
AcDbLine
 62
253
  6
CONTINUOUS
 10
18.7177213075
 20
8.1199312111
 11
18.7177213075
 21
9.7553141055
  0
LINE
  5
3F8
100
AcDbEntity
  8
DRAFT
100
AcDbLine
 62
7
  6
CONTINUOUS
 10
19.4125761779
 20
10.9866438266
 11
19.4125761779
 21
9.7604592351
  0
LINE
  5
3F9
100
AcDbEntity
  8
DRAFT
100
AcDbLine
 62
7
  6
CONTINUOUS
 10
19.6750421685
 20
11.0128244299
 11
19.6750421685
 21
9.8128244299
  0
LINE
  5
3FA
100
AcDbEntity
  8
RACCORDO
100
AcDbLine
 62
253
  6
CONTINUOUS
 10
18.7030342431
 20
6.947139005
 11
18.7136313314
 21
7.5542457862
  0
LINE
  5
3FB
100
AcDbEntity
  8
DRAFT
100
AcDbLine
 62
7
  6
CONTINUOUS
 10
18.9685298788
 20
-11.0954135106
 11
19.0462946547
 21
-9.5558707008
  0
LINE
  5
3FC
100
AcDbEntity
  8
RACCORDO
100
AcDbLine
 62
7
  6
CONTINUOUS
 10
17.196717632
 20
-9.2592835742
 11
17.1416237162
 21
-9.4529987287
  0
LINE
  5
3FD
100
AcDbEntity
  8
RACCORDO
100
AcDbLine
 62
253
  6
CONTINUOUS
 10
20.8514128518
 20
-9.5558707008
 11
20.8092499975
 21
-9.2592835742
  0
LINE
  5
3FE
100
AcDbEntity
  8
RACCORDO
100
AcDbLine
 62
253
  6
CONTINUOUS
 10
21.0513216697
 20
-9.3569343385
 11
21.0092195368
 21
-9.0607743461
  0
LINE
  5
3FF
100
AcDbEntity
  8
RACCORDO
100
AcDbLine
 62
253
  6
CONTINUOUS
 10
20.7946373447
 20
0.8128244299
 11
20.794295557
 21
1.6413265229
  0
LINE
  5
400
100
AcDbEntity
  8
0
100
AcDbLine
 62
7
  6
CONTINUOUS
 10
20.5125761779
 20
0.8128244299
 11
20.5125761779
 21
-2.9871755701
  0
LINE
  5
401
100
AcDbEntity
  8
RACCORDO
100
AcDbLine
 62
253
  6
CONTINUOUS
 10
20.8092499975
 20
-9.2592835742
 11
20.8092499975
 21
-9.0888232652
  0
LINE
  5
402
100
AcDbEntity
  8
DRAFT
100
AcDbLine
 62
7
  6
CONTINUOUS
 10
21.0457596353
 20
0.8128244299
 11
21.0457596353
 21
-2.9871755701
  0
LINE
  5
403
100
AcDbEntity
  8
RACCORDO
100
AcDbLine
 62
7
  6
CONTINUOUS
 10
21.0625761779
 20
9.6128548909
 11
21.0625761779
 21
-1.9871755701
  0
LINE
  5
404
100
AcDbEntity
  8
RACCORDO
100
AcDbLine
 62
7
  6
CONTINUOUS
 10
21.0625761779
 20
-1.9871755701
 11
21.0513216697
 21
-9.3569343385
  0
LINE
  5
405
100
AcDbEntity
  8
RACCORDO
100
AcDbLine
 62
7
  6
CONTINUOUS
 10
18.7334892383
 20
9.7395461747
 11
18.7177213075
 21
9.7553141055
  0
LINE
  5
406
100
AcDbEntity
  8
RACCORDO
100
AcDbLine
 62
7
  6
CONTINUOUS
 10
22.2625761779
 20
10.7628910512
 11
22.2625761779
 21
-1.9871755701
  0
LINE
  5
407
100
AcDbEntity
  8
0
100
AcDbLine
 62
7
  6
CONTINUOUS
 10
22.2362688685
 20
-10.5979228778
 11
22.2625761779
 21
-1.9871755701
  0
ARC
  5
408
100
AcDbEntity
  8
RACCORDO
100
AcDbCircle
 62
253
  6
CONTINUOUS
 10
-64.8348170646
 20
-6.8226852219
 40
47.7981806319
100
AcDbArc
 50
359.850438659
 51
0.0024190415
  0
ARC
  5
409
100
AcDbEntity
  8
RACCORDO
100
AcDbCircle
 62
253
  6
CONTINUOUS
 10
-31.1348170611
 20
-6.8226852219
 40
47.7981806284
100
AcDbArc
 50
359.850438659
 51
0.0024190415
  0
ARC
  5
40A
100
AcDbEntity
  8
RACCORDO
100
AcDbCircle
 62
253
  6
CONTINUOUS
 10
-18.614721226
 20
-6.8210003407
 40
1.32823709
100
AcDbArc
 50
359.1028166404
 51
0.0143718294
  0
ARC
  5
40B
100
AcDbEntity
  8
RACCORDO
100
AcDbCircle
 62
253
  6
CONTINUOUS
 10
-15.2858730486
 20
-6.8211988149
 40
1.3024900837
100
AcDbArc
 50
179.9766133159
 51
180.9061877752
  0
ARC
  5
40C
100
AcDbEntity
  8
RACCORDO
100
AcDbCircle
 62
253
  6
CONTINUOUS
 10
-17.0973169466
 20
-4.7272824456
 40
0.2502214836
100
AcDbArc
 50
90.0846746233
 51
179.9153253767
  0
ARC
  5
40D
100
AcDbEntity
  8
RACCORDO
100
AcDbCircle
 62
253
  6
CONTINUOUS
 10
-16.7775306976
 20
-4.7272824456
 40
0.2502214836
100
AcDbArc
 50
0.0846746179
 51
89.915325382
  0
ARC
  5
40E
100
AcDbEntity
  8
RACCORDO
100
AcDbCircle
 62
7
  6
CONTINUOUS
 10
-5.5874238221
 20
-4.7371755701
 40
0.25
100
AcDbArc
 50
0.0
 51
90.0
  0
ARC
  5
40F
100
AcDbEntity
  8
RACCORDO
100
AcDbCircle
 62
7
  6
CONTINUOUS
 10
-5.8874238221
 20
-4.7371755701
 40
0.25
100
AcDbArc
 50
90.0
 51
180.0
  0
ARC
  5
410
100
AcDbEntity
  8
RACCORDO
100
AcDbCircle
 62
7
  6
CONTINUOUS
 10
-20.9814439139
 20
-9.0454536448
 40
0.1951649088
100
AcDbArc
 50
269.1102937259
 51
269.9999099658
  0
ARC
  5
411
100
AcDbEntity
  8
RACCORDO
100
AcDbCircle
 62
253
  6
CONTINUOUS
 10
-36.7296122856
 20
6.8276788445
 40
54.9527018666
100
AcDbArc
 50
359.9770997612
 51
0.3457346529
  0
ARC
  5
412
100
AcDbEntity
  8
RACCORDO
100
AcDbCircle
 62
253
  6
CONTINUOUS
 10
-73.5296122848
 20
6.8276788447
 40
54.9527018658
100
AcDbArc
 50
359.977099761
 51
0.3457346527
  0
CIRCLE
  5
413
100
AcDbEntity
  8
SUPERFICI
100
AcDbCircle
 62
7
  6
CONTINUOUS
 10
-3.8874238221
 20
4.6128244299
 40
0.6
  0
CIRCLE
  5
414
100
AcDbEntity
  8
ASSI
100
AcDbCircle
 62
7
  6
CONTINUOUS
 10
-3.8874238221
 20
4.6128244299
 40
0.6
  0
ARC
  5
415
100
AcDbEntity
  8
RACCORDO
100
AcDbCircle
 62
253
  6
CONTINUOUS
 10
-18.3946220342
 20
5.220022642
 40
0.3000646363
100
AcDbArc
 50
270.0209201769
 51
359.9790798231
  0
ARC
  5
416
100
AcDbEntity
  8
RACCORDO
100
AcDbCircle
 62
253
  6
CONTINUOUS
 10
-18.580225614
 20
5.220022638
 40
0.3000646363
100
AcDbArc
 50
180.0209194177
 51
269.9790805823
  0
ARC
  5
417
100
AcDbEntity
  8
RACCORDO
100
AcDbCircle
 62
7
  6
CONTINUOUS
 10
-18.3670660071
 20
5.1925394444
 40
0.2999787845
100
AcDbArc
 50
269.9916971916
 51
359.9822165715
  0
ARC
  5
418
100
AcDbEntity
  8
RACCORDO
100
AcDbCircle
 62
7
  6
CONTINUOUS
 10
-18.6077830666
 20
5.1925380367
 40
0.2999769701
100
AcDbArc
 50
180.0175146298
 51
270.0085758762
  0
ARC
  5
419
100
AcDbEntity
  8
RACCORDO
100
AcDbCircle
 62
7
  6
CONTINUOUS
 10
-20.9641760329
 20
9.5395075797
 40
0.200038595
100
AcDbArc
 50
89.999998553
 51
90.9825010963
  0
ARC
  5
41A
100
AcDbEntity
  8
RACCORDO
100
AcDbCircle
 62
253
  6
CONTINUOUS
 10
30.0593968277
 20
-6.8238422997
 40
46.8976076739
100
AcDbArc
 50
179.9961208799
 51
180.1510197361
  0
ARC
  5
41B
100
AcDbEntity
  8
RACCORDO
100
AcDbCircle
 62
253
  6
CONTINUOUS
 10
63.7593968228
 20
-6.8238422997
 40
46.897607669
100
AcDbArc
 50
179.9961208798
 51
180.1510197361
  0
ARC
  5
41C
100
AcDbEntity
  8
RACCORDO
100
AcDbCircle
 62
253
  6
CONTINUOUS
 10
15.0852787739
 20
-6.8210003407
 40
1.3282370901
100
AcDbArc
 50
359.1028166405
 51
0.0143718294
  0
ARC
  5
41D
100
AcDbEntity
  8
RACCORDO
100
AcDbCircle
 62
253
  6
CONTINUOUS
 10
18.4141269514
 20
-6.8211988149
 40
1.3024900837
100
AcDbArc
 50
179.9766133159
 51
180.9061877752
  0
ARC
  5
41E
100
AcDbEntity
  8
RACCORDO
100
AcDbCircle
 62
253
  6
CONTINUOUS
 10
16.6026830534
 20
-4.7272824456
 40
0.2502214836
100
AcDbArc
 50
90.0846746196
 51
179.9153253804
  0
ARC
  5
41F
100
AcDbEntity
  8
RACCORDO
100
AcDbCircle
 62
253
  6
CONTINUOUS
 10
16.9224693024
 20
-4.7272824456
 40
0.2502214836
100
AcDbArc
 50
0.0846746183
 51
89.9153253816
  0
ARC
  5
420
100
AcDbEntity
  8
RACCORDO
100
AcDbCircle
 62
7
  6
CONTINUOUS
 10
5.7125761779
 20
-4.7371755701
 40
0.25
100
AcDbArc
 50
0.0
 51
90.0
  0
ARC
  5
421
100
AcDbEntity
  8
RACCORDO
100
AcDbCircle
 62
7
  6
CONTINUOUS
 10
5.4125761779
 20
-4.7371755701
 40
0.25
100
AcDbArc
 50
90.0
 51
180.0
  0
ARC
  5
422
100
AcDbEntity
  8
RACCORDO
100
AcDbCircle
 62
253
  6
CONTINUOUS
 10
71.3148330488
 20
6.8334934716
 40
52.9127665439
100
AcDbArc
 50
179.6472325772
 51
180.0300793827
  0
ARC
  5
423
100
AcDbEntity
  8
RACCORDO
100
AcDbCircle
 62
253
  6
CONTINUOUS
 10
34.5148330488
 20
6.8334934716
 40
52.9127665439
100
AcDbArc
 50
179.6472325772
 51
180.0300793827
  0
ARC
  5
424
100
AcDbEntity
  8
SUPERFICI
100
AcDbCircle
 62
7
  6
CONTINUOUS
 10
-0.0874238221
 20
8.7065744299
 40
1.80625
100
AcDbArc
 50
39.4310819637
 51
140.5689180363
  0
ARC
  5
425
100
AcDbEntity
  8
DRAFT
100
AcDbCircle
 62
7
  6
CONTINUOUS
 10
-0.0874238221
 20
8.7065744299
 40
1.80625
100
AcDbArc
 50
35.6946680385
 51
144.3053319615
  0
CIRCLE
  5
426
100
AcDbEntity
  8
SUPERFICI
100
AcDbCircle
 62
7
  6
CONTINUOUS
 10
3.7125761779
 20
4.6128244299
 40
0.6
  0
CIRCLE
  5
427
100
AcDbEntity
  8
ASSI
100
AcDbCircle
 62
7
  6
CONTINUOUS
 10
3.7125761779
 20
4.6128244299
 40
0.6
  0
ARC
  5
428
100
AcDbEntity
  8
RACCORDO
100
AcDbCircle
 62
253
  6
CONTINUOUS
 10
18.4053779658
 20
5.220022642
 40
0.3000646363
100
AcDbArc
 50
270.0209201769
 51
359.9790798231
  0
ARC
  5
429
100
AcDbEntity
  8
RACCORDO
100
AcDbCircle
 62
253
  6
CONTINUOUS
 10
18.219774386
 20
5.220022638
 40
0.3000646363
100
AcDbArc
 50
180.0209194177
 51
269.9790805823
  0
ARC
  5
42A
100
AcDbEntity
  8
RACCORDO
100
AcDbCircle
 62
7
  6
CONTINUOUS
 10
18.4329339929
 20
5.1925394444
 40
0.2999787845
100
AcDbArc
 50
269.9916971891
 51
359.9822165741
  0
ARC
  5
42B
100
AcDbEntity
  8
RACCORDO
100
AcDbCircle
 62
7
  6
CONTINUOUS
 10
18.1922169334
 20
5.1925380367
 40
0.2999769701
100
AcDbArc
 50
180.0175146294
 51
270.0085758758
  0
ARC
  5
42C
100
AcDbEntity
  8
RACCORDO
100
AcDbCircle
 62
7
  6
CONTINUOUS
 10
20.7893283862
 20
9.5395072859
 40
0.2000388888
100
AcDbArc
 50
89.0174996252
 51
90.0000007255
  0
SPLINE
  5
42D
100
AcDbEntity
  8
SUPERFICI
100
AcDbSpline
 62
7
  6
CONTINUOUS
 70
0
 71
3
 72
24
 73
20
 74
18
 42
0.0000001
 43
0.0000001
 44
0.0000000001
 12
-0.8908349836
 22
0.0
 32
0.0
 13
-0.0000021914
 23
-0.8908349953
 33
0.0
 40
0.0
 40
0.0
 40
0.0
 40
0.0
 40
0.0628111376
 40
0.1242643753
 40
0.1844264346
 40
0.2434859808
 40
0.3015448486
 40
0.3588790258
 40
0.415577798
 40
0.4719985163
 40
0.528204746
 40
0.5845803639
 40
0.6411777901
 40
0.6983580159
 40
0.7562526142
 40
0.8152901714
 40
0.8756827173
 40
0.9373232148
 40
1.0
 40
1.0
 40
1.0
 40
1.0
 10
-4.6314939476
 20
8.221783144
 30
0.0
 10
-4.6501454005
 20
8.221783144
 30
0.0
 10
-4.6870677533
 20
8.2201461462
 30
0.0
 10
-4.7414069485
 20
8.2127794756
 30
0.0
 10
-4.7937683493
 20
8.2007465617
 30
0.0
 10
-4.8438467269
 20
8.1842776157
 30
0.0
 10
-4.891420985
 20
8.1635915275
 30
0.0
 10
-4.9362552405
 20
8.1389165179
 30
0.0
 10
-4.9781911409
 20
8.1104427359
 30
0.0
 10
-5.0170221603
 20
8.0783849826
 30
0.0
 10
-5.0526113084
 20
8.042898732
 30
0.0
 10
-5.0847529296
 20
8.004193626
 30
0.0
 10
-5.1132953048
 20
7.9624124362
 30
0.0
 10
-5.1380346334
 20
7.9177561107
 30
0.0
 10
-5.1588076529
 20
7.8703299413
 30
0.0
 10
-5.1754000852
 20
7.8202777347
 30
0.0
 10
-5.1875489409
 20
7.7678207384
 30
0.0
 10
-5.1949721558
 20
7.7134027532
 30
0.0
 10
-5.196617467
 20
7.6764645555
 30
0.0
 10
-5.1966175128
 20
7.6578529976
 30
0.0
 11
-4.6314939476
 21
8.221783144
 31
0.0
 11
-4.6873922141
 21
8.2192783383
 31
0.0
 11
-4.7416374341
 21
8.211900152
 31
0.0
 11
-4.7938653641
 21
8.1998747524
 31
0.0
 11
-4.8438382759
 21
8.1834198677
 31
0.0
 11
-4.8912627918
 21
8.1627809785
 31
0.0
 11
-4.9360027909
 21
8.1381432471
 31
0.0
 11
-4.9777850115
 21
8.109763142
 31
0.0
 11
-5.0165415699
 21
8.0777607585
 31
0.0
 11
-5.0519976437
 21
8.0424065597
 31
0.0
 11
-5.0840851096
 21
8.0037726264
 31
0.0
 11
-5.1125320675
 21
7.9621451974
 31
0.0
 11
-5.1372270593
 21
7.917593519
 31
0.0
 11
-5.1579335482
 21
7.8703582163
 31
0.0
 11
-5.174500616
 21
7.8204430222
 31
0.0
 11
-5.186661056
 21
7.7680355668
 31
0.0
 11
-5.1941067125
 21
7.7136311891
 31
0.0
 11
-5.1966175128
 21
7.6578529976
 31
0.0
  0
SPLINE
  5
42E
100
AcDbEntity
  8
SUPERFICI
100
AcDbSpline
 62
7
  6
CONTINUOUS
 70
0
 71
3
 72
24
 73
20
 74
18
 42
0.0000001
 43
0.0000001
 44
0.0000000001
 12
-0.0000021831
 22
-0.8874716464
 32
0.0
 13
0.8874716348
 23
0.0
 33
0.0
 40
0.0
 40
0.0
 40
0.0
 40
0.0
 40
0.0634024279
 40
0.125624708
 40
0.1864645519
 40
0.2458268257
 40
0.3039415829
 40
0.3612246716
 40
0.4178112596
 40
0.4740656514
 40
0.5300572421
 40
0.5861778845
 40
0.6424900475
 40
0.6993761972
 40
0.7569841524
 40
0.8157657128
 40
0.8759420373
 40
0.9374198349
 40
1.0
 40
1.0
 40
1.0
 40
1.0
 10
-5.1966280681
 20
3.3668911184
 30
0.0
 10
-5.1966281142
 20
3.348135166
 30
0.0
 10
-5.1949834791
 20
3.3109496014
 30
0.0
 10
-5.1875643644
 20
3.2562166033
 30
0.0
 10
-5.1754418359
 20
3.2035513773
 30
0.0
 10
-5.1589090883
 20
3.1533802371
 30
0.0
 10
-5.138238603
 20
3.105913712
 30
0.0
 10
-5.113654266
 20
3.0612866974
 30
0.0
 10
-5.0853314267
 20
3.0195978508
 30
0.0
 10
-5.053480067
 20
2.9810325354
 30
0.0
 10
-5.0182550739
 20
2.9457169517
 30
0.0
 10
-4.9798632873
 20
2.9138454213
 30
0.0
 10
-4.9384395793
 20
2.8855566128
 30
0.0
 10
-4.8941722728
 20
2.8610421929
 30
0.0
 10
-4.8471485849
 20
2.8404553042
 30
0.0
 10
-4.7974955842
 20
2.8240057095
 30
0.0
 10
-4.7454175416
 20
2.8119553645
 30
0.0
 10
-4.691343397
 20
2.8045884329
 30
0.0
 10
-4.6546214035
 20
2.802956307
 30
0.0
 10
-4.6361086963
 20
2.802956307
 30
0.0
 11
-5.1966280681
 21
3.3668911184
 31
0.0
 11
-5.1941137611
 21
3.3106794649
 31
0.0
 11
-5.1866704931
 21
3.2559629013
 31
0.0
 11
-5.1745349024
 21
3.2033507341
 31
0.0
 11
-5.1580266088
 21
3.1533216968
 31
0.0
 11
-5.1374183409
 21
3.1060427332
 31
0.0
 11
-5.1128764075
 21
3.0615218852
 31
0.0
 11
-5.084646926
 21
3.019988242
 31
0.0
 11
-5.0528508523
 21
2.981498852
 31
0.0
 11
-5.0177582963
 21
2.9463178502
 31
0.0
 11
-4.9794390713
 21
2.9145024034
 31
0.0
 11
-4.9381733132
 21
2.8863122889
 31
0.0
 11
-4.8940141261
 21
2.8618442345
 31
0.0
 11
-4.8471866647
 21
2.8413259971
 31
0.0
 11
-4.7976726204
 21
2.8249018714
 31
0.0
 11
-4.74564781
 21
2.8128399583
 31
0.0
 11
-4.6915908087
 21
2.8054499275
 31
0.0
 11
-4.6361086963
 21
2.802956307
 31
0.0
  0
SPLINE
  5
42F
100
AcDbEntity
  8
SUPERFICI
100
AcDbSpline
 62
7
  6
CONTINUOUS
 70
0
 71
3
 72
24
 73
20
 74
18
 42
0.0000001
 43
0.0000001
 44
0.0000000001
 12
0.8874716451
 22
0.0
 32
0.0
 13
-0.0000021831
 23
0.8874716567
 33
0.0
 40
0.0
 40
0.0
 40
0.0
 40
0.0
 40
0.0624889708
 40
0.1235728012
 40
0.1833381429
 40
0.2419988836
 40
0.299673863
 40
0.3566640204
 40
0.4130687629
 40
0.4692662023
 40
0.525330418
 40
0.5816589136
 40
0.638320961
 40
0.6956764749
 40
0.7538645273
 40
0.8132975087
 40
0.8742117012
 40
0.9365140122
 40
1.0
 40
1.0
 40
1.0
 40
1.0
 10
4.4612610522
 20
2.802956307
 30
0.0
 10
4.4797467821
 20
2.802956307
 30
0.0
 10
4.5163251609
 20
2.8045796851
 30
0.0
 10
4.57013838
 20
2.8118877848
 30
0.0
 10
4.6219607547
 20
2.8238213271
 30
0.0
 10
4.6715073863
 20
2.8401528669
 30
0.0
 10
4.7185774243
 20
2.8606711582
 30
0.0
 10
4.7629493959
 20
2.885158158
 30
0.0
 10
4.804477785
 20
2.9134376086
 30
0.0
 10
4.8429630364
 20
2.9453090416
 30
0.0
 10
4.8782728353
 20
2.9806337998
 30
0.0
 10
4.9102027256
 20
3.0192198661
 30
0.0
 10
4.9385965274
 20
3.0609402466
 30
0.0
 10
4.9632429242
 20
3.1056081038
 30
0.0
 10
4.9839651972
 20
3.1531222272
 30
0.0
 10
5.0005395505
 20
3.2033479649
 30
0.0
 10
5.012693035
 20
3.2560746972
 30
0.0
 10
5.0201315173
 20
3.3108763953
 30
0.0
 10
5.0217804701
 20
3.3481104468
 30
0.0
 10
5.0217804239
 20
3.3668911184
 30
0.0
 11
4.4612610522
 21
2.802956307
 31
0.0
 11
4.5166624791
 21
2.805442626
 31
0.0
 11
4.5703762281
 21
2.8127621493
 31
0.0
 11
4.622058415
 21
2.8246868316
 31
0.0
 11
4.6714953395
 21
2.8410026967
 31
0.0
 11
4.7184097618
 21
2.861470522
 31
0.0
 11
4.7626857174
 21
2.8859181748
 31
0.0
 11
4.8040567559
 21
2.9140997547
 31
0.0
 11
4.8424664606
 21
2.9459128645
 31
0.0
 11
4.8776422591
 21
2.9811018288
 31
0.0
 11
4.9095166068
 21
3.0196118318
 31
0.0
 11
4.9378174868
 21
3.0611778997
 31
0.0
 11
4.9624207308
 21
3.1057383319
 31
0.0
 11
4.9830810203
 21
3.1530655704
 31
0.0
 11
4.9996302563
 21
3.2031471725
 31
0.0
 11
5.0117966697
 21
3.2558199429
 31
0.0
 11
5.0192594486
 21
3.3106055315
 31
0.0
 11
5.0217804239
 21
3.3668911184
 31
0.0
  0
SPLINE
  5
430
100
AcDbEntity
  8
SUPERFICI
100
AcDbSpline
 62
7
  6
CONTINUOUS
 70
0
 71
3
 72
24
 73
20
 74
18
 42
0.0000001
 43
0.0000001
 44
0.0000000001
 12
-0.0000021914
 22
0.890834995
 32
0.0
 13
-0.8908349833
 23
0.0
 33
0.0
 40
0.0
 40
0.0
 40
0.0
 40
0.0
 40
0.0625105411
 40
0.1236936667
 40
0.1836161662
 40
0.2424731364
 40
0.3003665631
 40
0.3575777536
 40
0.4141932053
 40
0.4705736099
 40
0.5267815818
 40
0.5832014256
 40
0.6398878119
 40
0.6971968574
 40
0.7552585388
 40
0.8144921321
 40
0.8751147802
 40
0.937021014
 40
1.0
 40
1.0
 40
1.0
 40
1.0
 10
5.0217698686
 20
7.6578529976
 30
0.0
 10
5.021769823
 20
7.6764151901
 30
0.0
 10
5.0201371085
 20
7.7131680315
 30
0.0
 10
5.0127895051
 20
7.7672669302
 30
0.0
 10
5.000783533
 20
7.8194174332
 30
0.0
 10
4.9843448565
 20
7.8693157755
 30
0.0
 10
4.9636867672
 20
7.9167431555
 30
0.0
 10
4.9390324362
 20
7.961462741
 30
0.0
 10
4.9105664384
 20
8.0033153637
 30
0.0
 10
4.8784991368
 20
8.0420915358
 30
0.0
 10
4.8429811779
 20
8.0776514245
 30
0.0
 10
4.8042179486
 20
8.109785776
 30
0.0
 10
4.7623491906
 20
8.1383379423
 30
0.0
 10
4.717574087
 20
8.1630987756
 30
0.0
 10
4.6700000607
 20
8.1838984341
 30
0.0
 10
4.6197713639
 20
8.2005183667
 30
0.0
 10
4.5671091809
 20
8.2126919622
 30
0.0
 10
4.5124544855
 20
8.2201335696
 30
0.0
 10
4.475347598
 20
8.221783144
 30
0.0
 10
4.4566463034
 20
8.221783144
 30
0.0
 11
5.0217698686
 21
7.6578529976
 31
0.0
 11
5.0192724373
 21
7.7134835444
 31
0.0
 11
5.0119138368
 21
7.7674885859
 31
0.0
 11
4.999916427
 21
7.8195039644
 31
0.0
 11
4.9834924994
 21
7.8692970693
 31
0.0
 11
4.962882979
 21
7.9165736229
 31
0.0
 11
4.9382662501
 21
7.9612000981
 31
0.0
 11
4.9098952503
 21
8.0028987565
 31
0.0
 11
4.8778838211
 21
8.0416012498
 31
0.0
 11
4.8424986975
 21
8.0770286543
 31
0.0
 11
4.8038077356
 21
8.1091090928
 31
0.0
 11
4.7620921046
 21
8.1375674123
 31
0.0
 11
4.7174216851
 21
8.1622848653
 31
0.0
 11
4.6700363803
 21
8.1830198747
 31
0.0
 11
4.619946394
 21
8.1996146705
 31
0.0
 11
4.5673343694
 21
8.211800345
 31
0.0
 11
4.5126936411
 21
8.219264864
 31
0.0
 11
4.4566463034
 21
8.221783144
 31
0.0
  0
SPLINE
  5
431
100
AcDbEntity
  8
0
100
AcDbSpline
 62
7
  6
CONTINUOUS
 70
0
 71
3
 72
11
 73
7
 74
5
 42
0.0000001
 43
0.0000001
 44
0.0000000001
 12
0.4322479509
 22
0.0096545729
 32
0.0
 13
-0.0065828658
 23
0.4323246504
 33
0.0
 40
0.0
 40
0.0
 40
0.0
 40
0.0
 40
0.2466919983
 40
0.4757989656
 40
0.7090594742
 40
1.0
 40
1.0
 40
1.0
 40
1.0
 10
13.7231983224
 20
-3.7758474016
 30
0.0
 10
13.7587423593
 20
-3.7750534996
 30
0.0
 10
13.8275165604
 20
-3.7670157861
 30
0.0
 10
13.9230953191
 20
-3.7230591036
 30
0.0
 10
13.9903729836
 20
-3.6316246545
 30
0.0
 10
13.9994685066
 20
-3.5537104892
 30
0.0
 10
13.9988300991
 20
-3.5117835688
 30
0.0
 11
13.7231983224
 21
-3.7758474016
 31
0.0
 11
13.8288115508
 21
-3.7609502356
 31
0.0
 11
13.9173715624
 21
-3.716575025
 31
0.0
 11
13.9777525376
 21
-3.6357965144
 31
0.0
 11
13.9988300991
 21
-3.5117835688
 31
0.0
  0
SPLINE
  5
432
100
AcDbEntity
  8
0
100
AcDbSpline
 62
7
  6
CONTINUOUS
 70
0
 71
3
 72
11
 73
7
 74
5
 42
0.0000001
 43
0.0000001
 44
0.0000000001
 12
-0.0048507021
 22
0.3185604468
 32
0.0
 13
-0.316481899
 23
0.0367320246
 33
0.0
 40
0.0
 40
0.0
 40
0.0
 40
0.0
 40
0.257115497
 40
0.4996526316
 40
0.7437382209
 40
1.0
 40
1.0
 40
1.0
 40
1.0
 10
13.998830109
 20
-3.5117835687
 30
0.0
 10
13.9984143788
 20
-3.4844812928
 30
0.0
 10
13.9880509234
 20
-3.4308672433
 30
0.0
 10
13.9434441063
 20
-3.3634061241
 30
0.0
 10
13.8777250737
 20
-3.3168660954
 30
0.0
 10
13.8254183279
 20
-3.3023320622
 30
0.0
 10
13.7983842564
 20
-3.2991943908
 30
0.0
 11
13.998830109
 21
-3.5117835687
 31
0.0
 11
13.9825573939
 21
-3.4314988978
 31
0.0
 11
13.9400932509
 21
-3.3669382713
 31
0.0
 11
13.8768879986
 21
-3.3216297346
 31
0.0
 11
13.7983842564
 21
-3.2991943908
 31
0.0
  0
SPLINE
  5
433
100
AcDbEntity
  8
0
100
AcDbSpline
 62
7
  6
CONTINUOUS
 70
0
 71
3
 72
9
 73
5
 74
3
 42
0.0000001
 43
0.0000001
 44
0.0000000001
 12
-0.2771129335
 22
0.0321627198
 32
0.0
 13
-0.2749983204
 23
-0.0469241847
 33
0.0
 40
0.0
 40
0.0
 40
0.0
 40
0.0
 40
0.4842439568
 40
1.0
 40
1.0
 40
1.0
 40
1.0
 10
13.7983842564
 20
-3.299194391
 30
0.0
 10
13.7536541686
 20
-3.2940028567
 30
0.0
 10
13.6603067933
 20
-3.2892953595
 30
0.0
 10
13.5676949581
 20
-3.3011347751
 30
0.0
 10
13.5204176095
 20
-3.3092019191
 30
0.0
 11
13.7983842564
 21
-3.299194391
 31
0.0
 11
13.6634208423
 21
-3.2933238247
 31
0.0
 11
13.5204176095
 21
-3.3092019191
 31
0.0
  0
SPLINE
  5
434
100
AcDbEntity
  8
0
100
AcDbSpline
 62
7
  6
CONTINUOUS
 70
0
 71
3
 72
10
 73
6
 74
4
 42
0.0000001
 43
0.0000001
 44
0.0000000001
 12
0.8731819798
 22
0.1284599377
 32
0.0
 13
0.8300707046
 23
-0.2998855628
 33
0.0
 40
0.0
 40
0.0
 40
0.0
 40
0.0
 40
0.4151262789
 40
0.7045762354
 40
1.0
 40
1.0
 40
1.0
 40
1.0
 10
13.1787828418
 20
-3.0394734879
 30
0.0
 10
13.2996097705
 20
-3.0216977892
 30
0.0
 10
13.506231171
 20
-2.9991857952
 30
0.0
 10
13.8005337561
 20
-2.9991305591
 30
0.0
 10
13.9727033406
 20
-3.0278392954
 30
0.0
 10
14.0544442114
 20
-3.0573704027
 30
0.0
 11
13.1787828418
 21
-3.0394734879
 31
0.0
 11
13.5433424548
 21
-3.0029715972
 31
0.0
 11
13.7987853812
 21
-3.006170121
 31
0.0
 11
14.0544442114
 21
-3.0573704027
 31
0.0
  0
SPLINE
  5
435
100
AcDbEntity
  8
0
100
AcDbSpline
 62
7
  6
CONTINUOUS
 70
0
 71
3
 72
28
 73
24
 74
22
 42
0.0000001
 43
0.0000001
 44
0.0000000001
 12
0.9982555359
 22
-0.3601242106
 32
0.0
 13
-1.0525018316
 23
-0.1358066879
 33
0.0
 40
0.0
 40
0.0
 40
0.0
 40
0.0
 40
0.0797942832
 40
0.1315485265
 40
0.1894923392
 40
0.253049564
 40
0.3223659403
 40
0.3594887382
 40
0.3984871576
 40
0.4396141877
 40
0.4610725976
 40
0.4831786022
 40
0.5106820829
 40
0.537183969
 40
0.5874399135
 40
0.634454631
 40
0.6786281854
 40
0.7594521046
 40
0.8311338665
 40
0.8932096617
 40
0.9439322028
 40
0.9806155629
 40
1.0
 40
1.0
 40
1.0
 40
1.0
 10
14.0544442114
 20
-3.0573704027
 30
0.0
 10
14.0809959064
 20
-3.0669490205
 30
0.0
 10
14.1222580089
 20
-3.0897401926
 30
0.0
 10
14.1754921904
 20
-3.1305585049
 30
0.0
 10
14.2190583279
 20
-3.1739777166
 30
0.0
 10
14.2597897173
 20
-3.2281006276
 30
0.0
 10
14.2880806725
 20
-3.281501836
 30
0.0
 10
14.3063841995
 20
-3.3296373289
 30
0.0
 10
14.3177699554
 20
-3.3695746172
 30
0.0
 10
14.3246143751
 20
-3.4048993647
 30
0.0
 10
14.3284478942
 20
-3.4346195887
 30
0.0
 10
14.3305965298
 20
-3.4596746241
 30
0.0
 10
14.3317012
 20
-3.4865870449
 30
0.0
 10
14.3314657073
 20
-3.5234789497
 30
0.0
 10
14.3280290138
 20
-3.5672035019
 30
0.0
 10
14.3192026295
 20
-3.6165372527
 30
0.0
 10
14.3026791761
 20
-3.6751821861
 30
0.0
 10
14.2745296279
 20
-3.7392595582
 30
0.0
 10
14.2322547737
 20
-3.8027458614
 30
0.0
 10
14.1881268924
 20
-3.8509831865
 30
0.0
 10
14.1475484443
 20
-3.8854809355
 30
0.0
 10
14.1157893765
 20
-3.9052731099
 30
0.0
 10
14.0978290792
 20
-3.9150731592
 30
0.0
 10
14.0910283607
 20
-3.9159506713
 30
0.0
 11
14.0544442114
 21
-3.0573704027
 31
0.0
 11
14.1294688049
 21
-3.0966386111
 31
0.0
 11
14.1730336791
 21
-3.1300846856
 31
0.0
 11
14.2165967606
 21
-3.1734836484
 31
0.0
 11
14.2571304165
 21
-3.2273941806
 31
0.0
 11
14.2916070136
 21
-3.2923749632
 31
0.0
 11
14.3056277798
 21
-3.3291912862
 31
0.0
 11
14.3169989188
 21
-3.3689846772
 31
0.0
 11
14.3253419766
 21
-3.4118249714
 31
0.0
 11
14.328259708
 21
-3.4344095307
 31
0.0
 11
14.3302784989
 21
-3.4577820039
 31
0.0
 11
14.3314808077
 21
-3.4869446771
 31
0.0
 11
14.331285961
 21
-3.5150685295
 31
0.0
 11
14.3270396923
 21
-3.5682322054
 31
0.0
 11
14.3182094754
 21
-3.6173378998
 31
0.0
 11
14.3054650926
 21
-3.6624504811
 31
0.0
 11
14.270912959
 21
-3.7409557771
 31
0.0
 11
14.2287415509
 21
-3.8042670394
 31
0.0
 11
14.1843091278
 21
-3.852903214
 31
0.0
 11
14.1429739488
 21
-3.8873832468
 31
0.0
 11
14.1100942732
 21
-3.9082260887
 31
0.0
 11
14.0910283607
 21
-3.9159506713
 31
0.0
  0
SPLINE
  5
436
100
AcDbEntity
  8
0
100
AcDbSpline
 62
7
  6
CONTINUOUS
 70
0
 71
3
 72
10
 73
6
 74
4
 42
0.0000001
 43
0.0000001
 44
0.0000000001
 12
0.3759372602
 22
-0.1499049825
 32
0.0
 13
0.1063828106
 23
-0.3904866932
 33
0.0
 40
0.0
 40
0.0
 40
0.0
 40
0.0
 40
0.2520037104
 40
0.5059767725
 40
1.0
 40
1.0
 40
1.0
 40
1.0
 10
14.0910283607
 20
-3.9259953785
 30
0.0
 10
14.1226075555
 20
-3.9385875824
 30
0.0
 10
14.1800322281
 20
-3.9804436776
 30
0.0
 10
14.2518732354
 20
-4.0966781641
 30
0.0
 10
14.2780621202
 20
-4.19518494
 30
0.0
 10
14.2955806466
 20
-4.2594881055
 30
0.0
 11
14.0910283607
 21
-3.9259953785
 31
0.0
 11
14.1745809567
 21
-3.9844867966
 31
0.0
 11
14.231451901
 21
-4.0701092015
 31
0.0
 11
14.2955806466
 21
-4.2594881055
 31
0.0
  0
SPLINE
  5
437
100
AcDbEntity
  8
0
100
AcDbSpline
 62
7
  6
CONTINUOUS
 70
0
 71
3
 72
9
 73
5
 74
3
 42
0.0000001
 43
0.0000001
 44
0.0000000001
 12
0.1250425264
 22
-0.4589787047
 32
0.0
 13
0.1246838217
 23
-0.4590762961
 33
0.0
 40
0.0
 40
0.0
 40
0.0
 40
0.0
 40
0.8019458867
 40
1.0
 40
1.0
 40
1.0
 40
1.0
 10
14.2955806473
 20
-4.2594881053
 30
0.0
 10
14.3290064272
 20
-4.3821801334
 30
0.0
 10
14.3683445572
 20
-4.5357995477
 30
0.0
 10
14.4086253551
 20
-4.6891689405
 30
0.0
 10
14.4168567364
 20
-4.7194762568
 30
0.0
 11
14.2955806473
 21
-4.2594881053
 31
0.0
 11
14.3927067762
 21
-4.6284082551
 31
0.0
 11
14.4168567364
 21
-4.7194762568
 31
0.0
  0
SPLINE
  5
438
100
AcDbEntity
  8
0
100
AcDbSpline
 62
7
  6
CONTINUOUS
 70
0
 71
3
 72
11
 73
7
 74
5
 42
0.0000001
 43
0.0000001
 44
0.0000000001
 12
-0.1488018179
 22
0.5175643118
 32
0.0
 13
-0.1895141912
 23
0.5040852741
 33
0.0
 40
0.0
 40
0.0
 40
0.0
 40
0.0
 40
0.1342162665
 40
0.4412040774
 40
0.7774824257
 40
1.0
 40
1.0
 40
1.0
 40
1.0
 10
14.075553393
 20
-4.7194762568
 30
0.0
 10
14.0688961849
 20
-4.6963210736
 30
0.0
 10
14.0468550546
 20
-4.6202510121
 30
0.0
 10
14.0079220742
 20
-4.4862074474
 30
0.0
 10
13.9628489067
 20
-4.3375320564
 30
0.0
 10
13.9343833407
 20
-4.241227273
 30
0.0
 10
13.9203265946
 20
-4.2038379955
 30
0.0
 11
14.075553393
 21
-4.7194762568
 31
0.0
 11
14.0554813067
 21
-4.650039669
 31
0.0
 11
14.009098031
 21
-4.4913575152
 31
0.0
 11
13.9571530404
 21
-4.3178712093
 31
0.0
 11
13.9203265946
 21
-4.2038379955
 31
0.0
  0
SPLINE
  5
439
100
AcDbEntity
  8
0
100
AcDbSpline
 62
7
  6
CONTINUOUS
 70
0
 71
3
 72
10
 73
6
 74
4
 42
0.0000001
 43
0.0000001
 44
0.0000000001
 12
-0.0927466176
 22
0.2466942543
 32
0.0
 13
-0.2635312835
 23
0.0
 33
0.0
 40
0.0
 40
0.0
 40
0.0
 40
0.0
 40
0.369322549
 40
0.6480034085
 40
1.0
 40
1.0
 40
1.0
 40
1.0
 10
13.9203266267
 20
-4.2038379835
 30
0.0
 10
13.908908821
 20
-4.1734680666
 30
0.0
 10
13.880734102
 20
-4.1220278234
 30
0.0
 10
13.8099500604
 20
-4.0667452682
 30
0.0
 10
13.7533542015
 20
-4.0542438542
 30
0.0
 10
13.7224334969
 20
-4.0542438542
 30
0.0
 11
13.9203266267
 21
-4.2038379835
 31
0.0
 11
13.8710456486
 21
-4.1199053115
 31
0.0
 11
13.8128055872
 21
-4.0751650162
 31
0.0
 11
13.7224334969
 21
-4.0542438542
 31
0.0
  0
SPLINE
  5
43A
100
AcDbEntity
  8
RACCORDO
100
AcDbSpline
 62
253
  6
CONTINUOUS
 70
0
 71
3
 72
11
 73
7
 74
5
 42
0.0000001
 43
0.0000001
 44
0.0000000001
 12
-0.0150164218
 22
6.073591064
 32
0.0
 13
-0.0075953566
 23
6.0736048782
 33
0.0
 40
0.0
 40
0.0
 40
0.0
 40
0.0
 40
0.2492666095
 40
0.4990759002
 40
0.7493458039
 40
1.0
 40
1.0
 40
1.0
 40
1.0
 10
21.0092195368
 20
-9.0607743461
 30
0.0
 10
21.0079718393
 20
-8.5561265287
 30
0.0
 10
21.0056294766
 20
-7.5457318277
 30
0.0
 10
21.0025775091
 20
-6.0286569119
 30
0.0
 10
20.9999839116
 20
-4.5087719194
 30
0.0
 10
20.9985619155
 20
-3.4946337528
 30
0.0
 10
20.9979273129
 20
-2.9871755701
 30
0.0
 11
21.0092195368
 21
-9.0607743461
 31
0.0
 11
21.0057092816
 21
-7.5468303362
 31
0.0
 11
21.0026565164
 21
-6.0295892947
 31
0.0
 11
21.000062264
 21
-4.5095498116
 31
0.0
 11
20.9979273129
 21
-2.9871755701
 31
0.0
  0
LINE
  5
43B
100
AcDbEntity
  8
RACCORDO
100
AcDbLine
 62
253
  6
CONTINUOUS
 10
20.9946096952
 20
0.8128244299
 11
20.9942650969
 21
1.6451244299
  0
SPLINE
  5
43C
100
AcDbEntity
  8
RACCORDO
100
AcDbSpline
 62
253
  6
CONTINUOUS
 70
0
 71
3
 72
10
 73
6
 74
4
 42
0.0000001
 43
0.0000001
 44
0.0000000001
 12
-0.0026197791
 22
7.8978921715
 32
0.0
 13
-0.0004343008
 23
7.897892594
 33
0.0
 40
0.0
 40
0.0
 40
0.0
 40
0.0
 40
0.3333135956
 40
0.666647995
 40
1.0
 40
1.0
 40
1.0
 40
1.0
 10
20.9942650969
 20
1.6451244299
 30
0.0
 10
20.9939740275
 20
2.5226160424
 30
0.0
 10
20.9934728331
 20
4.2776540638
 30
0.0
 10
20.9929638591
 20
6.9102848866
 30
0.0
 10
20.9927864113
 20
8.6654240886
 30
0.0
 10
20.9927381529
 20
9.5430168659
 30
0.0
 11
20.9942650969
 21
1.6451244299
 31
0.0
 11
20.9935133182
 21
4.2775993047
 31
0.0
 11
20.9930043355
 21
6.9102385435
 31
0.0
 11
20.9927381529
 21
9.5430168659
 31
0.0
  0
SPLINE
  5
43D
100
AcDbEntity
  8
RACCORDO
100
AcDbSpline
 62
253
  6
CONTINUOUS
 70
0
 71
3
 72
10
 73
6
 74
4
 42
0.0000001
 43
0.0000001
 44
0.0000000001
 12
-0.0004343008
 22
-7.897892594
 32
0.0
 13
-0.0026197791
 23
-7.8978921715
 33
0.0
 40
0.0
 40
0.0
 40
0.0
 40
0.0
 40
0.333352005
 40
0.6666864044
 40
1.0
 40
1.0
 40
1.0
 40
1.0
 10
-21.1675857971
 20
9.5430168659
 30
0.0
 10
-21.1676340555
 20
8.6654240886
 30
0.0
 10
-21.1678115033
 20
6.9102848866
 30
0.0
 10
-21.1683204773
 20
4.2776540638
 30
0.0
 10
-21.1688216717
 20
2.5226160424
 30
0.0
 10
-21.169112741
 20
1.6451244299
 30
0.0
 11
-21.1675857971
 21
9.5430168659
 31
0.0
 11
-21.1678519797
 21
6.9102385435
 31
0.0
 11
-21.1683609624
 21
4.2775993047
 31
0.0
 11
-21.169112741
 21
1.6451244299
 31
0.0
  0
LINE
  5
43E
100
AcDbEntity
  8
RACCORDO
100
AcDbLine
 62
253
  6
CONTINUOUS
 10
-21.169112741
 20
1.6451244299
 11
-21.1694573394
 21
0.8128244299
  0
SPLINE
  5
43F
100
AcDbEntity
  8
RACCORDO
100
AcDbSpline
 62
253
  6
CONTINUOUS
 70
0
 71
3
 72
21
 73
17
 74
15
 42
0.0000001
 43
0.0000001
 44
0.0000000001
 12
0.0
 22
-0.2908043987
 32
0.0
 13
0.2908043987
 23
0.0
 33
0.0
 40
0.0
 40
0.0
 40
0.0
 40
0.0
 40
0.0410363243
 40
0.0843281145
 40
0.1317099685
 40
0.1844163852
 40
0.2431210255
 40
0.3080543418
 40
0.3791152499
 40
0.4559553438
 40
0.5380389422
 40
0.6246866076
 40
0.7151083214
 40
0.8084304121
 40
0.9037187828
 40
1.0
 40
1.0
 40
1.0
 40
1.0
 10
5.1625761779
 20
-6.8417980844
 30
0.0
 10
5.1625761779
 20
-6.8457759322
 30
0.0
 10
5.1636982078
 20
-6.8539865227
 30
0.0
 10
5.1686160886
 20
-6.8658918213
 30
0.0
 10
5.1766114473
 20
-6.8773697118
 30
0.0
 10
5.1875250357
 20
-6.8883123632
 30
0.0
 10
5.2012091239
 20
-6.8986318243
 30
0.0
 10
5.2175003551
 20
-6.9082258242
 30
0.0
 10
5.2362060893
 20
-6.9169886778
 30
0.0
 10
5.2571016313
 20
-6.9248167863
 30
0.0
 10
5.2799322088
 20
-6.9316144481
 30
0.0
 10
5.3044165913
 20
-6.937297015
 30
0.0
 10
5.3302511307
 20
-6.9417930738
 30
0.0
 10
5.3571144073
 20
-6.9450458453
 30
0.0
 10
5.3846703572
 20
-6.9470141495
 30
0.0
 10
5.4032431774
 20
-6.9474526498
 30
0.0
 10
5.4125761779
 20
-6.9474526498
 30
0.0
 11
5.1625761779
 21
-6.8417980844
 31
0.0
 11
5.1641481254
 21
-6.8536276424
 31
0.0
 11
5.1688441999
 21
-6.8653084369
 31
0.0
 11
5.1766053453
 21
-6.8766935751
 31
0.0
 11
5.1873339609
 21
-6.8876398823
 31
0.0
 11
5.2008951281
 21
-6.8980097022
 31
0.0
 11
5.2171183073
 21
-6.9076726284
 31
0.0
 11
5.2357994826
 21
-6.916507144
 31
0.0
 11
5.2567037274
 21
-6.9244021499
 31
0.0
 11
5.2795681588
 21
-6.9312583617
 31
0.0
 11
5.3041052431
 21
-6.9369895586
 31
0.0
 11
5.3300064124
 21
-6.9415236675
 31
0.0
 11
5.3569459444
 21
-6.9448036693
 31
0.0
 11
5.3845850589
 21
-6.9467883161
 31
0.0
 11
5.4125761779
 21
-6.9474526498
 31
0.0
  0
SPLINE
  5
440
100
AcDbEntity
  8
RACCORDO
100
AcDbSpline
 62
253
  6
CONTINUOUS
 70
0
 71
3
 72
11
 73
7
 74
5
 42
0.0000001
 43
0.0000001
 44
0.0000000001
 12
-0.0075953566
 22
-6.073604876
 32
0.0
 13
-0.0150164218
 23
-6.0735910619
 33
0.0
 40
0.0
 40
0.0
 40
0.0
 40
0.0
 40
0.2506541962
 40
0.5009240931
 40
0.7507334494
 40
1.0
 40
1.0
 40
1.0
 40
1.0
 10
-21.1727749571
 20
-2.9871755701
 30
0.0
 10
-21.1734095597
 20
-3.4946337528
 30
0.0
 10
-21.1748315558
 20
-4.5087719053
 30
0.0
 10
-21.1774251535
 20
-6.0286570166
 30
0.0
 10
-21.1804771212
 20
-7.5457319317
 30
0.0
 10
-21.1828194835
 20
-8.556126646
 30
0.0
 10
-21.1840671807
 20
-9.0607743439
 30
0.0
 11
-21.1727749571
 21
-2.9871755701
 31
0.0
 11
-21.1749099082
 21
-4.5095498116
 31
0.0
 11
-21.1775041605
 21
-6.0295892524
 31
0.0
 11
-21.1805569266
 21
-7.5468306926
 31
0.0
 11
-21.1840671807
 21
-9.0607743439
 31
0.0
  0
SPLINE
  5
441
100
AcDbEntity
  8
RACCORDO
100
AcDbSpline
 62
7
  6
CONTINUOUS
 70
0
 71
3
 72
30
 73
26
 74
24
 42
0.0000001
 43
0.0000001
 44
0.0000000001
 12
0.0
 22
0.3617277002
 32
0.0
 13
-0.3617277002
 23
0.0
 33
0.0
 40
0.0
 40
0.0
 40
0.0
 40
0.0
 40
0.0338541793
 40
0.0681562348
 40
0.1029469858
 40
0.1382745912
 40
0.1741937585
 40
0.210764861
 40
0.2480530495
 40
0.2861280919
 40
0.3250616672
 40
0.3649284434
 40
0.4058052946
 40
0.4477705067
 40
0.4909028733
 40
0.5352806515
 40
0.5809802537
 40
0.6280743994
 40
0.6766295048
 40
0.7266979977
 40
0.7783157737
 40
0.8314942757
 40
0.8862132887
 40
0.9424148236
 40
1.0
 40
1.0
 40
1.0
 40
1.0
 10
5.9625761779
 20
-6.1969504779
 30
0.0
 10
5.9625761779
 20
-6.1928684797
 30
0.0
 10
5.9622899805
 20
-6.1846476346
 30
0.0
 10
5.9609913488
 20
-6.172293057
 30
0.0
 10
5.9587955796
 20
-6.159884664
 30
0.0
 10
5.9556812987
 20
-6.1474732129
 30
0.0
 10
5.9516304415
 20
-6.1351087929
 30
0.0
 10
5.9466278011
 20
-6.1228420683
 30
0.0
 10
5.9406605577
 20
-6.1107239558
 30
0.0
 10
5.9337179419
 20
-6.0988060884
 30
0.0
 10
5.9257909132
 20
-6.0871410565
 30
0.0
 10
5.9168719741
 20
-6.0757828602
 30
0.0
 10
5.906954952
 20
-6.0647872852
 30
0.0
 10
5.8960350574
 20
-6.054212569
 30
0.0
 10
5.8841091512
 20
-6.0441201319
 30
0.0
 10
5.8711762588
 20
-6.0345753552
 30
0.0
 10
5.8572383919
 20
-6.0256483878
 30
0.0
 10
5.8423017679
 20
-6.0174149525
 30
0.0
 10
5.8263789753
 20
-6.0099572971
 30
0.0
 10
5.8094915875
 20
-6.0033646755
 30
0.0
 10
5.7916736172
 20
-5.9977334396
 30
0.0
 10
5.7729753365
 20
-5.9931662726
 30
0.0
 10
5.7534669747
 20
-5.9897705297
 30
0.0
 10
5.7332444104
 20
-5.9876553278
 30
0.0
 10
5.7195195624
 20
-5.9871755701
 30
0.0
 10
5.7125761779
 20
-5.9871755701
 30
0.0
 11
5.9625761779
 21
-6.1969504779
 31
0.0
 11
5.9621503485
 21
-6.1847118894
 31
0.0
 11
5.9608542324
 21
-6.1723717663
 31
0.0
 11
5.958662877
 21
-6.159979244
 31
0.0
 11
5.9555550026
 21
-6.1475839514
 31
0.0
 11
5.9515125682
 21
-6.1352358473
 31
0.0
 11
5.9465203249
 21
-6.1229852086
 31
0.0
 11
5.940565393
 21
-6.1108827488
 31
0.0
 11
5.9336367586
 21
-6.0989796409
 31
0.0
 11
5.9257253176
 21
-6.087328464
 31
0.0
 11
5.9168233873
 21
-6.0759830467
 31
0.0
 11
5.9069245956
 21
-6.0649990459
 31
0.0
 11
5.8960239393
 21
-6.0544346019
 31
0.0
 11
5.8841180535
 21
-6.0443510684
 31
0.0
 11
5.8712057167
 21
-6.0348137824
 31
0.0
 11
5.8572886462
 21
-6.0258928579
 31
0.0
 11
5.8423726894
 21
-6.0176639933
 31
0.0
 11
5.826469517
 21
-6.0102092229
 31
0.0
 11
5.8096003179
 21
-6.0036179964
 31
0.0
 11
5.7917981594
 21
-5.9979867417
 31
0.0
 11
5.773112347
 21
-5.9934184391
 31
0.0
 11
5.7536127294
 21
-5.9900209526
 31
0.0
 11
5.7333935871
 21
-5.9879041072
 31
0.0
 11
5.7125761779
 21
-5.9871755701
 31
0.0
  0
SPLINE
  5
442
100
AcDbEntity
  8
RACCORDO
100
AcDbSpline
 62
253
  6
CONTINUOUS
 70
0
 71
3
 72
11
 73
7
 74
5
 42
0.0000001
 43
0.0000001
 44
0.0000000001
 12
-0.0150516782
 22
6.1016399679
 32
0.0
 13
-0.0075958962
 23
6.1016538048
 33
0.0
 40
0.0
 40
0.0
 40
0.0
 40
0.0
 40
0.2492700402
 40
0.4990777041
 40
0.7493464963
 40
1.0
 40
1.0
 40
1.0
 40
1.0
 10
20.8092499213
 20
-9.0888232652
 30
0.0
 10
20.8079992772
 20
-8.5818379186
 30
0.0
 10
20.8056518872
 20
-7.5667733701
 30
0.0
 10
20.8025943484
 20
-6.0426909331
 30
0.0
 10
20.7999974082
 20
-4.5157938303
 30
0.0
 10
20.7985746074
 20
-3.4969758717
 30
0.0
 10
20.7979399614
 20
-2.9871755701
 30
0.0
 11
20.8092499213
 21
-9.0888232652
 31
0.0
 11
20.8057320025
 21
-7.5678666661
 31
0.0
 11
20.8026737304
 21
-6.0436286699
 31
0.0
 11
20.8000761199
 21
-4.5165761681
 31
0.0
 11
20.7979399614
 21
-2.9871755701
 31
0.0
  0
SPLINE
  5
443
100
AcDbEntity
  8
RACCORDO
100
AcDbSpline
 62
253
  6
CONTINUOUS
 70
0
 71
3
 72
22
 73
18
 74
16
 42
0.0000001
 43
0.0000001
 44
0.0000000001
 12
0.0353838998
 22
-0.035404188
 32
0.0
 13
0.0000000347
 23
-0.0500547389
 33
0.0
 40
0.0
 40
0.0
 40
0.0
 40
0.0
 40
0.0094797824
 40
0.0289533524
 40
0.0584726695
 40
0.0977903549
 40
0.1465191335
 40
0.2041612347
 40
0.2701203929
 40
0.3437102079
 40
0.4241625259
 40
0.5106369842
 40
0.6022297112
 40
0.6979828567
 40
0.796895218
 40
0.8979315694
 40
1.0
 40
1.0
 40
1.0
 40
1.0
 10
16.3524655622
 20
-4.7269126612
 30
0.0
 10
16.3525773728
 20
-4.7270245358
 30
0.0
 10
16.3526807819
 20
-4.7275331292
 30
0.0
 10
16.3528606359
 20
-4.728465011
 30
0.0
 10
16.3530108642
 20
-4.7299456474
 30
0.0
 10
16.353174689
 20
-4.7318944341
 30
0.0
 10
16.3533262287
 20
-4.7343228816
 30
0.0
 10
16.3534716722
 20
-4.7371937722
 30
0.0
 10
16.3536059741
 20
-4.7404814474
 30
0.0
 10
16.3537285246
 20
-4.7441500478
 30
0.0
 10
16.3538375596
 20
-4.7481616121
 30
0.0
 10
16.3539319508
 20
-4.7524739644
 30
0.0
 10
16.3540106185
 20
-4.7570419726
 30
0.0
 10
16.3540727096
 20
-4.7618177751
 30
0.0
 10
16.3541175435
 20
-4.7667513433
 30
0.0
 10
16.3541446355
 20
-4.7717904108
 30
0.0
 10
16.3541506637
 20
-4.7751791996
 30
0.0
 10
16.3541506649
 20
-4.7768822025
 30
0.0
 11
16.3524655622
 21
-4.7269126612
 31
0.0
 11
16.3526435497
 21
-4.7273525229
 31
0.0
 11
16.3528190957
 21
-4.7283113296
 31
0.0
 11
16.3529903012
 21
-4.7297789591
 31
0.0
 11
16.3531553716
 21
-4.7317400607
 31
0.0
 11
16.3533125782
 21
-4.7341740955
 31
0.0
 11
16.3534602735
 21
-4.7370555732
 31
0.0
 11
16.3535969103
 21
-4.740354313
 31
0.0
 11
16.3537210559
 21
-4.7440357393
 31
0.0
 11
16.353831409
 21
-4.7480612468
 31
0.0
 11
16.3539268138
 21
-4.7523886517
 31
0.0
 11
16.3540062712
 21
-4.7569726132
 31
0.0
 11
16.3540689493
 21
-4.761765102
 31
0.0
 11
16.3541141919
 21
-4.7667159277
 31
0.0
 11
16.3541415261
 21
-4.771773202
 31
0.0
 11
16.3541506649
 21
-4.7768822025
 31
0.0
  0
SPLINE
  5
444
100
AcDbEntity
  8
RACCORDO
100
AcDbSpline
 62
253
  6
CONTINUOUS
 70
0
 71
3
 72
21
 73
17
 74
15
 42
0.0000001
 43
0.0000001
 44
0.0000000001
 12
-0.0000000325
 22
0.0492840989
 32
0.0
 13
-0.0095736573
 23
0.0483452944
 33
0.0
 40
0.0
 40
0.0
 40
0.0
 40
0.0
 40
0.1009823875
 40
0.2009970814
 40
0.2990180616
 40
0.3940718717
 40
0.4852153928
 40
0.5715442777
 40
0.6522006649
 40
0.7263848364
 40
0.793362892
 40
0.8524735606
 40
0.9031359638
 40
0.9448567821
 40
0.977240345
 40
1.0
 40
1.0
 40
1.0
 40
1.0
 10
16.413515973
 20
-6.5386613266
 30
0.0
 10
16.4135159719
 20
-6.5370023846
 30
0.0
 10
16.4135102493
 20
-6.533700395
 30
0.0
 10
16.4134845284
 20
-6.528788174
 30
0.0
 10
16.4134419466
 20
-6.5239734675
 30
0.0
 10
16.4133829408
 20
-6.5193046806
 30
0.0
 10
16.4133081197
 20
-6.5148282227
 30
0.0
 10
16.4132182603
 20
-6.5105886106
 30
0.0
 10
16.4131143031
 20
-6.5066280164
 30
0.0
 10
16.4129973641
 20
-6.5029858232
 30
0.0
 10
16.4128686976
 20
-6.4996982237
 30
0.0
 10
16.4127298468
 20
-6.4967978064
 30
0.0
 10
16.4125822916
 20
-6.4943134202
 30
0.0
 10
16.4124287812
 20
-6.4922692372
 30
0.0
 10
16.4122704169
 20
-6.4906859689
 30
0.0
 10
16.412145762
 20
-6.4897877131
 30
0.0
 10
16.4120731309
 20
-6.489420939
 30
0.0
 11
16.413515973
 21
-6.5386613266
 31
0.0
 11
16.4135073021
 21
-6.5336845082
 31
0.0
 11
16.4134813632
 21
-6.5287554424
 31
0.0
 11
16.4134384142
 21
-6.5239247576
 31
0.0
 11
16.4133788808
 21
-6.5192404946
 31
0.0
 11
16.4133033541
 21
-6.5147492032
 31
0.0
 11
16.4132125841
 21
-6.5104955303
 31
0.0
 11
16.4131074745
 21
-6.5065218428
 31
0.0
 11
16.4129890712
 21
-6.5028676606
 31
0.0
 11
16.4128585513
 21
-6.4995692888
 31
0.0
 11
16.4127172124
 21
-6.4966595034
 31
0.0
 11
16.4125664596
 21
-6.4941672077
 31
0.0
 11
16.4124077908
 21
-6.4921171659
 31
0.0
 11
16.4122427842
 21
-6.490529724
 31
0.0
 11
16.4120731309
 21
-6.489420939
 31
0.0
  0
SPLINE
  5
445
100
AcDbEntity
  8
RACCORDO
100
AcDbSpline
 62
253
  6
CONTINUOUS
 70
0
 71
3
 72
21
 73
17
 74
15
 42
0.0000001
 43
0.0000001
 44
0.0000000001
 12
-0.0095736573
 22
-0.0483452944
 32
0.0
 13
-0.0000000325
 23
-0.0492840989
 33
0.0
 40
0.0
 40
0.0
 40
0.0
 40
0.0
 40
0.022759655
 40
0.0551432179
 40
0.0968640362
 40
0.1475264394
 40
0.206637108
 40
0.2736151636
 40
0.3477993352
 40
0.4284557223
 40
0.5147846072
 40
0.6059281283
 40
0.7009819385
 40
0.7990029186
 40
0.8990176125
 40
1.0
 40
1.0
 40
1.0
 40
1.0
 10
17.1130792249
 20
-6.489420939
 30
0.0
 10
17.1130065938
 20
-6.4897877131
 30
0.0
 10
17.1128819389
 20
-6.4906859689
 30
0.0
 10
17.1127235746
 20
-6.4922692372
 30
0.0
 10
17.1125700642
 20
-6.4943134202
 30
0.0
 10
17.112422509
 20
-6.4967978064
 30
0.0
 10
17.1122836582
 20
-6.4996982237
 30
0.0
 10
17.1121549917
 20
-6.5029858232
 30
0.0
 10
17.1120380527
 20
-6.5066280164
 30
0.0
 10
17.1119340955
 20
-6.5105886106
 30
0.0
 10
17.1118442361
 20
-6.5148282227
 30
0.0
 10
17.1117694151
 20
-6.5193046806
 30
0.0
 10
17.1117104092
 20
-6.5239734675
 30
0.0
 10
17.1116678274
 20
-6.528788174
 30
0.0
 10
17.1116421065
 20
-6.533700395
 30
0.0
 10
17.1116363839
 20
-6.5370023846
 30
0.0
 10
17.1116363828
 20
-6.5386613266
 30
0.0
 11
17.1130792249
 21
-6.489420939
 31
0.0
 11
17.1129095716
 21
-6.490529724
 31
0.0
 11
17.112744565
 21
-6.4921171659
 31
0.0
 11
17.1125858962
 21
-6.4941672077
 31
0.0
 11
17.1124351434
 21
-6.4966595034
 31
0.0
 11
17.1122938045
 21
-6.4995692888
 31
0.0
 11
17.1121632846
 21
-6.5028676606
 31
0.0
 11
17.1120448813
 21
-6.5065218428
 31
0.0
 11
17.1119397717
 21
-6.5104955303
 31
0.0
 11
17.1118490017
 21
-6.5147492032
 31
0.0
 11
17.1117734751
 21
-6.5192404946
 31
0.0
 11
17.1117139416
 21
-6.5239247576
 31
0.0
 11
17.1116709926
 21
-6.5287554424
 31
0.0
 11
17.1116450537
 21
-6.5336845082
 31
0.0
 11
17.1116363828
 21
-6.5386613266
 31
0.0
  0
SPLINE
  5
446
100
AcDbEntity
  8
RACCORDO
100
AcDbSpline
 62
253
  6
CONTINUOUS
 70
0
 71
3
 72
22
 73
18
 74
16
 42
0.0000001
 43
0.0000001
 44
0.0000000001
 12
-0.035385018
 22
-0.0354030702
 32
0.0
 13
-0.0000000355
 23
-0.0500547388
 33
0.0
 40
0.0
 40
0.0
 40
0.0
 40
0.0
 40
0.009479796
 40
0.0289530253
 40
0.0584715618
 40
0.0977882629
 40
0.1465158594
 40
0.2041566911
 40
0.2701145823
 40
0.3437036875
 40
0.424156945
 40
0.5106329234
 40
0.6022270343
 40
0.6979813584
 40
0.7968946468
 40
0.8979316384
 40
1.0
 40
1.0
 40
1.0
 40
1.0
 10
17.1726867936
 20
-4.7269126612
 30
0.0
 10
17.1725749793
 20
-4.7270245325
 30
0.0
 10
17.1724715791
 20
-4.7275331274
 30
0.0
 10
17.1722917227
 20
-4.7284649862
 30
0.0
 10
17.1721414981
 20
-4.7299455896
 30
0.0
 10
17.1719776747
 20
-4.7318943263
 30
0.0
 10
17.1718261367
 20
-4.7343227168
 30
0.0
 10
17.1716806941
 20
-4.7371935452
 30
0.0
 10
17.1715463921
 20
-4.7404811661
 30
0.0
 10
17.1714238402
 20
-4.7441497491
 30
0.0
 10
17.1713148026
 20
-4.7481613425
 30
0.0
 10
17.1712204088
 20
-4.7524737589
 30
0.0
 10
17.1711417392
 20
-4.7570418352
 30
0.0
 10
17.171079647
 20
-4.7618176959
 30
0.0
 10
17.1710348124
 20
-4.76675131
 30
0.0
 10
17.1710077203
 20
-4.7717904025
 30
0.0
 10
17.1710016922
 20
-4.7751792008
 30
0.0
 10
17.171001691
 20
-4.7768822025
 30
0.0
 11
17.1726867936
 21
-4.7269126612
 31
0.0
 11
17.1725088062
 21
-4.7273525237
 31
0.0
 11
17.1723332632
 21
-4.7283113136
 31
0.0
 11
17.1721620603
 21
-4.7297789041
 31
0.0
 11
17.1719969921
 21
-4.7317399564
 31
0.0
 11
17.1718397872
 21
-4.734173932
 31
0.0
 11
17.1716920928
 21
-4.7370553461
 31
0.0
 11
17.1715554564
 21
-4.7403540225
 31
0.0
 11
17.1714313098
 21
-4.7440354132
 31
0.0
 11
17.1713209536
 21
-4.7480609676
 31
0.0
 11
17.171225546
 21
-4.7523884486
 31
0.0
 11
17.1711460866
 21
-4.7569724792
 31
0.0
 11
17.1710834073
 21
-4.7617650271
 31
0.0
 11
17.1710381641
 21
-4.7667158991
 31
0.0
 11
17.1710108297
 21
-4.7717732055
 31
0.0
 11
17.171001691
 21
-4.7768822025
 31
0.0
  0
SPLINE
  5
447
100
AcDbEntity
  8
RACCORDO
100
AcDbSpline
 62
253
  6
CONTINUOUS
 70
0
 71
3
 72
21
 73
17
 74
15
 42
0.0000001
 43
0.0000001
 44
0.0000000001
 12
-0.0000000325
 22
0.0492840989
 32
0.0
 13
-0.0095736573
 23
0.0483452944
 33
0.0
 40
0.0
 40
0.0
 40
0.0
 40
0.0
 40
0.1009823875
 40
0.2009970814
 40
0.2990180616
 40
0.3940718717
 40
0.4852153928
 40
0.5715442777
 40
0.6522006649
 40
0.7263848364
 40
0.793362892
 40
0.8524735606
 40
0.9031359638
 40
0.9448567821
 40
0.977240345
 40
1.0
 40
1.0
 40
1.0
 40
1.0
 10
-17.286484027
 20
-6.5386613266
 30
0.0
 10
-17.2864840281
 20
-6.5370023846
 30
0.0
 10
-17.2864897507
 20
-6.533700395
 30
0.0
 10
-17.2865154716
 20
-6.528788174
 30
0.0
 10
-17.2865580534
 20
-6.5239734675
 30
0.0
 10
-17.2866170592
 20
-6.5193046806
 30
0.0
 10
-17.2866918803
 20
-6.5148282227
 30
0.0
 10
-17.2867817397
 20
-6.5105886106
 30
0.0
 10
-17.2868856969
 20
-6.5066280164
 30
0.0
 10
-17.2870026359
 20
-6.5029858232
 30
0.0
 10
-17.2871313024
 20
-6.4996982237
 30
0.0
 10
-17.2872701532
 20
-6.4967978064
 30
0.0
 10
-17.2874177084
 20
-6.4943134202
 30
0.0
 10
-17.2875712188
 20
-6.4922692372
 30
0.0
 10
-17.2877295831
 20
-6.4906859689
 30
0.0
 10
-17.287854238
 20
-6.4897877131
 30
0.0
 10
-17.2879268691
 20
-6.489420939
 30
0.0
 11
-17.286484027
 21
-6.5386613266
 31
0.0
 11
-17.2864926979
 21
-6.5336845082
 31
0.0
 11
-17.2865186368
 21
-6.5287554424
 31
0.0
 11
-17.2865615858
 21
-6.5239247576
 31
0.0
 11
-17.2866211192
 21
-6.5192404946
 31
0.0
 11
-17.2866966459
 21
-6.5147492032
 31
0.0
 11
-17.2867874159
 21
-6.5104955303
 31
0.0
 11
-17.2868925255
 21
-6.5065218428
 31
0.0
 11
-17.2870109288
 21
-6.5028676606
 31
0.0
 11
-17.2871414487
 21
-6.4995692888
 31
0.0
 11
-17.2872827876
 21
-6.4966595034
 31
0.0
 11
-17.2874335404
 21
-6.4941672077
 31
0.0
 11
-17.2875922092
 21
-6.4921171659
 31
0.0
 11
-17.2877572158
 21
-6.490529724
 31
0.0
 11
-17.2879268691
 21
-6.489420939
 31
0.0
  0
SPLINE
  5
448
100
AcDbEntity
  8
RACCORDO
100
AcDbSpline
 62
253
  6
CONTINUOUS
 70
0
 71
3
 72
22
 73
18
 74
16
 42
0.0000001
 43
0.0000001
 44
0.0000000001
 12
0.0353838998
 22
-0.035404188
 32
0.0
 13
0.0000000347
 23
-0.0500547389
 33
0.0
 40
0.0
 40
0.0
 40
0.0
 40
0.0
 40
0.0094797824
 40
0.0289533524
 40
0.0584726695
 40
0.0977903549
 40
0.1465191335
 40
0.2041612347
 40
0.2701203929
 40
0.3437102079
 40
0.4241625259
 40
0.5106369842
 40
0.6022297112
 40
0.6979828567
 40
0.796895218
 40
0.8979315694
 40
1.0
 40
1.0
 40
1.0
 40
1.0
 10
-17.3475344378
 20
-4.7269126612
 30
0.0
 10
-17.3474226272
 20
-4.7270245358
 30
0.0
 10
-17.3473192181
 20
-4.7275331292
 30
0.0
 10
-17.3471393641
 20
-4.728465011
 30
0.0
 10
-17.3469891358
 20
-4.7299456474
 30
0.0
 10
-17.346825311
 20
-4.7318944341
 30
0.0
 10
-17.3466737713
 20
-4.7343228816
 30
0.0
 10
-17.3465283278
 20
-4.7371937722
 30
0.0
 10
-17.3463940259
 20
-4.7404814474
 30
0.0
 10
-17.3462714754
 20
-4.7441500478
 30
0.0
 10
-17.3461624404
 20
-4.7481616121
 30
0.0
 10
-17.3460680492
 20
-4.7524739644
 30
0.0
 10
-17.3459893815
 20
-4.7570419726
 30
0.0
 10
-17.3459272904
 20
-4.7618177751
 30
0.0
 10
-17.3458824565
 20
-4.7667513433
 30
0.0
 10
-17.3458553645
 20
-4.7717904108
 30
0.0
 10
-17.3458493363
 20
-4.7751791996
 30
0.0
 10
-17.3458493351
 20
-4.7768822025
 30
0.0
 11
-17.3475344378
 21
-4.7269126612
 31
0.0
 11
-17.3473564503
 21
-4.7273525229
 31
0.0
 11
-17.3471809043
 21
-4.7283113296
 31
0.0
 11
-17.3470096988
 21
-4.7297789591
 31
0.0
 11
-17.3468446284
 21
-4.7317400607
 31
0.0
 11
-17.3466874218
 21
-4.7341740955
 31
0.0
 11
-17.3465397265
 21
-4.7370555732
 31
0.0
 11
-17.3464030897
 21
-4.740354313
 31
0.0
 11
-17.3462789441
 21
-4.7440357393
 31
0.0
 11
-17.346168591
 21
-4.7480612468
 31
0.0
 11
-17.3460731862
 21
-4.7523886517
 31
0.0
 11
-17.3459937288
 21
-4.7569726132
 31
0.0
 11
-17.3459310507
 21
-4.761765102
 31
0.0
 11
-17.3458858081
 21
-4.7667159277
 31
0.0
 11
-17.3458584739
 21
-4.771773202
 31
0.0
 11
-17.3458493351
 21
-4.7768822025
 31
0.0
  0
SPLINE
  5
449
100
AcDbEntity
  8
RACCORDO
100
AcDbSpline
 62
253
  6
CONTINUOUS
 70
0
 71
3
 72
21
 73
17
 74
15
 42
0.0000001
 43
0.0000001
 44
0.0000000001
 12
-0.0095736573
 22
-0.0483452944
 32
0.0
 13
-0.0000000325
 23
-0.0492840989
 33
0.0
 40
0.0
 40
0.0
 40
0.0
 40
0.0
 40
0.022759655
 40
0.0551432179
 40
0.0968640362
 40
0.1475264394
 40
0.206637108
 40
0.2736151636
 40
0.3477993352
 40
0.4284557223
 40
0.5147846072
 40
0.6059281283
 40
0.7009819385
 40
0.7990029186
 40
0.8990176125
 40
1.0
 40
1.0
 40
1.0
 40
1.0
 10
-16.5869207751
 20
-6.489420939
 30
0.0
 10
-16.5869934062
 20
-6.4897877131
 30
0.0
 10
-16.5871180611
 20
-6.4906859689
 30
0.0
 10
-16.5872764254
 20
-6.4922692372
 30
0.0
 10
-16.5874299358
 20
-6.4943134202
 30
0.0
 10
-16.587577491
 20
-6.4967978064
 30
0.0
 10
-16.5877163418
 20
-6.4996982237
 30
0.0
 10
-16.5878450083
 20
-6.5029858232
 30
0.0
 10
-16.5879619473
 20
-6.5066280164
 30
0.0
 10
-16.5880659045
 20
-6.5105886106
 30
0.0
 10
-16.5881557639
 20
-6.5148282227
 30
0.0
 10
-16.5882305849
 20
-6.5193046806
 30
0.0
 10
-16.5882895908
 20
-6.5239734675
 30
0.0
 10
-16.5883321726
 20
-6.528788174
 30
0.0
 10
-16.5883578935
 20
-6.533700395
 30
0.0
 10
-16.5883636161
 20
-6.5370023846
 30
0.0
 10
-16.5883636172
 20
-6.5386613266
 30
0.0
 11
-16.5869207751
 21
-6.489420939
 31
0.0
 11
-16.5870904284
 21
-6.490529724
 31
0.0
 11
-16.587255435
 21
-6.4921171659
 31
0.0
 11
-16.5874141038
 21
-6.4941672077
 31
0.0
 11
-16.5875648566
 21
-6.4966595034
 31
0.0
 11
-16.5877061955
 21
-6.4995692888
 31
0.0
 11
-16.5878367154
 21
-6.5028676606
 31
0.0
 11
-16.5879551187
 21
-6.5065218428
 31
0.0
 11
-16.5880602283
 21
-6.5104955303
 31
0.0
 11
-16.5881509983
 21
-6.5147492032
 31
0.0
 11
-16.5882265249
 21
-6.5192404946
 31
0.0
 11
-16.5882860584
 21
-6.5239247576
 31
0.0
 11
-16.5883290074
 21
-6.5287554424
 31
0.0
 11
-16.5883549463
 21
-6.5336845082
 31
0.0
 11
-16.5883636172
 21
-6.5386613266
 31
0.0
  0
SPLINE
  5
44A
100
AcDbEntity
  8
RACCORDO
100
AcDbSpline
 62
253
  6
CONTINUOUS
 70
0
 71
3
 72
22
 73
18
 74
16
 42
0.0000001
 43
0.0000001
 44
0.0000000001
 12
-0.035385018
 22
-0.0354030702
 32
0.0
 13
-0.0000000355
 23
-0.0500547388
 33
0.0
 40
0.0
 40
0.0
 40
0.0
 40
0.0
 40
0.009479796
 40
0.0289530253
 40
0.0584715618
 40
0.0977882629
 40
0.1465158594
 40
0.2041566911
 40
0.2701145823
 40
0.3437036875
 40
0.424156945
 40
0.5106329234
 40
0.6022270343
 40
0.6979813584
 40
0.7968946468
 40
0.8979316384
 40
1.0
 40
1.0
 40
1.0
 40
1.0
 10
-16.5273132064
 20
-4.7269126612
 30
0.0
 10
-16.5274250207
 20
-4.7270245325
 30
0.0
 10
-16.5275284209
 20
-4.7275331274
 30
0.0
 10
-16.5277082773
 20
-4.7284649862
 30
0.0
 10
-16.5278585019
 20
-4.7299455896
 30
0.0
 10
-16.5280223253
 20
-4.7318943263
 30
0.0
 10
-16.5281738633
 20
-4.7343227168
 30
0.0
 10
-16.5283193059
 20
-4.7371935452
 30
0.0
 10
-16.5284536079
 20
-4.7404811661
 30
0.0
 10
-16.5285761598
 20
-4.7441497491
 30
0.0
 10
-16.5286851974
 20
-4.7481613425
 30
0.0
 10
-16.5287795912
 20
-4.7524737589
 30
0.0
 10
-16.5288582608
 20
-4.7570418352
 30
0.0
 10
-16.528920353
 20
-4.7618176959
 30
0.0
 10
-16.5289651876
 20
-4.76675131
 30
0.0
 10
-16.5289922797
 20
-4.7717904025
 30
0.0
 10
-16.5289983078
 20
-4.7751792008
 30
0.0
 10
-16.528998309
 20
-4.7768822025
 30
0.0
 11
-16.5273132064
 21
-4.7269126612
 31
0.0
 11
-16.5274911938
 21
-4.7273525237
 31
0.0
 11
-16.5276667368
 21
-4.7283113136
 31
0.0
 11
-16.5278379397
 21
-4.7297789041
 31
0.0
 11
-16.5280030079
 21
-4.7317399564
 31
0.0
 11
-16.5281602128
 21
-4.734173932
 31
0.0
 11
-16.5283079072
 21
-4.7370553461
 31
0.0
 11
-16.5284445436
 21
-4.7403540225
 31
0.0
 11
-16.5285686902
 21
-4.7440354132
 31
0.0
 11
-16.5286790464
 21
-4.7480609676
 31
0.0
 11
-16.528774454
 21
-4.7523884486
 31
0.0
 11
-16.5288539134
 21
-4.7569724792
 31
0.0
 11
-16.5289165927
 21
-4.7617650271
 31
0.0
 11
-16.5289618359
 21
-4.7667158991
 31
0.0
 11
-16.5289891703
 21
-4.7717732055
 31
0.0
 11
-16.528998309
 21
-4.7768822025
 31
0.0
  0
SPLINE
  5
44B
100
AcDbEntity
  8
RACCORDO
100
AcDbSpline
 62
253
  6
CONTINUOUS
 70
0
 71
3
 72
11
 73
7
 74
5
 42
0.0000001
 43
0.0000001
 44
0.0000000001
 12
-0.0077848359
 22
-6.2534259132
 32
0.0
 13
-0.0156185575
 23
-6.2534112543
 33
0.0
 40
0.0
 40
0.0
 40
0.0
 40
0.0
 40
0.2506747849
 40
0.5009532583
 40
0.7507551164
 40
1.0
 40
1.0
 40
1.0
 40
1.0
 10
-20.9727876056
 20
-2.9871755701
 30
0.0
 10
-20.973438093
 20
-3.5097009686
 30
0.0
 10
-20.9749003231
 20
-4.5539254695
 30
0.0
 10
-20.9775798124
 20
-6.1188549125
 30
0.0
 10
-20.9807430857
 20
-7.6808028502
 30
0.0
 10
-20.9831767569
 20
-8.7210514385
 30
0.0
 10
-20.9844743721
 20
-9.2405950253
 30
0.0
 11
-20.9727876056
 21
-2.9871755701
 31
0.0
 11
-20.9749830342
 21
-4.554751443
 31
0.0
 11
-20.9776632367
 21
-6.1198482523
 31
0.0
 11
-20.9808273564
 21
-7.6819636702
 31
0.0
 11
-20.9844743721
 21
-9.2405950253
 31
0.0
  0
SPLINE
  5
44C
100
AcDbEntity
  8
RACCORDO
100
AcDbSpline
 62
253
  6
CONTINUOUS
 70
0
 71
3
 72
21
 73
17
 74
15
 42
0.0000001
 43
0.0000001
 44
0.0000000001
 12
0.0
 22
-0.2908043987
 32
0.0
 13
-0.2908043987
 23
0.0
 33
0.0
 40
0.0
 40
0.0
 40
0.0
 40
0.0
 40
0.0410363243
 40
0.0843281145
 40
0.1317099685
 40
0.1844163852
 40
0.2431210255
 40
0.3080543418
 40
0.3791152499
 40
0.4559553438
 40
0.5380389422
 40
0.6246866076
 40
0.7151083214
 40
0.8084304121
 40
0.9037187828
 40
1.0
 40
1.0
 40
1.0
 40
1.0
 10
-5.3374238221
 20
-6.8417980844
 30
0.0
 10
-5.3374238221
 20
-6.8457759322
 30
0.0
 10
-5.338545852
 20
-6.8539865227
 30
0.0
 10
-5.3434637328
 20
-6.8658918213
 30
0.0
 10
-5.3514590915
 20
-6.8773697118
 30
0.0
 10
-5.3623726799
 20
-6.8883123632
 30
0.0
 10
-5.3760567681
 20
-6.8986318243
 30
0.0
 10
-5.3923479992
 20
-6.9082258242
 30
0.0
 10
-5.4110537335
 20
-6.9169886778
 30
0.0
 10
-5.4319492755
 20
-6.9248167863
 30
0.0
 10
-5.454779853
 20
-6.9316144481
 30
0.0
 10
-5.4792642354
 20
-6.937297015
 30
0.0
 10
-5.5050987748
 20
-6.9417930738
 30
0.0
 10
-5.5319620515
 20
-6.9450458453
 30
0.0
 10
-5.5595180014
 20
-6.9470141495
 30
0.0
 10
-5.5780908216
 20
-6.9474526498
 30
0.0
 10
-5.5874238221
 20
-6.9474526498
 30
0.0
 11
-5.3374238221
 21
-6.8417980844
 31
0.0
 11
-5.3389957696
 21
-6.8536276424
 31
0.0
 11
-5.3436918441
 21
-6.8653084369
 31
0.0
 11
-5.3514529895
 21
-6.8766935751
 31
0.0
 11
-5.3621816051
 21
-6.8876398823
 31
0.0
 11
-5.3757427723
 21
-6.8980097022
 31
0.0
 11
-5.3919659515
 21
-6.9076726284
 31
0.0
 11
-5.4106471268
 21
-6.916507144
 31
0.0
 11
-5.4315513716
 21
-6.9244021499
 31
0.0
 11
-5.454415803
 21
-6.9312583617
 31
0.0
 11
-5.4789528873
 21
-6.9369895586
 31
0.0
 11
-5.5048540566
 21
-6.9415236675
 31
0.0
 11
-5.5317935886
 21
-6.9448036693
 31
0.0
 11
-5.5594327031
 21
-6.9467883161
 31
0.0
 11
-5.5874238221
 21
-6.9474526498
 31
0.0
  0
SPLINE
  5
44D
100
AcDbEntity
  8
RACCORDO
100
AcDbSpline
 62
253
  6
CONTINUOUS
 70
0
 71
3
 72
10
 73
6
 74
4
 42
0.0000001
 43
0.0000001
 44
0.0000000001
 12
-0.0026851413
 22
8.0981899667
 32
0.0
 13
-0.0003892598
 23
8.0981904025
 33
0.0
 40
0.0
 40
0.0
 40
0.0
 40
0.0
 40
0.3333129949
 40
0.6666474923
 40
1.0
 40
1.0
 40
1.0
 40
1.0
 10
20.7942955572
 20
1.6413265229
 30
0.0
 10
20.7939972264
 20
2.5410705066
 30
0.0
 10
20.7934855981
 20
4.3406165471
 30
0.0
 10
20.7929732392
 20
7.0400133061
 30
0.0
 10
20.7928017118
 20
8.839666072
 30
0.0
 10
20.7927584582
 20
9.7395167648
 30
0.0
 11
20.7942955572
 21
1.6413265229
 31
0.0
 11
20.7935281282
 21
4.3405585132
 31
0.0
 11
20.79301576
 21
7.0399646954
 31
0.0
 11
20.7927584582
 21
9.7395167648
 31
0.0
  0
SPLINE
  5
44E
100
AcDbEntity
  8
RACCORDO
100
AcDbSpline
 62
253
  6
CONTINUOUS
 70
0
 71
3
 72
10
 73
6
 74
4
 42
0.0000001
 43
0.0000001
 44
0.0000000001
 12
-0.0003892598
 22
-8.0981904025
 32
0.0
 13
-0.0026851413
 23
-8.0981899667
 33
0.0
 40
0.0
 40
0.0
 40
0.0
 40
0.0
 40
0.3333525077
 40
0.6666870051
 40
1.0
 40
1.0
 40
1.0
 40
1.0
 10
-20.9676061024
 20
9.7395167648
 30
0.0
 10
-20.967649356
 20
8.839666072
 30
0.0
 10
-20.9678208834
 20
7.0400133061
 30
0.0
 10
-20.9683332423
 20
4.3406165471
 30
0.0
 10
-20.9688448706
 20
2.5410705066
 30
0.0
 10
-20.9691432014
 20
1.6413265229
 30
0.0
 11
-20.9676061024
 21
9.7395167648
 31
0.0
 11
-20.9678634042
 21
7.0399646954
 31
0.0
 11
-20.9683757724
 21
4.3405585132
 31
0.0
 11
-20.9691432014
 21
1.6413265229
 31
0.0
  0
SPLINE
  5
44F
100
AcDbEntity
  8
RACCORDO
100
AcDbSpline
 62
7
  6
CONTINUOUS
 70
0
 71
3
 72
30
 73
26
 74
24
 42
0.0000001
 43
0.0000001
 44
0.0000000001
 12
0.0
 22
0.3617277002
 32
0.0
 13
-0.3617277002
 23
0.0
 33
0.0
 40
0.0
 40
0.0
 40
0.0
 40
0.0
 40
0.0338541793
 40
0.0681562348
 40
0.1029469858
 40
0.1382745912
 40
0.1741937585
 40
0.210764861
 40
0.2480530495
 40
0.2861280919
 40
0.3250616672
 40
0.3649284434
 40
0.4058052946
 40
0.4477705067
 40
0.4909028733
 40
0.5352806515
 40
0.5809802537
 40
0.6280743994
 40
0.6766295048
 40
0.7266979977
 40
0.7783157737
 40
0.8314942757
 40
0.8862132887
 40
0.9424148236
 40
1.0
 40
1.0
 40
1.0
 40
1.0
 10
-5.3374238221
 20
-6.1969504779
 30
0.0
 10
-5.3374238221
 20
-6.1928684797
 30
0.0
 10
-5.3377100195
 20
-6.1846476346
 30
0.0
 10
-5.3390086512
 20
-6.172293057
 30
0.0
 10
-5.3412044204
 20
-6.159884664
 30
0.0
 10
-5.3443187013
 20
-6.1474732129
 30
0.0
 10
-5.3483695585
 20
-6.1351087929
 30
0.0
 10
-5.3533721989
 20
-6.1228420683
 30
0.0
 10
-5.3593394423
 20
-6.1107239558
 30
0.0
 10
-5.3662820581
 20
-6.0988060884
 30
0.0
 10
-5.3742090868
 20
-6.0871410565
 30
0.0
 10
-5.3831280259
 20
-6.0757828602
 30
0.0
 10
-5.393045048
 20
-6.0647872852
 30
0.0
 10
-5.4039649426
 20
-6.054212569
 30
0.0
 10
-5.4158908488
 20
-6.0441201319
 30
0.0
 10
-5.4288237412
 20
-6.0345753552
 30
0.0
 10
-5.4427616081
 20
-6.0256483878
 30
0.0
 10
-5.4576982321
 20
-6.0174149525
 30
0.0
 10
-5.4736210247
 20
-6.0099572971
 30
0.0
 10
-5.4905084125
 20
-6.0033646755
 30
0.0
 10
-5.5083263828
 20
-5.9977334396
 30
0.0
 10
-5.5270246635
 20
-5.9931662726
 30
0.0
 10
-5.5465330253
 20
-5.9897705297
 30
0.0
 10
-5.5667555896
 20
-5.9876553278
 30
0.0
 10
-5.5804804376
 20
-5.9871755701
 30
0.0
 10
-5.5874238221
 20
-5.9871755701
 30
0.0
 11
-5.3374238221
 21
-6.1969504779
 31
0.0
 11
-5.3378496515
 21
-6.1847118894
 31
0.0
 11
-5.3391457676
 21
-6.1723717663
 31
0.0
 11
-5.341337123
 21
-6.159979244
 31
0.0
 11
-5.3444449974
 21
-6.1475839514
 31
0.0
 11
-5.3484874318
 21
-6.1352358473
 31
0.0
 11
-5.3534796751
 21
-6.1229852086
 31
0.0
 11
-5.359434607
 21
-6.1108827488
 31
0.0
 11
-5.3663632414
 21
-6.0989796409
 31
0.0
 11
-5.3742746824
 21
-6.087328464
 31
0.0
 11
-5.3831766127
 21
-6.0759830467
 31
0.0
 11
-5.3930754044
 21
-6.0649990459
 31
0.0
 11
-5.4039760607
 21
-6.0544346019
 31
0.0
 11
-5.4158819465
 21
-6.0443510684
 31
0.0
 11
-5.4287942833
 21
-6.0348137824
 31
0.0
 11
-5.4427113538
 21
-6.0258928579
 31
0.0
 11
-5.4576273106
 21
-6.0176639933
 31
0.0
 11
-5.473530483
 21
-6.0102092229
 31
0.0
 11
-5.4903996821
 21
-6.0036179964
 31
0.0
 11
-5.5082018406
 21
-5.9979867417
 31
0.0
 11
-5.526887653
 21
-5.9934184391
 31
0.0
 11
-5.5463872706
 21
-5.9900209526
 31
0.0
 11
-5.5666064129
 21
-5.9879041072
 31
0.0
 11
-5.5874238221
 21
-5.9871755701
 31
0.0
  0
SPLINE
  5
450
100
AcDbEntity
  8
RACCORDO
100
AcDbSpline
 62
253
  6
CONTINUOUS
 70
0
 71
3
 72
21
 73
17
 74
15
 42
0.0000001
 43
0.0000001
 44
0.0000000001
 12
0.4034278549
 22
-0.0035209297
 32
0.0
 13
0.0070389111
 23
-0.4033818101
 33
0.0
 40
0.0
 40
0.0
 40
0.0
 40
0.0
 40
0.082694601
 40
0.1649358067
 40
0.2462276309
 40
0.3261043809
 40
0.4041471722
 40
0.4800010007
 40
0.553392432
 40
0.6241477483
 40
0.6922109411
 40
0.7576601591
 40
0.8207200352
 40
0.8817659084
 40
0.941314966
 40
1.0
 40
1.0
 40
1.0
 40
1.0
 10
-18.3969200654
 20
7.1592710393
 30
0.0
 10
-18.3857996303
 20
7.1591739854
 30
0.0
 10
-18.3636173739
 20
7.1581086685
 30
0.0
 10
-18.330737722
 20
7.1539139918
 30
0.0
 10
-18.298667658
 20
7.1471746019
 30
0.0
 10
-18.2678029709
 20
7.1379722459
 30
0.0
 10
-18.2385211498
 20
7.1264181759
 30
0.0
 10
-18.2111811827
 20
7.1126515405
 30
0.0
 10
-18.1861183809
 20
7.09683736
 30
0.0
 10
-18.1636412124
 20
7.079164238
 30
0.0
 10
-18.1440284782
 20
7.059842176
 30
0.0
 10
-18.1275272484
 20
7.0391004117
 30
0.0
 10
-18.1143510798
 20
7.0171874072
 30
0.0
 10
-18.1046775414
 20
6.9943672743
 30
0.0
 10
-18.0986441055
 20
6.9709328422
 30
0.0
 10
-18.0971034498
 20
6.9550298301
 30
0.0
 10
-18.0969657569
 20
6.947139005
 30
0.0
 11
-18.3969200654
 21
7.1592710393
 31
0.0
 11
-18.3635960616
 21
7.1576672162
 31
0.0
 11
-18.3306845742
 21
7.153457273
 31
0.0
 11
-18.2985930133
 21
7.1466933246
 31
0.0
 11
-18.2677186388
 21
7.1374591014
 31
0.0
 11
-18.2384436434
 21
7.1258689137
 31
0.0
 11
-18.2111304212
 21
7.1120662359
 31
0.0
 11
-18.1861170812
 21
7.0962219307
 31
0.0
 11
-18.1637132626
 21
7.0785321341
 31
0.0
 11
-18.1441963014
 21
7.0592158275
 31
0.0
 11
-18.1278077972
 21
7.0385121265
 31
0.0
 11
-18.1147506226
 21
7.0166773214
 31
0.0
 11
-18.1051864118
 21
6.9939817043
 31
0.0
 11
-18.0992335599
 21
6.9707062235
 31
0.0
 11
-18.0969657569
 21
6.947139005
 31
0.0
  0
SPLINE
  5
451
100
AcDbEntity
  8
RACCORDO
100
AcDbSpline
 62
253
  6
CONTINUOUS
 70
0
 71
3
 72
21
 73
17
 74
15
 42
0.0000001
 43
0.0000001
 44
0.0000000001
 12
0.4034278549
 22
-0.0035209297
 32
0.0
 13
0.0070389111
 23
-0.4033818101
 33
0.0
 40
0.0
 40
0.0
 40
0.0
 40
0.0
 40
0.0826945928
 40
0.1649357907
 40
0.2462276082
 40
0.3261043527
 40
0.4041471401
 40
0.4800009662
 40
0.5533923969
 40
0.6241477141
 40
0.6922109095
 40
0.7576601314
 40
0.8207200127
 40
0.8817658922
 40
0.9413149573
 40
1.0
 40
1.0
 40
1.0
 40
1.0
 10
-18.3863229772
 20
7.7663778205
 30
0.0
 10
-18.3752025431
 20
7.7662807666
 30
0.0
 10
-18.3530202889
 20
7.7652154498
 30
0.0
 10
-18.3201406399
 20
7.761020774
 30
0.0
 10
-18.2880705784
 20
7.7542813853
 30
0.0
 10
-18.2572058933
 20
7.7450790306
 30
0.0
 10
-18.2279240732
 20
7.7335249622
 30
0.0
 10
-18.2005841064
 20
7.7197583284
 30
0.0
 10
-18.175521304
 20
7.7039441492
 30
0.0
 10
-18.1530441344
 20
7.6862710282
 30
0.0
 10
-18.1334313984
 20
7.6669489666
 30
0.0
 10
-18.1169301664
 20
7.646207202
 30
0.0
 10
-18.1037539955
 20
7.6242941964
 30
0.0
 10
-18.0940804551
 20
7.6014740616
 30
0.0
 10
-18.0880470176
 20
7.5780396268
 30
0.0
 10
-18.0865063615
 20
7.5621366124
 30
0.0
 10
-18.0863686686
 20
7.5542457862
 30
0.0
 11
-18.3863229772
 21
7.7663778205
 31
0.0
 11
-18.3529989767
 21
7.7647739977
 31
0.0
 11
-18.3200874923
 21
7.7605640553
 31
0.0
 11
-18.2879959339
 21
7.753800108
 31
0.0
 11
-18.2571215613
 21
7.7445658863
 31
0.0
 11
-18.227846567
 21
7.7329757002
 31
0.0
 11
-18.200533345
 21
7.719173024
 31
0.0
 11
-18.1755200045
 21
7.7033287201
 31
0.0
 11
-18.1531161847
 21
7.6856389245
 31
0.0
 11
-18.1335992216
 21
7.6663226182
 31
0.0
 11
-18.1172107153
 21
7.6456189169
 31
0.0
 11
-18.1041535384
 21
7.6237841107
 31
0.0
 11
-18.0945893257
 21
7.6010884917
 31
0.0
 11
-18.0886364722
 21
7.5778130081
 31
0.0
 11
-18.0863686686
 21
7.5542457862
 31
0.0
  0
LINE
  5
452
100
AcDbEntity
  8
DRAFT
100
AcDbLine
 62
7
  6
CONTINUOUS
 10
1.3077445217
 20
9.7473640867
 11
1.3795001295
 21
9.7604592351
  0
LINE
  5
453
100
AcDbEntity
  8
DRAFT
100
AcDbLine
 62
7
  6
CONTINUOUS
 10
-1.4825921659
 20
9.7473640867
 11
-1.5543477737
 21
9.7604592351
  0
SPLINE
  5
454
100
AcDbEntity
  8
RACCORDO
100
AcDbSpline
 62
253
  6
CONTINUOUS
 70
0
 71
3
 72
17
 73
13
 74
11
 42
0.0000001
 43
0.0000001
 44
0.0000000001
 12
0.0000017304
 22
-0.5657065905
 32
0.0
 13
0.0098705145
 23
-0.565620473
 33
0.0
 40
0.0
 40
0.0
 40
0.0
 40
0.0
 40
0.1103397254
 40
0.2206203518
 40
0.3298149095
 40
0.4369458899
 40
0.5411727183
 40
0.6420635988
 40
0.7391789486
 40
0.8317326908
 40
0.9189180711
 40
1.0
 40
1.0
 40
1.0
 40
1.0
 10
17.9074310483
 20
8.1199312111
 30
0.0
 10
17.9074311119
 20
8.0991245745
 30
0.0
 10
17.9074593045
 20
8.0575224399
 30
0.0
 10
17.9075869546
 20
7.9953297292
 30
0.0
 10
17.9077997227
 20
7.9337423224
 30
0.0
 10
17.9080961448
 20
7.8732968318
 30
0.0
 10
17.9084739469
 20
7.8144176397
 30
0.0
 10
17.90893085
 20
7.7574277008
 30
0.0
 10
17.9094644104
 20
7.7026397058
 30
0.0
 10
17.9100709857
 20
7.6504370618
 30
0.0
 10
17.9107449043
 20
7.6012589131
 30
0.0
 10
17.911254251
 20
7.5695329858
 30
0.0
 10
17.9115210244
 20
7.5542457862
 30
0.0
 11
17.9074310483
 21
8.1199312111
 31
0.0
 11
17.9074736186
 21
8.0575113158
 31
0.0
 11
17.9076020271
 21
7.9951249707
 31
0.0
 11
17.9078161292
 21
7.9333532609
 31
0.0
 11
17.908114318
 21
7.8727492928
 31
0.0
 11
17.9084939678
 21
7.8137887113
 31
0.0
 11
17.9089532424
 21
7.7567159232
 31
0.0
 11
17.9094904214
 21
7.701779756
 31
0.0
 11
17.9101014719
 21
7.6494250599
 31
0.0
 11
17.9107806945
 21
7.6001083928
 31
0.0
 11
17.9115210244
 21
7.5542457862
 31
0.0
  0
SPLINE
  5
455
100
AcDbEntity
  8
RACCORDO
100
AcDbSpline
 62
253
  6
CONTINUOUS
 70
0
 71
3
 72
16
 73
12
 74
10
 42
0.0000001
 43
0.0000001
 44
0.0000000001
 12
0.0024681759
 22
-0.1414051045
 32
0.0
 13
0.0000000303
 23
-0.1414266434
 33
0.0
 40
0.0
 40
0.0
 40
0.0
 40
0.0
 40
0.0909523178
 40
0.1888407203
 40
0.2929017134
 40
0.4023431782
 40
0.5163326706
 40
0.634001123
 40
0.7544537064
 40
0.8767729359
 40
1.0
 40
1.0
 40
1.0
 40
1.0
 10
17.9221181127
 20
6.947139005
 30
0.0
 10
17.9221929415
 20
6.9428519643
 30
0.0
 10
17.9223343283
 20
6.9339507034
 30
0.0
 10
17.9225181532
 20
6.9201438797
 30
0.0
 10
17.9226805198
 20
6.9054651115
 30
0.0
 10
17.922820126
 20
6.8900270376
 30
0.0
 10
17.9229358688
 20
6.8739472641
 30
0.0
 10
17.9230268402
 20
6.8573482357
 30
0.0
 10
17.9230923278
 20
6.8403564023
 30
0.0
 10
17.9231318211
 20
6.8231024434
 30
0.0
 10
17.9231406055
 20
6.8115268454
 30
0.0
 10
17.9231406067
 20
6.8057176487
 30
0.0
 11
17.9221181127
 21
6.947139005
 31
0.0
 11
17.9223238299
 21
6.9342775691
 31
0.0
 11
17.9225092415
 21
6.9204347825
 31
0.0
 11
17.9226728891
 21
6.9057186954
 31
0.0
 11
17.9228135252
 21
6.8902413954
 31
0.0
 11
17.9229300793
 21
6.8741206654
 31
0.0
 11
17.9230216627
 21
6.8574794632
 31
0.0
 11
17.9230875792
 21
6.8404443861
 31
0.0
 11
17.9231273279
 21
6.8231452337
 31
0.0
 11
17.9231406067
 21
6.8057176487
 31
0.0
  0
SPLINE
  5
456
100
AcDbEntity
  8
RACCORDO
100
AcDbSpline
 62
253
  6
CONTINUOUS
 70
0
 71
3
 72
24
 73
20
 74
18
 42
0.0000001
 43
0.0000001
 44
0.0000000001
 12
-0.0000000466
 22
-0.2000701281
 32
0.0
 13
-0.1414179574
 23
-0.1415239113
 33
0.0
 40
0.0
 40
0.0
 40
0.0
 40
0.0
 40
0.0911927197
 40
0.1816460219
 40
0.270585817
 40
0.3572686905
 40
0.4409717175
 40
0.5209976594
 40
0.5966784472
 40
0.6673830806
 40
0.732521821
 40
0.7915520809
 40
0.8439818023
 40
0.8893747991
 40
0.9273539296
 40
0.9576061159
 40
0.9798856434
 40
0.9940250093
 40
1.0
 40
1.0
 40
1.0
 40
1.0
 10
17.9231406067
 20
5.4198826199
 30
0.0
 10
17.9231406053
 20
5.4138009735
 30
0.0
 10
17.9231309831
 20
5.4016869903
 30
0.0
 10
17.9230877281
 20
5.383641655
 30
0.0
 10
17.923016041
 20
5.3658971735
 30
0.0
 10
17.9229165351
 20
5.3486030094
 30
0.0
 10
17.9227900694
 20
5.3319035008
 30
0.0
 10
17.9226377282
 20
5.3159379731
 30
0.0
 10
17.9224608593
 20
5.3008395996
 30
0.0
 10
17.9222609344
 20
5.2867344874
 30
0.0
 10
17.922040007
 20
5.2737400738
 30
0.0
 10
17.9217992101
 20
5.2619655809
 30
0.0
 10
17.9215436307
 20
5.2515067395
 30
0.0
 10
17.9212673071
 20
5.2424584277
 30
0.0
 10
17.9209984886
 20
5.2348737018
 30
0.0
 10
17.9206721479
 20
5.2288769429
 30
0.0
 10
17.9204687906
 20
5.2243626506
 30
0.0
 10
17.9200278798
 20
5.221694834
 30
0.0
 10
17.9199921773
 20
5.2201949489
 30
0.0
 10
17.9197105203
 20
5.2199130809
 30
0.0
 11
17.9231406067
 21
5.4198826199
 31
0.0
 11
17.9231260505
 21
5.4016376866
 31
0.0
 11
17.9230824891
 21
5.3835407353
 31
0.0
 11
17.9230102853
 21
5.3657466856
 31
0.0
 11
17.9229100415
 21
5.3484043217
 31
0.0
 11
17.9227825943
 21
5.3316583313
 31
0.0
 11
17.9226290051
 21
5.3156482676
 31
0.0
 11
17.922450556
 21
5.3005078543
 31
0.0
 11
17.9222487356
 21
5.286363409
 31
0.0
 11
17.9220252282
 21
5.2733330096
 31
0.0
 11
17.9217818974
 21
5.2615253249
 31
0.0
 11
17.9215207748
 21
5.2510389545
 31
0.0
 11
17.9212440387
 21
5.2419613891
 31
0.0
 11
17.9209540007
 21
5.234368437
 31
0.0
 11
17.9206530779
 21
5.2283233635
 31
0.0
 11
17.9203437813
 21
5.2238766394
 31
0.0
 11
17.9200286972
 21
5.2210653767
 31
0.0
 11
17.9197105203
 21
5.2199130809
 31
0.0
  0
SPLINE
  5
457
100
AcDbEntity
  8
RACCORDO
100
AcDbSpline
 62
253
  6
CONTINUOUS
 70
0
 71
3
 72
24
 73
20
 74
18
 42
0.0000001
 43
0.0000001
 44
0.0000000001
 12
-0.141417957
 22
0.1415239117
 32
0.0
 13
-0.0000000466
 23
0.2000701281
 33
0.0
 40
0.0
 40
0.0
 40
0.0
 40
0.0
 40
0.0059749907
 40
0.0201143566
 40
0.0423938841
 40
0.0726460704
 40
0.1106252009
 40
0.1560181977
 40
0.2084479191
 40
0.267478179
 40
0.3326169194
 40
0.4033215528
 40
0.4790023406
 40
0.5590282825
 40
0.6427313095
 40
0.729414183
 40
0.8183539781
 40
0.9088072803
 40
1.0
 40
1.0
 40
1.0
 40
1.0
 10
18.7054418355
 20
5.2199130809
 30
0.0
 10
18.7051601785
 20
5.2201949489
 30
0.0
 10
18.705124476
 20
5.221694834
 30
0.0
 10
18.7046835652
 20
5.2243626506
 30
0.0
 10
18.7044802079
 20
5.2288769429
 30
0.0
 10
18.7041538672
 20
5.2348737018
 30
0.0
 10
18.7038850487
 20
5.2424584277
 30
0.0
 10
18.7036087251
 20
5.2515067395
 30
0.0
 10
18.7033531457
 20
5.2619655809
 30
0.0
 10
18.7031123488
 20
5.2737400738
 30
0.0
 10
18.7028914214
 20
5.2867344874
 30
0.0
 10
18.7026914965
 20
5.3008395996
 30
0.0
 10
18.7025146277
 20
5.3159379731
 30
0.0
 10
18.7023622864
 20
5.3319035008
 30
0.0
 10
18.7022358207
 20
5.3486030094
 30
0.0
 10
18.7021363148
 20
5.3658971735
 30
0.0
 10
18.7020646277
 20
5.383641655
 30
0.0
 10
18.7020213727
 20
5.4016869903
 30
0.0
 10
18.7020117505
 20
5.4138009735
 30
0.0
 10
18.7020117491
 20
5.4198826199
 30
0.0
 11
18.7054418355
 21
5.2199130809
 31
0.0
 11
18.7051236586
 21
5.2210653767
 31
0.0
 11
18.7048085745
 21
5.2238766394
 31
0.0
 11
18.7044992779
 21
5.2283233635
 31
0.0
 11
18.7041983551
 21
5.234368437
 31
0.0
 11
18.7039083171
 21
5.2419613891
 31
0.0
 11
18.703631581
 21
5.2510389545
 31
0.0
 11
18.7033704584
 21
5.2615253249
 31
0.0
 11
18.7031271276
 21
5.2733330096
 31
0.0
 11
18.7029036202
 21
5.286363409
 31
0.0
 11
18.7027017998
 21
5.3005078543
 31
0.0
 11
18.7025233507
 21
5.3156482676
 31
0.0
 11
18.7023697615
 21
5.3316583313
 31
0.0
 11
18.7022423143
 21
5.3484043217
 31
0.0
 11
18.7021420705
 21
5.3657466856
 31
0.0
 11
18.7020698668
 21
5.3835407353
 31
0.0
 11
18.7020263053
 21
5.4016376866
 31
0.0
 11
18.7020117491
 21
5.4198826199
 31
0.0
  0
SPLINE
  5
458
100
AcDbEntity
  8
RACCORDO
100
AcDbSpline
 62
253
  6
CONTINUOUS
 70
0
 71
3
 72
16
 73
12
 74
10
 42
0.0000001
 43
0.0000001
 44
0.0000000001
 12
0.0000000303
 22
0.1414266434
 32
0.0
 13
0.0024681759
 23
0.1414051045
 33
0.0
 40
0.0
 40
0.0
 40
0.0
 40
0.0
 40
0.1232270641
 40
0.2455462936
 40
0.365998877
 40
0.4836673294
 40
0.5976568218
 40
0.7070982866
 40
0.8111592797
 40
0.9090476822
 40
1.0
 40
1.0
 40
1.0
 40
1.0
 10
18.7020117491
 20
6.8057176487
 30
0.0
 10
18.7020117503
 20
6.8115268454
 30
0.0
 10
18.7020205347
 20
6.8231024434
 30
0.0
 10
18.702060028
 20
6.8403564023
 30
0.0
 10
18.7021255156
 20
6.8573482357
 30
0.0
 10
18.702216487
 20
6.8739472641
 30
0.0
 10
18.7023322298
 20
6.8900270376
 30
0.0
 10
18.702471836
 20
6.9054651115
 30
0.0
 10
18.7026342026
 20
6.9201438797
 30
0.0
 10
18.7028180275
 20
6.9339507034
 30
0.0
 10
18.7029594143
 20
6.9428519643
 30
0.0
 10
18.7030342431
 20
6.947139005
 30
0.0
 11
18.7020117491
 21
6.8057176487
 31
0.0
 11
18.7020250279
 21
6.8231452337
 31
0.0
 11
18.7020647766
 21
6.8404443861
 31
0.0
 11
18.7021306931
 21
6.8574794632
 31
0.0
 11
18.7022222765
 21
6.8741206654
 31
0.0
 11
18.7023388306
 21
6.8902413954
 31
0.0
 11
18.7024794667
 21
6.9057186954
 31
0.0
 11
18.7026431144
 21
6.9204347825
 31
0.0
 11
18.7028285259
 21
6.9342775691
 31
0.0
 11
18.7030342431
 21
6.947139005
 31
0.0
  0
SPLINE
  5
459
100
AcDbEntity
  8
RACCORDO
100
AcDbSpline
 62
253
  6
CONTINUOUS
 70
0
 71
3
 72
17
 73
13
 74
11
 42
0.0000001
 43
0.0000001
 44
0.0000000001
 12
0.0098705141
 22
0.565620473
 32
0.0
 13
0.00000173
 23
0.5657065905
 33
0.0
 40
0.0
 40
0.0
 40
0.0
 40
0.0
 40
0.0810819344
 40
0.1682673149
 40
0.2608210573
 40
0.3579364072
 40
0.4588272877
 40
0.5630541161
 40
0.6701850966
 40
0.7793796541
 40
0.8896602804
 40
1.0
 40
1.0
 40
1.0
 40
1.0
 10
18.7136313314
 20
7.5542457862
 30
0.0
 10
18.7138981049
 20
7.5695329869
 30
0.0
 10
18.7144074515
 20
7.6012589152
 30
0.0
 10
18.7150813701
 20
7.650437065
 30
0.0
 10
18.7156879454
 20
7.7026397091
 30
0.0
 10
18.7162215059
 20
7.7574277042
 30
0.0
 10
18.7166784089
 20
7.8144176431
 30
0.0
 10
18.717056211
 20
7.8732968352
 30
0.0
 10
18.7173526331
 20
7.9337423258
 30
0.0
 10
18.7175654012
 20
7.9953297325
 30
0.0
 10
18.7176930513
 20
8.0575224421
 30
0.0
 10
18.7177212439
 20
8.0991245756
 30
0.0
 10
18.7177213075
 20
8.1199312111
 30
0.0
 11
18.7136313314
 21
7.5542457862
 31
0.0
 11
18.7143716613
 21
7.6001083959
 31
0.0
 11
18.7150508839
 21
7.6494250631
 31
0.0
 11
18.7156619344
 21
7.7017797594
 31
0.0
 11
18.7161991134
 21
7.7567159266
 31
0.0
 11
18.7166583881
 21
7.8137887147
 31
0.0
 11
18.7170380378
 21
7.8727492962
 31
0.0
 11
18.7173362266
 21
7.9333532643
 31
0.0
 11
18.7175503287
 21
7.9951249741
 31
0.0
 11
18.7176787372
 21
8.057511319
 31
0.0
 11
18.7177213075
 21
8.1199312111
 31
0.0
  0
SPLINE
  5
45A
100
AcDbEntity
  8
RACCORDO
100
AcDbSpline
 62
253
  6
CONTINUOUS
 70
0
 71
3
 72
24
 73
20
 74
18
 42
0.0000001
 43
0.0000001
 44
0.0000000001
 12
-0.141417957
 22
0.1415239117
 32
0.0
 13
-0.0000000466
 23
0.2000701281
 33
0.0
 40
0.0
 40
0.0
 40
0.0
 40
0.0
 40
0.0059749907
 40
0.0201143566
 40
0.0423938841
 40
0.0726460704
 40
0.1106252009
 40
0.1560181977
 40
0.2084479191
 40
0.267478179
 40
0.3326169194
 40
0.4033215528
 40
0.4790023406
 40
0.5590282825
 40
0.6427313095
 40
0.729414183
 40
0.8183539781
 40
0.9088072803
 40
1.0
 40
1.0
 40
1.0
 40
1.0
 10
-18.0945581645
 20
5.2199130809
 30
0.0
 10
-18.0948398215
 20
5.2201949489
 30
0.0
 10
-18.094875524
 20
5.221694834
 30
0.0
 10
-18.0953164348
 20
5.2243626506
 30
0.0
 10
-18.0955197921
 20
5.2288769429
 30
0.0
 10
-18.0958461328
 20
5.2348737018
 30
0.0
 10
-18.0961149513
 20
5.2424584277
 30
0.0
 10
-18.0963912749
 20
5.2515067395
 30
0.0
 10
-18.0966468543
 20
5.2619655809
 30
0.0
 10
-18.0968876512
 20
5.2737400738
 30
0.0
 10
-18.0971085786
 20
5.2867344874
 30
0.0
 10
-18.0973085035
 20
5.3008395996
 30
0.0
 10
-18.0974853723
 20
5.3159379731
 30
0.0
 10
-18.0976377136
 20
5.3319035008
 30
0.0
 10
-18.0977641793
 20
5.3486030094
 30
0.0
 10
-18.0978636852
 20
5.3658971735
 30
0.0
 10
-18.0979353723
 20
5.383641655
 30
0.0
 10
-18.0979786273
 20
5.4016869903
 30
0.0
 10
-18.0979882495
 20
5.4138009735
 30
0.0
 10
-18.0979882509
 20
5.4198826199
 30
0.0
 11
-18.0945581645
 21
5.2199130809
 31
0.0
 11
-18.0948763414
 21
5.2210653767
 31
0.0
 11
-18.0951914255
 21
5.2238766394
 31
0.0
 11
-18.0955007221
 21
5.2283233635
 31
0.0
 11
-18.0958016449
 21
5.234368437
 31
0.0
 11
-18.0960916829
 21
5.2419613891
 31
0.0
 11
-18.096368419
 21
5.2510389545
 31
0.0
 11
-18.0966295416
 21
5.2615253249
 31
0.0
 11
-18.0968728724
 21
5.2733330096
 31
0.0
 11
-18.0970963798
 21
5.286363409
 31
0.0
 11
-18.0972982002
 21
5.3005078543
 31
0.0
 11
-18.0974766493
 21
5.3156482676
 31
0.0
 11
-18.0976302385
 21
5.3316583313
 31
0.0
 11
-18.0977576857
 21
5.3484043217
 31
0.0
 11
-18.0978579295
 21
5.3657466856
 31
0.0
 11
-18.0979301332
 21
5.3835407353
 31
0.0
 11
-18.0979736947
 21
5.4016376866
 31
0.0
 11
-18.0979882509
 21
5.4198826199
 31
0.0
  0
SPLINE
  5
45B
100
AcDbEntity
  8
RACCORDO
100
AcDbSpline
 62
253
  6
CONTINUOUS
 70
0
 71
3
 72
16
 73
12
 74
10
 42
0.0000001
 43
0.0000001
 44
0.0000000001
 12
0.0000000303
 22
0.1414266434
 32
0.0
 13
0.0024681759
 23
0.1414051045
 33
0.0
 40
0.0
 40
0.0
 40
0.0
 40
0.0
 40
0.1232270641
 40
0.2455462936
 40
0.365998877
 40
0.4836673294
 40
0.5976568218
 40
0.7070982866
 40
0.8111592797
 40
0.9090476822
 40
1.0
 40
1.0
 40
1.0
 40
1.0
 10
-18.0979882509
 20
6.8057176487
 30
0.0
 10
-18.0979882497
 20
6.8115268454
 30
0.0
 10
-18.0979794653
 20
6.8231024434
 30
0.0
 10
-18.097939972
 20
6.8403564023
 30
0.0
 10
-18.0978744844
 20
6.8573482357
 30
0.0
 10
-18.097783513
 20
6.8739472641
 30
0.0
 10
-18.0976677702
 20
6.8900270376
 30
0.0
 10
-18.097528164
 20
6.9054651115
 30
0.0
 10
-18.0973657974
 20
6.9201438797
 30
0.0
 10
-18.0971819725
 20
6.9339507034
 30
0.0
 10
-18.0970405857
 20
6.9428519643
 30
0.0
 10
-18.0969657569
 20
6.947139005
 30
0.0
 11
-18.0979882509
 21
6.8057176487
 31
0.0
 11
-18.0979749721
 21
6.8231452337
 31
0.0
 11
-18.0979352234
 21
6.8404443861
 31
0.0
 11
-18.0978693069
 21
6.8574794632
 31
0.0
 11
-18.0977777235
 21
6.8741206654
 31
0.0
 11
-18.0976611694
 21
6.8902413954
 31
0.0
 11
-18.0975205333
 21
6.9057186954
 31
0.0
 11
-18.0973568856
 21
6.9204347825
 31
0.0
 11
-18.0971714741
 21
6.9342775691
 31
0.0
 11
-18.0969657569
 21
6.947139005
 31
0.0
  0
SPLINE
  5
45C
100
AcDbEntity
  8
RACCORDO
100
AcDbSpline
 62
253
  6
CONTINUOUS
 70
0
 71
3
 72
17
 73
13
 74
11
 42
0.0000001
 43
0.0000001
 44
0.0000000001
 12
0.0098705141
 22
0.565620473
 32
0.0
 13
0.00000173
 23
0.5657065905
 33
0.0
 40
0.0
 40
0.0
 40
0.0
 40
0.0
 40
0.0810819344
 40
0.1682673149
 40
0.2608210573
 40
0.3579364072
 40
0.4588272877
 40
0.5630541161
 40
0.6701850966
 40
0.7793796541
 40
0.8896602804
 40
1.0
 40
1.0
 40
1.0
 40
1.0
 10
-18.0863686686
 20
7.5542457862
 30
0.0
 10
-18.0861018951
 20
7.5695329869
 30
0.0
 10
-18.0855925485
 20
7.6012589152
 30
0.0
 10
-18.0849186299
 20
7.650437065
 30
0.0
 10
-18.0843120546
 20
7.7026397091
 30
0.0
 10
-18.0837784941
 20
7.7574277042
 30
0.0
 10
-18.0833215911
 20
7.8144176431
 30
0.0
 10
-18.082943789
 20
7.8732968352
 30
0.0
 10
-18.0826473669
 20
7.9337423258
 30
0.0
 10
-18.0824345988
 20
7.9953297325
 30
0.0
 10
-18.0823069487
 20
8.0575224421
 30
0.0
 10
-18.0822787561
 20
8.0991245756
 30
0.0
 10
-18.0822786925
 20
8.1199312111
 30
0.0
 11
-18.0863686686
 21
7.5542457862
 31
0.0
 11
-18.0856283387
 21
7.6001083959
 31
0.0
 11
-18.0849491161
 21
7.6494250631
 31
0.0
 11
-18.0843380656
 21
7.7017797594
 31
0.0
 11
-18.0838008866
 21
7.7567159266
 31
0.0
 11
-18.0833416119
 21
7.8137887147
 31
0.0
 11
-18.0829619622
 21
7.8727492962
 31
0.0
 11
-18.0826637734
 21
7.9333532643
 31
0.0
 11
-18.0824496713
 21
7.9951249741
 31
0.0
 11
-18.0823212628
 21
8.057511319
 31
0.0
 11
-18.0822786925
 21
8.1199312111
 31
0.0
  0
SPLINE
  5
45D
100
AcDbEntity
  8
RACCORDO
100
AcDbSpline
 62
253
  6
CONTINUOUS
 70
0
 71
3
 72
17
 73
13
 74
11
 42
0.0000001
 43
0.0000001
 44
0.0000000001
 12
0.0000017304
 22
-0.5657065905
 32
0.0
 13
0.0098705145
 23
-0.565620473
 33
0.0
 40
0.0
 40
0.0
 40
0.0
 40
0.0
 40
0.1103397254
 40
0.2206203518
 40
0.3298149095
 40
0.4369458899
 40
0.5411727183
 40
0.6420635988
 40
0.7391789486
 40
0.8317326908
 40
0.9189180711
 40
1.0
 40
1.0
 40
1.0
 40
1.0
 10
-18.8925689517
 20
8.1199312111
 30
0.0
 10
-18.8925688881
 20
8.0991245745
 30
0.0
 10
-18.8925406955
 20
8.0575224399
 30
0.0
 10
-18.8924130454
 20
7.9953297292
 30
0.0
 10
-18.8922002773
 20
7.9337423224
 30
0.0
 10
-18.8919038552
 20
7.8732968318
 30
0.0
 10
-18.8915260531
 20
7.8144176397
 30
0.0
 10
-18.89106915
 20
7.7574277008
 30
0.0
 10
-18.8905355896
 20
7.7026397058
 30
0.0
 10
-18.8899290143
 20
7.6504370618
 30
0.0
 10
-18.8892550957
 20
7.6012589131
 30
0.0
 10
-18.888745749
 20
7.5695329858
 30
0.0
 10
-18.8884789756
 20
7.5542457862
 30
0.0
 11
-18.8925689517
 21
8.1199312111
 31
0.0
 11
-18.8925263814
 21
8.0575113158
 31
0.0
 11
-18.8923979729
 21
7.9951249707
 31
0.0
 11
-18.8921838708
 21
7.9333532609
 31
0.0
 11
-18.891885682
 21
7.8727492928
 31
0.0
 11
-18.8915060322
 21
7.8137887113
 31
0.0
 11
-18.8910467576
 21
7.7567159232
 31
0.0
 11
-18.8905095786
 21
7.701779756
 31
0.0
 11
-18.8898985281
 21
7.6494250599
 31
0.0
 11
-18.8892193055
 21
7.6001083928
 31
0.0
 11
-18.8884789756
 21
7.5542457862
 31
0.0
  0
SPLINE
  5
45E
100
AcDbEntity
  8
RACCORDO
100
AcDbSpline
 62
253
  6
CONTINUOUS
 70
0
 71
3
 72
16
 73
12
 74
10
 42
0.0000001
 43
0.0000001
 44
0.0000000001
 12
0.0024681759
 22
-0.1414051045
 32
0.0
 13
0.0000000303
 23
-0.1414266434
 33
0.0
 40
0.0
 40
0.0
 40
0.0
 40
0.0
 40
0.0909523178
 40
0.1888407203
 40
0.2929017134
 40
0.4023431782
 40
0.5163326706
 40
0.634001123
 40
0.7544537064
 40
0.8767729359
 40
1.0
 40
1.0
 40
1.0
 40
1.0
 10
-18.8778818873
 20
6.947139005
 30
0.0
 10
-18.8778070585
 20
6.9428519643
 30
0.0
 10
-18.8776656717
 20
6.9339507034
 30
0.0
 10
-18.8774818468
 20
6.9201438797
 30
0.0
 10
-18.8773194802
 20
6.9054651115
 30
0.0
 10
-18.877179874
 20
6.8900270376
 30
0.0
 10
-18.8770641312
 20
6.8739472641
 30
0.0
 10
-18.8769731598
 20
6.8573482357
 30
0.0
 10
-18.8769076722
 20
6.8403564023
 30
0.0
 10
-18.8768681789
 20
6.8231024434
 30
0.0
 10
-18.8768593945
 20
6.8115268454
 30
0.0
 10
-18.8768593933
 20
6.8057176487
 30
0.0
 11
-18.8778818873
 21
6.947139005
 31
0.0
 11
-18.8776761701
 21
6.9342775691
 31
0.0
 11
-18.8774907585
 21
6.9204347825
 31
0.0
 11
-18.8773271109
 21
6.9057186954
 31
0.0
 11
-18.8771864748
 21
6.8902413954
 31
0.0
 11
-18.8770699207
 21
6.8741206654
 31
0.0
 11
-18.8769783373
 21
6.8574794632
 31
0.0
 11
-18.8769124208
 21
6.8404443861
 31
0.0
 11
-18.8768726721
 21
6.8231452337
 31
0.0
 11
-18.8768593933
 21
6.8057176487
 31
0.0
  0
SPLINE
  5
45F
100
AcDbEntity
  8
RACCORDO
100
AcDbSpline
 62
253
  6
CONTINUOUS
 70
0
 71
3
 72
24
 73
20
 74
18
 42
0.0000001
 43
0.0000001
 44
0.0000000001
 12
-0.0000000466
 22
-0.2000701281
 32
0.0
 13
-0.1414179574
 23
-0.1415239113
 33
0.0
 40
0.0
 40
0.0
 40
0.0
 40
0.0
 40
0.0911927197
 40
0.1816460219
 40
0.270585817
 40
0.3572686905
 40
0.4409717175
 40
0.5209976594
 40
0.5966784472
 40
0.6673830806
 40
0.732521821
 40
0.7915520809
 40
0.8439818023
 40
0.8893747991
 40
0.9273539296
 40
0.9576061159
 40
0.9798856434
 40
0.9940250093
 40
1.0
 40
1.0
 40
1.0
 40
1.0
 10
-18.8768593933
 20
5.4198826199
 30
0.0
 10
-18.8768593947
 20
5.4138009735
 30
0.0
 10
-18.8768690169
 20
5.4016869903
 30
0.0
 10
-18.8769122719
 20
5.383641655
 30
0.0
 10
-18.876983959
 20
5.3658971735
 30
0.0
 10
-18.8770834649
 20
5.3486030094
 30
0.0
 10
-18.8772099306
 20
5.3319035008
 30
0.0
 10
-18.8773622718
 20
5.3159379731
 30
0.0
 10
-18.8775391407
 20
5.3008395996
 30
0.0
 10
-18.8777390656
 20
5.2867344874
 30
0.0
 10
-18.877959993
 20
5.2737400738
 30
0.0
 10
-18.8782007899
 20
5.2619655809
 30
0.0
 10
-18.8784563693
 20
5.2515067395
 30
0.0
 10
-18.8787326929
 20
5.2424584277
 30
0.0
 10
-18.8790015114
 20
5.2348737018
 30
0.0
 10
-18.8793278521
 20
5.2288769429
 30
0.0
 10
-18.8795312094
 20
5.2243626506
 30
0.0
 10
-18.8799721202
 20
5.221694834
 30
0.0
 10
-18.8800078227
 20
5.2201949489
 30
0.0
 10
-18.8802894797
 20
5.2199130809
 30
0.0
 11
-18.8768593933
 21
5.4198826199
 31
0.0
 11
-18.8768739495
 21
5.4016376866
 31
0.0
 11
-18.8769175109
 21
5.3835407353
 31
0.0
 11
-18.8769897147
 21
5.3657466856
 31
0.0
 11
-18.8770899585
 21
5.3484043217
 31
0.0
 11
-18.8772174057
 21
5.3316583313
 31
0.0
 11
-18.8773709949
 21
5.3156482676
 31
0.0
 11
-18.877549444
 21
5.3005078543
 31
0.0
 11
-18.8777512644
 21
5.286363409
 31
0.0
 11
-18.8779747718
 21
5.2733330096
 31
0.0
 11
-18.8782181026
 21
5.2615253249
 31
0.0
 11
-18.8784792252
 21
5.2510389545
 31
0.0
 11
-18.8787559613
 21
5.2419613891
 31
0.0
 11
-18.8790459993
 21
5.234368437
 31
0.0
 11
-18.8793469221
 21
5.2283233635
 31
0.0
 11
-18.8796562187
 21
5.2238766394
 31
0.0
 11
-18.8799713028
 21
5.2210653767
 31
0.0
 11
-18.8802894797
 21
5.2199130809
 31
0.0
  0
SPLINE
  5
460
100
AcDbEntity
  8
RACCORDO
100
AcDbSpline
 62
253
  6
CONTINUOUS
 70
0
 71
3
 72
21
 73
17
 74
15
 42
0.0000001
 43
0.0000001
 44
0.0000000001
 12
-0.4034278549
 22
-0.0035209297
 32
0.0
 13
-0.0070389111
 23
-0.4033818101
 33
0.0
 40
0.0
 40
0.0
 40
0.0
 40
0.0
 40
0.082694601
 40
0.1649358067
 40
0.2462276309
 40
0.3261043809
 40
0.4041471722
 40
0.4800010007
 40
0.553392432
 40
0.6241477483
 40
0.6922109411
 40
0.7576601591
 40
0.8207200352
 40
0.8817659084
 40
0.941314966
 40
1.0
 40
1.0
 40
1.0
 40
1.0
 10
-18.588524667
 20
7.7663778205
 30
0.0
 10
-18.5996451022
 20
7.7662807666
 30
0.0
 10
-18.6218273586
 20
7.7652154496
 30
0.0
 10
-18.6547070105
 20
7.761020773
 30
0.0
 10
-18.6867770745
 20
7.7542813831
 30
0.0
 10
-18.7176417615
 20
7.745079027
 30
0.0
 10
-18.7469235827
 20
7.7335249571
 30
0.0
 10
-18.7742635498
 20
7.7197583217
 30
0.0
 10
-18.7993263516
 20
7.7039441412
 30
0.0
 10
-18.82180352
 20
7.6862710192
 30
0.0
 10
-18.8414162542
 20
7.6669489572
 30
0.0
 10
-18.8579174841
 20
7.6462071929
 30
0.0
 10
-18.8710936527
 20
7.6242941884
 30
0.0
 10
-18.8807671911
 20
7.6014740555
 30
0.0
 10
-18.886800627
 20
7.5780396234
 30
0.0
 10
-18.8883412827
 20
7.5621366112
 30
0.0
 10
-18.8884789756
 20
7.5542457862
 30
0.0
 11
-18.588524667
 21
7.7663778205
 31
0.0
 11
-18.6218486709
 21
7.7647739974
 31
0.0
 11
-18.6547601582
 21
7.7605640542
 31
0.0
 11
-18.6868517192
 21
7.7538001057
 31
0.0
 11
-18.7177260937
 21
7.7445658826
 31
0.0
 11
-18.747001089
 21
7.7329756949
 31
0.0
 11
-18.7743143113
 21
7.7191730171
 31
0.0
 11
-18.7993276513
 21
7.7033287119
 31
0.0
 11
-18.8217314699
 21
7.6856389153
 31
0.0
 11
-18.8412484311
 21
7.6663226087
 31
0.0
 11
-18.8576369353
 21
7.6456189076
 31
0.0
 11
-18.8706941099
 21
7.6237841026
 31
0.0
 11
-18.8802583206
 21
7.6010884855
 31
0.0
 11
-18.8862111726
 21
7.5778130047
 31
0.0
 11
-18.8884789756
 21
7.5542457862
 31
0.0
  0
SPLINE
  5
461
100
AcDbEntity
  8
RACCORDO
100
AcDbSpline
 62
253
  6
CONTINUOUS
 70
0
 71
3
 72
21
 73
17
 74
15
 42
0.0000001
 43
0.0000001
 44
0.0000000001
 12
-0.4034278548
 22
-0.00352093
 32
0.0
 13
-0.0070389111
 23
-0.4033818101
 33
0.0
 40
0.0
 40
0.0
 40
0.0
 40
0.0
 40
0.0826946053
 40
0.1649358149
 40
0.2462276424
 40
0.3261043949
 40
0.4041471881
 40
0.4800010176
 40
0.5533924491
 40
0.6241477647
 40
0.6922109562
 40
0.7576601722
 40
0.8207200458
 40
0.881765916
 40
0.9413149701
 40
1.0
 40
1.0
 40
1.0
 40
1.0
 10
-18.5779275788
 20
7.1592710393
 30
0.0
 10
-18.5890480145
 20
7.1591739854
 30
0.0
 10
-18.6112302719
 20
7.1581086683
 30
0.0
 10
-18.6441099254
 20
7.1539139913
 30
0.0
 10
-18.6761799906
 20
7.1471746008
 30
0.0
 10
-18.7070446785
 20
7.137972244
 30
0.0
 10
-18.7363265001
 20
7.1264181732
 30
0.0
 10
-18.7636664673
 20
7.1126515372
 30
0.0
 10
-18.7887292688
 20
7.096837356
 30
0.0
 10
-18.8112064366
 20
7.0791642337
 30
0.0
 10
-18.8308191699
 20
7.0598421714
 30
0.0
 10
-18.8473203987
 20
7.0391004073
 30
0.0
 10
-18.8604965662
 20
7.0171874034
 30
0.0
 10
-18.8701701037
 20
6.9943672714
 30
0.0
 10
-18.8762035389
 20
6.9709328407
 30
0.0
 10
-18.8777441944
 20
6.9550298295
 30
0.0
 10
-18.8778818873
 20
6.947139005
 30
0.0
 11
-18.5779275788
 21
7.1592710393
 31
0.0
 11
-18.6112515843
 21
7.157667216
 31
0.0
 11
-18.6441630732
 21
7.1534572724
 31
0.0
 11
-18.6762546354
 21
7.1466933234
 31
0.0
 11
-18.7071290107
 21
7.1374590995
 31
0.0
 11
-18.7364040066
 21
7.125868911
 31
0.0
 11
-18.7637172289
 21
7.1120662325
 31
0.0
 11
-18.7887305686
 21
7.0962219267
 31
0.0
 11
-18.8111343865
 21
7.0785321297
 31
0.0
 11
-18.8306513468
 21
7.0592158229
 31
0.0
 11
-18.84703985
 21
7.0385121221
 31
0.0
 11
-18.8600970235
 21
7.0166773175
 31
0.0
 11
-18.8696612333
 21
6.9939817014
 31
0.0
 11
-18.8756140846
 21
6.9707062219
 31
0.0
 11
-18.8778818873
 21
6.947139005
 31
0.0
  0
SPLINE
  5
462
100
AcDbEntity
  8
RACCORDO
100
AcDbSpline
 62
253
  6
CONTINUOUS
 70
0
 71
3
 72
21
 73
17
 74
15
 42
0.0000001
 43
0.0000001
 44
0.0000000001
 12
0.4034278549
 22
-0.0035209297
 32
0.0
 13
0.0070389111
 23
-0.4033818101
 33
0.0
 40
0.0
 40
0.0
 40
0.0
 40
0.0
 40
0.082694601
 40
0.1649358067
 40
0.2462276309
 40
0.3261043809
 40
0.4041471722
 40
0.4800010007
 40
0.553392432
 40
0.6241477483
 40
0.6922109411
 40
0.7576601591
 40
0.8207200352
 40
0.8817659084
 40
0.941314966
 40
1.0
 40
1.0
 40
1.0
 40
1.0
 10
18.4030799346
 20
7.1592710393
 30
0.0
 10
18.4142003697
 20
7.1591739854
 30
0.0
 10
18.4363826261
 20
7.1581086685
 30
0.0
 10
18.469262278
 20
7.1539139918
 30
0.0
 10
18.501332342
 20
7.1471746019
 30
0.0
 10
18.5321970291
 20
7.1379722459
 30
0.0
 10
18.5614788502
 20
7.1264181759
 30
0.0
 10
18.5888188173
 20
7.1126515405
 30
0.0
 10
18.6138816191
 20
7.09683736
 30
0.0
 10
18.6363587876
 20
7.079164238
 30
0.0
 10
18.6559715218
 20
7.059842176
 30
0.0
 10
18.6724727516
 20
7.0391004117
 30
0.0
 10
18.6856489202
 20
7.0171874072
 30
0.0
 10
18.6953224586
 20
6.9943672743
 30
0.0
 10
18.7013558945
 20
6.9709328422
 30
0.0
 10
18.7028965502
 20
6.9550298301
 30
0.0
 10
18.7030342431
 20
6.947139005
 30
0.0
 11
18.4030799346
 21
7.1592710393
 31
0.0
 11
18.4364039384
 21
7.1576672162
 31
0.0
 11
18.4693154258
 21
7.153457273
 31
0.0
 11
18.5014069867
 21
7.1466933246
 31
0.0
 11
18.5322813612
 21
7.1374591014
 31
0.0
 11
18.5615563566
 21
7.1258689137
 31
0.0
 11
18.5888695788
 21
7.1120662359
 31
0.0
 11
18.6138829188
 21
7.0962219307
 31
0.0
 11
18.6362867374
 21
7.0785321341
 31
0.0
 11
18.6558036986
 21
7.0592158275
 31
0.0
 11
18.6721922028
 21
7.0385121265
 31
0.0
 11
18.6852493774
 21
7.0166773214
 31
0.0
 11
18.6948135882
 21
6.9939817043
 31
0.0
 11
18.7007664401
 21
6.9707062235
 31
0.0
 11
18.7030342431
 21
6.947139005
 31
0.0
  0
SPLINE
  5
463
100
AcDbEntity
  8
RACCORDO
100
AcDbSpline
 62
253
  6
CONTINUOUS
 70
0
 71
3
 72
21
 73
17
 74
15
 42
0.0000001
 43
0.0000001
 44
0.0000000001
 12
0.4034278549
 22
-0.0035209297
 32
0.0
 13
0.0070389111
 23
-0.4033818101
 33
0.0
 40
0.0
 40
0.0
 40
0.0
 40
0.0
 40
0.0826945928
 40
0.1649357907
 40
0.2462276082
 40
0.3261043527
 40
0.4041471401
 40
0.4800009662
 40
0.5533923969
 40
0.6241477141
 40
0.6922109095
 40
0.7576601314
 40
0.8207200127
 40
0.8817658922
 40
0.9413149573
 40
1.0
 40
1.0
 40
1.0
 40
1.0
 10
18.4136770228
 20
7.7663778205
 30
0.0
 10
18.4247974569
 20
7.7662807666
 30
0.0
 10
18.4469797111
 20
7.7652154498
 30
0.0
 10
18.4798593601
 20
7.761020774
 30
0.0
 10
18.5119294216
 20
7.7542813853
 30
0.0
 10
18.5427941067
 20
7.7450790306
 30
0.0
 10
18.5720759268
 20
7.7335249622
 30
0.0
 10
18.5994158936
 20
7.7197583284
 30
0.0
 10
18.624478696
 20
7.7039441492
 30
0.0
 10
18.6469558656
 20
7.6862710282
 30
0.0
 10
18.6665686016
 20
7.6669489666
 30
0.0
 10
18.6830698336
 20
7.646207202
 30
0.0
 10
18.6962460045
 20
7.6242941964
 30
0.0
 10
18.7059195449
 20
7.6014740616
 30
0.0
 10
18.7119529824
 20
7.5780396268
 30
0.0
 10
18.7134936385
 20
7.5621366124
 30
0.0
 10
18.7136313314
 20
7.5542457862
 30
0.0
 11
18.4136770228
 21
7.7663778205
 31
0.0
 11
18.4470010233
 21
7.7647739977
 31
0.0
 11
18.4799125077
 21
7.7605640553
 31
0.0
 11
18.5120040661
 21
7.753800108
 31
0.0
 11
18.5428784387
 21
7.7445658863
 31
0.0
 11
18.572153433
 21
7.7329757002
 31
0.0
 11
18.599466655
 21
7.719173024
 31
0.0
 11
18.6244799955
 21
7.7033287201
 31
0.0
 11
18.6468838153
 21
7.6856389245
 31
0.0
 11
18.6664007784
 21
7.6663226182
 31
0.0
 11
18.6827892847
 21
7.6456189169
 31
0.0
 11
18.6958464616
 21
7.6237841107
 31
0.0
 11
18.7054106743
 21
7.6010884917
 31
0.0
 11
18.7113635278
 21
7.5778130081
 31
0.0
 11
18.7136313314
 21
7.5542457862
 31
0.0
  0
SPLINE
  5
464
100
AcDbEntity
  8
RACCORDO
100
AcDbSpline
 62
253
  6
CONTINUOUS
 70
0
 71
3
 72
21
 73
17
 74
15
 42
0.0000001
 43
0.0000001
 44
0.0000000001
 12
-0.4034278549
 22
-0.0035209297
 32
0.0
 13
-0.0070389111
 23
-0.4033818101
 33
0.0
 40
0.0
 40
0.0
 40
0.0
 40
0.0
 40
0.082694601
 40
0.1649358067
 40
0.2462276309
 40
0.3261043809
 40
0.4041471722
 40
0.4800010007
 40
0.553392432
 40
0.6241477483
 40
0.6922109411
 40
0.7576601591
 40
0.8207200352
 40
0.8817659084
 40
0.941314966
 40
1.0
 40
1.0
 40
1.0
 40
1.0
 10
18.211475333
 20
7.7663778205
 30
0.0
 10
18.2003548978
 20
7.7662807666
 30
0.0
 10
18.1781726414
 20
7.7652154496
 30
0.0
 10
18.1452929895
 20
7.761020773
 30
0.0
 10
18.1132229255
 20
7.7542813831
 30
0.0
 10
18.0823582385
 20
7.745079027
 30
0.0
 10
18.0530764173
 20
7.7335249571
 30
0.0
 10
18.0257364502
 20
7.7197583217
 30
0.0
 10
18.0006736484
 20
7.7039441412
 30
0.0
 10
17.97819648
 20
7.6862710192
 30
0.0
 10
17.9585837458
 20
7.6669489572
 30
0.0
 10
17.9420825159
 20
7.6462071929
 30
0.0
 10
17.9289063473
 20
7.6242941884
 30
0.0
 10
17.9192328089
 20
7.6014740555
 30
0.0
 10
17.913199373
 20
7.5780396234
 30
0.0
 10
17.9116587173
 20
7.5621366112
 30
0.0
 10
17.9115210244
 20
7.5542457862
 30
0.0
 11
18.211475333
 21
7.7663778205
 31
0.0
 11
18.1781513291
 21
7.7647739974
 31
0.0
 11
18.1452398418
 21
7.7605640542
 31
0.0
 11
18.1131482808
 21
7.7538001057
 31
0.0
 11
18.0822739063
 21
7.7445658826
 31
0.0
 11
18.052998911
 21
7.7329756949
 31
0.0
 11
18.0256856887
 21
7.7191730171
 31
0.0
 11
18.0006723487
 21
7.7033287119
 31
0.0
 11
17.9782685301
 21
7.6856389153
 31
0.0
 11
17.9587515689
 21
7.6663226087
 31
0.0
 11
17.9423630647
 21
7.6456189076
 31
0.0
 11
17.9293058901
 21
7.6237841026
 31
0.0
 11
17.9197416794
 21
7.6010884855
 31
0.0
 11
17.9137888274
 21
7.5778130047
 31
0.0
 11
17.9115210244
 21
7.5542457862
 31
0.0
  0
SPLINE
  5
465
100
AcDbEntity
  8
RACCORDO
100
AcDbSpline
 62
253
  6
CONTINUOUS
 70
0
 71
3
 72
21
 73
17
 74
15
 42
0.0000001
 43
0.0000001
 44
0.0000000001
 12
-0.4034278548
 22
-0.00352093
 32
0.0
 13
-0.0070389111
 23
-0.4033818101
 33
0.0
 40
0.0
 40
0.0
 40
0.0
 40
0.0
 40
0.0826946053
 40
0.1649358149
 40
0.2462276424
 40
0.3261043949
 40
0.4041471881
 40
0.4800010176
 40
0.5533924491
 40
0.6241477647
 40
0.6922109562
 40
0.7576601722
 40
0.8207200458
 40
0.881765916
 40
0.9413149701
 40
1.0
 40
1.0
 40
1.0
 40
1.0
 10
18.2220724212
 20
7.1592710393
 30
0.0
 10
18.2109519855
 20
7.1591739854
 30
0.0
 10
18.1887697281
 20
7.1581086683
 30
0.0
 10
18.1558900746
 20
7.1539139913
 30
0.0
 10
18.1238200094
 20
7.1471746008
 30
0.0
 10
18.0929553215
 20
7.137972244
 30
0.0
 10
18.0636734999
 20
7.1264181732
 30
0.0
 10
18.0363335327
 20
7.1126515372
 30
0.0
 10
18.0112707312
 20
7.096837356
 30
0.0
 10
17.9887935634
 20
7.0791642337
 30
0.0
 10
17.9691808301
 20
7.0598421714
 30
0.0
 10
17.9526796013
 20
7.0391004073
 30
0.0
 10
17.9395034338
 20
7.0171874034
 30
0.0
 10
17.9298298963
 20
6.9943672714
 30
0.0
 10
17.9237964611
 20
6.9709328407
 30
0.0
 10
17.9222558056
 20
6.9550298295
 30
0.0
 10
17.9221181127
 20
6.947139005
 30
0.0
 11
18.2220724212
 21
7.1592710393
 31
0.0
 11
18.1887484157
 21
7.157667216
 31
0.0
 11
18.1558369268
 21
7.1534572724
 31
0.0
 11
18.1237453646
 21
7.1466933234
 31
0.0
 11
18.0928709893
 21
7.1374590995
 31
0.0
 11
18.0635959934
 21
7.125868911
 31
0.0
 11
18.0362827711
 21
7.1120662325
 31
0.0
 11
18.0112694314
 21
7.0962219267
 31
0.0
 11
17.9888656135
 21
7.0785321297
 31
0.0
 11
17.9693486532
 21
7.0592158229
 31
0.0
 11
17.95296015
 21
7.0385121221
 31
0.0
 11
17.9399029765
 21
7.0166773175
 31
0.0
 11
17.9303387667
 21
6.9939817014
 31
0.0
 11
17.9243859154
 21
6.9707062219
 31
0.0
 11
17.9221181127
 21
6.947139005
 31
0.0
  0
SPLINE
  5
466
100
AcDbEntity
  8
RACCORDO
100
AcDbSpline
 62
253
  6
CONTINUOUS
 70
0
 71
3
 72
24
 73
20
 74
18
 42
0.0000001
 43
0.0000001
 44
0.0000000001
 12
-0.1856018037
 22
0.4642404121
 32
0.0
 13
-0.000000132
 23
0.4999671887
 33
0.0
 40
0.0
 40
0.0
 40
0.0
 40
0.0
 40
0.0057981821
 40
0.0198702068
 40
0.04211448
 40
0.0723480795
 40
0.1103197124
 40
0.1557134756
 40
0.2081505583
 40
0.2671936299
 40
0.3323498882
 40
0.4030762779
 40
0.4787825132
 40
0.5588370861
 40
0.6425714362
 40
0.7292878516
 40
0.8182629071
 40
0.9087527371
 40
1.0
 40
1.0
 40
1.0
 40
1.0
 10
18.4054875454
 20
4.919958726
 30
0.0
 10
18.4051288278
 20
4.9208559761
 30
0.0
 10
18.4052567454
 20
4.9242793555
 30
0.0
 10
18.4046773737
 20
4.931192306
 30
0.0
 10
18.4045485276
 20
4.9423327712
 30
0.0
 10
18.404190713
 20
4.9573814426
 30
0.0
 10
18.4039338238
 20
4.9763197943
 30
0.0
 10
18.4036533449
 20
4.9989474718
 30
0.0
 10
18.4033991636
 20
5.0250911509
 30
0.0
 10
18.4031579282
 20
5.0545273337
 30
0.0
 10
18.4029371437
 20
5.0870121764
 30
0.0
 10
18.4027371802
 20
5.1222740862
 30
0.0
 10
18.4025603255
 20
5.1600190752
 30
0.0
 10
18.4024079826
 20
5.1999320267
 30
0.0
 10
18.4022815163
 20
5.2416799898
 30
0.0
 10
18.402182013
 20
5.2849146781
 30
0.0
 10
18.4021103204
 20
5.3292752625
 30
0.0
 10
18.4020670649
 20
5.3743909754
 30
0.0
 10
18.4020574437
 20
5.4046785041
 30
0.0
 10
18.4020574397
 20
5.4198853833
 30
0.0
 11
18.4054875454
 21
4.919958726
 31
0.0
 11
18.4051693132
 21
4.9228401066
 31
0.0
 11
18.4048542561
 21
4.9298685995
 31
0.0
 11
18.4045449504
 21
4.9409857042
 31
0.0
 11
18.4042440348
 21
4.9560985164
 31
0.0
 11
18.4039539983
 21
4.9750808713
 31
0.0
 11
18.4036772659
 21
4.9977745763
 31
0.0
 11
18.4034161462
 21
5.0239900967
 31
0.0
 11
18.4031728187
 21
5.0535086923
 31
0.0
 11
18.402949314
 21
5.0860839169
 31
0.0
 11
18.4027474955
 21
5.1214442152
 31
0.0
 11
18.4025690476
 21
5.1592944281
 31
0.0
 11
18.4024154591
 21
5.1993187932
 31
0.0
 11
18.4022880111
 21
5.2411830268
 31
0.0
 11
18.4021877678
 21
5.2845382734
 31
0.0
 11
18.402115561
 21
5.3290228231
 31
0.0
 11
18.4020719999
 21
5.3742647481
 31
0.0
 11
18.4020574397
 21
5.4198853833
 31
0.0
  0
SPLINE
  5
467
100
AcDbEntity
  8
RACCORDO
100
AcDbSpline
 62
253
  6
CONTINUOUS
 70
0
 71
3
 72
24
 73
20
 74
18
 42
0.0000001
 43
0.0000001
 44
0.0000000001
 12
-0.000000132
 22
-0.4999671887
 32
0.0
 13
-0.185601803
 23
-0.4642404124
 33
0.0
 40
0.0
 40
0.0
 40
0.0
 40
0.0
 40
0.0912472629
 40
0.1817370929
 40
0.2707121484
 40
0.3574285638
 40
0.4411629139
 40
0.5212174868
 40
0.5969237221
 40
0.6676501118
 40
0.7328063701
 40
0.7918494417
 40
0.8442865244
 40
0.8896802876
 40
0.9276519205
 40
0.95788552
 40
0.9801297932
 40
0.9942018179
 40
1.0
 40
1.0
 40
1.0
 40
1.0
 10
18.2230949162
 20
5.4198853833
 30
0.0
 10
18.2230949121
 20
5.4046785041
 30
0.0
 10
18.2230852909
 20
5.3743909754
 30
0.0
 10
18.2230420355
 20
5.3292752625
 30
0.0
 10
18.2229703428
 20
5.2849146781
 30
0.0
 10
18.2228708395
 20
5.2416799898
 30
0.0
 10
18.2227443732
 20
5.1999320267
 30
0.0
 10
18.2225920303
 20
5.1600190752
 30
0.0
 10
18.2224151756
 20
5.1222740862
 30
0.0
 10
18.2222152121
 20
5.0870121764
 30
0.0
 10
18.2219944276
 20
5.0545273337
 30
0.0
 10
18.2217531922
 20
5.0250911509
 30
0.0
 10
18.2214990109
 20
4.9989474718
 30
0.0
 10
18.2212185321
 20
4.9763197943
 30
0.0
 10
18.2209616428
 20
4.9573814426
 30
0.0
 10
18.2206038282
 20
4.9423327712
 30
0.0
 10
18.2204749821
 20
4.931192306
 30
0.0
 10
18.2198956104
 20
4.9242793555
 30
0.0
 10
18.220023528
 20
4.9208559761
 30
0.0
 10
18.2196648104
 20
4.919958726
 30
0.0
 11
18.2230949162
 21
5.4198853833
 31
0.0
 11
18.2230803559
 21
5.3742647481
 31
0.0
 11
18.2230367948
 21
5.3290228231
 31
0.0
 11
18.222964588
 21
5.2845382734
 31
0.0
 11
18.2228643447
 21
5.2411830268
 31
0.0
 11
18.2227368967
 21
5.1993187932
 31
0.0
 11
18.2225833082
 21
5.1592944281
 31
0.0
 11
18.2224048603
 21
5.1214442152
 31
0.0
 11
18.2222030418
 21
5.0860839169
 31
0.0
 11
18.2219795371
 21
5.0535086923
 31
0.0
 11
18.2217362096
 21
5.0239900967
 31
0.0
 11
18.22147509
 21
4.9977745763
 31
0.0
 11
18.2211983575
 21
4.9750808713
 31
0.0
 11
18.220908321
 21
4.9560985164
 31
0.0
 11
18.2206074054
 21
4.9409857042
 31
0.0
 11
18.2202980997
 21
4.9298685995
 31
0.0
 11
18.2199830426
 21
4.9228401066
 31
0.0
 11
18.2196648104
 21
4.919958726
 31
0.0
  0
SPLINE
  5
468
100
AcDbEntity
  8
RACCORDO
100
AcDbSpline
 62
253
  6
CONTINUOUS
 70
0
 71
3
 72
24
 73
20
 74
18
 42
0.0000001
 43
0.0000001
 44
0.0000000001
 12
-0.1856018037
 22
0.4642404121
 32
0.0
 13
-0.000000132
 23
0.4999671887
 33
0.0
 40
0.0
 40
0.0
 40
0.0
 40
0.0
 40
0.0057981821
 40
0.0198702068
 40
0.04211448
 40
0.0723480795
 40
0.1103197124
 40
0.1557134756
 40
0.2081505583
 40
0.2671936299
 40
0.3323498882
 40
0.4030762779
 40
0.4787825132
 40
0.5588370861
 40
0.6425714362
 40
0.7292878516
 40
0.8182629071
 40
0.9087527371
 40
1.0
 40
1.0
 40
1.0
 40
1.0
 10
-18.3945124546
 20
4.919958726
 30
0.0
 10
-18.3948711722
 20
4.9208559761
 30
0.0
 10
-18.3947432546
 20
4.9242793555
 30
0.0
 10
-18.3953226263
 20
4.931192306
 30
0.0
 10
-18.3954514724
 20
4.9423327712
 30
0.0
 10
-18.395809287
 20
4.9573814426
 30
0.0
 10
-18.3960661762
 20
4.9763197943
 30
0.0
 10
-18.3963466551
 20
4.9989474718
 30
0.0
 10
-18.3966008364
 20
5.0250911509
 30
0.0
 10
-18.3968420718
 20
5.0545273337
 30
0.0
 10
-18.3970628563
 20
5.0870121764
 30
0.0
 10
-18.3972628198
 20
5.1222740862
 30
0.0
 10
-18.3974396745
 20
5.1600190752
 30
0.0
 10
-18.3975920174
 20
5.1999320267
 30
0.0
 10
-18.3977184837
 20
5.2416799898
 30
0.0
 10
-18.397817987
 20
5.2849146781
 30
0.0
 10
-18.3978896796
 20
5.3292752625
 30
0.0
 10
-18.3979329351
 20
5.3743909754
 30
0.0
 10
-18.3979425563
 20
5.4046785041
 30
0.0
 10
-18.3979425603
 20
5.4198853833
 30
0.0
 11
-18.3945124546
 21
4.919958726
 31
0.0
 11
-18.3948306868
 21
4.9228401066
 31
0.0
 11
-18.3951457439
 21
4.9298685995
 31
0.0
 11
-18.3954550496
 21
4.9409857042
 31
0.0
 11
-18.3957559652
 21
4.9560985164
 31
0.0
 11
-18.3960460017
 21
4.9750808713
 31
0.0
 11
-18.3963227341
 21
4.9977745763
 31
0.0
 11
-18.3965838538
 21
5.0239900967
 31
0.0
 11
-18.3968271813
 21
5.0535086923
 31
0.0
 11
-18.397050686
 21
5.0860839169
 31
0.0
 11
-18.3972525045
 21
5.1214442152
 31
0.0
 11
-18.3974309524
 21
5.1592944281
 31
0.0
 11
-18.3975845409
 21
5.1993187932
 31
0.0
 11
-18.3977119889
 21
5.2411830268
 31
0.0
 11
-18.3978122322
 21
5.2845382734
 31
0.0
 11
-18.397884439
 21
5.3290228231
 31
0.0
 11
-18.3979280001
 21
5.3742647481
 31
0.0
 11
-18.3979425603
 21
5.4198853833
 31
0.0
  0
SPLINE
  5
469
100
AcDbEntity
  8
RACCORDO
100
AcDbSpline
 62
253
  6
CONTINUOUS
 70
0
 71
3
 72
24
 73
20
 74
18
 42
0.0000001
 43
0.0000001
 44
0.0000000001
 12
-0.000000132
 22
-0.4999671887
 32
0.0
 13
-0.185601803
 23
-0.4642404124
 33
0.0
 40
0.0
 40
0.0
 40
0.0
 40
0.0
 40
0.0912472629
 40
0.1817370929
 40
0.2707121484
 40
0.3574285638
 40
0.4411629139
 40
0.5212174868
 40
0.5969237221
 40
0.6676501118
 40
0.7328063701
 40
0.7918494417
 40
0.8442865244
 40
0.8896802876
 40
0.9276519205
 40
0.95788552
 40
0.9801297932
 40
0.9942018179
 40
1.0
 40
1.0
 40
1.0
 40
1.0
 10
-18.5769050838
 20
5.4198853833
 30
0.0
 10
-18.5769050879
 20
5.4046785041
 30
0.0
 10
-18.5769147091
 20
5.3743909754
 30
0.0
 10
-18.5769579645
 20
5.3292752625
 30
0.0
 10
-18.5770296572
 20
5.2849146781
 30
0.0
 10
-18.5771291605
 20
5.2416799898
 30
0.0
 10
-18.5772556268
 20
5.1999320267
 30
0.0
 10
-18.5774079697
 20
5.1600190752
 30
0.0
 10
-18.5775848244
 20
5.1222740862
 30
0.0
 10
-18.5777847879
 20
5.0870121764
 30
0.0
 10
-18.5780055724
 20
5.0545273337
 30
0.0
 10
-18.5782468078
 20
5.0250911509
 30
0.0
 10
-18.5785009891
 20
4.9989474718
 30
0.0
 10
-18.5787814679
 20
4.9763197943
 30
0.0
 10
-18.5790383572
 20
4.9573814426
 30
0.0
 10
-18.5793961718
 20
4.9423327712
 30
0.0
 10
-18.5795250179
 20
4.931192306
 30
0.0
 10
-18.5801043896
 20
4.9242793555
 30
0.0
 10
-18.579976472
 20
4.9208559761
 30
0.0
 10
-18.5803351896
 20
4.919958726
 30
0.0
 11
-18.5769050838
 21
5.4198853833
 31
0.0
 11
-18.5769196441
 21
5.3742647481
 31
0.0
 11
-18.5769632052
 21
5.3290228231
 31
0.0
 11
-18.577035412
 21
5.2845382734
 31
0.0
 11
-18.5771356553
 21
5.2411830268
 31
0.0
 11
-18.5772631033
 21
5.1993187932
 31
0.0
 11
-18.5774166918
 21
5.1592944281
 31
0.0
 11
-18.5775951397
 21
5.1214442152
 31
0.0
 11
-18.5777969582
 21
5.0860839169
 31
0.0
 11
-18.5780204629
 21
5.0535086923
 31
0.0
 11
-18.5782637904
 21
5.0239900967
 31
0.0
 11
-18.57852491
 21
4.9977745763
 31
0.0
 11
-18.5788016425
 21
4.9750808713
 31
0.0
 11
-18.579091679
 21
4.9560985164
 31
0.0
 11
-18.5793925946
 21
4.9409857042
 31
0.0
 11
-18.5797019003
 21
4.9298685995
 31
0.0
 11
-18.5800169574
 21
4.9228401066
 31
0.0
 11
-18.5803351896
 21
4.919958726
 31
0.0
  0
SPLINE
  5
46A
100
AcDbEntity
  8
RACCORDO
100
AcDbSpline
 62
253
  6
CONTINUOUS
 70
0
 71
3
 72
21
 73
17
 74
15
 42
0.0000001
 43
0.0000001
 44
0.0000000001
 12
-0.0000002623
 22
0.2954524091
 32
0.0
 13
-0.0097583852
 23
0.2952912121
 33
0.0
 40
0.0
 40
0.0
 40
0.0
 40
0.0
 40
0.1010939227
 40
0.2011909506
 40
0.2992889882
 40
0.3944126032
 40
0.4856166071
 40
0.5719946515
 40
0.6526881614
 40
0.7268952201
 40
0.7938783766
 40
0.85297187
 40
0.9035885436
 40
0.9452256339
 40
0.9774696042
 40
1.0
 40
1.0
 40
1.0
 40
1.0
 10
16.6633636804
 20
-6.5386637187
 30
0.0
 10
16.6633636716
 20
-6.528707571
 30
0.0
 10
16.6633579575
 20
-6.5088934535
 30
0.0
 10
16.6633322487
 20
-6.4794182456
 30
0.0
 10
16.6632896547
 20
-6.4505310382
 30
0.0
 10
16.6632306616
 20
-6.4225196832
 30
0.0
 10
16.663155833
 20
-6.3956626034
 30
0.0
 10
16.663065972
 20
-6.3702267142
 30
0.0
 10
16.6629620095
 20
-6.3464648227
 30
0.0
 10
16.662845068
 20
-6.3246131041
 30
0.0
 10
16.6627164083
 20
-6.3048887513
 30
0.0
 10
16.6625775649
 20
-6.2874878046
 30
0.0
 10
16.6624300414
 20
-6.2725832288
 30
0.0
 10
16.662276653
 20
-6.2603230891
 30
0.0
 10
16.6621183054
 20
-6.2508294361
 30
0.0
 10
16.6619941118
 20
-6.2454362887
 30
0.0
 10
16.661920825
 20
-6.2432186128
 30
0.0
 11
16.6633636804
 21
-6.5386637187
 31
0.0
 11
16.6633550084
 21
-6.5087952769
 31
0.0
 11
16.6633290784
 21
-6.4792213803
 31
0.0
 11
16.6632861251
 21
-6.4502381106
 31
0.0
 11
16.6632265959
 21
-6.4221336724
 31
0.0
 11
16.6631510644
 21
-6.3951873356
 31
0.0
 11
16.6630602896
 21
-6.3696668957
 31
0.0
 11
16.6629551725
 21
-6.3458260355
 31
0.0
 11
16.6628367619
 21
-6.323901701
 31
0.0
 11
16.6627062369
 21
-6.3041117965
 31
0.0
 11
16.6625648898
 21
-6.2866530537
 31
0.0
 11
16.6624141424
 21
-6.2716989954
 31
0.0
 11
16.6622554509
 21
-6.2593982403
 31
0.0
 11
16.6620904894
 21
-6.24987311
 31
0.0
 11
16.661920825
 21
-6.2432186128
 31
0.0
  0
SPLINE
  5
46B
100
AcDbEntity
  8
RACCORDO
100
AcDbSpline
 62
253
  6
CONTINUOUS
 70
0
 71
3
 72
21
 73
17
 74
15
 42
0.0000001
 43
0.0000001
 44
0.0000000001
 12
-0.0097583852
 22
-0.2952912121
 32
0.0
 13
-0.0000002623
 23
-0.2954524091
 33
0.0
 40
0.0
 40
0.0
 40
0.0
 40
0.0
 40
0.0225303958
 40
0.0547743661
 40
0.0964114564
 40
0.14702813
 40
0.2061216235
 40
0.2731047799
 40
0.3473118386
 40
0.4280053485
 40
0.5143833929
 40
0.6055873968
 40
0.7007110118
 40
0.7988090494
 40
0.8989060774
 40
1.0
 40
1.0
 40
1.0
 40
1.0
 10
16.8632315308
 20
-6.2432186128
 30
0.0
 10
16.863158244
 20
-6.2454362888
 30
0.0
 10
16.8630340504
 20
-6.2508294361
 30
0.0
 10
16.8628757028
 20
-6.2603230891
 30
0.0
 10
16.8627223144
 20
-6.2725832288
 30
0.0
 10
16.8625747909
 20
-6.2874878046
 30
0.0
 10
16.8624359475
 20
-6.3048887513
 30
0.0
 10
16.8623072878
 20
-6.3246131041
 30
0.0
 10
16.8621903463
 20
-6.3464648227
 30
0.0
 10
16.8620863838
 20
-6.3702267142
 30
0.0
 10
16.8619965228
 20
-6.3956626034
 30
0.0
 10
16.8619216942
 20
-6.4225196832
 30
0.0
 10
16.8618627011
 20
-6.4505310382
 30
0.0
 10
16.8618201071
 20
-6.4794182456
 30
0.0
 10
16.8617943984
 20
-6.5088934535
 30
0.0
 10
16.8617886842
 20
-6.528707571
 30
0.0
 10
16.8617886754
 20
-6.5386637187
 30
0.0
 11
16.8632315308
 21
-6.2432186128
 31
0.0
 11
16.8630618664
 21
-6.24987311
 31
0.0
 11
16.8628969049
 21
-6.2593982403
 31
0.0
 11
16.8627382134
 21
-6.2716989954
 31
0.0
 11
16.862587466
 21
-6.2866530537
 31
0.0
 11
16.862446119
 21
-6.3041117965
 31
0.0
 11
16.8623155939
 21
-6.323901701
 31
0.0
 11
16.8621971833
 21
-6.3458260355
 31
0.0
 11
16.8620920663
 21
-6.3696668957
 31
0.0
 11
16.8620012914
 21
-6.3951873356
 31
0.0
 11
16.86192576
 21
-6.4221336724
 31
0.0
 11
16.8618662307
 21
-6.4502381106
 31
0.0
 11
16.8618232774
 21
-6.4792213803
 31
0.0
 11
16.8617973474
 21
-6.5087952769
 31
0.0
 11
16.8617886754
 21
-6.5386637187
 31
0.0
  0
SPLINE
  5
46C
100
AcDbEntity
  8
RACCORDO
100
AcDbSpline
 62
253
  6
CONTINUOUS
 70
0
 71
3
 72
17
 73
13
 74
11
 42
0.0000001
 43
0.0000001
 44
0.0000000001
 12
0.0098708904
 22
0.3534532105
 32
0.0
 13
0.0000000961
 23
0.3535910159
 33
0.0
 40
0.0
 40
0.0
 40
0.0
 40
0.0
 40
0.081104795
 40
0.1682962199
 40
0.2608517851
 40
0.3579651267
 40
0.4588507237
 40
0.563070358
 40
0.6701931326
 40
0.7793790184
 40
0.8896510308
 40
1.0
 40
1.0
 40
1.0
 40
1.0
 10
18.4136769816
 20
7.7663762832
 30
0.0
 10
18.4139438405
 20
7.7759318666
 30
0.0
 10
18.4144531315
 20
7.7957614028
 30
0.0
 10
18.4151270875
 20
7.8264990229
 30
0.0
 10
18.4157336557
 20
7.859125216
 30
0.0
 10
18.4162671995
 20
7.8933669269
 30
0.0
 10
18.4167240931
 20
7.928984629
 30
0.0
 10
18.4171018895
 20
7.9657830668
 30
0.0
 10
18.4173983052
 20
8.0035605808
 30
0.0
 10
18.4176110894
 20
8.0420520237
 30
0.0
 10
18.4177387118
 20
8.080924093
 30
0.0
 10
18.4177669979
 20
8.106927301
 30
0.0
 10
18.4177670014
 20
8.1199334357
 30
0.0
 11
18.4136769816
 21
7.7663762832
 31
0.0
 11
18.4144174175
 21
7.7950446498
 31
0.0
 11
18.4150966152
 21
7.8258672719
 31
0.0
 11
18.415707655
 21
7.8585883834
 31
0.0
 11
18.4162448162
 21
7.8929225868
 31
0.0
 11
18.4167040767
 21
7.9285918711
 31
0.0
 11
18.4170837176
 21
7.9654410418
 31
0.0
 11
18.4173819028
 21
8.0033175188
 31
0.0
 11
18.4175960084
 21
8.0419240734
 31
0.0
 11
18.4177244206
 21
8.0809150548
 31
0.0
 11
18.4177670014
 21
8.1199334357
 31
0.0
  0
SPLINE
  5
46D
100
AcDbEntity
  8
RACCORDO
100
AcDbSpline
 62
253
  6
CONTINUOUS
 70
0
 71
3
 72
21
 73
17
 74
15
 42
0.0000001
 43
0.0000001
 44
0.0000000001
 12
-0.0000002623
 22
0.2954524091
 32
0.0
 13
-0.0097583852
 23
0.2952912121
 33
0.0
 40
0.0
 40
0.0
 40
0.0
 40
0.0
 40
0.1010939227
 40
0.2011909506
 40
0.2992889882
 40
0.3944126032
 40
0.4856166071
 40
0.5719946515
 40
0.6526881614
 40
0.7268952201
 40
0.7938783766
 40
0.85297187
 40
0.9035885436
 40
0.9452256339
 40
0.9774696042
 40
1.0
 40
1.0
 40
1.0
 40
1.0
 10
-17.0366363196
 20
-6.5386637187
 30
0.0
 10
-17.0366363284
 20
-6.528707571
 30
0.0
 10
-17.0366420425
 20
-6.5088934535
 30
0.0
 10
-17.0366677513
 20
-6.4794182456
 30
0.0
 10
-17.0367103453
 20
-6.4505310382
 30
0.0
 10
-17.0367693384
 20
-6.4225196832
 30
0.0
 10
-17.036844167
 20
-6.3956626034
 30
0.0
 10
-17.036934028
 20
-6.3702267142
 30
0.0
 10
-17.0370379905
 20
-6.3464648227
 30
0.0
 10
-17.037154932
 20
-6.3246131041
 30
0.0
 10
-17.0372835917
 20
-6.3048887513
 30
0.0
 10
-17.0374224351
 20
-6.2874878046
 30
0.0
 10
-17.0375699586
 20
-6.2725832288
 30
0.0
 10
-17.037723347
 20
-6.2603230891
 30
0.0
 10
-17.0378816946
 20
-6.2508294361
 30
0.0
 10
-17.0380058882
 20
-6.2454362887
 30
0.0
 10
-17.038079175
 20
-6.2432186128
 30
0.0
 11
-17.0366363196
 21
-6.5386637187
 31
0.0
 11
-17.0366449916
 21
-6.5087952769
 31
0.0
 11
-17.0366709216
 21
-6.4792213803
 31
0.0
 11
-17.0367138749
 21
-6.4502381106
 31
0.0
 11
-17.0367734041
 21
-6.4221336724
 31
0.0
 11
-17.0368489356
 21
-6.3951873356
 31
0.0
 11
-17.0369397104
 21
-6.3696668957
 31
0.0
 11
-17.0370448275
 21
-6.3458260355
 31
0.0
 11
-17.0371632381
 21
-6.323901701
 31
0.0
 11
-17.0372937631
 21
-6.3041117965
 31
0.0
 11
-17.0374351102
 21
-6.2866530537
 31
0.0
 11
-17.0375858576
 21
-6.2716989954
 31
0.0
 11
-17.0377445491
 21
-6.2593982403
 31
0.0
 11
-17.0379095106
 21
-6.24987311
 31
0.0
 11
-17.038079175
 21
-6.2432186128
 31
0.0
  0
SPLINE
  5
46E
100
AcDbEntity
  8
RACCORDO
100
AcDbSpline
 62
253
  6
CONTINUOUS
 70
0
 71
3
 72
21
 73
17
 74
15
 42
0.0000001
 43
0.0000001
 44
0.0000000001
 12
-0.0097583852
 22
-0.2952912121
 32
0.0
 13
-0.0000002623
 23
-0.2954524091
 33
0.0
 40
0.0
 40
0.0
 40
0.0
 40
0.0
 40
0.0225303958
 40
0.0547743661
 40
0.0964114564
 40
0.14702813
 40
0.2061216235
 40
0.2731047799
 40
0.3473118386
 40
0.4280053485
 40
0.5143833929
 40
0.6055873968
 40
0.7007110118
 40
0.7988090494
 40
0.8989060774
 40
1.0
 40
1.0
 40
1.0
 40
1.0
 10
-16.8367684692
 20
-6.2432186128
 30
0.0
 10
-16.836841756
 20
-6.2454362888
 30
0.0
 10
-16.8369659496
 20
-6.2508294361
 30
0.0
 10
-16.8371242972
 20
-6.2603230891
 30
0.0
 10
-16.8372776856
 20
-6.2725832288
 30
0.0
 10
-16.8374252091
 20
-6.2874878046
 30
0.0
 10
-16.8375640525
 20
-6.3048887513
 30
0.0
 10
-16.8376927122
 20
-6.3246131041
 30
0.0
 10
-16.8378096537
 20
-6.3464648227
 30
0.0
 10
-16.8379136162
 20
-6.3702267142
 30
0.0
 10
-16.8380034772
 20
-6.3956626034
 30
0.0
 10
-16.8380783058
 20
-6.4225196832
 30
0.0
 10
-16.8381372989
 20
-6.4505310382
 30
0.0
 10
-16.8381798929
 20
-6.4794182456
 30
0.0
 10
-16.8382056016
 20
-6.5088934535
 30
0.0
 10
-16.8382113158
 20
-6.528707571
 30
0.0
 10
-16.8382113246
 20
-6.5386637187
 30
0.0
 11
-16.8367684692
 21
-6.2432186128
 31
0.0
 11
-16.8369381336
 21
-6.24987311
 31
0.0
 11
-16.8371030951
 21
-6.2593982403
 31
0.0
 11
-16.8372617866
 21
-6.2716989954
 31
0.0
 11
-16.837412534
 21
-6.2866530537
 31
0.0
 11
-16.837553881
 21
-6.3041117965
 31
0.0
 11
-16.8376844061
 21
-6.323901701
 31
0.0
 11
-16.8378028167
 21
-6.3458260355
 31
0.0
 11
-16.8379079337
 21
-6.3696668957
 31
0.0
 11
-16.8379987086
 21
-6.3951873356
 31
0.0
 11
-16.83807424
 21
-6.4221336724
 31
0.0
 11
-16.8381337693
 21
-6.4502381106
 31
0.0
 11
-16.8381767226
 21
-6.4792213803
 31
0.0
 11
-16.8382026526
 21
-6.5087952769
 31
0.0
 11
-16.8382113246
 21
-6.5386637187
 31
0.0
  0
SPLINE
  5
46F
100
AcDbEntity
  8
RACCORDO
100
AcDbSpline
 62
253
  6
CONTINUOUS
 70
0
 71
3
 72
22
 73
18
 74
16
 42
0.0000001
 43
0.0000001
 44
0.0000000001
 12
0.0492511763
 22
-0.2957616226
 32
0.0
 13
0.0000002819
 23
-0.2998343139
 33
0.0
 40
0.0
 40
0.0
 40
0.0
 40
0.0
 40
0.0088249182
 40
0.0280219114
 40
0.0573974517
 40
0.0966453974
 40
0.145355344
 40
0.2030172945
 40
0.2690273382
 40
0.3426940097
 40
0.423245795
 40
0.5098388655
 40
0.6015661346
 40
0.697466692
 40
0.7965362612
 40
0.8977366814
 40
1.0
 40
1.0
 40
1.0
 40
1.0
 10
-17.0976867453
 20
-4.4770648683
 30
0.0
 10
-17.0975418661
 20
-4.4779348924
 30
0.0
 10
-17.0975000306
 20
-4.4807480891
 30
0.0
 10
-17.0972742221
 20
-4.4864707
 30
0.0
 10
-17.0971484865
 20
-4.4952525146
 30
0.0
 10
-17.0969747897
 20
-4.506975827
 30
0.0
 10
-17.0968269858
 20
-4.5215299027
 30
0.0
 10
-17.096680284
 20
-4.5387576572
 30
0.0
 10
-17.0965464038
 20
-4.5584802779
 30
0.0
 10
-17.0964237215
 20
-4.5804905956
 30
0.0
 10
-17.096314726
 20
-4.6045582154
 30
0.0
 10
-17.0962203268
 20
-4.6304309584
 30
0.0
 10
-17.0961416585
 20
-4.6578377937
 30
0.0
 10
-17.0960795801
 20
-4.686491634
 30
0.0
 10
-17.0960347366
 20
-4.7160922997
 30
0.0
 10
-17.0960076554
 20
-4.7463289116
 30
0.0
 10
-17.0960016372
 20
-4.766664049
 30
0.0
 10
-17.0960016276
 20
-4.776884733
 30
0.0
 11
-17.0976867453
 21
-4.4770648683
 31
0.0
 11
-17.0975087311
 21
-4.4797048868
 31
0.0
 11
-17.0973332516
 21
-4.4854581285
 31
0.0
 11
-17.0971620096
 21
-4.4942642587
 31
0.0
 11
-17.096996947
 21
-4.5060309819
 31
0.0
 11
-17.0968397295
 21
-4.5206350491
 31
0.0
 11
-17.0966920288
 21
-4.5379234495
 31
0.0
 11
-17.0965553842
 21
-4.557715054
 31
0.0
 11
-17.0964312325
 21
-4.579802501
 31
0.0
 11
-17.0963208751
 21
-4.6039544381
 31
0.0
 11
-17.0962254695
 21
-4.6299178367
 31
0.0
 11
-17.0961460105
 21
-4.6574207047
 31
0.0
 11
-17.096083338
 21
-4.6861749142
 31
0.0
 11
-17.0960380926
 21
-4.7158793361
 31
0.0
 11
-17.0960107675
 21
-4.7462226824
 31
0.0
 11
-17.0960016276
 21
-4.776884733
 31
0.0
  0
SPLINE
  5
470
100
AcDbEntity
  8
RACCORDO
100
AcDbSpline
 62
253
  6
CONTINUOUS
 70
0
 71
3
 72
22
 73
18
 74
16
 42
0.0000001
 43
0.0000001
 44
0.0000000001
 12
-0.0493372966
 22
-0.2957472036
 32
0.0
 13
-0.000000284
 23
-0.2998342496
 33
0.0
 40
0.0
 40
0.0
 40
0.0
 40
0.0
 40
0.0088246649
 40
0.0280216918
 40
0.0573972586
 40
0.0966452334
 40
0.1453552097
 40
0.203017188
 40
0.2690272558
 40
0.3426939512
 40
0.4232457625
 40
0.5098388556
 40
0.6015661441
 40
0.6974667179
 40
0.7965363093
 40
0.8977367368
 40
1.0
 40
1.0
 40
1.0
 40
1.0
 10
-16.7771609132
 20
-4.4770649544
 30
0.0
 10
-16.7773060416
 20
-4.4779349111
 30
0.0
 10
-16.7773473138
 20
-4.4807481739
 30
0.0
 10
-16.7775735886
 20
-4.4864706939
 30
0.0
 10
-16.7776990648
 20
-4.4952525515
 30
0.0
 10
-16.7778728681
 20
-4.5069758551
 30
0.0
 10
-16.778020626
 20
-4.5215299419
 30
0.0
 10
-16.7781673412
 20
-4.538757699
 30
0.0
 10
-16.7783012156
 20
-4.5584803236
 30
0.0
 10
-16.7784239012
 20
-4.5804906438
 30
0.0
 10
-16.7785329044
 20
-4.6045582657
 30
0.0
 10
-16.7786273093
 20
-4.6304310099
 30
0.0
 10
-16.7787059827
 20
-4.6578378452
 30
0.0
 10
-16.7787680617
 20
-4.6864916852
 30
0.0
 10
-16.7788129091
 20
-4.716092349
 30
0.0
 10
-16.778839988
 20
-4.7463289519
 30
0.0
 10
-16.7788460069
 20
-4.7666640801
 30
0.0
 10
-16.7788460166
 20
-4.7768847564
 30
0.0
 11
-16.7771609132
 21
-4.4770649544
 31
0.0
 11
-16.7773388993
 21
-4.479704898
 31
0.0
 11
-16.7775143921
 21
-4.4854581483
 31
0.0
 11
-16.7776856195
 21
-4.4942642848
 31
0.0
 11
-16.7778506809
 21
-4.5060310142
 31
0.0
 11
-16.7780078939
 21
-4.5206350872
 31
0.0
 11
-16.7781555929
 21
-4.5379234923
 31
0.0
 11
-16.7782922368
 21
-4.5577150997
 31
0.0
 11
-16.7784163907
 21
-4.5798025491
 31
0.0
 11
-16.7785267547
 21
-4.6039544889
 31
0.0
 11
-16.7786221663
 21
-4.6299178887
 31
0.0
 11
-16.7787016299
 21
-4.6574207566
 31
0.0
 11
-16.7787643043
 21
-4.6861749649
 31
0.0
 11
-16.778809552
 21
-4.715879387
 31
0.0
 11
-16.7788368765
 21
-4.7462227289
 31
0.0
 11
-16.7788460166
 21
-4.7768847564
 31
0.0
  0
SPLINE
  5
471
100
AcDbEntity
  8
RACCORDO
100
AcDbSpline
 62
253
  6
CONTINUOUS
 70
0
 71
3
 72
22
 73
18
 74
16
 42
0.0000001
 43
0.0000001
 44
0.0000000001
 12
0.0492511763
 22
-0.2957616226
 32
0.0
 13
0.0000002819
 23
-0.2998343139
 33
0.0
 40
0.0
 40
0.0
 40
0.0
 40
0.0
 40
0.0088249182
 40
0.0280219114
 40
0.0573974517
 40
0.0966453974
 40
0.145355344
 40
0.2030172945
 40
0.2690273382
 40
0.3426940097
 40
0.423245795
 40
0.5098388655
 40
0.6015661346
 40
0.697466692
 40
0.7965362612
 40
0.8977366814
 40
1.0
 40
1.0
 40
1.0
 40
1.0
 10
16.6023132547
 20
-4.4770648683
 30
0.0
 10
16.6024581339
 20
-4.4779348924
 30
0.0
 10
16.6024999694
 20
-4.4807480891
 30
0.0
 10
16.6027257779
 20
-4.4864707
 30
0.0
 10
16.6028515135
 20
-4.4952525146
 30
0.0
 10
16.6030252103
 20
-4.506975827
 30
0.0
 10
16.6031730142
 20
-4.5215299027
 30
0.0
 10
16.603319716
 20
-4.5387576572
 30
0.0
 10
16.6034535962
 20
-4.5584802779
 30
0.0
 10
16.6035762785
 20
-4.5804905956
 30
0.0
 10
16.603685274
 20
-4.6045582154
 30
0.0
 10
16.6037796732
 20
-4.6304309584
 30
0.0
 10
16.6038583415
 20
-4.6578377937
 30
0.0
 10
16.6039204199
 20
-4.686491634
 30
0.0
 10
16.6039652634
 20
-4.7160922997
 30
0.0
 10
16.6039923446
 20
-4.7463289116
 30
0.0
 10
16.6039983628
 20
-4.766664049
 30
0.0
 10
16.6039983724
 20
-4.776884733
 30
0.0
 11
16.6023132547
 21
-4.4770648683
 31
0.0
 11
16.6024912689
 21
-4.4797048868
 31
0.0
 11
16.6026667484
 21
-4.4854581285
 31
0.0
 11
16.6028379904
 21
-4.4942642587
 31
0.0
 11
16.603003053
 21
-4.5060309819
 31
0.0
 11
16.6031602705
 21
-4.5206350491
 31
0.0
 11
16.6033079712
 21
-4.5379234495
 31
0.0
 11
16.6034446158
 21
-4.557715054
 31
0.0
 11
16.6035687675
 21
-4.579802501
 31
0.0
 11
16.6036791249
 21
-4.6039544381
 31
0.0
 11
16.6037745305
 21
-4.6299178367
 31
0.0
 11
16.6038539895
 21
-4.6574207047
 31
0.0
 11
16.603916662
 21
-4.6861749142
 31
0.0
 11
16.6039619074
 21
-4.7158793361
 31
0.0
 11
16.6039892325
 21
-4.7462226824
 31
0.0
 11
16.6039983724
 21
-4.776884733
 31
0.0
  0
SPLINE
  5
472
100
AcDbEntity
  8
RACCORDO
100
AcDbSpline
 62
253
  6
CONTINUOUS
 70
0
 71
3
 72
22
 73
18
 74
16
 42
0.0000001
 43
0.0000001
 44
0.0000000001
 12
-0.0493372966
 22
-0.2957472036
 32
0.0
 13
-0.000000284
 23
-0.2998342496
 33
0.0
 40
0.0
 40
0.0
 40
0.0
 40
0.0
 40
0.0088246649
 40
0.0280216918
 40
0.0573972586
 40
0.0966452334
 40
0.1453552097
 40
0.203017188
 40
0.2690272558
 40
0.3426939512
 40
0.4232457625
 40
0.5098388556
 40
0.6015661441
 40
0.6974667179
 40
0.7965363093
 40
0.8977367368
 40
1.0
 40
1.0
 40
1.0
 40
1.0
 10
16.9228390868
 20
-4.4770649544
 30
0.0
 10
16.9226939584
 20
-4.4779349111
 30
0.0
 10
16.9226526862
 20
-4.4807481739
 30
0.0
 10
16.9224264114
 20
-4.4864706939
 30
0.0
 10
16.9223009352
 20
-4.4952525515
 30
0.0
 10
16.9221271319
 20
-4.5069758551
 30
0.0
 10
16.921979374
 20
-4.5215299419
 30
0.0
 10
16.9218326588
 20
-4.538757699
 30
0.0
 10
16.9216987844
 20
-4.5584803236
 30
0.0
 10
16.9215760988
 20
-4.5804906438
 30
0.0
 10
16.9214670956
 20
-4.6045582657
 30
0.0
 10
16.9213726907
 20
-4.6304310099
 30
0.0
 10
16.9212940173
 20
-4.6578378452
 30
0.0
 10
16.9212319383
 20
-4.6864916852
 30
0.0
 10
16.9211870909
 20
-4.716092349
 30
0.0
 10
16.921160012
 20
-4.7463289519
 30
0.0
 10
16.9211539931
 20
-4.7666640801
 30
0.0
 10
16.9211539834
 20
-4.7768847564
 30
0.0
 11
16.9228390868
 21
-4.4770649544
 31
0.0
 11
16.9226611007
 21
-4.479704898
 31
0.0
 11
16.9224856079
 21
-4.4854581483
 31
0.0
 11
16.9223143805
 21
-4.4942642848
 31
0.0
 11
16.9221493191
 21
-4.5060310142
 31
0.0
 11
16.9219921061
 21
-4.5206350872
 31
0.0
 11
16.9218444071
 21
-4.5379234923
 31
0.0
 11
16.9217077632
 21
-4.5577150997
 31
0.0
 11
16.9215836093
 21
-4.5798025491
 31
0.0
 11
16.9214732453
 21
-4.6039544889
 31
0.0
 11
16.9213778337
 21
-4.6299178887
 31
0.0
 11
16.9212983701
 21
-4.6574207566
 31
0.0
 11
16.9212356957
 21
-4.6861749649
 31
0.0
 11
16.921190448
 21
-4.715879387
 31
0.0
 11
16.9211631235
 21
-4.7462227289
 31
0.0
 11
16.9211539834
 21
-4.7768847564
 31
0.0
  0
SPLINE
  5
473
100
AcDbEntity
  8
RACCORDO
100
AcDbSpline
 62
7
  6
CONTINUOUS
 70
0
 71
3
 72
21
 73
17
 74
15
 42
0.0000001
 43
0.0000001
 44
0.0000000001
 12
-0.0012443691
 22
0.3925011042
 32
0.0
 13
0.3925030768
 23
-0.0
 33
0.0
 40
0.0
 40
0.0
 40
0.0
 40
0.0
 40
0.0718406931
 40
0.1438980823
 40
0.2157106773
 40
0.287111435
 40
0.3588176678
 40
0.4305088128
 40
0.5017241615
 40
0.5728718836
 40
0.6443129278
 40
0.7156098276
 40
0.7864791351
 40
0.857649394
 40
0.9289693264
 40
1.0
 40
1.0
 40
1.0
 40
1.0
 10
16.3044852951
 20
-4.678932394
 30
0.0
 10
16.3044554963
 20
-4.6695332102
 30
0.0
 10
16.3054524078
 20
-4.6506860695
 30
0.0
 10
16.3101060031
 20
-4.6227922281
 30
0.0
 10
16.3178489051
 20
-4.5956499735
 30
0.0
 10
16.3285667218
 20
-4.5695904177
 30
0.0
 10
16.3421328662
 20
-4.544910549
 30
0.0
 10
16.3583775197
 20
-4.5219348032
 30
0.0
 10
16.3770518344
 20
-4.500985149
 30
0.0
 10
16.3979319912
 20
-4.4822822471
 30
0.0
 10
16.4207903914
 20
-4.4660369949
 30
0.0
 10
16.4452994656
 20
-4.452484669
 30
0.0
 10
16.4711391773
 20
-4.4417785404
 30
0.0
 10
16.4980193526
 20
-4.4340313015
 30
0.0
 10
16.5256165501
 20
-4.4293458817
 30
0.0
 10
16.5442577064
 20
-4.4283026445
 30
0.0
 10
16.5535509591
 20
-4.4283026445
 30
0.0
 11
16.3044852951
 21
-4.678932394
 31
0.0
 11
16.3059761829
 21
-4.6507741422
 31
0.0
 11
16.3106307955
 21
-4.6228770391
 31
0.0
 11
16.3183642782
 21
-4.595772034
 31
0.0
 11
16.3290248864
 21
-4.5698538355
 31
0.0
 11
16.3425832933
 21
-4.5451899762
 31
0.0
 11
16.3588288634
 21
-4.5222142392
 31
0.0
 11
16.3774289129
 21
-4.5013488114
 31
0.0
 11
16.3982303717
 21
-4.48271701
 31
0.0
 11
16.4210870903
 21
-4.4664732869
 31
0.0
 11
16.4455767523
 21
-4.45293169
 31
0.0
 11
16.4712746968
 21
-4.4422842049
 31
0.0
 11
16.4981164839
 21
-4.4345474548
 31
0.0
 11
16.5257148305
 21
-4.4298617627
 31
0.0
 11
16.5535509591
 21
-4.4283026445
 31
0.0
  0
SPLINE
  5
474
100
AcDbEntity
  8
RACCORDO
100
AcDbSpline
 62
7
  6
CONTINUOUS
 70
0
 71
3
 72
29
 73
25
 74
23
 42
0.0000001
 43
0.0000001
 44
0.0000000001
 12
-0.3575800582
 22
-0.0104725375
 32
0.0
 13
-0.0148642818
 23
-0.3574244328
 33
0.0
 40
0.0
 40
0.0
 40
0.0
 40
0.0
 40
0.0594150666
 40
0.1174433094
 40
0.1739773605
 40
0.2289549978
 40
0.2823541856
 40
0.3341853721
 40
0.3844832168
 40
0.4332987476
 40
0.4806946825
 40
0.5267399017
 40
0.5715064417
 40
0.6150679311
 40
0.6574984419
 40
0.6988715437
 40
0.7392594916
 40
0.7787328813
 40
0.8173607831
 40
0.855209365
 40
0.8923414717
 40
0.9288158073
 40
0.9646860533
 40
1.0
 40
1.0
 40
1.0
 40
1.0
 10
16.6039983716
 20
-5.9872811811
 30
0.0
 10
16.5969164906
 20
-5.9874885899
 30
0.0
 10
16.5829275065
 20
-5.9883972976
 30
0.0
 10
16.562354865
 20
-5.9911921043
 30
0.0
 10
16.5425405513
 20
-5.9952844827
 30
0.0
 10
16.5235800641
 20
-6.0005548203
 30
0.0
 10
16.5055415259
 20
-6.0068875719
 30
0.0
 10
16.4884724848
 20
-6.0141739077
 30
0.0
 10
16.4724041944
 20
-6.0223130288
 30
0.0
 10
16.4573559842
 20
-6.0312124407
 30
0.0
 10
16.4433387799
 20
-6.04078748
 30
0.0
 10
16.430357765
 20
-6.0509604719
 30
0.0
 10
16.418414326
 20
-6.0616596536
 30
0.0
 10
16.4075072429
 20
-6.0728181757
 30
0.0
 10
16.3976334236
 20
-6.0843731763
 30
0.0
 10
16.388788337
 20
-6.0962649006
 30
0.0
 10
16.3809661699
 20
-6.1084359219
 30
0.0
 10
16.3741597312
 20
-6.1208305504
 30
0.0
 10
16.3683602617
 20
-6.1333942955
 30
0.0
 10
16.3635571173
 20
-6.146073484
 30
0.0
 10
16.3597373855
 20
-6.1588147805
 30
0.0
 10
16.3568853712
 20
-6.1715654116
 30
0.0
 10
16.3549821266
 20
-6.1842717246
 30
0.0
 10
16.354325637
 20
-6.1927431221
 30
0.0
 10
16.3541506649
 20
-6.1969504779
 30
0.0
 11
16.6039983716
 21
-5.9872811811
 31
0.0
 11
16.5827882795
 21
-5.9886583172
 31
0.0
 11
16.5622186779
 21
-5.991453421
 31
0.0
 11
16.5424130204
 21
-5.9955462012
 31
0.0
 11
16.5234649501
 21
-6.0008163755
 31
0.0
 11
16.5054420873
 21
-6.0071479233
 31
0.0
 11
16.488390935
 21
-6.0144317777
 31
0.0
 11
16.4723418626
 21
-6.0225670817
 31
0.0
 11
16.4573136317
 21
-6.0314612775
 31
0.0
 11
16.4433165295
 21
-6.0410298103
 31
0.0
 11
16.4303553669
 21
-6.0511950524
 31
0.0
 11
16.418431294
 21
-6.061885246
 31
0.0
 11
16.4075428835
 21
-6.0730335569
 31
0.0
 11
16.3976868439
 21
-6.0845771595
 31
0.0
 11
16.3888584496
 21
-6.0964563609
 31
0.0
 11
16.3810517209
 21
-6.1086137898
 31
0.0
 11
16.3742593243
 21
-6.120993796
 31
0.0
 11
16.3684722769
 21
-6.1335421324
 31
0.0
 11
16.3636797912
 21
-6.1462052911
 31
0.0
 11
16.3598688226
 21
-6.1589302695
 31
0.0
 11
16.3570236052
 21
-6.1716643703
 31
0.0
 11
16.3551251389
 21
-6.1843551405
 31
0.0
 11
16.3541506649
 21
-6.1969504779
 31
0.0
  0
SPLINE
  5
475
100
AcDbEntity
  8
RACCORDO
100
AcDbSpline
 62
253
  6
CONTINUOUS
 70
0
 71
3
 72
20
 73
16
 74
14
 42
0.0000001
 43
0.0000001
 44
0.0000000001
 12
0.0215142503
 22
-0.2876366607
 32
0.0
 13
0.2884143373
 23
-0.0038576666
 33
0.0
 40
0.0
 40
0.0
 40
0.0
 40
0.0
 40
0.0442769205
 40
0.091979057
 40
0.1449834819
 40
0.2044189121
 40
0.2707848793
 40
0.3441089807
 40
0.4240731654
 40
0.5101032572
 40
0.601432037
 40
0.697145831
 40
0.7962213334
 40
0.8975567896
 40
1.0
 40
1.0
 40
1.0
 40
1.0
 10
16.4133523828
 20
-6.8417980844
 30
0.0
 10
16.413669911
 20
-6.8460433062
 30
0.0
 10
16.4156142792
 20
-6.854801694
 30
0.0
 10
16.422036419
 20
-6.8673064594
 30
0.0
 10
16.4318062043
 20
-6.8793224989
 30
0.0
 10
16.4447444521
 20
-6.8907349029
 30
0.0
 10
16.4606726984
 20
-6.9014362105
 30
0.0
 10
16.4793830105
 20
-6.9113010613
 30
0.0
 10
16.5006280766
 20
-6.9202036788
 30
0.0
 10
16.5241217864
 20
-6.9280242069
 30
0.0
 10
16.5495434595
 20
-6.9346548597
 30
0.0
 10
16.5765430529
 20
-6.9400030785
 30
0.0
 10
16.6047471901
 20
-6.943993777
 30
0.0
 10
16.6337634384
 20
-6.9465707605
 30
0.0
 10
16.6533513926
 20
-6.9473209192
 30
0.0
 10
16.6632000895
 20
-6.9474526498
 30
0.0
 11
16.4133523828
 21
-6.8417980844
 31
0.0
 11
16.4160354296
 21
-6.854284311
 31
0.0
 11
16.4221791484
 21
-6.8665957121
 31
0.0
 11
16.4316975184
 21
-6.8785599099
 31
0.0
 11
16.4444572685
 21
-6.890009388
 31
0.0
 11
16.4602797436
 21
-6.9007838366
 31
0.0
 11
16.4789434061
 21
-6.9107323974
 31
0.0
 11
16.5001869373
 21
-6.9197157756
 31
0.0
 11
16.5237128964
 21
-6.9276081905
 31
0.0
 11
16.5491918851
 21
-6.9342991363
 31
0.0
 11
16.5762671597
 21
-6.9396949296
 31
0.0
 11
16.604559626
 21
-6.9437200211
 31
0.0
 11
16.6336731469
 21
-6.9463180533
 31
0.0
 11
16.6632000895
 21
-6.9474526498
 31
0.0
  0
SPLINE
  5
476
100
AcDbEntity
  8
RACCORDO
100
AcDbSpline
 62
253
  6
CONTINUOUS
 70
0
 71
3
 72
21
 73
17
 74
15
 42
0.0000001
 43
0.0000001
 44
0.0000000001
 12
0.0023901771
 22
0.3886483148
 32
0.0
 13
0.3886487345
 23
0.0023209338
 33
0.0
 40
0.0
 40
0.0
 40
0.0
 40
0.0
 40
0.0707947211
 40
0.1416634401
 40
0.2126271474
 40
0.2837020333
 40
0.354898694
 40
0.4262216282
 40
0.4976690442
 40
0.5692329811
 40
0.6408997323
 40
0.7126505438
 40
0.7844625507
 40
0.8563099045
 40
0.9281650365
 40
1.0
 40
1.0
 40
1.0
 40
1.0
 10
16.4120731309
 20
-6.489420939
 30
0.0
 10
16.4121295349
 20
-6.4802495226
 30
0.0
 10
16.4132854242
 20
-6.4618865906
 30
0.0
 10
16.4181220713
 20
-6.4347114592
 30
0.0
 10
16.4260016421
 20
-6.4082164841
 30
0.0
 10
16.4368253813
 20
-6.3827370579
 30
0.0
 10
16.4504578126
 20
-6.358589871
 30
0.0
 10
16.4667284341
 20
-6.336076435
 30
0.0
 10
16.4854338969
 20
-6.3154773339
 30
0.0
 10
16.506340582
 20
-6.2970492937
 30
0.0
 10
16.5291874988
 20
-6.2810218736
 30
0.0
 10
16.5536896846
 20
-6.2675946832
 30
0.0
 10
16.5795412411
 20
-6.256934925
 30
0.0
 10
16.6064210418
 20
-6.2491753367
 30
0.0
 10
16.6339895753
 20
-6.2444126032
 30
0.0
 10
16.6526146485
 20
-6.2432745755
 30
0.0
 10
16.6619208377
 20
-6.2432190007
 30
0.0
 11
16.4120731309
 21
-6.489420939
 31
0.0
 11
16.413800916
 21
-6.4619604712
 31
0.0
 11
16.418624948
 21
-6.434842678
 31
0.0
 11
16.4264850289
 21
-6.4084059577
 31
0.0
 11
16.4372830738
 21
-6.3829802099
 31
0.0
 11
16.4508843358
 21
-6.3588827182
 31
0.0
 11
16.467119087
 21
-6.3364141911
 31
0.0
 11
16.4857847368
 21
-6.3158550096
 31
0.0
 11
16.5066483595
 21
-6.2974617283
 31
0.0
 11
16.5294496015
 21
-6.2814638739
 31
0.0
 11
16.5539039299
 21
-6.268061081
 31
0.0
 11
16.5797061832
 21
-6.2574206008
 31
0.0
 11
16.6065343795
 21
-6.249675214
 31
0.0
 11
16.6340537341
 21
-6.244921574
 31
0.0
 11
16.6619208377
 21
-6.2432190007
 31
0.0
  0
SPLINE
  5
477
100
AcDbEntity
  8
RACCORDO
100
AcDbSpline
 62
7
  6
CONTINUOUS
 70
0
 71
3
 72
21
 73
17
 74
15
 42
0.0000001
 43
0.0000001
 44
0.0000000001
 12
0.392503077
 22
0.0
 32
0.0
 13
-0.0012443691
 23
-0.3925011045
 33
0.0
 40
0.0
 40
0.0
 40
0.0
 40
0.0
 40
0.0710359996
 40
0.1423683218
 40
0.2135542834
 40
0.2844243352
 40
0.3557208502
 40
0.4271693776
 40
0.4983241725
 40
0.5695411409
 40
0.6412330145
 40
0.7129479912
 40
0.7843560212
 40
0.856151482
 40
0.9281817951
 40
1.0
 40
1.0
 40
1.0
 40
1.0
 10
16.9716013968
 20
-4.4283026445
 30
0.0
 10
16.9808953462
 20
-4.4283026445
 30
0.0
 10
16.9995388243
 20
-4.42934609
 30
0.0
 10
17.0271402757
 20
-4.4340327483
 30
0.0
 10
17.0540237982
 20
-4.4417821289
 30
0.0
 10
17.0798648824
 20
-4.4524904448
 30
0.0
 10
17.1043741272
 20
-4.4660445843
 30
0.0
 10
17.1272330891
 20
-4.4822922767
 30
0.0
 10
17.1481135101
 20
-4.5009980801
 30
0.0
 10
17.1667870227
 20
-4.5219501069
 30
0.0
 10
17.1830306933
 20
-4.5449283289
 30
0.0
 10
17.1965957638
 20
-4.5696113101
 30
0.0
 10
17.2073109472
 20
-4.595671806
 30
0.0
 10
17.2150500374
 20
-4.6228100795
 30
0.0
 10
17.2197006138
 20
-4.6506955144
 30
0.0
 10
17.2206968502
 20
-4.6695361524
 30
0.0
 10
17.2206670607
 20
-4.678932394
 30
0.0
 11
16.9716013968
 21
-4.4283026445
 31
0.0
 11
16.999439606
 21
-4.4298619965
 31
0.0
 11
17.0270426618
 21
-4.434549005
 31
0.0
 11
17.0538900584
 21
-4.4422885471
 31
0.0
 11
17.0795877038
 21
-4.4529375173
 31
0.0
 11
17.104076506
 21
-4.4664803569
 31
0.0
 11
17.126934655
 21
-4.4827271376
 31
0.0
 11
17.1477368626
 21
-4.5013622638
 31
0.0
 11
17.1663357163
 21
-4.522229609
 31
0.0
 11
17.1825796289
 21
-4.5452068682
 31
0.0
 11
17.1961375517
 21
-4.5698749099
 31
0.0
 11
17.2067966772
 21
-4.5957968045
 31
0.0
 11
17.2145258439
 21
-4.6228960473
 31
0.0
 11
17.2191771344
 21
-4.6507829303
 31
0.0
 11
17.2206670607
 21
-4.678932394
 31
0.0
  0
SPLINE
  5
478
100
AcDbEntity
  8
RACCORDO
100
AcDbSpline
 62
253
  6
CONTINUOUS
 70
0
 71
3
 72
20
 73
16
 74
14
 42
0.0000001
 43
0.0000001
 44
0.0000000001
 12
-0.0215142501
 22
-0.2876366609
 32
0.0
 13
-0.2884143375
 23
-0.003857666
 33
0.0
 40
0.0
 40
0.0
 40
0.0
 40
0.0
 40
0.0442769296
 40
0.091979076
 40
0.1449835118
 40
0.2044189533
 40
0.270784931
 40
0.3441090405
 40
0.42407323
 40
0.510103322
 40
0.6014320973
 40
0.6971458816
 40
0.79622137
 40
0.8975568088
 40
1.0
 40
1.0
 40
1.0
 40
1.0
 10
17.111799973
 20
-6.8417980844
 30
0.0
 10
17.1114824447
 20
-6.8460433071
 30
0.0
 10
17.1095380759
 20
-6.8548016967
 30
0.0
 10
17.1031159339
 20
-6.8673064643
 30
0.0
 10
17.0933461457
 20
-6.8793225053
 30
0.0
 10
17.0804078945
 20
-6.8907349103
 30
0.0
 10
17.0644796449
 20
-6.9014362183
 30
0.0
 10
17.0457693301
 20
-6.9113010687
 30
0.0
 10
17.0245242622
 20
-6.9202036854
 30
0.0
 10
17.001030552
 20
-6.9280242123
 30
0.0
 10
16.9756088799
 20
-6.9346548636
 30
0.0
 10
16.9486092889
 20
-6.940003081
 30
0.0
 10
16.9204051555
 20
-6.9439937782
 30
0.0
 10
16.891388912
 20
-6.9465707608
 30
0.0
 10
16.8718009613
 20
-6.9473209193
 30
0.0
 10
16.8619522663
 20
-6.9474526498
 30
0.0
 11
17.111799973
 21
-6.8417980844
 31
0.0
 11
17.1091169253
 21
-6.8542843135
 31
0.0
 11
17.1029732044
 21
-6.8665957168
 31
0.0
 11
17.0934548315
 21
-6.8785599163
 31
0.0
 11
17.0806950781
 21
-6.8900093955
 31
0.0
 11
17.0648725995
 21
-6.9007838445
 31
0.0
 11
17.0462089342
 21
-6.910732405
 31
0.0
 11
17.0249654012
 21
-6.9197157824
 31
0.0
 11
17.0014394416
 21
-6.9276081961
 31
0.0
 11
16.9759604538
 21
-6.9342991404
 31
0.0
 11
16.9488851817
 21
-6.9396949322
 31
0.0
 11
16.9205927194
 21
-6.9437200224
 31
0.0
 11
16.8914792034
 21
-6.9463180537
 31
0.0
 11
16.8619522663
 21
-6.9474526498
 31
0.0
  0
SPLINE
  5
479
100
AcDbEntity
  8
RACCORDO
100
AcDbSpline
 62
253
  6
CONTINUOUS
 70
0
 71
3
 72
21
 73
17
 74
15
 42
0.0000001
 43
0.0000001
 44
0.0000000001
 12
-0.0023901771
 22
0.3886483148
 32
0.0
 13
-0.3886487345
 23
0.0023209339
 33
0.0
 40
0.0
 40
0.0
 40
0.0
 40
0.0
 40
0.0707946941
 40
0.141663388
 40
0.2126270731
 40
0.2837019407
 40
0.3548985877
 40
0.4262215136
 40
0.497668927
 40
0.5692328671
 40
0.6408996271
 40
0.7126504525
 40
0.784462478
 40
0.8563098539
 40
0.9281650106
 40
1.0
 40
1.0
 40
1.0
 40
1.0
 10
17.1130792249
 20
-6.489420939
 30
0.0
 10
17.1130228209
 20
-6.4802495261
 30
0.0
 10
17.1118669324
 20
-6.4618866008
 30
0.0
 10
17.1070302888
 20
-6.4347114787
 30
0.0
 10
17.099150723
 20
-6.408216511
 30
0.0
 10
17.0883269899
 20
-6.3827370898
 30
0.0
 10
17.074694565
 20
-6.3585899054
 30
0.0
 10
17.0584239493
 20
-6.3360764692
 30
0.0
 10
17.0397184909
 20
-6.3154773655
 30
0.0
 10
17.0188118082
 20
-6.2970493207
 30
0.0
 10
16.9959648914
 20
-6.2810218948
 30
0.0
 10
16.9714627029
 20
-6.2675946981
 30
0.0
 10
16.9456111412
 20
-6.2569349339
 30
0.0
 10
16.918731333
 20
-6.2491753408
 30
0.0
 10
16.8911627905
 20
-6.244412604
 30
0.0
 10
16.8725377107
 20
-6.2432745755
 30
0.0
 10
16.8632315181
 20
-6.2432190007
 30
0.0
 11
17.1130792249
 21
-6.489420939
 31
0.0
 11
17.1113514411
 21
-6.4619604816
 31
0.0
 11
17.1065274124
 21
-6.4348426977
 31
0.0
 11
17.0986673367
 21
-6.408405985
 31
0.0
 11
17.0878692979
 21
-6.3829802423
 31
0.0
 11
17.0742680423
 21
-6.358882753
 31
0.0
 11
17.0580332968
 21
-6.3364142257
 31
0.0
 11
17.0393676515
 21
-6.3158550416
 31
0.0
 11
17.0185040312
 21
-6.2974617558
 31
0.0
 11
16.9957027891
 21
-6.2814638956
 31
0.0
 11
16.971248458
 21
-6.2680610964
 31
0.0
 11
16.9454461993
 21
-6.2574206101
 31
0.0
 11
16.9186179955
 21
-6.2496752184
 31
0.0
 11
16.8910986317
 21
-6.2449215752
 31
0.0
 11
16.8632315181
 21
-6.2432190007
 31
0.0
  0
SPLINE
  5
47A
100
AcDbEntity
  8
RACCORDO
100
AcDbSpline
 62
7
  6
CONTINUOUS
 70
0
 71
3
 72
29
 73
25
 74
23
 42
0.0000001
 43
0.0000001
 44
0.0000000001
 12
-0.0148642818
 22
0.3574244328
 32
0.0
 13
-0.3575800582
 23
0.0104725375
 33
0.0
 40
0.0
 40
0.0
 40
0.0
 40
0.0
 40
0.0353139467
 40
0.0711841927
 40
0.1076585283
 40
0.144790635
 40
0.1826392169
 40
0.2212671187
 40
0.2607405084
 40
0.3011284563
 40
0.3425015581
 40
0.3849320689
 40
0.4284935583
 40
0.4732600983
 40
0.5193053175
 40
0.5667012524
 40
0.6155167832
 40
0.6658146279
 40
0.7176458144
 40
0.7710450022
 40
0.8260226395
 40
0.8825566906
 40
0.9405849334
 40
1.0
 40
1.0
 40
1.0
 40
1.0
 10
17.171001691
 20
-6.1969504779
 30
0.0
 10
17.1708267188
 20
-6.1927431221
 30
0.0
 10
17.1701702292
 20
-6.1842717246
 30
0.0
 10
17.1682669846
 20
-6.1715654116
 30
0.0
 10
17.1654149703
 20
-6.1588147805
 30
0.0
 10
17.1615952385
 20
-6.146073484
 30
0.0
 10
17.1567920941
 20
-6.1333942955
 30
0.0
 10
17.1509926246
 20
-6.1208305504
 30
0.0
 10
17.1441861859
 20
-6.1084359219
 30
0.0
 10
17.1363640188
 20
-6.0962649006
 30
0.0
 10
17.1275189322
 20
-6.0843731763
 30
0.0
 10
17.1176451129
 20
-6.0728181757
 30
0.0
 10
17.1067380298
 20
-6.0616596536
 30
0.0
 10
17.0947945908
 20
-6.0509604719
 30
0.0
 10
17.081813576
 20
-6.04078748
 30
0.0
 10
17.0677963716
 20
-6.0312124407
 30
0.0
 10
17.0527481614
 20
-6.0223130288
 30
0.0
 10
17.036679871
 20
-6.0141739077
 30
0.0
 10
17.0196108299
 20
-6.0068875719
 30
0.0
 10
17.0015722917
 20
-6.0005548203
 30
0.0
 10
16.9826118045
 20
-5.9952844827
 30
0.0
 10
16.9627974908
 20
-5.9911921043
 30
0.0
 10
16.9422248493
 20
-5.9883972976
 30
0.0
 10
16.9282358652
 20
-5.9874885899
 30
0.0
 10
16.9211539842
 20
-5.9872811811
 30
0.0
 11
17.171001691
 21
-6.1969504779
 31
0.0
 11
17.1700272169
 21
-6.1843551405
 31
0.0
 11
17.1681287506
 21
-6.1716643703
 31
0.0
 11
17.1652835332
 21
-6.1589302695
 31
0.0
 11
17.1614725646
 21
-6.1462052911
 31
0.0
 11
17.1566800789
 21
-6.1335421324
 31
0.0
 11
17.1508930315
 21
-6.120993796
 31
0.0
 11
17.1441006349
 21
-6.1086137898
 31
0.0
 11
17.1362939062
 21
-6.0964563609
 31
0.0
 11
17.1274655119
 21
-6.0845771595
 31
0.0
 11
17.1176094724
 21
-6.0730335569
 31
0.0
 11
17.1067210618
 21
-6.061885246
 31
0.0
 11
17.0947969889
 21
-6.0511950524
 31
0.0
 11
17.0818358263
 21
-6.0410298103
 31
0.0
 11
17.0678387241
 21
-6.0314612775
 31
0.0
 11
17.0528104932
 21
-6.0225670817
 31
0.0
 11
17.0367614208
 21
-6.0144317777
 31
0.0
 11
17.0197102685
 21
-6.0071479233
 31
0.0
 11
17.0016874057
 21
-6.0008163755
 31
0.0
 11
16.9827393354
 21
-5.9955462012
 31
0.0
 11
16.9629336779
 21
-5.991453421
 31
0.0
 11
16.9423640763
 21
-5.9886583172
 31
0.0
 11
16.9211539842
 21
-5.9872811811
 31
0.0
  0
SPLINE
  5
47B
100
AcDbEntity
  8
RACCORDO
100
AcDbSpline
 62
7
  6
CONTINUOUS
 70
0
 71
3
 72
21
 73
17
 74
15
 42
0.0000001
 43
0.0000001
 44
0.0000000001
 12
-0.0012443691
 22
0.3925011042
 32
0.0
 13
0.3925030768
 23
0.0
 33
0.0
 40
0.0
 40
0.0
 40
0.0
 40
0.0
 40
0.0718406931
 40
0.1438980823
 40
0.2157106773
 40
0.287111435
 40
0.3588176678
 40
0.4305088128
 40
0.5017241615
 40
0.5728718836
 40
0.6443129278
 40
0.7156098276
 40
0.7864791351
 40
0.857649394
 40
0.9289693264
 40
1.0
 40
1.0
 40
1.0
 40
1.0
 10
-17.3955147049
 20
-4.678932394
 30
0.0
 10
-17.3955445037
 20
-4.6695332102
 30
0.0
 10
-17.3945475922
 20
-4.6506860695
 30
0.0
 10
-17.3898939969
 20
-4.6227922281
 30
0.0
 10
-17.3821510949
 20
-4.5956499735
 30
0.0
 10
-17.3714332782
 20
-4.5695904177
 30
0.0
 10
-17.3578671338
 20
-4.544910549
 30
0.0
 10
-17.3416224803
 20
-4.5219348032
 30
0.0
 10
-17.3229481656
 20
-4.500985149
 30
0.0
 10
-17.3020680088
 20
-4.4822822471
 30
0.0
 10
-17.2792096086
 20
-4.4660369949
 30
0.0
 10
-17.2547005344
 20
-4.452484669
 30
0.0
 10
-17.2288608227
 20
-4.4417785404
 30
0.0
 10
-17.2019806474
 20
-4.4340313015
 30
0.0
 10
-17.1743834499
 20
-4.4293458817
 30
0.0
 10
-17.1557422936
 20
-4.4283026445
 30
0.0
 10
-17.1464490409
 20
-4.4283026445
 30
0.0
 11
-17.3955147049
 21
-4.678932394
 31
0.0
 11
-17.3940238171
 21
-4.6507741422
 31
0.0
 11
-17.3893692045
 21
-4.6228770391
 31
0.0
 11
-17.3816357218
 21
-4.595772034
 31
0.0
 11
-17.3709751136
 21
-4.5698538355
 31
0.0
 11
-17.3574167067
 21
-4.5451899762
 31
0.0
 11
-17.3411711366
 21
-4.5222142392
 31
0.0
 11
-17.3225710871
 21
-4.5013488114
 31
0.0
 11
-17.3017696283
 21
-4.48271701
 31
0.0
 11
-17.2789129097
 21
-4.4664732869
 31
0.0
 11
-17.2544232477
 21
-4.45293169
 31
0.0
 11
-17.2287253032
 21
-4.4422842049
 31
0.0
 11
-17.2018835161
 21
-4.4345474548
 31
0.0
 11
-17.1742851695
 21
-4.4298617627
 31
0.0
 11
-17.1464490409
 21
-4.4283026445
 31
0.0
  0
SPLINE
  5
47C
100
AcDbEntity
  8
RACCORDO
100
AcDbSpline
 62
7
  6
CONTINUOUS
 70
0
 71
3
 72
29
 73
25
 74
23
 42
0.0000001
 43
0.0000001
 44
0.0000000001
 12
-0.3575800582
 22
-0.0104725375
 32
0.0
 13
-0.0148642818
 23
-0.3574244328
 33
0.0
 40
0.0
 40
0.0
 40
0.0
 40
0.0
 40
0.0594150666
 40
0.1174433094
 40
0.1739773605
 40
0.2289549978
 40
0.2823541856
 40
0.3341853721
 40
0.3844832168
 40
0.4332987476
 40
0.4806946825
 40
0.5267399017
 40
0.5715064417
 40
0.6150679311
 40
0.6574984419
 40
0.6988715437
 40
0.7392594916
 40
0.7787328813
 40
0.8173607831
 40
0.855209365
 40
0.8923414717
 40
0.9288158073
 40
0.9646860533
 40
1.0
 40
1.0
 40
1.0
 40
1.0
 10
-17.0960016284
 20
-5.9872811811
 30
0.0
 10
-17.1030835094
 20
-5.9874885899
 30
0.0
 10
-17.1170724935
 20
-5.9883972976
 30
0.0
 10
-17.137645135
 20
-5.9911921043
 30
0.0
 10
-17.1574594487
 20
-5.9952844827
 30
0.0
 10
-17.1764199359
 20
-6.0005548203
 30
0.0
 10
-17.1944584741
 20
-6.0068875719
 30
0.0
 10
-17.2115275152
 20
-6.0141739077
 30
0.0
 10
-17.2275958056
 20
-6.0223130288
 30
0.0
 10
-17.2426440158
 20
-6.0312124407
 30
0.0
 10
-17.2566612201
 20
-6.04078748
 30
0.0
 10
-17.269642235
 20
-6.0509604719
 30
0.0
 10
-17.281585674
 20
-6.0616596536
 30
0.0
 10
-17.2924927571
 20
-6.0728181757
 30
0.0
 10
-17.3023665764
 20
-6.0843731763
 30
0.0
 10
-17.311211663
 20
-6.0962649006
 30
0.0
 10
-17.3190338301
 20
-6.1084359219
 30
0.0
 10
-17.3258402688
 20
-6.1208305504
 30
0.0
 10
-17.3316397383
 20
-6.1333942955
 30
0.0
 10
-17.3364428827
 20
-6.146073484
 30
0.0
 10
-17.3402626145
 20
-6.1588147805
 30
0.0
 10
-17.3431146288
 20
-6.1715654116
 30
0.0
 10
-17.3450178734
 20
-6.1842717246
 30
0.0
 10
-17.345674363
 20
-6.1927431221
 30
0.0
 10
-17.3458493351
 20
-6.1969504779
 30
0.0
 11
-17.0960016284
 21
-5.9872811811
 31
0.0
 11
-17.1172117205
 21
-5.9886583172
 31
0.0
 11
-17.1377813221
 21
-5.991453421
 31
0.0
 11
-17.1575869796
 21
-5.9955462012
 31
0.0
 11
-17.1765350499
 21
-6.0008163755
 31
0.0
 11
-17.1945579127
 21
-6.0071479233
 31
0.0
 11
-17.211609065
 21
-6.0144317777
 31
0.0
 11
-17.2276581374
 21
-6.0225670817
 31
0.0
 11
-17.2426863683
 21
-6.0314612775
 31
0.0
 11
-17.2566834705
 21
-6.0410298103
 31
0.0
 11
-17.2696446331
 21
-6.0511950524
 31
0.0
 11
-17.281568706
 21
-6.061885246
 31
0.0
 11
-17.2924571165
 21
-6.0730335569
 31
0.0
 11
-17.3023131561
 21
-6.0845771595
 31
0.0
 11
-17.3111415504
 21
-6.0964563609
 31
0.0
 11
-17.3189482791
 21
-6.1086137898
 31
0.0
 11
-17.3257406757
 21
-6.120993796
 31
0.0
 11
-17.3315277231
 21
-6.1335421324
 31
0.0
 11
-17.3363202088
 21
-6.1462052911
 31
0.0
 11
-17.3401311774
 21
-6.1589302695
 31
0.0
 11
-17.3429763948
 21
-6.1716643703
 31
0.0
 11
-17.3448748611
 21
-6.1843551405
 31
0.0
 11
-17.3458493351
 21
-6.1969504779
 31
0.0
  0
SPLINE
  5
47D
100
AcDbEntity
  8
RACCORDO
100
AcDbSpline
 62
253
  6
CONTINUOUS
 70
0
 71
3
 72
20
 73
16
 74
14
 42
0.0000001
 43
0.0000001
 44
0.0000000001
 12
0.0215142503
 22
-0.2876366607
 32
0.0
 13
0.2884143373
 23
-0.0038576666
 33
0.0
 40
0.0
 40
0.0
 40
0.0
 40
0.0
 40
0.0442769205
 40
0.091979057
 40
0.1449834819
 40
0.2044189121
 40
0.2707848793
 40
0.3441089807
 40
0.4240731654
 40
0.5101032572
 40
0.601432037
 40
0.697145831
 40
0.7962213334
 40
0.8975567896
 40
1.0
 40
1.0
 40
1.0
 40
1.0
 10
-17.2866476172
 20
-6.8417980844
 30
0.0
 10
-17.286330089
 20
-6.8460433062
 30
0.0
 10
-17.2843857208
 20
-6.854801694
 30
0.0
 10
-17.277963581
 20
-6.8673064594
 30
0.0
 10
-17.2681937957
 20
-6.8793224989
 30
0.0
 10
-17.2552555479
 20
-6.8907349029
 30
0.0
 10
-17.2393273016
 20
-6.9014362105
 30
0.0
 10
-17.2206169895
 20
-6.9113010613
 30
0.0
 10
-17.1993719234
 20
-6.9202036788
 30
0.0
 10
-17.1758782136
 20
-6.9280242069
 30
0.0
 10
-17.1504565405
 20
-6.9346548597
 30
0.0
 10
-17.1234569471
 20
-6.9400030785
 30
0.0
 10
-17.0952528099
 20
-6.943993777
 30
0.0
 10
-17.0662365616
 20
-6.9465707605
 30
0.0
 10
-17.0466486074
 20
-6.9473209192
 30
0.0
 10
-17.0367999105
 20
-6.9474526498
 30
0.0
 11
-17.2866476172
 21
-6.8417980844
 31
0.0
 11
-17.2839645704
 21
-6.854284311
 31
0.0
 11
-17.2778208516
 21
-6.8665957121
 31
0.0
 11
-17.2683024816
 21
-6.8785599099
 31
0.0
 11
-17.2555427315
 21
-6.890009388
 31
0.0
 11
-17.2397202564
 21
-6.9007838366
 31
0.0
 11
-17.2210565939
 21
-6.9107323974
 31
0.0
 11
-17.1998130627
 21
-6.9197157756
 31
0.0
 11
-17.1762871036
 21
-6.9276081905
 31
0.0
 11
-17.1508081149
 21
-6.9342991363
 31
0.0
 11
-17.1237328403
 21
-6.9396949296
 31
0.0
 11
-17.095440374
 21
-6.9437200211
 31
0.0
 11
-17.0663268531
 21
-6.9463180533
 31
0.0
 11
-17.0367999105
 21
-6.9474526498
 31
0.0
  0
SPLINE
  5
47E
100
AcDbEntity
  8
RACCORDO
100
AcDbSpline
 62
253
  6
CONTINUOUS
 70
0
 71
3
 72
21
 73
17
 74
15
 42
0.0000001
 43
0.0000001
 44
0.0000000001
 12
0.0023901771
 22
0.3886483148
 32
0.0
 13
0.3886487345
 23
0.0023209338
 33
0.0
 40
0.0
 40
0.0
 40
0.0
 40
0.0
 40
0.0707947211
 40
0.1416634401
 40
0.2126271474
 40
0.2837020333
 40
0.354898694
 40
0.4262216282
 40
0.4976690442
 40
0.5692329811
 40
0.6408997323
 40
0.7126505438
 40
0.7844625507
 40
0.8563099045
 40
0.9281650365
 40
1.0
 40
1.0
 40
1.0
 40
1.0
 10
-17.2879268691
 20
-6.489420939
 30
0.0
 10
-17.2878704651
 20
-6.4802495226
 30
0.0
 10
-17.2867145758
 20
-6.4618865906
 30
0.0
 10
-17.2818779287
 20
-6.4347114592
 30
0.0
 10
-17.2739983579
 20
-6.4082164841
 30
0.0
 10
-17.2631746187
 20
-6.3827370579
 30
0.0
 10
-17.2495421874
 20
-6.358589871
 30
0.0
 10
-17.2332715659
 20
-6.336076435
 30
0.0
 10
-17.2145661031
 20
-6.3154773339
 30
0.0
 10
-17.193659418
 20
-6.2970492937
 30
0.0
 10
-17.1708125012
 20
-6.2810218736
 30
0.0
 10
-17.1463103154
 20
-6.2675946832
 30
0.0
 10
-17.1204587589
 20
-6.256934925
 30
0.0
 10
-17.0935789582
 20
-6.2491753367
 30
0.0
 10
-17.0660104247
 20
-6.2444126032
 30
0.0
 10
-17.0473853515
 20
-6.2432745755
 30
0.0
 10
-17.0380791623
 20
-6.2432190007
 30
0.0
 11
-17.2879268691
 21
-6.489420939
 31
0.0
 11
-17.286199084
 21
-6.4619604712
 31
0.0
 11
-17.281375052
 21
-6.434842678
 31
0.0
 11
-17.2735149711
 21
-6.4084059577
 31
0.0
 11
-17.2627169262
 21
-6.3829802099
 31
0.0
 11
-17.2491156642
 21
-6.3588827182
 31
0.0
 11
-17.232880913
 21
-6.3364141911
 31
0.0
 11
-17.2142152632
 21
-6.3158550096
 31
0.0
 11
-17.1933516405
 21
-6.2974617283
 31
0.0
 11
-17.1705503985
 21
-6.2814638739
 31
0.0
 11
-17.1460960701
 21
-6.268061081
 31
0.0
 11
-17.1202938168
 21
-6.2574206008
 31
0.0
 11
-17.0934656205
 21
-6.249675214
 31
0.0
 11
-17.0659462659
 21
-6.244921574
 31
0.0
 11
-17.0380791623
 21
-6.2432190007
 31
0.0
  0
SPLINE
  5
47F
100
AcDbEntity
  8
RACCORDO
100
AcDbSpline
 62
7
  6
CONTINUOUS
 70
0
 71
3
 72
21
 73
17
 74
15
 42
0.0000001
 43
0.0000001
 44
0.0000000001
 12
0.392503077
 22
0.0
 32
0.0
 13
-0.0012443691
 23
-0.3925011045
 33
0.0
 40
0.0
 40
0.0
 40
0.0
 40
0.0
 40
0.0710359996
 40
0.1423683218
 40
0.2135542834
 40
0.2844243352
 40
0.3557208502
 40
0.4271693776
 40
0.4983241725
 40
0.5695411409
 40
0.6412330145
 40
0.7129479912
 40
0.7843560212
 40
0.856151482
 40
0.9281817951
 40
1.0
 40
1.0
 40
1.0
 40
1.0
 10
-16.7283986032
 20
-4.4283026445
 30
0.0
 10
-16.7191046538
 20
-4.4283026445
 30
0.0
 10
-16.7004611757
 20
-4.42934609
 30
0.0
 10
-16.6728597243
 20
-4.4340327483
 30
0.0
 10
-16.6459762018
 20
-4.4417821289
 30
0.0
 10
-16.6201351176
 20
-4.4524904448
 30
0.0
 10
-16.5956258728
 20
-4.4660445843
 30
0.0
 10
-16.5727669109
 20
-4.4822922767
 30
0.0
 10
-16.5518864899
 20
-4.5009980801
 30
0.0
 10
-16.5332129773
 20
-4.5219501069
 30
0.0
 10
-16.5169693067
 20
-4.5449283289
 30
0.0
 10
-16.5034042362
 20
-4.5696113101
 30
0.0
 10
-16.4926890528
 20
-4.595671806
 30
0.0
 10
-16.4849499626
 20
-4.6228100795
 30
0.0
 10
-16.4802993862
 20
-4.6506955144
 30
0.0
 10
-16.4793031498
 20
-4.6695361524
 30
0.0
 10
-16.4793329393
 20
-4.678932394
 30
0.0
 11
-16.7283986032
 21
-4.4283026445
 31
0.0
 11
-16.700560394
 21
-4.4298619965
 31
0.0
 11
-16.6729573382
 21
-4.434549005
 31
0.0
 11
-16.6461099416
 21
-4.4422885471
 31
0.0
 11
-16.6204122962
 21
-4.4529375173
 31
0.0
 11
-16.595923494
 21
-4.4664803569
 31
0.0
 11
-16.573065345
 21
-4.4827271376
 31
0.0
 11
-16.5522631374
 21
-4.5013622638
 31
0.0
 11
-16.5336642837
 21
-4.522229609
 31
0.0
 11
-16.5174203711
 21
-4.5452068682
 31
0.0
 11
-16.5038624483
 21
-4.5698749099
 31
0.0
 11
-16.4932033228
 21
-4.5957968045
 31
0.0
 11
-16.4854741561
 21
-4.6228960473
 31
0.0
 11
-16.4808228656
 21
-4.6507829303
 31
0.0
 11
-16.4793329393
 21
-4.678932394
 31
0.0
  0
SPLINE
  5
480
100
AcDbEntity
  8
RACCORDO
100
AcDbSpline
 62
253
  6
CONTINUOUS
 70
0
 71
3
 72
20
 73
16
 74
14
 42
0.0000001
 43
0.0000001
 44
0.0000000001
 12
-0.0215142501
 22
-0.2876366609
 32
0.0
 13
-0.2884143375
 23
-0.003857666
 33
0.0
 40
0.0
 40
0.0
 40
0.0
 40
0.0
 40
0.0442769296
 40
0.091979076
 40
0.1449835118
 40
0.2044189533
 40
0.270784931
 40
0.3441090405
 40
0.42407323
 40
0.510103322
 40
0.6014320973
 40
0.6971458816
 40
0.79622137
 40
0.8975568088
 40
1.0
 40
1.0
 40
1.0
 40
1.0
 10
-16.588200027
 20
-6.8417980844
 30
0.0
 10
-16.5885175553
 20
-6.8460433071
 30
0.0
 10
-16.5904619241
 20
-6.8548016967
 30
0.0
 10
-16.5968840661
 20
-6.8673064643
 30
0.0
 10
-16.6066538543
 20
-6.8793225053
 30
0.0
 10
-16.6195921055
 20
-6.8907349103
 30
0.0
 10
-16.6355203551
 20
-6.9014362183
 30
0.0
 10
-16.6542306699
 20
-6.9113010687
 30
0.0
 10
-16.6754757378
 20
-6.9202036854
 30
0.0
 10
-16.698969448
 20
-6.9280242123
 30
0.0
 10
-16.7243911201
 20
-6.9346548636
 30
0.0
 10
-16.7513907111
 20
-6.940003081
 30
0.0
 10
-16.7795948445
 20
-6.9439937782
 30
0.0
 10
-16.808611088
 20
-6.9465707608
 30
0.0
 10
-16.8281990387
 20
-6.9473209193
 30
0.0
 10
-16.8380477337
 20
-6.9474526498
 30
0.0
 11
-16.588200027
 21
-6.8417980844
 31
0.0
 11
-16.5908830747
 21
-6.8542843135
 31
0.0
 11
-16.5970267956
 21
-6.8665957168
 31
0.0
 11
-16.6065451685
 21
-6.8785599163
 31
0.0
 11
-16.6193049219
 21
-6.8900093955
 31
0.0
 11
-16.6351274005
 21
-6.9007838445
 31
0.0
 11
-16.6537910658
 21
-6.910732405
 31
0.0
 11
-16.6750345988
 21
-6.9197157824
 31
0.0
 11
-16.6985605584
 21
-6.9276081961
 31
0.0
 11
-16.7240395462
 21
-6.9342991404
 31
0.0
 11
-16.7511148183
 21
-6.9396949322
 31
0.0
 11
-16.7794072806
 21
-6.9437200224
 31
0.0
 11
-16.8085207966
 21
-6.9463180537
 31
0.0
 11
-16.8380477337
 21
-6.9474526498
 31
0.0
  0
SPLINE
  5
481
100
AcDbEntity
  8
RACCORDO
100
AcDbSpline
 62
253
  6
CONTINUOUS
 70
0
 71
3
 72
21
 73
17
 74
15
 42
0.0000001
 43
0.0000001
 44
0.0000000001
 12
-0.0023901771
 22
0.3886483148
 32
0.0
 13
-0.3886487345
 23
0.0023209339
 33
0.0
 40
0.0
 40
0.0
 40
0.0
 40
0.0
 40
0.0707946941
 40
0.141663388
 40
0.2126270731
 40
0.2837019407
 40
0.3548985877
 40
0.4262215136
 40
0.497668927
 40
0.5692328671
 40
0.6408996271
 40
0.7126504525
 40
0.784462478
 40
0.8563098539
 40
0.9281650106
 40
1.0
 40
1.0
 40
1.0
 40
1.0
 10
-16.5869207751
 20
-6.489420939
 30
0.0
 10
-16.5869771791
 20
-6.4802495261
 30
0.0
 10
-16.5881330676
 20
-6.4618866008
 30
0.0
 10
-16.5929697112
 20
-6.4347114787
 30
0.0
 10
-16.600849277
 20
-6.408216511
 30
0.0
 10
-16.6116730101
 20
-6.3827370898
 30
0.0
 10
-16.625305435
 20
-6.3585899054
 30
0.0
 10
-16.6415760507
 20
-6.3360764692
 30
0.0
 10
-16.6602815091
 20
-6.3154773655
 30
0.0
 10
-16.6811881918
 20
-6.2970493207
 30
0.0
 10
-16.7040351086
 20
-6.2810218948
 30
0.0
 10
-16.7285372971
 20
-6.2675946981
 30
0.0
 10
-16.7543888588
 20
-6.2569349339
 30
0.0
 10
-16.781268667
 20
-6.2491753408
 30
0.0
 10
-16.8088372095
 20
-6.244412604
 30
0.0
 10
-16.8274622893
 20
-6.2432745755
 30
0.0
 10
-16.8367684819
 20
-6.2432190007
 30
0.0
 11
-16.5869207751
 21
-6.489420939
 31
0.0
 11
-16.5886485589
 21
-6.4619604816
 31
0.0
 11
-16.5934725876
 21
-6.4348426977
 31
0.0
 11
-16.6013326633
 21
-6.408405985
 31
0.0
 11
-16.6121307021
 21
-6.3829802423
 31
0.0
 11
-16.6257319577
 21
-6.358882753
 31
0.0
 11
-16.6419667032
 21
-6.3364142257
 31
0.0
 11
-16.6606323485
 21
-6.3158550416
 31
0.0
 11
-16.6814959688
 21
-6.2974617558
 31
0.0
 11
-16.7042972109
 21
-6.2814638956
 31
0.0
 11
-16.728751542
 21
-6.2680610964
 31
0.0
 11
-16.7545538007
 21
-6.2574206101
 31
0.0
 11
-16.7813820045
 21
-6.2496752184
 31
0.0
 11
-16.8089013683
 21
-6.2449215752
 31
0.0
 11
-16.8367684819
 21
-6.2432190007
 31
0.0
  0
SPLINE
  5
482
100
AcDbEntity
  8
RACCORDO
100
AcDbSpline
 62
7
  6
CONTINUOUS
 70
0
 71
3
 72
29
 73
25
 74
23
 42
0.0000001
 43
0.0000001
 44
0.0000000001
 12
-0.0148642818
 22
0.3574244328
 32
0.0
 13
-0.3575800582
 23
0.0104725375
 33
0.0
 40
0.0
 40
0.0
 40
0.0
 40
0.0
 40
0.0353139467
 40
0.0711841927
 40
0.1076585283
 40
0.144790635
 40
0.1826392169
 40
0.2212671187
 40
0.2607405084
 40
0.3011284563
 40
0.3425015581
 40
0.3849320689
 40
0.4284935583
 40
0.4732600983
 40
0.5193053175
 40
0.5667012524
 40
0.6155167832
 40
0.6658146279
 40
0.7176458144
 40
0.7710450022
 40
0.8260226395
 40
0.8825566906
 40
0.9405849334
 40
1.0
 40
1.0
 40
1.0
 40
1.0
 10
-16.528998309
 20
-6.1969504779
 30
0.0
 10
-16.5291732812
 20
-6.1927431221
 30
0.0
 10
-16.5298297708
 20
-6.1842717246
 30
0.0
 10
-16.5317330154
 20
-6.1715654116
 30
0.0
 10
-16.5345850297
 20
-6.1588147805
 30
0.0
 10
-16.5384047615
 20
-6.146073484
 30
0.0
 10
-16.5432079059
 20
-6.1333942955
 30
0.0
 10
-16.5490073754
 20
-6.1208305504
 30
0.0
 10
-16.5558138141
 20
-6.1084359219
 30
0.0
 10
-16.5636359812
 20
-6.0962649006
 30
0.0
 10
-16.5724810678
 20
-6.0843731763
 30
0.0
 10
-16.5823548871
 20
-6.0728181757
 30
0.0
 10
-16.5932619702
 20
-6.0616596536
 30
0.0
 10
-16.6052054092
 20
-6.0509604719
 30
0.0
 10
-16.618186424
 20
-6.04078748
 30
0.0
 10
-16.6322036284
 20
-6.0312124407
 30
0.0
 10
-16.6472518386
 20
-6.0223130288
 30
0.0
 10
-16.663320129
 20
-6.0141739077
 30
0.0
 10
-16.6803891701
 20
-6.0068875719
 30
0.0
 10
-16.6984277083
 20
-6.0005548203
 30
0.0
 10
-16.7173881955
 20
-5.9952844827
 30
0.0
 10
-16.7372025092
 20
-5.9911921043
 30
0.0
 10
-16.7577751507
 20
-5.9883972976
 30
0.0
 10
-16.7717641348
 20
-5.9874885899
 30
0.0
 10
-16.7788460158
 20
-5.9872811811
 30
0.0
 11
-16.528998309
 21
-6.1969504779
 31
0.0
 11
-16.5299727831
 21
-6.1843551405
 31
0.0
 11
-16.5318712494
 21
-6.1716643703
 31
0.0
 11
-16.5347164668
 21
-6.1589302695
 31
0.0
 11
-16.5385274354
 21
-6.1462052911
 31
0.0
 11
-16.5433199211
 21
-6.1335421324
 31
0.0
 11
-16.5491069685
 21
-6.120993796
 31
0.0
 11
-16.5558993651
 21
-6.1086137898
 31
0.0
 11
-16.5637060938
 21
-6.0964563609
 31
0.0
 11
-16.5725344881
 21
-6.0845771595
 31
0.0
 11
-16.5823905276
 21
-6.0730335569
 31
0.0
 11
-16.5932789382
 21
-6.061885246
 31
0.0
 11
-16.6052030111
 21
-6.0511950524
 31
0.0
 11
-16.6181641737
 21
-6.0410298103
 31
0.0
 11
-16.6321612759
 21
-6.0314612775
 31
0.0
 11
-16.6471895068
 21
-6.0225670817
 31
0.0
 11
-16.6632385792
 21
-6.0144317777
 31
0.0
 11
-16.6802897315
 21
-6.0071479233
 31
0.0
 11
-16.6983125943
 21
-6.0008163755
 31
0.0
 11
-16.7172606646
 21
-5.9955462012
 31
0.0
 11
-16.7370663221
 21
-5.991453421
 31
0.0
 11
-16.7576359237
 21
-5.9886583172
 31
0.0
 11
-16.7788460158
 21
-5.9872811811
 31
0.0
  0
SPLINE
  5
483
100
AcDbEntity
  8
RACCORDO
100
AcDbSpline
 62
253
  6
CONTINUOUS
 70
0
 71
3
 72
17
 73
13
 74
11
 42
0.0000001
 43
0.0000001
 44
0.0000000001
 12
0.0000000961
 22
-0.3535910157
 32
0.0
 13
0.0098708926
 23
-0.3534532103
 33
0.0
 40
0.0
 40
0.0
 40
0.0
 40
0.0
 40
0.1103489722
 40
0.2206209848
 40
0.3298068708
 40
0.4369296454
 40
0.5411492797
 40
0.6420348767
 40
0.7391482182
 40
0.8317037833
 40
0.918895208
 40
1.0
 40
1.0
 40
1.0
 40
1.0
 10
18.2073853544
 20
8.1199334347
 30
0.0
 10
18.2073853579
 20
8.1069272997
 30
0.0
 10
18.207413644
 20
8.0809240913
 30
0.0
 10
18.2075412664
 20
8.0420520216
 30
0.0
 10
18.2077540506
 20
8.0035605787
 30
0.0
 10
18.2080504663
 20
7.9657830646
 30
0.0
 10
18.2084282628
 20
7.9289846268
 30
0.0
 10
18.2088851563
 20
7.8933669247
 30
0.0
 10
18.2094187002
 20
7.8591252139
 30
0.0
 10
18.2100252683
 20
7.8264990209
 30
0.0
 10
18.2106992244
 20
7.7957614012
 30
0.0
 10
18.2112085153
 20
7.7759318654
 30
0.0
 10
18.2114753742
 20
7.7663762823
 30
0.0
 11
18.2073853544
 21
8.1199334347
 31
0.0
 11
18.2074279352
 21
8.0809150528
 31
0.0
 11
18.2075563474
 21
8.0419240713
 31
0.0
 11
18.207770453
 21
8.0033175167
 31
0.0
 11
18.2080686382
 21
7.9654410397
 31
0.0
 11
18.2084482792
 21
7.9285918689
 31
0.0
 11
18.2089075396
 21
7.8929225847
 31
0.0
 11
18.2094447009
 21
7.8585883813
 31
0.0
 11
18.2100557406
 21
7.8258672699
 31
0.0
 11
18.2107349383
 21
7.7950446479
 31
0.0
 11
18.2114753742
 21
7.7663762823
 31
0.0
  0
SPLINE
  5
484
100
AcDbEntity
  8
RACCORDO
100
AcDbSpline
 62
253
  6
CONTINUOUS
 70
0
 71
3
 72
17
 73
13
 74
11
 42
0.0000001
 43
0.0000001
 44
0.0000000001
 12
0.0098708904
 22
0.3534532105
 32
0.0
 13
0.0000000961
 23
0.3535910159
 33
0.0
 40
0.0
 40
0.0
 40
0.0
 40
0.0
 40
0.081104795
 40
0.1682962199
 40
0.2608517851
 40
0.3579651267
 40
0.4588507237
 40
0.563070358
 40
0.6701931326
 40
0.7793790184
 40
0.8896510308
 40
1.0
 40
1.0
 40
1.0
 40
1.0
 10
-18.3863230184
 20
7.7663762832
 30
0.0
 10
-18.3860561595
 20
7.7759318666
 30
0.0
 10
-18.3855468685
 20
7.7957614028
 30
0.0
 10
-18.3848729125
 20
7.8264990229
 30
0.0
 10
-18.3842663443
 20
7.859125216
 30
0.0
 10
-18.3837328005
 20
7.8933669269
 30
0.0
 10
-18.3832759069
 20
7.928984629
 30
0.0
 10
-18.3828981105
 20
7.9657830668
 30
0.0
 10
-18.3826016948
 20
8.0035605808
 30
0.0
 10
-18.3823889106
 20
8.0420520237
 30
0.0
 10
-18.3822612882
 20
8.080924093
 30
0.0
 10
-18.3822330021
 20
8.106927301
 30
0.0
 10
-18.3822329986
 20
8.1199334357
 30
0.0
 11
-18.3863230184
 21
7.7663762832
 31
0.0
 11
-18.3855825825
 21
7.7950446498
 31
0.0
 11
-18.3849033848
 21
7.8258672719
 31
0.0
 11
-18.384292345
 21
7.8585883834
 31
0.0
 11
-18.3837551838
 21
7.8929225868
 31
0.0
 11
-18.3832959233
 21
7.9285918711
 31
0.0
 11
-18.3829162824
 21
7.9654410418
 31
0.0
 11
-18.3826180972
 21
8.0033175188
 31
0.0
 11
-18.3824039916
 21
8.0419240734
 31
0.0
 11
-18.3822755794
 21
8.0809150548
 31
0.0
 11
-18.3822329986
 21
8.1199334357
 31
0.0
  0
SPLINE
  5
485
100
AcDbEntity
  8
RACCORDO
100
AcDbSpline
 62
253
  6
CONTINUOUS
 70
0
 71
3
 72
21
 73
17
 74
15
 42
0.0000001
 43
0.0000001
 44
0.0000000001
 12
0.0
 22
-0.2908043987
 32
0.0
 13
-0.2908043987
 23
0.0
 33
0.0
 40
0.0
 40
0.0
 40
0.0
 40
0.0
 40
0.0410363243
 40
0.0843281145
 40
0.1317099685
 40
0.1844163852
 40
0.2431210255
 40
0.3080543418
 40
0.3791152499
 40
0.4559553438
 40
0.5380389422
 40
0.6246866076
 40
0.7151083214
 40
0.8084304121
 40
0.9037187828
 40
1.0
 40
1.0
 40
1.0
 40
1.0
 10
5.9625761779
 20
-6.8417980844
 30
0.0
 10
5.9625761779
 20
-6.8457759322
 30
0.0
 10
5.961454148
 20
-6.8539865227
 30
0.0
 10
5.9565362672
 20
-6.8658918213
 30
0.0
 10
5.9485409085
 20
-6.8773697118
 30
0.0
 10
5.9376273201
 20
-6.8883123632
 30
0.0
 10
5.9239432319
 20
-6.8986318243
 30
0.0
 10
5.9076520008
 20
-6.9082258242
 30
0.0
 10
5.8889462665
 20
-6.9169886778
 30
0.0
 10
5.8680507245
 20
-6.9248167863
 30
0.0
 10
5.845220147
 20
-6.9316144481
 30
0.0
 10
5.8207357646
 20
-6.937297015
 30
0.0
 10
5.7949012252
 20
-6.9417930738
 30
0.0
 10
5.7680379485
 20
-6.9450458453
 30
0.0
 10
5.7404819986
 20
-6.9470141495
 30
0.0
 10
5.7219091784
 20
-6.9474526498
 30
0.0
 10
5.7125761779
 20
-6.9474526498
 30
0.0
 11
5.9625761779
 21
-6.8417980844
 31
0.0
 11
5.9610042304
 21
-6.8536276424
 31
0.0
 11
5.9563081559
 21
-6.8653084369
 31
0.0
 11
5.9485470105
 21
-6.8766935751
 31
0.0
 11
5.9378183949
 21
-6.8876398823
 31
0.0
 11
5.9242572277
 21
-6.8980097022
 31
0.0
 11
5.9080340485
 21
-6.9076726284
 31
0.0
 11
5.8893528732
 21
-6.916507144
 31
0.0
 11
5.8684486284
 21
-6.9244021499
 31
0.0
 11
5.845584197
 21
-6.9312583617
 31
0.0
 11
5.8210471127
 21
-6.9369895586
 31
0.0
 11
5.7951459434
 21
-6.9415236675
 31
0.0
 11
5.7682064114
 21
-6.9448036693
 31
0.0
 11
5.7405672969
 21
-6.9467883161
 31
0.0
 11
5.7125761779
 21
-6.9474526498
 31
0.0
  0
SPLINE
  5
486
100
AcDbEntity
  8
RACCORDO
100
AcDbSpline
 62
253
  6
CONTINUOUS
 70
0
 71
3
 72
17
 73
13
 74
11
 42
0.0000001
 43
0.0000001
 44
0.0000000001
 12
0.0000000961
 22
-0.3535910157
 32
0.0
 13
0.0098708926
 23
-0.3534532103
 33
0.0
 40
0.0
 40
0.0
 40
0.0
 40
0.0
 40
0.1103489722
 40
0.2206209848
 40
0.3298068708
 40
0.4369296454
 40
0.5411492797
 40
0.6420348767
 40
0.7391482182
 40
0.8317037833
 40
0.918895208
 40
1.0
 40
1.0
 40
1.0
 40
1.0
 10
-18.5926146456
 20
8.1199334347
 30
0.0
 10
-18.5926146421
 20
8.1069272997
 30
0.0
 10
-18.592586356
 20
8.0809240913
 30
0.0
 10
-18.5924587336
 20
8.0420520216
 30
0.0
 10
-18.5922459494
 20
8.0035605787
 30
0.0
 10
-18.5919495337
 20
7.9657830646
 30
0.0
 10
-18.5915717372
 20
7.9289846268
 30
0.0
 10
-18.5911148437
 20
7.8933669247
 30
0.0
 10
-18.5905812998
 20
7.8591252139
 30
0.0
 10
-18.5899747317
 20
7.8264990209
 30
0.0
 10
-18.5893007756
 20
7.7957614012
 30
0.0
 10
-18.5887914847
 20
7.7759318654
 30
0.0
 10
-18.5885246258
 20
7.7663762823
 30
0.0
 11
-18.5926146456
 21
8.1199334347
 31
0.0
 11
-18.5925720648
 21
8.0809150528
 31
0.0
 11
-18.5924436526
 21
8.0419240713
 31
0.0
 11
-18.592229547
 21
8.0033175167
 31
0.0
 11
-18.5919313618
 21
7.9654410397
 31
0.0
 11
-18.5915517208
 21
7.9285918689
 31
0.0
 11
-18.5910924604
 21
7.8929225847
 31
0.0
 11
-18.5905552991
 21
7.8585883813
 31
0.0
 11
-18.5899442594
 21
7.8258672699
 31
0.0
 11
-18.5892650617
 21
7.7950446479
 31
0.0
 11
-18.5885246258
 21
7.7663762823
 31
0.0
  0
SPLINE
  5
487
100
AcDbEntity
  8
RACCORDO
100
AcDbSpline
 62
253
  6
CONTINUOUS
 70
0
 71
3
 72
21
 73
17
 74
15
 42
0.0000001
 43
0.0000001
 44
0.0000000001
 12
0.0
 22
0.3895174095
 32
0.0
 13
-0.3895174095
 23
-0.0
 33
0.0
 40
0.0
 40
0.0
 40
0.0
 40
0.0
 40
0.0708842641
 40
0.1417959743
 40
0.2127611701
 40
0.2838031541
 40
0.3549413101
 40
0.4261901323
 40
0.4975585116
 40
0.569049315
 40
0.6406592716
 40
0.7123791662
 40
0.7841943252
 40
0.8560853644
 40
0.9280291611
 40
1.0
 40
1.0
 40
1.0
 40
1.0
 10
5.9625761779
 20
-6.489420939
 30
0.0
 10
5.9625761779
 20
-6.4802173873
 30
0.0
 10
5.9615255336
 20
-6.4617895083
 30
0.0
 10
5.9568178287
 20
-6.4345111732
 30
0.0
 10
5.9490376921
 20
-6.4079204326
 30
0.0
 10
5.938283279
 20
-6.3823566462
 30
0.0
 10
5.9246902186
 20
-6.3581401814
 30
0.0
 10
5.9084298617
 20
-6.3355759224
 30
0.0
 10
5.8897070806
 20
-6.31494741
 30
0.0
 10
5.8687576395
 20
-6.2965138382
 30
0.0
 10
5.8458452321
 20
-6.2805066778
 30
0.0
 10
5.8212580056
 20
-6.2671268445
 30
0.0
 10
5.7953054446
 20
-6.2565422042
 30
0.0
 10
5.7683125591
 20
-6.2488855072
 30
0.0
 10
5.740623015
 20
-6.2442527559
 30
0.0
 10
5.7219208095
 20
-6.2432190007
 30
0.0
 10
5.7125761779
 20
-6.2432190007
 30
0.0
 11
5.9625761779
 21
-6.489420939
 31
0.0
 11
5.9610042304
 21
-6.4618550679
 31
0.0
 11
5.9563081559
 21
-6.4346358537
 31
0.0
 11
5.9485470105
 21
-6.4081055938
 31
0.0
 11
5.9378183949
 21
-6.3825979214
 31
0.0
 11
5.9242572277
 21
-6.3584336105
 31
0.0
 11
5.9080340485
 21
-6.3359165413
 31
0.0
 11
5.8893528732
 21
-6.3153298789
 31
0.0
 11
5.8684486284
 21
-6.2969325126
 31
0.0
 11
5.845584197
 21
-6.2809558
 31
0.0
 11
5.8210471127
 21
-6.2676006574
 31
0.0
 11
5.7951459434
 21
-6.2570350336
 31
0.0
 11
5.7682064114
 21
-6.2493917973
 31
0.0
 11
5.7405672969
 21
-6.2447670668
 31
0.0
 11
5.7125761779
 21
-6.2432190007
 31
0.0
  0
SPLINE
  5
488
100
AcDbEntity
  8
RACCORDO
100
AcDbSpline
 62
253
  6
CONTINUOUS
 70
0
 71
3
 72
20
 73
16
 74
14
 42
0.0000001
 43
0.0000001
 44
0.0000000001
 12
0.1353287307
 22
-0.1473780492
 32
0.0
 13
0.2000853576
 23
-0.0000663456
 33
0.0
 40
0.0
 40
0.0
 40
0.0
 40
0.0
 40
0.009479614
 40
0.0329122994
 40
0.070089979
 40
0.1205060379
 40
0.1834502857
 40
0.2580294787
 40
0.3431826712
 40
0.4376972636
 40
0.5402266888
 40
0.6493098101
 40
0.7633918641
 40
0.8808466975
 40
1.0
 40
1.0
 40
1.0
 40
1.0
 10
-21.169112741
 20
1.6451244299
 30
0.0
 10
-21.1686851197
 20
1.6446587343
 30
0.0
 10
-21.1661615434
 20
1.644743004
 30
0.0
 10
-21.1618014105
 20
1.6440010892
 30
0.0
 10
-21.154248056
 20
1.6437844696
 30
0.0
 10
-21.1442828012
 20
1.643307101
 30
0.0
 10
-21.131728607
 20
1.6429582127
 30
0.0
 10
-21.1168899436
 20
1.642596506
 30
0.0
 10
-21.0999329874
 20
1.6422820239
 30
0.0
 10
-21.0811147334
 20
1.642001906
 30
0.0
 10
-21.0606986063
 20
1.6417663529
 30
0.0
 10
-21.0389772415
 20
1.641577185
 30
0.0
 10
-21.0162599297
 20
1.6414377929
 30
0.0
 10
-20.9928707551
 20
1.6413501032
 30
0.0
 10
-20.9770901457
 20
1.641327065
 30
0.0
 10
-20.969143202
 20
1.6413244299
 30
0.0
 11
-21.169112741
 21
1.6451244299
 31
0.0
 11
-21.1672709095
 21
1.6446713856
 31
0.0
 11
-21.1626036891
 21
1.6442248019
 31
0.0
 11
-21.1551776363
 21
1.6437910473
 31
0.0
 11
-21.14509865
 21
1.6433763073
 31
0.0
 11
-21.1325104611
 21
1.6429864963
 31
0.0
 11
-21.1175925826
 21
1.6426271732
 31
0.0
 11
-21.1005577501
 21
1.6423034621
 31
0.0
 11
-21.081648888
 21
1.6420199792
 31
0.0
 11
-21.0611356448
 21
1.6417807672
 31
0.0
 11
-21.0393105487
 21
1.6415892373
 31
0.0
 11
-21.0164848351
 21
1.6414481208
 31
0.0
 11
-20.9929840088
 21
1.6413594301
 31
0.0
 11
-20.969143202
 21
1.6413244299
 31
0.0
  0
SPLINE
  5
489
100
AcDbEntity
  8
RACCORDO
100
AcDbSpline
 62
253
  6
CONTINUOUS
 70
0
 71
3
 72
21
 73
17
 74
15
 42
0.0000001
 43
0.0000001
 44
0.0000000001
 12
0.0
 22
0.3895174095
 32
0.0
 13
-0.3895174095
 23
0.0
 33
0.0
 40
0.0
 40
0.0
 40
0.0
 40
0.0
 40
0.0708842641
 40
0.1417959743
 40
0.2127611701
 40
0.2838031541
 40
0.3549413101
 40
0.4261901323
 40
0.4975585116
 40
0.569049315
 40
0.6406592716
 40
0.7123791662
 40
0.7841943252
 40
0.8560853644
 40
0.9280291611
 40
1.0
 40
1.0
 40
1.0
 40
1.0
 10
-5.3374238221
 20
-6.489420939
 30
0.0
 10
-5.3374238221
 20
-6.4802173873
 30
0.0
 10
-5.3384744664
 20
-6.4617895083
 30
0.0
 10
-5.3431821713
 20
-6.4345111732
 30
0.0
 10
-5.3509623079
 20
-6.4079204326
 30
0.0
 10
-5.361716721
 20
-6.3823566462
 30
0.0
 10
-5.3753097814
 20
-6.3581401814
 30
0.0
 10
-5.3915701383
 20
-6.3355759224
 30
0.0
 10
-5.4102929194
 20
-6.31494741
 30
0.0
 10
-5.4312423605
 20
-6.2965138382
 30
0.0
 10
-5.4541547679
 20
-6.2805066778
 30
0.0
 10
-5.4787419944
 20
-6.2671268445
 30
0.0
 10
-5.5046945554
 20
-6.2565422042
 30
0.0
 10
-5.5316874409
 20
-6.2488855072
 30
0.0
 10
-5.559376985
 20
-6.2442527559
 30
0.0
 10
-5.5780791905
 20
-6.2432190007
 30
0.0
 10
-5.5874238221
 20
-6.2432190007
 30
0.0
 11
-5.3374238221
 21
-6.489420939
 31
0.0
 11
-5.3389957696
 21
-6.4618550679
 31
0.0
 11
-5.3436918441
 21
-6.4346358537
 31
0.0
 11
-5.3514529895
 21
-6.4081055938
 31
0.0
 11
-5.3621816051
 21
-6.3825979214
 31
0.0
 11
-5.3757427723
 21
-6.3584336105
 31
0.0
 11
-5.3919659515
 21
-6.3359165413
 31
0.0
 11
-5.4106471268
 21
-6.3153298789
 31
0.0
 11
-5.4315513716
 21
-6.2969325126
 31
0.0
 11
-5.454415803
 21
-6.2809558
 31
0.0
 11
-5.4789528873
 21
-6.2676006574
 31
0.0
 11
-5.5048540566
 21
-6.2570350336
 31
0.0
 11
-5.5317935886
 21
-6.2493917973
 31
0.0
 11
-5.5594327031
 21
-6.2447670668
 31
0.0
 11
-5.5874238221
 21
-6.2432190007
 31
0.0
  0
SPLINE
  5
48A
100
AcDbEntity
  8
RACCORDO
100
AcDbSpline
 62
253
  6
CONTINUOUS
 70
0
 71
3
 72
21
 73
17
 74
15
 42
0.0000001
 43
0.0000001
 44
0.0000000001
 12
0.0
 22
0.3895174095
 32
0.0
 13
0.3895174095
 23
-0.0
 33
0.0
 40
0.0
 40
0.0
 40
0.0
 40
0.0
 40
0.0708842641
 40
0.1417959743
 40
0.2127611701
 40
0.2838031541
 40
0.3549413101
 40
0.4261901323
 40
0.4975585116
 40
0.569049315
 40
0.6406592716
 40
0.7123791662
 40
0.7841943252
 40
0.8560853644
 40
0.9280291611
 40
1.0
 40
1.0
 40
1.0
 40
1.0
 10
5.1625761779
 20
-6.489420939
 30
0.0
 10
5.1625761779
 20
-6.4802173873
 30
0.0
 10
5.1636268222
 20
-6.4617895083
 30
0.0
 10
5.1683345271
 20
-6.4345111732
 30
0.0
 10
5.1761146637
 20
-6.4079204326
 30
0.0
 10
5.1868690768
 20
-6.3823566462
 30
0.0
 10
5.2004621372
 20
-6.3581401814
 30
0.0
 10
5.2167224941
 20
-6.3355759224
 30
0.0
 10
5.2354452752
 20
-6.31494741
 30
0.0
 10
5.2563947163
 20
-6.2965138382
 30
0.0
 10
5.2793071237
 20
-6.2805066778
 30
0.0
 10
5.3038943503
 20
-6.2671268445
 30
0.0
 10
5.3298469112
 20
-6.2565422042
 30
0.0
 10
5.3568397967
 20
-6.2488855072
 30
0.0
 10
5.3845293408
 20
-6.2442527559
 30
0.0
 10
5.4032315463
 20
-6.2432190007
 30
0.0
 10
5.4125761779
 20
-6.2432190007
 30
0.0
 11
5.1625761779
 21
-6.489420939
 31
0.0
 11
5.1641481254
 21
-6.4618550679
 31
0.0
 11
5.1688441999
 21
-6.4346358537
 31
0.0
 11
5.1766053453
 21
-6.4081055938
 31
0.0
 11
5.1873339609
 21
-6.3825979214
 31
0.0
 11
5.2008951281
 21
-6.3584336105
 31
0.0
 11
5.2171183073
 21
-6.3359165413
 31
0.0
 11
5.2357994826
 21
-6.3153298789
 31
0.0
 11
5.2567037274
 21
-6.2969325126
 31
0.0
 11
5.2795681588
 21
-6.2809558
 31
0.0
 11
5.3041052431
 21
-6.2676006574
 31
0.0
 11
5.3300064124
 21
-6.2570350336
 31
0.0
 11
5.3569459444
 21
-6.2493917973
 31
0.0
 11
5.3845850589
 21
-6.2447670668
 31
0.0
 11
5.4125761779
 21
-6.2432190007
 31
0.0
  0
SPLINE
  5
48B
100
AcDbEntity
  8
RACCORDO
100
AcDbSpline
 62
7
  6
CONTINUOUS
 70
0
 71
3
 72
30
 73
26
 74
24
 42
0.0000001
 43
0.0000001
 44
0.0000000001
 12
-0.3617277002
 22
0.0
 32
0.0
 13
0.0
 23
-0.3617277002
 33
0.0
 40
0.0
 40
0.0
 40
0.0
 40
0.0
 40
0.0575851764
 40
0.1137867113
 40
0.1685057243
 40
0.2216842263
 40
0.2733020023
 40
0.3233704952
 40
0.3719256006
 40
0.4190197463
 40
0.4647193485
 40
0.5090971267
 40
0.5522294933
 40
0.5941947054
 40
0.6350715566
 40
0.6749383328
 40
0.7138719081
 40
0.7519469505
 40
0.789235139
 40
0.8258062415
 40
0.8617254088
 40
0.8970530142
 40
0.9318437652
 40
0.9661458207
 40
1.0
 40
1.0
 40
1.0
 40
1.0
 10
5.4125761779
 20
-5.9871755701
 30
0.0
 10
5.4056327934
 20
-5.9871755701
 30
0.0
 10
5.3919079454
 20
-5.9876553278
 30
0.0
 10
5.3716853811
 20
-5.9897705297
 30
0.0
 10
5.3521770193
 20
-5.9931662726
 30
0.0
 10
5.3334787386
 20
-5.9977334396
 30
0.0
 10
5.3156607683
 20
-6.0033646755
 30
0.0
 10
5.2987733805
 20
-6.0099572971
 30
0.0
 10
5.2828505879
 20
-6.0174149525
 30
0.0
 10
5.2679139639
 20
-6.0256483878
 30
0.0
 10
5.2539760971
 20
-6.0345753552
 30
0.0
 10
5.2410432046
 20
-6.0441201319
 30
0.0
 10
5.2291172984
 20
-6.054212569
 30
0.0
 10
5.2181974038
 20
-6.0647872852
 30
0.0
 10
5.2082803817
 20
-6.0757828602
 30
0.0
 10
5.1993614426
 20
-6.0871410565
 30
0.0
 10
5.1914344139
 20
-6.0988060884
 30
0.0
 10
5.1844917981
 20
-6.1107239558
 30
0.0
 10
5.1785245547
 20
-6.1228420683
 30
0.0
 10
5.1735219143
 20
-6.1351087929
 30
0.0
 10
5.1694710571
 20
-6.1474732129
 30
0.0
 10
5.1663567762
 20
-6.159884664
 30
0.0
 10
5.164161007
 20
-6.172293057
 30
0.0
 10
5.1628623753
 20
-6.1846476346
 30
0.0
 10
5.1625761779
 20
-6.1928684797
 30
0.0
 10
5.1625761779
 20
-6.1969504779
 30
0.0
 11
5.4125761779
 21
-5.9871755701
 31
0.0
 11
5.3917587687
 21
-5.9879041072
 31
0.0
 11
5.3715396264
 21
-5.9900209526
 31
0.0
 11
5.3520400089
 21
-5.9934184391
 31
0.0
 11
5.3333541964
 21
-5.9979867417
 31
0.0
 11
5.3155520379
 21
-6.0036179964
 31
0.0
 11
5.2986828388
 21
-6.0102092229
 31
0.0
 11
5.2827796664
 21
-6.0176639933
 31
0.0
 11
5.2678637096
 21
-6.0258928579
 31
0.0
 11
5.2539466391
 21
-6.0348137824
 31
0.0
 11
5.2410343023
 21
-6.0443510684
 31
0.0
 11
5.2291284165
 21
-6.0544346019
 31
0.0
 11
5.2182277602
 21
-6.0649990459
 31
0.0
 11
5.2083289685
 21
-6.0759830467
 31
0.0
 11
5.1994270382
 21
-6.087328464
 31
0.0
 11
5.1915155973
 21
-6.0989796409
 31
0.0
 11
5.1845869628
 21
-6.1108827488
 31
0.0
 11
5.1786320309
 21
-6.1229852086
 31
0.0
 11
5.1736397876
 21
-6.1352358473
 31
0.0
 11
5.1695973532
 21
-6.1475839514
 31
0.0
 11
5.1664894788
 21
-6.159979244
 31
0.0
 11
5.1642981234
 21
-6.1723717663
 31
0.0
 11
5.1630020073
 21
-6.1847118894
 31
0.0
 11
5.1625761779
 21
-6.1969504779
 31
0.0
  0
SPLINE
  5
48C
100
AcDbEntity
  8
RACCORDO
100
AcDbSpline
 62
7
  6
CONTINUOUS
 70
0
 71
3
 72
30
 73
26
 74
24
 42
0.0000001
 43
0.0000001
 44
0.0000000001
 12
-0.3096023648
 22
-0.0053095482
 32
0.0
 13
-0.0055157208
 23
-0.3095987604
 33
0.0
 40
0.0
 40
0.0
 40
0.0
 40
0.0
 40
0.056384278
 40
0.111187142
 40
0.164357837
 40
0.2159044991
 40
0.2658828624
 40
0.3143812237
 40
0.361506122
 40
0.4073689637
 40
0.4520844919
 40
0.4957595779
 40
0.538491803
 40
0.5803689687
 40
0.6214691022
 40
0.6618605131
 40
0.7016017622
 40
0.7407415758
 40
0.7793185947
 40
0.8173646601
 40
0.8549007128
 40
0.8919376163
 40
0.928475595
 40
0.9645037648
 40
1.0
 40
1.0
 40
1.0
 40
1.0
 10
-20.9676061024
 20
9.7395167648
 30
0.0
 10
-20.9734250044
 20
9.7394169731
 30
0.0
 10
-20.9848972694
 20
9.7387276431
 30
0.0
 10
-21.0017036584
 20
9.7362864944
 30
0.0
 10
-21.0177683411
 20
9.7325968141
 30
0.0
 10
-21.0330152691
 20
9.7278021267
 30
0.0
 10
-21.0474026997
 20
9.7220372041
 30
0.0
 10
-21.0609126526
 20
9.7154238891
 30
0.0
 10
-21.0735436609
 20
9.7080698152
 30
0.0
 10
-21.0853046506
 20
9.7000687777
 30
0.0
 10
-21.0962101101
 20
9.6915023589
 30
0.0
 10
-21.1062770256
 20
9.6824417802
 30
0.0
 10
-21.1155226393
 20
9.6729501745
 30
0.0
 10
-21.1239636022
 20
9.6630842286
 30
0.0
 10
-21.1316155613
 20
9.6528956147
 30
0.0
 10
-21.1384930242
 20
9.6424322436
 30
0.0
 10
-21.1446094211
 20
9.6317393745
 30
0.0
 10
-21.1499773214
 20
9.6208605994
 30
0.0
 10
-21.1546089316
 20
9.6098383626
 30
0.0
 10
-21.1585164532
 20
9.5987146731
 30
0.0
 10
-21.1617125868
 20
9.5875315675
 30
0.0
 10
-21.164211035
 20
9.5763318932
 30
0.0
 10
-21.1660272143
 20
9.5651593261
 30
0.0
 10
-21.167178965
 20
9.5540593079
 30
0.0
 10
-21.1675205347
 20
9.5466800627
 30
0.0
 10
-21.1675857971
 20
9.5430168659
 30
0.0
 11
-20.9676061024
 21
9.7395167648
 31
0.0
 11
-20.9850339932
 21
9.7384704249
 31
0.0
 11
-21.0018274797
 21
9.7360320163
 31
0.0
 11
-21.0178739683
 21
9.7323469287
 31
0.0
 11
-21.0331002386
 21
9.7275589986
 31
0.0
 11
-21.0474656442
 21
9.7218029367
 31
0.0
 11
-21.060953675
 21
9.7152002262
 31
0.0
 11
-21.0735640095
 21
9.7078579116
 31
0.0
 11
-21.0853056236
 21
9.6998696493
 31
0.0
 11
-21.0961938337
 21
9.6913162579
 31
0.0
 11
-21.1062455796
 21
9.6822687042
 31
0.0
 11
-21.1154779812
 21
9.672789934
 31
0.0
 11
-21.1239075372
 21
9.6629364961
 31
0.0
 11
-21.1315497459
 21
9.6527599436
 31
0.0
 11
-21.138418978
 21
9.6423080739
 31
0.0
 11
-21.1445285335
 21
9.6316260378
 31
0.0
 11
-21.1498908605
 21
9.620757312
 31
0.0
 11
-21.1545179005
 21
9.6097445688
 31
0.0
 11
-21.1584219
 21
9.5986293534
 31
0.0
 11
-21.1616153939
 21
9.5874537199
 31
0.0
 11
-21.1641119641
 21
9.5762603597
 31
0.0
 11
-21.1659268912
 21
9.5650929717
 31
0.0
 11
-21.1670778761
 21
9.5539964582
 31
0.0
 11
-21.1675857971
 21
9.5430168659
 31
0.0
  0
SPLINE
  5
48D
100
AcDbEntity
  8
RACCORDO
100
AcDbSpline
 62
253
  6
CONTINUOUS
 70
0
 71
3
 72
21
 73
17
 74
15
 42
0.0000001
 43
0.0000001
 44
0.0000000001
 12
0.0
 22
-0.2908043987
 32
0.0
 13
0.2908043987
 23
-0.0
 33
0.0
 40
0.0
 40
0.0
 40
0.0
 40
0.0
 40
0.0410363243
 40
0.0843281145
 40
0.1317099685
 40
0.1844163852
 40
0.2431210255
 40
0.3080543418
 40
0.3791152499
 40
0.4559553438
 40
0.5380389422
 40
0.6246866076
 40
0.7151083214
 40
0.8084304121
 40
0.9037187828
 40
1.0
 40
1.0
 40
1.0
 40
1.0
 10
-6.1374238221
 20
-6.8417980844
 30
0.0
 10
-6.1374238221
 20
-6.8457759322
 30
0.0
 10
-6.1363017922
 20
-6.8539865227
 30
0.0
 10
-6.1313839114
 20
-6.8658918213
 30
0.0
 10
-6.1233885527
 20
-6.8773697118
 30
0.0
 10
-6.1124749643
 20
-6.8883123632
 30
0.0
 10
-6.0987908761
 20
-6.8986318243
 30
0.0
 10
-6.0824996449
 20
-6.9082258242
 30
0.0
 10
-6.0637939107
 20
-6.9169886778
 30
0.0
 10
-6.0428983687
 20
-6.9248167863
 30
0.0
 10
-6.0200677912
 20
-6.9316144481
 30
0.0
 10
-5.9955834087
 20
-6.937297015
 30
0.0
 10
-5.9697488693
 20
-6.9417930738
 30
0.0
 10
-5.9428855927
 20
-6.9450458453
 30
0.0
 10
-5.9153296428
 20
-6.9470141495
 30
0.0
 10
-5.8967568226
 20
-6.9474526498
 30
0.0
 10
-5.8874238221
 20
-6.9474526498
 30
0.0
 11
-6.1374238221
 21
-6.8417980844
 31
0.0
 11
-6.1358518746
 21
-6.8536276424
 31
0.0
 11
-6.1311558001
 21
-6.8653084369
 31
0.0
 11
-6.1233946547
 21
-6.8766935751
 31
0.0
 11
-6.1126660391
 21
-6.8876398823
 31
0.0
 11
-6.0991048719
 21
-6.8980097022
 31
0.0
 11
-6.0828816927
 21
-6.9076726284
 31
0.0
 11
-6.0642005174
 21
-6.916507144
 31
0.0
 11
-6.0432962726
 21
-6.9244021499
 31
0.0
 11
-6.0204318412
 21
-6.9312583617
 31
0.0
 11
-5.9958947569
 21
-6.9369895586
 31
0.0
 11
-5.9699935876
 21
-6.9415236675
 31
0.0
 11
-5.9430540556
 21
-6.9448036693
 31
0.0
 11
-5.9154149411
 21
-6.9467883161
 31
0.0
 11
-5.8874238221
 21
-6.9474526498
 31
0.0
  0
SPLINE
  5
48E
100
AcDbEntity
  8
RACCORDO
100
AcDbSpline
 62
7
  6
CONTINUOUS
 70
0
 71
3
 72
24
 73
20
 74
18
 42
0.0000001
 43
0.0000001
 44
0.0000000001
 12
0.005080286
 22
-0.2965493187
 32
0.0
 13
0.2965570399
 23
-0.0046075829
 33
0.0
 40
0.0
 40
0.0
 40
0.0
 40
0.0
 40
0.0485041968
 40
0.0978076499
 40
0.1479843213
 40
0.199120764
 40
0.2513145356
 40
0.3046734046
 40
0.3593100759
 40
0.4153433507
 40
0.4728953954
 40
0.5320884958
 40
0.5930412101
 40
0.6558634949
 40
0.7206499067
 40
0.7874631956
 40
0.8563256806
 40
0.9272040036
 40
1.0
 40
1.0
 40
1.0
 40
1.0
 10
-21.1840671807
 20
-9.0607743439
 30
0.0
 10
-21.1839850423
 20
-9.0655689727
 30
0.0
 10
-21.1833887808
 20
-9.0752352617
 30
0.0
 10
-21.1811891929
 20
-9.0897181143
 30
0.0
 10
-21.1776403001
 20
-9.1042004777
 30
0.0
 10
-21.1727135189
 20
-9.1185764046
 30
0.0
 10
-21.1663878264
 20
-9.1327398053
 30
0.0
 10
-21.1586490767
 20
-9.1465815798
 30
0.0
 10
-21.1494894163
 20
-9.1599897745
 30
0.0
 10
-21.1389071202
 20
-9.1728483698
 30
0.0
 10
-21.1269067217
 20
-9.1850361782
 30
0.0
 10
-21.1135000268
 20
-9.1964251475
 30
0.0
 10
-21.0987080122
 20
-9.2068786274
 30
0.0
 10
-21.0825638336
 20
-9.2162497542
 30
0.0
 10
-21.0651177231
 20
-9.2243799321
 30
0.0
 10
-21.046443616
 20
-9.2310986554
 30
0.0
 10
-21.0266460481
 20
-9.2362251154
 30
0.0
 10
-21.0058719759
 20
-9.2395725468
 30
0.0
 10
-20.9916704272
 20
-9.2404832161
 30
0.0
 10
-20.9844743721
 20
-9.2405950206
 30
0.0
 11
-21.1840671807
 21
-9.0607743439
 31
0.0
 11
-21.1831827633
 21
-9.0751331292
 31
0.0
 11
-21.1809896145
 21
-9.0895907816
 31
0.0
 11
-21.1774508783
 21
-9.1040459707
 31
0.0
 11
-21.172538013
 21
-9.1183949294
 31
0.0
 11
-21.1662299652
 21
-9.1325316961
 31
0.0
 11
-21.1585122421
 21
-9.1463481549
 31
0.0
 11
-21.1493768379
 21
-9.1597325261
 31
0.0
 11
-21.138821642
 21
-9.172569241
 31
0.0
 11
-21.1268507238
 21
-9.1847374686
 31
0.0
 11
-21.1134753555
 21
-9.1961094258
 31
0.0
 11
-21.0987158954
 21
-9.2065486507
 31
0.0
 11
-21.0826047115
 21
-9.2159084051
 31
0.0
 11
-21.0651904577
 21
-9.224030419
 31
0.0
 11
-21.0465459492
 21
-9.2307438185
 31
0.0
 11
-21.0267749023
 21
-9.2358673292
 31
0.0
 11
-21.0060208828
 21
-9.2392132611
 31
0.0
 11
-20.9844743721
 21
-9.2405950206
 31
0.0
  0
SPLINE
  5
48F
100
AcDbEntity
  8
RACCORDO
100
AcDbSpline
 62
253
  6
CONTINUOUS
 70
0
 71
3
 72
20
 73
16
 74
14
 42
0.0000001
 43
0.0000001
 44
0.0000000001
 12
-0.0006696878
 22
-0.3125643707
 32
0.0
 13
-0.3125643915
 23
-0.0006599426
 33
0.0
 40
0.0
 40
0.0
 40
0.0
 40
0.0
 40
0.0766031911
 40
0.1532419508
 40
0.2299299467
 40
0.3066777458
 40
0.3834925862
 40
0.4603777657
 40
0.5373325143
 40
0.6143520813
 40
0.6914279254
 40
0.7685485134
 40
0.8456984327
 40
0.922862483
 40
1.0
 40
1.0
 40
1.0
 40
1.0
 10
21.0092195365
 20
-9.0607743439
 30
0.0
 10
21.0092024364
 20
-9.0687554866
 30
0.0
 10
21.0081957967
 20
-9.0847363594
 30
0.0
 10
21.0037921985
 20
-9.1083412311
 30
0.0
 10
20.9965588972
 20
-9.1312574094
 30
0.0
 10
20.986601322
 20
-9.1531468861
 30
0.0
 10
20.9740645349
 20
-9.1736925382
 30
0.0
 10
20.9591310937
 20
-9.1925953091
 30
0.0
 10
20.9420183573
 20
-9.2095805337
 30
0.0
 10
20.9229753396
 20
-9.2244013737
 30
0.0
 10
20.9022789136
 20
-9.236842536
 30
0.0
 10
20.8802304263
 20
-9.2467232621
 30
0.0
 10
20.8571492109
 20
-9.2539000725
 30
0.0
 10
20.8333777549
 20
-9.2582682954
 30
0.0
 10
20.8172868111
 20
-9.2592666054
 30
0.0
 10
20.8092499975
 20
-9.2592835742
 30
0.0
 11
21.0092195365
 21
-9.0607743439
 31
0.0
 11
21.0077141949
 21
-9.0846704593
 31
0.0
 11
21.0033224612
 21
-9.1082190382
 31
0.0
 11
20.9961081981
 21
-9.1310776217
 31
0.0
 11
20.9861763409
 21
-9.152913718
 31
0.0
 11
20.9736713397
 21
-9.1734097575
 31
0.0
 11
20.9587750732
 21
-9.1922676509
 31
0.0
 11
20.9417041953
 21
-9.2092131409
 31
0.0
 11
20.9227069736
 21
-9.2239997943
 31
0.0
 11
20.9020596993
 21
-9.236412564
 31
0.0
 11
20.8800625876
 21
-9.2462709566
 31
0.0
 11
20.8570358729
 21
-9.2534314952
 31
0.0
 11
20.833314197
 21
-9.2577901692
 31
0.0
 11
20.8092499975
 21
-9.2592835742
 31
0.0
  0
SPLINE
  5
490
100
AcDbEntity
  8
RACCORDO
100
AcDbSpline
 62
253
  6
CONTINUOUS
 70
0
 71
3
 72
20
 73
16
 74
14
 42
0.0000001
 43
0.0000001
 44
0.0000000001
 12
0.2051054875
 22
0.0003332998
 32
0.0
 13
0.0256657456
 23
0.2034935911
 33
0.0
 40
0.0
 40
0.0
 40
0.0
 40
0.0
 40
0.1162557737
 40
0.2308910838
 40
0.3423051887
 40
0.4489463921
 40
0.549336395
 40
0.6420946717
 40
0.7259635164
 40
0.7998355039
 40
0.862787937
 40
0.9141370997
 40
0.9535535063
 40
0.9813983021
 40
1.0
 40
1.0
 40
1.0
 40
1.0
 10
20.8092499975
 20
-9.0888232652
 30
0.0
 10
20.8171982298
 20
-9.0888103492
 30
0.0
 10
20.8329838599
 20
-9.0886300381
 30
0.0
 10
20.8563789178
 20
-9.0879860235
 30
0.0
 10
20.8791024414
 20
-9.0869551471
 30
0.0
 10
20.9008306844
 20
-9.0855588805
 30
0.0
 10
20.9212543667
 20
-9.0838164709
 30
0.0
 10
20.9400832661
 20
-9.0817550907
 30
0.0
 10
20.9570503821
 20
-9.0794052438
 30
0.0
 10
20.9719177743
 20
-9.0768081193
 30
0.0
 10
20.9844783876
 20
-9.0739953578
 30
0.0
 10
20.9945757673
 20
-9.0710492638
 30
0.0
 10
21.0020968867
 20
-9.0679353663
 30
0.0
 10
21.0071197002
 20
-9.0648703777
 30
0.0
 10
21.0090603943
 20
-9.0620361193
 30
0.0
 10
21.0092195365
 20
-9.0607743439
 30
0.0
 11
20.8092499975
 21
-9.0888232652
 31
0.0
 11
20.8330933204
 21
-9.0885643557
 31
0.0
 11
20.8565965532
 21
-9.0879092019
 31
0.0
 11
20.8794244561
 21
-9.0868671486
 31
0.0
 11
20.9012514221
 21
-9.0854530592
 31
0.0
 11
20.9217661212
 21
-9.0836871037
 31
0.0
 11
20.9406759408
 21
-9.0815944709
 31
0.0
 11
20.95771116
 21
-9.0792050091
 31
0.0
 11
20.972628796
 21
-9.0765528006
 31
0.0
 11
20.9852160705
 21
-9.0736756754
 31
0.0
 11
20.9952934446
 21
-9.0706146715
 31
0.0
 11
21.0027171792
 21
-9.0674134496
 31
0.0
 11
21.0073813858
 21
-9.0641176705
 31
0.0
 11
21.0092195365
 21
-9.0607743439
 31
0.0
  0
SPLINE
  5
491
100
AcDbEntity
  8
RACCORDO
100
AcDbSpline
 62
253
  6
CONTINUOUS
 70
0
 71
3
 72
20
 73
16
 74
14
 42
0.0000001
 43
0.0000001
 44
0.0000000001
 12
-0.1353287237
 22
-0.1473780557
 32
0.0
 13
-0.2000853576
 23
-0.0000663456
 33
0.0
 40
0.0
 40
0.0
 40
0.0
 40
0.0
 40
0.0094796138
 40
0.032912299
 40
0.0700899786
 40
0.1205060374
 40
0.1834502852
 40
0.2580294781
 40
0.3431826707
 40
0.4376972631
 40
0.5402266884
 40
0.6493098098
 40
0.7633918638
 40
0.8808466974
 40
1.0
 40
1.0
 40
1.0
 40
1.0
 10
20.9942650969
 20
1.6451244299
 30
0.0
 10
20.9938374755
 20
1.6446587342
 30
0.0
 10
20.9913138992
 20
1.644743004
 30
0.0
 10
20.9869537664
 20
1.6440010892
 30
0.0
 10
20.9794004118
 20
1.6437844696
 30
0.0
 10
20.9694351571
 20
1.643307101
 30
0.0
 10
20.9568809629
 20
1.6429582127
 30
0.0
 10
20.9420422995
 20
1.642596506
 30
0.0
 10
20.9250853433
 20
1.6422820239
 30
0.0
 10
20.9062670893
 20
1.6420019059
 30
0.0
 10
20.8858509621
 20
1.6417663529
 30
0.0
 10
20.8641295974
 20
1.641577185
 30
0.0
 10
20.8414122856
 20
1.6414377929
 30
0.0
 10
20.818023111
 20
1.6413501032
 30
0.0
 10
20.8022425015
 20
1.641327065
 30
0.0
 10
20.7942955578
 20
1.6413244299
 30
0.0
 11
20.9942650969
 21
1.6451244299
 31
0.0
 11
20.9924232654
 21
1.6446713856
 31
0.0
 11
20.9877560449
 21
1.6442248019
 31
0.0
 11
20.9803299922
 21
1.6437910473
 31
0.0
 11
20.970251006
 21
1.6433763073
 31
0.0
 11
20.957662817
 21
1.6429864963
 31
0.0
 11
20.9427449385
 21
1.6426271732
 31
0.0
 11
20.9257101061
 21
1.642303462
 31
0.0
 11
20.9068012439
 21
1.6420199792
 31
0.0
 11
20.8862880007
 21
1.6417807672
 31
0.0
 11
20.8644629046
 21
1.6415892372
 31
0.0
 11
20.8416371909
 21
1.6414481208
 31
0.0
 11
20.8181363646
 21
1.6413594301
 31
0.0
 11
20.7942955578
 21
1.6413244299
 31
0.0
  0
SPLINE
  5
492
100
AcDbEntity
  8
RACCORDO
100
AcDbSpline
 62
7
  6
CONTINUOUS
 70
0
 71
3
 72
30
 73
26
 74
24
 42
0.0000001
 43
0.0000001
 44
0.0000000001
 12
0.3096023648
 22
-0.0053095482
 32
0.0
 13
0.0055157208
 23
-0.3095987604
 33
0.0
 40
0.0
 40
0.0
 40
0.0
 40
0.0
 40
0.056384278
 40
0.111187142
 40
0.164357837
 40
0.2159044991
 40
0.2658828624
 40
0.3143812237
 40
0.361506122
 40
0.4073689637
 40
0.4520844919
 40
0.4957595779
 40
0.538491803
 40
0.5803689687
 40
0.6214691022
 40
0.6618605131
 40
0.7016017622
 40
0.7407415758
 40
0.7793185947
 40
0.8173646601
 40
0.8549007128
 40
0.8919376163
 40
0.928475595
 40
0.9645037648
 40
1.0
 40
1.0
 40
1.0
 40
1.0
 10
20.7927584582
 20
9.7395167648
 30
0.0
 10
20.7985773602
 20
9.7394169731
 30
0.0
 10
20.8100496252
 20
9.7387276431
 30
0.0
 10
20.8268560142
 20
9.7362864944
 30
0.0
 10
20.8429206969
 20
9.7325968141
 30
0.0
 10
20.8581676249
 20
9.7278021267
 30
0.0
 10
20.8725550556
 20
9.7220372041
 30
0.0
 10
20.8860650084
 20
9.7154238891
 30
0.0
 10
20.8986960167
 20
9.7080698152
 30
0.0
 10
20.9104570064
 20
9.7000687777
 30
0.0
 10
20.9213624659
 20
9.6915023589
 30
0.0
 10
20.9314293815
 20
9.6824417802
 30
0.0
 10
20.9406749951
 20
9.6729501745
 30
0.0
 10
20.949115958
 20
9.6630842286
 30
0.0
 10
20.9567679171
 20
9.6528956147
 30
0.0
 10
20.96364538
 20
9.6424322436
 30
0.0
 10
20.969761777
 20
9.6317393745
 30
0.0
 10
20.9751296773
 20
9.6208605994
 30
0.0
 10
20.9797612874
 20
9.6098383626
 30
0.0
 10
20.983668809
 20
9.5987146731
 30
0.0
 10
20.9868649426
 20
9.5875315675
 30
0.0
 10
20.9893633908
 20
9.5763318932
 30
0.0
 10
20.9911795701
 20
9.5651593261
 30
0.0
 10
20.9923313208
 20
9.5540593079
 30
0.0
 10
20.9926728905
 20
9.5466800627
 30
0.0
 10
20.9927381529
 20
9.5430168659
 30
0.0
 11
20.7927584582
 21
9.7395167648
 31
0.0
 11
20.810186349
 21
9.7384704249
 31
0.0
 11
20.8269798355
 21
9.7360320163
 31
0.0
 11
20.8430263241
 21
9.7323469287
 31
0.0
 11
20.8582525944
 21
9.7275589986
 31
0.0
 11
20.872618
 21
9.7218029367
 31
0.0
 11
20.8861060308
 21
9.7152002262
 31
0.0
 11
20.8987163653
 21
9.7078579116
 31
0.0
 11
20.9104579794
 21
9.6998696493
 31
0.0
 11
20.9213461895
 21
9.6913162579
 31
0.0
 11
20.9313979354
 21
9.6822687042
 31
0.0
 11
20.940630337
 21
9.672789934
 31
0.0
 11
20.949059893
 21
9.6629364961
 31
0.0
 11
20.9567021017
 21
9.6527599436
 31
0.0
 11
20.9635713338
 21
9.6423080739
 31
0.0
 11
20.9696808893
 21
9.6316260378
 31
0.0
 11
20.9750432163
 21
9.620757312
 31
0.0
 11
20.9796702563
 21
9.6097445688
 31
0.0
 11
20.9835742558
 21
9.5986293534
 31
0.0
 11
20.9867677497
 21
9.5874537199
 31
0.0
 11
20.9892643199
 21
9.5762603597
 31
0.0
 11
20.991079247
 21
9.5650929717
 31
0.0
 11
20.9922302319
 21
9.5539964582
 31
0.0
 11
20.9927381529
 21
9.5430168659
 31
0.0
  0
SPLINE
  5
493
100
AcDbEntity
  8
RACCORDO
100
AcDbSpline
 62
253
  6
CONTINUOUS
 70
0
 71
3
 72
21
 73
17
 74
15
 42
0.0000001
 43
0.0000001
 44
0.0000000001
 12
0.0
 22
0.3895174095
 32
0.0
 13
0.3895174095
 23
0.0
 33
0.0
 40
0.0
 40
0.0
 40
0.0
 40
0.0
 40
0.0708842641
 40
0.1417959743
 40
0.2127611701
 40
0.2838031541
 40
0.3549413101
 40
0.4261901323
 40
0.4975585116
 40
0.569049315
 40
0.6406592716
 40
0.7123791662
 40
0.7841943252
 40
0.8560853644
 40
0.9280291611
 40
1.0
 40
1.0
 40
1.0
 40
1.0
 10
-6.1374238221
 20
-6.489420939
 30
0.0
 10
-6.1374238221
 20
-6.4802173873
 30
0.0
 10
-6.1363731778
 20
-6.4617895083
 30
0.0
 10
-6.1316654729
 20
-6.4345111732
 30
0.0
 10
-6.1238853363
 20
-6.4079204326
 30
0.0
 10
-6.1131309232
 20
-6.3823566462
 30
0.0
 10
-6.0995378628
 20
-6.3581401814
 30
0.0
 10
-6.0832775059
 20
-6.3355759224
 30
0.0
 10
-6.0645547248
 20
-6.31494741
 30
0.0
 10
-6.0436052837
 20
-6.2965138382
 30
0.0
 10
-6.0206928763
 20
-6.2805066778
 30
0.0
 10
-5.9961056497
 20
-6.2671268445
 30
0.0
 10
-5.9701530888
 20
-6.2565422042
 30
0.0
 10
-5.9431602033
 20
-6.2488855072
 30
0.0
 10
-5.9154706592
 20
-6.2442527559
 30
0.0
 10
-5.8967684537
 20
-6.2432190007
 30
0.0
 10
-5.8874238221
 20
-6.2432190007
 30
0.0
 11
-6.1374238221
 21
-6.489420939
 31
0.0
 11
-6.1358518746
 21
-6.4618550679
 31
0.0
 11
-6.1311558001
 21
-6.4346358537
 31
0.0
 11
-6.1233946547
 21
-6.4081055938
 31
0.0
 11
-6.1126660391
 21
-6.3825979214
 31
0.0
 11
-6.0991048719
 21
-6.3584336105
 31
0.0
 11
-6.0828816927
 21
-6.3359165413
 31
0.0
 11
-6.0642005174
 21
-6.3153298789
 31
0.0
 11
-6.0432962726
 21
-6.2969325126
 31
0.0
 11
-6.0204318412
 21
-6.2809558
 31
0.0
 11
-5.9958947569
 21
-6.2676006574
 31
0.0
 11
-5.9699935876
 21
-6.2570350336
 31
0.0
 11
-5.9430540556
 21
-6.2493917973
 31
0.0
 11
-5.9154149411
 21
-6.2447670668
 31
0.0
 11
-5.8874238221
 21
-6.2432190007
 31
0.0
  0
SPLINE
  5
494
100
AcDbEntity
  8
RACCORDO
100
AcDbSpline
 62
7
  6
CONTINUOUS
 70
0
 71
3
 72
30
 73
26
 74
24
 42
0.0000001
 43
0.0000001
 44
0.0000000001
 12
-0.3617277002
 22
0.0
 32
0.0
 13
0.0
 23
-0.3617277002
 33
0.0
 40
0.0
 40
0.0
 40
0.0
 40
0.0
 40
0.0575851764
 40
0.1137867113
 40
0.1685057243
 40
0.2216842263
 40
0.2733020023
 40
0.3233704952
 40
0.3719256006
 40
0.4190197463
 40
0.4647193485
 40
0.5090971267
 40
0.5522294933
 40
0.5941947054
 40
0.6350715566
 40
0.6749383328
 40
0.7138719081
 40
0.7519469505
 40
0.789235139
 40
0.8258062415
 40
0.8617254088
 40
0.8970530142
 40
0.9318437652
 40
0.9661458207
 40
1.0
 40
1.0
 40
1.0
 40
1.0
 10
-5.8874238221
 20
-5.9871755701
 30
0.0
 10
-5.8943672066
 20
-5.9871755701
 30
0.0
 10
-5.9080920546
 20
-5.9876553278
 30
0.0
 10
-5.9283146189
 20
-5.9897705297
 30
0.0
 10
-5.9478229807
 20
-5.9931662726
 30
0.0
 10
-5.9665212614
 20
-5.9977334396
 30
0.0
 10
-5.9843392317
 20
-6.0033646755
 30
0.0
 10
-6.0012266195
 20
-6.0099572971
 30
0.0
 10
-6.0171494121
 20
-6.0174149525
 30
0.0
 10
-6.0320860361
 20
-6.0256483878
 30
0.0
 10
-6.0460239029
 20
-6.0345753552
 30
0.0
 10
-6.0589567954
 20
-6.0441201319
 30
0.0
 10
-6.0708827016
 20
-6.054212569
 30
0.0
 10
-6.0818025962
 20
-6.0647872852
 30
0.0
 10
-6.0917196183
 20
-6.0757828602
 30
0.0
 10
-6.1006385574
 20
-6.0871410565
 30
0.0
 10
-6.1085655861
 20
-6.0988060884
 30
0.0
 10
-6.1155082019
 20
-6.1107239558
 30
0.0
 10
-6.1214754453
 20
-6.1228420683
 30
0.0
 10
-6.1264780857
 20
-6.1351087929
 30
0.0
 10
-6.1305289429
 20
-6.1474732129
 30
0.0
 10
-6.1336432238
 20
-6.159884664
 30
0.0
 10
-6.135838993
 20
-6.172293057
 30
0.0
 10
-6.1371376247
 20
-6.1846476346
 30
0.0
 10
-6.1374238221
 20
-6.1928684797
 30
0.0
 10
-6.1374238221
 20
-6.1969504779
 30
0.0
 11
-5.8874238221
 21
-5.9871755701
 31
0.0
 11
-5.9082412313
 21
-5.9879041072
 31
0.0
 11
-5.9284603736
 21
-5.9900209526
 31
0.0
 11
-5.9479599911
 21
-5.9934184391
 31
0.0
 11
-5.9666458036
 21
-5.9979867417
 31
0.0
 11
-5.9844479621
 21
-6.0036179964
 31
0.0
 11
-6.0013171612
 21
-6.0102092229
 31
0.0
 11
-6.0172203336
 21
-6.0176639933
 31
0.0
 11
-6.0321362904
 21
-6.0258928579
 31
0.0
 11
-6.0460533609
 21
-6.0348137824
 31
0.0
 11
-6.0589656977
 21
-6.0443510684
 31
0.0
 11
-6.0708715835
 21
-6.0544346019
 31
0.0
 11
-6.0817722398
 21
-6.0649990459
 31
0.0
 11
-6.0916710315
 21
-6.0759830467
 31
0.0
 11
-6.1005729618
 21
-6.087328464
 31
0.0
 11
-6.1084844027
 21
-6.0989796409
 31
0.0
 11
-6.1154130372
 21
-6.1108827488
 31
0.0
 11
-6.1213679691
 21
-6.1229852086
 31
0.0
 11
-6.1263602124
 21
-6.1352358473
 31
0.0
 11
-6.1304026468
 21
-6.1475839514
 31
0.0
 11
-6.1335105212
 21
-6.159979244
 31
0.0
 11
-6.1357018766
 21
-6.1723717663
 31
0.0
 11
-6.1369979927
 21
-6.1847118894
 31
0.0
 11
-6.1374238221
 21
-6.1969504779
 31
0.0
  0
ELLIPSE
  5
495
100
AcDbEntity
  8
RACCORDO
100
AcDbEllipse
 62
7
  6
CONTINUOUS
 10
1.1079574189
 20
9.1859356245
 30
0.0
 11
-0.0000855448
 21
0.2254763766
 31
0.0
 40
0.8870108196
 41
9.4244414324
 42
10.9955742876
  0
ELLIPSE
  5
496
100
AcDbEntity
  8
RACCORDO
100
AcDbEllipse
 62
7
  6
CONTINUOUS
 10
-1.2828050631
 20
9.1859356245
 30
0.0
 11
-0.0000855448
 21
-0.2254763766
 31
0.0
 40
0.8870108196
 41
-1.5707963268
 42
0.0003365283
  0
ELLIPSE
  5
497
100
AcDbEntity
  8
RACCORDO
100
AcDbEllipse
 62
7
  6
CONTINUOUS
 10
1.1080561694
 20
8.9256520992
 30
0.0
 11
-0.0000855448
 21
0.2254763766
 31
0.0
 40
0.8870108196
 41
-3.1419291819
 42
-1.5707963268
  0
ELLIPSE
  5
498
100
AcDbEntity
  8
RACCORDO
100
AcDbEllipse
 62
7
  6
CONTINUOUS
 10
-1.2829038136
 20
8.9256520992
 30
0.0
 11
0.0000855448
 21
0.2254763766
 31
0.0
 40
0.8870108196
 41
-4.7123889804
 42
-3.1412561253
  0
ELLIPSE
  5
499
100
AcDbEntity
  8
RACCORDO
100
AcDbEllipse
 62
7
  6
CONTINUOUS
 10
22.0124237918
 20
10.7628149103
 30
0.0
 11
0.2426981267
 21
0.0606514259
 31
-0.0
 40
0.9993528196
 41
-0.2447368254
 42
1.3257549497
  0
ELLIPSE
  5
49A
100
AcDbEntity
  8
RACCORDO
100
AcDbEllipse
 62
7
  6
CONTINUOUS
 10
-22.187271436
 20
10.7628149103
 30
0.0
 11
0.2426981267
 21
-0.0606514259
 31
-0.0
 40
0.9993528196
 41
1.8158377039
 42
3.386329479
  0
ELLIPSE
  5
49B
100
AcDbEntity
  8
RACCORDO
100
AcDbEllipse
 62
7
  6
CONTINUOUS
 10
3.8780462317
 20
-11.069045457
 30
0.0
 11
0.2
 21
-0.0
 31
0.0
 40
0.0524077793
 41
1.5707963268
 42
2.617993878
  0
ELLIPSE
  5
49C
100
AcDbEntity
  8
RACCORDO
100
AcDbEllipse
 62
7
  6
CONTINUOUS
 10
15.0780462317
 20
-11.069045457
 30
0.0
 11
0.2
 21
0.0
 31
0.0
 40
0.0524077793
 41
1.5707963268
 42
2.617993878
  0
ELLIPSE
  5
49D
100
AcDbEntity
  8
RACCORDO
100
AcDbEllipse
 62
7
  6
CONTINUOUS
 10
18.4471061241
 20
-11.069045457
 30
0.0
 11
0.2
 21
-0.0
 31
0.0
 40
0.0524077793
 41
0.5235987756
 42
1.5707963268
  0
ELLIPSE
  5
49E
100
AcDbEntity
  8
RACCORDO
100
AcDbEllipse
 62
7
  6
CONTINUOUS
 10
7.2471061241
 20
-11.069045457
 30
0.0
 11
0.2
 21
0.0
 31
0.0
 40
0.0524077793
 41
0.5235987756
 42
1.5707963268
  0
ELLIPSE
  5
49F
100
AcDbEntity
  8
RACCORDO
100
AcDbEllipse
 62
7
  6
CONTINUOUS
 10
-4.0528938759
 20
-11.069045457
 30
0.0
 11
0.2
 21
0.0
 31
0.0
 40
0.0524077793
 41
0.5235987756
 42
1.5707963268
  0
ELLIPSE
  5
4A0
100
AcDbEntity
  8
RACCORDO
100
AcDbEllipse
 62
7
  6
CONTINUOUS
 10
-7.4219537683
 20
-11.069045457
 30
0.0
 11
0.2
 21
-0.0
 31
0.0
 40
0.0524077793
 41
1.5707963268
 42
2.617993878
  0
ELLIPSE
  5
4A1
100
AcDbEntity
  8
RACCORDO
100
AcDbEllipse
 62
7
  6
CONTINUOUS
 10
-18.6219537683
 20
-11.069045457
 30
0.0
 11
0.2
 21
0.0
 31
0.0
 40
0.0524077793
 41
1.5707963268
 42
2.617993878
  0
ELLIPSE
  5
4A2
100
AcDbEntity
  8
RACCORDO
100
AcDbEllipse
 62
7
  6
CONTINUOUS
 10
-15.2528938759
 20
-11.069045457
 30
0.0
 11
0.2
 21
0.0
 31
0.0
 40
0.0524077793
 41
0.5235987756
 42
1.5707963268
  0
ELLIPSE
  5
4A3
100
AcDbEntity
  8
0
100
AcDbEllipse
 62
7
  6
CONTINUOUS
 10
21.7359668776
 20
-10.5970125492
 30
0.0
 11
0.4943891341
 21
0.0770133648
 31
0.0
 40
0.9960067742
 41
-1.7259388368
 42
-0.1569690096
  0
ELLIPSE
  5
4A4
100
AcDbEntity
  8
0
100
AcDbEllipse
 62
7
  6
CONTINUOUS
 10
-21.9108145218
 20
-10.5970125492
 30
0.0
 11
0.4943891341
 21
-0.0770133648
 31
0.0
 40
0.9960067742
 41
-2.984623644
 42
-1.4156538168
  0
ELLIPSE
  5
4A5
100
AcDbEntity
  8
RACCORDO
100
AcDbEllipse
 62
7
  6
CONTINUOUS
 10
16.9124237918
 20
-6.241032223
 30
0.0
 11
0.0493464685
 21
0.2491672984
 31
0.0
 40
0.9842259085
 41
0.1636613736
 42
0.1925076875
  0
ELLIPSE
  5
4A6
100
AcDbEntity
  8
RACCORDO
100
AcDbEllipse
 62
7
  6
CONTINUOUS
 10
16.612728564
 20
-6.241032223
 30
0.0
 11
-0.0493464685
 21
0.2491672984
 31
0.0
 40
0.9842259085
 41
-0.1925076875
 42
-0.1636613736
  0
ELLIPSE
  5
4A7
100
AcDbEntity
  8
RACCORDO
100
AcDbEllipse
 62
7
  6
CONTINUOUS
 10
-16.7875762082
 20
-6.241032223
 30
0.0
 11
0.0493464685
 21
0.2491672984
 31
0.0
 40
0.9842259085
 41
0.1636613736
 42
0.1925076875
  0
ELLIPSE
  5
4A8
100
AcDbEntity
  8
RACCORDO
100
AcDbEllipse
 62
7
  6
CONTINUOUS
 10
-17.087271436
 20
-6.241032223
 30
0.0
 11
-0.0493464685
 21
0.2491672984
 31
0.0
 40
0.9842259085
 41
-0.1925076875
 42
-0.1636613736
  0
ELLIPSE
  5
4A9
100
AcDbEntity
  8
RACCORDO
100
AcDbEllipse
 62
7
  6
CONTINUOUS
 10
16.3292858781
 20
-9.0607743439
 30
0.0
 11
-0.0
 21
0.2
 31
0.0
 40
0.0349207695
 41
-4.5716805217
 42
-3.2637657012
  0
ELLIPSE
  5
4AA
100
AcDbEntity
  8
RACCORDO
100
AcDbEllipse
 62
7
  6
CONTINUOUS
 10
19.3823152068
 20
3.3228244299
 30
0.0
 11
0.0
 21
88.5
 31
0.0
 40
0.0349207695
 41
-4.6218500038
 42
-4.5716805217
  0
ELLIPSE
  5
4AB
100
AcDbEntity
  8
RACCORDO
100
AcDbEllipse
 62
7
  6
CONTINUOUS
 10
17.1958664777
 20
-9.0607743439
 30
0.0
 11
0.0
 21
0.2
 31
0.0
 40
0.0349207695
 41
-3.0194196059
 42
-1.7115047855
  0
ELLIPSE
  5
4AC
100
AcDbEntity
  8
RACCORDO
100
AcDbEllipse
 62
7
  6
CONTINUOUS
 10
14.142837149
 20
3.3228244299
 30
0.0
 11
0.0
 21
88.5
 31
0.0
 40
0.0349207695
 41
-1.7115047855
 42
-1.6613353034
  0
ELLIPSE
  5
4AD
100
AcDbEntity
  8
RACCORDO
100
AcDbEllipse
 62
7
  6
CONTINUOUS
 10
-14.3176847932
 20
3.3228244299
 30
0.0
 11
0.0
 21
88.5
 31
0.0
 40
0.0349207695
 41
-4.6218500038
 42
-4.5699479865
  0
ELLIPSE
  5
4AE
100
AcDbEntity
  8
RACCORDO
100
AcDbEllipse
 62
7
  6
CONTINUOUS
 10
-19.557162851
 20
3.3228244299
 30
0.0
 11
0.0
 21
88.5
 31
0.0
 40
0.0349207695
 41
-1.7115047855
 42
-1.6613353034
  0
ELLIPSE
  5
4AF
100
AcDbEntity
  8
RACCORDO
100
AcDbEllipse
 62
7
  6
CONTINUOUS
 10
-16.5041335223
 20
-9.0607743439
 30
0.0
 11
0.0
 21
0.2
 31
0.0
 40
0.0349207695
 41
-3.0194196059
 42
-1.7115047855
  0
ELLIPSE
  5
4B0
100
AcDbEntity
  8
RACCORDO
100
AcDbEllipse
 62
7
  6
CONTINUOUS
 10
-5.5874238221
 20
-8.6545827868
 30
0.0
 11
0.0
 21
0.5915503958
 31
0.0
 40
0.4226182617
 41
-3.1415926536
 42
-1.5707963268
  0
ELLIPSE
  5
4B1
100
AcDbEntity
  8
RACCORDO
100
AcDbEllipse
 62
7
  6
CONTINUOUS
 10
3.8780462317
 20
-9.4775556409
 30
0.0
 11
0.2
 21
0.0
 31
0.0
 40
0.1227845609
 41
1.5707963268
 42
2.617993878
  0
ELLIPSE
  5
4B2
100
AcDbEntity
  8
RACCORDO
100
AcDbEllipse
 62
7
  6
CONTINUOUS
 10
10.0321723891
 20
11.1128244299
 30
0.0
 11
0.0
 21
498.5
 31
0.0
 40
0.0174550649
 41
-1.5826729913
 42
-1.5735511513
  0
ELLIPSE
  5
4B3
100
AcDbEntity
  8
RACCORDO
100
AcDbEllipse
 62
7
  6
CONTINUOUS
 10
15.0780462317
 20
-9.4775556409
 30
0.0
 11
0.2
 21
0.0
 31
0.0
 40
0.1227845609
 41
1.5707963268
 42
2.617993878
  0
ELLIPSE
  5
4B4
100
AcDbEntity
  8
RACCORDO
100
AcDbEllipse
 62
7
  6
CONTINUOUS
 10
-10.2070200333
 20
11.1128244299
 30
0.0
 11
0.0
 21
498.5
 31
0.0
 40
0.0174550649
 41
-4.7096341559
 42
-4.7005123158
  0
ELLIPSE
  5
4B5
100
AcDbEntity
  8
RACCORDO
100
AcDbEllipse
 62
7
  6
CONTINUOUS
 10
18.4471061241
 20
-9.4775556409
 30
0.0
 11
0.2
 21
-0.0
 31
0.0
 40
0.1227845609
 41
0.5235987756
 42
1.5707963268
  0
ELLIPSE
  5
4B6
100
AcDbEntity
  8
RACCORDO
100
AcDbEllipse
 62
7
  6
CONTINUOUS
 10
-26.7678276109
 20
11.1128244299
 30
0.0
 11
0.0
 21
498.5
 31
0.0
 40
0.0174550649
 41
-1.5826729913
 42
-1.5735511513
  0
ELLIPSE
  5
4B7
100
AcDbEntity
  8
RACCORDO
100
AcDbEllipse
 62
7
  6
CONTINUOUS
 10
7.2471061241
 20
-9.4775556409
 30
0.0
 11
0.2
 21
0.0
 31
0.0
 40
0.1227845609
 41
0.5235987756
 42
1.5707963268
  0
ELLIPSE
  5
4B8
100
AcDbEntity
  8
RACCORDO
100
AcDbEllipse
 62
7
  6
CONTINUOUS
 10
-4.0528938759
 20
-9.4775556409
 30
0.0
 11
0.2
 21
0.0
 31
0.0
 40
0.1227845609
 41
0.5235987756
 42
1.5707963268
  0
ELLIPSE
  5
4B9
100
AcDbEntity
  8
RACCORDO
100
AcDbEllipse
 62
7
  6
CONTINUOUS
 10
-7.4219537683
 20
-9.4775556409
 30
0.0
 11
0.2
 21
-0.0
 31
0.0
 40
0.1227845609
 41
1.5707963268
 42
2.617993878
  0
ELLIPSE
  5
4BA
100
AcDbEntity
  8
RACCORDO
100
AcDbEllipse
 62
7
  6
CONTINUOUS
 10
26.5929799667
 20
11.1128244299
 30
0.0
 11
0.0
 21
498.5
 31
0.0
 40
0.0174550649
 41
-4.7096341559
 42
-4.7005123158
  0
ELLIPSE
  5
4BB
100
AcDbEntity
  8
RACCORDO
100
AcDbEllipse
 62
7
  6
CONTINUOUS
 10
-18.6219537683
 20
-9.4775556409
 30
0.0
 11
0.2
 21
-0.0
 31
0.0
 40
0.1227845609
 41
1.5707963268
 42
2.617993878
  0
ELLIPSE
  5
4BC
100
AcDbEntity
  8
RACCORDO
100
AcDbEllipse
 62
7
  6
CONTINUOUS
 10
-15.2528938759
 20
-9.4775556409
 30
0.0
 11
0.2
 21
-0.0
 31
0.0
 40
0.1227845609
 41
0.5235987756
 42
1.5707963268
  0
ELLIPSE
  5
4BD
100
AcDbEntity
  8
RACCORDO
100
AcDbEllipse
 62
7
  6
CONTINUOUS
 10
-18.382233001
 20
9.7552227157
 30
0.0
 11
0.3
 21
-0.0
 31
0.0
 40
0.0174550649
 41
0.0174532925
 42
1.5707963268
  0
ELLIPSE
  5
4BE
100
AcDbEntity
  8
RACCORDO
100
AcDbEllipse
 62
7
  6
CONTINUOUS
 10
-18.5926146432
 20
9.7552227157
 30
0.0
 11
0.3
 21
0.0
 31
0.0
 40
0.0174550649
 41
1.5707963268
 42
3.1241393611
  0
ELLIPSE
  5
4BF
100
AcDbEntity
  8
RACCORDO
100
AcDbEllipse
 62
7
  6
CONTINUOUS
 10
18.417766999
 20
9.7552227157
 30
0.0
 11
0.3
 21
-0.0
 31
0.0
 40
0.0174550649
 41
0.0174532925
 42
1.5707963268
  0
ELLIPSE
  5
4C0
100
AcDbEntity
  8
RACCORDO
100
AcDbEllipse
 62
7
  6
CONTINUOUS
 10
18.2073853568
 20
9.7552227157
 30
0.0
 11
0.3
 21
-0.0
 31
0.0
 40
0.0174550649
 41
1.5707963268
 42
3.1241393611
  0
ELLIPSE
  5
4C1
100
AcDbEntity
  8
RACCORDO
100
AcDbEllipse
 62
7
  6
CONTINUOUS
 10
16.6336810257
 20
-8.6545827868
 30
0.0
 11
0.0096324734
 21
0.5915363915
 31
0.0
 40
0.4225722455
 41
-4.6738730357
 42
-3.1347116709
  0
ELLIPSE
  5
4C2
100
AcDbEntity
  8
RACCORDO
100
AcDbEllipse
 62
7
  6
CONTINUOUS
 10
16.8914713301
 20
-8.6545827868
 30
0.0
 11
-0.0096324734
 21
0.5915363915
 31
0.0
 40
0.4225722455
 41
-3.1484736363
 42
-1.6093122714
  0
ELLIPSE
  5
4C3
100
AcDbEntity
  8
RACCORDO
100
AcDbEllipse
 62
7
  6
CONTINUOUS
 10
-17.0663189743
 20
-8.6545827868
 30
0.0
 11
0.0096324734
 21
0.5915363915
 31
0.0
 40
0.4225722455
 41
-4.6738730357
 42
-3.1347116709
  0
ELLIPSE
  5
4C4
100
AcDbEntity
  8
RACCORDO
100
AcDbEllipse
 62
7
  6
CONTINUOUS
 10
-16.8085286699
 20
-8.6545827868
 30
0.0
 11
-0.0096324734
 21
0.5915363915
 31
0.0
 40
0.4225722455
 41
-3.1484736363
 42
-1.6093122714
  0
ELLIPSE
  5
4C5
100
AcDbEntity
  8
RACCORDO
100
AcDbEllipse
 62
7
  6
CONTINUOUS
 10
5.7125761779
 20
-8.6545827868
 30
0.0
 11
0.0
 21
0.5915503958
 31
0.0
 40
0.4226182617
 41
-3.1415926536
 42
-1.5707963268
  0
ELLIPSE
  5
4C6
100
AcDbEntity
  8
RACCORDO
100
AcDbEllipse
 62
7
  6
CONTINUOUS
 10
5.4125761779
 20
-8.6545827868
 30
0.0
 11
-0.0
 21
0.5915503958
 31
0.0
 40
0.4226182617
 41
-4.7123889804
 42
-3.1415926536
  0
ELLIPSE
  5
4C7
100
AcDbEntity
  8
RACCORDO
100
AcDbEllipse
 62
7
  6
CONTINUOUS
 10
-21.0373933565
 20
9.6127939643
 30
0.0
 11
-0.1414644378
 21
0.1414644378
 31
0.0
 40
0.9996954599
 41
-0.7852458701
 42
0.7852458702
  0
ELLIPSE
  5
4C8
100
AcDbEntity
  8
RACCORDO
100
AcDbEllipse
 62
7
  6
CONTINUOUS
 10
-21.0261394958
 20
-9.3565103162
 30
0.0
 11
0.1992395838
 21
0.0178260286
 31
0.0
 40
0.9965982379
 41
3.0541838845
 42
4.6228532963
  0
ELLIPSE
  5
4C9
100
AcDbEntity
  8
RACCORDO
100
AcDbEllipse
 62
7
  6
CONTINUOUS
 10
20.8512918516
 20
-9.3565103162
 30
0.0
 11
0.1992395838
 21
-0.0178260286
 31
0.0
 40
0.9965982379
 41
-1.4812606428
 42
0.0874087691
  0
ELLIPSE
  5
4CA
100
AcDbEntity
  8
RACCORDO
100
AcDbEllipse
 62
7
  6
CONTINUOUS
 10
-5.8874238221
 20
-8.6545827868
 30
0.0
 11
-0.0
 21
0.5915503958
 31
0.0
 40
0.4226182617
 41
1.5707963268
 42
3.1415926536
  0
ELLIPSE
  5
4CB
100
AcDbEntity
  8
RACCORDO
100
AcDbEllipse
 62
7
  6
CONTINUOUS
 10
20.8625457123
 20
9.6127939643
 30
0.0
 11
0.1414644378
 21
0.1414644378
 31
0.0
 40
0.9996954599
 41
-0.7852458701
 42
0.7852458702
  0
ENDSEC
  0
SECTION
  2
OBJECTS
  0
DICTIONARY
  5
C
100
AcDbDictionary
280
0
281
1
  3
ACAD_GROUP
350
D
  3
ACAD_MLINESTYLE
350
17
  3
ACAD_LAYOUT
350
1A
  3
ACAD_PLOTSETTINGS
350
19
  3
ACAD_PLOTSTYLENAME
350
E
  0
DICTIONARY
  5
D
102
{ACAD_REACTORS
330
C
102
}
100
AcDbDictionary
280
0
281
1
  0
ACDBDICTIONARYWDFLT
  5
E
102
{ACAD_REACTORS
330
C
102
}
100
AcDbDictionary
281
1
  3
Normal
350
F
100
AcDbDictionaryWithDefault
340
F
  0
DICTIONARY
  5
17
102
{ACAD_REACTORS
330
C
102
}
100
AcDbDictionary
280
0
281
1
  3
Standard
350
18
  0
DICTIONARY
  5
19
102
{ACAD_REACTORS
330
C
102
}
100
AcDbDictionary
281
1
  0
DICTIONARY
  5
1A
102
{ACAD_REACTORS
330
C
102
}
100
AcDbDictionary
281
1
  3
Model
350
4CC
  3
Layout1
350
4CD
  0
ACDBPLACEHOLDER
  5
F
102
{ACAD_REACTORS
330
E
102
}
  0
MLINESTYLE
  5
18
102
{ACAD_REACTORS
330
17
102
}
100
AcDbMlineStyle
  2
STANDARD
 70
0
  3

 62
256
 51
90.0
 52
90.0
 71
2
 49
0.5
 62
256
  6
BYLAYER
 49
-0.5
 62
256
  6
BYLAYER
  0
LAYOUT
  5
4CC
102
{ACAD_REACTORS
330
1A
102
}
100
AcDbPlotSettings
  1

  2
none_device
  4
ISO_A4_(297.00_x_210.00_MM)
  6

 40
0.0
 41
0.0
 42
0.0
 43
0.0
 44
297.0
 45
210.0
 46
0.0
 47
0.0
 48
0.0
 49
0.0
140
0.0
141
0.0
142
1.0
143
1.0
 70
1024
 72
1
 73
0
 74
0
  7

 75
0
147
1.0
148
0.0
149
0.0
100
AcDbLayout
  1
Model
 70
0
 71
0
 10
0.0
 20
0.0
 11
297.0
 21
210.0
 12
0.0
 22
0.0
 32
0.0
 14
0.0
 24
0.0
 34
0.0
 15
0.0
 25
0.0
 35
0.0
146
0.0
 13
0.0
 23
0.0
 33
0.0
 16
1.0
 26
0.0
 36
0.0
 17
0.0
 27
1.0
 37
0.0
 76
0
330
215
345
0
346
0
  0
LAYOUT
  5
4CD
102
{ACAD_REACTORS
330
1A
102
}
100
AcDbPlotSettings
  1

  2
none_device
  4
ISO_A4_(297.00_x_210.00_MM)
  6

 40
0.0
 41
0.0
 42
0.0
 43
0.0
 44
297.0
 45
210.0
 46
0.0
 47
0.0
 48
0.0
 49
0.0
140
0.0
141
0.0
142
1.0
143
1.0
 70
0
 72
1
 73
0
 74
0
  7

 75
0
147
1.0
148
0.0
149
0.0
100
AcDbLayout
  1
Layout1
 70
0
 71
1
 10
0.0
 20
0.0
 11
297.0
 21
210.0
 12
0.0
 22
0.0
 32
0.0
 14
0.0
 24
0.0
 34
0.0
 15
0.0
 25
0.0
 35
0.0
146
0.0
 13
0.0
 23
0.0
 33
0.0
 16
1.0
 26
0.0
 36
0.0
 17
0.0
 27
1.0
 37
0.0
 76
0
330
216
345
0
346
0
  0
ENDSEC
  0
EOF
